  0
SECTION
  2
HEADER
  9
$ACADVER
  1
AC1015
  9
$ACADMAINTVER
 70
    20
  9
$DWGCODEPAGE
  3
ANSI_932
  9
$INSBASE
 10
0.0
 20
0.0
 30
0.0
  9
$EXTMIN
 10
9.931029999999999
 20
9.999999999999998
 30
0.0
  9
$EXTMAX
 10
355.4310199999998
 20
268.379425
 30
0.0
  9
$LIMMIN
 10
0.0
 20
0.0
  9
$LIMMAX
 10
396.0
 20
273.0
  9
$ORTHOMODE
 70
     1
  9
$REGENMODE
 70
     1
  9
$FILLMODE
 70
     1
  9
$QTEXTMODE
 70
     0
  9
$MIRRTEXT
 70
     1
  9
$LTSCALE
 40
20.0
  9
$ATTMODE
 70
     1
  9
$TEXTSIZE
 40
5.0
  9
$TRACEWID
 40
1.0
  9
$TEXTSTYLE
  7
STANDARD
  9
$CLAYER
  8
0
  9
$CELTYPE
  6
BYLAYER
  9
$CECOLOR
 62
   256
  9
$CELTSCALE
 40
1.0
  9
$DISPSILH
 70
     0
  9
$DIMSCALE
 40
1.0
  9
$DIMASZ
 40
3.0
  9
$DIMEXO
 40
1.0
  9
$DIMDLI
 40
10.0
  9
$DIMRND
 40
0.0
  9
$DIMDLE
 40
0.0
  9
$DIMEXE
 40
1.0
  9
$DIMTP
 40
0.0
  9
$DIMTM
 40
0.0
  9
$DIMTXT
 40
3.2
  9
$DIMCEN
 40
0.0
  9
$DIMTSZ
 40
0.0
  9
$DIMTOL
 70
     0
  9
$DIMLIM
 70
     0
  9
$DIMTIH
 70
     0
  9
$DIMTOH
 70
     0
  9
$DIMSE1
 70
     0
  9
$DIMSE2
 70
     0
  9
$DIMTAD
 70
     3
  9
$DIMZIN
 70
     8
  9
$DIMBLK
  1

  9
$DIMASO
 70
     1
  9
$DIMSHO
 70
     1
  9
$DIMPOST
  1

  9
$DIMAPOST
  1

  9
$DIMALT
 70
     0
  9
$DIMALTD
 70
     2
  9
$DIMALTF
 40
25.4
  9
$DIMLFAC
 40
1.0
  9
$DIMTOFL
 70
     1
  9
$DIMTVP
 40
0.0
  9
$DIMTIX
 70
     0
  9
$DIMSOXD
 70
     0
  9
$DIMSAH
 70
     1
  9
$DIMBLK1
  1

  9
$DIMBLK2
  1

  9
$DIMSTYLE
  2
STANDARD
  9
$DIMCLRD
 70
     0
  9
$DIMCLRE
 70
     0
  9
$DIMCLRT
 70
     0
  9
$DIMTFAC
 40
1.0
  9
$DIMGAP
 40
1.0
  9
$DIMJUST
 70
     0
  9
$DIMSD1
 70
     0
  9
$DIMSD2
 70
     0
  9
$DIMTOLJ
 70
     1
  9
$DIMTZIN
 70
     0
  9
$DIMALTZ
 70
     0
  9
$DIMALTTZ
 70
     0
  9
$DIMUPT
 70
     0
  9
$DIMDEC
 70
     4
  9
$DIMTDEC
 70
     4
  9
$DIMALTU
 70
     2
  9
$DIMALTTD
 70
     2
  9
$DIMTXSTY
  7
STANDARD
  9
$DIMAUNIT
 70
     0
  9
$DIMADEC
 70
     0
  9
$DIMALTRND
 40
0.0
  9
$DIMAZIN
 70
     0
  9
$DIMDSEP
 70
    46
  9
$DIMATFIT
 70
     3
  9
$DIMFRAC
 70
     0
  9
$DIMLDRBLK
  1

  9
$DIMLUNIT
 70
     2
  9
$DIMLWD
 70
    -2
  9
$DIMLWE
 70
    -2
  9
$DIMTMOVE
 70
     0
  9
$LUNITS
 70
     2
  9
$LUPREC
 70
     4
  9
$SKETCHINC
 40
1.0
  9
$FILLETRAD
 40
0.0
  9
$AUNITS
 70
     0
  9
$AUPREC
 70
     2
  9
$MENU
  1
.
  9
$ELEVATION
 40
0.0
  9
$PELEVATION
 40
0.0
  9
$THICKNESS
 40
0.0
  9
$LIMCHECK
 70
     0
  9
$CHAMFERA
 40
1.0
  9
$CHAMFERB
 40
1.0
  9
$CHAMFERC
 40
0.0
  9
$CHAMFERD
 40
0.0
  9
$SKPOLY
 70
     0
  9
$TDCREATE
 40
2451066.549790162
  9
$TDUCREATE
 40
2451066.174790162
  9
$TDUPDATE
 40
2457192.601647141
  9
$TDUUPDATE
 40
2457192.226647141
  9
$TDINDWG
 40
0.0073453356
  9
$TDUSRTIMER
 40
0.0073450116
  9
$USRTIMER
 70
     1
  9
$ANGBASE
 50
0.0
  9
$ANGDIR
 70
     0
  9
$PDMODE
 70
     0
  9
$PDSIZE
 40
0.0
  9
$PLINEWID
 40
0.0
  9
$SPLFRAME
 70
     0
  9
$SPLINETYPE
 70
     6
  9
$SPLINESEGS
 70
     8
  9
$HANDSEED
  5
9CA1
  9
$SURFTAB1
 70
     6
  9
$SURFTAB2
 70
     6
  9
$SURFTYPE
 70
     6
  9
$SURFU
 70
     6
  9
$SURFV
 70
     6
  9
$UCSBASE
  2

  9
$UCSNAME
  2

  9
$UCSORG
 10
0.0
 20
0.0
 30
0.0
  9
$UCSXDIR
 10
1.0
 20
0.0
 30
0.0
  9
$UCSYDIR
 10
0.0
 20
1.0
 30
0.0
  9
$UCSORTHOREF
  2

  9
$UCSORTHOVIEW
 70
     0
  9
$UCSORGTOP
 10
0.0
 20
0.0
 30
0.0
  9
$UCSORGBOTTOM
 10
0.0
 20
0.0
 30
0.0
  9
$UCSORGLEFT
 10
0.0
 20
0.0
 30
0.0
  9
$UCSORGRIGHT
 10
0.0
 20
0.0
 30
0.0
  9
$UCSORGFRONT
 10
0.0
 20
0.0
 30
0.0
  9
$UCSORGBACK
 10
0.0
 20
0.0
 30
0.0
  9
$PUCSBASE
  2

  9
$PUCSNAME
  2

  9
$PUCSORG
 10
0.0
 20
0.0
 30
0.0
  9
$PUCSXDIR
 10
1.0
 20
0.0
 30
0.0
  9
$PUCSYDIR
 10
0.0
 20
1.0
 30
0.0
  9
$PUCSORTHOREF
  2

  9
$PUCSORTHOVIEW
 70
     0
  9
$PUCSORGTOP
 10
0.0
 20
0.0
 30
0.0
  9
$PUCSORGBOTTOM
 10
0.0
 20
0.0
 30
0.0
  9
$PUCSORGLEFT
 10
0.0
 20
0.0
 30
0.0
  9
$PUCSORGRIGHT
 10
0.0
 20
0.0
 30
0.0
  9
$PUCSORGFRONT
 10
0.0
 20
0.0
 30
0.0
  9
$PUCSORGBACK
 10
0.0
 20
0.0
 30
0.0
  9
$USERI1
 70
     0
  9
$USERI2
 70
     0
  9
$USERI3
 70
     0
  9
$USERI4
 70
     0
  9
$USERI5
 70
     0
  9
$USERR1
 40
0.0
  9
$USERR2
 40
0.0
  9
$USERR3
 40
0.0
  9
$USERR4
 40
0.0
  9
$USERR5
 40
0.0
  9
$WORLDVIEW
 70
     1
  9
$SHADEDGE
 70
     3
  9
$SHADEDIF
 70
    70
  9
$TILEMODE
 70
     1
  9
$MAXACTVP
 70
    16
  9
$PINSBASE
 10
0.0
 20
0.0
 30
0.0
  9
$PLIMCHECK
 70
     0
  9
$PEXTMIN
 10
1.000000000000000E+20
 20
1.000000000000000E+20
 30
1.000000000000000E+20
  9
$PEXTMAX
 10
-1.000000000000000E+20
 20
-1.000000000000000E+20
 30
-1.000000000000000E+20
  9
$PLIMMIN
 10
0.0
 20
0.0
  9
$PLIMMAX
 10
420.0
 20
297.0
  9
$UNITMODE
 70
     0
  9
$VISRETAIN
 70
     0
  9
$PLINEGEN
 70
     0
  9
$PSLTSCALE
 70
     0
  9
$TREEDEPTH
 70
  3020
  9
$CMLSTYLE
  2
STANDARD
  9
$CMLJUST
 70
     0
  9
$CMLSCALE
 40
1.0
  9
$PROXYGRAPHICS
 70
     1
  9
$MEASUREMENT
 70
     0
  9
$CELWEIGHT
370
    -1
  9
$ENDCAPS
280
     0
  9
$JOINSTYLE
280
     0
  9
$LWDISPLAY
290
     0
  9
$INSUNITS
 70
     0
  9
$HYPERLINKBASE
  1

  9
$STYLESHEET
  1

  9
$XEDIT
290
     1
  9
$CEPSNTYPE
380
     0
  9
$PSTYLEMODE
290
     1
  9
$FINGERPRINTGUID
  2
{34D73F32-ECF2-4866-A21A-61BE8966BC8A}
  9
$VERSIONGUID
  2
{45D64FB5-DFB8-40A4-B440-2CE5E2BA65A2}
  9
$EXTNAMES
290
     1
  9
$PSVPSCALE
 40
0.0
  9
$OLESTARTUP
290
     0
  0
ENDSEC
  0
SECTION
  2
CLASSES
  0
CLASS
  1
ACDBDICTIONARYWDFLT
  2
AcDbDictionaryWithDefault
  3
ObjectDBX Classes
 90
        0
280
     0
281
     0
  0
CLASS
  1
ACDBPLACEHOLDER
  2
AcDbPlaceHolder
  3
ObjectDBX Classes
 90
        0
280
     0
281
     0
  0
CLASS
  1
LAYOUT
  2
AcDbLayout
  3
ObjectDBX Classes
 90
        0
280
     0
281
     0
  0
CLASS
  1
DICTIONARYVAR
  2
AcDbDictionaryVar
  3
ObjectDBX Classes
 90
        0
280
     0
281
     0
  0
CLASS
  1
MATERIAL
  2
AcDbMaterial
  3
ObjectDBX Classes
 90
     1153
280
     0
281
     0
  0
CLASS
  1
VISUALSTYLE
  2
AcDbVisualStyle
  3
ObjectDBX Classes
 90
     4095
280
     0
281
     0
  0
CLASS
  1
TABLESTYLE
  2
AcDbTableStyle
  3
ObjectDBX Classes
 90
     4095
280
     0
281
     0
  0
CLASS
  1
SCALE
  2
AcDbScale
  3
ObjectDBX Classes
 90
     1153
280
     0
281
     0
  0
CLASS
  1
MLEADERSTYLE
  2
AcDbMLeaderStyle
  3
ACDB_MLEADERSTYLE_CLASS
 90
     4095
280
     0
281
     0
  0
CLASS
  1
ACDBSECTIONVIEWSTYLE
  2
AcDbSectionViewStyle
  3
ObjectDBX Classes
 90
     1025
280
     0
281
     0
  0
CLASS
  1
ACDBDETAILVIEWSTYLE
  2
AcDbDetailViewStyle
  3
ObjectDBX Classes
 90
     1025
280
     0
281
     0
  0
CLASS
  1
CELLSTYLEMAP
  2
AcDbCellStyleMap
  3
ObjectDBX Classes
 90
     1152
280
     0
281
     0
  0
ENDSEC
  0
SECTION
  2
TABLES
  0
TABLE
  2
VPORT
  5
98E7
330
0
100
AcDbSymbolTable
 70
     1
  0
VPORT
  5
9BEA
330
98E7
100
AcDbSymbolTableRecord
100
AcDbViewportTableRecord
  2
*ACTIVE
 70
     0
 10
0.0
 20
0.0
 11
1.0
 21
1.0
 12
260.9455664968243
 22
139.1868445108257
 13
0.0
 23
0.0
 14
10.0
 24
10.0
 15
10.0
 25
10.0
 16
0.0
 26
0.0
 36
1.0
 17
0.0
 27
0.0
 37
0.0
 40
261.2852333514747
 41
1.899603698811096
 42
50.0
 43
0.0
 44
0.0
 50
0.0
 51
0.0
 71
     0
 72
   100
 73
     1
 74
     0
 75
     0
 76
     0
 77
     0
 78
     0
281
     0
 65
     1
110
0.0
120
0.0
130
0.0
111
1.0
121
0.0
131
0.0
112
0.0
122
1.0
132
0.0
 79
     0
146
0.0
1001
ACAD_NAV_VCDISPLAY
1070
     3
  0
ENDTAB
  0
TABLE
  2
LTYPE
  5
98E4
330
0
100
AcDbSymbolTable
 70
     4
  0
LTYPE
  5
98F2
330
98E4
100
AcDbSymbolTableRecord
100
AcDbLinetypeTableRecord
  2
BYBLOCK
 70
     0
  3

 72
    65
 73
     0
 40
0.0
  0
LTYPE
  5
98F3
330
98E4
100
AcDbSymbolTableRecord
100
AcDbLinetypeTableRecord
  2
BYLAYER
 70
     0
  3

 72
    65
 73
     0
 40
0.0
  0
LTYPE
  5
98F4
330
98E4
100
AcDbSymbolTableRecord
100
AcDbLinetypeTableRecord
  2
CONTINUOUS
 70
     0
  3
Solid line
 72
    65
 73
     0
 40
0.0
  0
LTYPE
  5
9902
330
98E4
100
AcDbSymbolTableRecord
100
AcDbLinetypeTableRecord
  2
DASHED
 70
     0
  3
__ __ __ __ __ __ __ __ __ __ __ __ __ __ __ __
 72
    65
 73
     2
 40
0.75
 49
0.5
 74
     0
 49
-0.25
 74
     0
  0
LTYPE
  5
9903
330
98E4
100
AcDbSymbolTableRecord
100
AcDbLinetypeTableRecord
  2
CENTER
 70
     0
  3
____ _ ____ _ ____ _ ____ _ ____ _ ____ _ ____ 
 72
    65
 73
     4
 40
2.0
 49
1.25
 74
     0
 49
-0.25
 74
     0
 49
0.25
 74
     0
 49
-0.25
 74
     0
  0
LTYPE
  5
9904
330
98E4
100
AcDbSymbolTableRecord
100
AcDbLinetypeTableRecord
  2
PHANTOM
 70
     0
  3
______  __  __  ______  __  __  ______  __  __ 
 72
    65
 73
     6
 40
2.5
 49
1.25
 74
     0
 49
-0.25
 74
     0
 49
0.25
 74
     0
 49
-0.25
 74
     0
 49
0.25
 74
     0
 49
-0.25
 74
     0
  0
ENDTAB
  0
TABLE
  2
LAYER
  5
98E1
330
0
100
AcDbSymbolTable
 70
     8
  0
LAYER
  5
98EF
102
{ACAD_XDICTIONARY
360
9C45
102
}
330
98E1
100
AcDbSymbolTableRecord
100
AcDbLayerTableRecord
  2
0
 70
     0
 62
     7
  6
CONTINUOUS
370
    -3
390
9BF3
  0
LAYER
  5
9905
102
{ACAD_XDICTIONARY
360
9C47
102
}
330
98E1
100
AcDbSymbolTableRecord
100
AcDbLayerTableRecord
  2
4
 70
     0
 62
     1
  6
CENTER
370
    -3
390
9BF3
  0
LAYER
  5
9906
102
{ACAD_XDICTIONARY
360
9C49
102
}
330
98E1
100
AcDbSymbolTableRecord
100
AcDbLayerTableRecord
  2
5
 70
     0
 62
     6
  6
PHANTOM
370
    -3
390
9BF3
  0
LAYER
  5
9907
102
{ACAD_XDICTIONARY
360
9C4B
102
}
330
98E1
100
AcDbSymbolTableRecord
100
AcDbLayerTableRecord
  2
1
 70
     0
 62
     7
  6
CONTINUOUS
370
    -3
390
9BF3
  0
LAYER
  5
9908
102
{ACAD_XDICTIONARY
360
9C4D
102
}
330
98E1
100
AcDbSymbolTableRecord
100
AcDbLayerTableRecord
  2
2
 70
     0
 62
     4
  6
CONTINUOUS
370
    -3
390
9BF3
  0
LAYER
  5
9909
102
{ACAD_XDICTIONARY
360
9C4F
102
}
330
98E1
100
AcDbSymbolTableRecord
100
AcDbLayerTableRecord
  2
3
 70
     0
 62
     2
  6
DASHED
370
    -3
390
9BF3
  0
LAYER
  5
990A
102
{ACAD_XDICTIONARY
360
9C51
102
}
330
98E1
100
AcDbSymbolTableRecord
100
AcDbLayerTableRecord
  2
6
 70
     0
 62
     5
  6
CONTINUOUS
370
    -3
390
9BF3
  0
LAYER
  5
990B
102
{ACAD_XDICTIONARY
360
9C53
102
}
330
98E1
100
AcDbSymbolTableRecord
100
AcDbLayerTableRecord
  2
7
 70
     0
 62
     3
  6
CONTINUOUS
370
    -3
390
9BF3
  0
ENDTAB
  0
TABLE
  2
STYLE
  5
98E2
330
0
100
AcDbSymbolTable
 70
     1
  0
STYLE
  5
98F0
330
98E2
100
AcDbSymbolTableRecord
100
AcDbTextStyleTableRecord
  2
STANDARD
 70
     0
 40
0.0
 41
1.0
 50
0.0
 71
     0
 42
5.0
  3
txt
  4

  0
ENDTAB
  0
TABLE
  2
VIEW
  5
98E5
330
0
100
AcDbSymbolTable
 70
     0
  0
ENDTAB
  0
TABLE
  2
UCS
  5
98E6
330
0
100
AcDbSymbolTable
 70
     0
  0
ENDTAB
  0
TABLE
  2
APPID
  5
98E8
330
0
100
AcDbSymbolTable
 70
     3
  0
APPID
  5
98F1
330
98E8
100
AcDbSymbolTableRecord
100
AcDbRegAppTableRecord
  2
ACAD
 70
     0
  0
APPID
  5
9C5F
330
98E8
100
AcDbSymbolTableRecord
100
AcDbRegAppTableRecord
  2
ACAD_NAV_VCDISPLAY
 70
     0
  0
APPID
  5
9C98
330
98E8
100
AcDbSymbolTableRecord
100
AcDbRegAppTableRecord
  2
ACAD_MLEADERVER
 70
     0
  0
ENDTAB
  0
TABLE
  2
DIMSTYLE
  5
98E9
330
0
100
AcDbSymbolTable
 70
     1
100
AcDbDimStyleTable
 71
     0
  0
DIMSTYLE
105
990D
330
98E9
100
AcDbSymbolTableRecord
100
AcDbDimStyleTableRecord
  2
STANDARD
 70
     0
 41
3.0
 42
1.0
 43
10.0
 44
1.0
 73
     0
 74
     0
 77
     3
 78
     8
140
3.2
141
0.0
147
1.0
172
     1
173
     1
284
     8
285
     8
286
     8
340
98F0
  0
ENDTAB
  0
TABLE
  2
BLOCK_RECORD
  5
98E0
330
0
100
AcDbSymbolTable
 70
     0
  0
BLOCK_RECORD
  5
98FD
102
{ACAD_XDICTIONARY
360
9BED
102
}
330
98E0
100
AcDbSymbolTableRecord
100
AcDbBlockTableRecord
  2
*MODEL_SPACE
340
9C41
  0
BLOCK_RECORD
  5
98F9
102
{ACAD_XDICTIONARY
360
9BEB
102
}
330
98E0
100
AcDbSymbolTableRecord
100
AcDbBlockTableRecord
  2
*PAPER_SPACE
340
9C42
  0
ENDTAB
  0
ENDSEC
  0
SECTION
  2
BLOCKS
  0
BLOCK
  5
98FE
330
98FD
100
AcDbEntity
  8
0
100
AcDbBlockBegin
  2
*MODEL_SPACE
 70
     0
 10
0.0
 20
0.0
 30
0.0
  3
*MODEL_SPACE
  1

  0
ENDBLK
  5
98FF
330
98FD
100
AcDbEntity
  8
0
100
AcDbBlockEnd
  0
BLOCK
  5
98FA
330
98F9
100
AcDbEntity
 67
     1
  8
0
100
AcDbBlockBegin
  2
*PAPER_SPACE
 70
     0
 10
0.0
 20
0.0
 30
0.0
  3
*PAPER_SPACE
  1

  0
ENDBLK
  5
98FB
330
98F9
100
AcDbEntity
 67
     1
  8
0
100
AcDbBlockEnd
  0
ENDSEC
  0
SECTION
  2
ENTITIES
  0
TEXT
  5
9915
330
98FD
100
AcDbEntity
  8
7
  6
Continuous
100
AcDbText
 10
10.0
 20
18.0
 30
0.0
 40
3.0
  1
TYPE No.TL-32-1
100
AcDbText
  0
TEXT
  5
9916
330
98FD
100
AcDbEntity
  8
7
  6
Continuous
100
AcDbText
 10
10.0
 20
26.0
 30
0.0
 40
3.0
  1
CODE No.1113
100
AcDbText
  0
TEXT
  5
9917
330
98FD
100
AcDbEntity
  8
1
  6
Continuous
100
AcDbText
 10
10.0
 20
10.0
 30
0.0
 40
1.399999999999999
  1
LAYER
100
AcDbText
  0
TEXT
  5
9918
330
98FD
100
AcDbEntity
  8
1
  6
Continuous
100
AcDbText
 10
17.97951099999998
 20
10.04873699999998
 30
0.0
 40
1.399999999999999
  1
1
100
AcDbText
  0
TEXT
  5
9919
330
98FD
100
AcDbEntity
  8
7
  6
Continuous
100
AcDbText
 10
29.97951099999999
 20
10.04873699999998
 30
0.0
 40
1.399999999999999
  1
7
100
AcDbText
  0
TEXT
  5
991A
330
98FD
100
AcDbEntity
  8
4
  6
CENTER
100
AcDbText
 10
23.97951099999999
 20
10.04873699999998
 30
0.0
 40
1.399999999999999
  1
4
100
AcDbText
  0
TEXT
  5
991B
330
98FD
100
AcDbEntity
  8
3
  6
DASHED
100
AcDbText
 10
21.979511
 20
10.04873699999998
 30
0.0
 40
1.399999999999999
  1
3
100
AcDbText
  0
TEXT
  5
991C
330
98FD
100
AcDbEntity
  8
2
  6
Continuous
100
AcDbText
 10
19.97951099999999
 20
10.04873699999998
 30
0.0
 40
1.399999999999999
  1
2
100
AcDbText
  0
TEXT
  5
991D
330
98FD
100
AcDbEntity
  8
6
  6
Continuous
100
AcDbText
 10
27.979511
 20
10.04873699999998
 30
0.0
 40
1.399999999999999
  1
6
100
AcDbText
  0
TEXT
  5
991E
330
98FD
100
AcDbEntity
  8
5
  6
PHANTOM
100
AcDbText
 10
25.97951099999999
 20
10.04873699999998
 30
0.0
 40
1.399999999999999
  1
5
100
AcDbText
  0
LINE
  5
991F
330
98FD
100
AcDbEntity
  8
4
  6
CENTER
100
AcDbLine
 10
155.4310199999999
 20
170.7794189999999
 30
0.0
 11
155.4310199999999
 21
128.7794189999999
 31
0.0
  0
LINE
  5
9920
330
98FD
100
AcDbEntity
  8
4
  6
CENTER
100
AcDbLine
 10
165.4310199999999
 20
149.779419
 30
0.0
 11
145.4310199999999
 21
149.779419
 31
0.0
  0
LINE
  5
9921
330
98FD
100
AcDbEntity
  8
1
  6
Continuous
100
AcDbLine
 10
161.031026
 20
161.7794189999998
 30
0.0
 11
149.8310299999999
 21
161.7794189999998
 31
0.0
  0
LINE
  5
9922
330
98FD
100
AcDbEntity
  8
1
  6
Continuous
100
AcDbLine
 10
161.031026
 20
133.7794189999998
 30
0.0
 11
149.8310299999999
 21
133.7794189999998
 31
0.0
  0
LINE
  5
9923
330
98FD
100
AcDbEntity
  8
4
  6
CENTER
100
AcDbLine
 10
158.7310389999998
 20
139.7794189999999
 30
0.0
 11
152.131033
 21
139.7794189999999
 31
0.0
  0
LINE
  5
9924
330
98FD
100
AcDbEntity
  8
1
  6
Continuous
100
AcDbLine
 10
160.3310199999999
 20
165.7794189999999
 30
0.0
 11
150.5310199999998
 21
165.7794189999999
 31
0.0
  0
LINE
  5
9925
330
98FD
100
AcDbEntity
  8
1
  6
Continuous
100
AcDbLine
 10
161.724783
 20
42.32941199999999
 30
0.0
 11
161.031026
 21
42.32941199999999
 31
0.0
  0
LINE
  5
9926
330
98FD
100
AcDbEntity
  8
1
  6
Continuous
100
AcDbLine
 10
161.724783
 20
37.82941199999999
 30
0.0
 11
161.031026
 21
37.82941199999999
 31
0.0
  0
LINE
  5
9927
330
98FD
100
AcDbEntity
  8
1
  6
Continuous
100
AcDbLine
 10
275.4310199999999
 20
161.7794189999998
 30
0.0
 11
285.9310199999999
 21
161.7794189999998
 31
0.0
  0
LINE
  5
9928
330
98FD
100
AcDbEntity
  8
1
  6
Continuous
100
AcDbLine
 10
275.4310199999999
 20
133.7794189999998
 30
0.0
 11
285.9310199999999
 21
133.7794189999998
 31
0.0
  0
LINE
  5
9929
330
98FD
100
AcDbEntity
  8
1
  6
Continuous
100
AcDbLine
 10
275.4310199999999
 20
161.7794189999998
 30
0.0
 11
275.4310199999999
 21
133.7794189999998
 31
0.0
  0
LINE
  5
992A
330
98FD
100
AcDbEntity
  8
1
  6
Continuous
100
AcDbLine
 10
285.9310199999999
 20
161.7794189999998
 30
0.0
 11
285.9310199999999
 21
133.7794189999998
 31
0.0
  0
LINE
  5
992B
330
98FD
100
AcDbEntity
  8
1
  6
Continuous
100
AcDbLine
 10
280.4310199999999
 20
165.7794189999999
 30
0.0
 11
281.4310199999999
 21
165.7794189999999
 31
0.0
  0
LINE
  5
992C
330
98FD
100
AcDbEntity
  8
1
  6
Continuous
100
AcDbLine
 10
280.4310199999999
 20
165.7794189999999
 30
0.0
 11
280.4310199999999
 21
161.7794189999998
 31
0.0
  0
LINE
  5
992D
330
98FD
100
AcDbEntity
  8
1
  6
Continuous
100
AcDbLine
 10
281.4310199999999
 20
165.7794039999998
 30
0.0
 11
284.631033
 21
161.7794039999998
 31
0.0
  0
LINE
  5
992E
330
98FD
100
AcDbEntity
  8
4
  6
CENTER
100
AcDbLine
 10
145.93102
 20
157.7794189999998
 30
0.0
 11
164.9310199999999
 21
157.7794189999998
 31
0.0
  0
LINE
  5
992F
330
98FD
100
AcDbEntity
  8
4
  6
CENTER
100
AcDbLine
 10
145.93102
 20
137.7794189999999
 30
0.0
 11
152.4310199999999
 21
137.7794189999999
 31
0.0
  0
LINE
  5
9930
330
98FD
100
AcDbEntity
  8
4
  6
CENTER
100
AcDbLine
 10
158.43102
 20
137.7794189999999
 30
0.0
 11
164.9310199999999
 21
137.7794189999999
 31
0.0
  0
LINE
  5
9931
330
98FD
100
AcDbEntity
  8
4
  6
CENTER
100
AcDbLine
 10
278.131033
 20
162.0294189999999
 30
0.0
 11
278.131033
 21
153.5294189999999
 31
0.0
  0
LINE
  5
9932
330
98FD
100
AcDbEntity
  8
4
  6
CENTER
100
AcDbLine
 10
273.881033
 20
157.7794189999998
 30
0.0
 11
282.381033
 21
157.7794189999998
 31
0.0
  0
LINE
  5
9933
330
98FD
100
AcDbEntity
  8
4
  6
CENTER
100
AcDbLine
 10
278.131033
 20
142.0294189999999
 30
0.0
 11
278.131033
 21
133.5294189999999
 31
0.0
  0
LINE
  5
9934
330
98FD
100
AcDbEntity
  8
4
  6
CENTER
100
AcDbLine
 10
273.881033
 20
137.7794189999999
 30
0.0
 11
282.381033
 21
137.7794189999999
 31
0.0
  0
LINE
  5
9935
330
98FD
100
AcDbEntity
  8
4
  6
CENTER
100
AcDbLine
 10
155.4310199999999
 20
268.379425
 30
0.0
 11
155.4310199999999
 21
247.8794249999999
 31
0.0
  0
LINE
  5
9936
330
98FD
100
AcDbEntity
  8
1
  6
Continuous
100
AcDbLine
 10
149.8310299999999
 20
262.779419
 30
0.0
 11
149.8310299999999
 21
252.7794189999999
 31
0.0
  0
LINE
  5
9937
330
98FD
100
AcDbEntity
  8
1
  6
Continuous
100
AcDbLine
 10
161.031026
 20
262.779419
 30
0.0
 11
161.031026
 21
252.7794189999999
 31
0.0
  0
LINE
  5
9938
330
98FD
100
AcDbEntity
  8
1
  6
Continuous
100
AcDbLine
 10
150.4310199999999
 20
262.779419
 30
0.0
 11
150.4310199999999
 21
252.7794189999999
 31
0.0
  0
LINE
  5
9939
330
98FD
100
AcDbEntity
  8
1
  6
Continuous
100
AcDbLine
 10
160.43102
 20
262.779419
 30
0.0
 11
160.43102
 21
252.7794189999999
 31
0.0
  0
LINE
  5
993A
330
98FD
100
AcDbEntity
  8
1
  6
Continuous
100
AcDbLine
 10
160.431036
 20
263.379425
 30
0.0
 11
150.4310199999999
 21
263.379425
 31
0.0
  0
LINE
  5
993B
330
98FD
100
AcDbEntity
  8
4
  6
CENTER
100
AcDbLine
 10
163.0310259999999
 20
255.4794069999999
 30
0.0
 11
158.43102
 21
255.4794069999999
 31
0.0
  0
LINE
  5
993C
330
98FD
100
AcDbEntity
  8
4
  6
CENTER
100
AcDbLine
 10
152.4310199999999
 20
255.4794069999999
 30
0.0
 11
147.8310299999999
 21
255.4794069999999
 31
0.0
  0
LINE
  5
993D
330
98FD
100
AcDbEntity
  8
1
  6
Continuous
100
AcDbLine
 10
149.8310299999999
 20
161.7794189999998
 30
0.0
 11
149.8310299999999
 21
151.933487
 31
0.0
  0
LINE
  5
993E
330
98FD
100
AcDbEntity
  8
1
  6
Continuous
100
AcDbLine
 10
150.5310199999998
 20
165.7794189999999
 30
0.0
 11
150.5310199999998
 21
161.7794189999998
 31
0.0
  0
LINE
  5
993F
330
98FD
100
AcDbEntity
  8
1
  6
Continuous
100
AcDbLine
 10
160.3310199999999
 20
165.7794189999999
 30
0.0
 11
160.3310199999999
 21
161.7794189999998
 31
0.0
  0
LINE
  5
9940
330
98FD
100
AcDbEntity
  8
1
  6
Continuous
100
AcDbLine
 10
161.031026
 20
161.7794189999998
 30
0.0
 11
161.031026
 21
151.933456
 31
0.0
  0
LINE
  5
9941
330
98FD
100
AcDbEntity
  8
1
  6
Continuous
100
AcDbLine
 10
158.3652999999999
 20
150.779419
 30
0.0
 11
152.4967399999999
 21
150.779419
 31
0.0
  0
LINE
  5
9942
330
98FD
100
AcDbEntity
  8
1
  6
Continuous
100
AcDbLine
 10
158.5310199999999
 20
149.779419
 30
0.0
 11
152.33102
 21
149.779419
 31
0.0
  0
LINE
  5
9943
330
98FD
100
AcDbEntity
  8
1
  6
Continuous
100
AcDbLine
 10
160.43102
 20
262.779419
 30
0.0
 11
150.4310199999999
 21
262.779419
 31
0.0
  0
LINE
  5
9944
330
98FD
100
AcDbEntity
  8
1
  6
Continuous
100
AcDbLine
 10
160.43102
 20
257.779419
 30
0.0
 11
150.4310199999999
 21
257.779419
 31
0.0
  0
LINE
  5
9945
330
98FD
100
AcDbEntity
  8
1
  6
Continuous
100
AcDbLine
 10
160.43102
 20
258.779419
 30
0.0
 11
150.4310199999999
 21
258.779419
 31
0.0
  0
LINE
  5
9946
330
98FD
100
AcDbEntity
  8
1
  6
Continuous
100
AcDbLine
 10
161.031026
 20
252.7794189999999
 30
0.0
 11
149.8310299999999
 21
252.7794189999999
 31
0.0
  0
LINE
  5
9947
330
98FD
100
AcDbEntity
  8
1
  6
Continuous
100
AcDbLine
 10
160.431036
 20
252.879425
 30
0.0
 11
160.43102
 21
252.879425
 31
0.0
  0
LINE
  5
9948
330
98FD
100
AcDbEntity
  8
1
  6
Continuous
100
AcDbLine
 10
150.4310199999999
 20
252.7794249999999
 30
0.0
 11
150.4310199999999
 21
252.7794249999999
 31
0.0
  0
LINE
  5
9949
330
98FD
100
AcDbEntity
  8
1
  6
Continuous
100
AcDbLine
 10
25.431028
 20
161.7794189999998
 30
0.0
 11
14.93102999999998
 21
161.7794189999998
 31
0.0
  0
LINE
  5
994A
330
98FD
100
AcDbEntity
  8
1
  6
Continuous
100
AcDbLine
 10
25.431028
 20
133.7794189999998
 30
0.0
 11
14.93102999999998
 21
133.7794189999998
 31
0.0
  0
LINE
  5
994B
330
98FD
100
AcDbEntity
  8
1
  6
Continuous
100
AcDbLine
 10
25.431028
 20
161.7794189999998
 30
0.0
 11
25.431028
 21
133.7794189999998
 31
0.0
  0
LINE
  5
994C
330
98FD
100
AcDbEntity
  8
1
  6
Continuous
100
AcDbLine
 10
14.93102999999998
 20
161.7794189999998
 30
0.0
 11
14.93102999999998
 21
133.7794189999998
 31
0.0
  0
LINE
  5
994D
330
98FD
100
AcDbEntity
  8
1
  6
Continuous
100
AcDbLine
 10
20.431028
 20
165.7794189999999
 30
0.0
 11
19.431028
 21
165.7794189999999
 31
0.0
  0
LINE
  5
994E
330
98FD
100
AcDbEntity
  8
1
  6
Continuous
100
AcDbLine
 10
20.431028
 20
165.7794189999999
 30
0.0
 11
20.431028
 21
161.7794189999998
 31
0.0
  0
LINE
  5
994F
330
98FD
100
AcDbEntity
  8
1
  6
Continuous
100
AcDbLine
 10
19.431024
 20
165.7794039999998
 30
0.0
 11
16.23102699999999
 21
161.7794189999998
 31
0.0
  0
LINE
  5
9950
330
98FD
100
AcDbEntity
  8
4
  6
CENTER
100
AcDbLine
 10
22.73101599999999
 20
162.0294189999999
 30
0.0
 11
22.73101599999999
 21
153.5294189999999
 31
0.0
  0
LINE
  5
9951
330
98FD
100
AcDbEntity
  8
4
  6
CENTER
100
AcDbLine
 10
26.98101599999999
 20
157.7794189999998
 30
0.0
 11
18.481016
 21
157.7794189999998
 31
0.0
  0
LINE
  5
9952
330
98FD
100
AcDbEntity
  8
4
  6
CENTER
100
AcDbLine
 10
22.73101599999999
 20
142.0294189999999
 30
0.0
 11
22.73101599999999
 21
133.5294189999999
 31
0.0
  0
LINE
  5
9953
330
98FD
100
AcDbEntity
  8
4
  6
CENTER
100
AcDbLine
 10
26.98101599999999
 20
137.7794189999999
 30
0.0
 11
18.481016
 21
137.7794189999999
 31
0.0
  0
LINE
  5
9954
330
98FD
100
AcDbEntity
  8
1
  6
Continuous
100
AcDbLine
 10
17.931028
 20
148.7794189999999
 30
0.0
 11
16.43102999999999
 21
148.7794189999999
 31
0.0
  0
LINE
  5
9955
330
98FD
100
AcDbEntity
  8
1
  6
Continuous
100
AcDbLine
 10
16.43102999999999
 20
150.4794159999998
 30
0.0
 11
16.43102999999999
 21
148.7794189999999
 31
0.0
  0
LINE
  5
9956
330
98FD
100
AcDbEntity
  8
1
  6
Continuous
100
AcDbLine
 10
17.931028
 20
150.4794159999998
 30
0.0
 11
17.931028
 21
148.7794189999999
 31
0.0
  0
LINE
  5
9957
330
98FD
100
AcDbEntity
  8
1
  6
Continuous
100
AcDbLine
 10
17.931028
 20
150.4794159999998
 30
0.0
 11
16.43102999999999
 21
150.4794159999998
 31
0.0
  0
LINE
  5
9958
330
98FD
100
AcDbEntity
  8
1
  6
Continuous
100
AcDbLine
 10
282.93102
 20
150.4794159999998
 30
0.0
 11
284.4310199999999
 21
150.4794159999998
 31
0.0
  0
LINE
  5
9959
330
98FD
100
AcDbEntity
  8
1
  6
Continuous
100
AcDbLine
 10
282.93102
 20
148.7794189999999
 30
0.0
 11
284.4310199999999
 21
148.7794189999999
 31
0.0
  0
LINE
  5
995A
330
98FD
100
AcDbEntity
  8
1
  6
Continuous
100
AcDbLine
 10
284.4310199999999
 20
150.4794159999998
 30
0.0
 11
284.4310199999999
 21
148.7794189999999
 31
0.0
  0
LINE
  5
995B
330
98FD
100
AcDbEntity
  8
1
  6
Continuous
100
AcDbLine
 10
282.93102
 20
150.4794159999998
 30
0.0
 11
282.93102
 21
148.7794189999999
 31
0.0
  0
LINE
  5
995C
330
98FD
100
AcDbEntity
  8
1
  6
Continuous
100
AcDbLine
 10
149.8310299999999
 20
42.77941099999997
 30
0.0
 11
149.8310299999999
 21
32.87941
 31
0.0
  0
LINE
  5
995D
330
98FD
100
AcDbEntity
  8
1
  6
Continuous
100
AcDbLine
 10
161.031026
 20
42.77941099999997
 30
0.0
 11
161.031026
 21
32.87941
 31
0.0
  0
LINE
  5
995E
330
98FD
100
AcDbEntity
  8
1
  6
Continuous
100
AcDbLine
 10
161.031026
 20
42.77941099999997
 30
0.0
 11
149.8310299999999
 21
42.77941099999997
 31
0.0
  0
LINE
  5
995F
330
98FD
100
AcDbEntity
  8
1
  6
Continuous
100
AcDbLine
 10
160.431036
 20
32.27941099999998
 30
0.0
 11
150.4310199999999
 21
32.27941099999998
 31
0.0
  0
LINE
  5
9960
330
98FD
100
AcDbEntity
  8
1
  6
Continuous
100
AcDbLine
 10
150.4310199999999
 20
42.77941099999997
 30
0.0
 11
150.4310199999999
 21
32.87941
 31
0.0
  0
LINE
  5
9961
330
98FD
100
AcDbEntity
  8
1
  6
Continuous
100
AcDbLine
 10
160.431036
 20
42.77941099999997
 30
0.0
 11
160.431036
 21
32.87941
 31
0.0
  0
LINE
  5
9962
330
98FD
100
AcDbEntity
  8
1
  6
Continuous
100
AcDbLine
 10
160.431036
 20
36.77941099999999
 30
0.0
 11
150.4310199999999
 21
36.77941099999999
 31
0.0
  0
LINE
  5
9963
330
98FD
100
AcDbEntity
  8
1
  6
Continuous
100
AcDbLine
 10
160.431036
 20
37.77941099999999
 30
0.0
 11
150.4310199999999
 21
37.77941099999999
 31
0.0
  0
LINE
  5
9964
330
98FD
100
AcDbEntity
  8
1
  6
Continuous
100
AcDbLine
 10
341.8168239999999
 20
148.7794189999999
 30
0.0
 11
349.0452169999999
 21
148.7794189999999
 31
0.0
  0
LINE
  5
9965
330
98FD
100
AcDbEntity
  8
1
  6
Continuous
100
AcDbLine
 10
344.0847069999999
 20
146.2794189999998
 30
0.0
 11
346.7773339999998
 21
146.2794189999998
 31
0.0
  0
LINE
  5
9966
330
98FD
100
AcDbEntity
  8
1
  6
Continuous
100
AcDbLine
 10
341.8168239999999
 20
150.779419
 30
0.0
 11
349.0452169999999
 21
150.779419
 31
0.0
  0
LINE
  5
9967
330
98FD
100
AcDbEntity
  8
1
  6
Continuous
100
AcDbLine
 10
222.6117299999999
 20
155.779404
 30
0.0
 11
221.11173
 21
155.779404
 31
0.0
  0
LINE
  5
9968
330
98FD
100
AcDbEntity
  8
1
  6
Continuous
100
AcDbLine
 10
222.6117299999999
 20
143.7794039999998
 30
0.0
 11
221.11173
 21
143.7794039999998
 31
0.0
  0
LINE
  5
9969
330
98FD
100
AcDbEntity
  8
1
  6
Continuous
100
AcDbLine
 10
220.1116999999999
 20
154.779404
 30
0.0
 11
220.1116999999999
 21
144.7794039999998
 31
0.0
  0
LINE
  5
996A
330
98FD
100
AcDbEntity
  8
1
  6
Continuous
100
AcDbLine
 10
223.1117
 20
155.779404
 30
0.0
 11
223.1117
 21
143.7794039999998
 31
0.0
  0
LINE
  5
996B
330
98FD
100
AcDbEntity
  8
4
  6
CENTER
100
AcDbLine
 10
233.1117299999999
 20
149.779404
 30
0.0
 11
215.11173
 21
149.779404
 31
0.0
  0
LINE
  5
996C
330
98FD
100
AcDbEntity
  8
1
  6
Continuous
100
AcDbLine
 10
227.1117
 20
153.779404
 30
0.0
 11
223.711718
 21
153.779404
 31
0.0
  0
LINE
  5
996D
330
98FD
100
AcDbEntity
  8
1
  6
Continuous
100
AcDbLine
 10
227.1117
 20
145.779404
 30
0.0
 11
223.711718
 21
145.779404
 31
0.0
  0
LINE
  5
996E
330
98FD
100
AcDbEntity
  8
1
  6
Continuous
100
AcDbLine
 10
220.1116999999999
 20
144.7794189999999
 30
0.0
 11
221.1117
 21
143.7794189999999
 31
0.0
  0
LINE
  5
996F
330
98FD
100
AcDbEntity
  8
1
  6
Continuous
100
AcDbLine
 10
220.111745
 20
154.7794189999999
 30
0.0
 11
221.111745
 21
155.7794189999999
 31
0.0
  0
LINE
  5
9970
330
98FD
100
AcDbEntity
  8
1
  6
Continuous
100
AcDbLine
 10
223.11173
 20
144.2794189999998
 30
0.0
 11
222.611745
 21
143.779434
 31
0.0
  0
LINE
  5
9971
330
98FD
100
AcDbEntity
  8
1
  6
Continuous
100
AcDbLine
 10
223.1117
 20
155.279449
 30
0.0
 11
222.6117149999998
 21
155.779434
 31
0.0
  0
LINE
  5
9972
330
98FD
100
AcDbEntity
  8
2
  6
Continuous
100
AcDbLine
 10
227.517706
 20
153.373398
 30
0.0
 11
223.711718
 21
153.373398
 31
0.0
  0
LINE
  5
9973
330
98FD
100
AcDbEntity
  8
2
  6
Continuous
100
AcDbLine
 10
227.517706
 20
146.1854099999999
 30
0.0
 11
223.711718
 21
146.1854099999999
 31
0.0
  0
LINE
  5
9974
330
98FD
100
AcDbEntity
  8
1
  6
Continuous
100
AcDbLine
 10
222.6117
 20
155.779404
 30
0.0
 11
222.6117
 21
143.7794039999998
 31
0.0
  0
LINE
  5
9975
330
98FD
100
AcDbEntity
  8
1
  6
Continuous
100
AcDbLine
 10
221.1117
 20
143.7794039999998
 30
0.0
 11
221.1117
 21
155.779404
 31
0.0
  0
LINE
  5
9976
330
98FD
100
AcDbEntity
  8
1
  6
Continuous
100
AcDbLine
 10
222.6117299999999
 20
154.979385
 30
0.0
 11
221.11173
 21
154.979385
 31
0.0
  0
LINE
  5
9977
330
98FD
100
AcDbEntity
  8
1
  6
Continuous
100
AcDbLine
 10
222.6117299999999
 20
154.179398
 30
0.0
 11
221.11173
 21
154.179398
 31
0.0
  0
LINE
  5
9978
330
98FD
100
AcDbEntity
  8
1
  6
Continuous
100
AcDbLine
 10
222.6117299999999
 20
153.37941
 30
0.0
 11
221.11173
 21
153.37941
 31
0.0
  0
LINE
  5
9979
330
98FD
100
AcDbEntity
  8
1
  6
Continuous
100
AcDbLine
 10
222.6117299999999
 20
152.5793909999999
 30
0.0
 11
221.11173
 21
152.5793909999999
 31
0.0
  0
LINE
  5
997A
330
98FD
100
AcDbEntity
  8
1
  6
Continuous
100
AcDbLine
 10
222.6117299999999
 20
151.779404
 30
0.0
 11
221.11173
 21
151.779404
 31
0.0
  0
LINE
  5
997B
330
98FD
100
AcDbEntity
  8
1
  6
Continuous
100
AcDbLine
 10
222.6117299999999
 20
150.979385
 30
0.0
 11
221.11173
 21
150.979385
 31
0.0
  0
LINE
  5
997C
330
98FD
100
AcDbEntity
  8
1
  6
Continuous
100
AcDbLine
 10
222.6117299999999
 20
150.1793979999999
 30
0.0
 11
221.11173
 21
150.1793979999999
 31
0.0
  0
LINE
  5
997D
330
98FD
100
AcDbEntity
  8
1
  6
Continuous
100
AcDbLine
 10
222.6117299999999
 20
149.37941
 30
0.0
 11
221.11173
 21
149.37941
 31
0.0
  0
LINE
  5
997E
330
98FD
100
AcDbEntity
  8
1
  6
Continuous
100
AcDbLine
 10
222.6117299999999
 20
148.5793909999999
 30
0.0
 11
221.11173
 21
148.5793909999999
 31
0.0
  0
LINE
  5
997F
330
98FD
100
AcDbEntity
  8
1
  6
Continuous
100
AcDbLine
 10
222.6117299999999
 20
147.779404
 30
0.0
 11
221.11173
 21
147.779404
 31
0.0
  0
LINE
  5
9980
330
98FD
100
AcDbEntity
  8
1
  6
Continuous
100
AcDbLine
 10
222.6117299999999
 20
146.979385
 30
0.0
 11
221.11173
 21
146.979385
 31
0.0
  0
LINE
  5
9981
330
98FD
100
AcDbEntity
  8
1
  6
Continuous
100
AcDbLine
 10
222.6117299999999
 20
146.1793979999999
 30
0.0
 11
221.11173
 21
146.1793979999999
 31
0.0
  0
LINE
  5
9982
330
98FD
100
AcDbEntity
  8
1
  6
Continuous
100
AcDbLine
 10
222.6117299999999
 20
145.37941
 30
0.0
 11
221.11173
 21
145.37941
 31
0.0
  0
LINE
  5
9983
330
98FD
100
AcDbEntity
  8
1
  6
Continuous
100
AcDbLine
 10
222.6117299999999
 20
144.5793909999999
 30
0.0
 11
221.11173
 21
144.5793909999999
 31
0.0
  0
LINE
  5
9984
330
98FD
100
AcDbEntity
  8
1
  6
Continuous
100
AcDbLine
 10
223.711687
 20
155.779404
 30
0.0
 11
223.711687
 21
143.7794039999998
 31
0.0
  0
LINE
  5
9985
330
98FD
100
AcDbEntity
  8
1
  6
Continuous
100
AcDbLine
 10
223.711718
 20
143.7794039999998
 30
0.0
 11
223.11173
 21
143.7794039999998
 31
0.0
  0
LINE
  5
9986
330
98FD
100
AcDbEntity
  8
1
  6
Continuous
100
AcDbLine
 10
223.711718
 20
155.779404
 30
0.0
 11
223.11173
 21
155.779404
 31
0.0
  0
LINE
  5
9987
330
98FD
100
AcDbEntity
  8
1
  6
Continuous
100
AcDbLine
 10
22.311033
 20
142.643326
 30
0.0
 11
22.311033
 21
141.2573549999999
 31
0.0
  0
LINE
  5
9988
330
98FD
100
AcDbEntity
  8
1
  6
Continuous
100
AcDbLine
 10
22.311033
 20
141.9534149999998
 30
0.0
 11
20.551023
 21
141.9534149999998
 31
0.0
  0
LINE
  5
9989
330
98FD
100
AcDbEntity
  8
1
  6
Continuous
100
AcDbLine
 10
21.073881
 20
143.7722629999998
 30
0.0
 11
21.073881
 21
142.812576
 31
0.0
  0
LINE
  5
998A
330
98FD
100
AcDbEntity
  8
1
  6
Continuous
100
AcDbLine
 10
22.346098
 20
143.284454
 30
0.0
 11
20.54462999999999
 21
142.6180569999999
 31
0.0
  0
LINE
  5
998B
330
98FD
100
AcDbEntity
  8
1
  6
Continuous
100
AcDbLine
 10
22.311033
 20
145.2534179999998
 30
0.0
 11
20.551023
 21
145.2534179999998
 31
0.0
  0
LINE
  5
998C
330
98FD
100
AcDbEntity
  8
1
  6
Continuous
100
AcDbLine
 10
22.311033
 20
145.2534179999998
 30
0.0
 11
22.311033
 21
144.576874
 31
0.0
  0
LINE
  5
998D
330
98FD
100
AcDbEntity
  8
1
  6
Continuous
100
AcDbLine
 10
22.342897
 20
143.2844849999999
 30
0.0
 11
20.544611
 21
143.982697
 31
0.0
  0
LINE
  5
998E
330
98FD
100
AcDbEntity
  8
1
  6
Continuous
100
AcDbLine
 10
21.431028
 20
145.2534179999998
 30
0.0
 11
21.431028
 21
144.5639649999999
 31
0.0
  0
LINE
  5
998F
330
98FD
100
AcDbEntity
  8
1
  6
Continuous
100
AcDbLine
 10
18.929365
 20
139.640778
 30
0.0
 11
18.929365
 21
138.454712
 31
0.0
  0
LINE
  5
9990
330
98FD
100
AcDbEntity
  8
1
  6
Continuous
100
AcDbLine
 10
18.929365
 20
139.640778
 30
0.0
 11
17.786687
 21
139.640778
 31
0.0
  0
LINE
  5
9991
330
98FD
100
AcDbEntity
  8
1
  6
Continuous
100
AcDbLine
 10
18.327261
 20
138.107788
 30
0.0
 11
17.551466
 21
138.107788
 31
0.0
  0
LINE
  5
9992
330
98FD
100
AcDbEntity
  8
1
  6
Continuous
100
AcDbLine
 10
18.940862
 20
144.9039919999998
 30
0.0
 11
18.48418999999999
 21
144.9039919999998
 31
0.0
  0
LINE
  5
9993
330
98FD
100
AcDbEntity
  8
1
  6
Continuous
100
AcDbLine
 10
16.940862
 20
144.27652
 30
0.0
 11
18.940862
 21
143.687073
 31
0.0
  0
LINE
  5
9994
330
98FD
100
AcDbEntity
  8
1
  6
Continuous
100
AcDbLine
 10
18.940862
 20
144.9039919999998
 30
0.0
 11
18.940862
 21
143.687073
 31
0.0
  0
LINE
  5
9995
330
98FD
100
AcDbEntity
  8
1
  6
Continuous
100
AcDbLine
 10
18.337095
 20
145.35083
 30
0.0
 11
17.56129999999998
 21
145.35083
 31
0.0
  0
LINE
  5
9996
330
98FD
100
AcDbEntity
  8
1
  6
Continuous
100
AcDbLine
 10
161.724783
 20
257.7294069999999
 30
0.0
 11
161.031026
 21
257.7294069999999
 31
0.0
  0
LINE
  5
9997
330
98FD
100
AcDbEntity
  8
1
  6
Continuous
100
AcDbLine
 10
161.724783
 20
253.2294069999999
 30
0.0
 11
161.031026
 21
253.2294069999999
 31
0.0
  0
LINE
  5
9998
330
98FD
100
AcDbEntity
  8
1
  6
Continuous
100
AcDbLine
 10
149.1372889999998
 20
257.7294069999999
 30
0.0
 11
149.8310139999999
 21
257.7294069999999
 31
0.0
  0
LINE
  5
9999
330
98FD
100
AcDbEntity
  8
1
  6
Continuous
100
AcDbLine
 10
149.1372889999998
 20
253.2294069999999
 30
0.0
 11
149.8310139999999
 21
253.2294069999999
 31
0.0
  0
LINE
  5
999A
330
98FD
100
AcDbEntity
  8
1
  6
Continuous
100
AcDbLine
 10
149.1372889999998
 20
42.32941199999999
 30
0.0
 11
149.8310139999999
 21
42.32941199999999
 31
0.0
  0
LINE
  5
999B
330
98FD
100
AcDbEntity
  8
1
  6
Continuous
100
AcDbLine
 10
149.1372889999998
 20
37.82941199999999
 30
0.0
 11
149.8310139999999
 21
37.82941199999999
 31
0.0
  0
LINE
  5
999C
330
98FD
100
AcDbEntity
  8
1
  6
Continuous
100
AcDbLine
 10
22.981489
 20
151.0018159999999
 30
0.0
 11
19.88056699999999
 21
151.0018159999999
 31
0.0
  0
LINE
  5
999D
330
98FD
100
AcDbEntity
  8
1
  6
Continuous
100
AcDbLine
 10
22.94450199999999
 20
151.445709
 30
0.0
 11
19.91755399999998
 21
151.445709
 31
0.0
  0
LINE
  5
999E
330
98FD
100
AcDbEntity
  8
1
  6
Continuous
100
AcDbLine
 10
20.049284
 20
151.8905029999999
 30
0.0
 11
20.898267
 21
151.8905029999999
 31
0.0
  0
LINE
  5
999F
330
98FD
100
AcDbEntity
  8
1
  6
Continuous
100
AcDbLine
 10
22.585416
 20
152.3352969999999
 30
0.0
 11
20.27664
 21
152.3352969999999
 31
0.0
  0
LINE
  5
99A0
330
98FD
100
AcDbEntity
  8
1
  6
Continuous
100
AcDbLine
 10
21.43147
 20
151.0018159999999
 30
0.0
 11
21.43147
 21
151.445709
 31
0.0
  0
LINE
  5
99A1
330
98FD
100
AcDbEntity
  8
1
  6
Continuous
100
AcDbLine
 10
21.964689
 20
151.8905029999999
 30
0.0
 11
22.81277199999999
 21
151.8905029999999
 31
0.0
  0
LINE
  5
99A2
330
98FD
100
AcDbEntity
  8
1
  6
Continuous
100
AcDbLine
 10
22.527677
 20
152.779175
 30
0.0
 11
20.335279
 21
152.779175
 31
0.0
  0
LINE
  5
99A3
330
98FD
100
AcDbEntity
  8
1
  6
Continuous
100
AcDbLine
 10
20.611356
 20
153.2239689999999
 30
0.0
 11
22.250684
 21
153.2239689999999
 31
0.0
  0
LINE
  5
99A4
330
98FD
100
AcDbEntity
  8
1
  6
Continuous
100
AcDbLine
 10
22.65037299999999
 20
153.667862
 30
0.0
 11
20.734068
 21
153.667862
 31
0.0
  0
LINE
  5
99A5
330
98FD
100
AcDbEntity
  8
1
  6
Continuous
100
AcDbLine
 10
22.892164
 20
149.2244569999998
 30
0.0
 11
20.10972399999999
 21
149.2244569999998
 31
0.0
  0
LINE
  5
99A6
330
98FD
100
AcDbEntity
  8
1
  6
Continuous
100
AcDbLine
 10
20.17649599999999
 20
149.668335
 30
0.0
 11
21.43147
 21
149.668335
 31
0.0
  0
LINE
  5
99A7
330
98FD
100
AcDbEntity
  8
1
  6
Continuous
100
AcDbLine
 10
22.893964
 20
150.113129
 30
0.0
 11
19.968076
 21
150.113129
 31
0.0
  0
LINE
  5
99A8
330
98FD
100
AcDbEntity
  8
1
  6
Continuous
100
AcDbLine
 10
22.981489
 20
150.5570219999999
 30
0.0
 11
19.88056699999999
 21
150.5570219999999
 31
0.0
  0
LINE
  5
99A9
330
98FD
100
AcDbEntity
  8
1
  6
Continuous
100
AcDbLine
 10
21.43147
 20
146.968002
 30
0.0
 11
21.43147
 21
147.886459
 31
0.0
  0
LINE
  5
99AA
330
98FD
100
AcDbEntity
  8
1
  6
Continuous
100
AcDbLine
 10
20.59964099999999
 20
148.109299
 30
0.0
 11
22.472635
 21
147.606766
 31
0.0
  0
LINE
  5
99AB
330
98FD
100
AcDbEntity
  8
1
  6
Continuous
100
AcDbLine
 10
21.43147
 20
148.5577089999999
 30
0.0
 11
20.365049
 21
148.5577089999999
 31
0.0
  0
LINE
  5
99AC
330
98FD
100
AcDbEntity
  8
1
  6
Continuous
100
AcDbLine
 10
21.65342499999999
 20
148.3348689999999
 30
0.0
 11
22.602552
 21
148.3348689999999
 31
0.0
  0
LINE
  5
99AD
330
98FD
100
AcDbEntity
  8
1
  6
Continuous
100
AcDbLine
 10
22.682844
 20
148.779663
 30
0.0
 11
21.65342499999999
 21
148.779663
 31
0.0
  0
LINE
  5
99AE
330
98FD
100
AcDbEntity
  8
1
  6
Continuous
100
AcDbLine
 10
21.43147
 20
149.668335
 30
0.0
 11
21.43147
 21
149.890289
 31
0.0
  0
LINE
  5
99AF
330
98FD
100
AcDbEntity
  8
1
  6
Continuous
100
AcDbLine
 10
21.964689
 20
149.668335
 30
0.0
 11
22.68555999999999
 21
149.668335
 31
0.0
  0
LINE
  5
99B0
330
98FD
100
AcDbEntity
  8
4
  6
CENTER
100
AcDbLine
 10
345.43102
 20
170.7794189999999
 30
0.0
 11
345.43102
 21
128.7794189999999
 31
0.0
  0
LINE
  5
99B1
330
98FD
100
AcDbEntity
  8
4
  6
CENTER
100
AcDbLine
 10
335.43102
 20
149.779419
 30
0.0
 11
355.4310199999998
 21
149.779419
 31
0.0
  0
LINE
  5
99B2
330
98FD
100
AcDbEntity
  8
1
  6
Continuous
100
AcDbLine
 10
339.831045
 20
161.7794189999998
 30
0.0
 11
351.031026
 21
161.7794189999998
 31
0.0
  0
LINE
  5
99B3
330
98FD
100
AcDbEntity
  8
1
  6
Continuous
100
AcDbLine
 10
339.831045
 20
133.7794189999998
 30
0.0
 11
351.031026
 21
133.7794189999998
 31
0.0
  0
LINE
  5
99B4
330
98FD
100
AcDbEntity
  8
4
  6
CENTER
100
AcDbLine
 10
342.131033
 20
139.7794189999999
 30
0.0
 11
348.7310079999998
 21
139.7794189999999
 31
0.0
  0
LINE
  5
99B5
330
98FD
100
AcDbEntity
  8
1
  6
Continuous
100
AcDbLine
 10
340.53102
 20
165.7794189999999
 30
0.0
 11
350.33102
 21
165.7794189999999
 31
0.0
  0
LINE
  5
99B6
330
98FD
100
AcDbEntity
  8
1
  6
Continuous
100
AcDbLine
 10
339.1372889999999
 20
140.0294189999998
 30
0.0
 11
339.831045
 21
140.0294189999998
 31
0.0
  0
LINE
  5
99B7
330
98FD
100
AcDbEntity
  8
1
  6
Continuous
100
AcDbLine
 10
339.1372889999999
 20
135.5294189999999
 30
0.0
 11
339.831045
 21
135.5294189999999
 31
0.0
  0
LINE
  5
99B8
330
98FD
100
AcDbEntity
  8
4
  6
CENTER
100
AcDbLine
 10
354.9310199999998
 20
137.7794189999999
 30
0.0
 11
348.4310199999998
 21
137.7794189999999
 31
0.0
  0
LINE
  5
99B9
330
98FD
100
AcDbEntity
  8
4
  6
CENTER
100
AcDbLine
 10
354.9310199999998
 20
157.7794189999998
 30
0.0
 11
335.9310199999999
 21
157.7794189999998
 31
0.0
  0
LINE
  5
99BA
330
98FD
100
AcDbEntity
  8
4
  6
CENTER
100
AcDbLine
 10
342.4310199999999
 20
137.7794189999999
 30
0.0
 11
335.9310199999999
 21
137.7794189999999
 31
0.0
  0
LINE
  5
99BB
330
98FD
100
AcDbEntity
  8
1
  6
Continuous
100
AcDbLine
 10
351.031026
 20
161.7794189999998
 30
0.0
 11
351.031026
 21
133.7794189999998
 31
0.0
  0
LINE
  5
99BC
330
98FD
100
AcDbEntity
  8
1
  6
Continuous
100
AcDbLine
 10
350.33102
 20
165.7794189999999
 30
0.0
 11
350.33102
 21
161.7794189999998
 31
0.0
  0
LINE
  5
99BD
330
98FD
100
AcDbEntity
  8
1
  6
Continuous
100
AcDbLine
 10
340.53102
 20
165.7794189999999
 30
0.0
 11
340.53102
 21
161.7794189999998
 31
0.0
  0
LINE
  5
99BE
330
98FD
100
AcDbEntity
  8
1
  6
Continuous
100
AcDbLine
 10
339.831045
 20
161.7794189999998
 30
0.0
 11
339.831045
 21
133.7794189999998
 31
0.0
  0
LINE
  5
99BF
330
98FD
100
AcDbEntity
  8
1
  6
Continuous
100
AcDbLine
 10
339.1372889999999
 20
160.0294189999999
 30
0.0
 11
339.831045
 21
160.0294189999999
 31
0.0
  0
LINE
  5
99C0
330
98FD
100
AcDbEntity
  8
1
  6
Continuous
100
AcDbLine
 10
339.1372889999999
 20
155.5294189999998
 30
0.0
 11
339.831045
 21
155.5294189999998
 31
0.0
  0
LINE
  5
99C1
330
98FD
100
AcDbEntity
  8
1
  6
Continuous
100
AcDbLine
 10
351.724783
 20
160.0294189999999
 30
0.0
 11
351.0310569999999
 21
160.0294189999999
 31
0.0
  0
LINE
  5
99C2
330
98FD
100
AcDbEntity
  8
1
  6
Continuous
100
AcDbLine
 10
351.724783
 20
155.5294189999998
 30
0.0
 11
351.0310569999999
 21
155.5294189999998
 31
0.0
  0
LINE
  5
99C3
330
98FD
100
AcDbEntity
  8
1
  6
Continuous
100
AcDbLine
 10
351.724783
 20
140.0294189999998
 30
0.0
 11
351.0310569999999
 21
140.0294189999998
 31
0.0
  0
LINE
  5
99C4
330
98FD
100
AcDbEntity
  8
1
  6
Continuous
100
AcDbLine
 10
351.724783
 20
135.5294189999999
 30
0.0
 11
351.0310569999999
 21
135.5294189999999
 31
0.0
  0
LINE
  5
99C5
330
98FD
100
AcDbEntity
  8
4
  6
CENTER
100
AcDbLine
 10
155.4310199999999
 20
47.77941099999998
 30
0.0
 11
155.4310199999999
 21
27.279411
 31
0.0
  0
LINE
  5
99C6
330
98FD
100
AcDbEntity
  8
4
  6
CENTER
100
AcDbLine
 10
163.0310259999999
 20
40.079412
 30
0.0
 11
158.431036
 21
40.079412
 31
0.0
  0
LINE
  5
99C7
330
98FD
100
AcDbEntity
  8
4
  6
CENTER
100
AcDbLine
 10
152.4310199999999
 20
40.079412
 30
0.0
 11
147.8310299999999
 21
40.079412
 31
0.0
  0
LINE
  5
99C8
330
98FD
100
AcDbEntity
  8
4
  6
CENTER
100
AcDbLine
 10
158.431036
 20
35.27941099999999
 30
0.0
 11
152.431036
 21
35.27941099999999
 31
0.0
  0
LINE
  5
99C9
330
98FD
100
AcDbEntity
  8
1
  6
Continuous
100
AcDbLine
 10
18.337095
 20
142.050827
 30
0.0
 11
17.56129999999998
 21
142.050827
 31
0.0
  0
LINE
  5
99CA
330
98FD
100
AcDbEntity
  8
1
  6
Continuous
100
AcDbLine
 10
161.724783
 20
140.0294189999998
 30
0.0
 11
161.031026
 21
140.0294189999998
 31
0.0
  0
LINE
  5
99CB
330
98FD
100
AcDbEntity
  8
1
  6
Continuous
100
AcDbLine
 10
161.724783
 20
135.5294189999999
 30
0.0
 11
161.031026
 21
135.5294189999999
 31
0.0
  0
LINE
  5
99CC
330
98FD
100
AcDbEntity
  8
1
  6
Continuous
100
AcDbLine
 10
149.1372889999998
 20
140.0294189999998
 30
0.0
 11
149.8310139999999
 21
140.0294189999998
 31
0.0
  0
LINE
  5
99CD
330
98FD
100
AcDbEntity
  8
1
  6
Continuous
100
AcDbLine
 10
149.1372889999998
 20
135.5294189999999
 30
0.0
 11
149.8310139999999
 21
135.5294189999999
 31
0.0
  0
LINE
  5
99CE
330
98FD
100
AcDbEntity
  8
1
  6
Continuous
100
AcDbLine
 10
149.1372889999998
 20
160.0294189999999
 30
0.0
 11
149.8310139999999
 21
160.0294189999999
 31
0.0
  0
LINE
  5
99CF
330
98FD
100
AcDbEntity
  8
1
  6
Continuous
100
AcDbLine
 10
149.1372889999998
 20
155.5294189999998
 30
0.0
 11
149.8310139999999
 21
155.5294189999998
 31
0.0
  0
LINE
  5
99D0
330
98FD
100
AcDbEntity
  8
1
  6
Continuous
100
AcDbLine
 10
161.724783
 20
160.0294189999999
 30
0.0
 11
161.031026
 21
160.0294189999999
 31
0.0
  0
LINE
  5
99D1
330
98FD
100
AcDbEntity
  8
1
  6
Continuous
100
AcDbLine
 10
161.724783
 20
155.5294189999998
 30
0.0
 11
161.031026
 21
155.5294189999998
 31
0.0
  0
LINE
  5
99D2
330
98FD
100
AcDbEntity
  8
4
  6
CENTER
100
AcDbLine
 10
9.931029999999999
 20
149.779419
 30
0.0
 11
30.431028
 21
149.779419
 31
0.0
  0
LINE
  5
99D3
330
98FD
100
AcDbEntity
  8
4
  6
CENTER
100
AcDbLine
 10
270.43102
 20
149.779419
 30
0.0
 11
290.9310199999999
 21
149.779419
 31
0.0
  0
LINE
  5
99D4
330
98FD
100
AcDbEntity
  8
1
  6
Continuous
100
AcDbLine
 10
228.1117
 20
152.779404
 30
0.0
 11
228.1117
 21
146.779404
 31
0.0
  0
LINE
  5
99D5
330
98FD
100
AcDbEntity
  8
1
  6
Continuous
100
AcDbLine
 10
150.4310199999999
 20
146.462784
 30
0.0
 11
150.4310199999999
 21
133.7794189999998
 31
0.0
  0
LINE
  5
99D6
330
98FD
100
AcDbEntity
  8
1
  6
Continuous
100
AcDbLine
 10
149.8310299999999
 20
147.625336
 30
0.0
 11
149.8310299999999
 21
133.7794189999998
 31
0.0
  0
LINE
  5
99D7
330
98FD
100
AcDbEntity
  8
1
  6
Continuous
100
AcDbLine
 10
160.43102
 20
146.462784
 30
0.0
 11
160.43102
 21
133.7794189999998
 31
0.0
  0
LINE
  5
99D8
330
98FD
100
AcDbEntity
  8
1
  6
Continuous
100
AcDbLine
 10
161.031026
 20
147.6253659999999
 30
0.0
 11
161.031026
 21
133.7794189999998
 31
0.0
  0
CIRCLE
  5
99D9
330
98FD
100
AcDbEntity
  8
2
  6
Continuous
100
AcDbCircle
 10
155.4310199999999
 20
139.7794189999999
 30
0.0
 40
1.3
  0
CIRCLE
  5
99DA
330
98FD
100
AcDbEntity
  8
2
  6
Continuous
100
AcDbCircle
 10
155.4310199999999
 20
157.7794189999998
 30
0.0
 40
1.3
  0
CIRCLE
  5
99DB
330
98FD
100
AcDbEntity
  8
1
  6
Continuous
100
AcDbCircle
 10
155.4310199999999
 20
139.7794189999999
 30
0.0
 40
1.056499999999998
  0
CIRCLE
  5
99DC
330
98FD
100
AcDbEntity
  8
1
  6
Continuous
100
AcDbCircle
 10
155.4310199999999
 20
157.7794189999998
 30
0.0
 40
1.056499999999998
  0
CIRCLE
  5
99DD
330
98FD
100
AcDbEntity
  8
1
  6
Continuous
100
AcDbCircle
 10
278.131033
 20
157.7794189999998
 30
0.0
 40
2.25
  0
CIRCLE
  5
99DE
330
98FD
100
AcDbEntity
  8
1
  6
Continuous
100
AcDbCircle
 10
278.131033
 20
137.7794189999999
 30
0.0
 40
2.25
  0
CIRCLE
  5
99DF
330
98FD
100
AcDbEntity
  8
1
  6
Continuous
100
AcDbCircle
 10
22.73101599999999
 20
157.7794189999998
 30
0.0
 40
2.25
  0
CIRCLE
  5
99E0
330
98FD
100
AcDbEntity
  8
1
  6
Continuous
100
AcDbCircle
 10
22.73101599999999
 20
137.7794189999999
 30
0.0
 40
2.25
  0
ARC
  5
99E1
330
98FD
100
AcDbEntity
  8
1
  6
Continuous
100
AcDbCircle
 10
150.4310199999999
 20
32.87941
 30
0.0
 40
0.6
100
AcDbArc
 50
179.9999909999999
 51
270.000001
  0
ARC
  5
99E2
330
98FD
100
AcDbEntity
  8
1
  6
Continuous
100
AcDbCircle
 10
160.431036
 20
32.87941
 30
0.0
 40
0.6
100
AcDbArc
 50
269.9999969999999
 51
0.0
  0
CIRCLE
  5
99E3
330
98FD
100
AcDbEntity
  8
1
  6
Continuous
100
AcDbCircle
 10
155.431036
 20
35.27941099999999
 30
0.0
 40
1.0
  0
CIRCLE
  5
99E4
330
98FD
100
AcDbEntity
  8
1
  6
Continuous
100
AcDbCircle
 10
345.43102
 20
149.779419
 30
0.0
 40
3.75
  0
ARC
  5
99E5
330
98FD
100
AcDbEntity
  8
1
  6
Continuous
100
AcDbCircle
 10
21.87103
 20
144.5639649999999
 30
0.0
 40
0.4400000000000003
100
AcDbArc
 50
179.9999909999999
 51
0.00001
  0
ARC
  5
99E6
330
98FD
100
AcDbEntity
  8
1
  6
Continuous
100
AcDbCircle
 10
17.541463
 20
139.0644529999999
 30
0.0
 40
0.6263380000000001
100
AcDbArc
 50
45.9275
 51
66.95107800000001
  0
ARC
  5
99E7
330
98FD
100
AcDbEntity
  8
1
  6
Continuous
100
AcDbCircle
 10
17.541463
 20
139.132111
 30
0.0
 40
0.6263380000000001
100
AcDbArc
 50
225.9274979999999
 51
314.072503
  0
ARC
  5
99E8
330
98FD
100
AcDbEntity
  8
1
  6
Continuous
100
AcDbCircle
 10
17.508703
 20
139.098282
 30
0.0
 40
0.57924
100
AcDbArc
 50
115.596977
 51
225.927495
  0
ARC
  5
99E9
330
98FD
100
AcDbEntity
  8
1
  6
Continuous
100
AcDbCircle
 10
17.57422399999999
 20
139.098282
 30
0.0
 40
0.57924
100
AcDbArc
 50
314.072503
 51
45.9275
  0
ARC
  5
99EA
330
98FD
100
AcDbEntity
  8
1
  6
Continuous
100
AcDbCircle
 10
17.551466
 20
137.481445
 30
0.0
 40
0.6263380000000001
100
AcDbArc
 50
45.9275
 51
134.0725019999999
  0
ARC
  5
99EB
330
98FD
100
AcDbEntity
  8
1
  6
Continuous
100
AcDbCircle
 10
17.551466
 20
137.549133
 30
0.0
 40
0.6263380000000001
100
AcDbArc
 50
225.9274979999999
 51
314.072503
  0
ARC
  5
99EC
330
98FD
100
AcDbEntity
  8
1
  6
Continuous
100
AcDbCircle
 10
17.51870499999998
 20
137.515289
 30
0.0
 40
0.57924
100
AcDbArc
 50
134.0725019999999
 51
225.927495
  0
ARC
  5
99ED
330
98FD
100
AcDbEntity
  8
1
  6
Continuous
100
AcDbCircle
 10
17.584226
 20
137.515289
 30
0.0
 40
0.57924
100
AcDbArc
 50
314.072503
 51
45.9275
  0
ARC
  5
99EE
330
98FD
100
AcDbEntity
  8
1
  6
Continuous
100
AcDbCircle
 10
18.327261
 20
137.481445
 30
0.0
 40
0.6263380000000001
100
AcDbArc
 50
45.9275
 51
90.00000300000001
  0
ARC
  5
99EF
330
98FD
100
AcDbEntity
  8
1
  6
Continuous
100
AcDbCircle
 10
18.327261
 20
137.549133
 30
0.0
 40
0.6263380000000001
100
AcDbArc
 50
289.580716
 51
314.072503
  0
ARC
  5
99F0
330
98FD
100
AcDbEntity
  8
1
  6
Continuous
100
AcDbCircle
 10
18.36002099999999
 20
137.515289
 30
0.0
 40
0.57924
100
AcDbArc
 50
314.072503
 51
45.9275
  0
ARC
  5
99F1
330
98FD
100
AcDbEntity
  8
1
  6
Continuous
100
AcDbCircle
 10
18.337095
 20
140.936462
 30
0.0
 40
0.6263380000000001
100
AcDbArc
 50
45.9275
 51
128.2657889999998
  0
ARC
  5
99F2
330
98FD
100
AcDbEntity
  8
1
  6
Continuous
100
AcDbCircle
 10
18.337095
 20
141.00415
 30
0.0
 40
0.6263380000000001
100
AcDbArc
 50
231.7342109999999
 51
314.072503
  0
ARC
  5
99F3
330
98FD
100
AcDbEntity
  8
1
  6
Continuous
100
AcDbCircle
 10
18.369856
 20
140.970306
 30
0.0
 40
0.57924
100
AcDbArc
 50
314.072503
 51
45.9275
  0
ARC
  5
99F4
330
98FD
100
AcDbEntity
  8
1
  6
Continuous
100
AcDbCircle
 10
17.56129999999998
 20
140.936462
 30
0.0
 40
0.6263380000000001
100
AcDbArc
 50
45.9275
 51
134.0725019999999
  0
ARC
  5
99F5
330
98FD
100
AcDbEntity
  8
1
  6
Continuous
100
AcDbCircle
 10
17.56129999999998
 20
141.00415
 30
0.0
 40
0.6263380000000001
100
AcDbArc
 50
225.9274979999999
 51
314.072503
  0
ARC
  5
99F6
330
98FD
100
AcDbEntity
  8
1
  6
Continuous
100
AcDbCircle
 10
17.52853899999999
 20
140.970306
 30
0.0
 40
0.57924
100
AcDbArc
 50
134.0725019999999
 51
225.927495
  0
ARC
  5
99F7
330
98FD
100
AcDbEntity
  8
1
  6
Continuous
100
AcDbCircle
 10
18.337095
 20
145.9094849999999
 30
0.0
 40
0.6263380000000001
100
AcDbArc
 50
45.9275
 51
134.0725019999999
  0
ARC
  5
99F8
330
98FD
100
AcDbEntity
  8
1
  6
Continuous
100
AcDbCircle
 10
18.337095
 20
145.9771729999999
 30
0.0
 40
0.6263380000000001
100
AcDbArc
 50
225.9274979999999
 51
314.072503
  0
ARC
  5
99F9
330
98FD
100
AcDbEntity
  8
1
  6
Continuous
100
AcDbCircle
 10
18.304334
 20
145.9433289999998
 30
0.0
 40
0.57924
100
AcDbArc
 50
134.0725019999999
 51
225.927495
  0
ARC
  5
99FA
330
98FD
100
AcDbEntity
  8
1
  6
Continuous
100
AcDbCircle
 10
18.369856
 20
145.9433289999998
 30
0.0
 40
0.57924
100
AcDbArc
 50
314.072503
 51
45.9275
  0
ARC
  5
99FB
330
98FD
100
AcDbEntity
  8
1
  6
Continuous
100
AcDbCircle
 10
17.56129999999998
 20
145.9094849999999
 30
0.0
 40
0.6263380000000001
100
AcDbArc
 50
109.349553
 51
134.0725019999999
  0
ARC
  5
99FC
330
98FD
100
AcDbEntity
  8
1
  6
Continuous
100
AcDbCircle
 10
17.56129999999998
 20
145.9771729999999
 30
0.0
 40
0.6263380000000001
100
AcDbArc
 50
225.9274979999999
 51
269.9999969999999
  0
ARC
  5
99FD
330
98FD
100
AcDbEntity
  8
1
  6
Continuous
100
AcDbCircle
 10
17.52853899999999
 20
145.9433289999998
 30
0.0
 40
0.57924
100
AcDbArc
 50
134.0725019999999
 51
225.927495
  0
ARC
  5
99FE
330
98FD
100
AcDbEntity
  8
1
  6
Continuous
100
AcDbCircle
 10
17.594061
 20
140.970306
 30
0.0
 40
0.57924
100
AcDbArc
 50
314.072503
 51
45.9275
  0
ARC
  5
99FF
330
98FD
100
AcDbEntity
  8
1
  6
Continuous
100
AcDbCircle
 10
156.7310389999998
 20
40.079412
 30
0.0
 40
6.0
100
AcDbArc
 50
343.8086489999998
 51
16.191351
  0
ARC
  5
9A00
330
98FD
100
AcDbEntity
  8
1
  6
Continuous
100
AcDbCircle
 10
161.724783
 20
41.52940899999999
 30
0.0
 40
0.8
100
AcDbArc
 50
16.191351
 51
90.00000300000001
  0
ARC
  5
9A01
330
98FD
100
AcDbEntity
  8
1
  6
Continuous
100
AcDbCircle
 10
161.724783
 20
38.629415
 30
0.0
 40
0.8
100
AcDbArc
 50
269.9999969999999
 51
343.8086489999998
  0
ARC
  5
9A02
330
98FD
100
AcDbEntity
  8
1
  6
Continuous
100
AcDbCircle
 10
161.724783
 20
256.9294189999999
 30
0.0
 40
0.8
100
AcDbArc
 50
16.191351
 51
90.00000300000001
  0
ARC
  5
9A03
330
98FD
100
AcDbEntity
  8
1
  6
Continuous
100
AcDbCircle
 10
156.7310389999998
 20
255.4794069999999
 30
0.0
 40
6.0
100
AcDbArc
 50
343.8086489999998
 51
16.191351
  0
ARC
  5
9A04
330
98FD
100
AcDbEntity
  8
1
  6
Continuous
100
AcDbCircle
 10
161.724783
 20
254.029395
 30
0.0
 40
0.8
100
AcDbArc
 50
269.9999969999999
 51
343.8086489999998
  0
ARC
  5
9A05
330
98FD
100
AcDbEntity
  8
1
  6
Continuous
100
AcDbCircle
 10
149.1372889999998
 20
256.9294189999999
 30
0.0
 40
0.8
100
AcDbArc
 50
90.00000300000001
 51
163.808645
  0
ARC
  5
9A06
330
98FD
100
AcDbEntity
  8
1
  6
Continuous
100
AcDbCircle
 10
154.1310329999998
 20
255.4794069999999
 30
0.0
 40
6.0
100
AcDbArc
 50
163.808645
 51
196.191351
  0
ARC
  5
9A07
330
98FD
100
AcDbEntity
  8
1
  6
Continuous
100
AcDbCircle
 10
149.1372889999998
 20
254.029395
 30
0.0
 40
0.8
100
AcDbArc
 50
196.191355
 51
269.9999969999999
  0
ARC
  5
9A08
330
98FD
100
AcDbEntity
  8
1
  6
Continuous
100
AcDbCircle
 10
149.1372889999998
 20
41.52940899999999
 30
0.0
 40
0.8
100
AcDbArc
 50
90.00000300000001
 51
163.808645
  0
ARC
  5
9A09
330
98FD
100
AcDbEntity
  8
1
  6
Continuous
100
AcDbCircle
 10
154.1310329999998
 20
40.079412
 30
0.0
 40
6.0
100
AcDbArc
 50
163.808645
 51
196.191351
  0
ARC
  5
9A0A
330
98FD
100
AcDbEntity
  8
1
  6
Continuous
100
AcDbCircle
 10
149.1372889999998
 20
38.629415
 30
0.0
 40
0.8
100
AcDbArc
 50
196.191355
 51
269.9999969999999
  0
ARC
  5
9A0B
330
98FD
100
AcDbEntity
  8
1
  6
Continuous
100
AcDbCircle
 10
25.163953
 20
150.7798769999999
 30
0.0
 40
5.288524999999999
100
AcDbArc
 50
153.986
 51
157.0559929999998
  0
ARC
  5
9A0C
330
98FD
100
AcDbEntity
  8
1
  6
Continuous
100
AcDbCircle
 10
20.335279
 20
152.823395
 30
0.0
 40
0.044452
100
AcDbArc
 50
157.0559929999998
 51
270.000001
  0
ARC
  5
9A0D
330
98FD
100
AcDbEntity
  8
1
  6
Continuous
100
AcDbCircle
 10
20.049284
 20
151.934708
 30
0.0
 40
0.044452
100
AcDbArc
 50
167.2709909999998
 51
270.000001
  0
ARC
  5
9A0E
330
98FD
100
AcDbEntity
  8
1
  6
Continuous
100
AcDbCircle
 10
25.163953
 20
150.7798769999999
 30
0.0
 40
5.288524999999999
100
AcDbArc
 50
164.7939959999999
 51
167.2709909999998
  0
ARC
  5
9A0F
330
98FD
100
AcDbEntity
  8
1
  6
Continuous
100
AcDbCircle
 10
25.163953
 20
150.7798769999999
 30
0.0
 40
5.288524999999999
100
AcDbArc
 50
164.7419909999999
 51
164.7939959999999
  0
ARC
  5
9A10
330
98FD
100
AcDbEntity
  8
1
  6
Continuous
100
AcDbCircle
 10
20.27664
 20
152.1124419999999
 30
0.0
 40
0.222261
100
AcDbArc
 50
90.00000900000001
 51
164.7419769999999
  0
ARC
  5
9A11
330
98FD
100
AcDbEntity
  8
1
  6
Continuous
100
AcDbCircle
 10
22.585416
 20
152.1124419999999
 30
0.0
 40
0.222261
100
AcDbArc
 50
15.25749699999999
 51
90.00000300000001
  0
ARC
  5
9A12
330
98FD
100
AcDbEntity
  8
1
  6
Continuous
100
AcDbCircle
 10
17.698103
 20
150.7798769999999
 30
0.0
 40
5.288524999999999
100
AcDbArc
 50
13.26810299999998
 51
15.25749699999999
  0
ARC
  5
9A13
330
98FD
100
AcDbEntity
  8
1
  6
Continuous
100
AcDbCircle
 10
17.698103
 20
150.7798769999999
 30
0.0
 40
5.288524999999999
100
AcDbArc
 50
12.7289
 51
13.26810299999998
  0
ARC
  5
9A14
330
98FD
100
AcDbEntity
  8
1
  6
Continuous
100
AcDbCircle
 10
22.81277199999999
 20
151.934708
 30
0.0
 40
0.044452
100
AcDbArc
 50
269.9999969999999
 51
12.7289
  0
ARC
  5
9A15
330
98FD
100
AcDbEntity
  8
1
  6
Continuous
100
AcDbCircle
 10
20.611356
 20
153.001129
 30
0.0
 40
0.222261
100
AcDbArc
 50
90.00000900000001
 51
153.986
  0
ARC
  5
9A16
330
98FD
100
AcDbEntity
  8
1
  6
Continuous
100
AcDbCircle
 10
22.527677
 20
152.823395
 30
0.0
 40
0.044452
100
AcDbArc
 50
269.9999969999999
 51
22.94399999999999
  0
ARC
  5
9A17
330
98FD
100
AcDbEntity
  8
1
  6
Continuous
100
AcDbCircle
 10
17.698103
 20
150.7798769999999
 30
0.0
 40
5.288524999999999
100
AcDbArc
 50
22.94399999999999
 51
26.01439599999999
  0
ARC
  5
9A18
330
98FD
100
AcDbEntity
  8
1
  6
Continuous
100
AcDbCircle
 10
22.250684
 20
153.001129
 30
0.0
 40
0.222261
100
AcDbArc
 50
26.01439599999999
 51
90.00000300000001
  0
ARC
  5
9A19
330
98FD
100
AcDbEntity
  8
1
  6
Continuous
100
AcDbCircle
 10
21.43147
 20
153.4459229999999
 30
0.0
 40
1.145318999999998
100
AcDbArc
 50
90.00000900000001
 51
144.4620119999999
  0
ARC
  5
9A1A
330
98FD
100
AcDbEntity
  8
1
  6
Continuous
100
AcDbCircle
 10
21.43147
 20
153.4459229999999
 30
0.0
 40
1.145318999999998
100
AcDbArc
 50
35.537703
 51
76.53739899999997
  0
ARC
  5
9A1B
330
98FD
100
AcDbEntity
  8
1
  6
Continuous
100
AcDbCircle
 10
25.163953
 20
150.7798769999999
 30
0.0
 40
5.288524999999999
100
AcDbArc
 50
187.792995
 51
190.104003
  0
ARC
  5
9A1C
330
98FD
100
AcDbEntity
  8
1
  6
Continuous
100
AcDbCircle
 10
19.968076
 20
150.068024
 30
0.0
 40
0.044452
100
AcDbArc
 50
90.00000900000001
 51
187.7929909999999
  0
ARC
  5
9A1D
330
98FD
100
AcDbEntity
  8
1
  6
Continuous
100
AcDbCircle
 10
20.17649599999999
 20
149.890289
 30
0.0
 40
0.222261
100
AcDbArc
 50
190.104003
 51
269.9999969999999
  0
ARC
  5
9A1E
330
98FD
100
AcDbEntity
  8
1
  6
Continuous
100
AcDbCircle
 10
22.893964
 20
150.068024
 30
0.0
 40
0.044452
100
AcDbArc
 50
352.207003
 51
90.00000300000001
  0
ARC
  5
9A1F
330
98FD
100
AcDbEntity
  8
1
  6
Continuous
100
AcDbCircle
 10
17.698103
 20
150.7798769999999
 30
0.0
 40
5.288524999999999
100
AcDbArc
 50
349.8960009999998
 51
352.207003
  0
ARC
  5
9A20
330
98FD
100
AcDbEntity
  8
1
  6
Continuous
100
AcDbCircle
 10
22.68555999999999
 20
149.890289
 30
0.0
 40
0.222261
100
AcDbArc
 50
269.9999969999999
 51
349.8960009999998
  0
ARC
  5
9A21
330
98FD
100
AcDbEntity
  8
1
  6
Continuous
100
AcDbCircle
 10
21.43147
 20
148.1129149999999
 30
0.0
 40
1.145318999999998
100
AcDbArc
 50
215.5380019999999
 51
225.6990009999999
  0
ARC
  5
9A22
330
98FD
100
AcDbEntity
  8
1
  6
Continuous
100
AcDbCircle
 10
21.43147
 20
148.1129149999999
 30
0.0
 40
1.145318999999998
100
AcDbArc
 50
242.2499979999999
 51
324.4619999999998
  0
ARC
  5
9A23
330
98FD
100
AcDbEntity
  8
1
  6
Continuous
100
AcDbCircle
 10
21.65342499999999
 20
148.5577089999999
 30
0.0
 40
0.222261
100
AcDbArc
 50
90.00000900000001
 51
270.000001
  0
ARC
  5
9A24
330
98FD
100
AcDbEntity
  8
1
  6
Continuous
100
AcDbCircle
 10
17.698103
 20
150.7798769999999
 30
0.0
 40
5.732929999999998
100
AcDbArc
 50
324.4619999999998
 51
35.537703
  0
ARC
  5
9A25
330
98FD
100
AcDbEntity
  8
1
  6
Continuous
100
AcDbCircle
 10
25.163953
 20
150.7798769999999
 30
0.0
 40
5.732929999999998
100
AcDbArc
 50
144.461998
 51
215.5379979999999
  0
ARC
  5
9A26
330
98FD
100
AcDbEntity
  8
1
  6
Continuous
100
AcDbCircle
 10
344.131033
 20
137.7794189999999
 30
0.0
 40
6.0
100
AcDbArc
 50
163.808645
 51
196.191351
  0
ARC
  5
9A27
330
98FD
100
AcDbEntity
  8
1
  6
Continuous
100
AcDbCircle
 10
339.1372889999999
 20
139.229401
 30
0.0
 40
0.8
100
AcDbArc
 50
90.00000300000001
 51
163.808645
  0
ARC
  5
9A28
330
98FD
100
AcDbEntity
  8
1
  6
Continuous
100
AcDbCircle
 10
339.1372889999999
 20
136.329407
 30
0.0
 40
0.8
100
AcDbArc
 50
196.191355
 51
269.9999969999999
  0
ARC
  5
9A29
330
98FD
100
AcDbEntity
  8
1
  6
Continuous
100
AcDbCircle
 10
339.1372889999999
 20
159.2294159999999
 30
0.0
 40
0.8
100
AcDbArc
 50
90.00000300000001
 51
163.808645
  0
ARC
  5
9A2A
330
98FD
100
AcDbEntity
  8
1
  6
Continuous
100
AcDbCircle
 10
344.131033
 20
157.7794189999998
 30
0.0
 40
6.0
100
AcDbArc
 50
163.808645
 51
196.191351
  0
ARC
  5
9A2B
330
98FD
100
AcDbEntity
  8
1
  6
Continuous
100
AcDbCircle
 10
339.1372889999999
 20
156.3294219999999
 30
0.0
 40
0.8
100
AcDbArc
 50
196.191355
 51
269.9999969999999
  0
ARC
  5
9A2C
330
98FD
100
AcDbEntity
  8
1
  6
Continuous
100
AcDbCircle
 10
351.724783
 20
159.2294159999999
 30
0.0
 40
0.8
100
AcDbArc
 50
16.191351
 51
90.00000300000001
  0
ARC
  5
9A2D
330
98FD
100
AcDbEntity
  8
1
  6
Continuous
100
AcDbCircle
 10
346.731039
 20
157.7794189999998
 30
0.0
 40
6.0
100
AcDbArc
 50
343.8086489999998
 51
16.191351
  0
ARC
  5
9A2E
330
98FD
100
AcDbEntity
  8
1
  6
Continuous
100
AcDbCircle
 10
351.724783
 20
156.3294219999999
 30
0.0
 40
0.8
100
AcDbArc
 50
269.9999969999999
 51
343.8086489999998
  0
ARC
  5
9A2F
330
98FD
100
AcDbEntity
  8
1
  6
Continuous
100
AcDbCircle
 10
351.724783
 20
139.229401
 30
0.0
 40
0.8
100
AcDbArc
 50
16.191351
 51
90.00000300000001
  0
ARC
  5
9A30
330
98FD
100
AcDbEntity
  8
1
  6
Continuous
100
AcDbCircle
 10
346.731039
 20
137.7794189999999
 30
0.0
 40
6.0
100
AcDbArc
 50
343.8086489999998
 51
16.191351
  0
ARC
  5
9A31
330
98FD
100
AcDbEntity
  8
1
  6
Continuous
100
AcDbCircle
 10
351.724783
 20
136.329407
 30
0.0
 40
0.8
100
AcDbArc
 50
269.9999969999999
 51
343.8086489999998
  0
ARC
  5
9A32
330
98FD
100
AcDbEntity
  8
1
  6
Continuous
100
AcDbCircle
 10
160.431036
 20
262.779419
 30
0.0
 40
0.6
100
AcDbArc
 50
0.0
 51
90.00000300000001
  0
ARC
  5
9A33
330
98FD
100
AcDbEntity
  8
1
  6
Continuous
100
AcDbCircle
 10
150.4310199999999
 20
262.779419
 30
0.0
 40
0.6
100
AcDbArc
 50
90.00000300000001
 51
180.000005
  0
ARC
  5
9A34
330
98FD
100
AcDbEntity
  8
1
  6
Continuous
100
AcDbCircle
 10
17.52853899999999
 20
142.643326
 30
0.0
 40
0.57924
100
AcDbArc
 50
134.0725019999999
 51
225.927495
  0
ARC
  5
9A35
330
98FD
100
AcDbEntity
  8
1
  6
Continuous
100
AcDbCircle
 10
18.337095
 20
142.609497
 30
0.0
 40
0.6263380000000001
100
AcDbArc
 50
45.9275
 51
134.0725019999999
  0
ARC
  5
9A36
330
98FD
100
AcDbEntity
  8
1
  6
Continuous
100
AcDbCircle
 10
18.337095
 20
142.6771549999999
 30
0.0
 40
0.6263380000000001
100
AcDbArc
 50
225.9274979999999
 51
314.072503
  0
ARC
  5
9A37
330
98FD
100
AcDbEntity
  8
1
  6
Continuous
100
AcDbCircle
 10
18.304334
 20
142.643326
 30
0.0
 40
0.57924
100
AcDbArc
 50
134.0725019999999
 51
225.927495
  0
ARC
  5
9A38
330
98FD
100
AcDbEntity
  8
1
  6
Continuous
100
AcDbCircle
 10
18.369856
 20
142.643326
 30
0.0
 40
0.57924
100
AcDbArc
 50
314.072503
 51
45.9275
  0
ARC
  5
9A39
330
98FD
100
AcDbEntity
  8
1
  6
Continuous
100
AcDbCircle
 10
17.56129999999998
 20
142.609497
 30
0.0
 40
0.6263380000000001
100
AcDbArc
 50
109.349553
 51
134.0725019999999
  0
ARC
  5
9A3A
330
98FD
100
AcDbEntity
  8
1
  6
Continuous
100
AcDbCircle
 10
17.56129999999998
 20
142.6771549999999
 30
0.0
 40
0.6263380000000001
100
AcDbArc
 50
225.9274979999999
 51
269.9999969999999
  0
ARC
  5
9A3B
330
98FD
100
AcDbEntity
  8
1
  6
Continuous
100
AcDbCircle
 10
161.724783
 20
139.229401
 30
0.0
 40
0.8
100
AcDbArc
 50
16.191351
 51
90.00000300000001
  0
ARC
  5
9A3C
330
98FD
100
AcDbEntity
  8
1
  6
Continuous
100
AcDbCircle
 10
156.7310389999998
 20
137.7794189999999
 30
0.0
 40
6.0
100
AcDbArc
 50
343.8086489999998
 51
16.191351
  0
ARC
  5
9A3D
330
98FD
100
AcDbEntity
  8
1
  6
Continuous
100
AcDbCircle
 10
161.724783
 20
136.329407
 30
0.0
 40
0.8
100
AcDbArc
 50
269.9999969999999
 51
343.8086489999998
  0
ARC
  5
9A3E
330
98FD
100
AcDbEntity
  8
1
  6
Continuous
100
AcDbCircle
 10
149.1372889999998
 20
139.229401
 30
0.0
 40
0.8
100
AcDbArc
 50
90.00000300000001
 51
163.808645
  0
ARC
  5
9A3F
330
98FD
100
AcDbEntity
  8
1
  6
Continuous
100
AcDbCircle
 10
154.1310329999998
 20
137.7794189999999
 30
0.0
 40
6.0
100
AcDbArc
 50
163.808645
 51
196.191351
  0
ARC
  5
9A40
330
98FD
100
AcDbEntity
  8
1
  6
Continuous
100
AcDbCircle
 10
149.1372889999998
 20
136.329407
 30
0.0
 40
0.8
100
AcDbArc
 50
196.191355
 51
269.9999969999999
  0
ARC
  5
9A41
330
98FD
100
AcDbEntity
  8
1
  6
Continuous
100
AcDbCircle
 10
149.1372889999998
 20
159.2294159999999
 30
0.0
 40
0.8
100
AcDbArc
 50
90.00000300000001
 51
163.808645
  0
ARC
  5
9A42
330
98FD
100
AcDbEntity
  8
1
  6
Continuous
100
AcDbCircle
 10
154.1310329999998
 20
157.7794189999998
 30
0.0
 40
6.0
100
AcDbArc
 50
163.808645
 51
196.191351
  0
ARC
  5
9A43
330
98FD
100
AcDbEntity
  8
1
  6
Continuous
100
AcDbCircle
 10
149.1372889999998
 20
156.3294219999999
 30
0.0
 40
0.8
100
AcDbArc
 50
196.191355
 51
269.9999969999999
  0
ARC
  5
9A44
330
98FD
100
AcDbEntity
  8
1
  6
Continuous
100
AcDbCircle
 10
156.7310389999998
 20
157.7794189999998
 30
0.0
 40
6.0
100
AcDbArc
 50
343.8086489999998
 51
16.191351
  0
ARC
  5
9A45
330
98FD
100
AcDbEntity
  8
1
  6
Continuous
100
AcDbCircle
 10
161.724783
 20
159.2294159999999
 30
0.0
 40
0.8
100
AcDbArc
 50
16.191351
 51
90.00000300000001
  0
ARC
  5
9A46
330
98FD
100
AcDbEntity
  8
1
  6
Continuous
100
AcDbCircle
 10
161.724783
 20
156.3294219999999
 30
0.0
 40
0.8
100
AcDbArc
 50
269.9999969999999
 51
343.8086489999998
  0
CIRCLE
  5
9A47
330
98FD
100
AcDbEntity
  8
1
  6
Continuous
100
AcDbCircle
 10
155.4310199999999
 20
149.779419
 30
0.0
 40
6.0
  0
CIRCLE
  5
9A48
330
98FD
100
AcDbEntity
  8
1
  6
Continuous
100
AcDbCircle
 10
155.4310199999999
 20
149.779419
 30
0.0
 40
5.0
  0
CIRCLE
  5
9A49
330
98FD
100
AcDbEntity
  8
1
  6
Continuous
100
AcDbCircle
 10
155.4310199999999
 20
149.779419
 30
0.0
 40
4.099999999999997
  0
ARC
  5
9A4A
330
98FD
100
AcDbEntity
  8
1
  6
Continuous
100
AcDbCircle
 10
345.43102
 20
149.779419
 30
0.0
 40
6.0
100
AcDbArc
 50
158.9602899999999
 51
201.0397199999999
  0
ARC
  5
9A4B
330
98FD
100
AcDbEntity
  8
1
  6
Continuous
100
AcDbCircle
 10
345.43102
 20
149.779419
 30
0.0
 40
6.0
100
AcDbArc
 50
338.9606929999998
 51
21.039307
  0
ARC
  5
9A4C
330
98FD
100
AcDbEntity
  8
1
  6
Continuous
100
AcDbCircle
 10
345.43102
 20
149.779419
 30
0.0
 40
3.1
100
AcDbArc
 50
19.13962599999998
 51
161.394119
  0
LINE
  5
9A4D
330
98FD
100
AcDbEntity
  8
1
  6
Continuous
100
AcDbLine
 10
160.43102
 20
161.7794189999998
 30
0.0
 11
160.43102
 21
153.0960389999999
 31
0.0
  0
LINE
  5
9A4E
330
98FD
100
AcDbEntity
  8
1
  6
Continuous
100
AcDbLine
 10
150.4310199999999
 20
161.7794189999998
 30
0.0
 11
150.4310199999999
 21
153.0960389999999
 31
0.0
  0
CIRCLE
  5
9A4F
330
98FD
100
AcDbEntity
  8
1
  6
Continuous
100
AcDbCircle
 10
155.4310199999999
 20
149.779419
 30
0.0
 40
3.1
  0
LINE
  5
9A50
330
98FD
100
AcDbEntity
  8
1
  6
Continuous
100
AcDbLine
 10
227.1117
 20
153.779404
 30
0.0
 11
228.1117
 21
152.779404
 31
0.0
  0
LINE
  5
9A51
330
98FD
100
AcDbEntity
  8
1
  6
Continuous
100
AcDbLine
 10
228.1117
 20
146.779404
 30
0.0
 11
227.1117
 21
145.779404
 31
0.0
  0
LINE
  5
9A52
330
98FD
100
AcDbEntity
  8
1
  6
Continuous
100
AcDbLine
 10
227.1117
 20
153.779404
 30
0.0
 11
227.1117
 21
145.779404
 31
0.0
  0
LINE
  5
9A53
330
98FD
100
AcDbEntity
  8
1
  6
Continuous
100
AcDbLine
 10
87.15032299999998
 20
155.779404
 30
0.0
 11
87.75031099999997
 21
155.779404
 31
0.0
  0
LINE
  5
9A54
330
98FD
100
AcDbEntity
  8
1
  6
Continuous
100
AcDbLine
 10
87.15032299999998
 20
143.7794039999998
 30
0.0
 11
87.75031099999997
 21
143.7794039999998
 31
0.0
  0
LINE
  5
9A55
330
98FD
100
AcDbEntity
  8
4
  6
CENTER
100
AcDbLine
 10
77.75031099999998
 20
149.779404
 30
0.0
 11
95.750311
 21
149.779404
 31
0.0
  0
LINE
  5
9A56
330
98FD
100
AcDbEntity
  8
1
  6
Continuous
100
AcDbLine
 10
89.750341
 20
143.7794039999998
 30
0.0
 11
89.750341
 21
155.779404
 31
0.0
  0
LINE
  5
9A57
330
98FD
100
AcDbEntity
  8
1
  6
Continuous
100
AcDbLine
 10
88.25034100000001
 20
155.779404
 30
0.0
 11
88.25034100000001
 21
143.7794039999998
 31
0.0
  0
LINE
  5
9A58
330
98FD
100
AcDbEntity
  8
1
  6
Continuous
100
AcDbLine
 10
87.750341
 20
155.779404
 30
0.0
 11
87.750341
 21
143.7794039999998
 31
0.0
  0
LINE
  5
9A59
330
98FD
100
AcDbEntity
  8
1
  6
Continuous
100
AcDbLine
 10
90.75034100000001
 20
154.779404
 30
0.0
 11
90.75034100000001
 21
144.7794039999998
 31
0.0
  0
LINE
  5
9A5A
330
98FD
100
AcDbEntity
  8
1
  6
Continuous
100
AcDbLine
 10
88.25031099999998
 20
144.5793909999999
 30
0.0
 11
89.75031099999998
 21
144.5793909999999
 31
0.0
  0
LINE
  5
9A5B
330
98FD
100
AcDbEntity
  8
1
  6
Continuous
100
AcDbLine
 10
88.25031099999998
 20
145.37941
 30
0.0
 11
89.75031099999998
 21
145.37941
 31
0.0
  0
LINE
  5
9A5C
330
98FD
100
AcDbEntity
  8
1
  6
Continuous
100
AcDbLine
 10
88.25031099999998
 20
146.1793979999999
 30
0.0
 11
89.75031099999998
 21
146.1793979999999
 31
0.0
  0
LINE
  5
9A5D
330
98FD
100
AcDbEntity
  8
1
  6
Continuous
100
AcDbLine
 10
88.25031099999998
 20
146.979385
 30
0.0
 11
89.75031099999998
 21
146.979385
 31
0.0
  0
LINE
  5
9A5E
330
98FD
100
AcDbEntity
  8
1
  6
Continuous
100
AcDbLine
 10
88.25031099999998
 20
147.779404
 30
0.0
 11
89.75031099999998
 21
147.779404
 31
0.0
  0
LINE
  5
9A5F
330
98FD
100
AcDbEntity
  8
1
  6
Continuous
100
AcDbLine
 10
88.25031099999998
 20
148.5793909999999
 30
0.0
 11
89.75031099999998
 21
148.5793909999999
 31
0.0
  0
LINE
  5
9A60
330
98FD
100
AcDbEntity
  8
1
  6
Continuous
100
AcDbLine
 10
88.25031099999998
 20
149.37941
 30
0.0
 11
89.75031099999998
 21
149.37941
 31
0.0
  0
LINE
  5
9A61
330
98FD
100
AcDbEntity
  8
1
  6
Continuous
100
AcDbLine
 10
88.25031099999998
 20
150.1793979999999
 30
0.0
 11
89.75031099999998
 21
150.1793979999999
 31
0.0
  0
LINE
  5
9A62
330
98FD
100
AcDbEntity
  8
1
  6
Continuous
100
AcDbLine
 10
88.25031099999998
 20
150.979385
 30
0.0
 11
89.75031099999998
 21
150.979385
 31
0.0
  0
LINE
  5
9A63
330
98FD
100
AcDbEntity
  8
1
  6
Continuous
100
AcDbLine
 10
88.25031099999998
 20
151.779404
 30
0.0
 11
89.75031099999998
 21
151.779404
 31
0.0
  0
LINE
  5
9A64
330
98FD
100
AcDbEntity
  8
1
  6
Continuous
100
AcDbLine
 10
88.25031099999998
 20
152.5793909999999
 30
0.0
 11
89.75031099999998
 21
152.5793909999999
 31
0.0
  0
LINE
  5
9A65
330
98FD
100
AcDbEntity
  8
1
  6
Continuous
100
AcDbLine
 10
88.25031099999998
 20
153.37941
 30
0.0
 11
89.75031099999998
 21
153.37941
 31
0.0
  0
LINE
  5
9A66
330
98FD
100
AcDbEntity
  8
1
  6
Continuous
100
AcDbLine
 10
87.75031099999997
 20
144.2794189999998
 30
0.0
 11
88.25029499999997
 21
143.779434
 31
0.0
  0
LINE
  5
9A67
330
98FD
100
AcDbEntity
  8
1
  6
Continuous
100
AcDbLine
 10
90.75034100000001
 20
144.7794189999999
 30
0.0
 11
89.750341
 21
143.7794189999999
 31
0.0
  0
LINE
  5
9A68
330
98FD
100
AcDbEntity
  8
1
  6
Continuous
100
AcDbLine
 10
88.25031099999998
 20
143.7794039999998
 30
0.0
 11
89.75031099999998
 21
143.7794039999998
 31
0.0
  0
LINE
  5
9A69
330
98FD
100
AcDbEntity
  8
1
  6
Continuous
100
AcDbLine
 10
88.25031099999998
 20
154.179398
 30
0.0
 11
89.75031099999998
 21
154.179398
 31
0.0
  0
LINE
  5
9A6A
330
98FD
100
AcDbEntity
  8
1
  6
Continuous
100
AcDbLine
 10
88.25031099999998
 20
154.979385
 30
0.0
 11
89.75031099999998
 21
154.979385
 31
0.0
  0
LINE
  5
9A6B
330
98FD
100
AcDbEntity
  8
1
  6
Continuous
100
AcDbLine
 10
87.750341
 20
155.279449
 30
0.0
 11
88.250326
 21
155.779434
 31
0.0
  0
LINE
  5
9A6C
330
98FD
100
AcDbEntity
  8
1
  6
Continuous
100
AcDbLine
 10
90.75029499999999
 20
154.7794189999999
 30
0.0
 11
89.75029499999996
 21
155.7794189999999
 31
0.0
  0
LINE
  5
9A6D
330
98FD
100
AcDbEntity
  8
1
  6
Continuous
100
AcDbLine
 10
88.25031099999998
 20
155.779404
 30
0.0
 11
89.75031099999998
 21
155.779404
 31
0.0
  0
LINE
  5
9A6E
330
98FD
100
AcDbEntity
  8
1
  6
Continuous
100
AcDbLine
 10
87.15035300000002
 20
155.779404
 30
0.0
 11
87.15035300000002
 21
143.7794039999998
 31
0.0
  0
LINE
  5
9A6F
330
98FD
100
AcDbEntity
  8
1
  6
Continuous
100
AcDbLine
 10
83.750341
 20
153.779404
 30
0.0
 11
83.750341
 21
145.779404
 31
0.0
  0
LINE
  5
9A70
330
98FD
100
AcDbEntity
  8
2
  6
Continuous
100
AcDbLine
 10
83.34433500000001
 20
146.1854099999999
 30
0.0
 11
87.15032299999998
 21
146.1854099999999
 31
0.0
  0
LINE
  5
9A71
330
98FD
100
AcDbEntity
  8
2
  6
Continuous
100
AcDbLine
 10
83.34433500000001
 20
153.373398
 30
0.0
 11
87.15032299999998
 21
153.373398
 31
0.0
  0
LINE
  5
9A72
330
98FD
100
AcDbEntity
  8
1
  6
Continuous
100
AcDbLine
 10
82.750341
 20
146.779404
 30
0.0
 11
83.750341
 21
145.779404
 31
0.0
  0
LINE
  5
9A73
330
98FD
100
AcDbEntity
  8
1
  6
Continuous
100
AcDbLine
 10
83.750341
 20
145.779404
 30
0.0
 11
87.15032299999998
 21
145.779404
 31
0.0
  0
LINE
  5
9A74
330
98FD
100
AcDbEntity
  8
1
  6
Continuous
100
AcDbLine
 10
82.750341
 20
152.779404
 30
0.0
 11
82.750341
 21
146.779404
 31
0.0
  0
LINE
  5
9A75
330
98FD
100
AcDbEntity
  8
1
  6
Continuous
100
AcDbLine
 10
83.750341
 20
153.779404
 30
0.0
 11
82.750341
 21
152.779404
 31
0.0
  0
LINE
  5
9A76
330
98FD
100
AcDbEntity
  8
1
  6
Continuous
100
AcDbLine
 10
83.750341
 20
153.779404
 30
0.0
 11
87.15032299999998
 21
153.779404
 31
0.0
  0
LINE
  5
9A77
330
98FD
100
AcDbEntity
  8
1
  6
Continuous
100
AcDbLine
 10
161.43102
 20
89.513466
 30
0.0
 11
161.43102
 21
90.11345400000001
 31
0.0
  0
LINE
  5
9A78
330
98FD
100
AcDbEntity
  8
1
  6
Continuous
100
AcDbLine
 10
149.4310199999999
 20
89.513466
 30
0.0
 11
149.4310199999999
 21
90.11345400000001
 31
0.0
  0
LINE
  5
9A79
330
98FD
100
AcDbEntity
  8
4
  6
CENTER
100
AcDbLine
 10
155.4310199999999
 20
80.11345400000001
 30
0.0
 11
155.4310199999999
 21
98.113454
 31
0.0
  0
LINE
  5
9A7A
330
98FD
100
AcDbEntity
  8
1
  6
Continuous
100
AcDbLine
 10
149.4310199999999
 20
92.11348499999997
 30
0.0
 11
161.43102
 21
92.11348499999997
 31
0.0
  0
LINE
  5
9A7B
330
98FD
100
AcDbEntity
  8
1
  6
Continuous
100
AcDbLine
 10
161.43102
 20
90.61348499999999
 30
0.0
 11
149.4310199999999
 21
90.61348499999999
 31
0.0
  0
LINE
  5
9A7C
330
98FD
100
AcDbEntity
  8
1
  6
Continuous
100
AcDbLine
 10
161.43102
 20
90.113485
 30
0.0
 11
149.4310199999999
 21
90.113485
 31
0.0
  0
LINE
  5
9A7D
330
98FD
100
AcDbEntity
  8
1
  6
Continuous
100
AcDbLine
 10
160.43102
 20
93.11348499999999
 30
0.0
 11
150.4310199999999
 21
93.11348499999999
 31
0.0
  0
LINE
  5
9A7E
330
98FD
100
AcDbEntity
  8
1
  6
Continuous
100
AcDbLine
 10
150.2310079999998
 20
90.613454
 30
0.0
 11
150.2310079999998
 21
92.113454
 31
0.0
  0
LINE
  5
9A7F
330
98FD
100
AcDbEntity
  8
1
  6
Continuous
100
AcDbLine
 10
151.0310259999999
 20
90.613454
 30
0.0
 11
151.0310259999999
 21
92.113454
 31
0.0
  0
LINE
  5
9A80
330
98FD
100
AcDbEntity
  8
1
  6
Continuous
100
AcDbLine
 10
151.8310139999998
 20
90.613454
 30
0.0
 11
151.8310139999998
 21
92.113454
 31
0.0
  0
LINE
  5
9A81
330
98FD
100
AcDbEntity
  8
1
  6
Continuous
100
AcDbLine
 10
152.6310019999999
 20
90.613454
 30
0.0
 11
152.6310019999999
 21
92.113454
 31
0.0
  0
LINE
  5
9A82
330
98FD
100
AcDbEntity
  8
1
  6
Continuous
100
AcDbLine
 10
153.43102
 20
90.613454
 30
0.0
 11
153.43102
 21
92.113454
 31
0.0
  0
LINE
  5
9A83
330
98FD
100
AcDbEntity
  8
1
  6
Continuous
100
AcDbLine
 10
154.231008
 20
90.613454
 30
0.0
 11
154.231008
 21
92.113454
 31
0.0
  0
LINE
  5
9A84
330
98FD
100
AcDbEntity
  8
1
  6
Continuous
100
AcDbLine
 10
155.031026
 20
90.613454
 30
0.0
 11
155.031026
 21
92.113454
 31
0.0
  0
LINE
  5
9A85
330
98FD
100
AcDbEntity
  8
1
  6
Continuous
100
AcDbLine
 10
155.8310139999998
 20
90.613454
 30
0.0
 11
155.8310139999998
 21
92.113454
 31
0.0
  0
LINE
  5
9A86
330
98FD
100
AcDbEntity
  8
1
  6
Continuous
100
AcDbLine
 10
156.6310019999999
 20
90.613454
 30
0.0
 11
156.6310019999999
 21
92.113454
 31
0.0
  0
LINE
  5
9A87
330
98FD
100
AcDbEntity
  8
1
  6
Continuous
100
AcDbLine
 10
157.43102
 20
90.613454
 30
0.0
 11
157.43102
 21
92.113454
 31
0.0
  0
LINE
  5
9A88
330
98FD
100
AcDbEntity
  8
1
  6
Continuous
100
AcDbLine
 10
158.231008
 20
90.613454
 30
0.0
 11
158.231008
 21
92.113454
 31
0.0
  0
LINE
  5
9A89
330
98FD
100
AcDbEntity
  8
1
  6
Continuous
100
AcDbLine
 10
159.031026
 20
90.613454
 30
0.0
 11
159.031026
 21
92.113454
 31
0.0
  0
LINE
  5
9A8A
330
98FD
100
AcDbEntity
  8
1
  6
Continuous
100
AcDbLine
 10
149.931036
 20
90.11345400000001
 30
0.0
 11
149.431051
 21
90.613439
 31
0.0
  0
LINE
  5
9A8B
330
98FD
100
AcDbEntity
  8
1
  6
Continuous
100
AcDbLine
 10
150.431036
 20
93.11348499999999
 30
0.0
 11
149.431036
 21
92.11348499999997
 31
0.0
  0
LINE
  5
9A8C
330
98FD
100
AcDbEntity
  8
1
  6
Continuous
100
AcDbLine
 10
149.4310199999999
 20
90.613454
 30
0.0
 11
149.4310199999999
 21
92.113454
 31
0.0
  0
LINE
  5
9A8D
330
98FD
100
AcDbEntity
  8
1
  6
Continuous
100
AcDbLine
 10
159.8310139999999
 20
90.613454
 30
0.0
 11
159.8310139999999
 21
92.113454
 31
0.0
  0
LINE
  5
9A8E
330
98FD
100
AcDbEntity
  8
1
  6
Continuous
100
AcDbLine
 10
160.631002
 20
90.613454
 30
0.0
 11
160.631002
 21
92.113454
 31
0.0
  0
LINE
  5
9A8F
330
98FD
100
AcDbEntity
  8
1
  6
Continuous
100
AcDbLine
 10
160.931066
 20
90.113485
 30
0.0
 11
161.4310509999999
 21
90.61347000000001
 31
0.0
  0
LINE
  5
9A90
330
98FD
100
AcDbEntity
  8
1
  6
Continuous
100
AcDbLine
 10
160.431036
 20
93.113439
 30
0.0
 11
161.431036
 21
92.11343900000001
 31
0.0
  0
LINE
  5
9A91
330
98FD
100
AcDbEntity
  8
1
  6
Continuous
100
AcDbLine
 10
161.43102
 20
90.613454
 30
0.0
 11
161.43102
 21
92.113454
 31
0.0
  0
LINE
  5
9A92
330
98FD
100
AcDbEntity
  8
1
  6
Continuous
100
AcDbLine
 10
161.43102
 20
89.51349699999999
 30
0.0
 11
149.4310199999999
 21
89.51349699999999
 31
0.0
  0
LINE
  5
9A93
330
98FD
100
AcDbEntity
  8
1
  6
Continuous
100
AcDbLine
 10
159.4310199999999
 20
86.11348499999998
 30
0.0
 11
151.4310199999999
 21
86.11348499999998
 31
0.0
  0
LINE
  5
9A94
330
98FD
100
AcDbEntity
  8
2
  6
Continuous
100
AcDbLine
 10
151.837026
 20
85.707479
 30
0.0
 11
151.837026
 21
89.513466
 31
0.0
  0
LINE
  5
9A95
330
98FD
100
AcDbEntity
  8
2
  6
Continuous
100
AcDbLine
 10
159.0250149999999
 20
85.707479
 30
0.0
 11
159.0250149999999
 21
89.513466
 31
0.0
  0
LINE
  5
9A96
330
98FD
100
AcDbEntity
  8
1
  6
Continuous
100
AcDbLine
 10
152.4310199999999
 20
85.11348499999998
 30
0.0
 11
151.4310199999999
 21
86.11348499999998
 31
0.0
  0
LINE
  5
9A97
330
98FD
100
AcDbEntity
  8
1
  6
Continuous
100
AcDbLine
 10
151.4310199999999
 20
86.11348499999998
 30
0.0
 11
151.4310199999999
 21
89.513466
 31
0.0
  0
LINE
  5
9A98
330
98FD
100
AcDbEntity
  8
1
  6
Continuous
100
AcDbLine
 10
158.43102
 20
85.11348499999998
 30
0.0
 11
152.4310199999999
 21
85.11348499999998
 31
0.0
  0
LINE
  5
9A99
330
98FD
100
AcDbEntity
  8
1
  6
Continuous
100
AcDbLine
 10
159.4310199999999
 20
86.11348499999998
 30
0.0
 11
158.43102
 21
85.11348499999998
 31
0.0
  0
LINE
  5
9A9A
330
98FD
100
AcDbEntity
  8
1
  6
Continuous
100
AcDbLine
 10
159.4310199999999
 20
86.11348499999998
 30
0.0
 11
159.4310199999999
 21
89.513466
 31
0.0
  0
LINE
  5
9A9B
330
98FD
100
AcDbEntity
  8
4
  6
CENTER
100
AcDbLine
 10
155.4310199999999
 20
219.4453839999999
 30
0.0
 11
155.4310199999999
 21
201.4453839999999
 31
0.0
  0
LINE
  5
9A9C
330
98FD
100
AcDbEntity
  8
1
  6
Continuous
100
AcDbLine
 10
151.4310199999999
 20
213.445353
 30
0.0
 11
151.4310199999999
 21
210.0453709999999
 31
0.0
  0
LINE
  5
9A9D
330
98FD
100
AcDbEntity
  8
2
  6
Continuous
100
AcDbLine
 10
151.837026
 20
213.8513589999998
 30
0.0
 11
151.837026
 21
210.0453709999999
 31
0.0
  0
LINE
  5
9A9E
330
98FD
100
AcDbEntity
  8
1
  6
Continuous
100
AcDbLine
 10
159.4310199999999
 20
213.445353
 30
0.0
 11
159.4310199999999
 21
210.0453709999999
 31
0.0
  0
LINE
  5
9A9F
330
98FD
100
AcDbEntity
  8
2
  6
Continuous
100
AcDbLine
 10
159.0250149999999
 20
213.8513589999998
 30
0.0
 11
159.0250149999999
 21
210.0453709999999
 31
0.0
  0
LINE
  5
9AA0
330
98FD
100
AcDbEntity
  8
1
  6
Continuous
100
AcDbLine
 10
159.4310199999999
 20
213.445353
 30
0.0
 11
158.43102
 21
214.4453529999999
 31
0.0
  0
LINE
  5
9AA1
330
98FD
100
AcDbEntity
  8
1
  6
Continuous
100
AcDbLine
 10
159.4310199999999
 20
213.445353
 30
0.0
 11
151.4310199999999
 21
213.445353
 31
0.0
  0
LINE
  5
9AA2
330
98FD
100
AcDbEntity
  8
1
  6
Continuous
100
AcDbLine
 10
158.43102
 20
214.4453529999999
 30
0.0
 11
152.4310199999999
 21
214.4453529999999
 31
0.0
  0
LINE
  5
9AA3
330
98FD
100
AcDbEntity
  8
1
  6
Continuous
100
AcDbLine
 10
152.4310199999999
 20
214.4453529999999
 30
0.0
 11
151.4310199999999
 21
213.445353
 31
0.0
  0
LINE
  5
9AA4
330
98FD
100
AcDbEntity
  8
1
  6
Continuous
100
AcDbLine
 10
161.43102
 20
210.045341
 30
0.0
 11
149.4310199999999
 21
210.045341
 31
0.0
  0
LINE
  5
9AA5
330
98FD
100
AcDbEntity
  8
1
  6
Continuous
100
AcDbLine
 10
160.43102
 20
206.445353
 30
0.0
 11
150.4310199999999
 21
206.445353
 31
0.0
  0
LINE
  5
9AA6
330
98FD
100
AcDbEntity
  8
1
  6
Continuous
100
AcDbLine
 10
161.43102
 20
209.445353
 30
0.0
 11
149.4310199999999
 21
209.445353
 31
0.0
  0
LINE
  5
9AA7
330
98FD
100
AcDbEntity
  8
1
  6
Continuous
100
AcDbLine
 10
161.43102
 20
208.945353
 30
0.0
 11
149.4310199999999
 21
208.945353
 31
0.0
  0
LINE
  5
9AA8
330
98FD
100
AcDbEntity
  8
1
  6
Continuous
100
AcDbLine
 10
149.4310199999999
 20
207.4453529999999
 30
0.0
 11
161.43102
 21
207.4453529999999
 31
0.0
  0
LINE
  5
9AA9
330
98FD
100
AcDbEntity
  8
1
  6
Continuous
100
AcDbLine
 10
149.4310199999999
 20
208.945384
 30
0.0
 11
149.4310199999999
 21
207.4453839999999
 31
0.0
  0
LINE
  5
9AAA
330
98FD
100
AcDbEntity
  8
1
  6
Continuous
100
AcDbLine
 10
150.431036
 20
206.445353
 30
0.0
 11
149.431036
 21
207.4453529999999
 31
0.0
  0
LINE
  5
9AAB
330
98FD
100
AcDbEntity
  8
1
  6
Continuous
100
AcDbLine
 10
149.931036
 20
209.4453839999999
 30
0.0
 11
149.431051
 21
208.9453989999999
 31
0.0
  0
LINE
  5
9AAC
330
98FD
100
AcDbEntity
  8
1
  6
Continuous
100
AcDbLine
 10
158.231008
 20
208.945384
 30
0.0
 11
158.231008
 21
207.4453839999999
 31
0.0
  0
LINE
  5
9AAD
330
98FD
100
AcDbEntity
  8
1
  6
Continuous
100
AcDbLine
 10
157.43102
 20
208.945384
 30
0.0
 11
157.43102
 21
207.4453839999999
 31
0.0
  0
LINE
  5
9AAE
330
98FD
100
AcDbEntity
  8
1
  6
Continuous
100
AcDbLine
 10
156.6310019999999
 20
208.945384
 30
0.0
 11
156.6310019999999
 21
207.4453839999999
 31
0.0
  0
LINE
  5
9AAF
330
98FD
100
AcDbEntity
  8
1
  6
Continuous
100
AcDbLine
 10
155.8310139999998
 20
208.945384
 30
0.0
 11
155.8310139999998
 21
207.4453839999999
 31
0.0
  0
LINE
  5
9AB0
330
98FD
100
AcDbEntity
  8
1
  6
Continuous
100
AcDbLine
 10
155.031026
 20
208.945384
 30
0.0
 11
155.031026
 21
207.4453839999999
 31
0.0
  0
LINE
  5
9AB1
330
98FD
100
AcDbEntity
  8
1
  6
Continuous
100
AcDbLine
 10
154.231008
 20
208.945384
 30
0.0
 11
154.231008
 21
207.4453839999999
 31
0.0
  0
LINE
  5
9AB2
330
98FD
100
AcDbEntity
  8
1
  6
Continuous
100
AcDbLine
 10
153.43102
 20
208.945384
 30
0.0
 11
153.43102
 21
207.4453839999999
 31
0.0
  0
LINE
  5
9AB3
330
98FD
100
AcDbEntity
  8
1
  6
Continuous
100
AcDbLine
 10
152.6310019999999
 20
208.945384
 30
0.0
 11
152.6310019999999
 21
207.4453839999999
 31
0.0
  0
LINE
  5
9AB4
330
98FD
100
AcDbEntity
  8
1
  6
Continuous
100
AcDbLine
 10
151.8310139999998
 20
208.945384
 30
0.0
 11
151.8310139999998
 21
207.4453839999999
 31
0.0
  0
LINE
  5
9AB5
330
98FD
100
AcDbEntity
  8
1
  6
Continuous
100
AcDbLine
 10
151.0310259999999
 20
208.945384
 30
0.0
 11
151.0310259999999
 21
207.4453839999999
 31
0.0
  0
LINE
  5
9AB6
330
98FD
100
AcDbEntity
  8
1
  6
Continuous
100
AcDbLine
 10
150.2310079999998
 20
208.945384
 30
0.0
 11
150.2310079999998
 21
207.4453839999999
 31
0.0
  0
LINE
  5
9AB7
330
98FD
100
AcDbEntity
  8
1
  6
Continuous
100
AcDbLine
 10
149.4310199999999
 20
210.0453709999999
 30
0.0
 11
149.4310199999999
 21
209.4453839999999
 31
0.0
  0
LINE
  5
9AB8
330
98FD
100
AcDbEntity
  8
1
  6
Continuous
100
AcDbLine
 10
159.031026
 20
208.945384
 30
0.0
 11
159.031026
 21
207.4453839999999
 31
0.0
  0
LINE
  5
9AB9
330
98FD
100
AcDbEntity
  8
1
  6
Continuous
100
AcDbLine
 10
161.43102
 20
208.945384
 30
0.0
 11
161.43102
 21
207.4453839999999
 31
0.0
  0
LINE
  5
9ABA
330
98FD
100
AcDbEntity
  8
1
  6
Continuous
100
AcDbLine
 10
160.431036
 20
206.445399
 30
0.0
 11
161.431036
 21
207.445399
 31
0.0
  0
LINE
  5
9ABB
330
98FD
100
AcDbEntity
  8
1
  6
Continuous
100
AcDbLine
 10
160.931066
 20
209.445353
 30
0.0
 11
161.4310509999999
 21
208.945368
 31
0.0
  0
LINE
  5
9ABC
330
98FD
100
AcDbEntity
  8
1
  6
Continuous
100
AcDbLine
 10
160.631002
 20
208.945384
 30
0.0
 11
160.631002
 21
207.4453839999999
 31
0.0
  0
LINE
  5
9ABD
330
98FD
100
AcDbEntity
  8
1
  6
Continuous
100
AcDbLine
 10
159.8310139999999
 20
208.945384
 30
0.0
 11
159.8310139999999
 21
207.4453839999999
 31
0.0
  0
LINE
  5
9ABE
330
98FD
100
AcDbEntity
  8
1
  6
Continuous
100
AcDbLine
 10
161.43102
 20
210.0453709999999
 30
0.0
 11
161.43102
 21
209.4453839999999
 31
0.0
  0
ARC
  5
9ABF
330
98FD
100
AcDbEntity
  8
1
  6
Continuous
100
AcDbCircle
 10
22.73101599999999
 20
137.7794189999999
 30
0.0
 40
1.3
100
AcDbArc
 50
259.558906
 51
280.4410889999999
  0
ARC
  5
9AC0
330
98FD
100
AcDbEntity
  8
1
  6
Continuous
100
AcDbCircle
 10
22.73101599999999
 20
137.7794189999999
 30
0.0
 40
1.3
100
AcDbArc
 50
79.55891099999998
 51
100.4410939999998
  0
LINE
  5
9AC1
330
98FD
100
AcDbEntity
  8
1
  6
Continuous
100
AcDbLine
 10
22.48331199999999
 20
137.194729
 30
0.0
 11
22.38983699999999
 21
137.4382379999999
 31
0.0
  0
LINE
  5
9AC2
330
98FD
100
AcDbEntity
  8
1
  6
Continuous
100
AcDbLine
 10
22.48331599999999
 20
137.1947209999998
 30
0.0
 11
22.49542599999999
 21
136.5009479999999
 31
0.0
  0
LINE
  5
9AC3
330
98FD
100
AcDbEntity
  8
1
  6
Continuous
100
AcDbLine
 10
22.146319
 20
138.0271159999997
 30
0.0
 11
21.452539
 21
138.015006
 31
0.0
  0
LINE
  5
9AC4
330
98FD
100
AcDbEntity
  8
1
  6
Continuous
100
AcDbLine
 10
22.146319
 20
137.5317139999999
 30
0.0
 11
21.452538
 21
137.543824
 31
0.0
  0
ARC
  5
9AC5
330
98FD
100
AcDbEntity
  8
1
  6
Continuous
100
AcDbCircle
 10
22.73101599999999
 20
137.7794189999999
 30
0.0
 40
1.3
100
AcDbArc
 50
169.5589129999999
 51
190.4410969999999
  0
LINE
  5
9AC6
330
98FD
100
AcDbEntity
  8
1
  6
Continuous
100
AcDbLine
 10
22.146318
 20
138.027122
 30
0.0
 11
22.38983399999999
 21
138.1205989999999
 31
0.0
  0
LINE
  5
9AC7
330
98FD
100
AcDbEntity
  8
1
  6
Continuous
100
AcDbLine
 10
22.14631699999999
 20
137.531723
 30
0.0
 11
22.38983999999998
 21
137.438243
 31
0.0
  0
LINE
  5
9AC8
330
98FD
100
AcDbEntity
  8
1
  6
Continuous
100
AcDbLine
 10
22.483315
 20
138.36411
 30
0.0
 11
22.49542599999999
 21
139.0578969999999
 31
0.0
  0
LINE
  5
9AC9
330
98FD
100
AcDbEntity
  8
1
  6
Continuous
100
AcDbLine
 10
22.483314
 20
138.3641139999998
 30
0.0
 11
22.38983699999999
 21
138.120598
 31
0.0
  0
LINE
  5
9ACA
330
98FD
100
AcDbEntity
  8
1
  6
Continuous
100
AcDbLine
 10
22.978722
 20
137.1947209999998
 30
0.0
 11
23.07219899999999
 21
137.4382369999999
 31
0.0
  0
LINE
  5
9ACB
330
98FD
100
AcDbEntity
  8
1
  6
Continuous
100
AcDbLine
 10
22.978714
 20
137.194717
 30
0.0
 11
22.96660399999999
 21
136.500945
 31
0.0
  0
LINE
  5
9ACC
330
98FD
100
AcDbEntity
  8
1
  6
Continuous
100
AcDbLine
 10
23.315711
 20
138.027128
 30
0.0
 11
24.009491
 21
138.015018
 31
0.0
  0
LINE
  5
9ACD
330
98FD
100
AcDbEntity
  8
1
  6
Continuous
100
AcDbLine
 10
23.315711
 20
137.5317169999999
 30
0.0
 11
24.009491
 21
137.5438269999999
 31
0.0
  0
LINE
  5
9ACE
330
98FD
100
AcDbEntity
  8
1
  6
Continuous
100
AcDbLine
 10
22.978713
 20
138.3641199999999
 30
0.0
 11
23.07219299999999
 21
138.120597
 31
0.0
  0
LINE
  5
9ACF
330
98FD
100
AcDbEntity
  8
1
  6
Continuous
100
AcDbLine
 10
22.978715
 20
138.3641129999998
 30
0.0
 11
22.96660399999999
 21
139.0579009999999
 31
0.0
  0
LINE
  5
9AD0
330
98FD
100
AcDbEntity
  8
1
  6
Continuous
100
AcDbLine
 10
23.31570799999999
 20
138.0271239999999
 30
0.0
 11
23.07219799999999
 21
138.1205989999999
 31
0.0
  0
LINE
  5
9AD1
330
98FD
100
AcDbEntity
  8
1
  6
Continuous
100
AcDbLine
 10
23.31571199999999
 20
137.5317129999999
 30
0.0
 11
23.07219499999999
 21
137.438236
 31
0.0
  0
ARC
  5
9AD2
330
98FD
100
AcDbEntity
  8
1
  6
Continuous
100
AcDbCircle
 10
22.73101599999999
 20
137.7794189999999
 30
0.0
 40
1.3
100
AcDbArc
 50
349.5589079999998
 51
10.441092
  0
ARC
  5
9AD3
330
98FD
100
AcDbEntity
  8
1
  6
Continuous
100
AcDbCircle
 10
22.73101599999999
 20
157.7794189999998
 30
0.0
 40
1.3
100
AcDbArc
 50
259.558906
 51
280.4410889999999
  0
ARC
  5
9AD4
330
98FD
100
AcDbEntity
  8
1
  6
Continuous
100
AcDbCircle
 10
22.73101599999999
 20
157.7794189999998
 30
0.0
 40
1.3
100
AcDbArc
 50
79.55891099999998
 51
100.4410939999998
  0
LINE
  5
9AD5
330
98FD
100
AcDbEntity
  8
1
  6
Continuous
100
AcDbLine
 10
22.48331199999999
 20
157.1947289999999
 30
0.0
 11
22.38983699999999
 21
157.4382379999998
 31
0.0
  0
LINE
  5
9AD6
330
98FD
100
AcDbEntity
  8
1
  6
Continuous
100
AcDbLine
 10
22.48331599999999
 20
157.1947209999999
 30
0.0
 11
22.49542599999999
 21
156.500948
 31
0.0
  0
LINE
  5
9AD7
330
98FD
100
AcDbEntity
  8
1
  6
Continuous
100
AcDbLine
 10
22.146319
 20
158.0271159999998
 30
0.0
 11
21.452539
 21
158.015006
 31
0.0
  0
LINE
  5
9AD8
330
98FD
100
AcDbEntity
  8
1
  6
Continuous
100
AcDbLine
 10
22.146319
 20
157.5317139999999
 30
0.0
 11
21.452538
 21
157.5438239999998
 31
0.0
  0
ARC
  5
9AD9
330
98FD
100
AcDbEntity
  8
1
  6
Continuous
100
AcDbCircle
 10
22.73101599999999
 20
157.7794189999998
 30
0.0
 40
1.3
100
AcDbArc
 50
169.5589129999999
 51
190.4410969999999
  0
LINE
  5
9ADA
330
98FD
100
AcDbEntity
  8
1
  6
Continuous
100
AcDbLine
 10
22.146318
 20
158.027122
 30
0.0
 11
22.38983399999999
 21
158.1205989999999
 31
0.0
  0
LINE
  5
9ADB
330
98FD
100
AcDbEntity
  8
1
  6
Continuous
100
AcDbLine
 10
22.14631699999999
 20
157.531723
 30
0.0
 11
22.38983999999998
 21
157.4382429999998
 31
0.0
  0
LINE
  5
9ADC
330
98FD
100
AcDbEntity
  8
1
  6
Continuous
100
AcDbLine
 10
22.483315
 20
158.36411
 30
0.0
 11
22.49542599999999
 21
159.0578969999999
 31
0.0
  0
LINE
  5
9ADD
330
98FD
100
AcDbEntity
  8
1
  6
Continuous
100
AcDbLine
 10
22.483314
 20
158.364114
 30
0.0
 11
22.38983699999999
 21
158.120598
 31
0.0
  0
LINE
  5
9ADE
330
98FD
100
AcDbEntity
  8
1
  6
Continuous
100
AcDbLine
 10
22.978722
 20
157.1947209999999
 30
0.0
 11
23.07219899999999
 21
157.4382369999999
 31
0.0
  0
LINE
  5
9ADF
330
98FD
100
AcDbEntity
  8
1
  6
Continuous
100
AcDbLine
 10
22.978714
 20
157.194717
 30
0.0
 11
22.96660399999999
 21
156.5009449999998
 31
0.0
  0
LINE
  5
9AE0
330
98FD
100
AcDbEntity
  8
1
  6
Continuous
100
AcDbLine
 10
23.315711
 20
158.027128
 30
0.0
 11
24.009491
 21
158.0150179999999
 31
0.0
  0
LINE
  5
9AE1
330
98FD
100
AcDbEntity
  8
1
  6
Continuous
100
AcDbLine
 10
23.315711
 20
157.5317169999999
 30
0.0
 11
24.009491
 21
157.543827
 31
0.0
  0
LINE
  5
9AE2
330
98FD
100
AcDbEntity
  8
1
  6
Continuous
100
AcDbLine
 10
22.978713
 20
158.3641199999999
 30
0.0
 11
23.07219299999999
 21
158.120597
 31
0.0
  0
LINE
  5
9AE3
330
98FD
100
AcDbEntity
  8
1
  6
Continuous
100
AcDbLine
 10
22.978715
 20
158.3641129999998
 30
0.0
 11
22.96660399999999
 21
159.0579009999999
 31
0.0
  0
LINE
  5
9AE4
330
98FD
100
AcDbEntity
  8
1
  6
Continuous
100
AcDbLine
 10
23.31570799999999
 20
158.0271239999999
 30
0.0
 11
23.07219799999999
 21
158.1205989999999
 31
0.0
  0
LINE
  5
9AE5
330
98FD
100
AcDbEntity
  8
1
  6
Continuous
100
AcDbLine
 10
23.31571199999999
 20
157.5317129999999
 30
0.0
 11
23.07219499999999
 21
157.4382359999999
 31
0.0
  0
ARC
  5
9AE6
330
98FD
100
AcDbEntity
  8
1
  6
Continuous
100
AcDbCircle
 10
22.73101599999999
 20
157.7794189999998
 30
0.0
 40
1.3
100
AcDbArc
 50
349.5589079999998
 51
10.441092
  0
ARC
  5
9AE7
330
98FD
100
AcDbEntity
  8
1
  6
Continuous
100
AcDbCircle
 10
278.131033
 20
137.7794189999999
 30
0.0
 40
1.3
100
AcDbArc
 50
259.558906
 51
280.4410889999999
  0
ARC
  5
9AE8
330
98FD
100
AcDbEntity
  8
1
  6
Continuous
100
AcDbCircle
 10
278.131033
 20
137.7794189999999
 30
0.0
 40
1.3
100
AcDbArc
 50
79.55891099999998
 51
100.4410939999998
  0
LINE
  5
9AE9
330
98FD
100
AcDbEntity
  8
1
  6
Continuous
100
AcDbLine
 10
277.883328
 20
137.194729
 30
0.0
 11
277.7898539999998
 21
137.4382379999999
 31
0.0
  0
LINE
  5
9AEA
330
98FD
100
AcDbEntity
  8
1
  6
Continuous
100
AcDbLine
 10
277.8833329999998
 20
137.1947209999998
 30
0.0
 11
277.895443
 21
136.5009479999999
 31
0.0
  0
LINE
  5
9AEB
330
98FD
100
AcDbEntity
  8
1
  6
Continuous
100
AcDbLine
 10
277.5463359999998
 20
138.0271159999997
 30
0.0
 11
276.852556
 21
138.015006
 31
0.0
  0
LINE
  5
9AEC
330
98FD
100
AcDbEntity
  8
1
  6
Continuous
100
AcDbLine
 10
277.5463349999998
 20
137.5317139999999
 30
0.0
 11
276.852555
 21
137.543824
 31
0.0
  0
ARC
  5
9AED
330
98FD
100
AcDbEntity
  8
1
  6
Continuous
100
AcDbCircle
 10
278.131033
 20
137.7794189999999
 30
0.0
 40
1.3
100
AcDbArc
 50
169.5589129999999
 51
190.4410969999999
  0
LINE
  5
9AEE
330
98FD
100
AcDbEntity
  8
1
  6
Continuous
100
AcDbLine
 10
277.5463349999998
 20
138.027122
 30
0.0
 11
277.7898509999999
 21
138.1205989999999
 31
0.0
  0
LINE
  5
9AEF
330
98FD
100
AcDbEntity
  8
1
  6
Continuous
100
AcDbLine
 10
277.5463339999999
 20
137.531723
 30
0.0
 11
277.789857
 21
137.438243
 31
0.0
  0
LINE
  5
9AF0
330
98FD
100
AcDbEntity
  8
1
  6
Continuous
100
AcDbLine
 10
277.8833319999999
 20
138.36411
 30
0.0
 11
277.895442
 21
139.0578969999999
 31
0.0
  0
LINE
  5
9AF1
330
98FD
100
AcDbEntity
  8
1
  6
Continuous
100
AcDbLine
 10
277.883331
 20
138.3641139999998
 30
0.0
 11
277.7898539999998
 21
138.120598
 31
0.0
  0
LINE
  5
9AF2
330
98FD
100
AcDbEntity
  8
1
  6
Continuous
100
AcDbLine
 10
278.378739
 20
137.1947209999998
 30
0.0
 11
278.472216
 21
137.4382369999999
 31
0.0
  0
LINE
  5
9AF3
330
98FD
100
AcDbEntity
  8
1
  6
Continuous
100
AcDbLine
 10
278.378731
 20
137.194717
 30
0.0
 11
278.366621
 21
136.500945
 31
0.0
  0
LINE
  5
9AF4
330
98FD
100
AcDbEntity
  8
1
  6
Continuous
100
AcDbLine
 10
278.7157279999998
 20
138.027128
 30
0.0
 11
279.409508
 21
138.015018
 31
0.0
  0
LINE
  5
9AF5
330
98FD
100
AcDbEntity
  8
1
  6
Continuous
100
AcDbLine
 10
278.7157279999998
 20
137.5317169999999
 30
0.0
 11
279.409508
 21
137.5438269999999
 31
0.0
  0
LINE
  5
9AF6
330
98FD
100
AcDbEntity
  8
1
  6
Continuous
100
AcDbLine
 10
278.378729
 20
138.3641199999999
 30
0.0
 11
278.4722089999998
 21
138.120597
 31
0.0
  0
LINE
  5
9AF7
330
98FD
100
AcDbEntity
  8
1
  6
Continuous
100
AcDbLine
 10
278.378731
 20
138.3641129999998
 30
0.0
 11
278.366621
 21
139.0579009999999
 31
0.0
  0
LINE
  5
9AF8
330
98FD
100
AcDbEntity
  8
1
  6
Continuous
100
AcDbLine
 10
278.715725
 20
138.0271239999999
 30
0.0
 11
278.4722149999999
 21
138.1205989999999
 31
0.0
  0
LINE
  5
9AF9
330
98FD
100
AcDbEntity
  8
1
  6
Continuous
100
AcDbLine
 10
278.715729
 20
137.5317129999999
 30
0.0
 11
278.472212
 21
137.438236
 31
0.0
  0
ARC
  5
9AFA
330
98FD
100
AcDbEntity
  8
1
  6
Continuous
100
AcDbCircle
 10
278.131033
 20
137.7794189999999
 30
0.0
 40
1.3
100
AcDbArc
 50
349.5589079999998
 51
10.441092
  0
ARC
  5
9AFB
330
98FD
100
AcDbEntity
  8
1
  6
Continuous
100
AcDbCircle
 10
278.131033
 20
157.7794189999998
 30
0.0
 40
1.3
100
AcDbArc
 50
259.558906
 51
280.4410889999999
  0
ARC
  5
9AFC
330
98FD
100
AcDbEntity
  8
1
  6
Continuous
100
AcDbCircle
 10
278.131033
 20
157.7794189999998
 30
0.0
 40
1.3
100
AcDbArc
 50
79.55891099999998
 51
100.4410939999998
  0
LINE
  5
9AFD
330
98FD
100
AcDbEntity
  8
1
  6
Continuous
100
AcDbLine
 10
277.883328
 20
157.1947289999999
 30
0.0
 11
277.7898539999998
 21
157.4382379999998
 31
0.0
  0
LINE
  5
9AFE
330
98FD
100
AcDbEntity
  8
1
  6
Continuous
100
AcDbLine
 10
277.8833329999998
 20
157.1947209999999
 30
0.0
 11
277.895443
 21
156.500948
 31
0.0
  0
LINE
  5
9AFF
330
98FD
100
AcDbEntity
  8
1
  6
Continuous
100
AcDbLine
 10
277.5463359999998
 20
158.0271159999998
 30
0.0
 11
276.852556
 21
158.015006
 31
0.0
  0
LINE
  5
9B00
330
98FD
100
AcDbEntity
  8
1
  6
Continuous
100
AcDbLine
 10
277.5463349999998
 20
157.5317139999999
 30
0.0
 11
276.852555
 21
157.5438239999998
 31
0.0
  0
ARC
  5
9B01
330
98FD
100
AcDbEntity
  8
1
  6
Continuous
100
AcDbCircle
 10
278.131033
 20
157.7794189999998
 30
0.0
 40
1.3
100
AcDbArc
 50
169.5589129999999
 51
190.4410969999999
  0
LINE
  5
9B02
330
98FD
100
AcDbEntity
  8
1
  6
Continuous
100
AcDbLine
 10
277.5463349999998
 20
158.027122
 30
0.0
 11
277.7898509999999
 21
158.1205989999999
 31
0.0
  0
LINE
  5
9B03
330
98FD
100
AcDbEntity
  8
1
  6
Continuous
100
AcDbLine
 10
277.5463339999999
 20
157.531723
 30
0.0
 11
277.789857
 21
157.4382429999998
 31
0.0
  0
LINE
  5
9B04
330
98FD
100
AcDbEntity
  8
1
  6
Continuous
100
AcDbLine
 10
277.8833319999999
 20
158.36411
 30
0.0
 11
277.895442
 21
159.0578969999999
 31
0.0
  0
LINE
  5
9B05
330
98FD
100
AcDbEntity
  8
1
  6
Continuous
100
AcDbLine
 10
277.883331
 20
158.364114
 30
0.0
 11
277.7898539999998
 21
158.120598
 31
0.0
  0
LINE
  5
9B06
330
98FD
100
AcDbEntity
  8
1
  6
Continuous
100
AcDbLine
 10
278.378739
 20
157.1947209999999
 30
0.0
 11
278.472216
 21
157.4382369999999
 31
0.0
  0
LINE
  5
9B07
330
98FD
100
AcDbEntity
  8
1
  6
Continuous
100
AcDbLine
 10
278.378731
 20
157.194717
 30
0.0
 11
278.366621
 21
156.5009449999998
 31
0.0
  0
LINE
  5
9B08
330
98FD
100
AcDbEntity
  8
1
  6
Continuous
100
AcDbLine
 10
278.7157279999998
 20
158.027128
 30
0.0
 11
279.409508
 21
158.0150179999999
 31
0.0
  0
LINE
  5
9B09
330
98FD
100
AcDbEntity
  8
1
  6
Continuous
100
AcDbLine
 10
278.7157279999998
 20
157.5317169999999
 30
0.0
 11
279.409508
 21
157.543827
 31
0.0
  0
LINE
  5
9B0A
330
98FD
100
AcDbEntity
  8
1
  6
Continuous
100
AcDbLine
 10
278.378729
 20
158.3641199999999
 30
0.0
 11
278.4722089999998
 21
158.120597
 31
0.0
  0
LINE
  5
9B0B
330
98FD
100
AcDbEntity
  8
1
  6
Continuous
100
AcDbLine
 10
278.378731
 20
158.3641129999998
 30
0.0
 11
278.366621
 21
159.0579009999999
 31
0.0
  0
LINE
  5
9B0C
330
98FD
100
AcDbEntity
  8
1
  6
Continuous
100
AcDbLine
 10
278.715725
 20
158.0271239999999
 30
0.0
 11
278.4722149999999
 21
158.1205989999999
 31
0.0
  0
LINE
  5
9B0D
330
98FD
100
AcDbEntity
  8
1
  6
Continuous
100
AcDbLine
 10
278.715729
 20
157.5317129999999
 30
0.0
 11
278.472212
 21
157.4382359999999
 31
0.0
  0
ARC
  5
9B0E
330
98FD
100
AcDbEntity
  8
1
  6
Continuous
100
AcDbCircle
 10
278.131033
 20
157.7794189999998
 30
0.0
 40
1.3
100
AcDbArc
 50
349.5589079999998
 51
10.441092
  0
ENDSEC
  0
SECTION
  2
OBJECTS
  0
DICTIONARY
  5
98EB
330
0
100
AcDbDictionary
281
     1
  3
ACAD_CIP_PREVIOUS_PRODUCT_INFO
350
9C44
  3
ACAD_COLOR
350
9C26
  3
ACAD_DETAILVIEWSTYLE
350
9C3F
  3
ACAD_GROUP
350
98EC
  3
ACAD_LAYOUT
350
98F8
  3
ACAD_MATERIAL
350
9BF4
  3
ACAD_MLEADERSTYLE
350
9C3B
  3
ACAD_MLINESTYLE
350
98F5
  3
ACAD_PLOTSETTINGS
350
98F7
  3
ACAD_PLOTSTYLENAME
350
9BF2
  3
ACAD_SCALELIST
350
9C29
  3
ACAD_SECTIONVIEWSTYLE
350
9C3D
  3
ACAD_TABLESTYLE
350
9C27
  3
ACAD_VISUALSTYLE
350
9C0D
  3
ACDB_RECOMPOSE_DATA
350
9C62
  3
AcDbVariableDictionary
350
9C55
  3
DWGPROPS
350
9C63
  0
DICTIONARY
  5
9C45
330
98EF
100
AcDbDictionary
280
     1
281
     1
  3
ADSK_XREC_LAYER_RECONCILED
360
9C46
  0
DICTIONARY
  5
9C47
330
9905
100
AcDbDictionary
280
     1
281
     1
  3
ADSK_XREC_LAYER_RECONCILED
360
9C48
  0
DICTIONARY
  5
9C49
330
9906
100
AcDbDictionary
280
     1
281
     1
  3
ADSK_XREC_LAYER_RECONCILED
360
9C4A
  0
DICTIONARY
  5
9C4B
330
9907
100
AcDbDictionary
280
     1
281
     1
  3
ADSK_XREC_LAYER_RECONCILED
360
9C4C
  0
DICTIONARY
  5
9C4D
330
9908
100
AcDbDictionary
280
     1
281
     1
  3
ADSK_XREC_LAYER_RECONCILED
360
9C4E
  0
DICTIONARY
  5
9C4F
330
9909
100
AcDbDictionary
280
     1
281
     1
  3
ADSK_XREC_LAYER_RECONCILED
360
9C50
  0
DICTIONARY
  5
9C51
330
990A
100
AcDbDictionary
280
     1
281
     1
  3
ADSK_XREC_LAYER_RECONCILED
360
9C52
  0
DICTIONARY
  5
9C53
330
990B
100
AcDbDictionary
280
     1
281
     1
  3
ADSK_XREC_LAYER_RECONCILED
360
9C54
  0
DICTIONARY
  5
9BED
330
98FD
100
AcDbDictionary
281
     1
  3
ACAD_LAYOUTSELFREF
350
9BEE
  0
DICTIONARY
  5
9BEB
330
98F9
100
AcDbDictionary
281
     1
  3
ACAD_LAYOUTSELFREF
350
9BEC
  0
XRECORD
  5
9C44
102
{ACAD_REACTORS
330
98EB
102
}
330
98EB
100
AcDbXrecord
280
     1
300
ACDLT
300
2014
300
ACDLT_F_S
  0
DICTIONARY
  5
9C26
102
{ACAD_REACTORS
330
98EB
102
}
330
98EB
100
AcDbDictionary
281
     1
  0
DICTIONARY
  5
9C3F
102
{ACAD_REACTORS
330
98EB
102
}
330
98EB
100
AcDbDictionary
281
     1
  3
Imperial24
350
9C40
  0
DICTIONARY
  5
98EC
102
{ACAD_REACTORS
330
98EB
102
}
330
98EB
100
AcDbDictionary
281
     1
  0
DICTIONARY
  5
98F8
102
{ACAD_REACTORS
330
98EB
102
}
330
98EB
100
AcDbDictionary
281
     1
  3
Model
350
9C41
  3
レイアウト1
350
9C42
  0
DICTIONARY
  5
9BF4
102
{ACAD_REACTORS
330
98EB
102
}
330
98EB
100
AcDbDictionary
281
     1
  3
ByBlock
350
9BFD
  3
ByLayer
350
9BF5
  3
Global
350
9C05
  0
DICTIONARY
  5
9C3B
102
{ACAD_REACTORS
330
98EB
102
}
330
98EB
100
AcDbDictionary
281
     1
  3
Standard
350
9C3C
  0
DICTIONARY
  5
98F5
102
{ACAD_REACTORS
330
98EB
102
}
330
98EB
100
AcDbDictionary
281
     1
  3
STANDARD
350
98F6
  0
DICTIONARY
  5
98F7
102
{ACAD_REACTORS
330
98EB
102
}
330
98EB
100
AcDbDictionary
281
     1
  0
ACDBDICTIONARYWDFLT
  5
9BF2
102
{ACAD_REACTORS
330
98EB
102
}
330
98EB
100
AcDbDictionary
281
     1
  3
Normal
350
9BF3
100
AcDbDictionaryWithDefault
340
9BF3
  0
DICTIONARY
  5
9C29
102
{ACAD_REACTORS
330
98EB
102
}
330
98EB
100
AcDbDictionary
281
     1
  3
A0
350
9C2A
  3
A1
350
9C2B
  3
A2
350
9C2C
  3
A3
350
9C2D
  3
A4
350
9C2E
  3
A5
350
9C2F
  3
A6
350
9C30
  3
A7
350
9C31
  3
A8
350
9C32
  3
A9
350
9C33
  3
B0
350
9C34
  3
B1
350
9C35
  3
B2
350
9C36
  3
B3
350
9C37
  3
B4
350
9C38
  3
B5
350
9C39
  3
B6
350
9C3A
  0
DICTIONARY
  5
9C3D
102
{ACAD_REACTORS
330
98EB
102
}
330
98EB
100
AcDbDictionary
281
     1
  3
Imperial24
350
9C3E
  0
DICTIONARY
  5
9C27
102
{ACAD_REACTORS
330
98EB
102
}
330
98EB
100
AcDbDictionary
281
     1
  3
Standard
350
9C28
  0
DICTIONARY
  5
9C0D
102
{ACAD_REACTORS
330
98EB
102
}
330
98EB
100
AcDbDictionary
281
     1
  3
2dWireframe
350
9C13
  3
Basic
350
9C12
  3
Brighten
350
9C19
  3
ColorChange
350
9C1D
  3
Conceptual
350
9C16
  3
Dim
350
9C18
  3
EdgeColorOff
350
9C25
  3
Facepattern
350
9C1C
  3
Flat
350
9C0E
  3
FlatWithEdges
350
9C0F
  3
Gouraud
350
9C10
  3
GouraudWithEdges
350
9C11
  3
Hidden
350
9C15
  3
JitterOff
350
9C23
  3
Linepattern
350
9C1B
  3
OverhangOff
350
9C24
  3
Realistic
350
9C17
  3
Shaded
350
9C22
  3
Shaded with edges
350
9C21
  3
Shades of Gray
350
9C1E
  3
Sketchy
350
9C1F
  3
Thicken
350
9C1A
  3
Wireframe
350
9C14
  3
X-Ray
350
9C20
  0
XRECORD
  5
9C62
102
{ACAD_REACTORS
330
98EB
102
}
330
98EB
100
AcDbXrecord
280
     1
 90
        1
330
9C28
  0
DICTIONARY
  5
9C55
102
{ACAD_REACTORS
330
98EB
102
}
330
98EB
100
AcDbDictionary
281
     1
  3
CANNOSCALE
350
9C5A
  3
CMLEADERSTYLE
350
9C57
  3
CTABLESTYLE
350
9C56
  3
CVIEWDETAILSTYLE
350
9C58
  3
CVIEWSECTIONSTYLE
350
9C59
  3
DIMASSOC
350
9C5D
  3
INDEXCTL
350
9C5C
  3
SORTENTS
350
9C5B
  3
XCLIPFRAME
350
9C5E
  0
XRECORD
  5
9C63
102
{ACAD_REACTORS
330
98EB
102
}
330
98EB
100
AcDbXrecord
280
     1
  1
DWGPROPS COOKIE
  2

  3

  4

  6

  7

  8
Yoshitsune
  9

300
=
301
=
302
=
303
=
304
=
305
=
306
=
307
=
308
=
309
=
 40
0.0073446180555556
 41
2451066.549790162
 42
2457192.601647141
  1

 90
        0
  0
XRECORD
  5
9C46
102
{ACAD_REACTORS
330
9C45
102
}
330
9C45
100
AcDbXrecord
280
     1
290
     1
  0
XRECORD
  5
9C48
102
{ACAD_REACTORS
330
9C47
102
}
330
9C47
100
AcDbXrecord
280
     1
290
     1
  0
XRECORD
  5
9C4A
102
{ACAD_REACTORS
330
9C49
102
}
330
9C49
100
AcDbXrecord
280
     1
290
     1
  0
XRECORD
  5
9C4C
102
{ACAD_REACTORS
330
9C4B
102
}
330
9C4B
100
AcDbXrecord
280
     1
290
     1
  0
XRECORD
  5
9C4E
102
{ACAD_REACTORS
330
9C4D
102
}
330
9C4D
100
AcDbXrecord
280
     1
290
     1
  0
XRECORD
  5
9C50
102
{ACAD_REACTORS
330
9C4F
102
}
330
9C4F
100
AcDbXrecord
280
     1
290
     1
  0
XRECORD
  5
9C52
102
{ACAD_REACTORS
330
9C51
102
}
330
9C51
100
AcDbXrecord
280
     1
290
     1
  0
XRECORD
  5
9C54
102
{ACAD_REACTORS
330
9C53
102
}
330
9C53
100
AcDbXrecord
280
     1
290
     1
  0
XRECORD
  5
9BEE
102
{ACAD_REACTORS
330
9BED
102
}
330
9BED
100
AcDbXrecord
280
     1
340
98FD
  0
XRECORD
  5
9BEC
102
{ACAD_REACTORS
330
9BEB
102
}
330
9BEB
100
AcDbXrecord
280
     1
340
98F9
  0
ACDBDETAILVIEWSTYLE
  5
9C40
102
{ACAD_XDICTIONARY
360
9C9B
102
}
102
{ACAD_REACTORS
330
9C3F
102
}
330
9C3F
100
AcDbModelDocViewStyle
 70
     0
  3
Imperial24
290
     0
100
AcDbDetailViewStyle
 70
     0
 71
     0
 90
        3
 71
     1
340
98F0
 40
0.24
340
0
 40
0.24
300

 40
0.36
280
     3
 71
     2
340
98F4
 90
       25
 71
     3
340
98F0
 40
0.24
 90
        1
 40
0.75
 90
        1
300
%<\AcVar ViewType \f "%tc1">% %<\AcVar ViewDetailId>%\PSCALE %<\AcVar ViewScale \f "%sn">%
 71
     4
340
98F4
 90
       25
340
98F4
 90
       25
280
     0
  0
LAYOUT
  5
9C41
102
{ACAD_XDICTIONARY
360
9C9D
102
}
102
{ACAD_REACTORS
330
98F8
102
}
330
98F8
100
AcDbPlotSettings
  1

  2
Canon LBP9100C
  4

  6

 40
0.0
 41
0.0
 42
0.0
 43
0.0
 44
0.0
 45
0.0
 46
0.0
 47
0.0
 48
0.0
 49
0.0
140
0.0
141
0.0
142
1.0
143
1.0
 70
  1712
 72
     0
 73
     0
 74
     0
  7

 75
     0
147
1.0
148
0.0
149
0.0
100
AcDbLayout
  1
Model
 70
     1
 71
     0
 10
0.0
 20
0.0
 11
12.0
 21
9.0
 12
0.0
 22
0.0
 32
0.0
 14
0.0
 24
0.0
 34
0.0
 15
0.0
 25
0.0
 35
0.0
146
0.0
 13
0.0
 23
0.0
 33
0.0
 16
1.0
 26
0.0
 36
0.0
 17
0.0
 27
1.0
 37
0.0
 76
     0
330
98FD
331
9BEA
  0
LAYOUT
  5
9C42
102
{ACAD_XDICTIONARY
360
9C9F
102
}
102
{ACAD_REACTORS
330
98F8
102
}
330
98F8
100
AcDbPlotSettings
  1

  2
Canon LBP9100C
  4

  6

 40
0.0
 41
0.0
 42
0.0
 43
0.0
 44
0.0
 45
0.0
 46
0.0
 47
0.0
 48
0.0
 49
0.0
140
0.0
141
0.0
142
1.0
143
1.0
 70
   688
 72
     0
 73
     0
 74
     5
  7

 75
    16
147
1.0
148
0.0
149
0.0
100
AcDbLayout
  1
レイアウト1
 70
     0
 71
     1
 10
0.0
 20
0.0
 11
420.0
 21
297.0
 12
0.0
 22
0.0
 32
0.0
 14
1.000000000000000E+20
 24
1.000000000000000E+20
 34
1.000000000000000E+20
 15
-1.000000000000000E+20
 25
-1.000000000000000E+20
 35
-1.000000000000000E+20
146
0.0
 13
0.0
 23
0.0
 33
0.0
 16
1.0
 26
0.0
 36
0.0
 17
0.0
 27
1.0
 37
0.0
 76
     0
330
98F9
  0
MATERIAL
  5
9BFD
102
{ACAD_XDICTIONARY
360
9BFE
102
}
102
{ACAD_REACTORS
330
9BF4
102
}
330
9BF4
100
AcDbMaterial
  1
ByBlock
 72
     0
 43
0.0208333333333333
 43
0.0
 43
0.0
 43
0.0
 43
0.0
 43
0.0208333333333333
 43
0.0
 43
0.0
 43
0.0
 43
0.0
 43
1.0
 43
0.0
 43
0.0
 43
0.0
 43
0.0
 43
1.0
 77
     0
 47
0.0208333333333333
 47
0.0
 47
0.0
 47
0.0
 47
0.0
 47
0.0208333333333333
 47
0.0
 47
0.0
 47
0.0
 47
0.0
 47
1.0
 47
0.0
 47
0.0
 47
0.0
 47
0.0
 47
1.0
171
     0
 49
0.0208333333333333
 49
0.0
 49
0.0
 49
0.0
 49
0.0
 49
0.0208333333333333
 49
0.0
 49
0.0
 49
0.0
 49
0.0
 49
1.0
 49
0.0
 49
0.0
 49
0.0
 49
0.0
 49
1.0
175
     0
142
0.0208333333333333
142
0.0
142
0.0
142
0.0
142
0.0
142
0.0208333333333333
142
0.0
142
0.0
142
0.0
142
0.0
142
1.0
142
0.0
142
0.0
142
0.0
142
0.0
142
1.0
179
     0
144
0.0208333333333333
144
0.0
144
0.0
144
0.0
144
0.0
144
0.0208333333333333
144
0.0
144
0.0
144
0.0
144
0.0
144
1.0
144
0.0
144
0.0
144
0.0
144
0.0
144
1.0
147
0.0208333333333333
147
0.0
147
0.0
147
0.0
147
0.0
147
0.0208333333333333
147
0.0
147
0.0
147
0.0
147
0.0
147
1.0
147
0.0
147
0.0
147
0.0
147
0.0
147
1.0
  0
MATERIAL
  5
9BF5
102
{ACAD_XDICTIONARY
360
9BF6
102
}
102
{ACAD_REACTORS
330
9BF4
102
}
330
9BF4
100
AcDbMaterial
  1
ByLayer
 72
     0
 43
0.0208333333333333
 43
0.0
 43
0.0
 43
0.0
 43
0.0
 43
0.0208333333333333
 43
0.0
 43
0.0
 43
0.0
 43
0.0
 43
1.0
 43
0.0
 43
0.0
 43
0.0
 43
0.0
 43
1.0
 77
     0
 47
0.0208333333333333
 47
0.0
 47
0.0
 47
0.0
 47
0.0
 47
0.0208333333333333
 47
0.0
 47
0.0
 47
0.0
 47
0.0
 47
1.0
 47
0.0
 47
0.0
 47
0.0
 47
0.0
 47
1.0
171
     0
 49
0.0208333333333333
 49
0.0
 49
0.0
 49
0.0
 49
0.0
 49
0.0208333333333333
 49
0.0
 49
0.0
 49
0.0
 49
0.0
 49
1.0
 49
0.0
 49
0.0
 49
0.0
 49
0.0
 49
1.0
175
     0
142
0.0208333333333333
142
0.0
142
0.0
142
0.0
142
0.0
142
0.0208333333333333
142
0.0
142
0.0
142
0.0
142
0.0
142
1.0
142
0.0
142
0.0
142
0.0
142
0.0
142
1.0
179
     0
144
0.0208333333333333
144
0.0
144
0.0
144
0.0
144
0.0
144
0.0208333333333333
144
0.0
144
0.0
144
0.0
144
0.0
144
1.0
144
0.0
144
0.0
144
0.0
144
0.0
144
1.0
147
0.0208333333333333
147
0.0
147
0.0
147
0.0
147
0.0
147
0.0208333333333333
147
0.0
147
0.0
147
0.0
147
0.0
147
1.0
147
0.0
147
0.0
147
0.0
147
0.0
147
1.0
  0
MATERIAL
  5
9C05
102
{ACAD_XDICTIONARY
360
9C06
102
}
102
{ACAD_REACTORS
330
9BF4
102
}
330
9BF4
100
AcDbMaterial
  1
Global
 72
     0
 43
0.0208333333333333
 43
0.0
 43
0.0
 43
0.0
 43
0.0
 43
0.0208333333333333
 43
0.0
 43
0.0
 43
0.0
 43
0.0
 43
1.0
 43
0.0
 43
0.0
 43
0.0
 43
0.0
 43
1.0
 77
     0
 47
0.0208333333333333
 47
0.0
 47
0.0
 47
0.0
 47
0.0
 47
0.0208333333333333
 47
0.0
 47
0.0
 47
0.0
 47
0.0
 47
1.0
 47
0.0
 47
0.0
 47
0.0
 47
0.0
 47
1.0
171
     0
 49
0.0208333333333333
 49
0.0
 49
0.0
 49
0.0
 49
0.0
 49
0.0208333333333333
 49
0.0
 49
0.0
 49
0.0
 49
0.0
 49
1.0
 49
0.0
 49
0.0
 49
0.0
 49
0.0
 49
1.0
175
     0
142
0.0208333333333333
142
0.0
142
0.0
142
0.0
142
0.0
142
0.0208333333333333
142
0.0
142
0.0
142
0.0
142
0.0
142
1.0
142
0.0
142
0.0
142
0.0
142
0.0
142
1.0
179
     0
144
0.0208333333333333
144
0.0
144
0.0
144
0.0
144
0.0
144
0.0208333333333333
144
0.0
144
0.0
144
0.0
144
0.0
144
1.0
144
0.0
144
0.0
144
0.0
144
0.0
144
1.0
147
0.0208333333333333
147
0.0
147
0.0
147
0.0
147
0.0
147
0.0208333333333333
147
0.0
147
0.0
147
0.0
147
0.0
147
1.0
147
0.0
147
0.0
147
0.0
147
0.0
147
1.0
  0
MLEADERSTYLE
  5
9C3C
102
{ACAD_REACTORS
330
9C3B
102
}
330
9C3B
100
AcDbMLeaderStyle
170
     2
171
     1
172
     0
 90
        2
 40
0.0
 41
0.0
173
     1
 91
-1056964608
340
98F2
 92
       -2
290
     1
 42
0.09
291
     1
 43
0.36
  3
Standard
 44
0.18
300

342
98F0
174
     1
178
     6
175
     1
176
     0
 93
-1056964608
 45
0.18
292
     0
297
     0
 46
0.18
 94
-1056964608
 47
1.0
 49
1.0
140
1.0
293
     1
141
0.0
294
     1
177
     0
142
1.0
295
     0
296
     0
143
0.125
1001
ACAD_MLEADERVER
1070
     2
  0
MLINESTYLE
  5
98F6
102
{ACAD_REACTORS
330
98F5
102
}
330
98F5
100
AcDbMlineStyle
  2
STANDARD
 70
     0
  3

 62
   256
 51
90.0
 52
90.0
 71
     2
 49
0.5
 62
   256
  6
BYLAYER
 49
-0.5
 62
   256
  6
BYLAYER
  0
ACDBPLACEHOLDER
  5
9BF3
102
{ACAD_REACTORS
330
9BF2
102
}
330
9BF2
  0
SCALE
  5
9C2A
102
{ACAD_REACTORS
330
9C29
102
}
330
9C29
100
AcDbScale
 70
     0
300
1:1
140
1.0
141
1.0
290
     1
  0
SCALE
  5
9C2B
102
{ACAD_REACTORS
330
9C29
102
}
330
9C29
100
AcDbScale
 70
     0
300
1/128" = 1'-0"
140
0.0078125
141
12.0
290
     0
  0
SCALE
  5
9C2C
102
{ACAD_REACTORS
330
9C29
102
}
330
9C29
100
AcDbScale
 70
     0
300
1/64" = 1'-0"
140
0.015625
141
12.0
290
     0
  0
SCALE
  5
9C2D
102
{ACAD_REACTORS
330
9C29
102
}
330
9C29
100
AcDbScale
 70
     0
300
1/32" = 1'-0"
140
0.03125
141
12.0
290
     0
  0
SCALE
  5
9C2E
102
{ACAD_REACTORS
330
9C29
102
}
330
9C29
100
AcDbScale
 70
     0
300
1/16" = 1'-0"
140
0.0625
141
12.0
290
     0
  0
SCALE
  5
9C2F
102
{ACAD_REACTORS
330
9C29
102
}
330
9C29
100
AcDbScale
 70
     0
300
3/32" = 1'-0"
140
0.09375
141
12.0
290
     0
  0
SCALE
  5
9C30
102
{ACAD_REACTORS
330
9C29
102
}
330
9C29
100
AcDbScale
 70
     0
300
1/8" = 1'-0"
140
0.125
141
12.0
290
     0
  0
SCALE
  5
9C31
102
{ACAD_REACTORS
330
9C29
102
}
330
9C29
100
AcDbScale
 70
     0
300
3/16" = 1'-0"
140
0.1875
141
12.0
290
     0
  0
SCALE
  5
9C32
102
{ACAD_REACTORS
330
9C29
102
}
330
9C29
100
AcDbScale
 70
     0
300
1/4" = 1'-0"
140
0.25
141
12.0
290
     0
  0
SCALE
  5
9C33
102
{ACAD_REACTORS
330
9C29
102
}
330
9C29
100
AcDbScale
 70
     0
300
3/8" = 1'-0"
140
0.375
141
12.0
290
     0
  0
SCALE
  5
9C34
102
{ACAD_REACTORS
330
9C29
102
}
330
9C29
100
AcDbScale
 70
     0
300
1/2" = 1'-0"
140
0.5
141
12.0
290
     0
  0
SCALE
  5
9C35
102
{ACAD_REACTORS
330
9C29
102
}
330
9C29
100
AcDbScale
 70
     0
300
3/4" = 1'-0"
140
0.75
141
12.0
290
     0
  0
SCALE
  5
9C36
102
{ACAD_REACTORS
330
9C29
102
}
330
9C29
100
AcDbScale
 70
     0
300
1" = 1'-0"
140
1.0
141
12.0
290
     0
  0
SCALE
  5
9C37
102
{ACAD_REACTORS
330
9C29
102
}
330
9C29
100
AcDbScale
 70
     0
300
1-1/2" = 1'-0"
140
1.5
141
12.0
290
     0
  0
SCALE
  5
9C38
102
{ACAD_REACTORS
330
9C29
102
}
330
9C29
100
AcDbScale
 70
     0
300
3" = 1'-0"
140
3.0
141
12.0
290
     0
  0
SCALE
  5
9C39
102
{ACAD_REACTORS
330
9C29
102
}
330
9C29
100
AcDbScale
 70
     0
300
6" = 1'-0"
140
6.0
141
12.0
290
     0
  0
SCALE
  5
9C3A
102
{ACAD_REACTORS
330
9C29
102
}
330
9C29
100
AcDbScale
 70
     0
300
1'-0" = 1'-0"
140
12.0
141
12.0
290
     0
  0
ACDBSECTIONVIEWSTYLE
  5
9C3E
102
{ACAD_XDICTIONARY
360
9C99
102
}
102
{ACAD_REACTORS
330
9C3D
102
}
330
9C3D
100
AcDbModelDocViewStyle
 70
     0
  3
Imperial24
290
     0
100
AcDbSectionViewStyle
 70
     0
 71
     0
 90
       78
 71
     1
340
98F0
 40
0.24
340
0
340
0
 40
0.24
300
I, O, Q, S, X, Z
 40
0.48
 90
        3
 40
0.18
 90
        1
 71
     2
340
98F4
 90
       25
340
98F4
 90
       50
 40
0.24
 40
0.0
 40
0.24
 71
     3
340
98F0
 40
0.24
 90
        1
 40
0.75
 90
        1
300
%<\AcVar ViewType \f "%tc1">% %<\AcVar ViewSectionStartId>%-%<\AcVar ViewSectionEndId>%\PSCALE %<\AcVar ViewScale \f "%sn">%
 71
     4
300
ANSI31
 40
1.0
 90
        0
290
     0
290
     0
 90
        6
 40
0.0
 40
1.570796326794896
 40
0.2617993877991494
 40
1.308996938995747
 40
-0.2617993877991494
 40
1.832595714594046
  0
TABLESTYLE
  5
9C28
102
{ACAD_XDICTIONARY
360
9C60
102
}
102
{ACAD_REACTORS
330
9C27
102
}
330
9C27
100
AcDbTableStyle
  3
Standard
 70
     0
 71
     0
 40
0.06
 41
0.06
280
     0
281
     0
  7
STANDARD
140
0.18
170
     2
 62
     0
 63
     7
283
     0
274
    -2
284
     1
 64
     0
275
    -2
285
     1
 65
     0
276
    -2
286
     1
 66
     0
277
    -2
287
     1
 67
     0
278
    -2
288
     1
 68
     0
279
    -2
289
     1
 69
     0
  7
STANDARD
140
0.25
170
     5
 62
     0
 63
     7
283
     0
274
    -2
284
     1
 64
     0
275
    -2
285
     1
 65
     0
276
    -2
286
     1
 66
     0
277
    -2
287
     1
 67
     0
278
    -2
288
     1
 68
     0
279
    -2
289
     1
 69
     0
  7
STANDARD
140
0.18
170
     5
 62
     0
 63
     7
283
     0
274
    -2
284
     1
 64
     0
275
    -2
285
     1
 65
     0
276
    -2
286
     1
 66
     0
277
    -2
287
     1
 67
     0
278
    -2
288
     1
 68
     0
279
    -2
289
     1
 69
     0
  0
VISUALSTYLE
  5
9C13
102
{ACAD_XDICTIONARY
360
9C71
102
}
102
{ACAD_REACTORS
330
9C0D
102
}
330
9C0D
100
AcDbVisualStyle
  2
2dWireframe
 70
     4
 71
     0
 72
     2
 73
     0
 90
        0
 40
-0.6
 41
-30.0
 62
     5
 63
     7
 74
     1
 91
        4
 64
     7
 65
   257
 75
     1
175
     1
 42
1.0
 92
        0
 66
   257
 43
1.0
 76
     1
 77
     6
 78
     2
 67
     7
 79
     5
170
     0
171
     0
290
     0
174
     0
 93
        1
 44
0.0
173
     0
291
     0
 45
0.0
1001
ACAD
1000
AcDbSavedByObjectVersion
1070
     0
  0
VISUALSTYLE
  5
9C12
102
{ACAD_XDICTIONARY
360
9C6F
102
}
102
{ACAD_REACTORS
330
9C0D
102
}
330
9C0D
100
AcDbVisualStyle
  2
Basic
 70
     7
 71
     1
 72
     0
 73
     1
 90
        0
 40
-0.6
 41
-30.0
 62
     5
 63
     7
 74
     0
 91
        4
 64
     7
 65
   257
 75
     1
175
     1
 42
1.0
 92
        8
 66
     7
 43
1.0
 76
     1
 77
     6
 78
     2
 67
     7
 79
     5
170
     0
171
     0
290
     0
174
     0
 93
        1
 44
0.0
173
     0
291
     1
 45
0.0
1001
ACAD
1000
AcDbSavedByObjectVersion
1070
     0
  0
VISUALSTYLE
  5
9C19
102
{ACAD_XDICTIONARY
360
9C7D
102
}
102
{ACAD_REACTORS
330
9C0D
102
}
330
9C0D
100
AcDbVisualStyle
  2
Brighten
 70
    12
 71
     2
 72
     2
 73
     0
 90
        0
 40
-0.6
 41
-30.0
 62
     5
 63
     7
 74
     1
 91
        4
 64
     7
 65
   257
 75
     1
175
     1
 42
1.0
 92
        8
 66
     7
 43
1.0
 76
     1
 77
     6
 78
     2
 67
     7
 79
     5
170
     0
171
     0
290
     0
174
     0
 93
        1
 44
50.0
173
     0
291
     1
 45
0.0
1001
ACAD
1000
AcDbSavedByObjectVersion
1070
     0
  0
VISUALSTYLE
  5
9C1D
102
{ACAD_XDICTIONARY
360
9C85
102
}
102
{ACAD_REACTORS
330
9C0D
102
}
330
9C0D
100
AcDbVisualStyle
  2
ColorChange
 70
    16
 71
     2
 72
     2
 73
     3
 90
        0
 40
-0.6
 41
-30.0
 62
     5
 63
     8
 74
     1
 91
        4
 64
     7
 65
   257
 75
     1
175
     1
 42
1.0
 92
        8
 66
     8
 43
1.0
 76
     1
 77
     6
 78
     2
 67
     7
 79
     5
170
     0
171
     0
290
     0
174
     0
 93
        1
 44
0.0
173
     0
291
     1
 45
0.0
1001
ACAD
1000
AcDbSavedByObjectVersion
1070
     0
  0
VISUALSTYLE
  5
9C16
102
{ACAD_XDICTIONARY
360
9C77
102
}
102
{ACAD_REACTORS
330
9C0D
102
}
330
9C0D
100
AcDbVisualStyle
  2
Conceptual
 70
     9
 71
     3
 72
     2
 73
     0
 90
        0
 40
-0.6
 41
-30.0
 62
     5
 63
     7
 74
     2
 91
        2
 64
     7
 65
   257
 75
     1
175
     1
 42
179.0
 92
        8
 66
     7
 43
1.0
 76
     1
 77
     6
 78
     2
 67
     7
 79
     3
170
     0
171
     0
290
     0
174
     0
 93
        1
 44
0.0
173
     0
291
     0
 45
0.0
1001
ACAD
1000
AcDbSavedByObjectVersion
1070
     0
  0
VISUALSTYLE
  5
9C18
102
{ACAD_XDICTIONARY
360
9C7B
102
}
102
{ACAD_REACTORS
330
9C0D
102
}
330
9C0D
100
AcDbVisualStyle
  2
Dim
 70
    11
 71
     2
 72
     2
 73
     0
 90
        0
 40
-0.6
 41
-30.0
 62
     5
 63
     7
 74
     1
 91
        4
 64
     7
 65
   257
 75
     1
175
     1
 42
1.0
 92
        8
 66
     7
 43
1.0
 76
     1
 77
     6
 78
     2
 67
     7
 79
     5
170
     0
171
     0
290
     0
174
     0
 93
        1
 44
-50.0
173
     0
291
     1
 45
0.0
1001
ACAD
1000
AcDbSavedByObjectVersion
1070
     0
  0
VISUALSTYLE
  5
9C25
102
{ACAD_XDICTIONARY
360
9C95
102
}
102
{ACAD_REACTORS
330
9C0D
102
}
330
9C0D
100
AcDbVisualStyle
  2
EdgeColorOff
 70
    22
 71
     2
 72
     2
 73
     0
 90
        0
 40
-0.6
 41
-30.0
 62
     5
 63
     7
 74
     1
 91
        4
 64
     7
 65
   257
 75
     1
175
     1
 42
1.0
 92
        8
 66
     7
 43
1.0
 76
     1
 77
     6
 78
     2
 67
     7
 79
     5
170
     0
171
     0
290
     0
174
     0
 93
        1
 44
0.0
173
     0
291
     1
 45
0.0
1001
ACAD
1000
AcDbSavedByObjectVersion
1070
     0
  0
VISUALSTYLE
  5
9C1C
102
{ACAD_XDICTIONARY
360
9C83
102
}
102
{ACAD_REACTORS
330
9C0D
102
}
330
9C0D
100
AcDbVisualStyle
  2
Facepattern
 70
    15
 71
     2
 72
     2
 73
     0
 90
        0
 40
-0.6
 41
-30.0
 62
     5
 63
     7
 74
     1
 91
        4
 64
     7
 65
   257
 75
     1
175
     1
 42
1.0
 92
        8
 66
     7
 43
1.0
 76
     1
 77
     6
 78
     2
 67
     7
 79
     5
170
     0
171
     0
290
     0
174
     0
 93
        1
 44
0.0
173
     0
291
     1
 45
0.0
1001
ACAD
1000
AcDbSavedByObjectVersion
1070
     0
  0
VISUALSTYLE
  5
9C0E
102
{ACAD_XDICTIONARY
360
9C67
102
}
102
{ACAD_REACTORS
330
9C0D
102
}
330
9C0D
100
AcDbVisualStyle
  2
Flat
 70
     0
 71
     2
 72
     1
 73
     1
 90
        2
 40
-0.6
 41
30.0
 62
     5
 63
     7
 74
     0
 91
        0
 64
     7
 65
   257
 75
     1
175
     1
 42
1.0
 92
        8
 66
     7
 43
1.0
 76
     1
 77
     6
 78
     2
 67
     7
 79
     5
170
     0
171
     0
290
     0
174
     0
 93
       13
 44
0.0
173
     0
291
     1
 45
0.0
1001
ACAD
1000
AcDbSavedByObjectVersion
1070
     0
  0
VISUALSTYLE
  5
9C0F
102
{ACAD_XDICTIONARY
360
9C69
102
}
102
{ACAD_REACTORS
330
9C0D
102
}
330
9C0D
100
AcDbVisualStyle
  2
FlatWithEdges
 70
     1
 71
     2
 72
     1
 73
     1
 90
        2
 40
-0.6
 41
30.0
 62
     5
 63
     7
 74
     1
 91
        0
 64
     7
 65
   257
 75
     1
175
     1
 42
1.0
 92
        0
 66
   257
 43
1.0
 76
     1
 77
     6
 78
     2
 67
     7
 79
     5
170
     0
171
     0
290
     0
174
     0
 93
       13
 44
0.0
173
     0
291
     1
 45
0.0
1001
ACAD
1000
AcDbSavedByObjectVersion
1070
     0
  0
VISUALSTYLE
  5
9C10
102
{ACAD_XDICTIONARY
360
9C6B
102
}
102
{ACAD_REACTORS
330
9C0D
102
}
330
9C0D
100
AcDbVisualStyle
  2
Gouraud
 70
     2
 71
     2
 72
     2
 73
     1
 90
        2
 40
-0.6
 41
30.0
 62
     5
 63
     7
 74
     0
 91
        0
 64
     7
 65
   257
 75
     1
175
     1
 42
1.0
 92
        0
 66
     7
 43
1.0
 76
     1
 77
     6
 78
     2
 67
     7
 79
     5
170
     0
171
     0
290
     0
174
     0
 93
       13
 44
0.0
173
     0
291
     1
 45
0.0
1001
ACAD
1000
AcDbSavedByObjectVersion
1070
     0
  0
VISUALSTYLE
  5
9C11
102
{ACAD_XDICTIONARY
360
9C6D
102
}
102
{ACAD_REACTORS
330
9C0D
102
}
330
9C0D
100
AcDbVisualStyle
  2
GouraudWithEdges
 70
     3
 71
     2
 72
     2
 73
     1
 90
        2
 40
-0.6
 41
30.0
 62
     5
 63
     7
 74
     1
 91
        0
 64
     7
 65
   257
 75
     1
175
     1
 42
1.0
 92
        0
 66
   257
 43
1.0
 76
     1
 77
     6
 78
     2
 67
     7
 79
     5
170
     0
171
     0
290
     0
174
     0
 93
       13
 44
0.0
173
     0
291
     1
 45
0.0
1001
ACAD
1000
AcDbSavedByObjectVersion
1070
     0
  0
VISUALSTYLE
  5
9C15
102
{ACAD_XDICTIONARY
360
9C75
102
}
102
{ACAD_REACTORS
330
9C0D
102
}
330
9C0D
100
AcDbVisualStyle
  2
Hidden
 70
     6
 71
     1
 72
     2
 73
     2
 90
        0
 40
-0.6
 41
-30.0
 62
     5
 63
     7
 74
     2
 91
        2
 64
     7
 65
   257
 75
     2
175
     1
 42
40.0
 92
        0
 66
   257
 43
1.0
 76
     1
 77
     6
 78
     2
 67
     7
 79
     3
170
     0
171
     0
290
     0
174
     0
 93
        1
 44
0.0
173
     0
291
     0
 45
0.0
1001
ACAD
1000
AcDbSavedByObjectVersion
1070
     0
  0
VISUALSTYLE
  5
9C23
102
{ACAD_XDICTIONARY
360
9C91
102
}
102
{ACAD_REACTORS
330
9C0D
102
}
330
9C0D
100
AcDbVisualStyle
  2
JitterOff
 70
    20
 71
     2
 72
     2
 73
     0
 90
        0
 40
-0.6
 41
-30.0
 62
     5
 63
     7
 74
     1
 91
        4
 64
     7
 65
   257
 75
     1
175
     1
 42
1.0
 92
       10
 66
     7
 43
1.0
 76
     1
 77
     6
 78
     2
 67
     7
 79
     5
170
     0
171
     0
290
     0
174
     0
 93
        1
 44
0.0
173
     0
291
     1
 45
0.0
1001
ACAD
1000
AcDbSavedByObjectVersion
1070
     0
  0
VISUALSTYLE
  5
9C1B
102
{ACAD_XDICTIONARY
360
9C81
102
}
102
{ACAD_REACTORS
330
9C0D
102
}
330
9C0D
100
AcDbVisualStyle
  2
Linepattern
 70
    14
 71
     2
 72
     2
 73
     0
 90
        0
 40
-0.6
 41
-30.0
 62
     5
 63
     7
 74
     1
 91
        4
 64
     7
 65
   257
 75
     7
175
     7
 42
1.0
 92
        8
 66
     7
 43
1.0
 76
     1
 77
     6
 78
     2
 67
     7
 79
     5
170
     0
171
     0
290
     0
174
     0
 93
        1
 44
0.0
173
     0
291
     1
 45
0.0
1001
ACAD
1000
AcDbSavedByObjectVersion
1070
     0
  0
VISUALSTYLE
  5
9C24
102
{ACAD_XDICTIONARY
360
9C93
102
}
102
{ACAD_REACTORS
330
9C0D
102
}
330
9C0D
100
AcDbVisualStyle
  2
OverhangOff
 70
    21
 71
     2
 72
     2
 73
     0
 90
        0
 40
-0.6
 41
-30.0
 62
     5
 63
     7
 74
     1
 91
        4
 64
     7
 65
   257
 75
     1
175
     1
 42
1.0
 92
        9
 66
     7
 43
1.0
 76
     1
 77
     6
 78
     2
 67
     7
 79
     5
170
     0
171
     0
290
     0
174
     0
 93
        1
 44
0.0
173
     0
291
     1
 45
0.0
1001
ACAD
1000
AcDbSavedByObjectVersion
1070
     0
  0
VISUALSTYLE
  5
9C17
102
{ACAD_XDICTIONARY
360
9C79
102
}
102
{ACAD_REACTORS
330
9C0D
102
}
330
9C0D
100
AcDbVisualStyle
  2
Realistic
 70
     8
 71
     2
 72
     3
 73
     0
 90
        2
 40
-0.6
 41
30.0
 62
     5
 63
     7
 74
     0
 91
        0
 64
     7
 65
   257
 75
     1
175
     1
 42
1.0
 92
        8
 66
   257
 43
1.0
 76
     1
 77
     6
 78
     2
 67
     7
 79
     3
170
     0
171
     0
290
     0
174
     0
 93
       13
 44
0.0
173
     0
291
     0
 45
0.0
1001
ACAD
1000
AcDbSavedByObjectVersion
1070
     0
  0
VISUALSTYLE
  5
9C22
102
{ACAD_XDICTIONARY
360
9C8F
102
}
102
{ACAD_REACTORS
330
9C0D
102
}
330
9C0D
100
AcDbVisualStyle
  2
Shaded
 70
    27
 71
     2
 72
     2
 73
     1
 90
        2
 40
-0.6
 41
30.0
 62
     5
 63
     7
 74
     0
 91
        4
 64
     7
 65
   257
 75
     1
175
     1
 42
1.0
 92
        8
 66
   257
 43
1.0
 76
     1
 77
     6
 78
     2
 67
     8
 79
     3
170
     0
171
     0
290
     0
174
     0
 93
        5
 44
0.0
173
     0
291
     0
 45
0.0
1001
ACAD
1000
AcDbSavedByObjectVersion
1070
     0
  0
VISUALSTYLE
  5
9C21
102
{ACAD_XDICTIONARY
360
9C8D
102
}
102
{ACAD_REACTORS
330
9C0D
102
}
330
9C0D
100
AcDbVisualStyle
  2
Shaded with edges
 70
    26
 71
     2
 72
     2
 73
     1
 90
        2
 40
-0.6
 41
30.0
 62
     5
 63
     7
 74
     1
 91
       10
 64
     7
 65
   257
 75
     2
175
     1
 42
1.0
 92
        8
 66
   257
 43
1.0
 76
     1
 77
     6
 78
     2
 67
     7
 79
     3
170
     0
171
     0
290
     0
174
     0
 93
        5
 44
0.0
173
     0
291
     0
 45
0.0
1001
ACAD
1000
AcDbSavedByObjectVersion
1070
     0
  0
VISUALSTYLE
  5
9C1E
102
{ACAD_XDICTIONARY
360
9C87
102
}
102
{ACAD_REACTORS
330
9C0D
102
}
330
9C0D
100
AcDbVisualStyle
  2
Shades of Gray
 70
    23
 71
     2
 72
     2
 73
     3
 90
        0
 40
-0.6
 41
-30.0
 62
     5
 63
     7
 74
     2
 91
        2
 64
     7
 65
     7
 75
     1
175
     1
 42
40.0
 92
        8
 66
     7
 43
1.0
 76
     1
 77
     6
 78
     2
 67
     7
 79
     3
170
     0
171
     0
290
     0
174
     0
 93
        1
 44
0.0
173
     0
291
     0
 45
0.0
1001
ACAD
1000
AcDbSavedByObjectVersion
1070
     0
  0
VISUALSTYLE
  5
9C1F
102
{ACAD_XDICTIONARY
360
9C89
102
}
102
{ACAD_REACTORS
330
9C0D
102
}
330
9C0D
100
AcDbVisualStyle
  2
Sketchy
 70
    24
 71
     1
 72
     2
 73
     2
 90
        0
 40
-0.6
 41
-30.0
 62
     5
 63
     7
 74
     2
 91
        2
 64
     7
 65
     7
 75
     1
175
     1
 42
40.0
 92
       11
 66
     7
 43
1.0
 76
     1
 77
     6
 78
     2
 67
     7
 79
     6
170
     0
171
     0
290
     0
174
     0
 93
        1
 44
0.0
173
     0
291
     0
 45
0.0
1001
ACAD
1000
AcDbSavedByObjectVersion
1070
     0
  0
VISUALSTYLE
  5
9C1A
102
{ACAD_XDICTIONARY
360
9C7F
102
}
102
{ACAD_REACTORS
330
9C0D
102
}
330
9C0D
100
AcDbVisualStyle
  2
Thicken
 70
    13
 71
     2
 72
     2
 73
     0
 90
        0
 40
-0.6
 41
-30.0
 62
     5
 63
     7
 74
     1
 91
        4
 64
     7
 65
   257
 75
     1
175
     1
 42
1.0
 92
       12
 66
     7
 43
1.0
 76
     1
 77
     6
 78
     2
 67
     7
 79
     5
170
     0
171
     0
290
     0
174
     0
 93
        1
 44
0.0
173
     0
291
     1
 45
0.0
1001
ACAD
1000
AcDbSavedByObjectVersion
1070
     0
  0
VISUALSTYLE
  5
9C14
102
{ACAD_XDICTIONARY
360
9C73
102
}
102
{ACAD_REACTORS
330
9C0D
102
}
330
9C0D
100
AcDbVisualStyle
  2
Wireframe
 70
     5
 71
     0
 72
     2
 73
     0
 90
        0
 40
-0.6
 41
-30.0
 62
     5
 63
     7
 74
     1
 91
        4
 64
     7
 65
   257
 75
     1
175
     1
 42
1.0
 92
        0
 66
   257
 43
1.0
 76
     1
 77
     6
 78
     2
 67
     7
 79
     3
170
     0
171
     0
290
     0
174
     0
 93
        1
 44
0.0
173
     0
291
     0
 45
0.0
1001
ACAD
1000
AcDbSavedByObjectVersion
1070
     0
  0
VISUALSTYLE
  5
9C20
102
{ACAD_XDICTIONARY
360
9C8B
102
}
102
{ACAD_REACTORS
330
9C0D
102
}
330
9C0D
100
AcDbVisualStyle
  2
X-Ray
 70
    25
 71
     2
 72
     2
 73
     1
 90
        1
 40
0.5
 41
-30.0
 62
     5
 63
     7
 74
     1
 91
        0
 64
     7
 65
   257
 75
     1
175
     1
 42
1.0
 92
        8
 66
     7
 43
1.0
 76
     1
 77
     6
 78
     2
 67
     7
 79
     3
170
     0
171
     0
290
     0
174
     0
 93
       13
 44
0.0
173
     0
291
     0
 45
0.0
1001
ACAD
1000
AcDbSavedByObjectVersion
1070
     0
  0
DICTIONARYVAR
  5
9C5A
102
{ACAD_REACTORS
330
9C55
102
}
330
9C55
100
DictionaryVariables
280
     0
  1
1:1
  0
DICTIONARYVAR
  5
9C57
102
{ACAD_REACTORS
330
9C55
102
}
330
9C55
100
DictionaryVariables
280
     0
  1
STANDARD
  0
DICTIONARYVAR
  5
9C56
102
{ACAD_REACTORS
330
9C55
102
}
330
9C55
100
DictionaryVariables
280
     0
  1
STANDARD
  0
DICTIONARYVAR
  5
9C58
102
{ACAD_REACTORS
330
9C55
102
}
330
9C55
100
DictionaryVariables
280
     0
  1
Imperial24
  0
DICTIONARYVAR
  5
9C59
102
{ACAD_REACTORS
330
9C55
102
}
330
9C55
100
DictionaryVariables
280
     0
  1
Imperial24
  0
DICTIONARYVAR
  5
9C5D
102
{ACAD_REACTORS
330
9C55
102
}
330
9C55
100
DictionaryVariables
280
     0
  1
1
  0
DICTIONARYVAR
  5
9C5C
102
{ACAD_REACTORS
330
9C55
102
}
330
9C55
100
DictionaryVariables
280
     0
  1
0
  0
DICTIONARYVAR
  5
9C5B
102
{ACAD_REACTORS
330
9C55
102
}
330
9C55
100
DictionaryVariables
280
     0
  1
127
  0
DICTIONARYVAR
  5
9C5E
102
{ACAD_REACTORS
330
9C55
102
}
330
9C55
100
DictionaryVariables
280
     0
  1
2
  0
DICTIONARY
  5
9C9B
330
9C40
100
AcDbDictionary
280
     1
281
     1
  3
ACAD_XREC_ROUNDTRIP
360
9C9C
  0
DICTIONARY
  5
9C9D
330
9C41
100
AcDbDictionary
280
     1
281
     1
  3
ACAD_XREC_ROUNDTRIP
360
9C9E
  0
DICTIONARY
  5
9C9F
330
9C42
100
AcDbDictionary
280
     1
281
     1
  3
ACAD_XREC_ROUNDTRIP
360
9CA0
  0
DICTIONARY
  5
9BFE
330
9BFD
100
AcDbDictionary
280
     1
281
     1
  3
ACAD_XREC_ROUNDTRIP
360
9C65
  3
BUMPTILE
360
9C00
  3
DIFFUSETILE
360
9BFF
  3
OPACITYTILE
360
9C03
  3
REFLECTIONTILE
360
9C02
  3
REFRACTIONTILE
360
9C04
  3
SPECULARTILE
360
9C01
  0
DICTIONARY
  5
9BF6
330
9BF5
100
AcDbDictionary
280
     1
281
     1
  3
ACAD_XREC_ROUNDTRIP
360
9C64
  3
BUMPTILE
360
9BF8
  3
DIFFUSETILE
360
9BF7
  3
OPACITYTILE
360
9BFB
  3
REFLECTIONTILE
360
9BFA
  3
REFRACTIONTILE
360
9BFC
  3
SPECULARTILE
360
9BF9
  0
DICTIONARY
  5
9C06
330
9C05
100
AcDbDictionary
280
     1
281
     1
  3
ACAD_XREC_ROUNDTRIP
360
9C66
  3
BUMPTILE
360
9C08
  3
DIFFUSETILE
360
9C07
  3
OPACITYTILE
360
9C0B
  3
REFLECTIONTILE
360
9C0A
  3
REFRACTIONTILE
360
9C0C
  3
SPECULARTILE
360
9C09
  0
DICTIONARY
  5
9C99
330
9C3E
100
AcDbDictionary
280
     1
281
     1
  3
ACAD_XREC_ROUNDTRIP
360
9C9A
  0
DICTIONARY
  5
9C60
330
9C28
100
AcDbDictionary
280
     1
281
     1
  3
ACAD_ROUNDTRIP_2008_TABLESTYLE_CELLSTYLEMAP
360
9C61
  3
ACAD_XREC_ROUNDTRIP
360
9C97
  0
DICTIONARY
  5
9C71
330
9C13
100
AcDbDictionary
280
     1
281
     1
  3
ACAD_XREC_ROUNDTRIP
360
9C72
  0
DICTIONARY
  5
9C6F
330
9C12
100
AcDbDictionary
280
     1
281
     1
  3
ACAD_XREC_ROUNDTRIP
360
9C70
  0
DICTIONARY
  5
9C7D
330
9C19
100
AcDbDictionary
280
     1
281
     1
  3
ACAD_XREC_ROUNDTRIP
360
9C7E
  0
DICTIONARY
  5
9C85
330
9C1D
100
AcDbDictionary
280
     1
281
     1
  3
ACAD_XREC_ROUNDTRIP
360
9C86
  0
DICTIONARY
  5
9C77
330
9C16
100
AcDbDictionary
280
     1
281
     1
  3
ACAD_XREC_ROUNDTRIP
360
9C78
  0
DICTIONARY
  5
9C7B
330
9C18
100
AcDbDictionary
280
     1
281
     1
  3
ACAD_XREC_ROUNDTRIP
360
9C7C
  0
DICTIONARY
  5
9C95
330
9C25
100
AcDbDictionary
280
     1
281
     1
  3
ACAD_XREC_ROUNDTRIP
360
9C96
  0
DICTIONARY
  5
9C83
330
9C1C
100
AcDbDictionary
280
     1
281
     1
  3
ACAD_XREC_ROUNDTRIP
360
9C84
  0
DICTIONARY
  5
9C67
330
9C0E
100
AcDbDictionary
280
     1
281
     1
  3
ACAD_XREC_ROUNDTRIP
360
9C68
  0
DICTIONARY
  5
9C69
330
9C0F
100
AcDbDictionary
280
     1
281
     1
  3
ACAD_XREC_ROUNDTRIP
360
9C6A
  0
DICTIONARY
  5
9C6B
330
9C10
100
AcDbDictionary
280
     1
281
     1
  3
ACAD_XREC_ROUNDTRIP
360
9C6C
  0
DICTIONARY
  5
9C6D
330
9C11
100
AcDbDictionary
280
     1
281
     1
  3
ACAD_XREC_ROUNDTRIP
360
9C6E
  0
DICTIONARY
  5
9C75
330
9C15
100
AcDbDictionary
280
     1
281
     1
  3
ACAD_XREC_ROUNDTRIP
360
9C76
  0
DICTIONARY
  5
9C91
330
9C23
100
AcDbDictionary
280
     1
281
     1
  3
ACAD_XREC_ROUNDTRIP
360
9C92
  0
DICTIONARY
  5
9C81
330
9C1B
100
AcDbDictionary
280
     1
281
     1
  3
ACAD_XREC_ROUNDTRIP
360
9C82
  0
DICTIONARY
  5
9C93
330
9C24
100
AcDbDictionary
280
     1
281
     1
  3
ACAD_XREC_ROUNDTRIP
360
9C94
  0
DICTIONARY
  5
9C79
330
9C17
100
AcDbDictionary
280
     1
281
     1
  3
ACAD_XREC_ROUNDTRIP
360
9C7A
  0
DICTIONARY
  5
9C8F
330
9C22
100
AcDbDictionary
280
     1
281
     1
  3
ACAD_XREC_ROUNDTRIP
360
9C90
  0
DICTIONARY
  5
9C8D
330
9C21
100
AcDbDictionary
280
     1
281
     1
  3
ACAD_XREC_ROUNDTRIP
360
9C8E
  0
DICTIONARY
  5
9C87
330
9C1E
100
AcDbDictionary
280
     1
281
     1
  3
ACAD_XREC_ROUNDTRIP
360
9C88
  0
DICTIONARY
  5
9C89
330
9C1F
100
AcDbDictionary
280
     1
281
     1
  3
ACAD_XREC_ROUNDTRIP
360
9C8A
  0
DICTIONARY
  5
9C7F
330
9C1A
100
AcDbDictionary
280
     1
281
     1
  3
ACAD_XREC_ROUNDTRIP
360
9C80
  0
DICTIONARY
  5
9C73
330
9C14
100
AcDbDictionary
280
     1
281
     1
  3
ACAD_XREC_ROUNDTRIP
360
9C74
  0
DICTIONARY
  5
9C8B
330
9C20
100
AcDbDictionary
280
     1
281
     1
  3
ACAD_XREC_ROUNDTRIP
360
9C8C
  0
XRECORD
  5
9C9C
102
{ACAD_REACTORS
330
9C9B
102
}
330
9C9B
100
AcDbXrecord
280
     1
102
DISPLAYNAME
  1
Imperial24
102
FLAGS
 90
        0
  0
XRECORD
  5
9C9E
102
{ACAD_REACTORS
330
9C9D
102
}
330
9C9D
100
AcDbXrecord
280
     1
102
SHADEPLOT
 70
     0
102
SHADEPLOTRESLEVEL
 70
     2
102
SHADEPLOTCUSTOMDPI
 70
   300
  0
XRECORD
  5
9CA0
102
{ACAD_REACTORS
330
9C9F
102
}
330
9C9F
100
AcDbXrecord
280
     1
102
SHADEPLOT
 70
     0
102
SHADEPLOTRESLEVEL
 70
     2
102
SHADEPLOTCUSTOMDPI
 70
   300
  0
XRECORD
  5
9C65
102
{ACAD_REACTORS
330
9BFE
102
}
330
9BFE
100
AcDbXrecord
280
     1
102
MATERIAL
148
0.0
149
0.0
149
0.0
 93
        0
 94
      127
282
     0
 72
     0
 77
     0
171
     0
175
     0
179
     0
273
     0
  0
XRECORD
  5
9C00
102
{ACAD_REACTORS
330
9BFE
102
}
330
9BFE
100
AcDbXrecord
280
     1
270
     1
271
     1
  0
XRECORD
  5
9BFF
102
{ACAD_REACTORS
330
9BFE
102
}
330
9BFE
100
AcDbXrecord
280
     1
270
     1
271
     1
  0
XRECORD
  5
9C03
102
{ACAD_REACTORS
330
9BFE
102
}
330
9BFE
100
AcDbXrecord
280
     1
270
     1
271
     1
  0
XRECORD
  5
9C02
102
{ACAD_REACTORS
330
9BFE
102
}
330
9BFE
100
AcDbXrecord
280
     1
270
     1
271
     1
  0
XRECORD
  5
9C04
102
{ACAD_REACTORS
330
9BFE
102
}
330
9BFE
100
AcDbXrecord
280
     1
270
     1
271
     1
  0
XRECORD
  5
9C01
102
{ACAD_REACTORS
330
9BFE
102
}
330
9BFE
100
AcDbXrecord
280
     1
270
     1
271
     1
  0
XRECORD
  5
9C64
102
{ACAD_REACTORS
330
9BF6
102
}
330
9BF6
100
AcDbXrecord
280
     1
102
MATERIAL
148
0.0
149
0.0
149
0.0
 93
        0
 94
      127
282
     0
 72
     0
 77
     0
171
     0
175
     0
179
     0
273
     0
  0
XRECORD
  5
9BF8
102
{ACAD_REACTORS
330
9BF6
102
}
330
9BF6
100
AcDbXrecord
280
     1
270
     1
271
     1
  0
XRECORD
  5
9BF7
102
{ACAD_REACTORS
330
9BF6
102
}
330
9BF6
100
AcDbXrecord
280
     1
270
     1
271
     1
  0
XRECORD
  5
9BFB
102
{ACAD_REACTORS
330
9BF6
102
}
330
9BF6
100
AcDbXrecord
280
     1
270
     1
271
     1
  0
XRECORD
  5
9BFA
102
{ACAD_REACTORS
330
9BF6
102
}
330
9BF6
100
AcDbXrecord
280
     1
270
     1
271
     1
  0
XRECORD
  5
9BFC
102
{ACAD_REACTORS
330
9BF6
102
}
330
9BF6
100
AcDbXrecord
280
     1
270
     1
271
     1
  0
XRECORD
  5
9BF9
102
{ACAD_REACTORS
330
9BF6
102
}
330
9BF6
100
AcDbXrecord
280
     1
270
     1
271
     1
  0
XRECORD
  5
9C66
102
{ACAD_REACTORS
330
9C06
102
}
330
9C06
100
AcDbXrecord
280
     1
102
MATERIAL
148
0.0
149
0.0
149
0.0
 93
        0
 94
      127
282
     0
 72
     0
 77
     0
171
     0
175
     0
179
     0
273
     0
  0
XRECORD
  5
9C08
102
{ACAD_REACTORS
330
9C06
102
}
330
9C06
100
AcDbXrecord
280
     1
270
     1
271
     1
  0
XRECORD
  5
9C07
102
{ACAD_REACTORS
330
9C06
102
}
330
9C06
100
AcDbXrecord
280
     1
270
     1
271
     1
  0
XRECORD
  5
9C0B
102
{ACAD_REACTORS
330
9C06
102
}
330
9C06
100
AcDbXrecord
280
     1
270
     1
271
     1
  0
XRECORD
  5
9C0A
102
{ACAD_REACTORS
330
9C06
102
}
330
9C06
100
AcDbXrecord
280
     1
270
     1
271
     1
  0
XRECORD
  5
9C0C
102
{ACAD_REACTORS
330
9C06
102
}
330
9C06
100
AcDbXrecord
280
     1
270
     1
271
     1
  0
XRECORD
  5
9C09
102
{ACAD_REACTORS
330
9C06
102
}
330
9C06
100
AcDbXrecord
280
     1
270
     1
271
     1
  0
XRECORD
  5
9C9A
102
{ACAD_REACTORS
330
9C99
102
}
330
9C99
100
AcDbXrecord
280
     1
102
DISPLAYNAME
  1
Imperial24
102
FLAGS
 90
        0
  0
CELLSTYLEMAP
  5
9C61
102
{ACAD_REACTORS
330
9C60
102
}
330
9C60
100
AcDbCellStyleMap
 90
        3
300
CELLSTYLE
  1
TABLEFORMAT_BEGIN
 90
        5
170
     1
 91
        0
 92
    32768
 62
   257
 93
        1
300
CONTENTFORMAT
  1
CONTENTFORMAT_BEGIN
 90
        0
 91
        0
 92
      512
 93
        0
300

 40
0.0
140
1.0
 94
        5
 62
     0
340
98F0
144
0.25
309
CONTENTFORMAT_END
171
     0
 94
        0
309
TABLEFORMAT_END
  1
CELLSTYLE_BEGIN
 90
        1
 91
        1
300
_TITLE
309
CELLSTYLE_END
300
CELLSTYLE
  1
TABLEFORMAT_BEGIN
 90
        5
170
     1
 91
        0
 92
        0
 62
   257
 93
        1
300
CONTENTFORMAT
  1
CONTENTFORMAT_BEGIN
 90
        0
 91
        0
 92
      512
 93
        0
300

 40
0.0
140
1.0
 94
        5
 62
     0
340
98F0
144
0.18
309
CONTENTFORMAT_END
171
     0
 94
        0
309
TABLEFORMAT_END
  1
CELLSTYLE_BEGIN
 90
        2
 91
        1
300
_HEADER
309
CELLSTYLE_END
300
CELLSTYLE
  1
TABLEFORMAT_BEGIN
 90
        5
170
     1
 91
        0
 92
        0
 62
   257
 93
        1
300
CONTENTFORMAT
  1
CONTENTFORMAT_BEGIN
 90
        0
 91
        0
 92
      512
 93
        0
300

 40
0.0
140
1.0
 94
        2
 62
     0
340
98F0
144
0.18
309
CONTENTFORMAT_END
171
     0
 94
        0
309
TABLEFORMAT_END
  1
CELLSTYLE_BEGIN
 90
        3
 91
        2
300
_DATA
309
CELLSTYLE_END
  0
XRECORD
  5
9C97
102
{ACAD_REACTORS
330
9C60
102
}
330
9C60
100
AcDbXrecord
280
     1
102
ACAD_ROUNDTRIP_PRE2007_TABLESTYLE
 90
      512
 91
        0
  1

 92
      512
 93
        0
  2

 94
      512
 95
        0
  3

  0
XRECORD
  5
9C72
102
{ACAD_REACTORS
330
9C71
102
}
330
9C71
100
AcDbXrecord
280
     1
102
RTVSPost2010Prop28
280
     1
102
RTVSPost2010PropOp28
 70
     1
102
RTVSPost2010Prop29
280
     1
102
RTVSPost2010PropOp29
 70
     1
102
RTVSPost2010Prop30
280
     0
102
RTVSPost2010PropOp30
 70
     1
102
RTVSPost2010Prop31
280
     0
102
RTVSPost2010PropOp31
 70
     1
102
RTVSPost2010Prop32
280
     0
102
RTVSPost2010PropOp32
 70
     1
102
RTVSPost2010Prop33
280
     0
102
RTVSPost2010PropOp33
 70
     1
102
RTVSPost2010Prop34
280
     0
102
RTVSPost2010PropOp34
 70
     1
102
RTVSPost2010Prop35
280
     0
102
RTVSPost2010PropOp35
 70
     1
102
RTVSPost2010Prop36
280
     0
102
RTVSPost2010PropOp36
 70
     1
102
RTVSPost2010Prop37
 90
       50
102
RTVSPost2010PropOp37
 70
     1
102
RTVSPost2010Prop38
140
0.0
102
RTVSPost2010PropOp38
 70
     1
102
RTVSPost2010Prop39
140
1.0
102
RTVSPost2010PropOp39
 70
     1
102
RTVSPost2010Prop40
 90
        0
102
RTVSPost2010PropOp40
 70
     1
102
RTVSPost2010Prop41ColorIndex
 90
       18
102
RTVSPost2010Prop41ColorRGB
 90
        0
102
RTVSPost2010PropOp41
 70
     1
102
RTVSPost2010Prop42
 90
       50
102
RTVSPost2010PropOp42
 70
     1
102
RTVSPost2010Prop43
 90
        3
102
RTVSPost2010PropOp43
 70
     1
102
RTVSPost2010Prop44ColorIndex
 90
        5
102
RTVSPost2010Prop44ColorRGB
 90
      255
102
RTVSPost2010PropOp44
 70
     1
102
RTVSPost2010Prop45
280
     0
102
RTVSPost2010PropOp45
 70
     1
102
RTVSPost2010Prop46
 90
       50
102
RTVSPost2010PropOp46
 70
     1
102
RTVSPost2010Prop47
 90
       50
102
RTVSPost2010PropOp47
 70
     1
102
RTVSPost2010Prop48
 90
       50
102
RTVSPost2010PropOp48
 70
     1
102
RTVSPost2010Prop49
280
     0
102
RTVSPost2010PropOp49
 70
     1
102
RTVSPost2010Prop50
 90
       50
102
RTVSPost2010PropOp50
 70
     1
102
RTVSPost2010Prop51ColorIndex
 90
      256
102
RTVSPost2010Prop51ColorRGB
 90
-16777216
102
RTVSPost2010PropOp51
 70
     0
102
RTVSPost2010Prop52
140
1.0
102
RTVSPost2010PropOp52
 70
     0
102
RTVSPost2010Prop53
 90
        2
102
RTVSPost2010PropOp53
 70
     1
102
RTVSPost2010Prop54
  1
strokes_ogs.tif
102
RTVSPost2010PropOp54
 70
     1
102
RTVSPost2010Prop55
280
     0
102
RTVSPost2010PropOp55
 70
     1
102
RTVSPost2010Prop56
140
1.0
102
RTVSPost2010PropOp56
 70
     1
102
RTVSPost2010Prop57
140
1.0
102
RTVSPost2010PropOp57
 70
     1
102
RTVSPropertyOp0
 70
     1
102
RTVSPropertyOp1
 70
     1
102
RTVSPropertyOp2
 70
     1
102
RTVSPropertyOp3
 70
     1
102
RTVSPropertyOp4
 70
     1
102
RTVSPropertyOp5
 70
     1
102
RTVSPropertyOp6
 70
     1
102
RTVSPropertyOp7
 70
     1
102
RTVSPropertyOp8
 70
     1
102
RTVSPropertyOp9
 70
     1
102
RTVSPropertyOp10
 70
     1
102
RTVSPropertyOp11
 70
     1
102
RTVSPropertyOp12
 70
     1
102
RTVSPropertyOp13
 70
     1
102
RTVSPropertyOp14
 70
     1
102
RTVSPropertyOp15
 70
     1
102
RTVSPropertyOp16
 70
     1
102
RTVSPropertyOp17
 70
     1
102
RTVSPropertyOp18
 70
     1
102
RTVSPropertyOp19
 70
     1
102
RTVSPropertyOp20
 70
     1
102
RTVSPropertyOp21
 70
     1
102
RTVSPropertyOp22
 70
     1
102
RTVSPropertyOp23
 70
     1
102
RTVSPropertyOp24
 70
     1
102
RTVSPropertyOp25
 70
     1
102
RTVSPropertyOp26
 70
     1
102
RTVSPropertyOp27
 70
     1
102
RTVSPropertyOp28
 70
     1
102
RTVSPropertyOp29
 70
     1
102
RTVSPropertyOp30
 70
     1
102
RTVSPropertyOp31
 70
     1
102
RTVSPropertyOp32
 70
     1
102
RTVSPropertyOp33
 70
     1
102
RTVSPropertyOp34
 70
     1
102
RTVSPropertyOp35
 70
     1
102
RTVSPropertyOp36
 70
     1
102
RTVSPropertyOp37
 70
     1
102
RTVSPropertyOp38
 70
     1
102
RTVSPropertyOp39
 70
     1
102
RTVSPropertyOp40
 70
     1
102
RTVSPropertyOp41
 70
     1
102
RTVSPropertyOp42
 70
     1
102
RTVSPropertyOp43
 70
     1
102
RTVSPropertyOp44
 70
     1
102
RTVSPropertyOp45
 70
     1
102
RTVSPropertyOp46
 70
     1
102
RTVSPropertyOp47
 70
     1
102
RTVSPropertyOp48
 70
     1
102
RTVSPropertyOp49
 70
     1
102
RTVSPropertyOp50
 70
     1
102
RTVSPropertyOp51
 70
     0
102
RTVSPropertyOp52
 70
     0
102
RTVSPropertyOp53
 70
     1
102
RTVSPropertyOp54
 70
     1
102
RTVSPropertyOp55
 70
     1
102
RTVSPropertyOp56
 70
     1
102
RTVSPropertyOp57
 70
     1
102
RTVSPropertyOp58
 70
     1
102
RTVSPropertyOp59
 70
     1
102
RTVSPropertyOp60
 70
     1
102
RTVSPropertyOp61
 70
     1
102
RTVSPropertyOp62
 70
     1
  0
XRECORD
  5
9C70
102
{ACAD_REACTORS
330
9C6F
102
}
330
9C6F
100
AcDbXrecord
280
     1
102
RTVSPost2010Prop28
280
     0
102
RTVSPost2010PropOp28
 70
     1
102
RTVSPost2010Prop29
280
     1
102
RTVSPost2010PropOp29
 70
     1
102
RTVSPost2010Prop30
280
     1
102
RTVSPost2010PropOp30
 70
     1
102
RTVSPost2010Prop31
280
     0
102
RTVSPost2010PropOp31
 70
     1
102
RTVSPost2010Prop32
280
     0
102
RTVSPost2010PropOp32
 70
     1
102
RTVSPost2010Prop33
280
     0
102
RTVSPost2010PropOp33
 70
     1
102
RTVSPost2010Prop34
280
     0
102
RTVSPost2010PropOp34
 70
     1
102
RTVSPost2010Prop35
280
     0
102
RTVSPost2010PropOp35
 70
     1
102
RTVSPost2010Prop36
280
     0
102
RTVSPost2010PropOp36
 70
     1
102
RTVSPost2010Prop37
 90
       50
102
RTVSPost2010PropOp37
 70
     1
102
RTVSPost2010Prop38
140
0.0
102
RTVSPost2010PropOp38
 70
     1
102
RTVSPost2010Prop39
140
1.0
102
RTVSPost2010PropOp39
 70
     1
102
RTVSPost2010Prop40
 90
        0
102
RTVSPost2010PropOp40
 70
     1
102
RTVSPost2010Prop41ColorIndex
 90
       18
102
RTVSPost2010Prop41ColorRGB
 90
        0
102
RTVSPost2010PropOp41
 70
     1
102
RTVSPost2010Prop42
 90
       50
102
RTVSPost2010PropOp42
 70
     1
102
RTVSPost2010Prop43
 90
        3
102
RTVSPost2010PropOp43
 70
     1
102
RTVSPost2010Prop44ColorIndex
 90
        5
102
RTVSPost2010Prop44ColorRGB
 90
      255
102
RTVSPost2010PropOp44
 70
     1
102
RTVSPost2010Prop45
280
     0
102
RTVSPost2010PropOp45
 70
     1
102
RTVSPost2010Prop46
 90
       50
102
RTVSPost2010PropOp46
 70
     1
102
RTVSPost2010Prop47
 90
       50
102
RTVSPost2010PropOp47
 70
     1
102
RTVSPost2010Prop48
 90
       50
102
RTVSPost2010PropOp48
 70
     1
102
RTVSPost2010Prop49
280
     0
102
RTVSPost2010PropOp49
 70
     1
102
RTVSPost2010Prop50
 90
       50
102
RTVSPost2010PropOp50
 70
     1
102
RTVSPost2010Prop51ColorIndex
 90
      256
102
RTVSPost2010Prop51ColorRGB
 90
-16777216
102
RTVSPost2010PropOp51
 70
     0
102
RTVSPost2010Prop52
140
1.0
102
RTVSPost2010PropOp52
 70
     0
102
RTVSPost2010Prop53
 90
        2
102
RTVSPost2010PropOp53
 70
     1
102
RTVSPost2010Prop54
  1
strokes_ogs.tif
102
RTVSPost2010PropOp54
 70
     1
102
RTVSPost2010Prop55
280
     0
102
RTVSPost2010PropOp55
 70
     1
102
RTVSPost2010Prop56
140
1.0
102
RTVSPost2010PropOp56
 70
     1
102
RTVSPost2010Prop57
140
1.0
102
RTVSPost2010PropOp57
 70
     1
102
RTVSPropertyOp0
 70
     1
102
RTVSPropertyOp1
 70
     1
102
RTVSPropertyOp2
 70
     1
102
RTVSPropertyOp3
 70
     1
102
RTVSPropertyOp4
 70
     1
102
RTVSPropertyOp5
 70
     1
102
RTVSPropertyOp6
 70
     1
102
RTVSPropertyOp7
 70
     1
102
RTVSPropertyOp8
 70
     1
102
RTVSPropertyOp9
 70
     1
102
RTVSPropertyOp10
 70
     1
102
RTVSPropertyOp11
 70
     1
102
RTVSPropertyOp12
 70
     1
102
RTVSPropertyOp13
 70
     1
102
RTVSPropertyOp14
 70
     1
102
RTVSPropertyOp15
 70
     1
102
RTVSPropertyOp16
 70
     1
102
RTVSPropertyOp17
 70
     1
102
RTVSPropertyOp18
 70
     1
102
RTVSPropertyOp19
 70
     1
102
RTVSPropertyOp20
 70
     1
102
RTVSPropertyOp21
 70
     1
102
RTVSPropertyOp22
 70
     1
102
RTVSPropertyOp23
 70
     1
102
RTVSPropertyOp24
 70
     1
102
RTVSPropertyOp25
 70
     1
102
RTVSPropertyOp26
 70
     1
102
RTVSPropertyOp27
 70
     1
102
RTVSPropertyOp28
 70
     1
102
RTVSPropertyOp29
 70
     1
102
RTVSPropertyOp30
 70
     1
102
RTVSPropertyOp31
 70
     1
102
RTVSPropertyOp32
 70
     1
102
RTVSPropertyOp33
 70
     1
102
RTVSPropertyOp34
 70
     1
102
RTVSPropertyOp35
 70
     1
102
RTVSPropertyOp36
 70
     1
102
RTVSPropertyOp37
 70
     1
102
RTVSPropertyOp38
 70
     1
102
RTVSPropertyOp39
 70
     1
102
RTVSPropertyOp40
 70
     1
102
RTVSPropertyOp41
 70
     1
102
RTVSPropertyOp42
 70
     1
102
RTVSPropertyOp43
 70
     1
102
RTVSPropertyOp44
 70
     1
102
RTVSPropertyOp45
 70
     1
102
RTVSPropertyOp46
 70
     1
102
RTVSPropertyOp47
 70
     1
102
RTVSPropertyOp48
 70
     1
102
RTVSPropertyOp49
 70
     1
102
RTVSPropertyOp50
 70
     1
102
RTVSPropertyOp51
 70
     0
102
RTVSPropertyOp52
 70
     0
102
RTVSPropertyOp53
 70
     1
102
RTVSPropertyOp54
 70
     1
102
RTVSPropertyOp55
 70
     1
102
RTVSPropertyOp56
 70
     1
102
RTVSPropertyOp57
 70
     1
102
RTVSPropertyOp58
 70
     1
102
RTVSPropertyOp59
 70
     1
102
RTVSPropertyOp60
 70
     1
102
RTVSPropertyOp61
 70
     1
102
RTVSPropertyOp62
 70
     1
  0
XRECORD
  5
9C7E
102
{ACAD_REACTORS
330
9C7D
102
}
330
9C7D
100
AcDbXrecord
280
     1
102
RTVSPost2010Prop28
280
     0
102
RTVSPost2010PropOp28
 70
     1
102
RTVSPost2010Prop29
280
     1
102
RTVSPost2010PropOp29
 70
     1
102
RTVSPost2010Prop30
280
     1
102
RTVSPost2010PropOp30
 70
     1
102
RTVSPost2010Prop31
280
     0
102
RTVSPost2010PropOp31
 70
     1
102
RTVSPost2010Prop32
280
     0
102
RTVSPost2010PropOp32
 70
     1
102
RTVSPost2010Prop33
280
     0
102
RTVSPost2010PropOp33
 70
     1
102
RTVSPost2010Prop34
280
     0
102
RTVSPost2010PropOp34
 70
     1
102
RTVSPost2010Prop35
280
     0
102
RTVSPost2010PropOp35
 70
     1
102
RTVSPost2010Prop36
280
     0
102
RTVSPost2010PropOp36
 70
     1
102
RTVSPost2010Prop37
 90
       50
102
RTVSPost2010PropOp37
 70
     1
102
RTVSPost2010Prop38
140
0.0
102
RTVSPost2010PropOp38
 70
     1
102
RTVSPost2010Prop39
140
1.0
102
RTVSPost2010PropOp39
 70
     1
102
RTVSPost2010Prop40
 90
        0
102
RTVSPost2010PropOp40
 70
     1
102
RTVSPost2010Prop41ColorIndex
 90
       18
102
RTVSPost2010Prop41ColorRGB
 90
        0
102
RTVSPost2010PropOp41
 70
     1
102
RTVSPost2010Prop42
 90
       50
102
RTVSPost2010PropOp42
 70
     1
102
RTVSPost2010Prop43
 90
        3
102
RTVSPost2010PropOp43
 70
     1
102
RTVSPost2010Prop44ColorIndex
 90
        5
102
RTVSPost2010Prop44ColorRGB
 90
      255
102
RTVSPost2010PropOp44
 70
     1
102
RTVSPost2010Prop45
280
     0
102
RTVSPost2010PropOp45
 70
     1
102
RTVSPost2010Prop46
 90
       50
102
RTVSPost2010PropOp46
 70
     1
102
RTVSPost2010Prop47
 90
       50
102
RTVSPost2010PropOp47
 70
     1
102
RTVSPost2010Prop48
 90
       50
102
RTVSPost2010PropOp48
 70
     1
102
RTVSPost2010Prop49
280
     0
102
RTVSPost2010PropOp49
 70
     1
102
RTVSPost2010Prop50
 90
       50
102
RTVSPost2010PropOp50
 70
     1
102
RTVSPost2010Prop51ColorIndex
 90
      256
102
RTVSPost2010Prop51ColorRGB
 90
-16777216
102
RTVSPost2010PropOp51
 70
     0
102
RTVSPost2010Prop52
140
1.0
102
RTVSPost2010PropOp52
 70
     0
102
RTVSPost2010Prop53
 90
        2
102
RTVSPost2010PropOp53
 70
     1
102
RTVSPost2010Prop54
  1
strokes_ogs.tif
102
RTVSPost2010PropOp54
 70
     1
102
RTVSPost2010Prop55
280
     0
102
RTVSPost2010PropOp55
 70
     1
102
RTVSPost2010Prop56
140
1.0
102
RTVSPost2010PropOp56
 70
     1
102
RTVSPost2010Prop57
140
1.0
102
RTVSPost2010PropOp57
 70
     1
102
RTVSPropertyOp0
 70
     1
102
RTVSPropertyOp1
 70
     1
102
RTVSPropertyOp2
 70
     1
102
RTVSPropertyOp3
 70
     1
102
RTVSPropertyOp4
 70
     1
102
RTVSPropertyOp5
 70
     1
102
RTVSPropertyOp6
 70
     1
102
RTVSPropertyOp7
 70
     1
102
RTVSPropertyOp8
 70
     1
102
RTVSPropertyOp9
 70
     1
102
RTVSPropertyOp10
 70
     1
102
RTVSPropertyOp11
 70
     1
102
RTVSPropertyOp12
 70
     1
102
RTVSPropertyOp13
 70
     1
102
RTVSPropertyOp14
 70
     1
102
RTVSPropertyOp15
 70
     1
102
RTVSPropertyOp16
 70
     1
102
RTVSPropertyOp17
 70
     1
102
RTVSPropertyOp18
 70
     1
102
RTVSPropertyOp19
 70
     1
102
RTVSPropertyOp20
 70
     1
102
RTVSPropertyOp21
 70
     1
102
RTVSPropertyOp22
 70
     1
102
RTVSPropertyOp23
 70
     1
102
RTVSPropertyOp24
 70
     1
102
RTVSPropertyOp25
 70
     1
102
RTVSPropertyOp26
 70
     1
102
RTVSPropertyOp27
 70
     1
102
RTVSPropertyOp28
 70
     1
102
RTVSPropertyOp29
 70
     1
102
RTVSPropertyOp30
 70
     1
102
RTVSPropertyOp31
 70
     1
102
RTVSPropertyOp32
 70
     1
102
RTVSPropertyOp33
 70
     1
102
RTVSPropertyOp34
 70
     1
102
RTVSPropertyOp35
 70
     1
102
RTVSPropertyOp36
 70
     1
102
RTVSPropertyOp37
 70
     1
102
RTVSPropertyOp38
 70
     1
102
RTVSPropertyOp39
 70
     1
102
RTVSPropertyOp40
 70
     1
102
RTVSPropertyOp41
 70
     1
102
RTVSPropertyOp42
 70
     1
102
RTVSPropertyOp43
 70
     1
102
RTVSPropertyOp44
 70
     1
102
RTVSPropertyOp45
 70
     1
102
RTVSPropertyOp46
 70
     1
102
RTVSPropertyOp47
 70
     1
102
RTVSPropertyOp48
 70
     1
102
RTVSPropertyOp49
 70
     1
102
RTVSPropertyOp50
 70
     1
102
RTVSPropertyOp51
 70
     0
102
RTVSPropertyOp52
 70
     0
102
RTVSPropertyOp53
 70
     1
102
RTVSPropertyOp54
 70
     1
102
RTVSPropertyOp55
 70
     1
102
RTVSPropertyOp56
 70
     1
102
RTVSPropertyOp57
 70
     1
102
RTVSPropertyOp58
 70
     1
102
RTVSPropertyOp59
 70
     1
102
RTVSPropertyOp60
 70
     1
102
RTVSPropertyOp61
 70
     1
102
RTVSPropertyOp62
 70
     1
  0
XRECORD
  5
9C86
102
{ACAD_REACTORS
330
9C85
102
}
330
9C85
100
AcDbXrecord
280
     1
102
RTVSPost2010Prop28
280
     0
102
RTVSPost2010PropOp28
 70
     1
102
RTVSPost2010Prop29
280
     1
102
RTVSPost2010PropOp29
 70
     1
102
RTVSPost2010Prop30
280
     1
102
RTVSPost2010PropOp30
 70
     1
102
RTVSPost2010Prop31
280
     0
102
RTVSPost2010PropOp31
 70
     1
102
RTVSPost2010Prop32
280
     0
102
RTVSPost2010PropOp32
 70
     1
102
RTVSPost2010Prop33
280
     0
102
RTVSPost2010PropOp33
 70
     1
102
RTVSPost2010Prop34
280
     0
102
RTVSPost2010PropOp34
 70
     1
102
RTVSPost2010Prop35
280
     0
102
RTVSPost2010PropOp35
 70
     1
102
RTVSPost2010Prop36
280
     0
102
RTVSPost2010PropOp36
 70
     1
102
RTVSPost2010Prop37
 90
       50
102
RTVSPost2010PropOp37
 70
     1
102
RTVSPost2010Prop38
140
0.0
102
RTVSPost2010PropOp38
 70
     1
102
RTVSPost2010Prop39
140
1.0
102
RTVSPost2010PropOp39
 70
     1
102
RTVSPost2010Prop40
 90
        0
102
RTVSPost2010PropOp40
 70
     1
102
RTVSPost2010Prop41ColorIndex
 90
       18
102
RTVSPost2010Prop41ColorRGB
 90
        0
102
RTVSPost2010PropOp41
 70
     1
102
RTVSPost2010Prop42
 90
       50
102
RTVSPost2010PropOp42
 70
     1
102
RTVSPost2010Prop43
 90
        3
102
RTVSPost2010PropOp43
 70
     1
102
RTVSPost2010Prop44ColorIndex
 90
        5
102
RTVSPost2010Prop44ColorRGB
 90
      255
102
RTVSPost2010PropOp44
 70
     1
102
RTVSPost2010Prop45
280
     0
102
RTVSPost2010PropOp45
 70
     1
102
RTVSPost2010Prop46
 90
       50
102
RTVSPost2010PropOp46
 70
     1
102
RTVSPost2010Prop47
 90
       50
102
RTVSPost2010PropOp47
 70
     1
102
RTVSPost2010Prop48
 90
       50
102
RTVSPost2010PropOp48
 70
     1
102
RTVSPost2010Prop49
280
     0
102
RTVSPost2010PropOp49
 70
     1
102
RTVSPost2010Prop50
 90
       50
102
RTVSPost2010PropOp50
 70
     1
102
RTVSPost2010Prop51ColorIndex
 90
      256
102
RTVSPost2010Prop51ColorRGB
 90
-16777216
102
RTVSPost2010PropOp51
 70
     0
102
RTVSPost2010Prop52
140
1.0
102
RTVSPost2010PropOp52
 70
     0
102
RTVSPost2010Prop53
 90
        2
102
RTVSPost2010PropOp53
 70
     1
102
RTVSPost2010Prop54
  1
strokes_ogs.tif
102
RTVSPost2010PropOp54
 70
     1
102
RTVSPost2010Prop55
280
     0
102
RTVSPost2010PropOp55
 70
     1
102
RTVSPost2010Prop56
140
1.0
102
RTVSPost2010PropOp56
 70
     1
102
RTVSPost2010Prop57
140
1.0
102
RTVSPost2010PropOp57
 70
     1
102
RTVSPropertyOp0
 70
     1
102
RTVSPropertyOp1
 70
     1
102
RTVSPropertyOp2
 70
     1
102
RTVSPropertyOp3
 70
     1
102
RTVSPropertyOp4
 70
     1
102
RTVSPropertyOp5
 70
     1
102
RTVSPropertyOp6
 70
     1
102
RTVSPropertyOp7
 70
     1
102
RTVSPropertyOp8
 70
     1
102
RTVSPropertyOp9
 70
     1
102
RTVSPropertyOp10
 70
     1
102
RTVSPropertyOp11
 70
     1
102
RTVSPropertyOp12
 70
     1
102
RTVSPropertyOp13
 70
     1
102
RTVSPropertyOp14
 70
     1
102
RTVSPropertyOp15
 70
     1
102
RTVSPropertyOp16
 70
     1
102
RTVSPropertyOp17
 70
     1
102
RTVSPropertyOp18
 70
     1
102
RTVSPropertyOp19
 70
     1
102
RTVSPropertyOp20
 70
     1
102
RTVSPropertyOp21
 70
     1
102
RTVSPropertyOp22
 70
     1
102
RTVSPropertyOp23
 70
     1
102
RTVSPropertyOp24
 70
     1
102
RTVSPropertyOp25
 70
     1
102
RTVSPropertyOp26
 70
     1
102
RTVSPropertyOp27
 70
     1
102
RTVSPropertyOp28
 70
     1
102
RTVSPropertyOp29
 70
     1
102
RTVSPropertyOp30
 70
     1
102
RTVSPropertyOp31
 70
     1
102
RTVSPropertyOp32
 70
     1
102
RTVSPropertyOp33
 70
     1
102
RTVSPropertyOp34
 70
     1
102
RTVSPropertyOp35
 70
     1
102
RTVSPropertyOp36
 70
     1
102
RTVSPropertyOp37
 70
     1
102
RTVSPropertyOp38
 70
     1
102
RTVSPropertyOp39
 70
     1
102
RTVSPropertyOp40
 70
     1
102
RTVSPropertyOp41
 70
     1
102
RTVSPropertyOp42
 70
     1
102
RTVSPropertyOp43
 70
     1
102
RTVSPropertyOp44
 70
     1
102
RTVSPropertyOp45
 70
     1
102
RTVSPropertyOp46
 70
     1
102
RTVSPropertyOp47
 70
     1
102
RTVSPropertyOp48
 70
     1
102
RTVSPropertyOp49
 70
     1
102
RTVSPropertyOp50
 70
     1
102
RTVSPropertyOp51
 70
     0
102
RTVSPropertyOp52
 70
     0
102
RTVSPropertyOp53
 70
     1
102
RTVSPropertyOp54
 70
     1
102
RTVSPropertyOp55
 70
     1
102
RTVSPropertyOp56
 70
     1
102
RTVSPropertyOp57
 70
     1
102
RTVSPropertyOp58
 70
     1
102
RTVSPropertyOp59
 70
     1
102
RTVSPropertyOp60
 70
     1
102
RTVSPropertyOp61
 70
     1
102
RTVSPropertyOp62
 70
     1
  0
XRECORD
  5
9C78
102
{ACAD_REACTORS
330
9C77
102
}
330
9C77
100
AcDbXrecord
280
     1
102
RTVSPost2010Prop28
280
     0
102
RTVSPost2010PropOp28
 70
     1
102
RTVSPost2010Prop29
280
     1
102
RTVSPost2010PropOp29
 70
     1
102
RTVSPost2010Prop30
280
     1
102
RTVSPost2010PropOp30
 70
     1
102
RTVSPost2010Prop31
280
     0
102
RTVSPost2010PropOp31
 70
     1
102
RTVSPost2010Prop32
280
     0
102
RTVSPost2010PropOp32
 70
     1
102
RTVSPost2010Prop33
280
     0
102
RTVSPost2010PropOp33
 70
     1
102
RTVSPost2010Prop34
280
     0
102
RTVSPost2010PropOp34
 70
     1
102
RTVSPost2010Prop35
280
     0
102
RTVSPost2010PropOp35
 70
     1
102
RTVSPost2010Prop36
280
     0
102
RTVSPost2010PropOp36
 70
     1
102
RTVSPost2010Prop37
 90
       50
102
RTVSPost2010PropOp37
 70
     1
102
RTVSPost2010Prop38
140
0.0
102
RTVSPost2010PropOp38
 70
     1
102
RTVSPost2010Prop39
140
1.0
102
RTVSPost2010PropOp39
 70
     1
102
RTVSPost2010Prop40
 90
        0
102
RTVSPost2010PropOp40
 70
     1
102
RTVSPost2010Prop41ColorIndex
 90
       18
102
RTVSPost2010Prop41ColorRGB
 90
        0
102
RTVSPost2010PropOp41
 70
     1
102
RTVSPost2010Prop42
 90
       50
102
RTVSPost2010PropOp42
 70
     1
102
RTVSPost2010Prop43
 90
        3
102
RTVSPost2010PropOp43
 70
     1
102
RTVSPost2010Prop44ColorIndex
 90
        5
102
RTVSPost2010Prop44ColorRGB
 90
      255
102
RTVSPost2010PropOp44
 70
     1
102
RTVSPost2010Prop45
280
     0
102
RTVSPost2010PropOp45
 70
     1
102
RTVSPost2010Prop46
 90
       50
102
RTVSPost2010PropOp46
 70
     1
102
RTVSPost2010Prop47
 90
       50
102
RTVSPost2010PropOp47
 70
     1
102
RTVSPost2010Prop48
 90
       50
102
RTVSPost2010PropOp48
 70
     1
102
RTVSPost2010Prop49
280
     0
102
RTVSPost2010PropOp49
 70
     1
102
RTVSPost2010Prop50
 90
       50
102
RTVSPost2010PropOp50
 70
     1
102
RTVSPost2010Prop51ColorIndex
 90
      256
102
RTVSPost2010Prop51ColorRGB
 90
-16777216
102
RTVSPost2010PropOp51
 70
     0
102
RTVSPost2010Prop52
140
1.0
102
RTVSPost2010PropOp52
 70
     0
102
RTVSPost2010Prop53
 90
        2
102
RTVSPost2010PropOp53
 70
     1
102
RTVSPost2010Prop54
  1
strokes_ogs.tif
102
RTVSPost2010PropOp54
 70
     1
102
RTVSPost2010Prop55
280
     0
102
RTVSPost2010PropOp55
 70
     1
102
RTVSPost2010Prop56
140
1.0
102
RTVSPost2010PropOp56
 70
     1
102
RTVSPost2010Prop57
140
1.0
102
RTVSPost2010PropOp57
 70
     1
102
RTVSPropertyOp0
 70
     1
102
RTVSPropertyOp1
 70
     1
102
RTVSPropertyOp2
 70
     1
102
RTVSPropertyOp3
 70
     1
102
RTVSPropertyOp4
 70
     1
102
RTVSPropertyOp5
 70
     1
102
RTVSPropertyOp6
 70
     1
102
RTVSPropertyOp7
 70
     1
102
RTVSPropertyOp8
 70
     1
102
RTVSPropertyOp9
 70
     1
102
RTVSPropertyOp10
 70
     1
102
RTVSPropertyOp11
 70
     1
102
RTVSPropertyOp12
 70
     1
102
RTVSPropertyOp13
 70
     1
102
RTVSPropertyOp14
 70
     1
102
RTVSPropertyOp15
 70
     1
102
RTVSPropertyOp16
 70
     1
102
RTVSPropertyOp17
 70
     1
102
RTVSPropertyOp18
 70
     1
102
RTVSPropertyOp19
 70
     1
102
RTVSPropertyOp20
 70
     1
102
RTVSPropertyOp21
 70
     1
102
RTVSPropertyOp22
 70
     1
102
RTVSPropertyOp23
 70
     1
102
RTVSPropertyOp24
 70
     1
102
RTVSPropertyOp25
 70
     1
102
RTVSPropertyOp26
 70
     1
102
RTVSPropertyOp27
 70
     1
102
RTVSPropertyOp28
 70
     1
102
RTVSPropertyOp29
 70
     1
102
RTVSPropertyOp30
 70
     1
102
RTVSPropertyOp31
 70
     1
102
RTVSPropertyOp32
 70
     1
102
RTVSPropertyOp33
 70
     1
102
RTVSPropertyOp34
 70
     1
102
RTVSPropertyOp35
 70
     1
102
RTVSPropertyOp36
 70
     1
102
RTVSPropertyOp37
 70
     1
102
RTVSPropertyOp38
 70
     1
102
RTVSPropertyOp39
 70
     1
102
RTVSPropertyOp40
 70
     1
102
RTVSPropertyOp41
 70
     1
102
RTVSPropertyOp42
 70
     1
102
RTVSPropertyOp43
 70
     1
102
RTVSPropertyOp44
 70
     1
102
RTVSPropertyOp45
 70
     1
102
RTVSPropertyOp46
 70
     1
102
RTVSPropertyOp47
 70
     1
102
RTVSPropertyOp48
 70
     1
102
RTVSPropertyOp49
 70
     1
102
RTVSPropertyOp50
 70
     1
102
RTVSPropertyOp51
 70
     0
102
RTVSPropertyOp52
 70
     0
102
RTVSPropertyOp53
 70
     1
102
RTVSPropertyOp54
 70
     1
102
RTVSPropertyOp55
 70
     1
102
RTVSPropertyOp56
 70
     1
102
RTVSPropertyOp57
 70
     1
102
RTVSPropertyOp58
 70
     1
102
RTVSPropertyOp59
 70
     1
102
RTVSPropertyOp60
 70
     1
102
RTVSPropertyOp61
 70
     1
102
RTVSPropertyOp62
 70
     1
  0
XRECORD
  5
9C7C
102
{ACAD_REACTORS
330
9C7B
102
}
330
9C7B
100
AcDbXrecord
280
     1
102
RTVSPost2010Prop28
280
     0
102
RTVSPost2010PropOp28
 70
     1
102
RTVSPost2010Prop29
280
     1
102
RTVSPost2010PropOp29
 70
     1
102
RTVSPost2010Prop30
280
     1
102
RTVSPost2010PropOp30
 70
     1
102
RTVSPost2010Prop31
280
     0
102
RTVSPost2010PropOp31
 70
     1
102
RTVSPost2010Prop32
280
     0
102
RTVSPost2010PropOp32
 70
     1
102
RTVSPost2010Prop33
280
     0
102
RTVSPost2010PropOp33
 70
     1
102
RTVSPost2010Prop34
280
     0
102
RTVSPost2010PropOp34
 70
     1
102
RTVSPost2010Prop35
280
     0
102
RTVSPost2010PropOp35
 70
     1
102
RTVSPost2010Prop36
280
     0
102
RTVSPost2010PropOp36
 70
     1
102
RTVSPost2010Prop37
 90
       50
102
RTVSPost2010PropOp37
 70
     1
102
RTVSPost2010Prop38
140
0.0
102
RTVSPost2010PropOp38
 70
     1
102
RTVSPost2010Prop39
140
1.0
102
RTVSPost2010PropOp39
 70
     1
102
RTVSPost2010Prop40
 90
        0
102
RTVSPost2010PropOp40
 70
     1
102
RTVSPost2010Prop41ColorIndex
 90
       18
102
RTVSPost2010Prop41ColorRGB
 90
        0
102
RTVSPost2010PropOp41
 70
     1
102
RTVSPost2010Prop42
 90
       50
102
RTVSPost2010PropOp42
 70
     1
102
RTVSPost2010Prop43
 90
        3
102
RTVSPost2010PropOp43
 70
     1
102
RTVSPost2010Prop44ColorIndex
 90
        5
102
RTVSPost2010Prop44ColorRGB
 90
      255
102
RTVSPost2010PropOp44
 70
     1
102
RTVSPost2010Prop45
280
     0
102
RTVSPost2010PropOp45
 70
     1
102
RTVSPost2010Prop46
 90
       50
102
RTVSPost2010PropOp46
 70
     1
102
RTVSPost2010Prop47
 90
       50
102
RTVSPost2010PropOp47
 70
     1
102
RTVSPost2010Prop48
 90
       50
102
RTVSPost2010PropOp48
 70
     1
102
RTVSPost2010Prop49
280
     0
102
RTVSPost2010PropOp49
 70
     1
102
RTVSPost2010Prop50
 90
       50
102
RTVSPost2010PropOp50
 70
     1
102
RTVSPost2010Prop51ColorIndex
 90
      256
102
RTVSPost2010Prop51ColorRGB
 90
-16777216
102
RTVSPost2010PropOp51
 70
     0
102
RTVSPost2010Prop52
140
1.0
102
RTVSPost2010PropOp52
 70
     0
102
RTVSPost2010Prop53
 90
        2
102
RTVSPost2010PropOp53
 70
     1
102
RTVSPost2010Prop54
  1
strokes_ogs.tif
102
RTVSPost2010PropOp54
 70
     1
102
RTVSPost2010Prop55
280
     0
102
RTVSPost2010PropOp55
 70
     1
102
RTVSPost2010Prop56
140
1.0
102
RTVSPost2010PropOp56
 70
     1
102
RTVSPost2010Prop57
140
1.0
102
RTVSPost2010PropOp57
 70
     1
102
RTVSPropertyOp0
 70
     1
102
RTVSPropertyOp1
 70
     1
102
RTVSPropertyOp2
 70
     1
102
RTVSPropertyOp3
 70
     1
102
RTVSPropertyOp4
 70
     1
102
RTVSPropertyOp5
 70
     1
102
RTVSPropertyOp6
 70
     1
102
RTVSPropertyOp7
 70
     1
102
RTVSPropertyOp8
 70
     1
102
RTVSPropertyOp9
 70
     1
102
RTVSPropertyOp10
 70
     1
102
RTVSPropertyOp11
 70
     1
102
RTVSPropertyOp12
 70
     1
102
RTVSPropertyOp13
 70
     1
102
RTVSPropertyOp14
 70
     1
102
RTVSPropertyOp15
 70
     1
102
RTVSPropertyOp16
 70
     1
102
RTVSPropertyOp17
 70
     1
102
RTVSPropertyOp18
 70
     1
102
RTVSPropertyOp19
 70
     1
102
RTVSPropertyOp20
 70
     1
102
RTVSPropertyOp21
 70
     1
102
RTVSPropertyOp22
 70
     1
102
RTVSPropertyOp23
 70
     1
102
RTVSPropertyOp24
 70
     1
102
RTVSPropertyOp25
 70
     1
102
RTVSPropertyOp26
 70
     1
102
RTVSPropertyOp27
 70
     1
102
RTVSPropertyOp28
 70
     1
102
RTVSPropertyOp29
 70
     1
102
RTVSPropertyOp30
 70
     1
102
RTVSPropertyOp31
 70
     1
102
RTVSPropertyOp32
 70
     1
102
RTVSPropertyOp33
 70
     1
102
RTVSPropertyOp34
 70
     1
102
RTVSPropertyOp35
 70
     1
102
RTVSPropertyOp36
 70
     1
102
RTVSPropertyOp37
 70
     1
102
RTVSPropertyOp38
 70
     1
102
RTVSPropertyOp39
 70
     1
102
RTVSPropertyOp40
 70
     1
102
RTVSPropertyOp41
 70
     1
102
RTVSPropertyOp42
 70
     1
102
RTVSPropertyOp43
 70
     1
102
RTVSPropertyOp44
 70
     1
102
RTVSPropertyOp45
 70
     1
102
RTVSPropertyOp46
 70
     1
102
RTVSPropertyOp47
 70
     1
102
RTVSPropertyOp48
 70
     1
102
RTVSPropertyOp49
 70
     1
102
RTVSPropertyOp50
 70
     1
102
RTVSPropertyOp51
 70
     0
102
RTVSPropertyOp52
 70
     0
102
RTVSPropertyOp53
 70
     1
102
RTVSPropertyOp54
 70
     1
102
RTVSPropertyOp55
 70
     1
102
RTVSPropertyOp56
 70
     1
102
RTVSPropertyOp57
 70
     1
102
RTVSPropertyOp58
 70
     1
102
RTVSPropertyOp59
 70
     1
102
RTVSPropertyOp60
 70
     1
102
RTVSPropertyOp61
 70
     1
102
RTVSPropertyOp62
 70
     1
  0
XRECORD
  5
9C96
102
{ACAD_REACTORS
330
9C95
102
}
330
9C95
100
AcDbXrecord
280
     1
102
RTVSPost2010Prop28
280
     0
102
RTVSPost2010PropOp28
 70
     1
102
RTVSPost2010Prop29
280
     1
102
RTVSPost2010PropOp29
 70
     1
102
RTVSPost2010Prop30
280
     1
102
RTVSPost2010PropOp30
 70
     1
102
RTVSPost2010Prop31
280
     0
102
RTVSPost2010PropOp31
 70
     1
102
RTVSPost2010Prop32
280
     0
102
RTVSPost2010PropOp32
 70
     1
102
RTVSPost2010Prop33
280
     0
102
RTVSPost2010PropOp33
 70
     1
102
RTVSPost2010Prop34
280
     0
102
RTVSPost2010PropOp34
 70
     1
102
RTVSPost2010Prop35
280
     0
102
RTVSPost2010PropOp35
 70
     1
102
RTVSPost2010Prop36
280
     0
102
RTVSPost2010PropOp36
 70
     1
102
RTVSPost2010Prop37
 90
       50
102
RTVSPost2010PropOp37
 70
     0
102
RTVSPost2010Prop38
140
0.0
102
RTVSPost2010PropOp38
 70
     0
102
RTVSPost2010Prop39
140
1.0
102
RTVSPost2010PropOp39
 70
     0
102
RTVSPost2010Prop40
 90
        0
102
RTVSPost2010PropOp40
 70
     0
102
RTVSPost2010Prop41ColorIndex
 90
       18
102
RTVSPost2010Prop41ColorRGB
 90
        0
102
RTVSPost2010PropOp41
 70
     0
102
RTVSPost2010Prop42
 90
       50
102
RTVSPost2010PropOp42
 70
     0
102
RTVSPost2010Prop43
 90
        3
102
RTVSPost2010PropOp43
 70
     0
102
RTVSPost2010Prop44ColorIndex
 90
        5
102
RTVSPost2010Prop44ColorRGB
 90
      255
102
RTVSPost2010PropOp44
 70
     0
102
RTVSPost2010Prop45
280
     0
102
RTVSPost2010PropOp45
 70
     1
102
RTVSPost2010Prop46
 90
       50
102
RTVSPost2010PropOp46
 70
     0
102
RTVSPost2010Prop47
 90
       50
102
RTVSPost2010PropOp47
 70
     0
102
RTVSPost2010Prop48
 90
       50
102
RTVSPost2010PropOp48
 70
     0
102
RTVSPost2010Prop49
280
     0
102
RTVSPost2010PropOp49
 70
     1
102
RTVSPost2010Prop50
 90
       50
102
RTVSPost2010PropOp50
 70
     0
102
RTVSPost2010Prop51ColorIndex
 90
      256
102
RTVSPost2010Prop51ColorRGB
 90
-16777216
102
RTVSPost2010PropOp51
 70
     0
102
RTVSPost2010Prop52
140
1.0
102
RTVSPost2010PropOp52
 70
     0
102
RTVSPost2010Prop53
 90
        2
102
RTVSPost2010PropOp53
 70
     0
102
RTVSPost2010Prop54
  1
strokes_ogs.tif
102
RTVSPost2010PropOp54
 70
     0
102
RTVSPost2010Prop55
280
     0
102
RTVSPost2010PropOp55
 70
     1
102
RTVSPost2010Prop56
140
1.0
102
RTVSPost2010PropOp56
 70
     0
102
RTVSPost2010Prop57
140
1.0
102
RTVSPost2010PropOp57
 70
     0
102
RTVSPropertyOp0
 70
     0
102
RTVSPropertyOp1
 70
     0
102
RTVSPropertyOp2
 70
     0
102
RTVSPropertyOp3
 70
     0
102
RTVSPropertyOp4
 70
     0
102
RTVSPropertyOp5
 70
     0
102
RTVSPropertyOp6
 70
     0
102
RTVSPropertyOp7
 70
     0
102
RTVSPropertyOp8
 70
     0
102
RTVSPropertyOp9
 70
     0
102
RTVSPropertyOp10
 70
     0
102
RTVSPropertyOp11
 70
     0
102
RTVSPropertyOp12
 70
     0
102
RTVSPropertyOp13
 70
     0
102
RTVSPropertyOp14
 70
     2
102
RTVSPropertyOp15
 70
     0
102
RTVSPropertyOp16
 70
     0
102
RTVSPropertyOp17
 70
     0
102
RTVSPropertyOp18
 70
     0
102
RTVSPropertyOp19
 70
     0
102
RTVSPropertyOp20
 70
     0
102
RTVSPropertyOp21
 70
     0
102
RTVSPropertyOp22
 70
     0
102
RTVSPropertyOp23
 70
     0
102
RTVSPropertyOp24
 70
     0
102
RTVSPropertyOp25
 70
     0
102
RTVSPropertyOp26
 70
     0
102
RTVSPropertyOp27
 70
     0
102
RTVSPropertyOp28
 70
     1
102
RTVSPropertyOp29
 70
     1
102
RTVSPropertyOp30
 70
     1
102
RTVSPropertyOp31
 70
     1
102
RTVSPropertyOp32
 70
     1
102
RTVSPropertyOp33
 70
     1
102
RTVSPropertyOp34
 70
     1
102
RTVSPropertyOp35
 70
     1
102
RTVSPropertyOp36
 70
     1
102
RTVSPropertyOp37
 70
     0
102
RTVSPropertyOp38
 70
     0
102
RTVSPropertyOp39
 70
     0
102
RTVSPropertyOp40
 70
     0
102
RTVSPropertyOp41
 70
     0
102
RTVSPropertyOp42
 70
     0
102
RTVSPropertyOp43
 70
     0
102
RTVSPropertyOp44
 70
     0
102
RTVSPropertyOp45
 70
     1
102
RTVSPropertyOp46
 70
     0
102
RTVSPropertyOp47
 70
     0
102
RTVSPropertyOp48
 70
     0
102
RTVSPropertyOp49
 70
     1
102
RTVSPropertyOp50
 70
     0
102
RTVSPropertyOp51
 70
     0
102
RTVSPropertyOp52
 70
     0
102
RTVSPropertyOp53
 70
     0
102
RTVSPropertyOp54
 70
     0
102
RTVSPropertyOp55
 70
     1
102
RTVSPropertyOp56
 70
     0
102
RTVSPropertyOp57
 70
     0
102
RTVSPropertyOp58
 70
     0
102
RTVSPropertyOp59
 70
     0
102
RTVSPropertyOp60
 70
     0
102
RTVSPropertyOp61
 70
     0
102
RTVSPropertyOp62
 70
     0
  0
XRECORD
  5
9C84
102
{ACAD_REACTORS
330
9C83
102
}
330
9C83
100
AcDbXrecord
280
     1
102
RTVSPost2010Prop28
280
     0
102
RTVSPost2010PropOp28
 70
     1
102
RTVSPost2010Prop29
280
     1
102
RTVSPost2010PropOp29
 70
     1
102
RTVSPost2010Prop30
280
     1
102
RTVSPost2010PropOp30
 70
     1
102
RTVSPost2010Prop31
280
     0
102
RTVSPost2010PropOp31
 70
     1
102
RTVSPost2010Prop32
280
     0
102
RTVSPost2010PropOp32
 70
     1
102
RTVSPost2010Prop33
280
     0
102
RTVSPost2010PropOp33
 70
     1
102
RTVSPost2010Prop34
280
     0
102
RTVSPost2010PropOp34
 70
     1
102
RTVSPost2010Prop35
280
     0
102
RTVSPost2010PropOp35
 70
     1
102
RTVSPost2010Prop36
280
     0
102
RTVSPost2010PropOp36
 70
     1
102
RTVSPost2010Prop37
 90
       50
102
RTVSPost2010PropOp37
 70
     1
102
RTVSPost2010Prop38
140
0.0
102
RTVSPost2010PropOp38
 70
     1
102
RTVSPost2010Prop39
140
1.0
102
RTVSPost2010PropOp39
 70
     1
102
RTVSPost2010Prop40
 90
        0
102
RTVSPost2010PropOp40
 70
     1
102
RTVSPost2010Prop41ColorIndex
 90
       18
102
RTVSPost2010Prop41ColorRGB
 90
        0
102
RTVSPost2010PropOp41
 70
     1
102
RTVSPost2010Prop42
 90
       50
102
RTVSPost2010PropOp42
 70
     1
102
RTVSPost2010Prop43
 90
        3
102
RTVSPost2010PropOp43
 70
     1
102
RTVSPost2010Prop44ColorIndex
 90
        5
102
RTVSPost2010Prop44ColorRGB
 90
      255
102
RTVSPost2010PropOp44
 70
     1
102
RTVSPost2010Prop45
280
     0
102
RTVSPost2010PropOp45
 70
     1
102
RTVSPost2010Prop46
 90
       50
102
RTVSPost2010PropOp46
 70
     1
102
RTVSPost2010Prop47
 90
       50
102
RTVSPost2010PropOp47
 70
     1
102
RTVSPost2010Prop48
 90
       50
102
RTVSPost2010PropOp48
 70
     1
102
RTVSPost2010Prop49
280
     0
102
RTVSPost2010PropOp49
 70
     1
102
RTVSPost2010Prop50
 90
       50
102
RTVSPost2010PropOp50
 70
     1
102
RTVSPost2010Prop51ColorIndex
 90
      256
102
RTVSPost2010Prop51ColorRGB
 90
-16777216
102
RTVSPost2010PropOp51
 70
     0
102
RTVSPost2010Prop52
140
1.0
102
RTVSPost2010PropOp52
 70
     0
102
RTVSPost2010Prop53
 90
        2
102
RTVSPost2010PropOp53
 70
     1
102
RTVSPost2010Prop54
  1
strokes_ogs.tif
102
RTVSPost2010PropOp54
 70
     1
102
RTVSPost2010Prop55
280
     0
102
RTVSPost2010PropOp55
 70
     1
102
RTVSPost2010Prop56
140
1.0
102
RTVSPost2010PropOp56
 70
     1
102
RTVSPost2010Prop57
140
1.0
102
RTVSPost2010PropOp57
 70
     1
102
RTVSPropertyOp0
 70
     1
102
RTVSPropertyOp1
 70
     1
102
RTVSPropertyOp2
 70
     1
102
RTVSPropertyOp3
 70
     1
102
RTVSPropertyOp4
 70
     1
102
RTVSPropertyOp5
 70
     1
102
RTVSPropertyOp6
 70
     1
102
RTVSPropertyOp7
 70
     1
102
RTVSPropertyOp8
 70
     1
102
RTVSPropertyOp9
 70
     1
102
RTVSPropertyOp10
 70
     1
102
RTVSPropertyOp11
 70
     1
102
RTVSPropertyOp12
 70
     1
102
RTVSPropertyOp13
 70
     1
102
RTVSPropertyOp14
 70
     1
102
RTVSPropertyOp15
 70
     1
102
RTVSPropertyOp16
 70
     1
102
RTVSPropertyOp17
 70
     1
102
RTVSPropertyOp18
 70
     1
102
RTVSPropertyOp19
 70
     1
102
RTVSPropertyOp20
 70
     1
102
RTVSPropertyOp21
 70
     1
102
RTVSPropertyOp22
 70
     1
102
RTVSPropertyOp23
 70
     1
102
RTVSPropertyOp24
 70
     1
102
RTVSPropertyOp25
 70
     1
102
RTVSPropertyOp26
 70
     1
102
RTVSPropertyOp27
 70
     1
102
RTVSPropertyOp28
 70
     1
102
RTVSPropertyOp29
 70
     1
102
RTVSPropertyOp30
 70
     1
102
RTVSPropertyOp31
 70
     1
102
RTVSPropertyOp32
 70
     1
102
RTVSPropertyOp33
 70
     1
102
RTVSPropertyOp34
 70
     1
102
RTVSPropertyOp35
 70
     1
102
RTVSPropertyOp36
 70
     1
102
RTVSPropertyOp37
 70
     1
102
RTVSPropertyOp38
 70
     1
102
RTVSPropertyOp39
 70
     1
102
RTVSPropertyOp40
 70
     1
102
RTVSPropertyOp41
 70
     1
102
RTVSPropertyOp42
 70
     1
102
RTVSPropertyOp43
 70
     1
102
RTVSPropertyOp44
 70
     1
102
RTVSPropertyOp45
 70
     1
102
RTVSPropertyOp46
 70
     1
102
RTVSPropertyOp47
 70
     1
102
RTVSPropertyOp48
 70
     1
102
RTVSPropertyOp49
 70
     1
102
RTVSPropertyOp50
 70
     1
102
RTVSPropertyOp51
 70
     0
102
RTVSPropertyOp52
 70
     0
102
RTVSPropertyOp53
 70
     1
102
RTVSPropertyOp54
 70
     1
102
RTVSPropertyOp55
 70
     1
102
RTVSPropertyOp56
 70
     1
102
RTVSPropertyOp57
 70
     1
102
RTVSPropertyOp58
 70
     1
102
RTVSPropertyOp59
 70
     1
102
RTVSPropertyOp60
 70
     1
102
RTVSPropertyOp61
 70
     1
102
RTVSPropertyOp62
 70
     1
  0
XRECORD
  5
9C68
102
{ACAD_REACTORS
330
9C67
102
}
330
9C67
100
AcDbXrecord
280
     1
102
RTVSPost2010Prop28
280
     0
102
RTVSPost2010PropOp28
 70
     1
102
RTVSPost2010Prop29
280
     1
102
RTVSPost2010PropOp29
 70
     1
102
RTVSPost2010Prop30
280
     1
102
RTVSPost2010PropOp30
 70
     1
102
RTVSPost2010Prop31
280
     0
102
RTVSPost2010PropOp31
 70
     1
102
RTVSPost2010Prop32
280
     0
102
RTVSPost2010PropOp32
 70
     1
102
RTVSPost2010Prop33
280
     0
102
RTVSPost2010PropOp33
 70
     1
102
RTVSPost2010Prop34
280
     0
102
RTVSPost2010PropOp34
 70
     1
102
RTVSPost2010Prop35
280
     0
102
RTVSPost2010PropOp35
 70
     1
102
RTVSPost2010Prop36
280
     0
102
RTVSPost2010PropOp36
 70
     1
102
RTVSPost2010Prop37
 90
       50
102
RTVSPost2010PropOp37
 70
     1
102
RTVSPost2010Prop38
140
0.0
102
RTVSPost2010PropOp38
 70
     1
102
RTVSPost2010Prop39
140
1.0
102
RTVSPost2010PropOp39
 70
     1
102
RTVSPost2010Prop40
 90
        0
102
RTVSPost2010PropOp40
 70
     1
102
RTVSPost2010Prop41ColorIndex
 90
       18
102
RTVSPost2010Prop41ColorRGB
 90
        0
102
RTVSPost2010PropOp41
 70
     1
102
RTVSPost2010Prop42
 90
       50
102
RTVSPost2010PropOp42
 70
     1
102
RTVSPost2010Prop43
 90
        3
102
RTVSPost2010PropOp43
 70
     1
102
RTVSPost2010Prop44ColorIndex
 90
        5
102
RTVSPost2010Prop44ColorRGB
 90
      255
102
RTVSPost2010PropOp44
 70
     1
102
RTVSPost2010Prop45
280
     0
102
RTVSPost2010PropOp45
 70
     1
102
RTVSPost2010Prop46
 90
       50
102
RTVSPost2010PropOp46
 70
     1
102
RTVSPost2010Prop47
 90
       50
102
RTVSPost2010PropOp47
 70
     1
102
RTVSPost2010Prop48
 90
       50
102
RTVSPost2010PropOp48
 70
     1
102
RTVSPost2010Prop49
280
     0
102
RTVSPost2010PropOp49
 70
     1
102
RTVSPost2010Prop50
 90
       50
102
RTVSPost2010PropOp50
 70
     1
102
RTVSPost2010Prop51ColorIndex
 90
      256
102
RTVSPost2010Prop51ColorRGB
 90
-16777216
102
RTVSPost2010PropOp51
 70
     0
102
RTVSPost2010Prop52
140
1.0
102
RTVSPost2010PropOp52
 70
     0
102
RTVSPost2010Prop53
 90
        2
102
RTVSPost2010PropOp53
 70
     1
102
RTVSPost2010Prop54
  1
strokes_ogs.tif
102
RTVSPost2010PropOp54
 70
     1
102
RTVSPost2010Prop55
280
     0
102
RTVSPost2010PropOp55
 70
     1
102
RTVSPost2010Prop56
140
1.0
102
RTVSPost2010PropOp56
 70
     1
102
RTVSPost2010Prop57
140
1.0
102
RTVSPost2010PropOp57
 70
     1
102
RTVSPropertyOp0
 70
     1
102
RTVSPropertyOp1
 70
     1
102
RTVSPropertyOp2
 70
     1
102
RTVSPropertyOp3
 70
     1
102
RTVSPropertyOp4
 70
     1
102
RTVSPropertyOp5
 70
     1
102
RTVSPropertyOp6
 70
     1
102
RTVSPropertyOp7
 70
     1
102
RTVSPropertyOp8
 70
     1
102
RTVSPropertyOp9
 70
     1
102
RTVSPropertyOp10
 70
     1
102
RTVSPropertyOp11
 70
     1
102
RTVSPropertyOp12
 70
     1
102
RTVSPropertyOp13
 70
     1
102
RTVSPropertyOp14
 70
     1
102
RTVSPropertyOp15
 70
     1
102
RTVSPropertyOp16
 70
     1
102
RTVSPropertyOp17
 70
     1
102
RTVSPropertyOp18
 70
     1
102
RTVSPropertyOp19
 70
     1
102
RTVSPropertyOp20
 70
     1
102
RTVSPropertyOp21
 70
     1
102
RTVSPropertyOp22
 70
     1
102
RTVSPropertyOp23
 70
     1
102
RTVSPropertyOp24
 70
     1
102
RTVSPropertyOp25
 70
     1
102
RTVSPropertyOp26
 70
     1
102
RTVSPropertyOp27
 70
     1
102
RTVSPropertyOp28
 70
     1
102
RTVSPropertyOp29
 70
     1
102
RTVSPropertyOp30
 70
     1
102
RTVSPropertyOp31
 70
     1
102
RTVSPropertyOp32
 70
     1
102
RTVSPropertyOp33
 70
     1
102
RTVSPropertyOp34
 70
     1
102
RTVSPropertyOp35
 70
     1
102
RTVSPropertyOp36
 70
     1
102
RTVSPropertyOp37
 70
     1
102
RTVSPropertyOp38
 70
     1
102
RTVSPropertyOp39
 70
     1
102
RTVSPropertyOp40
 70
     1
102
RTVSPropertyOp41
 70
     1
102
RTVSPropertyOp42
 70
     1
102
RTVSPropertyOp43
 70
     1
102
RTVSPropertyOp44
 70
     1
102
RTVSPropertyOp45
 70
     1
102
RTVSPropertyOp46
 70
     1
102
RTVSPropertyOp47
 70
     1
102
RTVSPropertyOp48
 70
     1
102
RTVSPropertyOp49
 70
     1
102
RTVSPropertyOp50
 70
     1
102
RTVSPropertyOp51
 70
     0
102
RTVSPropertyOp52
 70
     0
102
RTVSPropertyOp53
 70
     1
102
RTVSPropertyOp54
 70
     1
102
RTVSPropertyOp55
 70
     1
102
RTVSPropertyOp56
 70
     1
102
RTVSPropertyOp57
 70
     1
102
RTVSPropertyOp58
 70
     1
102
RTVSPropertyOp59
 70
     1
102
RTVSPropertyOp60
 70
     1
102
RTVSPropertyOp61
 70
     1
102
RTVSPropertyOp62
 70
     1
  0
XRECORD
  5
9C6A
102
{ACAD_REACTORS
330
9C69
102
}
330
9C69
100
AcDbXrecord
280
     1
102
RTVSPost2010Prop28
280
     0
102
RTVSPost2010PropOp28
 70
     1
102
RTVSPost2010Prop29
280
     1
102
RTVSPost2010PropOp29
 70
     1
102
RTVSPost2010Prop30
280
     1
102
RTVSPost2010PropOp30
 70
     1
102
RTVSPost2010Prop31
280
     0
102
RTVSPost2010PropOp31
 70
     1
102
RTVSPost2010Prop32
280
     0
102
RTVSPost2010PropOp32
 70
     1
102
RTVSPost2010Prop33
280
     0
102
RTVSPost2010PropOp33
 70
     1
102
RTVSPost2010Prop34
280
     0
102
RTVSPost2010PropOp34
 70
     1
102
RTVSPost2010Prop35
280
     0
102
RTVSPost2010PropOp35
 70
     1
102
RTVSPost2010Prop36
280
     0
102
RTVSPost2010PropOp36
 70
     1
102
RTVSPost2010Prop37
 90
       50
102
RTVSPost2010PropOp37
 70
     1
102
RTVSPost2010Prop38
140
0.0
102
RTVSPost2010PropOp38
 70
     1
102
RTVSPost2010Prop39
140
1.0
102
RTVSPost2010PropOp39
 70
     1
102
RTVSPost2010Prop40
 90
        0
102
RTVSPost2010PropOp40
 70
     1
102
RTVSPost2010Prop41ColorIndex
 90
       18
102
RTVSPost2010Prop41ColorRGB
 90
        0
102
RTVSPost2010PropOp41
 70
     1
102
RTVSPost2010Prop42
 90
       50
102
RTVSPost2010PropOp42
 70
     1
102
RTVSPost2010Prop43
 90
        3
102
RTVSPost2010PropOp43
 70
     1
102
RTVSPost2010Prop44ColorIndex
 90
        5
102
RTVSPost2010Prop44ColorRGB
 90
      255
102
RTVSPost2010PropOp44
 70
     1
102
RTVSPost2010Prop45
280
     0
102
RTVSPost2010PropOp45
 70
     1
102
RTVSPost2010Prop46
 90
       50
102
RTVSPost2010PropOp46
 70
     1
102
RTVSPost2010Prop47
 90
       50
102
RTVSPost2010PropOp47
 70
     1
102
RTVSPost2010Prop48
 90
       50
102
RTVSPost2010PropOp48
 70
     1
102
RTVSPost2010Prop49
280
     0
102
RTVSPost2010PropOp49
 70
     1
102
RTVSPost2010Prop50
 90
       50
102
RTVSPost2010PropOp50
 70
     1
102
RTVSPost2010Prop51ColorIndex
 90
      256
102
RTVSPost2010Prop51ColorRGB
 90
-16777216
102
RTVSPost2010PropOp51
 70
     0
102
RTVSPost2010Prop52
140
1.0
102
RTVSPost2010PropOp52
 70
     0
102
RTVSPost2010Prop53
 90
        2
102
RTVSPost2010PropOp53
 70
     1
102
RTVSPost2010Prop54
  1
strokes_ogs.tif
102
RTVSPost2010PropOp54
 70
     1
102
RTVSPost2010Prop55
280
     0
102
RTVSPost2010PropOp55
 70
     1
102
RTVSPost2010Prop56
140
1.0
102
RTVSPost2010PropOp56
 70
     1
102
RTVSPost2010Prop57
140
1.0
102
RTVSPost2010PropOp57
 70
     1
102
RTVSPropertyOp0
 70
     1
102
RTVSPropertyOp1
 70
     1
102
RTVSPropertyOp2
 70
     1
102
RTVSPropertyOp3
 70
     1
102
RTVSPropertyOp4
 70
     1
102
RTVSPropertyOp5
 70
     1
102
RTVSPropertyOp6
 70
     1
102
RTVSPropertyOp7
 70
     1
102
RTVSPropertyOp8
 70
     1
102
RTVSPropertyOp9
 70
     1
102
RTVSPropertyOp10
 70
     1
102
RTVSPropertyOp11
 70
     1
102
RTVSPropertyOp12
 70
     1
102
RTVSPropertyOp13
 70
     1
102
RTVSPropertyOp14
 70
     1
102
RTVSPropertyOp15
 70
     1
102
RTVSPropertyOp16
 70
     1
102
RTVSPropertyOp17
 70
     1
102
RTVSPropertyOp18
 70
     1
102
RTVSPropertyOp19
 70
     1
102
RTVSPropertyOp20
 70
     1
102
RTVSPropertyOp21
 70
     1
102
RTVSPropertyOp22
 70
     1
102
RTVSPropertyOp23
 70
     1
102
RTVSPropertyOp24
 70
     1
102
RTVSPropertyOp25
 70
     1
102
RTVSPropertyOp26
 70
     1
102
RTVSPropertyOp27
 70
     1
102
RTVSPropertyOp28
 70
     1
102
RTVSPropertyOp29
 70
     1
102
RTVSPropertyOp30
 70
     1
102
RTVSPropertyOp31
 70
     1
102
RTVSPropertyOp32
 70
     1
102
RTVSPropertyOp33
 70
     1
102
RTVSPropertyOp34
 70
     1
102
RTVSPropertyOp35
 70
     1
102
RTVSPropertyOp36
 70
     1
102
RTVSPropertyOp37
 70
     1
102
RTVSPropertyOp38
 70
     1
102
RTVSPropertyOp39
 70
     1
102
RTVSPropertyOp40
 70
     1
102
RTVSPropertyOp41
 70
     1
102
RTVSPropertyOp42
 70
     1
102
RTVSPropertyOp43
 70
     1
102
RTVSPropertyOp44
 70
     1
102
RTVSPropertyOp45
 70
     1
102
RTVSPropertyOp46
 70
     1
102
RTVSPropertyOp47
 70
     1
102
RTVSPropertyOp48
 70
     1
102
RTVSPropertyOp49
 70
     1
102
RTVSPropertyOp50
 70
     1
102
RTVSPropertyOp51
 70
     0
102
RTVSPropertyOp52
 70
     0
102
RTVSPropertyOp53
 70
     1
102
RTVSPropertyOp54
 70
     1
102
RTVSPropertyOp55
 70
     1
102
RTVSPropertyOp56
 70
     1
102
RTVSPropertyOp57
 70
     1
102
RTVSPropertyOp58
 70
     1
102
RTVSPropertyOp59
 70
     1
102
RTVSPropertyOp60
 70
     1
102
RTVSPropertyOp61
 70
     1
102
RTVSPropertyOp62
 70
     1
  0
XRECORD
  5
9C6C
102
{ACAD_REACTORS
330
9C6B
102
}
330
9C6B
100
AcDbXrecord
280
     1
102
RTVSPost2010Prop28
280
     0
102
RTVSPost2010PropOp28
 70
     1
102
RTVSPost2010Prop29
280
     1
102
RTVSPost2010PropOp29
 70
     1
102
RTVSPost2010Prop30
280
     1
102
RTVSPost2010PropOp30
 70
     1
102
RTVSPost2010Prop31
280
     0
102
RTVSPost2010PropOp31
 70
     1
102
RTVSPost2010Prop32
280
     0
102
RTVSPost2010PropOp32
 70
     1
102
RTVSPost2010Prop33
280
     0
102
RTVSPost2010PropOp33
 70
     1
102
RTVSPost2010Prop34
280
     0
102
RTVSPost2010PropOp34
 70
     1
102
RTVSPost2010Prop35
280
     0
102
RTVSPost2010PropOp35
 70
     1
102
RTVSPost2010Prop36
280
     0
102
RTVSPost2010PropOp36
 70
     1
102
RTVSPost2010Prop37
 90
       50
102
RTVSPost2010PropOp37
 70
     1
102
RTVSPost2010Prop38
140
0.0
102
RTVSPost2010PropOp38
 70
     1
102
RTVSPost2010Prop39
140
1.0
102
RTVSPost2010PropOp39
 70
     1
102
RTVSPost2010Prop40
 90
        0
102
RTVSPost2010PropOp40
 70
     1
102
RTVSPost2010Prop41ColorIndex
 90
       18
102
RTVSPost2010Prop41ColorRGB
 90
        0
102
RTVSPost2010PropOp41
 70
     1
102
RTVSPost2010Prop42
 90
       50
102
RTVSPost2010PropOp42
 70
     1
102
RTVSPost2010Prop43
 90
        3
102
RTVSPost2010PropOp43
 70
     1
102
RTVSPost2010Prop44ColorIndex
 90
        5
102
RTVSPost2010Prop44ColorRGB
 90
      255
102
RTVSPost2010PropOp44
 70
     1
102
RTVSPost2010Prop45
280
     0
102
RTVSPost2010PropOp45
 70
     1
102
RTVSPost2010Prop46
 90
       50
102
RTVSPost2010PropOp46
 70
     1
102
RTVSPost2010Prop47
 90
       50
102
RTVSPost2010PropOp47
 70
     1
102
RTVSPost2010Prop48
 90
       50
102
RTVSPost2010PropOp48
 70
     1
102
RTVSPost2010Prop49
280
     0
102
RTVSPost2010PropOp49
 70
     1
102
RTVSPost2010Prop50
 90
       50
102
RTVSPost2010PropOp50
 70
     1
102
RTVSPost2010Prop51ColorIndex
 90
      256
102
RTVSPost2010Prop51ColorRGB
 90
-16777216
102
RTVSPost2010PropOp51
 70
     0
102
RTVSPost2010Prop52
140
1.0
102
RTVSPost2010PropOp52
 70
     0
102
RTVSPost2010Prop53
 90
        2
102
RTVSPost2010PropOp53
 70
     1
102
RTVSPost2010Prop54
  1
strokes_ogs.tif
102
RTVSPost2010PropOp54
 70
     1
102
RTVSPost2010Prop55
280
     0
102
RTVSPost2010PropOp55
 70
     1
102
RTVSPost2010Prop56
140
1.0
102
RTVSPost2010PropOp56
 70
     1
102
RTVSPost2010Prop57
140
1.0
102
RTVSPost2010PropOp57
 70
     1
102
RTVSPropertyOp0
 70
     1
102
RTVSPropertyOp1
 70
     1
102
RTVSPropertyOp2
 70
     1
102
RTVSPropertyOp3
 70
     1
102
RTVSPropertyOp4
 70
     1
102
RTVSPropertyOp5
 70
     1
102
RTVSPropertyOp6
 70
     1
102
RTVSPropertyOp7
 70
     1
102
RTVSPropertyOp8
 70
     1
102
RTVSPropertyOp9
 70
     1
102
RTVSPropertyOp10
 70
     1
102
RTVSPropertyOp11
 70
     1
102
RTVSPropertyOp12
 70
     1
102
RTVSPropertyOp13
 70
     1
102
RTVSPropertyOp14
 70
     1
102
RTVSPropertyOp15
 70
     1
102
RTVSPropertyOp16
 70
     1
102
RTVSPropertyOp17
 70
     1
102
RTVSPropertyOp18
 70
     1
102
RTVSPropertyOp19
 70
     1
102
RTVSPropertyOp20
 70
     1
102
RTVSPropertyOp21
 70
     1
102
RTVSPropertyOp22
 70
     1
102
RTVSPropertyOp23
 70
     1
102
RTVSPropertyOp24
 70
     1
102
RTVSPropertyOp25
 70
     1
102
RTVSPropertyOp26
 70
     1
102
RTVSPropertyOp27
 70
     1
102
RTVSPropertyOp28
 70
     1
102
RTVSPropertyOp29
 70
     1
102
RTVSPropertyOp30
 70
     1
102
RTVSPropertyOp31
 70
     1
102
RTVSPropertyOp32
 70
     1
102
RTVSPropertyOp33
 70
     1
102
RTVSPropertyOp34
 70
     1
102
RTVSPropertyOp35
 70
     1
102
RTVSPropertyOp36
 70
     1
102
RTVSPropertyOp37
 70
     1
102
RTVSPropertyOp38
 70
     1
102
RTVSPropertyOp39
 70
     1
102
RTVSPropertyOp40
 70
     1
102
RTVSPropertyOp41
 70
     1
102
RTVSPropertyOp42
 70
     1
102
RTVSPropertyOp43
 70
     1
102
RTVSPropertyOp44
 70
     1
102
RTVSPropertyOp45
 70
     1
102
RTVSPropertyOp46
 70
     1
102
RTVSPropertyOp47
 70
     1
102
RTVSPropertyOp48
 70
     1
102
RTVSPropertyOp49
 70
     1
102
RTVSPropertyOp50
 70
     1
102
RTVSPropertyOp51
 70
     0
102
RTVSPropertyOp52
 70
     0
102
RTVSPropertyOp53
 70
     1
102
RTVSPropertyOp54
 70
     1
102
RTVSPropertyOp55
 70
     1
102
RTVSPropertyOp56
 70
     1
102
RTVSPropertyOp57
 70
     1
102
RTVSPropertyOp58
 70
     1
102
RTVSPropertyOp59
 70
     1
102
RTVSPropertyOp60
 70
     1
102
RTVSPropertyOp61
 70
     1
102
RTVSPropertyOp62
 70
     1
  0
XRECORD
  5
9C6E
102
{ACAD_REACTORS
330
9C6D
102
}
330
9C6D
100
AcDbXrecord
280
     1
102
RTVSPost2010Prop28
280
     0
102
RTVSPost2010PropOp28
 70
     1
102
RTVSPost2010Prop29
280
     1
102
RTVSPost2010PropOp29
 70
     1
102
RTVSPost2010Prop30
280
     1
102
RTVSPost2010PropOp30
 70
     1
102
RTVSPost2010Prop31
280
     0
102
RTVSPost2010PropOp31
 70
     1
102
RTVSPost2010Prop32
280
     0
102
RTVSPost2010PropOp32
 70
     1
102
RTVSPost2010Prop33
280
     0
102
RTVSPost2010PropOp33
 70
     1
102
RTVSPost2010Prop34
280
     0
102
RTVSPost2010PropOp34
 70
     1
102
RTVSPost2010Prop35
280
     0
102
RTVSPost2010PropOp35
 70
     1
102
RTVSPost2010Prop36
280
     0
102
RTVSPost2010PropOp36
 70
     1
102
RTVSPost2010Prop37
 90
       50
102
RTVSPost2010PropOp37
 70
     1
102
RTVSPost2010Prop38
140
0.0
102
RTVSPost2010PropOp38
 70
     1
102
RTVSPost2010Prop39
140
1.0
102
RTVSPost2010PropOp39
 70
     1
102
RTVSPost2010Prop40
 90
        0
102
RTVSPost2010PropOp40
 70
     1
102
RTVSPost2010Prop41ColorIndex
 90
       18
102
RTVSPost2010Prop41ColorRGB
 90
        0
102
RTVSPost2010PropOp41
 70
     1
102
RTVSPost2010Prop42
 90
       50
102
RTVSPost2010PropOp42
 70
     1
102
RTVSPost2010Prop43
 90
        3
102
RTVSPost2010PropOp43
 70
     1
102
RTVSPost2010Prop44ColorIndex
 90
        5
102
RTVSPost2010Prop44ColorRGB
 90
      255
102
RTVSPost2010PropOp44
 70
     1
102
RTVSPost2010Prop45
280
     0
102
RTVSPost2010PropOp45
 70
     1
102
RTVSPost2010Prop46
 90
       50
102
RTVSPost2010PropOp46
 70
     1
102
RTVSPost2010Prop47
 90
       50
102
RTVSPost2010PropOp47
 70
     1
102
RTVSPost2010Prop48
 90
       50
102
RTVSPost2010PropOp48
 70
     1
102
RTVSPost2010Prop49
280
     0
102
RTVSPost2010PropOp49
 70
     1
102
RTVSPost2010Prop50
 90
       50
102
RTVSPost2010PropOp50
 70
     1
102
RTVSPost2010Prop51ColorIndex
 90
      256
102
RTVSPost2010Prop51ColorRGB
 90
-16777216
102
RTVSPost2010PropOp51
 70
     0
102
RTVSPost2010Prop52
140
1.0
102
RTVSPost2010PropOp52
 70
     0
102
RTVSPost2010Prop53
 90
        2
102
RTVSPost2010PropOp53
 70
     1
102
RTVSPost2010Prop54
  1
strokes_ogs.tif
102
RTVSPost2010PropOp54
 70
     1
102
RTVSPost2010Prop55
280
     0
102
RTVSPost2010PropOp55
 70
     1
102
RTVSPost2010Prop56
140
1.0
102
RTVSPost2010PropOp56
 70
     1
102
RTVSPost2010Prop57
140
1.0
102
RTVSPost2010PropOp57
 70
     1
102
RTVSPropertyOp0
 70
     1
102
RTVSPropertyOp1
 70
     1
102
RTVSPropertyOp2
 70
     1
102
RTVSPropertyOp3
 70
     1
102
RTVSPropertyOp4
 70
     1
102
RTVSPropertyOp5
 70
     1
102
RTVSPropertyOp6
 70
     1
102
RTVSPropertyOp7
 70
     1
102
RTVSPropertyOp8
 70
     1
102
RTVSPropertyOp9
 70
     1
102
RTVSPropertyOp10
 70
     1
102
RTVSPropertyOp11
 70
     1
102
RTVSPropertyOp12
 70
     1
102
RTVSPropertyOp13
 70
     1
102
RTVSPropertyOp14
 70
     1
102
RTVSPropertyOp15
 70
     1
102
RTVSPropertyOp16
 70
     1
102
RTVSPropertyOp17
 70
     1
102
RTVSPropertyOp18
 70
     1
102
RTVSPropertyOp19
 70
     1
102
RTVSPropertyOp20
 70
     1
102
RTVSPropertyOp21
 70
     1
102
RTVSPropertyOp22
 70
     1
102
RTVSPropertyOp23
 70
     1
102
RTVSPropertyOp24
 70
     1
102
RTVSPropertyOp25
 70
     1
102
RTVSPropertyOp26
 70
     1
102
RTVSPropertyOp27
 70
     1
102
RTVSPropertyOp28
 70
     1
102
RTVSPropertyOp29
 70
     1
102
RTVSPropertyOp30
 70
     1
102
RTVSPropertyOp31
 70
     1
102
RTVSPropertyOp32
 70
     1
102
RTVSPropertyOp33
 70
     1
102
RTVSPropertyOp34
 70
     1
102
RTVSPropertyOp35
 70
     1
102
RTVSPropertyOp36
 70
     1
102
RTVSPropertyOp37
 70
     1
102
RTVSPropertyOp38
 70
     1
102
RTVSPropertyOp39
 70
     1
102
RTVSPropertyOp40
 70
     1
102
RTVSPropertyOp41
 70
     1
102
RTVSPropertyOp42
 70
     1
102
RTVSPropertyOp43
 70
     1
102
RTVSPropertyOp44
 70
     1
102
RTVSPropertyOp45
 70
     1
102
RTVSPropertyOp46
 70
     1
102
RTVSPropertyOp47
 70
     1
102
RTVSPropertyOp48
 70
     1
102
RTVSPropertyOp49
 70
     1
102
RTVSPropertyOp50
 70
     1
102
RTVSPropertyOp51
 70
     0
102
RTVSPropertyOp52
 70
     0
102
RTVSPropertyOp53
 70
     1
102
RTVSPropertyOp54
 70
     1
102
RTVSPropertyOp55
 70
     1
102
RTVSPropertyOp56
 70
     1
102
RTVSPropertyOp57
 70
     1
102
RTVSPropertyOp58
 70
     1
102
RTVSPropertyOp59
 70
     1
102
RTVSPropertyOp60
 70
     1
102
RTVSPropertyOp61
 70
     1
102
RTVSPropertyOp62
 70
     1
  0
XRECORD
  5
9C76
102
{ACAD_REACTORS
330
9C75
102
}
330
9C75
100
AcDbXrecord
280
     1
102
RTVSPost2010Prop28
280
     0
102
RTVSPost2010PropOp28
 70
     1
102
RTVSPost2010Prop29
280
     1
102
RTVSPost2010PropOp29
 70
     1
102
RTVSPost2010Prop30
280
     1
102
RTVSPost2010PropOp30
 70
     1
102
RTVSPost2010Prop31
280
     0
102
RTVSPost2010PropOp31
 70
     1
102
RTVSPost2010Prop32
280
     0
102
RTVSPost2010PropOp32
 70
     1
102
RTVSPost2010Prop33
280
     0
102
RTVSPost2010PropOp33
 70
     1
102
RTVSPost2010Prop34
280
     0
102
RTVSPost2010PropOp34
 70
     1
102
RTVSPost2010Prop35
280
     0
102
RTVSPost2010PropOp35
 70
     1
102
RTVSPost2010Prop36
280
     0
102
RTVSPost2010PropOp36
 70
     1
102
RTVSPost2010Prop37
 90
       50
102
RTVSPost2010PropOp37
 70
     1
102
RTVSPost2010Prop38
140
0.0
102
RTVSPost2010PropOp38
 70
     1
102
RTVSPost2010Prop39
140
1.0
102
RTVSPost2010PropOp39
 70
     1
102
RTVSPost2010Prop40
 90
        0
102
RTVSPost2010PropOp40
 70
     1
102
RTVSPost2010Prop41ColorIndex
 90
       18
102
RTVSPost2010Prop41ColorRGB
 90
        0
102
RTVSPost2010PropOp41
 70
     1
102
RTVSPost2010Prop42
 90
       50
102
RTVSPost2010PropOp42
 70
     1
102
RTVSPost2010Prop43
 90
        3
102
RTVSPost2010PropOp43
 70
     1
102
RTVSPost2010Prop44ColorIndex
 90
        5
102
RTVSPost2010Prop44ColorRGB
 90
      255
102
RTVSPost2010PropOp44
 70
     1
102
RTVSPost2010Prop45
280
     0
102
RTVSPost2010PropOp45
 70
     1
102
RTVSPost2010Prop46
 90
       50
102
RTVSPost2010PropOp46
 70
     1
102
RTVSPost2010Prop47
 90
       50
102
RTVSPost2010PropOp47
 70
     1
102
RTVSPost2010Prop48
 90
       50
102
RTVSPost2010PropOp48
 70
     1
102
RTVSPost2010Prop49
280
     0
102
RTVSPost2010PropOp49
 70
     1
102
RTVSPost2010Prop50
 90
       50
102
RTVSPost2010PropOp50
 70
     1
102
RTVSPost2010Prop51ColorIndex
 90
      256
102
RTVSPost2010Prop51ColorRGB
 90
-16777216
102
RTVSPost2010PropOp51
 70
     0
102
RTVSPost2010Prop52
140
1.0
102
RTVSPost2010PropOp52
 70
     0
102
RTVSPost2010Prop53
 90
        2
102
RTVSPost2010PropOp53
 70
     1
102
RTVSPost2010Prop54
  1
strokes_ogs.tif
102
RTVSPost2010PropOp54
 70
     1
102
RTVSPost2010Prop55
280
     0
102
RTVSPost2010PropOp55
 70
     1
102
RTVSPost2010Prop56
140
1.0
102
RTVSPost2010PropOp56
 70
     1
102
RTVSPost2010Prop57
140
1.0
102
RTVSPost2010PropOp57
 70
     1
102
RTVSPropertyOp0
 70
     1
102
RTVSPropertyOp1
 70
     1
102
RTVSPropertyOp2
 70
     1
102
RTVSPropertyOp3
 70
     1
102
RTVSPropertyOp4
 70
     1
102
RTVSPropertyOp5
 70
     1
102
RTVSPropertyOp6
 70
     1
102
RTVSPropertyOp7
 70
     1
102
RTVSPropertyOp8
 70
     1
102
RTVSPropertyOp9
 70
     1
102
RTVSPropertyOp10
 70
     1
102
RTVSPropertyOp11
 70
     1
102
RTVSPropertyOp12
 70
     1
102
RTVSPropertyOp13
 70
     1
102
RTVSPropertyOp14
 70
     1
102
RTVSPropertyOp15
 70
     1
102
RTVSPropertyOp16
 70
     1
102
RTVSPropertyOp17
 70
     1
102
RTVSPropertyOp18
 70
     1
102
RTVSPropertyOp19
 70
     1
102
RTVSPropertyOp20
 70
     1
102
RTVSPropertyOp21
 70
     1
102
RTVSPropertyOp22
 70
     1
102
RTVSPropertyOp23
 70
     1
102
RTVSPropertyOp24
 70
     1
102
RTVSPropertyOp25
 70
     1
102
RTVSPropertyOp26
 70
     1
102
RTVSPropertyOp27
 70
     1
102
RTVSPropertyOp28
 70
     1
102
RTVSPropertyOp29
 70
     1
102
RTVSPropertyOp30
 70
     1
102
RTVSPropertyOp31
 70
     1
102
RTVSPropertyOp32
 70
     1
102
RTVSPropertyOp33
 70
     1
102
RTVSPropertyOp34
 70
     1
102
RTVSPropertyOp35
 70
     1
102
RTVSPropertyOp36
 70
     1
102
RTVSPropertyOp37
 70
     1
102
RTVSPropertyOp38
 70
     1
102
RTVSPropertyOp39
 70
     1
102
RTVSPropertyOp40
 70
     1
102
RTVSPropertyOp41
 70
     1
102
RTVSPropertyOp42
 70
     1
102
RTVSPropertyOp43
 70
     1
102
RTVSPropertyOp44
 70
     1
102
RTVSPropertyOp45
 70
     1
102
RTVSPropertyOp46
 70
     1
102
RTVSPropertyOp47
 70
     1
102
RTVSPropertyOp48
 70
     1
102
RTVSPropertyOp49
 70
     1
102
RTVSPropertyOp50
 70
     1
102
RTVSPropertyOp51
 70
     0
102
RTVSPropertyOp52
 70
     0
102
RTVSPropertyOp53
 70
     1
102
RTVSPropertyOp54
 70
     1
102
RTVSPropertyOp55
 70
     1
102
RTVSPropertyOp56
 70
     1
102
RTVSPropertyOp57
 70
     1
102
RTVSPropertyOp58
 70
     1
102
RTVSPropertyOp59
 70
     1
102
RTVSPropertyOp60
 70
     1
102
RTVSPropertyOp61
 70
     1
102
RTVSPropertyOp62
 70
     1
  0
XRECORD
  5
9C92
102
{ACAD_REACTORS
330
9C91
102
}
330
9C91
100
AcDbXrecord
280
     1
102
RTVSPost2010Prop28
280
     0
102
RTVSPost2010PropOp28
 70
     1
102
RTVSPost2010Prop29
280
     1
102
RTVSPost2010PropOp29
 70
     1
102
RTVSPost2010Prop30
280
     1
102
RTVSPost2010PropOp30
 70
     1
102
RTVSPost2010Prop31
280
     0
102
RTVSPost2010PropOp31
 70
     1
102
RTVSPost2010Prop32
280
     0
102
RTVSPost2010PropOp32
 70
     1
102
RTVSPost2010Prop33
280
     0
102
RTVSPost2010PropOp33
 70
     1
102
RTVSPost2010Prop34
280
     0
102
RTVSPost2010PropOp34
 70
     1
102
RTVSPost2010Prop35
280
     0
102
RTVSPost2010PropOp35
 70
     1
102
RTVSPost2010Prop36
280
     0
102
RTVSPost2010PropOp36
 70
     1
102
RTVSPost2010Prop37
 90
       50
102
RTVSPost2010PropOp37
 70
     0
102
RTVSPost2010Prop38
140
0.0
102
RTVSPost2010PropOp38
 70
     0
102
RTVSPost2010Prop39
140
1.0
102
RTVSPost2010PropOp39
 70
     0
102
RTVSPost2010Prop40
 90
        0
102
RTVSPost2010PropOp40
 70
     0
102
RTVSPost2010Prop41ColorIndex
 90
       18
102
RTVSPost2010Prop41ColorRGB
 90
        0
102
RTVSPost2010PropOp41
 70
     0
102
RTVSPost2010Prop42
 90
       50
102
RTVSPost2010PropOp42
 70
     0
102
RTVSPost2010Prop43
 90
        3
102
RTVSPost2010PropOp43
 70
     0
102
RTVSPost2010Prop44ColorIndex
 90
        5
102
RTVSPost2010Prop44ColorRGB
 90
      255
102
RTVSPost2010PropOp44
 70
     0
102
RTVSPost2010Prop45
280
     0
102
RTVSPost2010PropOp45
 70
     1
102
RTVSPost2010Prop46
 90
       50
102
RTVSPost2010PropOp46
 70
     0
102
RTVSPost2010Prop47
 90
       50
102
RTVSPost2010PropOp47
 70
     0
102
RTVSPost2010Prop48
 90
       50
102
RTVSPost2010PropOp48
 70
     0
102
RTVSPost2010Prop49
280
     0
102
RTVSPost2010PropOp49
 70
     1
102
RTVSPost2010Prop50
 90
       50
102
RTVSPost2010PropOp50
 70
     0
102
RTVSPost2010Prop51ColorIndex
 90
      256
102
RTVSPost2010Prop51ColorRGB
 90
-16777216
102
RTVSPost2010PropOp51
 70
     0
102
RTVSPost2010Prop52
140
1.0
102
RTVSPost2010PropOp52
 70
     0
102
RTVSPost2010Prop53
 90
        2
102
RTVSPost2010PropOp53
 70
     0
102
RTVSPost2010Prop54
  1
strokes_ogs.tif
102
RTVSPost2010PropOp54
 70
     0
102
RTVSPost2010Prop55
280
     0
102
RTVSPost2010PropOp55
 70
     1
102
RTVSPost2010Prop56
140
1.0
102
RTVSPost2010PropOp56
 70
     0
102
RTVSPost2010Prop57
140
1.0
102
RTVSPost2010PropOp57
 70
     0
102
RTVSPropertyOp0
 70
     0
102
RTVSPropertyOp1
 70
     0
102
RTVSPropertyOp2
 70
     0
102
RTVSPropertyOp3
 70
     0
102
RTVSPropertyOp4
 70
     0
102
RTVSPropertyOp5
 70
     0
102
RTVSPropertyOp6
 70
     0
102
RTVSPropertyOp7
 70
     0
102
RTVSPropertyOp8
 70
     0
102
RTVSPropertyOp9
 70
     0
102
RTVSPropertyOp10
 70
     0
102
RTVSPropertyOp11
 70
     0
102
RTVSPropertyOp12
 70
     0
102
RTVSPropertyOp13
 70
     0
102
RTVSPropertyOp14
 70
     2
102
RTVSPropertyOp15
 70
     0
102
RTVSPropertyOp16
 70
     0
102
RTVSPropertyOp17
 70
     0
102
RTVSPropertyOp18
 70
     0
102
RTVSPropertyOp19
 70
     0
102
RTVSPropertyOp20
 70
     0
102
RTVSPropertyOp21
 70
     0
102
RTVSPropertyOp22
 70
     0
102
RTVSPropertyOp23
 70
     0
102
RTVSPropertyOp24
 70
     0
102
RTVSPropertyOp25
 70
     0
102
RTVSPropertyOp26
 70
     0
102
RTVSPropertyOp27
 70
     0
102
RTVSPropertyOp28
 70
     1
102
RTVSPropertyOp29
 70
     1
102
RTVSPropertyOp30
 70
     1
102
RTVSPropertyOp31
 70
     1
102
RTVSPropertyOp32
 70
     1
102
RTVSPropertyOp33
 70
     1
102
RTVSPropertyOp34
 70
     1
102
RTVSPropertyOp35
 70
     1
102
RTVSPropertyOp36
 70
     1
102
RTVSPropertyOp37
 70
     0
102
RTVSPropertyOp38
 70
     0
102
RTVSPropertyOp39
 70
     0
102
RTVSPropertyOp40
 70
     0
102
RTVSPropertyOp41
 70
     0
102
RTVSPropertyOp42
 70
     0
102
RTVSPropertyOp43
 70
     0
102
RTVSPropertyOp44
 70
     0
102
RTVSPropertyOp45
 70
     1
102
RTVSPropertyOp46
 70
     0
102
RTVSPropertyOp47
 70
     0
102
RTVSPropertyOp48
 70
     0
102
RTVSPropertyOp49
 70
     1
102
RTVSPropertyOp50
 70
     0
102
RTVSPropertyOp51
 70
     0
102
RTVSPropertyOp52
 70
     0
102
RTVSPropertyOp53
 70
     0
102
RTVSPropertyOp54
 70
     0
102
RTVSPropertyOp55
 70
     1
102
RTVSPropertyOp56
 70
     0
102
RTVSPropertyOp57
 70
     0
102
RTVSPropertyOp58
 70
     0
102
RTVSPropertyOp59
 70
     0
102
RTVSPropertyOp60
 70
     0
102
RTVSPropertyOp61
 70
     0
102
RTVSPropertyOp62
 70
     0
  0
XRECORD
  5
9C82
102
{ACAD_REACTORS
330
9C81
102
}
330
9C81
100
AcDbXrecord
280
     1
102
RTVSPost2010Prop28
280
     0
102
RTVSPost2010PropOp28
 70
     1
102
RTVSPost2010Prop29
280
     1
102
RTVSPost2010PropOp29
 70
     1
102
RTVSPost2010Prop30
280
     1
102
RTVSPost2010PropOp30
 70
     1
102
RTVSPost2010Prop31
280
     0
102
RTVSPost2010PropOp31
 70
     1
102
RTVSPost2010Prop32
280
     0
102
RTVSPost2010PropOp32
 70
     1
102
RTVSPost2010Prop33
280
     0
102
RTVSPost2010PropOp33
 70
     1
102
RTVSPost2010Prop34
280
     0
102
RTVSPost2010PropOp34
 70
     1
102
RTVSPost2010Prop35
280
     0
102
RTVSPost2010PropOp35
 70
     1
102
RTVSPost2010Prop36
280
     0
102
RTVSPost2010PropOp36
 70
     1
102
RTVSPost2010Prop37
 90
       50
102
RTVSPost2010PropOp37
 70
     1
102
RTVSPost2010Prop38
140
0.0
102
RTVSPost2010PropOp38
 70
     1
102
RTVSPost2010Prop39
140
1.0
102
RTVSPost2010PropOp39
 70
     1
102
RTVSPost2010Prop40
 90
        0
102
RTVSPost2010PropOp40
 70
     1
102
RTVSPost2010Prop41ColorIndex
 90
       18
102
RTVSPost2010Prop41ColorRGB
 90
        0
102
RTVSPost2010PropOp41
 70
     1
102
RTVSPost2010Prop42
 90
       50
102
RTVSPost2010PropOp42
 70
     1
102
RTVSPost2010Prop43
 90
        3
102
RTVSPost2010PropOp43
 70
     1
102
RTVSPost2010Prop44ColorIndex
 90
        5
102
RTVSPost2010Prop44ColorRGB
 90
      255
102
RTVSPost2010PropOp44
 70
     1
102
RTVSPost2010Prop45
280
     0
102
RTVSPost2010PropOp45
 70
     1
102
RTVSPost2010Prop46
 90
       50
102
RTVSPost2010PropOp46
 70
     1
102
RTVSPost2010Prop47
 90
       50
102
RTVSPost2010PropOp47
 70
     1
102
RTVSPost2010Prop48
 90
       50
102
RTVSPost2010PropOp48
 70
     1
102
RTVSPost2010Prop49
280
     0
102
RTVSPost2010PropOp49
 70
     1
102
RTVSPost2010Prop50
 90
       50
102
RTVSPost2010PropOp50
 70
     1
102
RTVSPost2010Prop51ColorIndex
 90
      256
102
RTVSPost2010Prop51ColorRGB
 90
-16777216
102
RTVSPost2010PropOp51
 70
     0
102
RTVSPost2010Prop52
140
1.0
102
RTVSPost2010PropOp52
 70
     0
102
RTVSPost2010Prop53
 90
        2
102
RTVSPost2010PropOp53
 70
     1
102
RTVSPost2010Prop54
  1
strokes_ogs.tif
102
RTVSPost2010PropOp54
 70
     1
102
RTVSPost2010Prop55
280
     0
102
RTVSPost2010PropOp55
 70
     1
102
RTVSPost2010Prop56
140
1.0
102
RTVSPost2010PropOp56
 70
     1
102
RTVSPost2010Prop57
140
1.0
102
RTVSPost2010PropOp57
 70
     1
102
RTVSPropertyOp0
 70
     1
102
RTVSPropertyOp1
 70
     1
102
RTVSPropertyOp2
 70
     1
102
RTVSPropertyOp3
 70
     1
102
RTVSPropertyOp4
 70
     1
102
RTVSPropertyOp5
 70
     1
102
RTVSPropertyOp6
 70
     1
102
RTVSPropertyOp7
 70
     1
102
RTVSPropertyOp8
 70
     1
102
RTVSPropertyOp9
 70
     1
102
RTVSPropertyOp10
 70
     1
102
RTVSPropertyOp11
 70
     1
102
RTVSPropertyOp12
 70
     1
102
RTVSPropertyOp13
 70
     1
102
RTVSPropertyOp14
 70
     1
102
RTVSPropertyOp15
 70
     1
102
RTVSPropertyOp16
 70
     1
102
RTVSPropertyOp17
 70
     1
102
RTVSPropertyOp18
 70
     1
102
RTVSPropertyOp19
 70
     1
102
RTVSPropertyOp20
 70
     1
102
RTVSPropertyOp21
 70
     1
102
RTVSPropertyOp22
 70
     1
102
RTVSPropertyOp23
 70
     1
102
RTVSPropertyOp24
 70
     1
102
RTVSPropertyOp25
 70
     1
102
RTVSPropertyOp26
 70
     1
102
RTVSPropertyOp27
 70
     1
102
RTVSPropertyOp28
 70
     1
102
RTVSPropertyOp29
 70
     1
102
RTVSPropertyOp30
 70
     1
102
RTVSPropertyOp31
 70
     1
102
RTVSPropertyOp32
 70
     1
102
RTVSPropertyOp33
 70
     1
102
RTVSPropertyOp34
 70
     1
102
RTVSPropertyOp35
 70
     1
102
RTVSPropertyOp36
 70
     1
102
RTVSPropertyOp37
 70
     1
102
RTVSPropertyOp38
 70
     1
102
RTVSPropertyOp39
 70
     1
102
RTVSPropertyOp40
 70
     1
102
RTVSPropertyOp41
 70
     1
102
RTVSPropertyOp42
 70
     1
102
RTVSPropertyOp43
 70
     1
102
RTVSPropertyOp44
 70
     1
102
RTVSPropertyOp45
 70
     1
102
RTVSPropertyOp46
 70
     1
102
RTVSPropertyOp47
 70
     1
102
RTVSPropertyOp48
 70
     1
102
RTVSPropertyOp49
 70
     1
102
RTVSPropertyOp50
 70
     1
102
RTVSPropertyOp51
 70
     0
102
RTVSPropertyOp52
 70
     0
102
RTVSPropertyOp53
 70
     1
102
RTVSPropertyOp54
 70
     1
102
RTVSPropertyOp55
 70
     1
102
RTVSPropertyOp56
 70
     1
102
RTVSPropertyOp57
 70
     1
102
RTVSPropertyOp58
 70
     1
102
RTVSPropertyOp59
 70
     1
102
RTVSPropertyOp60
 70
     1
102
RTVSPropertyOp61
 70
     1
102
RTVSPropertyOp62
 70
     1
  0
XRECORD
  5
9C94
102
{ACAD_REACTORS
330
9C93
102
}
330
9C93
100
AcDbXrecord
280
     1
102
RTVSPost2010Prop28
280
     0
102
RTVSPost2010PropOp28
 70
     1
102
RTVSPost2010Prop29
280
     1
102
RTVSPost2010PropOp29
 70
     1
102
RTVSPost2010Prop30
280
     1
102
RTVSPost2010PropOp30
 70
     1
102
RTVSPost2010Prop31
280
     0
102
RTVSPost2010PropOp31
 70
     1
102
RTVSPost2010Prop32
280
     0
102
RTVSPost2010PropOp32
 70
     1
102
RTVSPost2010Prop33
280
     0
102
RTVSPost2010PropOp33
 70
     1
102
RTVSPost2010Prop34
280
     0
102
RTVSPost2010PropOp34
 70
     1
102
RTVSPost2010Prop35
280
     0
102
RTVSPost2010PropOp35
 70
     1
102
RTVSPost2010Prop36
280
     0
102
RTVSPost2010PropOp36
 70
     1
102
RTVSPost2010Prop37
 90
       50
102
RTVSPost2010PropOp37
 70
     0
102
RTVSPost2010Prop38
140
0.0
102
RTVSPost2010PropOp38
 70
     0
102
RTVSPost2010Prop39
140
1.0
102
RTVSPost2010PropOp39
 70
     0
102
RTVSPost2010Prop40
 90
        0
102
RTVSPost2010PropOp40
 70
     0
102
RTVSPost2010Prop41ColorIndex
 90
       18
102
RTVSPost2010Prop41ColorRGB
 90
        0
102
RTVSPost2010PropOp41
 70
     0
102
RTVSPost2010Prop42
 90
       50
102
RTVSPost2010PropOp42
 70
     0
102
RTVSPost2010Prop43
 90
        3
102
RTVSPost2010PropOp43
 70
     0
102
RTVSPost2010Prop44ColorIndex
 90
        5
102
RTVSPost2010Prop44ColorRGB
 90
      255
102
RTVSPost2010PropOp44
 70
     0
102
RTVSPost2010Prop45
280
     0
102
RTVSPost2010PropOp45
 70
     1
102
RTVSPost2010Prop46
 90
       50
102
RTVSPost2010PropOp46
 70
     0
102
RTVSPost2010Prop47
 90
       50
102
RTVSPost2010PropOp47
 70
     0
102
RTVSPost2010Prop48
 90
       50
102
RTVSPost2010PropOp48
 70
     0
102
RTVSPost2010Prop49
280
     0
102
RTVSPost2010PropOp49
 70
     1
102
RTVSPost2010Prop50
 90
       50
102
RTVSPost2010PropOp50
 70
     0
102
RTVSPost2010Prop51ColorIndex
 90
      256
102
RTVSPost2010Prop51ColorRGB
 90
-16777216
102
RTVSPost2010PropOp51
 70
     0
102
RTVSPost2010Prop52
140
1.0
102
RTVSPost2010PropOp52
 70
     0
102
RTVSPost2010Prop53
 90
        2
102
RTVSPost2010PropOp53
 70
     0
102
RTVSPost2010Prop54
  1
strokes_ogs.tif
102
RTVSPost2010PropOp54
 70
     0
102
RTVSPost2010Prop55
280
     0
102
RTVSPost2010PropOp55
 70
     1
102
RTVSPost2010Prop56
140
1.0
102
RTVSPost2010PropOp56
 70
     0
102
RTVSPost2010Prop57
140
1.0
102
RTVSPost2010PropOp57
 70
     0
102
RTVSPropertyOp0
 70
     0
102
RTVSPropertyOp1
 70
     0
102
RTVSPropertyOp2
 70
     0
102
RTVSPropertyOp3
 70
     0
102
RTVSPropertyOp4
 70
     0
102
RTVSPropertyOp5
 70
     0
102
RTVSPropertyOp6
 70
     0
102
RTVSPropertyOp7
 70
     0
102
RTVSPropertyOp8
 70
     0
102
RTVSPropertyOp9
 70
     0
102
RTVSPropertyOp10
 70
     0
102
RTVSPropertyOp11
 70
     0
102
RTVSPropertyOp12
 70
     0
102
RTVSPropertyOp13
 70
     0
102
RTVSPropertyOp14
 70
     2
102
RTVSPropertyOp15
 70
     0
102
RTVSPropertyOp16
 70
     0
102
RTVSPropertyOp17
 70
     0
102
RTVSPropertyOp18
 70
     0
102
RTVSPropertyOp19
 70
     0
102
RTVSPropertyOp20
 70
     0
102
RTVSPropertyOp21
 70
     0
102
RTVSPropertyOp22
 70
     0
102
RTVSPropertyOp23
 70
     0
102
RTVSPropertyOp24
 70
     0
102
RTVSPropertyOp25
 70
     0
102
RTVSPropertyOp26
 70
     0
102
RTVSPropertyOp27
 70
     0
102
RTVSPropertyOp28
 70
     1
102
RTVSPropertyOp29
 70
     1
102
RTVSPropertyOp30
 70
     1
102
RTVSPropertyOp31
 70
     1
102
RTVSPropertyOp32
 70
     1
102
RTVSPropertyOp33
 70
     1
102
RTVSPropertyOp34
 70
     1
102
RTVSPropertyOp35
 70
     1
102
RTVSPropertyOp36
 70
     1
102
RTVSPropertyOp37
 70
     0
102
RTVSPropertyOp38
 70
     0
102
RTVSPropertyOp39
 70
     0
102
RTVSPropertyOp40
 70
     0
102
RTVSPropertyOp41
 70
     0
102
RTVSPropertyOp42
 70
     0
102
RTVSPropertyOp43
 70
     0
102
RTVSPropertyOp44
 70
     0
102
RTVSPropertyOp45
 70
     1
102
RTVSPropertyOp46
 70
     0
102
RTVSPropertyOp47
 70
     0
102
RTVSPropertyOp48
 70
     0
102
RTVSPropertyOp49
 70
     1
102
RTVSPropertyOp50
 70
     0
102
RTVSPropertyOp51
 70
     0
102
RTVSPropertyOp52
 70
     0
102
RTVSPropertyOp53
 70
     0
102
RTVSPropertyOp54
 70
     0
102
RTVSPropertyOp55
 70
     1
102
RTVSPropertyOp56
 70
     0
102
RTVSPropertyOp57
 70
     0
102
RTVSPropertyOp58
 70
     0
102
RTVSPropertyOp59
 70
     0
102
RTVSPropertyOp60
 70
     0
102
RTVSPropertyOp61
 70
     0
102
RTVSPropertyOp62
 70
     0
  0
XRECORD
  5
9C7A
102
{ACAD_REACTORS
330
9C79
102
}
330
9C79
100
AcDbXrecord
280
     1
102
RTVSPost2010Prop28
280
     0
102
RTVSPost2010PropOp28
 70
     1
102
RTVSPost2010Prop29
280
     1
102
RTVSPost2010PropOp29
 70
     1
102
RTVSPost2010Prop30
280
     1
102
RTVSPost2010PropOp30
 70
     1
102
RTVSPost2010Prop31
280
     0
102
RTVSPost2010PropOp31
 70
     1
102
RTVSPost2010Prop32
280
     0
102
RTVSPost2010PropOp32
 70
     1
102
RTVSPost2010Prop33
280
     0
102
RTVSPost2010PropOp33
 70
     1
102
RTVSPost2010Prop34
280
     0
102
RTVSPost2010PropOp34
 70
     1
102
RTVSPost2010Prop35
280
     0
102
RTVSPost2010PropOp35
 70
     1
102
RTVSPost2010Prop36
280
     0
102
RTVSPost2010PropOp36
 70
     1
102
RTVSPost2010Prop37
 90
       50
102
RTVSPost2010PropOp37
 70
     1
102
RTVSPost2010Prop38
140
0.0
102
RTVSPost2010PropOp38
 70
     1
102
RTVSPost2010Prop39
140
1.0
102
RTVSPost2010PropOp39
 70
     1
102
RTVSPost2010Prop40
 90
        0
102
RTVSPost2010PropOp40
 70
     1
102
RTVSPost2010Prop41ColorIndex
 90
       18
102
RTVSPost2010Prop41ColorRGB
 90
        0
102
RTVSPost2010PropOp41
 70
     1
102
RTVSPost2010Prop42
 90
       50
102
RTVSPost2010PropOp42
 70
     1
102
RTVSPost2010Prop43
 90
        3
102
RTVSPost2010PropOp43
 70
     1
102
RTVSPost2010Prop44ColorIndex
 90
        5
102
RTVSPost2010Prop44ColorRGB
 90
      255
102
RTVSPost2010PropOp44
 70
     1
102
RTVSPost2010Prop45
280
     0
102
RTVSPost2010PropOp45
 70
     1
102
RTVSPost2010Prop46
 90
       50
102
RTVSPost2010PropOp46
 70
     1
102
RTVSPost2010Prop47
 90
       50
102
RTVSPost2010PropOp47
 70
     1
102
RTVSPost2010Prop48
 90
       50
102
RTVSPost2010PropOp48
 70
     1
102
RTVSPost2010Prop49
280
     0
102
RTVSPost2010PropOp49
 70
     1
102
RTVSPost2010Prop50
 90
       50
102
RTVSPost2010PropOp50
 70
     1
102
RTVSPost2010Prop51ColorIndex
 90
      256
102
RTVSPost2010Prop51ColorRGB
 90
-16777216
102
RTVSPost2010PropOp51
 70
     0
102
RTVSPost2010Prop52
140
1.0
102
RTVSPost2010PropOp52
 70
     0
102
RTVSPost2010Prop53
 90
        2
102
RTVSPost2010PropOp53
 70
     1
102
RTVSPost2010Prop54
  1
strokes_ogs.tif
102
RTVSPost2010PropOp54
 70
     1
102
RTVSPost2010Prop55
280
     0
102
RTVSPost2010PropOp55
 70
     1
102
RTVSPost2010Prop56
140
1.0
102
RTVSPost2010PropOp56
 70
     1
102
RTVSPost2010Prop57
140
1.0
102
RTVSPost2010PropOp57
 70
     1
102
RTVSPropertyOp0
 70
     1
102
RTVSPropertyOp1
 70
     1
102
RTVSPropertyOp2
 70
     1
102
RTVSPropertyOp3
 70
     1
102
RTVSPropertyOp4
 70
     1
102
RTVSPropertyOp5
 70
     1
102
RTVSPropertyOp6
 70
     1
102
RTVSPropertyOp7
 70
     1
102
RTVSPropertyOp8
 70
     1
102
RTVSPropertyOp9
 70
     1
102
RTVSPropertyOp10
 70
     1
102
RTVSPropertyOp11
 70
     1
102
RTVSPropertyOp12
 70
     1
102
RTVSPropertyOp13
 70
     1
102
RTVSPropertyOp14
 70
     1
102
RTVSPropertyOp15
 70
     1
102
RTVSPropertyOp16
 70
     1
102
RTVSPropertyOp17
 70
     1
102
RTVSPropertyOp18
 70
     1
102
RTVSPropertyOp19
 70
     1
102
RTVSPropertyOp20
 70
     1
102
RTVSPropertyOp21
 70
     1
102
RTVSPropertyOp22
 70
     1
102
RTVSPropertyOp23
 70
     1
102
RTVSPropertyOp24
 70
     1
102
RTVSPropertyOp25
 70
     1
102
RTVSPropertyOp26
 70
     1
102
RTVSPropertyOp27
 70
     1
102
RTVSPropertyOp28
 70
     1
102
RTVSPropertyOp29
 70
     1
102
RTVSPropertyOp30
 70
     1
102
RTVSPropertyOp31
 70
     1
102
RTVSPropertyOp32
 70
     1
102
RTVSPropertyOp33
 70
     1
102
RTVSPropertyOp34
 70
     1
102
RTVSPropertyOp35
 70
     1
102
RTVSPropertyOp36
 70
     1
102
RTVSPropertyOp37
 70
     1
102
RTVSPropertyOp38
 70
     1
102
RTVSPropertyOp39
 70
     1
102
RTVSPropertyOp40
 70
     1
102
RTVSPropertyOp41
 70
     1
102
RTVSPropertyOp42
 70
     1
102
RTVSPropertyOp43
 70
     1
102
RTVSPropertyOp44
 70
     1
102
RTVSPropertyOp45
 70
     1
102
RTVSPropertyOp46
 70
     1
102
RTVSPropertyOp47
 70
     1
102
RTVSPropertyOp48
 70
     1
102
RTVSPropertyOp49
 70
     1
102
RTVSPropertyOp50
 70
     1
102
RTVSPropertyOp51
 70
     0
102
RTVSPropertyOp52
 70
     0
102
RTVSPropertyOp53
 70
     1
102
RTVSPropertyOp54
 70
     1
102
RTVSPropertyOp55
 70
     1
102
RTVSPropertyOp56
 70
     1
102
RTVSPropertyOp57
 70
     1
102
RTVSPropertyOp58
 70
     1
102
RTVSPropertyOp59
 70
     1
102
RTVSPropertyOp60
 70
     1
102
RTVSPropertyOp61
 70
     1
102
RTVSPropertyOp62
 70
     1
  0
XRECORD
  5
9C90
102
{ACAD_REACTORS
330
9C8F
102
}
330
9C8F
100
AcDbXrecord
280
     1
102
RTVSPost2010Prop28
280
     0
102
RTVSPost2010PropOp28
 70
     1
102
RTVSPost2010Prop29
280
     1
102
RTVSPost2010PropOp29
 70
     1
102
RTVSPost2010Prop30
280
     1
102
RTVSPost2010PropOp30
 70
     1
102
RTVSPost2010Prop31
280
     0
102
RTVSPost2010PropOp31
 70
     1
102
RTVSPost2010Prop32
280
     0
102
RTVSPost2010PropOp32
 70
     1
102
RTVSPost2010Prop33
280
     0
102
RTVSPost2010PropOp33
 70
     1
102
RTVSPost2010Prop34
280
     0
102
RTVSPost2010PropOp34
 70
     1
102
RTVSPost2010Prop35
280
     0
102
RTVSPost2010PropOp35
 70
     1
102
RTVSPost2010Prop36
280
     0
102
RTVSPost2010PropOp36
 70
     1
102
RTVSPost2010Prop37
 90
       50
102
RTVSPost2010PropOp37
 70
     1
102
RTVSPost2010Prop38
140
0.0
102
RTVSPost2010PropOp38
 70
     1
102
RTVSPost2010Prop39
140
1.0
102
RTVSPost2010PropOp39
 70
     1
102
RTVSPost2010Prop40
 90
        0
102
RTVSPost2010PropOp40
 70
     1
102
RTVSPost2010Prop41ColorIndex
 90
       18
102
RTVSPost2010Prop41ColorRGB
 90
        0
102
RTVSPost2010PropOp41
 70
     1
102
RTVSPost2010Prop42
 90
       50
102
RTVSPost2010PropOp42
 70
     1
102
RTVSPost2010Prop43
 90
        3
102
RTVSPost2010PropOp43
 70
     1
102
RTVSPost2010Prop44ColorIndex
 90
        5
102
RTVSPost2010Prop44ColorRGB
 90
      255
102
RTVSPost2010PropOp44
 70
     1
102
RTVSPost2010Prop45
280
     0
102
RTVSPost2010PropOp45
 70
     1
102
RTVSPost2010Prop46
 90
       50
102
RTVSPost2010PropOp46
 70
     1
102
RTVSPost2010Prop47
 90
       50
102
RTVSPost2010PropOp47
 70
     1
102
RTVSPost2010Prop48
 90
       50
102
RTVSPost2010PropOp48
 70
     1
102
RTVSPost2010Prop49
280
     0
102
RTVSPost2010PropOp49
 70
     1
102
RTVSPost2010Prop50
 90
       50
102
RTVSPost2010PropOp50
 70
     1
102
RTVSPost2010Prop51ColorIndex
 90
      256
102
RTVSPost2010Prop51ColorRGB
 90
-16777216
102
RTVSPost2010PropOp51
 70
     0
102
RTVSPost2010Prop52
140
1.0
102
RTVSPost2010PropOp52
 70
     0
102
RTVSPost2010Prop53
 90
        2
102
RTVSPost2010PropOp53
 70
     1
102
RTVSPost2010Prop54
  1
strokes_ogs.tif
102
RTVSPost2010PropOp54
 70
     1
102
RTVSPost2010Prop55
280
     0
102
RTVSPost2010PropOp55
 70
     1
102
RTVSPost2010Prop56
140
1.0
102
RTVSPost2010PropOp56
 70
     1
102
RTVSPost2010Prop57
140
1.0
102
RTVSPost2010PropOp57
 70
     1
102
RTVSPropertyOp0
 70
     1
102
RTVSPropertyOp1
 70
     1
102
RTVSPropertyOp2
 70
     1
102
RTVSPropertyOp3
 70
     1
102
RTVSPropertyOp4
 70
     1
102
RTVSPropertyOp5
 70
     1
102
RTVSPropertyOp6
 70
     1
102
RTVSPropertyOp7
 70
     1
102
RTVSPropertyOp8
 70
     1
102
RTVSPropertyOp9
 70
     1
102
RTVSPropertyOp10
 70
     1
102
RTVSPropertyOp11
 70
     1
102
RTVSPropertyOp12
 70
     1
102
RTVSPropertyOp13
 70
     1
102
RTVSPropertyOp14
 70
     1
102
RTVSPropertyOp15
 70
     1
102
RTVSPropertyOp16
 70
     1
102
RTVSPropertyOp17
 70
     1
102
RTVSPropertyOp18
 70
     1
102
RTVSPropertyOp19
 70
     1
102
RTVSPropertyOp20
 70
     1
102
RTVSPropertyOp21
 70
     1
102
RTVSPropertyOp22
 70
     1
102
RTVSPropertyOp23
 70
     1
102
RTVSPropertyOp24
 70
     1
102
RTVSPropertyOp25
 70
     1
102
RTVSPropertyOp26
 70
     1
102
RTVSPropertyOp27
 70
     1
102
RTVSPropertyOp28
 70
     1
102
RTVSPropertyOp29
 70
     1
102
RTVSPropertyOp30
 70
     1
102
RTVSPropertyOp31
 70
     1
102
RTVSPropertyOp32
 70
     1
102
RTVSPropertyOp33
 70
     1
102
RTVSPropertyOp34
 70
     1
102
RTVSPropertyOp35
 70
     1
102
RTVSPropertyOp36
 70
     1
102
RTVSPropertyOp37
 70
     1
102
RTVSPropertyOp38
 70
     1
102
RTVSPropertyOp39
 70
     1
102
RTVSPropertyOp40
 70
     1
102
RTVSPropertyOp41
 70
     1
102
RTVSPropertyOp42
 70
     1
102
RTVSPropertyOp43
 70
     1
102
RTVSPropertyOp44
 70
     1
102
RTVSPropertyOp45
 70
     1
102
RTVSPropertyOp46
 70
     1
102
RTVSPropertyOp47
 70
     1
102
RTVSPropertyOp48
 70
     1
102
RTVSPropertyOp49
 70
     1
102
RTVSPropertyOp50
 70
     1
102
RTVSPropertyOp51
 70
     0
102
RTVSPropertyOp52
 70
     0
102
RTVSPropertyOp53
 70
     1
102
RTVSPropertyOp54
 70
     1
102
RTVSPropertyOp55
 70
     1
102
RTVSPropertyOp56
 70
     1
102
RTVSPropertyOp57
 70
     1
102
RTVSPropertyOp58
 70
     1
102
RTVSPropertyOp59
 70
     1
102
RTVSPropertyOp60
 70
     1
102
RTVSPropertyOp61
 70
     1
102
RTVSPropertyOp62
 70
     1
  0
XRECORD
  5
9C8E
102
{ACAD_REACTORS
330
9C8D
102
}
330
9C8D
100
AcDbXrecord
280
     1
102
RTVSPost2010Prop28
280
     0
102
RTVSPost2010PropOp28
 70
     1
102
RTVSPost2010Prop29
280
     1
102
RTVSPost2010PropOp29
 70
     1
102
RTVSPost2010Prop30
280
     1
102
RTVSPost2010PropOp30
 70
     1
102
RTVSPost2010Prop31
280
     0
102
RTVSPost2010PropOp31
 70
     1
102
RTVSPost2010Prop32
280
     0
102
RTVSPost2010PropOp32
 70
     1
102
RTVSPost2010Prop33
280
     0
102
RTVSPost2010PropOp33
 70
     1
102
RTVSPost2010Prop34
280
     0
102
RTVSPost2010PropOp34
 70
     1
102
RTVSPost2010Prop35
280
     0
102
RTVSPost2010PropOp35
 70
     1
102
RTVSPost2010Prop36
280
     0
102
RTVSPost2010PropOp36
 70
     1
102
RTVSPost2010Prop37
 90
       50
102
RTVSPost2010PropOp37
 70
     1
102
RTVSPost2010Prop38
140
0.0
102
RTVSPost2010PropOp38
 70
     1
102
RTVSPost2010Prop39
140
1.0
102
RTVSPost2010PropOp39
 70
     1
102
RTVSPost2010Prop40
 90
        0
102
RTVSPost2010PropOp40
 70
     1
102
RTVSPost2010Prop41ColorIndex
 90
       18
102
RTVSPost2010Prop41ColorRGB
 90
        0
102
RTVSPost2010PropOp41
 70
     1
102
RTVSPost2010Prop42
 90
       50
102
RTVSPost2010PropOp42
 70
     1
102
RTVSPost2010Prop43
 90
        3
102
RTVSPost2010PropOp43
 70
     1
102
RTVSPost2010Prop44ColorIndex
 90
        5
102
RTVSPost2010Prop44ColorRGB
 90
      255
102
RTVSPost2010PropOp44
 70
     1
102
RTVSPost2010Prop45
280
     0
102
RTVSPost2010PropOp45
 70
     1
102
RTVSPost2010Prop46
 90
       50
102
RTVSPost2010PropOp46
 70
     1
102
RTVSPost2010Prop47
 90
       50
102
RTVSPost2010PropOp47
 70
     1
102
RTVSPost2010Prop48
 90
       50
102
RTVSPost2010PropOp48
 70
     1
102
RTVSPost2010Prop49
280
     0
102
RTVSPost2010PropOp49
 70
     1
102
RTVSPost2010Prop50
 90
       50
102
RTVSPost2010PropOp50
 70
     1
102
RTVSPost2010Prop51ColorIndex
 90
      256
102
RTVSPost2010Prop51ColorRGB
 90
-16777216
102
RTVSPost2010PropOp51
 70
     0
102
RTVSPost2010Prop52
140
1.0
102
RTVSPost2010PropOp52
 70
     0
102
RTVSPost2010Prop53
 90
        2
102
RTVSPost2010PropOp53
 70
     1
102
RTVSPost2010Prop54
  1
strokes_ogs.tif
102
RTVSPost2010PropOp54
 70
     1
102
RTVSPost2010Prop55
280
     0
102
RTVSPost2010PropOp55
 70
     1
102
RTVSPost2010Prop56
140
1.0
102
RTVSPost2010PropOp56
 70
     1
102
RTVSPost2010Prop57
140
1.0
102
RTVSPost2010PropOp57
 70
     1
102
RTVSPropertyOp0
 70
     1
102
RTVSPropertyOp1
 70
     1
102
RTVSPropertyOp2
 70
     1
102
RTVSPropertyOp3
 70
     1
102
RTVSPropertyOp4
 70
     1
102
RTVSPropertyOp5
 70
     1
102
RTVSPropertyOp6
 70
     1
102
RTVSPropertyOp7
 70
     1
102
RTVSPropertyOp8
 70
     1
102
RTVSPropertyOp9
 70
     1
102
RTVSPropertyOp10
 70
     1
102
RTVSPropertyOp11
 70
     1
102
RTVSPropertyOp12
 70
     1
102
RTVSPropertyOp13
 70
     1
102
RTVSPropertyOp14
 70
     1
102
RTVSPropertyOp15
 70
     1
102
RTVSPropertyOp16
 70
     1
102
RTVSPropertyOp17
 70
     1
102
RTVSPropertyOp18
 70
     1
102
RTVSPropertyOp19
 70
     1
102
RTVSPropertyOp20
 70
     1
102
RTVSPropertyOp21
 70
     1
102
RTVSPropertyOp22
 70
     1
102
RTVSPropertyOp23
 70
     1
102
RTVSPropertyOp24
 70
     1
102
RTVSPropertyOp25
 70
     1
102
RTVSPropertyOp26
 70
     1
102
RTVSPropertyOp27
 70
     1
102
RTVSPropertyOp28
 70
     1
102
RTVSPropertyOp29
 70
     1
102
RTVSPropertyOp30
 70
     1
102
RTVSPropertyOp31
 70
     1
102
RTVSPropertyOp32
 70
     1
102
RTVSPropertyOp33
 70
     1
102
RTVSPropertyOp34
 70
     1
102
RTVSPropertyOp35
 70
     1
102
RTVSPropertyOp36
 70
     1
102
RTVSPropertyOp37
 70
     1
102
RTVSPropertyOp38
 70
     1
102
RTVSPropertyOp39
 70
     1
102
RTVSPropertyOp40
 70
     1
102
RTVSPropertyOp41
 70
     1
102
RTVSPropertyOp42
 70
     1
102
RTVSPropertyOp43
 70
     1
102
RTVSPropertyOp44
 70
     1
102
RTVSPropertyOp45
 70
     1
102
RTVSPropertyOp46
 70
     1
102
RTVSPropertyOp47
 70
     1
102
RTVSPropertyOp48
 70
     1
102
RTVSPropertyOp49
 70
     1
102
RTVSPropertyOp50
 70
     1
102
RTVSPropertyOp51
 70
     0
102
RTVSPropertyOp52
 70
     0
102
RTVSPropertyOp53
 70
     1
102
RTVSPropertyOp54
 70
     1
102
RTVSPropertyOp55
 70
     1
102
RTVSPropertyOp56
 70
     1
102
RTVSPropertyOp57
 70
     1
102
RTVSPropertyOp58
 70
     1
102
RTVSPropertyOp59
 70
     1
102
RTVSPropertyOp60
 70
     1
102
RTVSPropertyOp61
 70
     1
102
RTVSPropertyOp62
 70
     1
  0
XRECORD
  5
9C88
102
{ACAD_REACTORS
330
9C87
102
}
330
9C87
100
AcDbXrecord
280
     1
102
RTVSPost2010Prop28
280
     0
102
RTVSPost2010PropOp28
 70
     1
102
RTVSPost2010Prop29
280
     1
102
RTVSPost2010PropOp29
 70
     1
102
RTVSPost2010Prop30
280
     1
102
RTVSPost2010PropOp30
 70
     1
102
RTVSPost2010Prop31
280
     0
102
RTVSPost2010PropOp31
 70
     1
102
RTVSPost2010Prop32
280
     0
102
RTVSPost2010PropOp32
 70
     1
102
RTVSPost2010Prop33
280
     0
102
RTVSPost2010PropOp33
 70
     1
102
RTVSPost2010Prop34
280
     0
102
RTVSPost2010PropOp34
 70
     1
102
RTVSPost2010Prop35
280
     0
102
RTVSPost2010PropOp35
 70
     1
102
RTVSPost2010Prop36
280
     0
102
RTVSPost2010PropOp36
 70
     1
102
RTVSPost2010Prop37
 90
       50
102
RTVSPost2010PropOp37
 70
     1
102
RTVSPost2010Prop38
140
0.0
102
RTVSPost2010PropOp38
 70
     1
102
RTVSPost2010Prop39
140
1.0
102
RTVSPost2010PropOp39
 70
     1
102
RTVSPost2010Prop40
 90
        0
102
RTVSPost2010PropOp40
 70
     1
102
RTVSPost2010Prop41ColorIndex
 90
       18
102
RTVSPost2010Prop41ColorRGB
 90
        0
102
RTVSPost2010PropOp41
 70
     1
102
RTVSPost2010Prop42
 90
       50
102
RTVSPost2010PropOp42
 70
     1
102
RTVSPost2010Prop43
 90
        3
102
RTVSPost2010PropOp43
 70
     1
102
RTVSPost2010Prop44ColorIndex
 90
        5
102
RTVSPost2010Prop44ColorRGB
 90
      255
102
RTVSPost2010PropOp44
 70
     1
102
RTVSPost2010Prop45
280
     0
102
RTVSPost2010PropOp45
 70
     1
102
RTVSPost2010Prop46
 90
       50
102
RTVSPost2010PropOp46
 70
     1
102
RTVSPost2010Prop47
 90
       50
102
RTVSPost2010PropOp47
 70
     1
102
RTVSPost2010Prop48
 90
       50
102
RTVSPost2010PropOp48
 70
     1
102
RTVSPost2010Prop49
280
     0
102
RTVSPost2010PropOp49
 70
     1
102
RTVSPost2010Prop50
 90
       50
102
RTVSPost2010PropOp50
 70
     1
102
RTVSPost2010Prop51ColorIndex
 90
      256
102
RTVSPost2010Prop51ColorRGB
 90
-16777216
102
RTVSPost2010PropOp51
 70
     0
102
RTVSPost2010Prop52
140
1.0
102
RTVSPost2010PropOp52
 70
     0
102
RTVSPost2010Prop53
 90
        2
102
RTVSPost2010PropOp53
 70
     1
102
RTVSPost2010Prop54
  1
strokes_ogs.tif
102
RTVSPost2010PropOp54
 70
     1
102
RTVSPost2010Prop55
280
     0
102
RTVSPost2010PropOp55
 70
     1
102
RTVSPost2010Prop56
140
1.0
102
RTVSPost2010PropOp56
 70
     1
102
RTVSPost2010Prop57
140
1.0
102
RTVSPost2010PropOp57
 70
     1
102
RTVSPropertyOp0
 70
     1
102
RTVSPropertyOp1
 70
     1
102
RTVSPropertyOp2
 70
     1
102
RTVSPropertyOp3
 70
     1
102
RTVSPropertyOp4
 70
     1
102
RTVSPropertyOp5
 70
     1
102
RTVSPropertyOp6
 70
     1
102
RTVSPropertyOp7
 70
     1
102
RTVSPropertyOp8
 70
     1
102
RTVSPropertyOp9
 70
     1
102
RTVSPropertyOp10
 70
     1
102
RTVSPropertyOp11
 70
     1
102
RTVSPropertyOp12
 70
     1
102
RTVSPropertyOp13
 70
     1
102
RTVSPropertyOp14
 70
     1
102
RTVSPropertyOp15
 70
     1
102
RTVSPropertyOp16
 70
     1
102
RTVSPropertyOp17
 70
     1
102
RTVSPropertyOp18
 70
     1
102
RTVSPropertyOp19
 70
     1
102
RTVSPropertyOp20
 70
     1
102
RTVSPropertyOp21
 70
     1
102
RTVSPropertyOp22
 70
     1
102
RTVSPropertyOp23
 70
     1
102
RTVSPropertyOp24
 70
     1
102
RTVSPropertyOp25
 70
     1
102
RTVSPropertyOp26
 70
     1
102
RTVSPropertyOp27
 70
     1
102
RTVSPropertyOp28
 70
     1
102
RTVSPropertyOp29
 70
     1
102
RTVSPropertyOp30
 70
     1
102
RTVSPropertyOp31
 70
     1
102
RTVSPropertyOp32
 70
     1
102
RTVSPropertyOp33
 70
     1
102
RTVSPropertyOp34
 70
     1
102
RTVSPropertyOp35
 70
     1
102
RTVSPropertyOp36
 70
     1
102
RTVSPropertyOp37
 70
     1
102
RTVSPropertyOp38
 70
     1
102
RTVSPropertyOp39
 70
     1
102
RTVSPropertyOp40
 70
     1
102
RTVSPropertyOp41
 70
     1
102
RTVSPropertyOp42
 70
     1
102
RTVSPropertyOp43
 70
     1
102
RTVSPropertyOp44
 70
     1
102
RTVSPropertyOp45
 70
     1
102
RTVSPropertyOp46
 70
     1
102
RTVSPropertyOp47
 70
     1
102
RTVSPropertyOp48
 70
     1
102
RTVSPropertyOp49
 70
     1
102
RTVSPropertyOp50
 70
     1
102
RTVSPropertyOp51
 70
     0
102
RTVSPropertyOp52
 70
     0
102
RTVSPropertyOp53
 70
     1
102
RTVSPropertyOp54
 70
     1
102
RTVSPropertyOp55
 70
     1
102
RTVSPropertyOp56
 70
     1
102
RTVSPropertyOp57
 70
     1
102
RTVSPropertyOp58
 70
     1
102
RTVSPropertyOp59
 70
     1
102
RTVSPropertyOp60
 70
     1
102
RTVSPropertyOp61
 70
     1
102
RTVSPropertyOp62
 70
     1
  0
XRECORD
  5
9C8A
102
{ACAD_REACTORS
330
9C89
102
}
330
9C89
100
AcDbXrecord
280
     1
102
RTVSPost2010Prop28
280
     0
102
RTVSPost2010PropOp28
 70
     1
102
RTVSPost2010Prop29
280
     1
102
RTVSPost2010PropOp29
 70
     1
102
RTVSPost2010Prop30
280
     1
102
RTVSPost2010PropOp30
 70
     1
102
RTVSPost2010Prop31
280
     0
102
RTVSPost2010PropOp31
 70
     1
102
RTVSPost2010Prop32
280
     0
102
RTVSPost2010PropOp32
 70
     1
102
RTVSPost2010Prop33
280
     0
102
RTVSPost2010PropOp33
 70
     1
102
RTVSPost2010Prop34
280
     0
102
RTVSPost2010PropOp34
 70
     1
102
RTVSPost2010Prop35
280
     0
102
RTVSPost2010PropOp35
 70
     1
102
RTVSPost2010Prop36
280
     0
102
RTVSPost2010PropOp36
 70
     1
102
RTVSPost2010Prop37
 90
       50
102
RTVSPost2010PropOp37
 70
     1
102
RTVSPost2010Prop38
140
0.0
102
RTVSPost2010PropOp38
 70
     1
102
RTVSPost2010Prop39
140
1.0
102
RTVSPost2010PropOp39
 70
     1
102
RTVSPost2010Prop40
 90
        0
102
RTVSPost2010PropOp40
 70
     1
102
RTVSPost2010Prop41ColorIndex
 90
       18
102
RTVSPost2010Prop41ColorRGB
 90
        0
102
RTVSPost2010PropOp41
 70
     1
102
RTVSPost2010Prop42
 90
       50
102
RTVSPost2010PropOp42
 70
     1
102
RTVSPost2010Prop43
 90
        3
102
RTVSPost2010PropOp43
 70
     1
102
RTVSPost2010Prop44ColorIndex
 90
        5
102
RTVSPost2010Prop44ColorRGB
 90
      255
102
RTVSPost2010PropOp44
 70
     1
102
RTVSPost2010Prop45
280
     0
102
RTVSPost2010PropOp45
 70
     1
102
RTVSPost2010Prop46
 90
       50
102
RTVSPost2010PropOp46
 70
     1
102
RTVSPost2010Prop47
 90
       50
102
RTVSPost2010PropOp47
 70
     1
102
RTVSPost2010Prop48
 90
       50
102
RTVSPost2010PropOp48
 70
     1
102
RTVSPost2010Prop49
280
     0
102
RTVSPost2010PropOp49
 70
     1
102
RTVSPost2010Prop50
 90
       50
102
RTVSPost2010PropOp50
 70
     1
102
RTVSPost2010Prop51ColorIndex
 90
      256
102
RTVSPost2010Prop51ColorRGB
 90
-16777216
102
RTVSPost2010PropOp51
 70
     0
102
RTVSPost2010Prop52
140
1.0
102
RTVSPost2010PropOp52
 70
     0
102
RTVSPost2010Prop53
 90
        2
102
RTVSPost2010PropOp53
 70
     1
102
RTVSPost2010Prop54
  1
strokes_ogs.tif
102
RTVSPost2010PropOp54
 70
     1
102
RTVSPost2010Prop55
280
     0
102
RTVSPost2010PropOp55
 70
     1
102
RTVSPost2010Prop56
140
1.0
102
RTVSPost2010PropOp56
 70
     1
102
RTVSPost2010Prop57
140
1.0
102
RTVSPost2010PropOp57
 70
     1
102
RTVSPropertyOp0
 70
     1
102
RTVSPropertyOp1
 70
     1
102
RTVSPropertyOp2
 70
     1
102
RTVSPropertyOp3
 70
     1
102
RTVSPropertyOp4
 70
     1
102
RTVSPropertyOp5
 70
     1
102
RTVSPropertyOp6
 70
     1
102
RTVSPropertyOp7
 70
     1
102
RTVSPropertyOp8
 70
     1
102
RTVSPropertyOp9
 70
     1
102
RTVSPropertyOp10
 70
     1
102
RTVSPropertyOp11
 70
     1
102
RTVSPropertyOp12
 70
     1
102
RTVSPropertyOp13
 70
     1
102
RTVSPropertyOp14
 70
     1
102
RTVSPropertyOp15
 70
     1
102
RTVSPropertyOp16
 70
     1
102
RTVSPropertyOp17
 70
     1
102
RTVSPropertyOp18
 70
     1
102
RTVSPropertyOp19
 70
     1
102
RTVSPropertyOp20
 70
     1
102
RTVSPropertyOp21
 70
     1
102
RTVSPropertyOp22
 70
     1
102
RTVSPropertyOp23
 70
     1
102
RTVSPropertyOp24
 70
     1
102
RTVSPropertyOp25
 70
     1
102
RTVSPropertyOp26
 70
     1
102
RTVSPropertyOp27
 70
     1
102
RTVSPropertyOp28
 70
     1
102
RTVSPropertyOp29
 70
     1
102
RTVSPropertyOp30
 70
     1
102
RTVSPropertyOp31
 70
     1
102
RTVSPropertyOp32
 70
     1
102
RTVSPropertyOp33
 70
     1
102
RTVSPropertyOp34
 70
     1
102
RTVSPropertyOp35
 70
     1
102
RTVSPropertyOp36
 70
     1
102
RTVSPropertyOp37
 70
     1
102
RTVSPropertyOp38
 70
     1
102
RTVSPropertyOp39
 70
     1
102
RTVSPropertyOp40
 70
     1
102
RTVSPropertyOp41
 70
     1
102
RTVSPropertyOp42
 70
     1
102
RTVSPropertyOp43
 70
     1
102
RTVSPropertyOp44
 70
     1
102
RTVSPropertyOp45
 70
     1
102
RTVSPropertyOp46
 70
     1
102
RTVSPropertyOp47
 70
     1
102
RTVSPropertyOp48
 70
     1
102
RTVSPropertyOp49
 70
     1
102
RTVSPropertyOp50
 70
     1
102
RTVSPropertyOp51
 70
     0
102
RTVSPropertyOp52
 70
     0
102
RTVSPropertyOp53
 70
     1
102
RTVSPropertyOp54
 70
     1
102
RTVSPropertyOp55
 70
     1
102
RTVSPropertyOp56
 70
     1
102
RTVSPropertyOp57
 70
     1
102
RTVSPropertyOp58
 70
     1
102
RTVSPropertyOp59
 70
     1
102
RTVSPropertyOp60
 70
     1
102
RTVSPropertyOp61
 70
     1
102
RTVSPropertyOp62
 70
     1
  0
XRECORD
  5
9C80
102
{ACAD_REACTORS
330
9C7F
102
}
330
9C7F
100
AcDbXrecord
280
     1
102
RTVSPost2010Prop28
280
     0
102
RTVSPost2010PropOp28
 70
     1
102
RTVSPost2010Prop29
280
     1
102
RTVSPost2010PropOp29
 70
     1
102
RTVSPost2010Prop30
280
     1
102
RTVSPost2010PropOp30
 70
     1
102
RTVSPost2010Prop31
280
     0
102
RTVSPost2010PropOp31
 70
     1
102
RTVSPost2010Prop32
280
     0
102
RTVSPost2010PropOp32
 70
     1
102
RTVSPost2010Prop33
280
     0
102
RTVSPost2010PropOp33
 70
     1
102
RTVSPost2010Prop34
280
     0
102
RTVSPost2010PropOp34
 70
     1
102
RTVSPost2010Prop35
280
     0
102
RTVSPost2010PropOp35
 70
     1
102
RTVSPost2010Prop36
280
     0
102
RTVSPost2010PropOp36
 70
     1
102
RTVSPost2010Prop37
 90
       50
102
RTVSPost2010PropOp37
 70
     1
102
RTVSPost2010Prop38
140
0.0
102
RTVSPost2010PropOp38
 70
     1
102
RTVSPost2010Prop39
140
1.0
102
RTVSPost2010PropOp39
 70
     1
102
RTVSPost2010Prop40
 90
        0
102
RTVSPost2010PropOp40
 70
     1
102
RTVSPost2010Prop41ColorIndex
 90
       18
102
RTVSPost2010Prop41ColorRGB
 90
        0
102
RTVSPost2010PropOp41
 70
     1
102
RTVSPost2010Prop42
 90
       50
102
RTVSPost2010PropOp42
 70
     1
102
RTVSPost2010Prop43
 90
        3
102
RTVSPost2010PropOp43
 70
     1
102
RTVSPost2010Prop44ColorIndex
 90
        5
102
RTVSPost2010Prop44ColorRGB
 90
      255
102
RTVSPost2010PropOp44
 70
     1
102
RTVSPost2010Prop45
280
     0
102
RTVSPost2010PropOp45
 70
     1
102
RTVSPost2010Prop46
 90
       50
102
RTVSPost2010PropOp46
 70
     1
102
RTVSPost2010Prop47
 90
       50
102
RTVSPost2010PropOp47
 70
     1
102
RTVSPost2010Prop48
 90
       50
102
RTVSPost2010PropOp48
 70
     1
102
RTVSPost2010Prop49
280
     0
102
RTVSPost2010PropOp49
 70
     1
102
RTVSPost2010Prop50
 90
       50
102
RTVSPost2010PropOp50
 70
     1
102
RTVSPost2010Prop51ColorIndex
 90
      256
102
RTVSPost2010Prop51ColorRGB
 90
-16777216
102
RTVSPost2010PropOp51
 70
     0
102
RTVSPost2010Prop52
140
1.0
102
RTVSPost2010PropOp52
 70
     0
102
RTVSPost2010Prop53
 90
        2
102
RTVSPost2010PropOp53
 70
     1
102
RTVSPost2010Prop54
  1
strokes_ogs.tif
102
RTVSPost2010PropOp54
 70
     1
102
RTVSPost2010Prop55
280
     0
102
RTVSPost2010PropOp55
 70
     1
102
RTVSPost2010Prop56
140
1.0
102
RTVSPost2010PropOp56
 70
     1
102
RTVSPost2010Prop57
140
1.0
102
RTVSPost2010PropOp57
 70
     1
102
RTVSPropertyOp0
 70
     1
102
RTVSPropertyOp1
 70
     1
102
RTVSPropertyOp2
 70
     1
102
RTVSPropertyOp3
 70
     1
102
RTVSPropertyOp4
 70
     1
102
RTVSPropertyOp5
 70
     1
102
RTVSPropertyOp6
 70
     1
102
RTVSPropertyOp7
 70
     1
102
RTVSPropertyOp8
 70
     1
102
RTVSPropertyOp9
 70
     1
102
RTVSPropertyOp10
 70
     1
102
RTVSPropertyOp11
 70
     1
102
RTVSPropertyOp12
 70
     1
102
RTVSPropertyOp13
 70
     1
102
RTVSPropertyOp14
 70
     1
102
RTVSPropertyOp15
 70
     1
102
RTVSPropertyOp16
 70
     1
102
RTVSPropertyOp17
 70
     1
102
RTVSPropertyOp18
 70
     1
102
RTVSPropertyOp19
 70
     1
102
RTVSPropertyOp20
 70
     1
102
RTVSPropertyOp21
 70
     1
102
RTVSPropertyOp22
 70
     1
102
RTVSPropertyOp23
 70
     1
102
RTVSPropertyOp24
 70
     1
102
RTVSPropertyOp25
 70
     1
102
RTVSPropertyOp26
 70
     1
102
RTVSPropertyOp27
 70
     1
102
RTVSPropertyOp28
 70
     1
102
RTVSPropertyOp29
 70
     1
102
RTVSPropertyOp30
 70
     1
102
RTVSPropertyOp31
 70
     1
102
RTVSPropertyOp32
 70
     1
102
RTVSPropertyOp33
 70
     1
102
RTVSPropertyOp34
 70
     1
102
RTVSPropertyOp35
 70
     1
102
RTVSPropertyOp36
 70
     1
102
RTVSPropertyOp37
 70
     1
102
RTVSPropertyOp38
 70
     1
102
RTVSPropertyOp39
 70
     1
102
RTVSPropertyOp40
 70
     1
102
RTVSPropertyOp41
 70
     1
102
RTVSPropertyOp42
 70
     1
102
RTVSPropertyOp43
 70
     1
102
RTVSPropertyOp44
 70
     1
102
RTVSPropertyOp45
 70
     1
102
RTVSPropertyOp46
 70
     1
102
RTVSPropertyOp47
 70
     1
102
RTVSPropertyOp48
 70
     1
102
RTVSPropertyOp49
 70
     1
102
RTVSPropertyOp50
 70
     1
102
RTVSPropertyOp51
 70
     0
102
RTVSPropertyOp52
 70
     0
102
RTVSPropertyOp53
 70
     1
102
RTVSPropertyOp54
 70
     1
102
RTVSPropertyOp55
 70
     1
102
RTVSPropertyOp56
 70
     1
102
RTVSPropertyOp57
 70
     1
102
RTVSPropertyOp58
 70
     1
102
RTVSPropertyOp59
 70
     1
102
RTVSPropertyOp60
 70
     1
102
RTVSPropertyOp61
 70
     1
102
RTVSPropertyOp62
 70
     1
  0
XRECORD
  5
9C74
102
{ACAD_REACTORS
330
9C73
102
}
330
9C73
100
AcDbXrecord
280
     1
102
RTVSPost2010Prop28
280
     0
102
RTVSPost2010PropOp28
 70
     1
102
RTVSPost2010Prop29
280
     1
102
RTVSPost2010PropOp29
 70
     1
102
RTVSPost2010Prop30
280
     1
102
RTVSPost2010PropOp30
 70
     1
102
RTVSPost2010Prop31
280
     0
102
RTVSPost2010PropOp31
 70
     1
102
RTVSPost2010Prop32
280
     0
102
RTVSPost2010PropOp32
 70
     1
102
RTVSPost2010Prop33
280
     0
102
RTVSPost2010PropOp33
 70
     1
102
RTVSPost2010Prop34
280
     0
102
RTVSPost2010PropOp34
 70
     1
102
RTVSPost2010Prop35
280
     0
102
RTVSPost2010PropOp35
 70
     1
102
RTVSPost2010Prop36
280
     0
102
RTVSPost2010PropOp36
 70
     1
102
RTVSPost2010Prop37
 90
       50
102
RTVSPost2010PropOp37
 70
     1
102
RTVSPost2010Prop38
140
0.0
102
RTVSPost2010PropOp38
 70
     1
102
RTVSPost2010Prop39
140
1.0
102
RTVSPost2010PropOp39
 70
     1
102
RTVSPost2010Prop40
 90
        0
102
RTVSPost2010PropOp40
 70
     1
102
RTVSPost2010Prop41ColorIndex
 90
       18
102
RTVSPost2010Prop41ColorRGB
 90
        0
102
RTVSPost2010PropOp41
 70
     1
102
RTVSPost2010Prop42
 90
       50
102
RTVSPost2010PropOp42
 70
     1
102
RTVSPost2010Prop43
 90
        3
102
RTVSPost2010PropOp43
 70
     1
102
RTVSPost2010Prop44ColorIndex
 90
        5
102
RTVSPost2010Prop44ColorRGB
 90
      255
102
RTVSPost2010PropOp44
 70
     1
102
RTVSPost2010Prop45
280
     0
102
RTVSPost2010PropOp45
 70
     1
102
RTVSPost2010Prop46
 90
       50
102
RTVSPost2010PropOp46
 70
     1
102
RTVSPost2010Prop47
 90
       50
102
RTVSPost2010PropOp47
 70
     1
102
RTVSPost2010Prop48
 90
       50
102
RTVSPost2010PropOp48
 70
     1
102
RTVSPost2010Prop49
280
     0
102
RTVSPost2010PropOp49
 70
     1
102
RTVSPost2010Prop50
 90
       50
102
RTVSPost2010PropOp50
 70
     1
102
RTVSPost2010Prop51ColorIndex
 90
      256
102
RTVSPost2010Prop51ColorRGB
 90
-16777216
102
RTVSPost2010PropOp51
 70
     0
102
RTVSPost2010Prop52
140
1.0
102
RTVSPost2010PropOp52
 70
     0
102
RTVSPost2010Prop53
 90
        2
102
RTVSPost2010PropOp53
 70
     1
102
RTVSPost2010Prop54
  1
strokes_ogs.tif
102
RTVSPost2010PropOp54
 70
     1
102
RTVSPost2010Prop55
280
     0
102
RTVSPost2010PropOp55
 70
     1
102
RTVSPost2010Prop56
140
1.0
102
RTVSPost2010PropOp56
 70
     1
102
RTVSPost2010Prop57
140
1.0
102
RTVSPost2010PropOp57
 70
     1
102
RTVSPropertyOp0
 70
     1
102
RTVSPropertyOp1
 70
     1
102
RTVSPropertyOp2
 70
     1
102
RTVSPropertyOp3
 70
     1
102
RTVSPropertyOp4
 70
     1
102
RTVSPropertyOp5
 70
     1
102
RTVSPropertyOp6
 70
     1
102
RTVSPropertyOp7
 70
     1
102
RTVSPropertyOp8
 70
     1
102
RTVSPropertyOp9
 70
     1
102
RTVSPropertyOp10
 70
     1
102
RTVSPropertyOp11
 70
     1
102
RTVSPropertyOp12
 70
     1
102
RTVSPropertyOp13
 70
     1
102
RTVSPropertyOp14
 70
     1
102
RTVSPropertyOp15
 70
     1
102
RTVSPropertyOp16
 70
     1
102
RTVSPropertyOp17
 70
     1
102
RTVSPropertyOp18
 70
     1
102
RTVSPropertyOp19
 70
     1
102
RTVSPropertyOp20
 70
     1
102
RTVSPropertyOp21
 70
     1
102
RTVSPropertyOp22
 70
     1
102
RTVSPropertyOp23
 70
     1
102
RTVSPropertyOp24
 70
     1
102
RTVSPropertyOp25
 70
     1
102
RTVSPropertyOp26
 70
     1
102
RTVSPropertyOp27
 70
     1
102
RTVSPropertyOp28
 70
     1
102
RTVSPropertyOp29
 70
     1
102
RTVSPropertyOp30
 70
     1
102
RTVSPropertyOp31
 70
     1
102
RTVSPropertyOp32
 70
     1
102
RTVSPropertyOp33
 70
     1
102
RTVSPropertyOp34
 70
     1
102
RTVSPropertyOp35
 70
     1
102
RTVSPropertyOp36
 70
     1
102
RTVSPropertyOp37
 70
     1
102
RTVSPropertyOp38
 70
     1
102
RTVSPropertyOp39
 70
     1
102
RTVSPropertyOp40
 70
     1
102
RTVSPropertyOp41
 70
     1
102
RTVSPropertyOp42
 70
     1
102
RTVSPropertyOp43
 70
     1
102
RTVSPropertyOp44
 70
     1
102
RTVSPropertyOp45
 70
     1
102
RTVSPropertyOp46
 70
     1
102
RTVSPropertyOp47
 70
     1
102
RTVSPropertyOp48
 70
     1
102
RTVSPropertyOp49
 70
     1
102
RTVSPropertyOp50
 70
     1
102
RTVSPropertyOp51
 70
     0
102
RTVSPropertyOp52
 70
     0
102
RTVSPropertyOp53
 70
     1
102
RTVSPropertyOp54
 70
     1
102
RTVSPropertyOp55
 70
     1
102
RTVSPropertyOp56
 70
     1
102
RTVSPropertyOp57
 70
     1
102
RTVSPropertyOp58
 70
     1
102
RTVSPropertyOp59
 70
     1
102
RTVSPropertyOp60
 70
     1
102
RTVSPropertyOp61
 70
     1
102
RTVSPropertyOp62
 70
     1
  0
XRECORD
  5
9C8C
102
{ACAD_REACTORS
330
9C8B
102
}
330
9C8B
100
AcDbXrecord
280
     1
102
RTVSPost2010Prop28
280
     0
102
RTVSPost2010PropOp28
 70
     1
102
RTVSPost2010Prop29
280
     1
102
RTVSPost2010PropOp29
 70
     1
102
RTVSPost2010Prop30
280
     1
102
RTVSPost2010PropOp30
 70
     1
102
RTVSPost2010Prop31
280
     0
102
RTVSPost2010PropOp31
 70
     1
102
RTVSPost2010Prop32
280
     0
102
RTVSPost2010PropOp32
 70
     1
102
RTVSPost2010Prop33
280
     0
102
RTVSPost2010PropOp33
 70
     1
102
RTVSPost2010Prop34
280
     0
102
RTVSPost2010PropOp34
 70
     1
102
RTVSPost2010Prop35
280
     0
102
RTVSPost2010PropOp35
 70
     1
102
RTVSPost2010Prop36
280
     0
102
RTVSPost2010PropOp36
 70
     1
102
RTVSPost2010Prop37
 90
       50
102
RTVSPost2010PropOp37
 70
     1
102
RTVSPost2010Prop38
140
0.0
102
RTVSPost2010PropOp38
 70
     1
102
RTVSPost2010Prop39
140
1.0
102
RTVSPost2010PropOp39
 70
     1
102
RTVSPost2010Prop40
 90
        0
102
RTVSPost2010PropOp40
 70
     1
102
RTVSPost2010Prop41ColorIndex
 90
       18
102
RTVSPost2010Prop41ColorRGB
 90
        0
102
RTVSPost2010PropOp41
 70
     1
102
RTVSPost2010Prop42
 90
       50
102
RTVSPost2010PropOp42
 70
     1
102
RTVSPost2010Prop43
 90
        3
102
RTVSPost2010PropOp43
 70
     1
102
RTVSPost2010Prop44ColorIndex
 90
        5
102
RTVSPost2010Prop44ColorRGB
 90
      255
102
RTVSPost2010PropOp44
 70
     1
102
RTVSPost2010Prop45
280
     0
102
RTVSPost2010PropOp45
 70
     1
102
RTVSPost2010Prop46
 90
       50
102
RTVSPost2010PropOp46
 70
     1
102
RTVSPost2010Prop47
 90
       50
102
RTVSPost2010PropOp47
 70
     1
102
RTVSPost2010Prop48
 90
       50
102
RTVSPost2010PropOp48
 70
     1
102
RTVSPost2010Prop49
280
     0
102
RTVSPost2010PropOp49
 70
     1
102
RTVSPost2010Prop50
 90
       50
102
RTVSPost2010PropOp50
 70
     1
102
RTVSPost2010Prop51ColorIndex
 90
      256
102
RTVSPost2010Prop51ColorRGB
 90
-16777216
102
RTVSPost2010PropOp51
 70
     0
102
RTVSPost2010Prop52
140
1.0
102
RTVSPost2010PropOp52
 70
     0
102
RTVSPost2010Prop53
 90
        2
102
RTVSPost2010PropOp53
 70
     1
102
RTVSPost2010Prop54
  1
strokes_ogs.tif
102
RTVSPost2010PropOp54
 70
     1
102
RTVSPost2010Prop55
280
     0
102
RTVSPost2010PropOp55
 70
     1
102
RTVSPost2010Prop56
140
1.0
102
RTVSPost2010PropOp56
 70
     1
102
RTVSPost2010Prop57
140
1.0
102
RTVSPost2010PropOp57
 70
     1
102
RTVSPropertyOp0
 70
     1
102
RTVSPropertyOp1
 70
     1
102
RTVSPropertyOp2
 70
     1
102
RTVSPropertyOp3
 70
     1
102
RTVSPropertyOp4
 70
     1
102
RTVSPropertyOp5
 70
     1
102
RTVSPropertyOp6
 70
     1
102
RTVSPropertyOp7
 70
     1
102
RTVSPropertyOp8
 70
     1
102
RTVSPropertyOp9
 70
     1
102
RTVSPropertyOp10
 70
     1
102
RTVSPropertyOp11
 70
     1
102
RTVSPropertyOp12
 70
     1
102
RTVSPropertyOp13
 70
     1
102
RTVSPropertyOp14
 70
     1
102
RTVSPropertyOp15
 70
     1
102
RTVSPropertyOp16
 70
     1
102
RTVSPropertyOp17
 70
     1
102
RTVSPropertyOp18
 70
     1
102
RTVSPropertyOp19
 70
     1
102
RTVSPropertyOp20
 70
     1
102
RTVSPropertyOp21
 70
     1
102
RTVSPropertyOp22
 70
     1
102
RTVSPropertyOp23
 70
     1
102
RTVSPropertyOp24
 70
     1
102
RTVSPropertyOp25
 70
     1
102
RTVSPropertyOp26
 70
     1
102
RTVSPropertyOp27
 70
     1
102
RTVSPropertyOp28
 70
     1
102
RTVSPropertyOp29
 70
     1
102
RTVSPropertyOp30
 70
     1
102
RTVSPropertyOp31
 70
     1
102
RTVSPropertyOp32
 70
     1
102
RTVSPropertyOp33
 70
     1
102
RTVSPropertyOp34
 70
     1
102
RTVSPropertyOp35
 70
     1
102
RTVSPropertyOp36
 70
     1
102
RTVSPropertyOp37
 70
     1
102
RTVSPropertyOp38
 70
     1
102
RTVSPropertyOp39
 70
     1
102
RTVSPropertyOp40
 70
     1
102
RTVSPropertyOp41
 70
     1
102
RTVSPropertyOp42
 70
     1
102
RTVSPropertyOp43
 70
     1
102
RTVSPropertyOp44
 70
     1
102
RTVSPropertyOp45
 70
     1
102
RTVSPropertyOp46
 70
     1
102
RTVSPropertyOp47
 70
     1
102
RTVSPropertyOp48
 70
     1
102
RTVSPropertyOp49
 70
     1
102
RTVSPropertyOp50
 70
     1
102
RTVSPropertyOp51
 70
     0
102
RTVSPropertyOp52
 70
     0
102
RTVSPropertyOp53
 70
     1
102
RTVSPropertyOp54
 70
     1
102
RTVSPropertyOp55
 70
     1
102
RTVSPropertyOp56
 70
     1
102
RTVSPropertyOp57
 70
     1
102
RTVSPropertyOp58
 70
     1
102
RTVSPropertyOp59
 70
     1
102
RTVSPropertyOp60
 70
     1
102
RTVSPropertyOp61
 70
     1
102
RTVSPropertyOp62
 70
     1
  0
ENDSEC
  0
EOF
