  0
SECTION
  2
HEADER
  9
$ACADVER
  1
AC1015
  9
$ACADMAINTVER
 70
    20
  9
$DWGCODEPAGE
  3
ANSI_932
  9
$INSBASE
 10
0.0
 20
0.0
 30
0.0
  9
$EXTMIN
 10
9.9999975266385
 20
10.0
 30
0.0
  9
$EXTMAX
 10
313.783600862343
 20
234.8514386414856
 30
0.0
  9
$LIMMIN
 10
0.0000015376081137
 20
-0.0000001931532552
  9
$LIMMAX
 10
396.0000015376081
 20
272.9999998068465
  9
$ORTHOMODE
 70
     1
  9
$REGENMODE
 70
     1
  9
$FILLMODE
 70
     1
  9
$QTEXTMODE
 70
     0
  9
$MIRRTEXT
 70
     1
  9
$LTSCALE
 40
0.3
  9
$ATTMODE
 70
     1
  9
$TEXTSIZE
 40
2.5
  9
$TRACEWID
 40
1.0
  9
$TEXTSTYLE
  7
STANDARD
  9
$CLAYER
  8
0
  9
$CELTYPE
  6
BYLAYER
  9
$CECOLOR
 62
   256
  9
$CELTSCALE
 40
1.0
  9
$DISPSILH
 70
     0
  9
$DIMSCALE
 40
1.0
  9
$DIMASZ
 40
3.0
  9
$DIMEXO
 40
1.0
  9
$DIMDLI
 40
10.0
  9
$DIMRND
 40
0.0
  9
$DIMDLE
 40
0.0
  9
$DIMEXE
 40
1.0
  9
$DIMTP
 40
0.0
  9
$DIMTM
 40
0.0
  9
$DIMTXT
 40
3.2
  9
$DIMCEN
 40
0.0
  9
$DIMTSZ
 40
0.0
  9
$DIMTOL
 70
     0
  9
$DIMLIM
 70
     0
  9
$DIMTIH
 70
     0
  9
$DIMTOH
 70
     0
  9
$DIMSE1
 70
     0
  9
$DIMSE2
 70
     0
  9
$DIMTAD
 70
     3
  9
$DIMZIN
 70
     8
  9
$DIMBLK
  1

  9
$DIMASO
 70
     1
  9
$DIMSHO
 70
     1
  9
$DIMPOST
  1

  9
$DIMAPOST
  1

  9
$DIMALT
 70
     0
  9
$DIMALTD
 70
     2
  9
$DIMALTF
 40
25.4
  9
$DIMLFAC
 40
1.0
  9
$DIMTOFL
 70
     1
  9
$DIMTVP
 40
0.0
  9
$DIMTIX
 70
     0
  9
$DIMSOXD
 70
     0
  9
$DIMSAH
 70
     1
  9
$DIMBLK1
  1
OPEN
  9
$DIMBLK2
  1
OPEN
  9
$DIMSTYLE
  2
STANDARD
  9
$DIMCLRD
 70
     0
  9
$DIMCLRE
 70
     0
  9
$DIMCLRT
 70
     0
  9
$DIMTFAC
 40
1.0
  9
$DIMGAP
 40
1.0
  9
$DIMJUST
 70
     0
  9
$DIMSD1
 70
     0
  9
$DIMSD2
 70
     0
  9
$DIMTOLJ
 70
     1
  9
$DIMTZIN
 70
     0
  9
$DIMALTZ
 70
     0
  9
$DIMALTTZ
 70
     0
  9
$DIMUPT
 70
     0
  9
$DIMDEC
 70
     4
  9
$DIMTDEC
 70
     4
  9
$DIMALTU
 70
     2
  9
$DIMALTTD
 70
     2
  9
$DIMTXSTY
  7
STANDARD
  9
$DIMAUNIT
 70
     0
  9
$DIMADEC
 70
     0
  9
$DIMALTRND
 40
0.0
  9
$DIMAZIN
 70
     0
  9
$DIMDSEP
 70
    46
  9
$DIMATFIT
 70
     3
  9
$DIMFRAC
 70
     0
  9
$DIMLDRBLK
  1
OPEN
  9
$DIMLUNIT
 70
     2
  9
$DIMLWD
 70
    -2
  9
$DIMLWE
 70
    -2
  9
$DIMTMOVE
 70
     0
  9
$LUNITS
 70
     2
  9
$LUPREC
 70
     4
  9
$SKETCHINC
 40
1.0
  9
$FILLETRAD
 40
0.0
  9
$AUNITS
 70
     0
  9
$AUPREC
 70
     0
  9
$MENU
  1
.
  9
$ELEVATION
 40
0.0
  9
$PELEVATION
 40
0.0
  9
$THICKNESS
 40
0.0
  9
$LIMCHECK
 70
     0
  9
$CHAMFERA
 40
10.0
  9
$CHAMFERB
 40
10.0
  9
$CHAMFERC
 40
20.0
  9
$CHAMFERD
 40
0.0
  9
$SKPOLY
 70
     0
  9
$TDCREATE
 40
2452944.400348299
  9
$TDUCREATE
 40
2452944.025348299
  9
$TDUPDATE
 40
2457192.601910151
  9
$TDUUPDATE
 40
2457192.226910151
  9
$TDINDWG
 40
0.2419587963
  9
$TDUSRTIMER
 40
0.2419586111
  9
$USRTIMER
 70
     1
  9
$ANGBASE
 50
0.0
  9
$ANGDIR
 70
     0
  9
$PDMODE
 70
     0
  9
$PDSIZE
 40
0.0
  9
$PLINEWID
 40
0.0
  9
$SPLFRAME
 70
     0
  9
$SPLINETYPE
 70
     6
  9
$SPLINESEGS
 70
     8
  9
$HANDSEED
  5
27ED
  9
$SURFTAB1
 70
     6
  9
$SURFTAB2
 70
     6
  9
$SURFTYPE
 70
     6
  9
$SURFU
 70
     6
  9
$SURFV
 70
     6
  9
$UCSBASE
  2

  9
$UCSNAME
  2

  9
$UCSORG
 10
0.0
 20
0.0
 30
0.0
  9
$UCSXDIR
 10
1.0
 20
0.0
 30
0.0
  9
$UCSYDIR
 10
0.0
 20
1.0
 30
0.0
  9
$UCSORTHOREF
  2

  9
$UCSORTHOVIEW
 70
     0
  9
$UCSORGTOP
 10
0.0
 20
0.0
 30
0.0
  9
$UCSORGBOTTOM
 10
0.0
 20
0.0
 30
0.0
  9
$UCSORGLEFT
 10
0.0
 20
0.0
 30
0.0
  9
$UCSORGRIGHT
 10
0.0
 20
0.0
 30
0.0
  9
$UCSORGFRONT
 10
0.0
 20
0.0
 30
0.0
  9
$UCSORGBACK
 10
0.0
 20
0.0
 30
0.0
  9
$PUCSBASE
  2

  9
$PUCSNAME
  2

  9
$PUCSORG
 10
0.0
 20
0.0
 30
0.0
  9
$PUCSXDIR
 10
1.0
 20
0.0
 30
0.0
  9
$PUCSYDIR
 10
0.0
 20
1.0
 30
0.0
  9
$PUCSORTHOREF
  2

  9
$PUCSORTHOVIEW
 70
     0
  9
$PUCSORGTOP
 10
0.0
 20
0.0
 30
0.0
  9
$PUCSORGBOTTOM
 10
0.0
 20
0.0
 30
0.0
  9
$PUCSORGLEFT
 10
0.0
 20
0.0
 30
0.0
  9
$PUCSORGRIGHT
 10
0.0
 20
0.0
 30
0.0
  9
$PUCSORGFRONT
 10
0.0
 20
0.0
 30
0.0
  9
$PUCSORGBACK
 10
0.0
 20
0.0
 30
0.0
  9
$USERI1
 70
     0
  9
$USERI2
 70
     0
  9
$USERI3
 70
     0
  9
$USERI4
 70
     0
  9
$USERI5
 70
     0
  9
$USERR1
 40
0.0
  9
$USERR2
 40
0.0
  9
$USERR3
 40
0.0
  9
$USERR4
 40
0.0
  9
$USERR5
 40
0.0
  9
$WORLDVIEW
 70
     1
  9
$SHADEDGE
 70
     3
  9
$SHADEDIF
 70
    70
  9
$TILEMODE
 70
     1
  9
$MAXACTVP
 70
    48
  9
$PINSBASE
 10
0.0
 20
0.0
 30
0.0
  9
$PLIMCHECK
 70
     0
  9
$PEXTMIN
 10
1.000000000000000E+20
 20
1.000000000000000E+20
 30
1.000000000000000E+20
  9
$PEXTMAX
 10
-1.000000000000000E+20
 20
-1.000000000000000E+20
 30
-1.000000000000000E+20
  9
$PLIMMIN
 10
0.0
 20
0.0
  9
$PLIMMAX
 10
420.0
 20
297.0
  9
$UNITMODE
 70
     0
  9
$VISRETAIN
 70
     1
  9
$PLINEGEN
 70
     0
  9
$PSLTSCALE
 70
     1
  9
$TREEDEPTH
 70
  3020
  9
$CMLSTYLE
  2
STANDARD
  9
$CMLJUST
 70
     0
  9
$CMLSCALE
 40
20.0
  9
$PROXYGRAPHICS
 70
     1
  9
$MEASUREMENT
 70
     0
  9
$CELWEIGHT
370
    -1
  9
$ENDCAPS
280
     0
  9
$JOINSTYLE
280
     0
  9
$LWDISPLAY
290
     0
  9
$INSUNITS
 70
     0
  9
$HYPERLINKBASE
  1

  9
$STYLESHEET
  1

  9
$XEDIT
290
     1
  9
$CEPSNTYPE
380
     0
  9
$PSTYLEMODE
290
     1
  9
$FINGERPRINTGUID
  2
{1E66CC3A-97B1-4040-80A6-56BAC9402742}
  9
$VERSIONGUID
  2
{20D9F7EB-3A42-4011-868E-C7F32CA82F2A}
  9
$EXTNAMES
290
     1
  9
$PSVPSCALE
 40
0.0
  9
$OLESTARTUP
290
     0
  0
ENDSEC
  0
SECTION
  2
CLASSES
  0
CLASS
  1
ACDBDICTIONARYWDFLT
  2
AcDbDictionaryWithDefault
  3
ObjectDBX Classes
 90
        0
280
     0
281
     0
  0
CLASS
  1
ACDBPLACEHOLDER
  2
AcDbPlaceHolder
  3
ObjectDBX Classes
 90
        0
280
     0
281
     0
  0
CLASS
  1
LAYOUT
  2
AcDbLayout
  3
ObjectDBX Classes
 90
        0
280
     0
281
     0
  0
CLASS
  1
DICTIONARYVAR
  2
AcDbDictionaryVar
  3
ObjectDBX Classes
 90
        0
280
     0
281
     0
  0
CLASS
  1
MATERIAL
  2
AcDbMaterial
  3
ObjectDBX Classes
 90
     1153
280
     0
281
     0
  0
CLASS
  1
VISUALSTYLE
  2
AcDbVisualStyle
  3
ObjectDBX Classes
 90
     4095
280
     0
281
     0
  0
CLASS
  1
TABLESTYLE
  2
AcDbTableStyle
  3
ObjectDBX Classes
 90
     4095
280
     0
281
     0
  0
CLASS
  1
SCALE
  2
AcDbScale
  3
ObjectDBX Classes
 90
     1153
280
     0
281
     0
  0
CLASS
  1
MLEADERSTYLE
  2
AcDbMLeaderStyle
  3
ACDB_MLEADERSTYLE_CLASS
 90
     4095
280
     0
281
     0
  0
CLASS
  1
ACDBSECTIONVIEWSTYLE
  2
AcDbSectionViewStyle
  3
ObjectDBX Classes
 90
     1025
280
     0
281
     0
  0
CLASS
  1
ACDBDETAILVIEWSTYLE
  2
AcDbDetailViewStyle
  3
ObjectDBX Classes
 90
     1025
280
     0
281
     0
  0
CLASS
  1
CELLSTYLEMAP
  2
AcDbCellStyleMap
  3
ObjectDBX Classes
 90
     1152
280
     0
281
     0
  0
ENDSEC
  0
SECTION
  2
TABLES
  0
TABLE
  2
VPORT
  5
8
330
0
100
AcDbSymbolTable
 70
     1
  0
VPORT
  5
2739
330
8
100
AcDbSymbolTableRecord
100
AcDbViewportTableRecord
  2
*ACTIVE
 70
     0
 10
0.0
 20
0.0
 11
1.0
 21
1.0
 12
254.4518517756821
 22
122.4305195300992
 13
0.0
 23
0.0
 14
10.0
 24
10.0
 15
10.0
 25
10.0
 16
0.0
 26
0.0
 36
1.0
 17
0.0
 27
0.0
 37
0.0
 40
226.6316195986052
 41
1.899603698811096
 42
50.0
 43
0.0
 44
0.0
 50
0.0
 51
0.0
 71
     0
 72
   100
 73
     1
 74
     0
 75
     0
 76
     0
 77
     0
 78
     0
281
     0
 65
     1
110
0.0
120
0.0
130
0.0
111
1.0
121
0.0
131
0.0
112
0.0
122
1.0
132
0.0
 79
     0
146
0.0
1001
ACAD_NAV_VCDISPLAY
1070
     3
  0
ENDTAB
  0
TABLE
  2
LTYPE
  5
5
330
0
100
AcDbSymbolTable
 70
     4
  0
LTYPE
  5
12
330
5
100
AcDbSymbolTableRecord
100
AcDbLinetypeTableRecord
  2
BYBLOCK
 70
     0
  3

 72
    65
 73
     0
 40
0.0
  0
LTYPE
  5
13
330
5
100
AcDbSymbolTableRecord
100
AcDbLinetypeTableRecord
  2
BYLAYER
 70
     0
  3

 72
    65
 73
     0
 40
0.0
  0
LTYPE
  5
14
330
5
100
AcDbSymbolTableRecord
100
AcDbLinetypeTableRecord
  2
CONTINUOUS
 70
     0
  3
Solid line
 72
    65
 73
     0
 40
0.0
  0
LTYPE
  5
4B
330
5
100
AcDbSymbolTableRecord
100
AcDbLinetypeTableRecord
  2
DASHED
 70
     0
  3
Dashed __ __ __ __ __ __ __ __ __ __ __ __ __ _
 72
    65
 73
     2
 40
19.04999999999998
 49
12.7
 74
     0
 49
-6.349999999999997
 74
     0
  0
LTYPE
  5
4C
330
5
100
AcDbSymbolTableRecord
100
AcDbLinetypeTableRecord
  2
CENTER
 70
     0
  3
Center ____ _ ____ _ ____ _ ____ _ ____ _ ____
 72
    65
 73
     4
 40
50.8
 49
31.75
 74
     0
 49
-6.349999999999997
 74
     0
 49
6.349999999999997
 74
     0
 49
-6.349999999999997
 74
     0
  0
LTYPE
  5
4D
330
5
100
AcDbSymbolTableRecord
100
AcDbLinetypeTableRecord
  2
PHANTOM
 70
     0
  3
Phantom ______  __  __  ______  __  __  ______
 72
    65
 73
     6
 40
63.5
 49
31.75
 74
     0
 49
-6.349999999999997
 74
     0
 49
6.349999999999997
 74
     0
 49
-6.349999999999997
 74
     0
 49
6.349999999999997
 74
     0
 49
-6.349999999999997
 74
     0
  0
ENDTAB
  0
TABLE
  2
LAYER
  5
2
330
0
100
AcDbSymbolTable
 70
     8
  0
LAYER
  5
E
102
{ACAD_XDICTIONARY
360
2791
102
}
330
2
100
AcDbSymbolTableRecord
100
AcDbLayerTableRecord
  2
0
 70
     0
 62
     7
  6
CONTINUOUS
370
    -3
390
2740
  0
LAYER
  5
4E
102
{ACAD_XDICTIONARY
360
2793
102
}
330
2
100
AcDbSymbolTableRecord
100
AcDbLayerTableRecord
  2
4
 70
     0
 62
     1
  6
CENTER
370
    -3
390
2740
  0
LAYER
  5
4F
102
{ACAD_XDICTIONARY
360
2795
102
}
330
2
100
AcDbSymbolTableRecord
100
AcDbLayerTableRecord
  2
5
 70
     0
 62
     6
  6
PHANTOM
370
    -3
390
2740
  0
LAYER
  5
50
102
{ACAD_XDICTIONARY
360
2797
102
}
330
2
100
AcDbSymbolTableRecord
100
AcDbLayerTableRecord
  2
1
 70
     0
 62
     7
  6
CONTINUOUS
370
    -3
390
2740
  0
LAYER
  5
51
102
{ACAD_XDICTIONARY
360
2799
102
}
330
2
100
AcDbSymbolTableRecord
100
AcDbLayerTableRecord
  2
2
 70
     0
 62
     4
  6
CONTINUOUS
370
    -3
390
2740
  0
LAYER
  5
52
102
{ACAD_XDICTIONARY
360
279B
102
}
330
2
100
AcDbSymbolTableRecord
100
AcDbLayerTableRecord
  2
3
 70
     0
 62
     2
  6
DASHED
370
    -3
390
2740
  0
LAYER
  5
53
102
{ACAD_XDICTIONARY
360
279D
102
}
330
2
100
AcDbSymbolTableRecord
100
AcDbLayerTableRecord
  2
6
 70
     0
 62
     5
  6
CONTINUOUS
370
    -3
390
2740
  0
LAYER
  5
54
102
{ACAD_XDICTIONARY
360
279F
102
}
330
2
100
AcDbSymbolTableRecord
100
AcDbLayerTableRecord
  2
7
 70
     0
 62
     3
  6
CONTINUOUS
370
    -3
390
2740
  0
ENDTAB
  0
TABLE
  2
STYLE
  5
3
330
0
100
AcDbSymbolTable
 70
     1
  0
STYLE
  5
F
330
3
100
AcDbSymbolTableRecord
100
AcDbTextStyleTableRecord
  2
STANDARD
 70
     0
 40
0.0
 41
1.0
 50
0.0
 71
     0
 42
2.5
  3
simplex.shx
  4

  0
ENDTAB
  0
TABLE
  2
VIEW
  5
6
330
0
100
AcDbSymbolTable
 70
     0
  0
ENDTAB
  0
TABLE
  2
UCS
  5
7
330
0
100
AcDbSymbolTable
 70
     0
  0
ENDTAB
  0
TABLE
  2
APPID
  5
9
330
0
100
AcDbSymbolTable
 70
     5
  0
APPID
  5
10
330
9
100
AcDbSymbolTableRecord
100
AcDbRegAppTableRecord
  2
ACAD
 70
     0
  0
APPID
  5
3E
330
9
100
AcDbSymbolTableRecord
100
AcDbRegAppTableRecord
  2
CONTENTTABDATA
 70
     0
  0
APPID
  5
3F
330
9
100
AcDbSymbolTableRecord
100
AcDbRegAppTableRecord
  2
CONTENTCURRENTTAB
 70
     0
  0
APPID
  5
27AB
330
9
100
AcDbSymbolTableRecord
100
AcDbRegAppTableRecord
  2
ACAD_NAV_VCDISPLAY
 70
     0
  0
APPID
  5
27E4
330
9
100
AcDbSymbolTableRecord
100
AcDbRegAppTableRecord
  2
ACAD_MLEADERVER
 70
     0
  0
ENDTAB
  0
TABLE
  2
DIMSTYLE
  5
A
330
0
100
AcDbSymbolTable
 70
     1
100
AcDbDimStyleTable
 71
     0
  0
DIMSTYLE
105
1D
330
A
100
AcDbSymbolTableRecord
100
AcDbDimStyleTableRecord
  2
STANDARD
 70
     0
 41
3.0
 42
1.0
 43
10.0
 44
1.0
 73
     0
 74
     0
 77
     3
 78
     8
140
3.2
141
0.0
147
1.0
172
     1
173
     1
340
F
341
2E
343
2E
344
2E
  0
ENDTAB
  0
TABLE
  2
BLOCK_RECORD
  5
1
330
0
100
AcDbSymbolTable
 70
     1
  0
BLOCK_RECORD
  5
18
102
{ACAD_XDICTIONARY
360
25E4
102
}
330
1
100
AcDbSymbolTableRecord
100
AcDbBlockTableRecord
  2
*MODEL_SPACE
340
278E
  0
BLOCK_RECORD
  5
15
102
{ACAD_XDICTIONARY
360
25E2
102
}
330
1
100
AcDbSymbolTableRecord
100
AcDbBlockTableRecord
  2
*PAPER_SPACE
340
278F
  0
BLOCK_RECORD
  5
2E
330
1
100
AcDbSymbolTableRecord
100
AcDbBlockTableRecord
  2
_OPEN
340
0
  0
ENDTAB
  0
ENDSEC
  0
SECTION
  2
BLOCKS
  0
BLOCK
  5
19
330
18
100
AcDbEntity
  8
0
100
AcDbBlockBegin
  2
*MODEL_SPACE
 70
     0
 10
0.0
 20
0.0
 30
0.0
  3
*MODEL_SPACE
  1

  0
ENDBLK
  5
1A
330
18
100
AcDbEntity
  8
0
100
AcDbBlockEnd
  0
BLOCK
  5
16
330
15
100
AcDbEntity
 67
     1
  8
0
100
AcDbBlockBegin
  2
*PAPER_SPACE
 70
     0
 10
0.0
 20
0.0
 30
0.0
  3
*PAPER_SPACE
  1

  0
ENDBLK
  5
17
330
15
100
AcDbEntity
 67
     1
  8
0
100
AcDbBlockEnd
  0
BLOCK
  5
2F
330
2E
100
AcDbEntity
  8
0
100
AcDbBlockBegin
  2
_OPEN
 70
     0
 10
0.0
 20
0.0
 30
0.0
  3
_OPEN
  1

  0
LINE
  5
30
330
2E
100
AcDbEntity
  8
0
  6
ByBlock
 62
     0
100
AcDbLine
 10
-1.0
 20
0.1666666666666666
 30
0.0
 11
0.0
 21
0.0
 31
0.0
  0
LINE
  5
31
330
2E
100
AcDbEntity
  8
0
  6
ByBlock
 62
     0
100
AcDbLine
 10
0.0
 20
0.0
 30
0.0
 11
-1.0
 21
-0.1666666666666666
 31
0.0
  0
LINE
  5
32
330
2E
100
AcDbEntity
  8
0
  6
ByBlock
 62
     0
100
AcDbLine
 10
0.0
 20
0.0
 30
0.0
 11
-1.0
 21
0.0
 31
0.0
  0
ENDBLK
  5
33
330
2E
100
AcDbEntity
  8
0
100
AcDbBlockEnd
  0
ENDSEC
  0
SECTION
  2
ENTITIES
  0
TEXT
  5
63
330
18
100
AcDbEntity
  8
4
  6
CENTER
 48
0.25
100
AcDbText
 10
23.97950852663849
 20
10.0
 30
0.0
 40
1.399999999999999
  1
4
100
AcDbText
  0
TEXT
  5
64
330
18
100
AcDbEntity
  8
7
  6
Continuous
 48
0.25
100
AcDbText
 10
9.999997526638502
 20
26.0000007607689
 30
0.0
 40
3.0
  1
CODE No.1980
100
AcDbText
  0
TEXT
  5
65
330
18
100
AcDbEntity
  8
7
  6
Continuous
 48
0.25
100
AcDbText
 10
9.999997526638502
 20
18.00000076076889
 30
0.0
 40
3.0
  1
TYPE No.TL-337
100
AcDbText
  0
TEXT
  5
66
330
18
100
AcDbEntity
  8
1
  6
Continuous
 48
0.25
100
AcDbText
 10
9.999997526638502
 20
10.00000076076889
 30
0.0
 40
1.399999999999999
  1
LAYER
100
AcDbText
  0
TEXT
  5
67
330
18
100
AcDbEntity
  8
2
  6
Continuous
 48
0.25
100
AcDbText
 10
19.9795085266385
 20
10.0
 30
0.0
 40
1.399999999999999
  1
2
100
AcDbText
  0
TEXT
  5
68
330
18
100
AcDbEntity
  8
3
  6
DASHED
 48
0.25
100
AcDbText
 10
21.97950852663849
 20
10.0
 30
0.0
 40
1.399999999999999
  1
3
100
AcDbText
  0
TEXT
  5
69
330
18
100
AcDbEntity
  8
1
  6
Continuous
 48
0.25
100
AcDbText
 10
17.9795085266385
 20
10.0
 30
0.0
 40
1.399999999999999
  1
1
100
AcDbText
  0
TEXT
  5
6A
330
18
100
AcDbEntity
  8
5
  6
PHANTOM
 48
0.25
100
AcDbText
 10
25.97950852663849
 20
10.0
 30
0.0
 40
1.399999999999999
  1
5
100
AcDbText
  0
TEXT
  5
6B
330
18
100
AcDbEntity
  8
6
  6
Continuous
 48
0.25
100
AcDbText
 10
27.97950852663849
 20
10.0
 30
0.0
 40
1.399999999999999
  1
6
100
AcDbText
  0
TEXT
  5
6C
330
18
100
AcDbEntity
  8
7
  6
Continuous
 48
0.25
100
AcDbText
 10
29.9795085266385
 20
10.0
 30
0.0
 40
1.399999999999999
  1
7
100
AcDbText
  0
ARC
  5
763
330
18
100
AcDbEntity
  8
1
  6
Continuous
100
AcDbCircle
 10
230.4999612475693
 20
217.1014387562514
 30
0.0
 40
7.812499366452697
100
AcDbArc
 50
159.3903062176774
 51
200.609694174809
  0
ARC
  5
764
330
18
100
AcDbEntity
  8
1
  6
Continuous
100
AcDbCircle
 10
230.499961733949
 20
222.60143864106
 30
0.0
 40
7.812499862251119
100
AcDbArc
 50
159.3903066825461
 51
200.6096933174522
  0
ARC
  5
768
330
18
100
AcDbEntity
  8
1
  6
Continuous
100
AcDbCircle
 10
184.2299480785154
 20
225.3514386410378
 30
0.0
 40
15.62500000000124
100
AcDbArc
 50
339.3903070624693
 51
20.6096929375306
  0
LINE
  5
769
330
18
100
AcDbEntity
  8
1
  6
Continuous
100
AcDbLine
 10
222.6874618811168
 20
223.0268650215871
 30
0.0
 11
222.6874618811168
 21
216.6760122605331
 31
0.0
  0
LINE
  5
76D
330
18
100
AcDbEntity
  8
1
  6
Continuous
100
AcDbLine
 10
196.3549480785168
 20
230.8514386410347
 30
0.0
 11
196.3549480785165
 21
208.8514386410349
 31
0.0
  0
LINE
  5
76E
330
18
100
AcDbEntity
  8
1
  6
Continuous
100
AcDbLine
 10
199.8549480785167
 20
225.3514386410378
 30
0.0
 11
199.8549480785167
 21
214.3514386410318
 31
0.0
  0
ARC
  5
771
330
18
100
AcDbEntity
  8
1
  6
Continuous
100
AcDbCircle
 10
184.2299480785154
 20
214.3514386410318
 30
0.0
 40
15.62500000000124
100
AcDbArc
 50
339.3903070624693
 51
20.6096929375306
  0
LINE
  5
772
330
18
100
AcDbEntity
  8
1
  6
Continuous
100
AcDbLine
 10
196.3549480785165
 20
208.8514386410349
 30
0.0
 11
198.8549480785163
 21
208.8514386410319
 31
0.0
  0
LINE
  5
773
330
18
100
AcDbEntity
  8
1
  6
Continuous
100
AcDbLine
 10
196.3549480785165
 20
219.8514386410348
 30
0.0
 11
198.8549480785166
 21
219.8514386410348
 31
0.0
  0
LINE
  5
78C
330
18
100
AcDbEntity
  8
1
  6
Continuous
100
AcDbLine
 10
196.3549480785165
 20
230.8514386410347
 30
0.0
 11
198.8549480785163
 21
230.8514386410378
 31
0.0
  0
ARC
  5
795
330
18
100
AcDbEntity
  8
1
  6
Continuous
100
AcDbCircle
 10
219.0749620094468
 20
222.6014385909683
 30
0.0
 40
7.812499862251119
100
AcDbArc
 50
339.3903070750341
 51
20.60969370993871
  0
LINE
  5
796
330
18
100
AcDbEntity
  8
1
  6
Continuous
100
AcDbLine
 10
226.8874618811169
 20
223.0268650215871
 30
0.0
 11
226.8874618811169
 21
216.6760122605331
 31
0.0
  0
LINE
  5
798
330
18
100
AcDbEntity
  8
1
  6
Continuous
100
AcDbLine
 10
226.3874618811168
 20
214.3514386410506
 30
0.0
 11
223.1874618811168
 21
214.3514386410506
 31
0.0
  0
ARC
  5
799
330
18
100
AcDbEntity
  8
1
  6
Continuous
100
AcDbCircle
 10
219.074962514664
 20
217.1014387562514
 30
0.0
 40
7.812499366452763
100
AcDbArc
 50
339.3903058251908
 51
20.60969378232252
  0
LINE
  5
79A
330
18
100
AcDbEntity
  8
1
  6
Continuous
100
AcDbLine
 10
226.3874618811168
 20
219.8514386410606
 30
0.0
 11
223.1874618811168
 21
219.8514386410606
 31
0.0
  0
LINE
  5
79B
330
18
100
AcDbEntity
  8
1
  6
Continuous
100
AcDbLine
 10
226.3874618811168
 20
225.3514386410606
 30
0.0
 11
223.1874618811168
 21
225.3514386410606
 31
0.0
  0
LINE
  5
1797
330
18
100
AcDbEntity
  8
4
  6
CENTER
100
AcDbLine
 10
21.44241631399518
 20
145.8891354553404
 30
0.0
 11
55.44241681411313
 21
145.8891354553404
 31
0.0
  0
CIRCLE
  5
1798
330
18
100
AcDbEntity
  8
1
  6
Continuous
100
AcDbCircle
 10
38.44241631399518
 20
145.8891354553404
 30
0.0
 40
11.0
  0
CIRCLE
  5
1799
330
18
100
AcDbEntity
  8
1
  6
Continuous
100
AcDbCircle
 10
38.44241631399518
 20
145.8891354553404
 30
0.0
 40
12.0
  0
CIRCLE
  5
179A
330
18
100
AcDbEntity
  8
1
  6
Continuous
100
AcDbCircle
 10
38.44241631399518
 20
145.8891354553404
 30
0.0
 40
15.0
  0
LINE
  5
179B
330
18
100
AcDbEntity
  8
1
  6
Continuous
100
AcDbLine
 10
44.14241631399522
 20
144.6391354553405
 30
0.0
 11
32.74241631399519
 21
144.6391354553405
 31
0.0
  0
LINE
  5
179C
330
18
100
AcDbEntity
  8
1
  6
Continuous
100
AcDbLine
 10
37.09241631399516
 20
144.8118474553405
 30
0.0
 11
44.34491159692899
 21
144.8118474553405
 31
0.0
  0
LINE
  5
179D
330
18
100
AcDbEntity
  8
1
  6
Continuous
100
AcDbLine
 10
44.34491159692899
 20
146.9664234553405
 30
0.0
 11
37.09241631399516
 21
146.9664234553405
 31
0.0
  0
LINE
  5
179E
330
18
100
AcDbEntity
  8
1
  6
Continuous
100
AcDbLine
 10
32.74241631399519
 20
147.1391354553404
 30
0.0
 11
44.14241631399522
 21
147.1391354553404
 31
0.0
  0
CIRCLE
  5
179F
330
18
100
AcDbEntity
  8
1
  6
Continuous
100
AcDbCircle
 10
38.44241631399518
 20
145.8891354553404
 30
0.0
 40
6.0
  0
ARC
  5
17A0
330
18
100
AcDbEntity
  8
1
  6
Continuous
100
AcDbCircle
 10
38.44241631399518
 20
145.8891354553404
 30
0.0
 40
4.7
100
AcDbArc
 50
195.4238519999993
 51
344.5761480000006
  0
ARC
  5
17A1
330
18
100
AcDbEntity
  8
1
  6
Continuous
100
AcDbCircle
 10
38.44241631399518
 20
145.8891354553404
 30
0.0
 40
4.7
100
AcDbArc
 50
15.42385199999944
 51
164.5761480000005
  0
LINE
  5
17A2
330
18
100
AcDbEntity
  8
4
  6
CENTER
100
AcDbLine
 10
38.44241681411313
 20
128.8891354553404
 30
0.0
 11
38.44241681411313
 21
162.8891354553406
 31
0.0
  0
ARC
  5
17A3
330
18
100
AcDbEntity
  8
1
  6
Continuous
100
AcDbCircle
 10
38.44241631399518
 20
145.8891354553404
 30
0.0
 40
5.835452
100
AcDbArc
 50
167.6309379999986
 51
192.3690620000012
  0
LINE
  5
17A4
330
18
100
AcDbEntity
  8
1
  6
Continuous
100
AcDbLine
 10
37.09241631399516
 20
146.9664234553405
 30
0.0
 11
37.09241631399516
 21
144.8118474553405
 31
0.0
  0
LINE
  5
17A5
330
18
100
AcDbEntity
  8
1
  6
Continuous
100
AcDbLine
 10
40.79941631399514
 20
146.9391354553405
 30
0.0
 11
40.79941631399514
 21
144.8391354553405
 31
0.0
  0
LINE
  5
17A6
330
18
100
AcDbEntity
  8
1
  6
Continuous
100
AcDbLine
 10
44.14241631399522
 20
144.8118474553405
 30
0.0
 11
44.14241631399522
 21
144.6391354553405
 31
0.0
  0
LINE
  5
17A7
330
18
100
AcDbEntity
  8
1
  6
Continuous
100
AcDbLine
 10
44.14241631399522
 20
147.1391354553404
 30
0.0
 11
44.14241631399522
 21
146.9664234553405
 31
0.0
  0
LINE
  5
17AD
330
18
100
AcDbEntity
  8
2
  6
Continuous
100
AcDbLine
 10
144.1768285242456
 20
141.5127729557105
 30
0.0
 11
128.6768285242456
 21
150.6917444781671
 31
0.0
  0
LINE
  5
17B0
330
18
100
AcDbEntity
  8
4
  6
CENTER
100
AcDbLine
 10
116.9128976757814
 20
145.8891354552593
 30
0.0
 11
157.862831040141
 21
145.8891354552138
 31
0.0
  0
LINE
  5
17B1
330
18
100
AcDbEntity
  8
1
  6
Continuous
100
AcDbLine
 10
128.6768285242456
 20
151.1654979557104
 30
0.0
 11
142.5768285242456
 21
151.1654979557104
 31
0.0
  0
LINE
  5
17B2
330
18
100
AcDbEntity
  8
1
  6
Continuous
100
AcDbLine
 10
142.5768285251555
 20
140.6127729557104
 30
0.0
 11
128.6768285242456
 21
140.6127729557104
 31
0.0
  0
LINE
  5
17B3
330
18
100
AcDbEntity
  8
2
  6
Continuous
100
AcDbLine
 10
143.2183285247105
 20
154.8476354552454
 30
0.0
 11
129.4183285247104
 21
154.8476354552454
 31
0.0
  0
LINE
  5
17B4
330
18
100
AcDbEntity
  8
2
  6
Continuous
100
AcDbLine
 10
128.6768285242456
 20
141.0865264332535
 30
0.0
 11
144.1768285242454
 21
150.2654979557104
 31
0.0
  0
LINE
  5
17B6
330
18
100
AcDbEntity
  8
1
  6
Continuous
100
AcDbLine
 10
128.8768285242455
 20
155.3891354557103
 30
0.0
 11
142.6768285242454
 21
155.3891354557103
 31
0.0
  0
LINE
  5
17B7
330
18
100
AcDbEntity
  8
1
  6
Continuous
100
AcDbLine
 10
142.6768285251556
 20
136.3891354557104
 30
0.0
 11
128.8768285242455
 21
136.3891354557104
 31
0.0
  0
LINE
  5
17B9
330
18
100
AcDbEntity
  8
1
  6
Continuous
100
AcDbLine
 10
128.6768285242456
 20
130.8891354557104
 30
0.0
 11
128.6768285242456
 21
160.8891354557103
 31
0.0
  0
LINE
  5
17BA
330
18
100
AcDbEntity
  8
1
  6
Continuous
100
AcDbLine
 10
120.4768285242455
 20
133.8891354557103
 30
0.0
 11
120.4768285242455
 21
157.8891354557104
 31
0.0
  0
LINE
  5
17BB
330
18
100
AcDbEntity
  8
1
  6
Continuous
100
AcDbLine
 10
119.1768285242456
 20
150.5891354557104
 30
0.0
 11
119.1768285242456
 21
147.1391354557104
 31
0.0
  0
LINE
  5
17BF
330
18
100
AcDbEntity
  8
1
  6
Continuous
100
AcDbLine
 10
127.6768285242456
 20
130.8891354557104
 30
0.0
 11
120.4768285242455
 21
133.8891354557103
 31
0.0
  0
LINE
  5
17C0
330
18
100
AcDbEntity
  8
1
  6
Continuous
100
AcDbLine
 10
119.1768285242456
 20
141.1891354557104
 30
0.0
 11
119.1768285242456
 21
144.6391354557104
 31
0.0
  0
LINE
  5
17C1
330
18
100
AcDbEntity
  8
1
  6
Continuous
100
AcDbLine
 10
120.4768285242455
 20
139.8891354557104
 30
0.0
 11
119.1768285242456
 21
141.1891354557104
 31
0.0
  0
LINE
  5
17C2
330
18
100
AcDbEntity
  8
1
  6
Continuous
100
AcDbLine
 10
119.1768285242456
 20
147.1391354557104
 30
0.0
 11
120.4768285242455
 21
147.1391354557104
 31
0.0
  0
LINE
  5
17C3
330
18
100
AcDbEntity
  8
1
  6
Continuous
100
AcDbLine
 10
120.1768285242456
 20
144.6391354557104
 30
0.0
 11
120.1768285242456
 21
147.1391354557104
 31
0.0
  0
LINE
  5
17C4
330
18
100
AcDbEntity
  8
1
  6
Continuous
100
AcDbLine
 10
119.1768285242456
 20
144.6391354557104
 30
0.0
 11
120.4768285242455
 21
144.6391354557104
 31
0.0
  0
LINE
  5
17C5
330
18
100
AcDbEntity
  8
1
  6
Continuous
100
AcDbLine
 10
128.8768285242455
 20
140.6127729557104
 30
0.0
 11
128.8768285242455
 21
135.8891354557103
 31
0.0
  0
LINE
  5
17C7
330
18
100
AcDbEntity
  8
1
  6
Continuous
100
AcDbLine
 10
129.4183285238003
 20
140.6127729557104
 30
0.0
 11
129.4183285238003
 21
136.3891354557104
 31
0.0
  0
LINE
  5
17CA
330
18
100
AcDbEntity
  8
1
  6
Continuous
100
AcDbLine
 10
128.6768285242456
 20
130.8891354557104
 30
0.0
 11
127.6768285242456
 21
130.8891354557104
 31
0.0
  0
LINE
  5
17CB
330
18
100
AcDbEntity
  8
1
  6
Continuous
100
AcDbLine
 10
128.8768285242455
 20
135.8891354557103
 30
0.0
 11
128.6768285242456
 21
135.8891354557103
 31
0.0
  0
LINE
  5
17D5
330
18
100
AcDbEntity
  8
1
  6
Continuous
100
AcDbLine
 10
120.4768285242455
 20
157.8891354557104
 30
0.0
 11
127.6768285242456
 21
160.8891354557103
 31
0.0
  0
LINE
  5
17D6
330
18
100
AcDbEntity
  8
1
  6
Continuous
100
AcDbLine
 10
120.4768285242455
 20
151.8891354557105
 30
0.0
 11
119.1768285242456
 21
150.5891354557104
 31
0.0
  0
LINE
  5
17D9
330
18
100
AcDbEntity
  8
2
  6
Continuous
100
AcDbLine
 10
129.4183285247104
 20
154.8476354552454
 30
0.0
 11
128.8768285242455
 21
155.3891354557103
 31
0.0
  0
LINE
  5
17DB
330
18
100
AcDbEntity
  8
1
  6
Continuous
100
AcDbLine
 10
128.8768285242455
 20
155.8891354557104
 30
0.0
 11
128.8768285242455
 21
151.1654979557104
 31
0.0
  0
LINE
  5
17DC
330
18
100
AcDbEntity
  8
1
  6
Continuous
100
AcDbLine
 10
128.6768285242456
 20
155.8891354557104
 30
0.0
 11
128.8768285242455
 21
155.8891354557104
 31
0.0
  0
LINE
  5
17DD
330
18
100
AcDbEntity
  8
1
  6
Continuous
100
AcDbLine
 10
129.4183285247104
 20
155.3891354557103
 30
0.0
 11
129.4183285247104
 21
151.1654979557104
 31
0.0
  0
LINE
  5
17E2
330
18
100
AcDbEntity
  8
1
  6
Continuous
100
AcDbLine
 10
127.6768285242456
 20
160.8891354557103
 30
0.0
 11
128.6768285242456
 21
160.8891354557103
 31
0.0
  0
LINE
  5
17E3
330
18
100
AcDbEntity
  8
1
  6
Continuous
100
AcDbLine
 10
144.1768285242456
 20
138.2670694557104
 30
0.0
 11
144.1768285242456
 21
154.5891354557104
 31
0.0
  0
LINE
  5
17E4
330
18
100
AcDbEntity
  8
1
  6
Continuous
100
AcDbLine
 10
155.6768285242454
 20
148.1162409557104
 30
0.0
 11
155.6768285242454
 21
149.3891354557104
 31
0.0
  0
LINE
  5
17E6
330
18
100
AcDbEntity
  8
1
  6
Continuous
100
AcDbLine
 10
144.6768285242454
 20
139.6890004557104
 30
0.0
 11
144.6768285242454
 21
153.6041504557104
 31
0.0
  0
LINE
  5
17E7
330
18
100
AcDbEntity
  8
1
  6
Continuous
100
AcDbLine
 10
146.2768285242455
 20
153.6041504557104
 30
0.0
 11
146.2768285242455
 21
138.3853489557104
 31
0.0
  0
LINE
  5
17EF
330
18
100
AcDbEntity
  8
1
  6
Continuous
100
AcDbLine
 10
156.1768285242455
 20
142.8891354557103
 30
0.0
 11
156.1768285242455
 21
148.8891354557105
 31
0.0
  0
LINE
  5
17F0
330
18
100
AcDbEntity
  8
1
  6
Continuous
100
AcDbLine
 10
146.2768285242455
 20
143.6620294557104
 30
0.0
 11
156.1768285242455
 21
143.6620294557104
 31
0.0
  0
LINE
  5
17F1
330
18
100
AcDbEntity
  8
1
  6
Continuous
100
AcDbLine
 10
156.1768285242455
 20
148.1162409557104
 30
0.0
 11
146.2768285242455
 21
148.1162409557104
 31
0.0
  0
LINE
  5
17F2
330
18
100
AcDbEntity
  8
1
  6
Continuous
100
AcDbLine
 10
156.1768285242455
 20
144.6391354557104
 30
0.0
 11
146.2768285242455
 21
144.6391354557104
 31
0.0
  0
LINE
  5
17F3
330
18
100
AcDbEntity
  8
1
  6
Continuous
100
AcDbLine
 10
146.2768285242455
 20
147.1391354557104
 30
0.0
 11
156.1768285242455
 21
147.1391354557104
 31
0.0
  0
LINE
  5
17F4
330
18
100
AcDbEntity
  8
2
  6
Continuous
100
AcDbLine
 10
146.2768285242455
 20
143.6620294557104
 30
0.0
 11
148.4704962474776
 21
144.6391354557104
 31
0.0
  0
LINE
  5
17F5
330
18
100
AcDbEntity
  8
2
  6
Continuous
100
AcDbLine
 10
156.1768285242455
 20
143.6620294557104
 30
0.0
 11
153.9831608010133
 21
144.6391354557104
 31
0.0
  0
LINE
  5
17F7
330
18
100
AcDbEntity
  8
1
  6
Continuous
100
AcDbLine
 10
146.2768285242455
 20
142.3891354557104
 30
0.0
 11
155.6768285242454
 21
142.3891354557104
 31
0.0
  0
LINE
  5
17FA
330
18
100
AcDbEntity
  8
1
  6
Continuous
100
AcDbLine
 10
145.9768285242455
 20
138.2670694557104
 30
0.0
 11
144.1768285242456
 21
138.2670694557104
 31
0.0
  0
LINE
  5
17FB
330
18
100
AcDbEntity
  8
1
  6
Continuous
100
AcDbLine
 10
145.6768285242454
 20
137.1891354557104
 30
0.0
 11
143.4768285242455
 21
137.1891354557104
 31
0.0
  0
LINE
  5
17FC
330
18
100
AcDbEntity
  8
1
  6
Continuous
100
AcDbLine
 10
144.1768285242456
 20
139.6890004557104
 30
0.0
 11
145.9768285242455
 21
139.6890004557104
 31
0.0
  0
LINE
  5
1800
330
18
100
AcDbEntity
  8
1
  6
Continuous
100
AcDbLine
 10
144.1768285242456
 20
141.5127729557104
 30
0.0
 11
143.4768285242455
 21
141.5127729557104
 31
0.0
  0
LINE
  5
1801
330
18
100
AcDbEntity
  8
1
  6
Continuous
100
AcDbLine
 10
143.4768285242455
 20
141.5127729557104
 30
0.0
 11
143.4768285242455
 21
137.1891354557104
 31
0.0
  0
LINE
  5
1802
330
18
100
AcDbEntity
  8
1
  6
Continuous
100
AcDbLine
 10
144.4768285242455
 20
141.3891354557104
 30
0.0
 11
144.1768285242456
 21
141.3891354557104
 31
0.0
  0
LINE
  5
1803
330
18
100
AcDbEntity
  8
1
  6
Continuous
100
AcDbLine
 10
144.6768285242454
 20
141.5891354557103
 30
0.0
 11
144.4768285242455
 21
141.3891354557104
 31
0.0
  0
LINE
  5
1804
330
18
100
AcDbEntity
  8
1
  6
Continuous
100
AcDbLine
 10
144.6768285242454
 20
144.6391354557104
 30
0.0
 11
144.1768285242456
 21
144.6391354557104
 31
0.0
  0
LINE
  5
1805
330
18
100
AcDbEntity
  8
1
  6
Continuous
100
AcDbLine
 10
144.1768285242456
 20
147.1391354557104
 30
0.0
 11
144.6768285242454
 21
147.1391354557104
 31
0.0
  0
LINE
  5
180A
330
18
100
AcDbEntity
  8
1
  6
Continuous
100
AcDbLine
 10
145.9768285242455
 20
137.4891354557104
 30
0.0
 11
145.6768285242454
 21
137.1891354557102
 31
0.0
  0
LINE
  5
180B
330
18
100
AcDbEntity
  8
1
  6
Continuous
100
AcDbLine
 10
145.9768285242455
 20
139.6890004557104
 30
0.0
 11
145.9768285242455
 21
137.4891354557104
 31
0.0
  0
LINE
  5
1812
330
18
100
AcDbEntity
  8
1
  6
Continuous
100
AcDbLine
 10
146.2768285242455
 20
138.3853489557104
 30
0.0
 11
145.9768285242455
 21
138.3853489557104
 31
0.0
  0
LINE
  5
182E
330
18
100
AcDbEntity
  8
1
  6
Continuous
100
AcDbLine
 10
155.6768285242454
 20
142.3891354557104
 30
0.0
 11
155.6768285242454
 21
143.6620294557104
 31
0.0
  0
LINE
  5
182F
330
18
100
AcDbEntity
  8
1
  6
Continuous
100
AcDbLine
 10
155.6768285242456
 20
142.3891354557104
 30
0.0
 11
156.1768285242455
 21
142.8891354557103
 31
0.0
  0
LINE
  5
1830
330
18
100
AcDbEntity
  8
2
  6
Continuous
100
AcDbLine
 10
156.0828285247291
 20
148.9831354552268
 30
0.0
 11
146.2768285242455
 21
148.9831354552268
 31
0.0
  0
LINE
  5
1831
330
18
100
AcDbEntity
  8
1
  6
Continuous
100
AcDbLine
 10
155.6768285242454
 20
149.3891354557104
 30
0.0
 11
146.2768285242455
 21
149.3891354557104
 31
0.0
  0
LINE
  5
1832
330
18
100
AcDbEntity
  8
1
  6
Continuous
100
AcDbLine
 10
144.6768285242454
 20
153.6041504557104
 30
0.0
 11
146.2768285242455
 21
153.6041504557104
 31
0.0
  0
LINE
  5
1833
330
18
100
AcDbEntity
  8
1
  6
Continuous
100
AcDbLine
 10
142.5768285242456
 20
155.3891354557103
 30
0.0
 11
142.5768285242456
 21
151.1654979557104
 31
0.0
  0
LINE
  5
1834
330
18
100
AcDbEntity
  8
1
  6
Continuous
100
AcDbLine
 10
143.4768285242455
 20
154.5891354557104
 30
0.0
 11
143.4768285242455
 21
150.2654979557104
 31
0.0
  0
LINE
  5
1835
330
18
100
AcDbEntity
  8
1
  6
Continuous
100
AcDbLine
 10
143.4768285242455
 20
150.2654979557104
 30
0.0
 11
144.1768285242456
 21
150.2654979557104
 31
0.0
  0
LINE
  5
1836
330
18
100
AcDbEntity
  8
1
  6
Continuous
100
AcDbLine
 10
142.5768285242456
 20
151.1654979557104
 30
0.0
 11
143.4768285242455
 21
150.2654979557104
 31
0.0
  0
LINE
  5
1837
330
18
100
AcDbEntity
  8
1
  6
Continuous
100
AcDbLine
 10
144.4768285242455
 20
150.3891354557103
 30
0.0
 11
144.6768285242454
 21
150.1891354557104
 31
0.0
  0
LINE
  5
1838
330
18
100
AcDbEntity
  8
1
  6
Continuous
100
AcDbLine
 10
144.1768285242456
 20
150.3891354557103
 30
0.0
 11
144.4768285242455
 21
150.3891354557103
 31
0.0
  0
LINE
  5
1839
330
18
100
AcDbEntity
  8
1
  6
Continuous
100
AcDbLine
 10
144.1768285242456
 20
154.5891354557104
 30
0.0
 11
143.4768285242455
 21
154.5891354557104
 31
0.0
  0
LINE
  5
183A
330
18
100
AcDbEntity
  8
1
  6
Continuous
100
AcDbLine
 10
142.6768285242454
 20
155.3891354557103
 30
0.0
 11
143.4768285242455
 21
154.5891354557104
 31
0.0
  0
LINE
  5
184C
330
18
100
AcDbEntity
  8
1
  6
Continuous
100
AcDbLine
 10
156.1768285242455
 20
148.8891354557103
 30
0.0
 11
155.6768285242454
 21
149.3891354557103
 31
0.0
  0
LINE
  5
184E
330
18
100
AcDbEntity
  8
4
  6
CENTER
100
AcDbLine
 10
313.783600862343
 20
145.8891354553404
 30
0.0
 11
279.783600862343
 21
145.8891354553404
 31
0.0
  0
CIRCLE
  5
184F
330
18
100
AcDbEntity
  8
1
  6
Continuous
100
AcDbCircle
 10
296.783600862343
 20
145.8891354553404
 30
0.0
 40
15.0
  0
LINE
  5
1850
330
18
100
AcDbEntity
  8
4
  6
CENTER
100
AcDbLine
 10
296.783600862343
 20
162.8891354553406
 30
0.0
 11
296.783600862343
 21
128.8891354553404
 31
0.0
  0
LINE
  5
1851
330
18
100
AcDbEntity
  8
1
  6
Continuous
100
AcDbLine
 10
304.483600862343
 20
149.7192789553406
 30
0.0
 11
304.483600862343
 21
147.0205064553405
 31
0.0
  0
ARC
  5
1852
330
18
100
AcDbEntity
  8
1
  6
Continuous
100
AcDbCircle
 10
296.783600862343
 20
145.8891354553404
 30
0.0
 40
7.0
100
AcDbArc
 50
150.9999999999994
 51
298.9999999999991
  0
LINE
  5
1854
330
18
100
AcDbEntity
  8
1
  6
Continuous
100
AcDbLine
 10
307.7836008623429
 20
139.5382824553405
 30
0.0
 11
307.7836008623429
 21
152.2399884553406
 31
0.0
  0
LINE
  5
1855
330
18
100
AcDbEntity
  8
1
  6
Continuous
100
AcDbLine
 10
285.783600862343
 20
139.5382824553405
 30
0.0
 11
285.783600862343
 21
152.2399884553406
 31
0.0
  0
CIRCLE
  5
1856
330
18
100
AcDbEntity
  8
1
  6
Continuous
100
AcDbCircle
 10
296.783600862343
 20
145.8891354553404
 30
0.0
 40
11.0
  0
ARC
  5
1857
330
18
100
AcDbEntity
  8
2
  6
Continuous
100
AcDbCircle
 10
296.783600862343
 20
145.8891354553404
 30
0.0
 40
9.5
100
AcDbArc
 50
326.2612770000004
 51
33.73872299999963
  0
ARC
  5
1858
330
18
100
AcDbEntity
  8
2
  6
Continuous
100
AcDbCircle
 10
296.783600862343
 20
145.8891354553404
 30
0.0
 40
9.5
100
AcDbArc
 50
146.2612770000002
 51
213.7387229999995
  0
ARC
  5
1859
330
18
100
AcDbEntity
  8
1
  6
Continuous
100
AcDbCircle
 10
296.783600862343
 20
145.8891354553404
 30
0.0
 40
8.9585
100
AcDbArc
 50
331.8656175009246
 51
28.13438249907509
  0
ARC
  5
185A
330
18
100
AcDbEntity
  8
1
  6
Continuous
100
AcDbCircle
 10
296.783600862343
 20
145.8891354553404
 30
0.0
 40
8.9585
100
AcDbArc
 50
151.8656175009249
 51
208.1343824990749
  0
ARC
  5
185B
330
18
100
AcDbEntity
  8
2
  6
Continuous
100
AcDbCircle
 10
296.783600862343
 20
145.8891354553404
 30
0.0
 40
3.093999999999998
100
AcDbArc
 50
30.23128599999984
 51
149.7687140000001
  0
ARC
  5
185C
330
18
100
AcDbEntity
  8
1
  6
Continuous
100
AcDbCircle
 10
296.783600862343
 20
145.8891354553404
 30
0.0
 40
3.5
100
AcDbArc
 50
39.51765300000004
 51
140.4823469999999
  0
CIRCLE
  5
185D
330
18
100
AcDbEntity
  8
1
  6
Continuous
100
AcDbCircle
 10
296.783600862343
 20
145.8891354553404
 30
0.0
 40
5.5
  0
LINE
  5
185E
330
18
100
AcDbEntity
  8
1
  6
Continuous
100
AcDbLine
 10
302.283600862343
 20
149.0645619553405
 30
0.0
 11
302.283600862343
 21
142.7137089553404
 31
0.0
  0
LINE
  5
185F
330
18
100
AcDbEntity
  8
1
  6
Continuous
100
AcDbLine
 10
291.2836008623429
 20
149.0645619553405
 30
0.0
 11
291.2836008623429
 21
142.7137089553404
 31
0.0
  0
CIRCLE
  5
1860
330
18
100
AcDbEntity
  8
1
  6
Continuous
100
AcDbCircle
 10
296.783600862343
 20
145.8891354553404
 30
0.0
 40
6.5
  0
LINE
  5
1861
330
18
100
AcDbEntity
  8
1
  6
Continuous
100
AcDbLine
 10
304.6836008623429
 20
151.1654979553405
 30
0.0
 11
304.6836008623429
 21
140.6127729553404
 31
0.0
  0
LINE
  5
1862
330
18
100
AcDbEntity
  8
1
  6
Continuous
100
AcDbLine
 10
288.883600862343
 20
151.1654979553405
 30
0.0
 11
288.883600862343
 21
140.6127729553404
 31
0.0
  0
ARC
  5
1863
330
18
100
AcDbEntity
  8
1
  6
Continuous
100
AcDbCircle
 10
296.783600862343
 20
145.8891354553404
 30
0.0
 40
8.4
100
AcDbArc
 50
241.5
 51
298.4999999999999
  0
ARC
  5
1864
330
18
100
AcDbEntity
  8
1
  6
Continuous
100
AcDbCircle
 10
296.783600862343
 20
145.8891354553404
 30
0.0
 40
8.699999999999999
100
AcDbArc
 50
204.7632990000014
 51
301.7096949999992
  0
LINE
  5
1865
330
18
100
AcDbEntity
  8
1
  6
Continuous
100
AcDbLine
 10
296.783600862343
 20
133.1874294553407
 30
0.0
 11
307.7836008623429
 21
139.5382824553407
 31
0.0
  0
ARC
  5
1866
330
18
100
AcDbEntity
  8
2
  6
Continuous
100
AcDbCircle
 10
296.783600862343
 20
145.8891354553404
 30
0.0
 40
3.5
100
AcDbArc
 50
320.4823469999999
 51
39.51765300000004
  0
ARC
  5
1867
330
18
100
AcDbEntity
  8
1
  6
Continuous
100
AcDbCircle
 10
296.783600862343
 20
145.8891354553404
 30
0.0
 40
3.093999999999998
100
AcDbArc
 50
329.7687139999986
 51
30.23128599999984
  0
LINE
  5
1868
330
18
100
AcDbEntity
  8
1
  6
Continuous
100
AcDbLine
 10
296.783600862343
 20
139.5382824553407
 30
0.0
 11
302.283600862343
 21
142.7137089553405
 31
0.0
  0
ARC
  5
1869
330
18
100
AcDbEntity
  8
2
  6
Continuous
100
AcDbCircle
 10
296.783600862343
 20
145.8891354553404
 30
0.0
 40
8.9585
100
AcDbArc
 50
208.1343824990651
 51
302.7724334643533
  0
ARC
  5
186A
330
18
100
AcDbEntity
  8
1
  6
Continuous
100
AcDbCircle
 10
296.783600862343
 20
145.8891354553404
 30
0.0
 40
9.5
100
AcDbArc
 50
213.7387229999995
 51
304.0779289999994
  0
LINE
  5
186B
330
18
100
AcDbEntity
  8
1
  6
Continuous
100
AcDbLine
 10
296.783600862343
 20
133.1874294553407
 30
0.0
 11
285.783600862343
 21
139.5382824553405
 31
0.0
  0
LINE
  5
186C
330
18
100
AcDbEntity
  8
1
  6
Continuous
100
AcDbLine
 10
296.783600862343
 20
139.5382824553405
 30
0.0
 11
291.2836008623429
 21
142.7137089553405
 31
0.0
  0
ARC
  5
186D
330
18
100
AcDbEntity
  8
1
  6
Continuous
100
AcDbCircle
 10
296.783600862343
 20
145.8891354553404
 30
0.0
 40
3.5
100
AcDbArc
 50
219.5176529999999
 51
320.4823469999999
  0
LINE
  5
186E
330
18
100
AcDbEntity
  8
1
  6
Continuous
100
AcDbLine
 10
292.6323198623432
 20
138.2434264553406
 30
0.0
 11
293.4434898623429
 21
139.7374159553405
 31
0.0
  0
ARC
  5
186F
330
18
100
AcDbEntity
  8
2
  6
Continuous
100
AcDbCircle
 10
296.783600862343
 20
145.8891354553404
 30
0.0
 40
3.093999999999998
100
AcDbArc
 50
210.2312859999998
 51
329.7687139999986
  0
ARC
  5
1870
330
18
100
AcDbEntity
  8
2
  6
Continuous
100
AcDbCircle
 10
296.783600862343
 20
145.8891354553404
 30
0.0
 40
3.5
100
AcDbArc
 50
140.4823469999999
 51
219.5176529999999
  0
ARC
  5
1871
330
18
100
AcDbEntity
  8
1
  6
Continuous
100
AcDbCircle
 10
296.783600862343
 20
145.8891354553404
 30
0.0
 40
3.093999999999998
100
AcDbArc
 50
149.7687140000001
 51
210.2312859999998
  0
LINE
  5
1872
330
18
100
AcDbEntity
  8
1
  6
Continuous
100
AcDbLine
 10
294.0836008623429
 20
148.1162414553404
 30
0.0
 11
294.0836008623429
 21
143.6620299553404
 31
0.0
  0
LINE
  5
1873
330
18
100
AcDbEntity
  8
1
  6
Continuous
100
AcDbLine
 10
299.483600862343
 20
148.1162414553404
 30
0.0
 11
299.483600862343
 21
143.6620299553404
 31
0.0
  0
LINE
  5
1874
330
18
100
AcDbEntity
  8
1
  6
Continuous
100
AcDbLine
 10
304.483600862343
 20
144.7577649553404
 30
0.0
 11
304.483600862343
 21
142.0589919553405
 31
0.0
  0
ARC
  5
1875
330
18
100
AcDbEntity
  8
1
  6
Continuous
100
AcDbCircle
 10
296.783600862343
 20
145.8891354553404
 30
0.0
 40
8.599999999999999
100
AcDbArc
 50
301.0713830000002
 51
333.5532719999998
  0
ARC
  5
1876
330
18
100
AcDbEntity
  8
2
  6
Continuous
100
AcDbCircle
 10
296.783600862343
 20
145.8891354553404
 30
0.0
 40
9.5
100
AcDbArc
 50
304.0779289999994
 51
325.9220709999991
  0
ARC
  5
1877
330
18
100
AcDbEntity
  8
1
  6
Continuous
100
AcDbCircle
 10
296.783600862343
 20
145.8891354553404
 30
0.0
 40
8.9585
100
AcDbArc
 50
302.7724334643492
 51
327.2275665356503
  0
ARC
  5
1878
330
18
100
AcDbEntity
  8
1
  6
Continuous
100
AcDbCircle
 10
299.8554538623432
 20
139.9348329553405
 30
0.0
 40
0.2
100
AcDbArc
 50
29.00000000000057
 51
117.2894240000009
  0
ARC
  5
1879
330
18
100
AcDbEntity
  8
1
  6
Continuous
100
AcDbCircle
 10
301.0672773623428
 20
138.7799784553406
 30
0.0
 40
0.3
100
AcDbArc
 50
208.999999999999
 51
301.0713830000002
  0
LINE
  5
187A
330
18
100
AcDbEntity
  8
1
  6
Continuous
100
AcDbLine
 10
300.0303778623429
 20
140.0317949553405
 30
0.0
 11
300.8048913623428
 21
138.6345354553405
 31
0.0
  0
LINE
  5
187B
330
18
100
AcDbEntity
  8
1
  6
Continuous
100
AcDbLine
 10
300.1237123623428
 20
139.7374159553405
 30
0.0
 11
300.9348823623428
 21
138.2434264553406
 31
0.0
  0
LINE
  5
187C
330
18
100
AcDbEntity
  8
1
  6
Continuous
100
AcDbLine
 10
301.415150362343
 20
138.4291589553406
 30
0.0
 11
301.839414362343
 21
138.2877374553405
 31
0.0
  0
LINE
  5
187D
330
18
100
AcDbEntity
  8
1
  6
Continuous
100
AcDbLine
 10
302.106640862343
 20
138.0205114553405
 30
0.0
 11
301.839414362343
 21
138.2877374553405
 31
0.0
  0
LINE
  5
187E
330
18
100
AcDbEntity
  8
1
  6
Continuous
100
AcDbLine
 10
301.415150362343
 20
138.4291589553406
 30
0.0
 11
301.2837768623429
 21
138.5605329553405
 31
0.0
  0
ARC
  5
187F
330
18
100
AcDbEntity
  8
1
  6
Continuous
100
AcDbCircle
 10
296.783600862343
 20
145.8891354553404
 30
0.0
 40
8.699999999999999
100
AcDbArc
 50
328.2903049999993
 51
335.2367009999984
  0
LINE
  5
1880
330
18
100
AcDbEntity
  8
1
  6
Continuous
100
AcDbLine
 10
304.2435773623428
 20
141.2575859553406
 30
0.0
 11
304.3849988623429
 21
140.8333219553405
 31
0.0
  0
LINE
  5
1881
330
18
100
AcDbEntity
  8
1
  6
Continuous
100
AcDbLine
 10
304.6522253623428
 20
140.5660959553405
 30
0.0
 11
304.3849988623429
 21
140.8333219553407
 31
0.0
  0
LINE
  5
1882
330
18
100
AcDbEntity
  8
1
  6
Continuous
100
AcDbLine
 10
304.2435773623432
 20
141.2575859553406
 30
0.0
 11
304.1122038623432
 21
141.3889599553406
 31
0.0
  0
ARC
  5
1883
330
18
100
AcDbEntity
  8
2
  6
Continuous
100
AcDbCircle
 10
296.783600862343
 20
145.8891354553404
 30
0.0
 40
8.9585
100
AcDbArc
 50
327.2275665356461
 51
331.8656175009347
  0
ARC
  5
1884
330
18
100
AcDbEntity
  8
1
  6
Continuous
100
AcDbCircle
 10
296.783600862343
 20
145.8891354553404
 30
0.0
 40
9.5
100
AcDbArc
 50
325.9220709999991
 51
326.2612770000004
  0
ARC
  5
1885
330
18
100
AcDbEntity
  8
1
  6
Continuous
100
AcDbCircle
 10
304.8836008623429
 20
145.8891354553404
 30
0.0
 40
1.199999999999999
100
AcDbArc
 50
109.4712210000012
 51
250.5287789999987
  0
LINE
  5
1886
330
18
100
AcDbEntity
  8
1
  6
Continuous
100
AcDbLine
 10
292.9534573623428
 20
153.5891354553406
 30
0.0
 11
300.6137443623428
 21
153.5891354553406
 31
0.0
  0
ARC
  5
1887
330
18
100
AcDbEntity
  8
1
  6
Continuous
100
AcDbCircle
 10
296.783600862343
 20
145.8891354553404
 30
0.0
 40
8.699999999999999
100
AcDbArc
 50
24.76329900000151
 51
121.7096949999992
  0
LINE
  5
1888
330
18
100
AcDbEntity
  8
1
  6
Continuous
100
AcDbLine
 10
296.783600862343
 20
158.5908414553406
 30
0.0
 11
307.7836008623429
 21
152.2399884553406
 31
0.0
  0
LINE
  5
1889
330
18
100
AcDbEntity
  8
1
  6
Continuous
100
AcDbLine
 10
302.283600862343
 20
149.0645619553405
 30
0.0
 11
296.783600862343
 21
152.2399884553407
 31
0.0
  0
ARC
  5
188A
330
18
100
AcDbEntity
  8
2
  6
Continuous
100
AcDbCircle
 10
296.783600862343
 20
145.8891354553404
 30
0.0
 40
8.9585
100
AcDbArc
 50
28.1343824990652
 51
122.7724334643534
  0
ARC
  5
188B
330
18
100
AcDbEntity
  8
1
  6
Continuous
100
AcDbCircle
 10
296.783600862343
 20
145.8891354553404
 30
0.0
 40
9.5
100
AcDbArc
 50
33.73872299999963
 51
124.0779289999994
  0
ARC
  5
188C
330
18
100
AcDbEntity
  8
1
  6
Continuous
100
AcDbCircle
 10
296.783600862343
 20
145.8891354553404
 30
0.0
 40
8.599999999999999
100
AcDbArc
 50
116.446728
 51
148.9286169999996
  0
ARC
  5
188D
330
18
100
AcDbEntity
  8
2
  6
Continuous
100
AcDbCircle
 10
296.783600862343
 20
145.8891354553404
 30
0.0
 40
9.5
100
AcDbArc
 50
124.0779289999994
 51
145.922070999999
  0
ARC
  5
188E
330
18
100
AcDbEntity
  8
1
  6
Continuous
100
AcDbCircle
 10
296.783600862343
 20
145.8891354553404
 30
0.0
 40
8.9585
100
AcDbArc
 50
122.7724334643492
 51
147.2275665356503
  0
LINE
  5
188F
330
18
100
AcDbEntity
  8
1
  6
Continuous
100
AcDbLine
 10
296.783600862343
 20
158.5908414553406
 30
0.0
 11
285.783600862343
 21
152.2399884553407
 31
0.0
  0
LINE
  5
1890
330
18
100
AcDbEntity
  8
1
  6
Continuous
100
AcDbLine
 10
291.2836008623429
 20
149.0645619553405
 30
0.0
 11
296.783600862343
 21
152.2399884553407
 31
0.0
  0
ARC
  5
1891
330
18
100
AcDbEntity
  8
1
  6
Continuous
100
AcDbCircle
 10
290.8292983623429
 20
148.9609884553405
 30
0.0
 40
0.2
100
AcDbArc
 50
332.7105760000004
 51
61.00000000000084
  0
ARC
  5
1892
330
18
100
AcDbEntity
  8
1
  6
Continuous
100
AcDbCircle
 10
289.6744438623429
 20
150.1728119553406
 30
0.0
 40
0.3
100
AcDbArc
 50
148.9286169999996
 51
241.0000000000008
  0
LINE
  5
1893
330
18
100
AcDbEntity
  8
1
  6
Continuous
100
AcDbLine
 10
290.926260362343
 20
149.1359124553405
 30
0.0
 11
289.5290008623429
 21
149.9104259553406
 31
0.0
  0
ARC
  5
1894
330
18
100
AcDbEntity
  8
1
  6
Continuous
100
AcDbCircle
 10
296.783600862343
 20
145.8891354553404
 30
0.0
 40
8.699999999999999
100
AcDbArc
 50
148.2903049999993
 51
155.2367009999985
  0
LINE
  5
1895
330
18
100
AcDbEntity
  8
1
  6
Continuous
100
AcDbLine
 10
289.3236243623428
 20
150.5206849553405
 30
0.0
 11
289.1822028623428
 21
150.9449489553406
 31
0.0
  0
LINE
  5
1896
330
18
100
AcDbEntity
  8
1
  6
Continuous
100
AcDbLine
 10
288.9149768623429
 20
151.2121754553406
 30
0.0
 11
289.1822028623429
 21
150.9449489553406
 31
0.0
  0
ARC
  5
1897
330
18
100
AcDbEntity
  8
2
  6
Continuous
100
AcDbCircle
 10
296.783600862343
 20
145.8891354553404
 30
0.0
 40
8.9585
100
AcDbArc
 50
147.2275665356461
 51
151.8656175009348
  0
ARC
  5
1898
330
18
100
AcDbEntity
  8
1
  6
Continuous
100
AcDbCircle
 10
296.783600862343
 20
145.8891354553404
 30
0.0
 40
9.5
100
AcDbArc
 50
145.922070999999
 51
146.2612770000002
  0
LINE
  5
1899
330
18
100
AcDbEntity
  8
1
  6
Continuous
100
AcDbLine
 10
289.3236243623428
 20
150.5206849553405
 30
0.0
 11
289.4549983623429
 21
150.3893114553406
 31
0.0
  0
LINE
  5
189A
330
18
100
AcDbEntity
  8
1
  6
Continuous
100
AcDbLine
 10
292.1520513623428
 20
153.3491119553406
 30
0.0
 11
291.7277873623429
 21
153.4905334553406
 31
0.0
  0
LINE
  5
189B
330
18
100
AcDbEntity
  8
1
  6
Continuous
100
AcDbLine
 10
291.460561362343
 20
153.7577599553405
 30
0.0
 11
291.7277873623429
 21
153.4905334553406
 31
0.0
  0
LINE
  5
189C
330
18
100
AcDbEntity
  8
1
  6
Continuous
100
AcDbLine
 10
292.152051362343
 20
153.3491119553406
 30
0.0
 11
292.2834253623431
 21
153.2177384553405
 31
0.0
  0
ARC
  5
189D
330
18
100
AcDbEntity
  8
1
  6
Continuous
100
AcDbCircle
 10
296.783600862343
 20
145.8891354553404
 30
0.0
 40
8.599999999999999
100
AcDbArc
 50
26.44672800000015
 51
63.55327199999987
  0
ARC
  5
18A0
330
18
100
AcDbEntity
  8
1
  6
Continuous
100
AcDbCircle
 10
32.71461093220114
 20
229.8514386410345
 30
0.0
 40
2.0
100
AcDbArc
 50
52.52382043882231
 51
90.0
  0
ARC
  5
18A1
330
18
100
AcDbEntity
  8
1
  6
Continuous
100
AcDbCircle
 10
32.71461093219397
 20
209.8514386410345
 30
0.0
 40
2.0
100
AcDbArc
 50
270.0
 51
307.4761795615443
  0
LINE
  5
18A2
330
18
100
AcDbEntity
  8
1
  6
Continuous
100
AcDbLine
 10
34.8657239542037
 20
224.5804667087031
 30
0.0
 11
31.5479007748471
 21
225.469474750244
 31
0.0
  0
LINE
  5
18A3
330
18
100
AcDbEntity
  8
1
  6
Continuous
100
AcDbLine
 10
32.99957122223605
 20
224.1797693437618
 30
0.0
 11
31.31836594570398
 21
224.1797693437618
 31
0.0
  0
LINE
  5
18A4
330
18
100
AcDbEntity
  8
1
  6
Continuous
100
AcDbLine
 10
31.17690336109086
 20
223.3928001250788
 30
0.0
 11
32.99957122223605
 21
223.3928001250788
 31
0.0
  0
LINE
  5
18A5
330
18
100
AcDbEntity
  8
1
  6
Continuous
100
AcDbLine
 10
30.8061522927448
 20
222.6058309063958
 30
0.0
 11
35.73322981281967
 21
222.6058309063958
 31
0.0
  0
LINE
  5
18A6
330
18
100
AcDbEntity
  8
1
  6
Continuous
100
AcDbLine
 10
30.8031226648913
 20
221.0318924690299
 30
0.0
 11
35.98298899825079
 21
221.0318924690299
 31
0.0
  0
LINE
  5
18A7
330
18
100
AcDbEntity
  8
1
  6
Continuous
100
AcDbLine
 10
30.64693370123161
 20
220.2449232503469
 30
0.0
 11
36.1391779619106
 21
220.2449232503469
 31
0.0
  0
LINE
  5
18A8
330
18
100
AcDbEntity
  8
1
  6
Continuous
100
AcDbLine
 10
30.64693370123161
 20
219.4579540316639
 30
0.0
 11
36.1391779619106
 21
219.4579540316639
 31
0.0
  0
LINE
  5
18A9
330
18
100
AcDbEntity
  8
1
  6
Continuous
100
AcDbLine
 10
30.71335981143028
 20
218.6709848129808
 30
0.0
 11
36.07275185171181
 21
218.6709848129808
 31
0.0
  0
LINE
  5
18AA
330
18
100
AcDbEntity
  8
1
  6
Continuous
100
AcDbLine
 10
31.34836683439214
 20
217.0970463756149
 30
0.0
 11
35.43774482875004
 21
217.0970463756149
 31
0.0
  0
LINE
  5
18AB
330
18
100
AcDbEntity
  8
1
  6
Continuous
100
AcDbLine
 10
31.4520260280679
 20
216.310077156932
 30
0.0
 11
35.33408563507425
 21
216.310077156932
 31
0.0
  0
LINE
  5
18AC
330
18
100
AcDbEntity
  8
1
  6
Continuous
100
AcDbLine
 10
34.8450130798542
 20
215.523107938249
 30
0.0
 11
31.94109858328795
 21
215.523107938249
 31
0.0
  0
LINE
  5
18AD
330
18
100
AcDbEntity
  8
1
  6
Continuous
100
AcDbLine
 10
31.23462699650116
 20
214.736138719566
 30
0.0
 11
34.62698314418685
 21
214.736138719566
 31
0.0
  0
ARC
  5
18AE
330
18
100
AcDbEntity
  8
1
  6
Continuous
100
AcDbCircle
 10
33.39305583157765
 20
224.5732539531033
 30
0.0
 40
2.028184687902053
100
AcDbArc
 50
62.24965455462696
 51
144.4623222080006
  0
ARC
  5
18B1
330
18
100
AcDbEntity
  8
1
  6
Continuous
100
AcDbCircle
 10
32.71461093220108
 20
229.8514386410345
 30
0.0
 40
1.0
100
AcDbArc
 50
52.52382043882231
 51
90.0
  0
ARC
  5
18B4
330
18
100
AcDbEntity
  8
1
  6
Continuous
100
AcDbCircle
 10
32.71461093219397
 20
209.8514386410345
 30
0.0
 40
1.0
100
AcDbArc
 50
270.0
 51
307.4761795615443
  0
ARC
  5
18B9
330
18
100
AcDbEntity
  8
1
  6
Continuous
100
AcDbCircle
 10
24.39305583157761
 20
223.7458873655703
 30
0.0
 40
2.0
100
AcDbArc
 50
146.3099324740201
 51
180.0
  0
ARC
  5
18BA
330
18
100
AcDbEntity
  8
1
  6
Continuous
100
AcDbCircle
 10
40.00359726850819
 20
219.8514386410054
 30
0.0
 40
10.15190292101059
100
AcDbArc
 50
144.4623222080006
 51
215.5376777919993
  0
ARC
  5
18BC
330
18
100
AcDbEntity
  8
1
  6
Continuous
100
AcDbCircle
 10
25.39305583157771
 20
223.3514386410345
 30
0.0
 40
0.5
100
AcDbArc
 50
90.0
 51
180.0
  0
ARC
  5
18BF
330
18
100
AcDbEntity
  8
1
  6
Continuous
100
AcDbCircle
 10
24.39305583157761
 20
223.7458873655703
 30
0.0
 40
1.0
100
AcDbArc
 50
146.309932474022
 51
180.0
  0
ARC
  5
18C0
330
18
100
AcDbEntity
  8
1
  6
Continuous
100
AcDbCircle
 10
27.89305583157761
 20
223.3514386410345
 30
0.0
 40
0.5
100
AcDbArc
 50
0.0
 51
90.0
  0
LINE
  5
18C8
330
18
100
AcDbEntity
  8
1
  6
Continuous
100
AcDbLine
 10
22.72895524290196
 20
214.847589524048
 30
0.0
 11
26.79932275987795
 21
208.7420382485841
 31
0.0
  0
LINE
  5
18CB
330
18
100
AcDbEntity
  8
1
  6
Continuous
100
AcDbLine
 10
23.56100553723979
 20
215.4022897202733
 30
0.0
 11
27.63137305421577
 21
209.2967384448094
 31
0.0
  0
LINE
  5
18CF
330
18
100
AcDbEntity
  8
1
  6
Continuous
100
AcDbLine
 10
28.46342334855354
 20
207.8514386410345
 30
0.0
 11
32.71461093219397
 21
207.8514386410345
 31
0.0
  0
LINE
  5
18D2
330
18
100
AcDbEntity
  8
1
  6
Continuous
100
AcDbLine
 10
28.46342334855354
 20
208.8514386410345
 30
0.0
 11
32.71461093219397
 21
208.8514386410345
 31
0.0
  0
ARC
  5
18D3
330
18
100
AcDbEntity
  8
1
  6
Continuous
100
AcDbCircle
 10
28.46342334855364
 20
209.8514386410343
 30
0.0
 40
2.0
100
AcDbArc
 50
213.6900675259797
 51
270.0
  0
ARC
  5
18D4
330
18
100
AcDbEntity
  8
1
  6
Continuous
100
AcDbCircle
 10
28.46342334855364
 20
209.8514386410343
 30
0.0
 40
1.0
100
AcDbArc
 50
213.690067525981
 51
270.0
  0
LINE
  5
18D7
330
18
100
AcDbEntity
  8
1
  6
Continuous
100
AcDbLine
 10
22.39305583157772
 20
223.7458873655703
 30
0.0
 11
22.39305583157765
 21
215.9569899164988
 31
0.0
  0
LINE
  5
18D9
330
18
100
AcDbEntity
  8
1
  6
Continuous
100
AcDbLine
 10
23.39305583157771
 20
223.7458873655703
 30
0.0
 11
23.39305583157778
 21
215.9569899164988
 31
0.0
  0
LINE
  5
18E1
330
18
100
AcDbEntity
  8
1
  6
Continuous
100
AcDbLine
 10
28.39305583157754
 20
223.3514386410345
 30
0.0
 11
28.39305583157754
 21
216.3514386410345
 31
0.0
  0
LINE
  5
18E2
330
18
100
AcDbEntity
  8
1
  6
Continuous
100
AcDbLine
 10
24.89305583157772
 20
223.3514386410345
 30
0.0
 11
24.89305583157772
 21
216.3514386410345
 31
0.0
  0
ARC
  5
18E5
330
18
100
AcDbEntity
  8
1
  6
Continuous
100
AcDbCircle
 10
27.89305583157761
 20
216.3514386410344
 30
0.0
 40
0.5
100
AcDbArc
 50
270.0
 51
0.0
  0
LINE
  5
18E6
330
18
100
AcDbEntity
  8
1
  6
Continuous
100
AcDbLine
 10
25.39305583157755
 20
215.8514386410345
 30
0.0
 11
27.89305583157761
 21
215.8514386410345
 31
0.0
  0
ARC
  5
18E7
330
18
100
AcDbEntity
  8
1
  6
Continuous
100
AcDbCircle
 10
31.34836683439226
 20
217.4905309849564
 30
0.0
 40
0.3934846093414955
100
AcDbArc
 50
195.2575232904566
 51
270.0
  0
ARC
  5
18E8
330
18
100
AcDbEntity
  8
1
  6
Continuous
100
AcDbCircle
 10
40.00359726850819
 20
219.8514386410054
 30
0.0
 40
9.364933702327595
100
AcDbArc
 50
193.2681189705571
 51
195.2575232904566
  0
ARC
  5
18E9
330
18
100
AcDbEntity
  8
1
  6
Continuous
100
AcDbCircle
 10
40.00359726850819
 20
219.8514386410054
 30
0.0
 40
9.364933702327595
100
AcDbArc
 50
192.7289438731231
 51
193.2681189705571
  0
ARC
  5
18EA
330
18
100
AcDbEntity
  8
1
  6
Continuous
100
AcDbCircle
 10
30.9455849801002
 20
217.8053186724295
 30
0.0
 40
0.0786969218682991
100
AcDbArc
 50
90.0
 51
192.7289438731231
  0
LINE
  5
18EB
330
18
100
AcDbEntity
  8
1
  6
Continuous
100
AcDbLine
 10
32.4486927691579
 20
217.8840155942979
 30
0.0
 11
30.94558498010025
 21
217.8840155942979
 31
0.0
  0
ARC
  5
18EC
330
18
100
AcDbEntity
  8
1
  6
Continuous
100
AcDbCircle
 10
31.45202602806806
 20
216.2313802350637
 30
0.0
 40
0.0786969218682991
100
AcDbArc
 50
90.0
 51
202.9439535565376
  0
ARC
  5
18ED
330
18
100
AcDbEntity
  8
1
  6
Continuous
100
AcDbCircle
 10
40.00359726850819
 20
219.8514386410054
 30
0.0
 40
9.364933702327595
100
AcDbArc
 50
202.9439535565376
 51
206.0143659996353
  0
ARC
  5
18EE
330
18
100
AcDbEntity
  8
1
  6
Continuous
100
AcDbCircle
 10
31.94109858328806
 20
215.9165925475905
 30
0.0
 40
0.3934846093414955
100
AcDbArc
 50
206.0143659996353
 51
270.0
  0
ARC
  5
18EF
330
18
100
AcDbEntity
  8
1
  6
Continuous
100
AcDbCircle
 10
33.39305583157765
 20
215.1296233289075
 30
0.0
 40
2.028184687902049
100
AcDbArc
 50
215.5376777919993
 51
256.5374393917326
  0
LINE
  5
18F4
330
18
100
AcDbEntity
  8
1
  6
Continuous
100
AcDbLine
 10
25.39305583157755
 20
223.8514386410345
 30
0.0
 11
27.89305583157761
 21
223.8514386410345
 31
0.0
  0
ARC
  5
18F5
330
18
100
AcDbEntity
  8
1
  6
Continuous
100
AcDbCircle
 10
30.80312266489143
 20
221.1105893908981
 30
0.0
 40
0.0786969218682991
100
AcDbArc
 50
172.2070756645774
 51
270.0
  0
ARC
  5
18F6
330
18
100
AcDbEntity
  8
1
  6
Continuous
100
AcDbCircle
 10
40.00359726850819
 20
219.8514386410054
 30
0.0
 40
9.364933702327595
100
AcDbArc
 50
169.8958172838747
 51
172.2070756645774
  0
ARC
  5
18F7
330
18
100
AcDbEntity
  8
1
  6
Continuous
100
AcDbCircle
 10
31.17129198486782
 20
221.4253770783713
 30
0.0
 40
0.3934846093414955
100
AcDbArc
 50
90.0
 51
169.8958172838747
  0
LINE
  5
18F8
330
18
100
AcDbEntity
  8
1
  6
Continuous
100
AcDbLine
 10
32.4486927691579
 20
221.8188616877128
 30
0.0
 11
31.17129198486777
 21
221.8188616877128
 31
0.0
  0
LINE
  5
18F9
330
18
100
AcDbEntity
  8
1
  6
Continuous
100
AcDbLine
 10
22.7289552429018
 20
224.8552877580209
 30
0.0
 11
26.79932275987778
 21
230.960839033485
 31
0.0
  0
LINE
  5
18FA
330
18
100
AcDbEntity
  8
1
  6
Continuous
100
AcDbLine
 10
27.63137305421565
 20
230.4061388372598
 30
0.0
 11
23.56100553723962
 21
224.3005875617959
 31
0.0
  0
LINE
  5
18FC
330
18
100
AcDbEntity
  8
1
  6
Continuous
100
AcDbLine
 10
28.46342334855364
 20
231.8514386410345
 30
0.0
 11
32.71461093220114
 21
231.8514386410345
 31
0.0
  0
LINE
  5
18FE
330
18
100
AcDbEntity
  8
1
  6
Continuous
100
AcDbLine
 10
32.71461093220108
 20
230.8514386410347
 30
0.0
 11
28.46342334855364
 21
230.8514386410347
 31
0.0
  0
ARC
  5
18FF
330
18
100
AcDbEntity
  8
1
  6
Continuous
100
AcDbCircle
 10
28.46342334855364
 20
229.8514386410345
 30
0.0
 40
2.0
100
AcDbArc
 50
90.0
 51
146.3099324740201
  0
ARC
  5
1900
330
18
100
AcDbEntity
  8
1
  6
Continuous
100
AcDbCircle
 10
28.46342334855364
 20
229.8514386410345
 30
0.0
 40
1.0
100
AcDbArc
 50
90.0
 51
146.309932474022
  0
LINE
  5
1901
330
18
100
AcDbEntity
  8
1
  6
Continuous
100
AcDbLine
 10
48.89305583157772
 20
224.8514386410806
 30
0.0
 11
48.89305583157772
 21
223.7764386410426
 31
0.0
  0
ARC
  5
1902
330
18
100
AcDbEntity
  8
1
  6
Continuous
100
AcDbCircle
 10
32.99957122223605
 20
223.7862847344203
 30
0.0
 40
0.3934846093414974
100
AcDbArc
 50
270.0
 51
90.0
  0
ARC
  5
1903
330
18
100
AcDbEntity
  8
1
  6
Continuous
100
AcDbCircle
 10
26.78251439463406
 20
219.8514386410054
 30
0.0
 40
10.15190292101059
100
AcDbArc
 50
324.4623222080521
 51
35.53767779194789
  0
LINE
  5
1905
330
18
100
AcDbEntity
  8
1
  6
Continuous
100
AcDbLine
 10
33.32304247585568
 20
230.6450450023283
 30
0.0
 11
42.39305583157768
 21
223.6913680963211
 31
0.0
  0
LINE
  5
1908
330
18
100
AcDbEntity
  8
1
  6
Continuous
100
AcDbLine
 10
48.59305583157778
 20
222.6764386410433
 30
0.0
 11
69.19305583157779
 21
222.6764386410433
 31
0.0
  0
LINE
  5
1909
330
18
100
AcDbEntity
  8
1
  6
Continuous
100
AcDbLine
 10
48.5930558315777
 20
217.0264386410432
 30
0.0
 11
69.19305583157768
 21
217.0264386410432
 31
0.0
  0
LINE
  5
190A
330
18
100
AcDbEntity
  8
1
  6
Continuous
100
AcDbLine
 10
33.9314740195133
 20
208.2642259184547
 30
0.0
 11
41.87131670114638
 21
214.3514386410805
 31
0.0
  0
LINE
  5
190B
330
18
100
AcDbEntity
  8
1
  6
Continuous
100
AcDbLine
 10
33.32304247585375
 20
209.0578322797446
 30
0.0
 11
42.39305583157771
 21
216.0115091858461
 31
0.0
  0
LINE
  5
1913
330
18
100
AcDbEntity
  8
1
  6
Continuous
100
AcDbLine
 10
35.84052668304195
 20
217.8840155942979
 30
0.0
 11
34.33741889399708
 21
217.8840155942979
 31
0.0
  0
ARC
  5
1914
330
18
100
AcDbEntity
  8
1
  6
Continuous
100
AcDbCircle
 10
35.84052668304207
 20
217.8053186724295
 30
0.0
 40
0.0786969218682991
100
AcDbArc
 50
347.2710561268766
 51
90.0
  0
ARC
  5
1915
330
18
100
AcDbEntity
  8
1
  6
Continuous
100
AcDbCircle
 10
26.78251439463406
 20
219.8514386410054
 30
0.0
 40
9.364933702327595
100
AcDbArc
 50
344.7937121239427
 51
347.2710561268766
  0
ARC
  5
1916
330
18
100
AcDbEntity
  8
1
  6
Continuous
100
AcDbCircle
 10
26.78251439463406
 20
219.8514386410054
 30
0.0
 40
9.364933702327595
100
AcDbArc
 50
344.7424767095434
 51
344.7937121239427
  0
ARC
  5
1917
330
18
100
AcDbEntity
  8
1
  6
Continuous
100
AcDbCircle
 10
35.43774482875017
 20
217.4905309849564
 30
0.0
 40
0.3934846093414955
100
AcDbArc
 50
270.0
 51
344.7424767095434
  0
ARC
  5
1918
330
18
100
AcDbEntity
  8
1
  6
Continuous
100
AcDbCircle
 10
34.8450130798542
 20
215.9165925475905
 30
0.0
 40
0.3934846093414955
100
AcDbArc
 50
270.0
 51
333.9856340003631
  0
ARC
  5
1919
330
18
100
AcDbEntity
  8
1
  6
Continuous
100
AcDbCircle
 10
26.78251439463406
 20
219.8514386410054
 30
0.0
 40
9.364933702327595
100
AcDbArc
 50
333.9856340003631
 51
337.0560464434622
  0
ARC
  5
191A
330
18
100
AcDbEntity
  8
1
  6
Continuous
100
AcDbCircle
 10
35.33408563507429
 20
216.2313802350637
 30
0.0
 40
0.0786969218682991
100
AcDbArc
 50
337.0560464434622
 51
90.0
  0
ARC
  5
191B
330
18
100
AcDbEntity
  8
1
  6
Continuous
100
AcDbCircle
 10
33.39305583157765
 20
215.1296233289075
 30
0.0
 40
2.028184687902049
100
AcDbArc
 50
270.0
 51
324.4623222080521
  0
LINE
  5
191D
330
18
100
AcDbEntity
  8
1
  6
Continuous
100
AcDbLine
 10
33.39305583157754
 20
223.7862847344203
 30
0.0
 11
35.28068887331631
 21
223.7862847344203
 31
0.0
  0
LINE
  5
191E
330
18
100
AcDbEntity
  8
1
  6
Continuous
100
AcDbLine
 10
33.39305583157754
 20
221.8188616877128
 30
0.0
 11
33.39305583157754
 21
221.4253770783713
 31
0.0
  0
LINE
  5
191F
330
18
100
AcDbEntity
  8
1
  6
Continuous
100
AcDbLine
 10
35.61481967827443
 20
221.8188616877128
 30
0.0
 11
33.39305583157754
 21
221.8188616877128
 31
0.0
  0
ARC
  5
1920
330
18
100
AcDbEntity
  8
1
  6
Continuous
100
AcDbCircle
 10
35.61481967827443
 20
221.4253770783713
 30
0.0
 40
0.3934846093414955
100
AcDbArc
 50
10.1041827161253
 51
90.0
  0
ARC
  5
1921
330
18
100
AcDbEntity
  8
1
  6
Continuous
100
AcDbCircle
 10
26.78251439463406
 20
219.8514386410054
 30
0.0
 40
9.364933702327595
100
AcDbArc
 50
7.792924335422526
 51
10.1041827161253
  0
ARC
  5
1922
330
18
100
AcDbEntity
  8
1
  6
Continuous
100
AcDbCircle
 10
35.98298899825089
 20
221.1105893908981
 30
0.0
 40
0.0786969218682991
100
AcDbArc
 50
270.0
 51
7.792924335422526
  0
LINE
  5
1923
330
18
100
AcDbEntity
  8
1
  6
Continuous
100
AcDbLine
 10
33.39305583157754
 20
219.4579540316639
 30
0.0
 11
33.39305583157754
 21
218.6709848129808
 31
0.0
  0
LINE
  5
1924
330
18
100
AcDbEntity
  8
1
  6
Continuous
100
AcDbLine
 10
42.39305583157768
 20
223.6913680963211
 30
0.0
 11
42.39305583157768
 21
216.0115091858461
 31
0.0
  0
LINE
  5
1926
330
18
100
AcDbEntity
  8
1
  6
Continuous
100
AcDbLine
 10
41.87131670114638
 20
214.3514386410805
 30
0.0
 11
48.39305583157766
 21
214.3514386410805
 31
0.0
  0
LINE
  5
1927
330
18
100
AcDbEntity
  8
1
  6
Continuous
100
AcDbLine
 10
48.5930558315777
 20
216.2264386410432
 30
0.0
 11
48.89305583157772
 21
215.9264386410439
 31
0.0
  0
LINE
  5
1928
330
18
100
AcDbEntity
  8
1
  6
Continuous
100
AcDbLine
 10
48.59305583157778
 20
216.2264386410433
 30
0.0
 11
48.59305583157778
 21
217.0264386410432
 31
0.0
  0
ARC
  5
1929
330
18
100
AcDbEntity
  8
1
  6
Continuous
100
AcDbCircle
 10
48.39305583157766
 20
214.8514386410805
 30
0.0
 40
0.5
100
AcDbArc
 50
270.0
 51
0.0
  0
LINE
  5
192A
330
18
100
AcDbEntity
  8
1
  6
Continuous
100
AcDbLine
 10
48.89305583157772
 20
215.9264386410439
 30
0.0
 11
48.89305583157772
 21
214.9014386410805
 31
0.0
  0
LINE
  5
192B
330
18
100
AcDbEntity
  8
1
  6
Continuous
100
AcDbLine
 10
48.59305583157778
 20
223.4764386410434
 30
0.0
 11
48.89305583157778
 21
223.7764386410426
 31
0.0
  0
LINE
  5
192C
330
18
100
AcDbEntity
  8
1
  6
Continuous
100
AcDbLine
 10
48.59305583157778
 20
223.4764386410433
 30
0.0
 11
48.59305583157778
 21
222.6764386410433
 31
0.0
  0
LINE
  5
1931
330
18
100
AcDbEntity
  8
1
  6
Continuous
100
AcDbLine
 10
69.19305583157768
 20
217.0264386410432
 30
0.0
 11
71.0059323315777
 21
218.2514386410433
 31
0.0
  0
ARC
  5
1932
330
18
100
AcDbEntity
  8
1
  6
Continuous
100
AcDbCircle
 10
65.24197283157775
 20
219.8514386410433
 30
0.0
 40
4.857126999999998
100
AcDbArc
 50
324.4354679999998
 51
35.56453200000025
  0
LINE
  5
1933
330
18
100
AcDbEntity
  8
1
  6
Continuous
100
AcDbLine
 10
69.19305583157779
 20
222.6764386410433
 30
0.0
 11
71.00593233157781
 21
221.4514386410433
 31
0.0
  0
ARC
  5
1934
330
18
100
AcDbEntity
  8
1
  6
Continuous
100
AcDbCircle
 10
67.89305583157767
 20
219.8514386410433
 30
0.0
 40
3.5
100
AcDbArc
 50
332.7971059999997
 51
27.20289400000031
  0
LINE
  5
1935
330
18
100
AcDbEntity
  8
1
  6
Continuous
100
AcDbLine
 10
33.93147401951035
 20
231.4386513636224
 30
0.0
 11
41.87131670113942
 21
225.3514386410806
 31
0.0
  0
LINE
  5
1937
330
18
100
AcDbEntity
  8
1
  6
Continuous
100
AcDbLine
 10
33.39305583157754
 20
226.6014386410054
 30
0.0
 11
33.39305583157754
 21
224.9750669428812
 31
0.0
  0
ARC
  5
1938
330
18
100
AcDbEntity
  8
1
  6
Continuous
100
AcDbCircle
 10
33.39305583157765
 20
224.5732539531033
 30
0.0
 40
2.028184687902053
100
AcDbArc
 50
35.53767779194789
 51
45.69883927961821
  0
LINE
  5
193A
330
18
100
AcDbEntity
  8
1
  6
Continuous
100
AcDbLine
 10
41.87131670113939
 20
225.3514386410806
 30
0.0
 11
48.39305583157766
 21
225.3514386410806
 31
0.0
  0
ARC
  5
193B
330
18
100
AcDbEntity
  8
1
  6
Continuous
100
AcDbCircle
 10
48.39305583157766
 20
224.8514386410806
 30
0.0
 40
0.5
100
AcDbArc
 50
0.0
 51
90.0
  0
ARC
  5
19AD
330
18
100
AcDbEntity
  8
1
  6
Continuous
100
AcDbCircle
 10
24.39305583157761
 20
215.9569899164988
 30
0.0
 40
1.0
100
AcDbArc
 50
180.0
 51
213.6900675259779
  0
ARC
  5
19AE
330
18
100
AcDbEntity
  8
1
  6
Continuous
100
AcDbCircle
 10
25.39305583157771
 20
216.3514386410345
 30
0.0
 40
0.5
100
AcDbArc
 50
180.0
 51
270.0
  0
ARC
  5
19AF
330
18
100
AcDbEntity
  8
1
  6
Continuous
100
AcDbCircle
 10
24.39305583157761
 20
215.9569899164988
 30
0.0
 40
2.0
100
AcDbArc
 50
180.0
 51
213.6900675259797
  0
LINE
  5
19B0
330
18
100
AcDbEntity
  8
4
  6
CENTER
100
AcDbLine
 10
75.51083723765612
 20
219.8514386410345
 30
0.0
 11
19.07122767044018
 21
219.8514386410345
 31
0.0
  0
LINE
  5
19B6
330
18
100
AcDbEntity
  8
1
  6
Continuous
100
AcDbLine
 10
142.6768285251556
 20
136.3891354557104
 30
0.0
 11
143.4768285242455
 21
137.1891354548002
 31
0.0
  0
LINE
  5
19B7
330
18
100
AcDbEntity
  8
1
  6
Continuous
100
AcDbLine
 10
142.5768285242456
 20
136.3891354548003
 30
0.0
 11
142.5768285242456
 21
140.6127729548003
 31
0.0
  0
LINE
  5
19B8
330
18
100
AcDbEntity
  8
1
  6
Continuous
100
AcDbLine
 10
142.5768285251555
 20
140.6127729557104
 30
0.0
 11
143.4768285242455
 21
141.5127729548003
 31
0.0
  0
LINE
  5
1B4A
330
18
100
AcDbEntity
  8
4
  6
CENTER
100
AcDbLine
 10
193.1638929669525
 20
145.8891354552559
 30
0.0
 11
229.6825652817419
 21
145.8891354552983
 31
0.0
  0
LINE
  5
1B4B
330
18
100
AcDbEntity
  8
1
  6
Continuous
100
AcDbLine
 10
196.3549480785165
 20
158.5908414553435
 30
0.0
 11
196.3549480785165
 21
133.1874294553435
 31
0.0
  0
LINE
  5
1B4C
330
18
100
AcDbEntity
  8
1
  6
Continuous
100
AcDbLine
 10
199.8549480785166
 20
155.4154149553435
 30
0.0
 11
199.8549480785166
 21
136.3628559553436
 31
0.0
  0
ARC
  5
1B4D
330
18
100
AcDbEntity
  8
1
  6
Continuous
100
AcDbCircle
 10
179.1882815785165
 20
145.8891354553435
 30
0.0
 40
20.6666665
100
AcDbArc
 50
342.1034489999992
 51
17.8965510000008
  0
LINE
  5
1B4E
330
18
100
AcDbEntity
  8
1
  6
Continuous
100
AcDbLine
 10
196.3549480785165
 20
139.5382824553435
 30
0.0
 11
198.8549480785166
 21
139.5382824553435
 31
0.0
  0
LINE
  5
1B4F
330
18
100
AcDbEntity
  8
1
  6
Continuous
100
AcDbLine
 10
196.3549480785165
 20
133.1874294553435
 30
0.0
 11
198.8549480785166
 21
133.1874294553435
 31
0.0
  0
ARC
  5
1B50
330
18
100
AcDbEntity
  8
1
  6
Continuous
100
AcDbCircle
 10
194.3132815785167
 20
136.3628559553436
 30
0.0
 40
5.541666499999998
100
AcDbArc
 50
325.0396599999989
 51
34.96034000000097
  0
ARC
  5
1B51
330
18
100
AcDbEntity
  8
1
  6
Continuous
100
AcDbCircle
 10
194.3132815785167
 20
155.4154149553435
 30
0.0
 40
5.541666499999998
100
AcDbArc
 50
325.0396599999989
 51
34.96034000000097
  0
LINE
  5
1B52
330
18
100
AcDbEntity
  8
1
  6
Continuous
100
AcDbLine
 10
196.3549480785165
 20
152.2399884553435
 30
0.0
 11
198.8549480785166
 21
152.2399884553435
 31
0.0
  0
LINE
  5
1B53
330
18
100
AcDbEntity
  8
1
  6
Continuous
100
AcDbLine
 10
196.3549480785165
 20
158.5908414553435
 30
0.0
 11
198.8549480785166
 21
158.5908414553435
 31
0.0
  0
ARC
  5
1B57
330
18
100
AcDbEntity
  8
1
  6
Continuous
100
AcDbCircle
 10
225.4582953811168
 20
141.1259959553424
 30
0.0
 40
2.770833499999998
100
AcDbArc
 50
145.039659999999
 51
214.9603400000009
  0
ARC
  5
1B58
330
18
100
AcDbEntity
  8
1
  6
Continuous
100
AcDbCircle
 10
224.1166283811169
 20
141.1259959553424
 30
0.0
 40
2.770833499999998
100
AcDbArc
 50
325.0396599999989
 51
34.96034000000097
  0
LINE
  5
1B59
330
18
100
AcDbEntity
  8
1
  6
Continuous
100
AcDbLine
 10
211.7644356182283
 20
152.3891354553452
 30
0.0
 11
211.7644356182283
 21
139.3891354553453
 31
0.0
  0
LINE
  5
1B5A
330
18
100
AcDbEntity
  8
1
  6
Continuous
100
AcDbLine
 10
212.5644356182281
 20
152.3891354553452
 30
0.0
 11
212.5644356182281
 21
139.3891354553453
 31
0.0
  0
LINE
  5
1B5B
330
18
100
AcDbEntity
  8
1
  6
Continuous
100
AcDbLine
 10
211.7644356182283
 20
139.3891354553453
 30
0.0
 11
212.5644356182281
 21
139.3891354553453
 31
0.0
  0
LINE
  5
1B5C
330
18
100
AcDbEntity
  8
1
  6
Continuous
100
AcDbLine
 10
223.1874618811168
 20
139.5382824553424
 30
0.0
 11
226.3874618811165
 21
139.5382824553424
 31
0.0
  0
LINE
  5
1B5D
330
18
100
AcDbEntity
  8
1
  6
Continuous
100
AcDbLine
 10
211.7644356182283
 20
152.3891354553452
 30
0.0
 11
212.5644356182281
 21
152.3891354553452
 31
0.0
  0
LINE
  5
1B5E
330
18
100
AcDbEntity
  8
1
  6
Continuous
100
AcDbLine
 10
211.4663940646069
 20
142.5920611643619
 30
0.0
 11
211.4644358211969
 21
142.214362919042
 31
0.0
  0
LINE
  5
1B5F
330
18
100
AcDbEntity
  8
1
  6
Continuous
100
AcDbLine
 10
211.4644356182281
 20
144.2093709553454
 30
0.0
 11
211.4644366634844
 21
143.7480984658884
 31
0.0
  0
LINE
  5
1B60
330
18
100
AcDbEntity
  8
1
  6
Continuous
100
AcDbLine
 10
211.4644356182281
 20
149.5435824553453
 30
0.0
 11
211.4644356182281
 21
149.1584094553454
 31
0.0
  0
LINE
  5
1B61
330
18
100
AcDbEntity
  8
1
  6
Continuous
100
AcDbLine
 10
212.8629942407557
 20
149.18611776012
 30
0.0
 11
212.8644356182283
 21
148.8006869553454
 31
0.0
  0
LINE
  5
1B62
330
18
100
AcDbEntity
  8
1
  6
Continuous
100
AcDbLine
 10
211.7644356182283
 20
149.0141354553452
 30
0.0
 11
211.5370376182283
 21
149.1454239553453
 31
0.0
  0
LINE
  5
1B63
330
18
100
AcDbEntity
  8
1
  6
Continuous
100
AcDbLine
 10
211.4644356182281
 20
149.5435824553453
 30
0.0
 11
211.7644356182283
 21
149.4899239553454
 31
0.0
  0
LINE
  5
1B64
330
18
100
AcDbEntity
  8
1
  6
Continuous
100
AcDbLine
 10
211.4644356182281
 20
149.1584094553454
 30
0.0
 11
211.7644356182283
 21
149.1047514553453
 31
0.0
  0
ARC
  5
1B65
330
18
100
AcDbEntity
  8
1
  6
Continuous
100
AcDbCircle
 10
211.0275901182283
 20
151.3279539553453
 30
0.0
 40
1.837066999999999
100
AcDbArc
 50
283.7564389999991
 51
293.6468899999997
  0
ARC
  5
1B66
330
18
100
AcDbEntity
  8
1
  6
Continuous
100
AcDbCircle
 10
213.043527618228
 20
150.1900099553453
 30
0.0
 40
1.019995999999999
100
AcDbArc
 50
241.9851680000026
 51
259.8875109999974
  0
LINE
  5
1B67
330
18
100
AcDbEntity
  8
1
  6
Continuous
100
AcDbLine
 10
212.5644356182283
 20
149.2395179553454
 30
0.0
 11
212.8644356182283
 21
149.1858599553452
 31
0.0
  0
LINE
  5
1B68
330
18
100
AcDbEntity
  8
1
  6
Continuous
100
AcDbLine
 10
212.5644356182281
 20
148.8543454553453
 30
0.0
 11
212.8644356182283
 21
148.8006869553454
 31
0.0
  0
LINE
  5
1B69
330
18
100
AcDbEntity
  8
1
  6
Continuous
100
AcDbLine
 10
211.4644356182281
 20
144.2093709553454
 30
0.0
 11
211.7644356182281
 21
144.0688909553454
 31
0.0
  0
LINE
  5
1B6A
330
18
100
AcDbEntity
  8
1
  6
Continuous
100
AcDbLine
 10
211.4644356182281
 20
142.5924114553454
 30
0.0
 11
211.7644356182283
 21
142.5387529553454
 31
0.0
  0
LINE
  5
1B6B
330
18
100
AcDbEntity
  8
1
  6
Continuous
100
AcDbLine
 10
211.4674046182282
 20
147.9612734553453
 30
0.0
 11
211.7644356182283
 21
147.8221839553453
 31
0.0
  0
LINE
  5
1B6C
330
18
100
AcDbEntity
  8
1
  6
Continuous
100
AcDbLine
 10
211.4644356182281
 20
145.9111479553453
 30
0.0
 11
211.7644356182283
 21
145.7375054553453
 31
0.0
  0
LINE
  5
1B6D
330
18
100
AcDbEntity
  8
1
  6
Continuous
100
AcDbLine
 10
211.4644356182281
 20
143.7480989553453
 30
0.0
 11
211.7644356182283
 21
143.6076194553453
 31
0.0
  0
LINE
  5
1B6E
330
18
100
AcDbEntity
  8
1
  6
Continuous
100
AcDbLine
 10
212.5644356182281
 20
147.3193334553453
 30
0.0
 11
212.864435618228
 21
147.6566699553453
 31
0.0
  0
LINE
  5
1B6F
330
18
100
AcDbEntity
  8
1
  6
Continuous
100
AcDbLine
 10
211.4644356182281
 20
145.9111479553452
 30
0.0
 11
211.7644356182283
 21
146.4319104553453
 31
0.0
  0
LINE
  5
1B70
330
18
100
AcDbEntity
  8
1
  6
Continuous
100
AcDbLine
 10
212.5644356182281
 20
147.7971494553453
 30
0.0
 11
212.8644356182283
 21
147.6566699553453
 31
0.0
  0
LINE
  5
1B71
330
18
100
AcDbEntity
  8
1
  6
Continuous
100
AcDbLine
 10
212.5644356182281
 20
145.8295064553452
 30
0.0
 11
212.8549256182281
 21
145.6613689553452
 31
0.0
  0
LINE
  5
1B72
330
18
100
AcDbEntity
  8
1
  6
Continuous
100
AcDbLine
 10
212.5644356182281
 20
143.4133199553453
 30
0.0
 11
212.8644356182283
 21
143.2728404553453
 31
0.0
  0
ARC
  5
1B73
330
18
100
AcDbEntity
  8
1
  6
Continuous
100
AcDbCircle
 10
210.4953386182283
 20
142.5137024553453
 30
0.0
 40
1.569358
100
AcDbArc
 50
36.0335319999986
 51
51.865334999998
  0
LINE
  5
1B74
330
18
100
AcDbEntity
  8
1
  6
Continuous
100
AcDbLine
 10
212.8549256182281
 20
145.6613689553452
 30
0.0
 11
212.5644356182283
 21
144.9685184553453
 31
0.0
  0
LINE
  5
1B75
330
18
100
AcDbEntity
  8
1
  6
Continuous
100
AcDbLine
 10
211.7644356182283
 20
142.7641354553452
 30
0.0
 11
211.4644356182281
 21
142.5909304553452
 31
0.0
  0
ARC
  5
1B76
330
18
100
AcDbEntity
  8
1
  6
Continuous
100
AcDbCircle
 10
213.3529881182282
 20
142.2991359553452
 30
0.0
 40
1.0893965
100
AcDbArc
 50
116.645030999999
 51
136.3727299999994
  0
LINE
  5
1B77
330
18
100
AcDbEntity
  8
1
  6
Continuous
100
AcDbLine
 10
211.4644356182281
 20
142.2143629553453
 30
0.0
 11
211.7644356182283
 21
142.1607044553454
 31
0.0
  0
ARC
  5
1B78
330
18
100
AcDbEntity
  8
1
  6
Continuous
100
AcDbCircle
 10
213.1962051182282
 20
141.3625019553452
 30
0.0
 40
0.9331565000000001
100
AcDbArc
 50
110.8262309999989
 51
132.6115579999997
  0
ARC
  5
1B79
330
18
100
AcDbEntity
  8
1
  6
Continuous
100
AcDbCircle
 10
209.6568681182281
 20
140.6126424553453
 30
0.0
 40
2.415121
100
AcDbArc
 50
29.23134799999971
 51
41.54477800000059
  0
LINE
  5
1B7A
330
18
100
AcDbEntity
  8
1
  6
Continuous
100
AcDbLine
 10
212.5644356182281
 20
142.2883469553453
 30
0.0
 11
212.8644356182283
 21
142.2346889553453
 31
0.0
  0
LINE
  5
1B7B
330
18
100
AcDbEntity
  8
1
  6
Continuous
100
AcDbLine
 10
211.4674046182282
 20
147.9612734553452
 30
0.0
 11
211.7644356182283
 21
148.2952714553454
 31
0.0
  0
ARC
  5
1B7C
330
18
100
AcDbEntity
  8
1
  6
Continuous
100
AcDbCircle
 10
208.0251371182281
 20
150.5496184553452
 30
0.0
 40
4.308307499999997
100
AcDbArc
 50
323.2931209999991
 51
330.2186899999989
  0
LINE
  5
1B7D
330
18
100
AcDbEntity
  8
1
  6
Continuous
100
AcDbLine
 10
223.1874618811168
 20
152.2399884553424
 30
0.0
 11
226.3874618811165
 21
152.2399884553424
 31
0.0
  0
LINE
  5
1B7E
330
18
100
AcDbEntity
  8
1
  6
Continuous
100
AcDbLine
 10
226.3874618811165
 20
149.0645619553425
 30
0.0
 11
223.1874618811168
 21
149.0645619553425
 31
0.0
  0
LINE
  5
1B7F
330
18
100
AcDbEntity
  8
1
  6
Continuous
100
AcDbLine
 10
226.3874618811165
 20
142.7137089553424
 30
0.0
 11
223.1874618811168
 21
142.7137089553424
 31
0.0
  0
ARC
  5
1B80
330
18
100
AcDbEntity
  8
1
  6
Continuous
100
AcDbCircle
 10
233.0207953811168
 20
145.8891354553424
 30
0.0
 40
10.3333335
100
AcDbArc
 50
162.1034489999992
 51
197.8965510000007
  0
ARC
  5
1B81
330
18
100
AcDbEntity
  8
1
  6
Continuous
100
AcDbCircle
 10
216.5541283811168
 20
145.8891354553424
 30
0.0
 40
10.3333335
100
AcDbArc
 50
342.1034489999992
 51
17.8965510000008
  0
ARC
  5
1B82
330
18
100
AcDbEntity
  8
1
  6
Continuous
100
AcDbCircle
 10
224.1166283811169
 20
150.6522754553424
 30
0.0
 40
2.770833499999998
100
AcDbArc
 50
325.0396599999989
 51
34.96034000000097
  0
ARC
  5
1B83
330
18
100
AcDbEntity
  8
1
  6
Continuous
100
AcDbCircle
 10
225.4582953811168
 20
150.6522754553424
 30
0.0
 40
2.770833499999998
100
AcDbArc
 50
145.039659999999
 51
214.9603400000009
  0
LINE
  5
1B84
330
18
100
AcDbEntity
  8
1
  6
Continuous
100
AcDbLine
 10
226.8874618811167
 20
150.6522754553424
 30
0.0
 11
226.8874618811167
 21
141.1259959553424
 31
0.0
  0
LINE
  5
1B85
330
18
100
AcDbEntity
  8
1
  6
Continuous
100
AcDbLine
 10
222.6874618811168
 20
150.6522754553424
 30
0.0
 11
222.6874618811168
 21
141.1259959553424
 31
0.0
  0
LINE
  5
1C51
330
18
100
AcDbEntity
  8
2
  6
Continuous
100
AcDbLine
 10
148.4704951249446
 20
147.1391354557104
 30
0.0
 11
146.2768285242455
 21
148.1162409557104
 31
0.0
  0
LINE
  5
1C52
330
18
100
AcDbEntity
  8
2
  6
Continuous
100
AcDbLine
 10
153.9831619235463
 20
147.1391354557104
 30
0.0
 11
156.1768285242455
 21
148.1162409557104
 31
0.0
  0
LINE
  5
1C5E
330
18
100
AcDbEntity
  8
2
  6
Continuous
100
AcDbLine
 10
156.0828285247291
 20
142.7951354552303
 30
0.0
 11
146.2768285242455
 21
142.7951354552303
 31
0.0
  0
LINE
  5
1C74
330
18
100
AcDbEntity
  8
2
  6
Continuous
100
AcDbLine
 10
143.2183285247105
 20
136.9306354552653
 30
0.0
 11
129.4183285238003
 21
136.9306354552653
 31
0.0
  0
LINE
  5
1C75
330
18
100
AcDbEntity
  8
2
  6
Continuous
100
AcDbLine
 10
129.4183285238003
 20
136.9306354552653
 30
0.0
 11
128.8768285242455
 21
136.3891354557104
 31
0.0
  0
LINE
  5
1D44
330
18
100
AcDbEntity
  8
4
  6
CENTER
100
AcDbLine
 10
116.9128976757814
 20
219.8514386410345
 30
0.0
 11
157.862831040141
 21
219.8514386409889
 31
0.0
  0
LINE
  5
1D48
330
18
100
AcDbEntity
  8
1
  6
Continuous
100
AcDbLine
 10
120.4768285242455
 20
207.8514386414855
 30
0.0
 11
120.4768285242455
 21
231.8514386414856
 31
0.0
  0
LINE
  5
1D49
330
18
100
AcDbEntity
  8
1
  6
Continuous
100
AcDbLine
 10
128.6768285242456
 20
204.8514386414856
 30
0.0
 11
128.6768285242456
 21
234.8514386414856
 31
0.0
  0
LINE
  5
1D4A
330
18
100
AcDbEntity
  8
1
  6
Continuous
100
AcDbLine
 10
127.6768285242456
 20
204.8514386414856
 30
0.0
 11
120.4768285242455
 21
207.8514386414855
 31
0.0
  0
LINE
  5
1D4B
330
18
100
AcDbEntity
  8
1
  6
Continuous
100
AcDbLine
 10
128.8768285242455
 20
209.8514386414855
 30
0.0
 11
128.6768285242456
 21
209.8514386414855
 31
0.0
  0
LINE
  5
1D4C
330
18
100
AcDbEntity
  8
1
  6
Continuous
100
AcDbLine
 10
128.6768285242456
 20
204.8514386414856
 30
0.0
 11
127.6768285242456
 21
204.8514386414856
 31
0.0
  0
LINE
  5
1D63
330
18
100
AcDbEntity
  8
1
  6
Continuous
100
AcDbLine
 10
119.1768285242456
 20
224.5514386414857
 30
0.0
 11
119.1768285242456
 21
215.1514386414856
 31
0.0
  0
LINE
  5
1D67
330
18
100
AcDbEntity
  8
1
  6
Continuous
100
AcDbLine
 10
120.4768285242455
 20
213.8514386414855
 30
0.0
 11
119.1768285242456
 21
215.1514386414856
 31
0.0
  0
LINE
  5
1D6D
330
18
100
AcDbEntity
  8
1
  6
Continuous
100
AcDbLine
 10
120.4768285242455
 20
231.8514386414856
 30
0.0
 11
127.6768285242456
 21
234.8514386414856
 31
0.0
  0
LINE
  5
1D6E
330
18
100
AcDbEntity
  8
1
  6
Continuous
100
AcDbLine
 10
120.4768285242455
 20
225.8514386414856
 30
0.0
 11
119.1768285242456
 21
224.5514386414857
 31
0.0
  0
LINE
  5
1D70
330
18
100
AcDbEntity
  8
1
  6
Continuous
100
AcDbLine
 10
128.6768285242456
 20
229.8514386414856
 30
0.0
 11
128.8768285242455
 21
229.8514386414856
 31
0.0
  0
LINE
  5
1D71
330
18
100
AcDbEntity
  8
1
  6
Continuous
100
AcDbLine
 10
127.6768285242456
 20
234.8514386414856
 30
0.0
 11
128.6768285242456
 21
234.8514386414856
 31
0.0
  0
LINE
  5
1D72
330
18
100
AcDbEntity
  8
1
  6
Continuous
100
AcDbLine
 10
129.4183285247104
 20
227.7514386410735
 30
0.0
 11
129.4183285247104
 21
211.9514386410736
 31
0.0
  0
LINE
  5
1D73
330
18
100
AcDbEntity
  8
1
  6
Continuous
100
AcDbLine
 10
128.8768285242455
 20
229.8514386414856
 30
0.0
 11
128.8768285242454
 21
209.8514386414855
 31
0.0
  0
LINE
  5
1D75
330
18
100
AcDbEntity
  8
1
  6
Continuous
100
AcDbLine
 10
144.6768285242454
 20
212.151438648291
 30
0.0
 11
144.6768285242454
 21
227.2605956410736
 31
0.0
  0
LINE
  5
1D76
330
18
100
AcDbEntity
  8
1
  6
Continuous
100
AcDbLine
 10
144.1768285242456
 20
211.9514386410736
 30
0.0
 11
144.1768285242456
 21
227.7514386410735
 31
0.0
  0
LINE
  5
1D77
330
18
100
AcDbEntity
  8
1
  6
Continuous
100
AcDbLine
 10
146.2768285242455
 20
227.2605956410736
 30
0.0
 11
146.2768285242455
 21
212.151438648291
 31
0.0
  0
LINE
  5
1D81
330
18
100
AcDbEntity
  8
1
  6
Continuous
100
AcDbLine
 10
144.6768285242454
 20
215.5514386414854
 30
0.0
 11
144.4768285242455
 21
215.3514386414856
 31
0.0
  0
LINE
  5
1D82
330
18
100
AcDbEntity
  8
1
  6
Continuous
100
AcDbLine
 10
144.4768285242455
 20
215.3514386414856
 30
0.0
 11
144.1768285242456
 21
215.3514386414856
 31
0.0
  0
LINE
  5
1D84
330
18
100
AcDbEntity
  8
1
  6
Continuous
100
AcDbLine
 10
146.2768285242455
 20
212.151438648291
 30
0.0
 11
144.6768285242454
 21
212.151438648291
 31
0.0
  0
LINE
  5
1D8B
330
18
100
AcDbEntity
  8
1
  6
Continuous
100
AcDbLine
 10
144.6768285242454
 20
227.2605956410736
 30
0.0
 11
146.2768285242455
 21
227.2605956410736
 31
0.0
  0
LINE
  5
1D8C
330
18
100
AcDbEntity
  8
1
  6
Continuous
100
AcDbLine
 10
144.1768285242456
 20
224.3514386414856
 30
0.0
 11
144.4768285242455
 21
224.3514386414856
 31
0.0
  0
LINE
  5
1D8D
330
18
100
AcDbEntity
  8
1
  6
Continuous
100
AcDbLine
 10
144.4768285242455
 20
224.3514386414856
 30
0.0
 11
144.6768285242454
 21
224.1514386414856
 31
0.0
  0
LINE
  5
1D91
330
18
100
AcDbEntity
  8
1
  6
Continuous
100
AcDbLine
 10
143.4768285242455
 20
227.7514386410735
 30
0.0
 11
143.4768285242455
 21
211.9514386410736
 31
0.0
  0
LINE
  5
1D93
330
18
100
AcDbEntity
  8
1
  6
Continuous
100
AcDbLine
 10
142.5768285242456
 20
227.7514386410735
 30
0.0
 11
142.5768285242456
 21
211.9514386410736
 31
0.0
  0
LINE
  5
1D97
330
18
100
AcDbEntity
  8
1
  6
Continuous
100
AcDbLine
 10
155.6768285242456
 20
217.1514386410736
 30
0.0
 11
155.6768285242455
 21
222.5514386410736
 31
0.0
  0
LINE
  5
1D9B
330
18
100
AcDbEntity
  8
1
  6
Continuous
100
AcDbLine
 10
156.1768285242455
 20
217.1514386410736
 30
0.0
 11
156.1768285242455
 21
222.5514386410736
 31
0.0
  0
LINE
  5
1DA2
330
18
100
AcDbEntity
  8
4
  6
CENTER
100
AcDbLine
 10
193.1638929669525
 20
219.8514386410311
 30
0.0
 11
229.6825652817419
 21
219.8514386410737
 31
0.0
  0
ARC
  5
1DB0
330
18
100
AcDbEntity
  8
1
  6
Continuous
100
AcDbCircle
 10
211.0275901182283
 20
225.2902571411206
 30
0.0
 40
1.837066999999999
100
AcDbArc
 50
283.7564389999991
 51
293.6468899999997
  0
LINE
  5
1DB2
330
18
100
AcDbEntity
  8
1
  6
Continuous
100
AcDbLine
 10
211.7644356182283
 20
226.3514386411205
 30
0.0
 11
211.7644356182283
 21
213.3514386411206
 31
0.0
  0
LINE
  5
1DB3
330
18
100
AcDbEntity
  8
1
  6
Continuous
100
AcDbLine
 10
212.5644356182281
 20
226.3514386411205
 30
0.0
 11
212.5644356182281
 21
213.3514386411206
 31
0.0
  0
LINE
  5
1DB5
330
18
100
AcDbEntity
  8
1
  6
Continuous
100
AcDbLine
 10
211.4644356182281
 20
223.5058856411205
 30
0.0
 11
211.4644356182281
 21
223.1207126411205
 31
0.0
  0
LINE
  5
1DB6
330
18
100
AcDbEntity
  8
1
  6
Continuous
100
AcDbLine
 10
212.8629942407557
 20
223.1484209458951
 30
0.0
 11
212.8644356182283
 21
222.7629901411205
 31
0.0
  0
LINE
  5
1DB7
330
18
100
AcDbEntity
  8
1
  6
Continuous
100
AcDbLine
 10
211.7644356182283
 20
222.9764386411206
 30
0.0
 11
211.5370376182283
 21
223.1077271411205
 31
0.0
  0
LINE
  5
1DB8
330
18
100
AcDbEntity
  8
1
  6
Continuous
100
AcDbLine
 10
211.4644356182281
 20
223.5058856411205
 30
0.0
 11
211.7644356182283
 21
223.4522271411206
 31
0.0
  0
LINE
  5
1DB9
330
18
100
AcDbEntity
  8
1
  6
Continuous
100
AcDbLine
 10
211.4644356182281
 20
223.1207126411205
 30
0.0
 11
211.7644356182283
 21
223.0670546411205
 31
0.0
  0
ARC
  5
1DBA
330
18
100
AcDbEntity
  8
1
  6
Continuous
100
AcDbCircle
 10
213.043527618228
 20
224.1523131411204
 30
0.0
 40
1.019995999999999
100
AcDbArc
 50
241.9851680000026
 51
259.8875109999974
  0
LINE
  5
1DBB
330
18
100
AcDbEntity
  8
1
  6
Continuous
100
AcDbLine
 10
212.5644356182283
 20
223.2018211411206
 30
0.0
 11
212.8644356182283
 21
223.1481631411204
 31
0.0
  0
LINE
  5
1DBC
330
18
100
AcDbEntity
  8
1
  6
Continuous
100
AcDbLine
 10
212.5644356182281
 20
222.8166486411205
 30
0.0
 11
212.8644356182283
 21
222.7629901411205
 31
0.0
  0
LINE
  5
1DBD
330
18
100
AcDbEntity
  8
1
  6
Continuous
100
AcDbLine
 10
211.7644356182283
 20
213.3514386411206
 30
0.0
 11
212.5644356182281
 21
213.3514386411206
 31
0.0
  0
LINE
  5
1DBE
330
18
100
AcDbEntity
  8
1
  6
Continuous
100
AcDbLine
 10
211.4663940646069
 20
216.5543643501373
 30
0.0
 11
211.4644358211969
 21
216.1766661048172
 31
0.0
  0
LINE
  5
1DBF
330
18
100
AcDbEntity
  8
1
  6
Continuous
100
AcDbLine
 10
211.4644356182281
 20
218.1716741411205
 30
0.0
 11
211.4644366634844
 21
217.7104016516635
 31
0.0
  0
LINE
  5
1DC0
330
18
100
AcDbEntity
  8
1
  6
Continuous
100
AcDbLine
 10
211.4644356182281
 20
218.1716741411205
 30
0.0
 11
211.7644356182281
 21
218.0311941411205
 31
0.0
  0
LINE
  5
1DC1
330
18
100
AcDbEntity
  8
1
  6
Continuous
100
AcDbLine
 10
211.4644356182281
 20
216.5547146411205
 30
0.0
 11
211.7644356182283
 21
216.5010561411206
 31
0.0
  0
LINE
  5
1DC2
330
18
100
AcDbEntity
  8
1
  6
Continuous
100
AcDbLine
 10
211.4674046182282
 20
221.9235766411205
 30
0.0
 11
211.7644356182283
 21
221.7844871411205
 31
0.0
  0
LINE
  5
1DC3
330
18
100
AcDbEntity
  8
1
  6
Continuous
100
AcDbLine
 10
211.4644356182281
 20
219.8734511411206
 30
0.0
 11
211.7644356182283
 21
219.6998086411205
 31
0.0
  0
LINE
  5
1DC4
330
18
100
AcDbEntity
  8
1
  6
Continuous
100
AcDbLine
 10
211.4644356182281
 20
217.7104021411206
 30
0.0
 11
211.7644356182283
 21
217.5699226411206
 31
0.0
  0
LINE
  5
1DC5
330
18
100
AcDbEntity
  8
1
  6
Continuous
100
AcDbLine
 10
212.5644356182281
 20
221.2816366411205
 30
0.0
 11
212.864435618228
 21
221.6189731411204
 31
0.0
  0
LINE
  5
1DC6
330
18
100
AcDbEntity
  8
1
  6
Continuous
100
AcDbLine
 10
211.4644356182281
 20
219.8734511411204
 30
0.0
 11
211.7644356182283
 21
220.3942136411205
 31
0.0
  0
LINE
  5
1DC7
330
18
100
AcDbEntity
  8
1
  6
Continuous
100
AcDbLine
 10
212.5644356182281
 20
221.7594526411204
 30
0.0
 11
212.8644356182283
 21
221.6189731411206
 31
0.0
  0
LINE
  5
1DC8
330
18
100
AcDbEntity
  8
1
  6
Continuous
100
AcDbLine
 10
212.5644356182281
 20
219.7918096411206
 30
0.0
 11
212.8549256182281
 21
219.6236721411204
 31
0.0
  0
LINE
  5
1DC9
330
18
100
AcDbEntity
  8
1
  6
Continuous
100
AcDbLine
 10
212.5644356182281
 20
217.3756231411206
 30
0.0
 11
212.8644356182283
 21
217.2351436411204
 31
0.0
  0
ARC
  5
1DCA
330
18
100
AcDbEntity
  8
1
  6
Continuous
100
AcDbCircle
 10
210.4953386182283
 20
216.4760056411207
 30
0.0
 40
1.569358
100
AcDbArc
 50
36.0335319999986
 51
51.865334999998
  0
LINE
  5
1DCB
330
18
100
AcDbEntity
  8
1
  6
Continuous
100
AcDbLine
 10
212.8549256182281
 20
219.6236721411204
 30
0.0
 11
212.5644356182283
 21
218.9308216411204
 31
0.0
  0
LINE
  5
1DCC
330
18
100
AcDbEntity
  8
1
  6
Continuous
100
AcDbLine
 10
211.7644356182283
 20
216.7264386411206
 30
0.0
 11
211.4644356182281
 21
216.5532336411204
 31
0.0
  0
ARC
  5
1DCD
330
18
100
AcDbEntity
  8
1
  6
Continuous
100
AcDbCircle
 10
213.3529881182282
 20
216.2614391411204
 30
0.0
 40
1.0893965
100
AcDbArc
 50
116.645030999999
 51
136.3727299999994
  0
LINE
  5
1DCE
330
18
100
AcDbEntity
  8
1
  6
Continuous
100
AcDbLine
 10
211.4644356182281
 20
216.1766661411205
 30
0.0
 11
211.7644356182283
 21
216.1230076411206
 31
0.0
  0
ARC
  5
1DCF
330
18
100
AcDbEntity
  8
1
  6
Continuous
100
AcDbCircle
 10
213.1962051182282
 20
215.3248051411206
 30
0.0
 40
0.9331565000000001
100
AcDbArc
 50
110.8262309999989
 51
132.6115579999997
  0
ARC
  5
1DD0
330
18
100
AcDbEntity
  8
1
  6
Continuous
100
AcDbCircle
 10
209.6568681182281
 20
214.5749456411206
 30
0.0
 40
2.415121
100
AcDbArc
 50
29.23134799999971
 51
41.54477800000059
  0
LINE
  5
1DD1
330
18
100
AcDbEntity
  8
1
  6
Continuous
100
AcDbLine
 10
212.5644356182281
 20
216.2506501411205
 30
0.0
 11
212.8644356182283
 21
216.1969921411205
 31
0.0
  0
LINE
  5
1DD2
330
18
100
AcDbEntity
  8
1
  6
Continuous
100
AcDbLine
 10
211.4674046182282
 20
221.9235766411205
 30
0.0
 11
211.7644356182283
 21
222.2575746411206
 31
0.0
  0
ARC
  5
1DD3
330
18
100
AcDbEntity
  8
1
  6
Continuous
100
AcDbCircle
 10
208.0251371182281
 20
224.5119216411204
 30
0.0
 40
4.308307499999997
100
AcDbArc
 50
323.2931209999991
 51
330.2186899999989
  0
LINE
  5
1DD6
330
18
100
AcDbEntity
  8
1
  6
Continuous
100
AcDbLine
 10
211.7644356182283
 20
226.3514386411205
 30
0.0
 11
212.5644356182281
 21
226.3514386411205
 31
0.0
  0
LINE
  5
2029
330
18
100
AcDbEntity
  8
1
  6
Continuous
100
AcDbLine
 10
128.8768285242455
 20
227.7514386410735
 30
0.0
 11
144.1768285242456
 21
227.7514386410735
 31
0.0
  0
LINE
  5
202A
330
18
100
AcDbEntity
  8
1
  6
Continuous
100
AcDbLine
 10
128.8768285242454
 20
211.9514386410736
 30
0.0
 11
144.1768285242456
 21
211.9514386410736
 31
0.0
  0
LINE
  5
2035
330
18
100
AcDbEntity
  8
1
  6
Continuous
100
AcDbLine
 10
146.2768285242455
 20
222.5514386410736
 30
0.0
 11
156.1768285242455
 21
222.5514386410736
 31
0.0
  0
LINE
  5
2036
330
18
100
AcDbEntity
  8
1
  6
Continuous
100
AcDbLine
 10
146.2768285242455
 20
217.1514386410736
 30
0.0
 11
156.1768285242455
 21
217.1514386410736
 31
0.0
  0
LINE
  5
208F
330
18
100
AcDbEntity
  8
4
  6
CENTER
100
AcDbLine
 10
116.9128976757814
 20
71.92683226948415
 30
0.0
 11
157.862831040141
 21
71.92683226952969
 31
0.0
  0
LINE
  5
2094
330
18
100
AcDbEntity
  8
1
  6
Continuous
100
AcDbLine
 10
146.2768285242455
 20
69.22683226944513
 30
0.0
 11
156.1768285242455
 21
69.22683226944513
 31
0.0
  0
LINE
  5
2095
330
18
100
AcDbEntity
  8
1
  6
Continuous
100
AcDbLine
 10
146.2768285242455
 20
74.62683226944512
 30
0.0
 11
156.1768285242455
 21
74.62683226944512
 31
0.0
  0
LINE
  5
2096
330
18
100
AcDbEntity
  8
1
  6
Continuous
100
AcDbLine
 10
128.8768285242455
 20
61.92683226903304
 30
0.0
 11
128.8768285242454
 21
81.92683226903305
 31
0.0
  0
LINE
  5
2097
330
18
100
AcDbEntity
  8
1
  6
Continuous
100
AcDbLine
 10
128.6768285242456
 20
86.92683226903307
 30
0.0
 11
128.6768285242456
 21
56.92683226903304
 31
0.0
  0
LINE
  5
2098
330
18
100
AcDbEntity
  8
1
  6
Continuous
100
AcDbLine
 10
120.4768285242455
 20
83.92683226903306
 30
0.0
 11
120.4768285242455
 21
59.92683226903304
 31
0.0
  0
LINE
  5
2099
330
18
100
AcDbEntity
  8
1
  6
Continuous
100
AcDbLine
 10
127.6768285242456
 20
86.92683226903307
 30
0.0
 11
120.4768285242455
 21
83.92683226903306
 31
0.0
  0
LINE
  5
209A
330
18
100
AcDbEntity
  8
1
  6
Continuous
100
AcDbLine
 10
128.6768285242456
 20
86.92683226903307
 30
0.0
 11
127.6768285242456
 21
86.92683226903307
 31
0.0
  0
LINE
  5
209B
330
18
100
AcDbEntity
  8
1
  6
Continuous
100
AcDbLine
 10
128.8768285242455
 20
81.92683226903305
 30
0.0
 11
128.6768285242456
 21
81.92683226903305
 31
0.0
  0
LINE
  5
209C
330
18
100
AcDbEntity
  8
1
  6
Continuous
100
AcDbLine
 10
128.8768285242454
 20
79.82683226944505
 30
0.0
 11
144.1768285242456
 21
79.82683226944505
 31
0.0
  0
LINE
  5
209D
330
18
100
AcDbEntity
  8
1
  6
Continuous
100
AcDbLine
 10
128.8768285242455
 20
64.02683226944509
 30
0.0
 11
144.1768285242456
 21
64.02683226944509
 31
0.0
  0
LINE
  5
209E
330
18
100
AcDbEntity
  8
1
  6
Continuous
100
AcDbLine
 10
129.4183285247104
 20
64.02683226944509
 30
0.0
 11
129.4183285247104
 21
79.82683226944505
 31
0.0
  0
LINE
  5
209F
330
18
100
AcDbEntity
  8
1
  6
Continuous
100
AcDbLine
 10
119.1768285242456
 20
67.22683226903305
 30
0.0
 11
119.1768285242456
 21
76.62683226903306
 31
0.0
  0
LINE
  5
20A0
330
18
100
AcDbEntity
  8
1
  6
Continuous
100
AcDbLine
 10
120.4768285242455
 20
77.92683226903306
 30
0.0
 11
119.1768285242456
 21
76.62683226903306
 31
0.0
  0
LINE
  5
20A1
330
18
100
AcDbEntity
  8
1
  6
Continuous
100
AcDbLine
 10
120.4768285242455
 20
59.92683226903304
 30
0.0
 11
127.6768285242456
 21
56.92683226903304
 31
0.0
  0
LINE
  5
20A2
330
18
100
AcDbEntity
  8
1
  6
Continuous
100
AcDbLine
 10
120.4768285242455
 20
65.92683226903304
 30
0.0
 11
119.1768285242456
 21
67.22683226903305
 31
0.0
  0
LINE
  5
20A3
330
18
100
AcDbEntity
  8
1
  6
Continuous
100
AcDbLine
 10
127.6768285242456
 20
56.92683226903304
 30
0.0
 11
128.6768285242456
 21
56.92683226903304
 31
0.0
  0
LINE
  5
20A4
330
18
100
AcDbEntity
  8
1
  6
Continuous
100
AcDbLine
 10
128.6768285242456
 20
61.92683226903304
 30
0.0
 11
128.8768285242455
 21
61.92683226903304
 31
0.0
  0
LINE
  5
20A5
330
18
100
AcDbEntity
  8
1
  6
Continuous
100
AcDbLine
 10
142.5768285242456
 20
64.02683226944509
 30
0.0
 11
142.5768285242456
 21
79.82683226944505
 31
0.0
  0
LINE
  5
20A6
330
18
100
AcDbEntity
  8
1
  6
Continuous
100
AcDbLine
 10
143.4768285242455
 20
64.02683226944509
 30
0.0
 11
143.4768285242455
 21
79.82683226944505
 31
0.0
  0
LINE
  5
20A7
330
18
100
AcDbEntity
  8
1
  6
Continuous
100
AcDbLine
 10
146.2768285242455
 20
64.51767526944506
 30
0.0
 11
146.2768285242455
 21
79.626832269445
 31
0.0
  0
LINE
  5
20A8
330
18
100
AcDbEntity
  8
1
  6
Continuous
100
AcDbLine
 10
144.1768285242456
 20
79.82683226944505
 30
0.0
 11
144.1768285242456
 21
76.07811365413372
 31
0.0
  0
LINE
  5
20A9
330
18
100
AcDbEntity
  8
1
  6
Continuous
100
AcDbLine
 10
144.6768285242454
 20
79.626832269445
 30
0.0
 11
144.6768285242454
 21
76.0781136541337
 31
0.0
  0
LINE
  5
20AA
330
18
100
AcDbEntity
  8
1
  6
Continuous
100
AcDbLine
 10
146.2768285242455
 20
79.626832269445
 30
0.0
 11
144.6768285242454
 21
79.626832269445
 31
0.0
  0
LINE
  5
20AB
330
18
100
AcDbEntity
  8
1
  6
Continuous
100
AcDbLine
 10
144.4768285242455
 20
76.42683226903305
 30
0.0
 11
144.1768285242456
 21
76.42683226903305
 31
0.0
  0
LINE
  5
20AC
330
18
100
AcDbEntity
  8
1
  6
Continuous
100
AcDbLine
 10
144.6768285242454
 20
76.22683226903316
 30
0.0
 11
144.4768285242455
 21
76.42683226903305
 31
0.0
  0
LINE
  5
20AD
330
18
100
AcDbEntity
  8
1
  6
Continuous
100
AcDbLine
 10
144.4768285242455
 20
67.42683226903304
 30
0.0
 11
144.6768285242454
 21
67.62683226903305
 31
0.0
  0
LINE
  5
20AE
330
18
100
AcDbEntity
  8
1
  6
Continuous
100
AcDbLine
 10
144.1768285242456
 20
67.42683226903304
 30
0.0
 11
144.4768285242455
 21
67.42683226903304
 31
0.0
  0
LINE
  5
20AF
330
18
100
AcDbEntity
  8
1
  6
Continuous
100
AcDbLine
 10
144.6768285242454
 20
64.51767526944506
 30
0.0
 11
146.2768285242455
 21
64.51767526944506
 31
0.0
  0
LINE
  5
20B1
330
18
100
AcDbEntity
  8
1
  6
Continuous
100
AcDbLine
 10
156.1768285242455
 20
74.62683226944512
 30
0.0
 11
156.1768285242455
 21
69.22683226944513
 31
0.0
  0
LINE
  5
20B2
330
18
100
AcDbEntity
  8
1
  6
Continuous
100
AcDbLine
 10
155.6768285242456
 20
74.62683226944512
 30
0.0
 11
155.6768285242455
 21
69.22683226944513
 31
0.0
  0
LINE
  5
20B7
330
18
100
AcDbEntity
  8
4
  6
CENTER
100
AcDbLine
 10
193.1638929669525
 20
71.92683226948759
 30
0.0
 11
229.6825652817419
 21
71.92683226944507
 31
0.0
  0
ARC
  5
20B8
330
18
100
AcDbEntity
  8
1
  6
Continuous
100
AcDbCircle
 10
184.2299480785154
 20
77.42683226948679
 30
0.0
 40
15.62500000000124
100
AcDbArc
 50
339.3903070624693
 51
20.60969293753062
  0
LINE
  5
20BA
330
18
100
AcDbEntity
  8
1
  6
Continuous
100
AcDbLine
 10
196.3549480785168
 20
60.92683226948389
 30
0.0
 11
196.3549480785165
 21
82.92683226948382
 31
0.0
  0
LINE
  5
20BB
330
18
100
AcDbEntity
  8
1
  6
Continuous
100
AcDbLine
 10
196.3549480785165
 20
82.92683226948382
 30
0.0
 11
198.8549480785163
 21
82.92683226948685
 31
0.0
  0
LINE
  5
20BC
330
18
100
AcDbEntity
  8
1
  6
Continuous
100
AcDbLine
 10
199.8549480785167
 20
66.42683226948088
 30
0.0
 11
199.8549480785167
 21
77.42683226948679
 31
0.0
  0
ARC
  5
20BD
330
18
100
AcDbEntity
  8
1
  6
Continuous
100
AcDbCircle
 10
184.2299480785154
 20
66.42683226948093
 30
0.0
 40
15.62500000000124
100
AcDbArc
 50
339.3903070624693
 51
20.60969293753062
  0
LINE
  5
20BE
330
18
100
AcDbEntity
  8
1
  6
Continuous
100
AcDbLine
 10
196.3549480785165
 20
71.92683226948386
 30
0.0
 11
198.8549480785166
 21
71.92683226948386
 31
0.0
  0
LINE
  5
20BF
330
18
100
AcDbEntity
  8
1
  6
Continuous
100
AcDbLine
 10
196.3549480785165
 20
60.92683226948389
 30
0.0
 11
198.8549480785163
 21
60.92683226948088
 31
0.0
  0
LINE
  5
20C0
330
18
100
AcDbEntity
  8
1
  6
Continuous
100
AcDbLine
 10
226.3874618811168
 20
66.42683226945798
 30
0.0
 11
223.1874618811168
 21
66.42683226945798
 31
0.0
  0
LINE
  5
20C1
330
18
100
AcDbEntity
  8
1
  6
Continuous
100
AcDbLine
 10
226.3874618811168
 20
71.92683226945797
 30
0.0
 11
223.1874618811168
 21
71.92683226945797
 31
0.0
  0
LINE
  5
20C2
330
18
100
AcDbEntity
  8
1
  6
Continuous
100
AcDbLine
 10
226.3874618811168
 20
77.42683226946803
 30
0.0
 11
223.1874618811168
 21
77.42683226946803
 31
0.0
  0
LINE
  5
20C3
330
18
100
AcDbEntity
  8
1
  6
Continuous
100
AcDbLine
 10
212.8629942407557
 20
68.62984996462353
 30
0.0
 11
212.8644356182283
 21
69.0152807693981
 31
0.0
  0
LINE
  5
20C4
330
18
100
AcDbEntity
  8
1
  6
Continuous
100
AcDbLine
 10
212.5644356182281
 20
65.42683226939819
 30
0.0
 11
212.5644356182281
 21
78.42683226939819
 31
0.0
  0
LINE
  5
20C5
330
18
100
AcDbEntity
  8
1
  6
Continuous
100
AcDbLine
 10
211.7644356182283
 20
65.42683226939819
 30
0.0
 11
211.7644356182283
 21
78.42683226939819
 31
0.0
  0
LINE
  5
20C7
330
18
100
AcDbEntity
  8
1
  6
Continuous
100
AcDbLine
 10
222.6874618811168
 20
68.75140588893154
 30
0.0
 11
222.6874618811168
 21
75.10225864998552
 31
0.0
  0
ARC
  5
20C8
330
18
100
AcDbEntity
  8
1
  6
Continuous
100
AcDbCircle
 10
230.499961733949
 20
69.17683226945874
 30
0.0
 40
7.812499862251119
100
AcDbArc
 50
159.3903066825476
 51
200.6096933174537
  0
ARC
  5
20C9
330
18
100
AcDbEntity
  8
1
  6
Continuous
100
AcDbCircle
 10
208.0251371182281
 20
67.26634926939819
 30
0.0
 40
4.308307499999997
100
AcDbArc
 50
29.78131000000105
 51
36.70687900000078
  0
LINE
  5
20CA
330
18
100
AcDbEntity
  8
1
  6
Continuous
100
AcDbLine
 10
211.4674046182282
 20
69.85469426939818
 30
0.0
 11
211.7644356182283
 21
69.5206962693981
 31
0.0
  0
LINE
  5
20CB
330
18
100
AcDbEntity
  8
1
  6
Continuous
100
AcDbLine
 10
212.5644356182281
 20
75.52762076939817
 30
0.0
 11
212.8644356182283
 21
75.58127876939818
 31
0.0
  0
ARC
  5
20CC
330
18
100
AcDbEntity
  8
1
  6
Continuous
100
AcDbCircle
 10
209.6568681182281
 20
77.20332526939817
 30
0.0
 40
2.415121
100
AcDbArc
 50
318.4552219999993
 51
330.7686520000003
  0
ARC
  5
20CD
330
18
100
AcDbEntity
  8
1
  6
Continuous
100
AcDbCircle
 10
213.1962051182282
 20
76.45346576939818
 30
0.0
 40
0.9331565000000001
100
AcDbArc
 50
227.388442
 51
249.173769000001
  0
LINE
  5
20CE
330
18
100
AcDbEntity
  8
1
  6
Continuous
100
AcDbLine
 10
211.4644356182281
 20
75.60160476939808
 30
0.0
 11
211.7644356182283
 21
75.65526326939806
 31
0.0
  0
ARC
  5
20CF
330
18
100
AcDbEntity
  8
1
  6
Continuous
100
AcDbCircle
 10
213.3529881182282
 20
75.51683176939818
 30
0.0
 40
1.0893965
100
AcDbArc
 50
223.6272700000005
 51
243.3549690000007
  0
LINE
  5
20D0
330
18
100
AcDbEntity
  8
1
  6
Continuous
100
AcDbLine
 10
211.7644356182283
 20
75.05183226939817
 30
0.0
 11
211.4644356182281
 21
75.22503726939817
 31
0.0
  0
LINE
  5
20D1
330
18
100
AcDbEntity
  8
1
  6
Continuous
100
AcDbLine
 10
212.8549256182281
 20
72.15459876939817
 30
0.0
 11
212.5644356182283
 21
72.84744926939817
 31
0.0
  0
ARC
  5
20D2
330
18
100
AcDbEntity
  8
1
  6
Continuous
100
AcDbCircle
 10
210.4953386182283
 20
75.30226526939808
 30
0.0
 40
1.569358
100
AcDbArc
 50
308.1346650000018
 51
323.9664680000013
  0
LINE
  5
20D3
330
18
100
AcDbEntity
  8
1
  6
Continuous
100
AcDbLine
 10
212.5644356182281
 20
74.40264776939816
 30
0.0
 11
212.8644356182283
 21
74.54312726939818
 31
0.0
  0
LINE
  5
20D4
330
18
100
AcDbEntity
  8
1
  6
Continuous
100
AcDbLine
 10
212.5644356182281
 20
71.98646126939815
 30
0.0
 11
212.8549256182281
 21
72.15459876939817
 31
0.0
  0
LINE
  5
20D5
330
18
100
AcDbEntity
  8
1
  6
Continuous
100
AcDbLine
 10
212.5644356182281
 20
70.01881826939818
 30
0.0
 11
212.8644356182283
 21
70.15929776939805
 31
0.0
  0
LINE
  5
20D6
330
18
100
AcDbEntity
  8
1
  6
Continuous
100
AcDbLine
 10
211.4644356182281
 20
71.90481976939827
 30
0.0
 11
211.7644356182283
 21
71.38405726939817
 31
0.0
  0
LINE
  5
20D7
330
18
100
AcDbEntity
  8
1
  6
Continuous
100
AcDbLine
 10
212.5644356182281
 20
70.49663426939815
 30
0.0
 11
212.864435618228
 21
70.15929776939818
 31
0.0
  0
LINE
  5
20D8
330
18
100
AcDbEntity
  8
1
  6
Continuous
100
AcDbLine
 10
211.4644356182281
 20
74.06786876939808
 30
0.0
 11
211.7644356182283
 21
74.20834826939816
 31
0.0
  0
LINE
  5
20D9
330
18
100
AcDbEntity
  8
1
  6
Continuous
100
AcDbLine
 10
211.4644356182281
 20
71.90481976939816
 30
0.0
 11
211.7644356182283
 21
72.07846226939816
 31
0.0
  0
LINE
  5
20DA
330
18
100
AcDbEntity
  8
1
  6
Continuous
100
AcDbLine
 10
211.4674046182282
 20
69.85469426939807
 30
0.0
 11
211.7644356182283
 21
69.99378376939808
 31
0.0
  0
LINE
  5
20DB
330
18
100
AcDbEntity
  8
1
  6
Continuous
100
AcDbLine
 10
211.4644356182281
 20
75.22355626939805
 30
0.0
 11
211.7644356182283
 21
75.27721476939809
 31
0.0
  0
LINE
  5
20DC
330
18
100
AcDbEntity
  8
1
  6
Continuous
100
AcDbLine
 10
211.4644356182281
 20
73.60659676939807
 30
0.0
 11
211.7644356182281
 21
73.74707676939806
 31
0.0
  0
LINE
  5
20DD
330
18
100
AcDbEntity
  8
1
  6
Continuous
100
AcDbLine
 10
211.4644356182281
 20
73.60659676939807
 30
0.0
 11
211.4644366634844
 21
74.06786925885509
 31
0.0
  0
LINE
  5
20DE
330
18
100
AcDbEntity
  8
1
  6
Continuous
100
AcDbLine
 10
211.4663940646069
 20
75.22390656038144
 30
0.0
 11
211.4644358211969
 21
75.6016048057015
 31
0.0
  0
LINE
  5
20DF
330
18
100
AcDbEntity
  8
1
  6
Continuous
100
AcDbLine
 10
211.7644356182283
 20
78.42683226939819
 30
0.0
 11
212.5644356182281
 21
78.42683226939819
 31
0.0
  0
LINE
  5
20E0
330
18
100
AcDbEntity
  8
1
  6
Continuous
100
AcDbLine
 10
212.5644356182281
 20
68.96162226939811
 30
0.0
 11
212.8644356182283
 21
69.0152807693981
 31
0.0
  0
ARC
  5
20E1
330
18
100
AcDbEntity
  8
1
  6
Continuous
100
AcDbCircle
 10
230.4999612475693
 20
74.67683215426737
 30
0.0
 40
7.812499366452697
100
AcDbArc
 50
159.390305825191
 51
200.6096937823225
  0
LINE
  5
20E2
330
18
100
AcDbEntity
  8
1
  6
Continuous
100
AcDbLine
 10
211.7644356182283
 20
65.42683226939819
 30
0.0
 11
212.5644356182281
 21
65.42683226939819
 31
0.0
  0
LINE
  5
20E3
330
18
100
AcDbEntity
  8
1
  6
Continuous
100
AcDbLine
 10
212.5644356182283
 20
68.57644976939804
 30
0.0
 11
212.8644356182283
 21
68.6301077693982
 31
0.0
  0
ARC
  5
20E4
330
18
100
AcDbEntity
  8
1
  6
Continuous
100
AcDbCircle
 10
213.043527618228
 20
67.62595776939814
 30
0.0
 40
1.019995999999999
100
AcDbArc
 50
100.1124890000026
 51
118.0148319999972
  0
LINE
  5
20E5
330
18
100
AcDbEntity
  8
1
  6
Continuous
100
AcDbLine
 10
211.4644356182281
 20
68.65755826939807
 30
0.0
 11
211.7644356182283
 21
68.71121626939809
 31
0.0
  0
LINE
  5
20E6
330
18
100
AcDbEntity
  8
1
  6
Continuous
100
AcDbLine
 10
211.4644356182281
 20
68.27238526939817
 30
0.0
 11
211.7644356182283
 21
68.32604376939804
 31
0.0
  0
LINE
  5
20E7
330
18
100
AcDbEntity
  8
1
  6
Continuous
100
AcDbLine
 10
211.7644356182283
 20
68.80183226939817
 30
0.0
 11
211.5370376182283
 21
68.67054376939818
 31
0.0
  0
LINE
  5
20E8
330
18
100
AcDbEntity
  8
1
  6
Continuous
100
AcDbLine
 10
211.4644356182281
 20
68.27238526939817
 30
0.0
 11
211.4644356182281
 21
68.65755826939807
 31
0.0
  0
ARC
  5
20E9
330
18
100
AcDbEntity
  8
1
  6
Continuous
100
AcDbCircle
 10
211.0275901182283
 20
66.48801376939815
 30
0.0
 40
1.837066999999999
100
AcDbArc
 50
66.35311000000029
 51
76.24356100000088
  0
LINE
  5
20EB
330
18
100
AcDbEntity
  8
1
  6
Continuous
100
AcDbLine
 10
226.8874618811169
 20
68.75140588893164
 30
0.0
 11
226.8874618811169
 21
75.10225864998552
 31
0.0
  0
ARC
  5
20EC
330
18
100
AcDbEntity
  8
1
  6
Continuous
100
AcDbCircle
 10
219.0749620094468
 20
69.17683231955044
 30
0.0
 40
7.812499862251119
100
AcDbArc
 50
339.3903062900613
 51
20.60969292496581
  0
ARC
  5
20ED
330
18
100
AcDbEntity
  8
1
  6
Continuous
100
AcDbCircle
 10
219.074962514664
 20
74.67683215426737
 30
0.0
 40
7.812499366452763
100
AcDbArc
 50
339.3903062176773
 51
20.609694174809
  0
LINE
  5
229C
330
18
100
AcDbEntity
  8
1
  6
Continuous
100
AcDbLine
 10
145.9768285242455
 20
76.07811365413372
 30
0.0
 11
144.1768285242456
 21
76.07811365413372
 31
0.0
  0
LINE
  5
229D
330
18
100
AcDbEntity
  8
1
  6
Continuous
100
AcDbLine
 10
145.9768285242455
 20
67.77555127091611
 30
0.0
 11
144.1768285242456
 21
67.77555127091611
 31
0.0
  0
LINE
  5
229E
330
18
100
AcDbEntity
  8
1
  6
Continuous
100
AcDbLine
 10
145.9768285242455
 20
76.07811365413372
 30
0.0
 11
145.9768285242455
 21
67.77555127091611
 31
0.0
  0
LINE
  5
229F
330
18
100
AcDbEntity
  8
1
  6
Continuous
100
AcDbLine
 10
144.6768285242454
 20
67.77555127091611
 30
0.0
 11
144.6768285242454
 21
64.51767526944506
 31
0.0
  0
LINE
  5
22A0
330
18
100
AcDbEntity
  8
1
  6
Continuous
100
AcDbLine
 10
144.1768285242456
 20
67.77555127091611
 30
0.0
 11
144.1768285242456
 21
64.02683226944509
 31
0.0
  0
LINE
  5
22A6
330
18
100
AcDbEntity
  8
1
  6
Continuous
100
AcDbLine
 10
146.2768285242455
 20
76.13304358343434
 30
0.0
 11
144.6768285242454
 21
76.13304358343434
 31
0.0
  0
LINE
  5
22A7
330
18
100
AcDbEntity
  8
1
  6
Continuous
100
AcDbLine
 10
146.2768285242455
 20
75.05667635644432
 30
0.0
 11
145.9768285242455
 21
75.05667635644432
 31
0.0
  0
LINE
  5
22C5
330
18
100
AcDbEntity
  8
1
  6
Continuous
100
AcDbLine
 10
144.6768285242454
 20
65.42683226944507
 30
0.0
 11
146.2768285242455
 21
65.42683226944507
 31
0.0
  0
LINE
  5
22E7
330
18
100
AcDbEntity
  8
1
  6
Continuous
100
AcDbLine
 10
144.6768285242454
 20
223.6815821410736
 30
0.0
 11
146.2768285242455
 21
223.6815821410736
 31
0.0
  0
LINE
  5
22E8
330
18
100
AcDbEntity
  8
1
  6
Continuous
100
AcDbLine
 10
144.6768285242454
 20
216.0212951410736
 30
0.0
 11
146.2768285242455
 21
216.0212951410736
 31
0.0
  0
ENDSEC
  0
SECTION
  2
OBJECTS
  0
DICTIONARY
  5
C
330
0
100
AcDbDictionary
281
     1
  3
ACAD_CIP_PREVIOUS_PRODUCT_INFO
350
2790
  3
ACAD_COLOR
350
2773
  3
ACAD_DETAILVIEWSTYLE
350
278C
  3
ACAD_GROUP
350
D
  3
ACAD_LAYOUT
350
94
  3
ACAD_MATERIAL
350
2741
  3
ACAD_MLEADERSTYLE
350
2788
  3
ACAD_MLINESTYLE
350
1B
  3
ACAD_PLOTSETTINGS
350
95
  3
ACAD_PLOTSTYLENAME
350
273F
  3
ACAD_SCALELIST
350
2776
  3
ACAD_SECTIONVIEWSTYLE
350
278A
  3
ACAD_TABLESTYLE
350
2774
  3
ACAD_VISUALSTYLE
350
275A
  3
ACDB_RECOMPOSE_DATA
350
27AE
  3
AcDbVariableDictionary
350
27A1
  3
CONTENTDICTIONARY
350
3D
  3
DWGPROPS
350
27AF
  0
DICTIONARY
  5
2791
330
E
100
AcDbDictionary
280
     1
281
     1
  3
ADSK_XREC_LAYER_RECONCILED
360
2792
  0
DICTIONARY
  5
2793
330
4E
100
AcDbDictionary
280
     1
281
     1
  3
ADSK_XREC_LAYER_RECONCILED
360
2794
  0
DICTIONARY
  5
2795
330
4F
100
AcDbDictionary
280
     1
281
     1
  3
ADSK_XREC_LAYER_RECONCILED
360
2796
  0
DICTIONARY
  5
2797
330
50
100
AcDbDictionary
280
     1
281
     1
  3
ADSK_XREC_LAYER_RECONCILED
360
2798
  0
DICTIONARY
  5
2799
330
51
100
AcDbDictionary
280
     1
281
     1
  3
ADSK_XREC_LAYER_RECONCILED
360
279A
  0
DICTIONARY
  5
279B
330
52
100
AcDbDictionary
280
     1
281
     1
  3
ADSK_XREC_LAYER_RECONCILED
360
279C
  0
DICTIONARY
  5
279D
330
53
100
AcDbDictionary
280
     1
281
     1
  3
ADSK_XREC_LAYER_RECONCILED
360
279E
  0
DICTIONARY
  5
279F
330
54
100
AcDbDictionary
280
     1
281
     1
  3
ADSK_XREC_LAYER_RECONCILED
360
27A0
  0
DICTIONARY
  5
25E4
330
18
100
AcDbDictionary
281
     1
  3
ACAD_LAYOUTSELFREF
350
273B
  0
DICTIONARY
  5
25E2
330
15
100
AcDbDictionary
281
     1
  3
ACAD_LAYOUTSELFREF
350
273A
  0
XRECORD
  5
2790
102
{ACAD_REACTORS
330
C
102
}
330
C
100
AcDbXrecord
280
     1
300
ACDLT
300
2014
300
ACDLT_F_S
  0
DICTIONARY
  5
2773
102
{ACAD_REACTORS
330
C
102
}
330
C
100
AcDbDictionary
281
     1
  0
DICTIONARY
  5
278C
102
{ACAD_REACTORS
330
C
102
}
330
C
100
AcDbDictionary
281
     1
  3
Imperial24
350
278D
  0
DICTIONARY
  5
D
102
{ACAD_REACTORS
330
C
102
}
330
C
100
AcDbDictionary
281
     1
  0
DICTIONARY
  5
94
102
{ACAD_REACTORS
330
C
102
}
330
C
100
AcDbDictionary
281
     1
  3
Model
350
278E
  3
レイアウト1
350
278F
  0
DICTIONARY
  5
2741
102
{ACAD_REACTORS
330
C
102
}
330
C
100
AcDbDictionary
281
     1
  3
ByBlock
350
274A
  3
ByLayer
350
2742
  3
Global
350
2752
  0
DICTIONARY
  5
2788
102
{ACAD_REACTORS
330
C
102
}
330
C
100
AcDbDictionary
281
     1
  3
Standard
350
2789
  0
DICTIONARY
  5
1B
102
{ACAD_REACTORS
330
C
102
}
330
C
100
AcDbDictionary
281
     1
  3
STANDARD
350
1C
  0
DICTIONARY
  5
95
102
{ACAD_REACTORS
330
C
102
}
330
C
100
AcDbDictionary
281
     1
  0
ACDBDICTIONARYWDFLT
  5
273F
102
{ACAD_REACTORS
330
C
102
}
330
C
100
AcDbDictionary
281
     1
  3
Normal
350
2740
100
AcDbDictionaryWithDefault
340
2740
  0
DICTIONARY
  5
2776
102
{ACAD_REACTORS
330
C
102
}
330
C
100
AcDbDictionary
281
     1
  3
A0
350
2777
  3
A1
350
2778
  3
A2
350
2779
  3
A3
350
277A
  3
A4
350
277B
  3
A5
350
277C
  3
A6
350
277D
  3
A7
350
277E
  3
A8
350
277F
  3
A9
350
2780
  3
B0
350
2781
  3
B1
350
2782
  3
B2
350
2783
  3
B3
350
2784
  3
B4
350
2785
  3
B5
350
2786
  3
B6
350
2787
  0
DICTIONARY
  5
278A
102
{ACAD_REACTORS
330
C
102
}
330
C
100
AcDbDictionary
281
     1
  3
Imperial24
350
278B
  0
DICTIONARY
  5
2774
102
{ACAD_REACTORS
330
C
102
}
330
C
100
AcDbDictionary
281
     1
  3
Standard
350
2775
  0
DICTIONARY
  5
275A
102
{ACAD_REACTORS
330
C
102
}
330
C
100
AcDbDictionary
281
     1
  3
2dWireframe
350
2760
  3
Basic
350
275F
  3
Brighten
350
2766
  3
ColorChange
350
276A
  3
Conceptual
350
2763
  3
Dim
350
2765
  3
EdgeColorOff
350
2772
  3
Facepattern
350
2769
  3
Flat
350
275B
  3
FlatWithEdges
350
275C
  3
Gouraud
350
275D
  3
GouraudWithEdges
350
275E
  3
Hidden
350
2762
  3
JitterOff
350
2770
  3
Linepattern
350
2768
  3
OverhangOff
350
2771
  3
Realistic
350
2764
  3
Shaded
350
276F
  3
Shaded with edges
350
276E
  3
Shades of Gray
350
276B
  3
Sketchy
350
276C
  3
Thicken
350
2767
  3
Wireframe
350
2761
  3
X-Ray
350
276D
  0
XRECORD
  5
27AE
102
{ACAD_REACTORS
330
C
102
}
330
C
100
AcDbXrecord
280
     1
 90
        1
330
2775
  0
DICTIONARY
  5
27A1
102
{ACAD_REACTORS
330
C
102
}
330
C
100
AcDbDictionary
281
     1
  3
CANNOSCALE
350
27A6
  3
CMLEADERSTYLE
350
27A3
  3
CTABLESTYLE
350
27A2
  3
CVIEWDETAILSTYLE
350
27A4
  3
CVIEWSECTIONSTYLE
350
27A5
  3
DIMASSOC
350
27A9
  3
INDEXCTL
350
27A8
  3
SORTENTS
350
27A7
  3
XCLIPFRAME
350
27AA
  0
DICTIONARY
  5
3D
102
{ACAD_REACTORS
330
C
102
}
330
C
100
AcDbDictionary
281
     1
  0
XRECORD
  5
27AF
102
{ACAD_REACTORS
330
C
102
}
330
C
100
AcDbXrecord
280
     1
  1
DWGPROPS COOKIE
  2

  3

  4

  6

  7

  8
Yoshitsune
  9

300
=
301
=
302
=
303
=
304
=
305
=
306
=
307
=
308
=
309
=
 40
0.241958125
 41
2452944.400348299
 42
2457192.601910151
  1

 90
        0
  0
XRECORD
  5
2792
102
{ACAD_REACTORS
330
2791
102
}
330
2791
100
AcDbXrecord
280
     1
290
     1
  0
XRECORD
  5
2794
102
{ACAD_REACTORS
330
2793
102
}
330
2793
100
AcDbXrecord
280
     1
290
     1
  0
XRECORD
  5
2796
102
{ACAD_REACTORS
330
2795
102
}
330
2795
100
AcDbXrecord
280
     1
290
     1
  0
XRECORD
  5
2798
102
{ACAD_REACTORS
330
2797
102
}
330
2797
100
AcDbXrecord
280
     1
290
     1
  0
XRECORD
  5
279A
102
{ACAD_REACTORS
330
2799
102
}
330
2799
100
AcDbXrecord
280
     1
290
     1
  0
XRECORD
  5
279C
102
{ACAD_REACTORS
330
279B
102
}
330
279B
100
AcDbXrecord
280
     1
290
     1
  0
XRECORD
  5
279E
102
{ACAD_REACTORS
330
279D
102
}
330
279D
100
AcDbXrecord
280
     1
290
     1
  0
XRECORD
  5
27A0
102
{ACAD_REACTORS
330
279F
102
}
330
279F
100
AcDbXrecord
280
     1
290
     1
  0
XRECORD
  5
273B
102
{ACAD_REACTORS
330
25E4
102
}
330
25E4
100
AcDbXrecord
280
     1
340
18
  0
XRECORD
  5
273A
102
{ACAD_REACTORS
330
25E2
102
}
330
25E2
100
AcDbXrecord
280
     1
340
15
  0
ACDBDETAILVIEWSTYLE
  5
278D
102
{ACAD_XDICTIONARY
360
27E7
102
}
102
{ACAD_REACTORS
330
278C
102
}
330
278C
100
AcDbModelDocViewStyle
 70
     0
  3
Imperial24
290
     0
100
AcDbDetailViewStyle
 70
     0
 71
     0
 90
        3
 71
     1
340
F
 40
0.24
340
0
 40
0.24
300

 40
0.36
280
     3
 71
     2
340
14
 90
       25
 71
     3
340
F
 40
0.24
 90
        1
 40
0.75
 90
        1
300
%<\AcVar ViewType \f "%tc1">% %<\AcVar ViewDetailId>%\PSCALE %<\AcVar ViewScale \f "%sn">%
 71
     4
340
14
 90
       25
340
14
 90
       25
280
     0
  0
LAYOUT
  5
278E
102
{ACAD_XDICTIONARY
360
27E9
102
}
102
{ACAD_REACTORS
330
94
102
}
330
94
100
AcDbPlotSettings
  1

  2
Canon LBP9100C
  4

  6

 40
0.0
 41
0.0
 42
0.0
 43
0.0
 44
0.0
 45
0.0
 46
0.0
 47
0.0
 48
0.0
 49
0.0
140
0.0
141
0.0
142
1.0
143
1.0
 70
  1712
 72
     0
 73
     0
 74
     0
  7

 75
     0
147
1.0
148
0.0
149
0.0
100
AcDbLayout
  1
Model
 70
     1
 71
     0
 10
0.0
 20
0.0
 11
12.0
 21
9.0
 12
0.0
 22
0.0
 32
0.0
 14
0.0
 24
0.0
 34
0.0
 15
0.0
 25
0.0
 35
0.0
146
0.0
 13
0.0
 23
0.0
 33
0.0
 16
1.0
 26
0.0
 36
0.0
 17
0.0
 27
1.0
 37
0.0
 76
     0
330
18
331
2739
  0
LAYOUT
  5
278F
102
{ACAD_XDICTIONARY
360
27EB
102
}
102
{ACAD_REACTORS
330
94
102
}
330
94
100
AcDbPlotSettings
  1

  2
Canon LBP9100C
  4

  6

 40
0.0
 41
0.0
 42
0.0
 43
0.0
 44
0.0
 45
0.0
 46
0.0
 47
0.0
 48
0.0
 49
0.0
140
0.0
141
0.0
142
1.0
143
1.0
 70
   688
 72
     0
 73
     0
 74
     5
  7

 75
    16
147
1.0
148
0.0
149
0.0
100
AcDbLayout
  1
レイアウト1
 70
     1
 71
     1
 10
0.0
 20
0.0
 11
420.0
 21
297.0
 12
0.0
 22
0.0
 32
0.0
 14
1.000000000000000E+20
 24
1.000000000000000E+20
 34
1.000000000000000E+20
 15
-1.000000000000000E+20
 25
-1.000000000000000E+20
 35
-1.000000000000000E+20
146
0.0
 13
0.0
 23
0.0
 33
0.0
 16
1.0
 26
0.0
 36
0.0
 17
0.0
 27
1.0
 37
0.0
 76
     0
330
15
  0
MATERIAL
  5
274A
102
{ACAD_XDICTIONARY
360
274B
102
}
102
{ACAD_REACTORS
330
2741
102
}
330
2741
100
AcDbMaterial
  1
ByBlock
 72
     0
 43
0.0208333333333333
 43
0.0
 43
0.0
 43
0.0
 43
0.0
 43
0.0208333333333333
 43
0.0
 43
0.0
 43
0.0
 43
0.0
 43
1.0
 43
0.0
 43
0.0
 43
0.0
 43
0.0
 43
1.0
 77
     0
 47
0.0208333333333333
 47
0.0
 47
0.0
 47
0.0
 47
0.0
 47
0.0208333333333333
 47
0.0
 47
0.0
 47
0.0
 47
0.0
 47
1.0
 47
0.0
 47
0.0
 47
0.0
 47
0.0
 47
1.0
171
     0
 49
0.0208333333333333
 49
0.0
 49
0.0
 49
0.0
 49
0.0
 49
0.0208333333333333
 49
0.0
 49
0.0
 49
0.0
 49
0.0
 49
1.0
 49
0.0
 49
0.0
 49
0.0
 49
0.0
 49
1.0
175
     0
142
0.0208333333333333
142
0.0
142
0.0
142
0.0
142
0.0
142
0.0208333333333333
142
0.0
142
0.0
142
0.0
142
0.0
142
1.0
142
0.0
142
0.0
142
0.0
142
0.0
142
1.0
179
     0
144
0.0208333333333333
144
0.0
144
0.0
144
0.0
144
0.0
144
0.0208333333333333
144
0.0
144
0.0
144
0.0
144
0.0
144
1.0
144
0.0
144
0.0
144
0.0
144
0.0
144
1.0
147
0.0208333333333333
147
0.0
147
0.0
147
0.0
147
0.0
147
0.0208333333333333
147
0.0
147
0.0
147
0.0
147
0.0
147
1.0
147
0.0
147
0.0
147
0.0
147
0.0
147
1.0
  0
MATERIAL
  5
2742
102
{ACAD_XDICTIONARY
360
2743
102
}
102
{ACAD_REACTORS
330
2741
102
}
330
2741
100
AcDbMaterial
  1
ByLayer
 72
     0
 43
0.0208333333333333
 43
0.0
 43
0.0
 43
0.0
 43
0.0
 43
0.0208333333333333
 43
0.0
 43
0.0
 43
0.0
 43
0.0
 43
1.0
 43
0.0
 43
0.0
 43
0.0
 43
0.0
 43
1.0
 77
     0
 47
0.0208333333333333
 47
0.0
 47
0.0
 47
0.0
 47
0.0
 47
0.0208333333333333
 47
0.0
 47
0.0
 47
0.0
 47
0.0
 47
1.0
 47
0.0
 47
0.0
 47
0.0
 47
0.0
 47
1.0
171
     0
 49
0.0208333333333333
 49
0.0
 49
0.0
 49
0.0
 49
0.0
 49
0.0208333333333333
 49
0.0
 49
0.0
 49
0.0
 49
0.0
 49
1.0
 49
0.0
 49
0.0
 49
0.0
 49
0.0
 49
1.0
175
     0
142
0.0208333333333333
142
0.0
142
0.0
142
0.0
142
0.0
142
0.0208333333333333
142
0.0
142
0.0
142
0.0
142
0.0
142
1.0
142
0.0
142
0.0
142
0.0
142
0.0
142
1.0
179
     0
144
0.0208333333333333
144
0.0
144
0.0
144
0.0
144
0.0
144
0.0208333333333333
144
0.0
144
0.0
144
0.0
144
0.0
144
1.0
144
0.0
144
0.0
144
0.0
144
0.0
144
1.0
147
0.0208333333333333
147
0.0
147
0.0
147
0.0
147
0.0
147
0.0208333333333333
147
0.0
147
0.0
147
0.0
147
0.0
147
1.0
147
0.0
147
0.0
147
0.0
147
0.0
147
1.0
  0
MATERIAL
  5
2752
102
{ACAD_XDICTIONARY
360
2753
102
}
102
{ACAD_REACTORS
330
2741
102
}
330
2741
100
AcDbMaterial
  1
Global
 72
     0
 43
0.0208333333333333
 43
0.0
 43
0.0
 43
0.0
 43
0.0
 43
0.0208333333333333
 43
0.0
 43
0.0
 43
0.0
 43
0.0
 43
1.0
 43
0.0
 43
0.0
 43
0.0
 43
0.0
 43
1.0
 77
     0
 47
0.0208333333333333
 47
0.0
 47
0.0
 47
0.0
 47
0.0
 47
0.0208333333333333
 47
0.0
 47
0.0
 47
0.0
 47
0.0
 47
1.0
 47
0.0
 47
0.0
 47
0.0
 47
0.0
 47
1.0
171
     0
 49
0.0208333333333333
 49
0.0
 49
0.0
 49
0.0
 49
0.0
 49
0.0208333333333333
 49
0.0
 49
0.0
 49
0.0
 49
0.0
 49
1.0
 49
0.0
 49
0.0
 49
0.0
 49
0.0
 49
1.0
175
     0
142
0.0208333333333333
142
0.0
142
0.0
142
0.0
142
0.0
142
0.0208333333333333
142
0.0
142
0.0
142
0.0
142
0.0
142
1.0
142
0.0
142
0.0
142
0.0
142
0.0
142
1.0
179
     0
144
0.0208333333333333
144
0.0
144
0.0
144
0.0
144
0.0
144
0.0208333333333333
144
0.0
144
0.0
144
0.0
144
0.0
144
1.0
144
0.0
144
0.0
144
0.0
144
0.0
144
1.0
147
0.0208333333333333
147
0.0
147
0.0
147
0.0
147
0.0
147
0.0208333333333333
147
0.0
147
0.0
147
0.0
147
0.0
147
1.0
147
0.0
147
0.0
147
0.0
147
0.0
147
1.0
  0
MLEADERSTYLE
  5
2789
102
{ACAD_REACTORS
330
2788
102
}
330
2788
100
AcDbMLeaderStyle
170
     2
171
     1
172
     0
 90
        2
 40
0.0
 41
0.0
173
     1
 91
-1056964608
340
12
 92
       -2
290
     1
 42
0.09
291
     1
 43
0.36
  3
Standard
 44
0.18
300

342
F
174
     1
178
     6
175
     1
176
     0
 93
-1056964608
 45
0.18
292
     0
297
     0
 46
0.18
 94
-1056964608
 47
1.0
 49
1.0
140
1.0
293
     1
141
0.0
294
     1
177
     0
142
1.0
295
     0
296
     0
143
0.125
1001
ACAD_MLEADERVER
1070
     2
  0
MLINESTYLE
  5
1C
102
{ACAD_REACTORS
330
1B
102
}
330
1B
100
AcDbMlineStyle
  2
STANDARD
 70
     0
  3

 62
   256
 51
90.0
 52
90.0
 71
     2
 49
0.5
 62
   256
  6
BYLAYER
 49
-0.5
 62
   256
  6
BYLAYER
  0
ACDBPLACEHOLDER
  5
2740
102
{ACAD_REACTORS
330
273F
102
}
330
273F
  0
SCALE
  5
2777
102
{ACAD_REACTORS
330
2776
102
}
330
2776
100
AcDbScale
 70
     0
300
1:1
140
1.0
141
1.0
290
     1
  0
SCALE
  5
2778
102
{ACAD_REACTORS
330
2776
102
}
330
2776
100
AcDbScale
 70
     0
300
1/128" = 1'-0"
140
0.0078125
141
12.0
290
     0
  0
SCALE
  5
2779
102
{ACAD_REACTORS
330
2776
102
}
330
2776
100
AcDbScale
 70
     0
300
1/64" = 1'-0"
140
0.015625
141
12.0
290
     0
  0
SCALE
  5
277A
102
{ACAD_REACTORS
330
2776
102
}
330
2776
100
AcDbScale
 70
     0
300
1/32" = 1'-0"
140
0.03125
141
12.0
290
     0
  0
SCALE
  5
277B
102
{ACAD_REACTORS
330
2776
102
}
330
2776
100
AcDbScale
 70
     0
300
1/16" = 1'-0"
140
0.0625
141
12.0
290
     0
  0
SCALE
  5
277C
102
{ACAD_REACTORS
330
2776
102
}
330
2776
100
AcDbScale
 70
     0
300
3/32" = 1'-0"
140
0.09375
141
12.0
290
     0
  0
SCALE
  5
277D
102
{ACAD_REACTORS
330
2776
102
}
330
2776
100
AcDbScale
 70
     0
300
1/8" = 1'-0"
140
0.125
141
12.0
290
     0
  0
SCALE
  5
277E
102
{ACAD_REACTORS
330
2776
102
}
330
2776
100
AcDbScale
 70
     0
300
3/16" = 1'-0"
140
0.1875
141
12.0
290
     0
  0
SCALE
  5
277F
102
{ACAD_REACTORS
330
2776
102
}
330
2776
100
AcDbScale
 70
     0
300
1/4" = 1'-0"
140
0.25
141
12.0
290
     0
  0
SCALE
  5
2780
102
{ACAD_REACTORS
330
2776
102
}
330
2776
100
AcDbScale
 70
     0
300
3/8" = 1'-0"
140
0.375
141
12.0
290
     0
  0
SCALE
  5
2781
102
{ACAD_REACTORS
330
2776
102
}
330
2776
100
AcDbScale
 70
     0
300
1/2" = 1'-0"
140
0.5
141
12.0
290
     0
  0
SCALE
  5
2782
102
{ACAD_REACTORS
330
2776
102
}
330
2776
100
AcDbScale
 70
     0
300
3/4" = 1'-0"
140
0.75
141
12.0
290
     0
  0
SCALE
  5
2783
102
{ACAD_REACTORS
330
2776
102
}
330
2776
100
AcDbScale
 70
     0
300
1" = 1'-0"
140
1.0
141
12.0
290
     0
  0
SCALE
  5
2784
102
{ACAD_REACTORS
330
2776
102
}
330
2776
100
AcDbScale
 70
     0
300
1-1/2" = 1'-0"
140
1.5
141
12.0
290
     0
  0
SCALE
  5
2785
102
{ACAD_REACTORS
330
2776
102
}
330
2776
100
AcDbScale
 70
     0
300
3" = 1'-0"
140
3.0
141
12.0
290
     0
  0
SCALE
  5
2786
102
{ACAD_REACTORS
330
2776
102
}
330
2776
100
AcDbScale
 70
     0
300
6" = 1'-0"
140
6.0
141
12.0
290
     0
  0
SCALE
  5
2787
102
{ACAD_REACTORS
330
2776
102
}
330
2776
100
AcDbScale
 70
     0
300
1'-0" = 1'-0"
140
12.0
141
12.0
290
     0
  0
ACDBSECTIONVIEWSTYLE
  5
278B
102
{ACAD_XDICTIONARY
360
27E5
102
}
102
{ACAD_REACTORS
330
278A
102
}
330
278A
100
AcDbModelDocViewStyle
 70
     0
  3
Imperial24
290
     0
100
AcDbSectionViewStyle
 70
     0
 71
     0
 90
       78
 71
     1
340
F
 40
0.24
340
0
340
0
 40
0.24
300
I, O, Q, S, X, Z
 40
0.48
 90
        3
 40
0.18
 90
        1
 71
     2
340
14
 90
       25
340
14
 90
       50
 40
0.24
 40
0.0
 40
0.24
 71
     3
340
F
 40
0.24
 90
        1
 40
0.75
 90
        1
300
%<\AcVar ViewType \f "%tc1">% %<\AcVar ViewSectionStartId>%-%<\AcVar ViewSectionEndId>%\PSCALE %<\AcVar ViewScale \f "%sn">%
 71
     4
300
ANSI31
 40
1.0
 90
        0
290
     0
290
     0
 90
        6
 40
0.0
 40
1.570796326794896
 40
0.2617993877991494
 40
1.308996938995747
 40
-0.2617993877991494
 40
1.832595714594046
  0
TABLESTYLE
  5
2775
102
{ACAD_XDICTIONARY
360
27AC
102
}
102
{ACAD_REACTORS
330
2774
102
}
330
2774
100
AcDbTableStyle
  3
Standard
 70
     0
 71
     0
 40
0.06
 41
0.06
280
     0
281
     0
  7
STANDARD
140
0.18
170
     2
 62
     0
 63
     7
283
     0
274
    -2
284
     1
 64
     0
275
    -2
285
     1
 65
     0
276
    -2
286
     1
 66
     0
277
    -2
287
     1
 67
     0
278
    -2
288
     1
 68
     0
279
    -2
289
     1
 69
     0
  7
STANDARD
140
0.25
170
     5
 62
     0
 63
     7
283
     0
274
    -2
284
     1
 64
     0
275
    -2
285
     1
 65
     0
276
    -2
286
     1
 66
     0
277
    -2
287
     1
 67
     0
278
    -2
288
     1
 68
     0
279
    -2
289
     1
 69
     0
  7
STANDARD
140
0.18
170
     5
 62
     0
 63
     7
283
     0
274
    -2
284
     1
 64
     0
275
    -2
285
     1
 65
     0
276
    -2
286
     1
 66
     0
277
    -2
287
     1
 67
     0
278
    -2
288
     1
 68
     0
279
    -2
289
     1
 69
     0
  0
VISUALSTYLE
  5
2760
102
{ACAD_XDICTIONARY
360
27BD
102
}
102
{ACAD_REACTORS
330
275A
102
}
330
275A
100
AcDbVisualStyle
  2
2dWireframe
 70
     4
 71
     0
 72
     2
 73
     0
 90
        0
 40
-0.6
 41
-30.0
 62
     5
 63
     7
 74
     1
 91
        4
 64
     7
 65
   257
 75
     1
175
     1
 42
1.0
 92
        0
 66
   257
 43
1.0
 76
     1
 77
     6
 78
     2
 67
     7
 79
     5
170
     0
171
     0
290
     0
174
     0
 93
        1
 44
0.0
173
     0
291
     0
 45
0.0
1001
ACAD
1000
AcDbSavedByObjectVersion
1070
     0
  0
VISUALSTYLE
  5
275F
102
{ACAD_XDICTIONARY
360
27BB
102
}
102
{ACAD_REACTORS
330
275A
102
}
330
275A
100
AcDbVisualStyle
  2
Basic
 70
     7
 71
     1
 72
     0
 73
     1
 90
        0
 40
-0.6
 41
-30.0
 62
     5
 63
     7
 74
     0
 91
        4
 64
     7
 65
   257
 75
     1
175
     1
 42
1.0
 92
        8
 66
     7
 43
1.0
 76
     1
 77
     6
 78
     2
 67
     7
 79
     5
170
     0
171
     0
290
     0
174
     0
 93
        1
 44
0.0
173
     0
291
     1
 45
0.0
1001
ACAD
1000
AcDbSavedByObjectVersion
1070
     0
  0
VISUALSTYLE
  5
2766
102
{ACAD_XDICTIONARY
360
27C9
102
}
102
{ACAD_REACTORS
330
275A
102
}
330
275A
100
AcDbVisualStyle
  2
Brighten
 70
    12
 71
     2
 72
     2
 73
     0
 90
        0
 40
-0.6
 41
-30.0
 62
     5
 63
     7
 74
     1
 91
        4
 64
     7
 65
   257
 75
     1
175
     1
 42
1.0
 92
        8
 66
     7
 43
1.0
 76
     1
 77
     6
 78
     2
 67
     7
 79
     5
170
     0
171
     0
290
     0
174
     0
 93
        1
 44
50.0
173
     0
291
     1
 45
0.0
1001
ACAD
1000
AcDbSavedByObjectVersion
1070
     0
  0
VISUALSTYLE
  5
276A
102
{ACAD_XDICTIONARY
360
27D1
102
}
102
{ACAD_REACTORS
330
275A
102
}
330
275A
100
AcDbVisualStyle
  2
ColorChange
 70
    16
 71
     2
 72
     2
 73
     3
 90
        0
 40
-0.6
 41
-30.0
 62
     5
 63
     8
 74
     1
 91
        4
 64
     7
 65
   257
 75
     1
175
     1
 42
1.0
 92
        8
 66
     8
 43
1.0
 76
     1
 77
     6
 78
     2
 67
     7
 79
     5
170
     0
171
     0
290
     0
174
     0
 93
        1
 44
0.0
173
     0
291
     1
 45
0.0
1001
ACAD
1000
AcDbSavedByObjectVersion
1070
     0
  0
VISUALSTYLE
  5
2763
102
{ACAD_XDICTIONARY
360
27C3
102
}
102
{ACAD_REACTORS
330
275A
102
}
330
275A
100
AcDbVisualStyle
  2
Conceptual
 70
     9
 71
     3
 72
     2
 73
     0
 90
        0
 40
-0.6
 41
-30.0
 62
     5
 63
     7
 74
     2
 91
        2
 64
     7
 65
   257
 75
     1
175
     1
 42
179.0
 92
        8
 66
     7
 43
1.0
 76
     1
 77
     6
 78
     2
 67
     7
 79
     3
170
     0
171
     0
290
     0
174
     0
 93
        1
 44
0.0
173
     0
291
     0
 45
0.0
1001
ACAD
1000
AcDbSavedByObjectVersion
1070
     0
  0
VISUALSTYLE
  5
2765
102
{ACAD_XDICTIONARY
360
27C7
102
}
102
{ACAD_REACTORS
330
275A
102
}
330
275A
100
AcDbVisualStyle
  2
Dim
 70
    11
 71
     2
 72
     2
 73
     0
 90
        0
 40
-0.6
 41
-30.0
 62
     5
 63
     7
 74
     1
 91
        4
 64
     7
 65
   257
 75
     1
175
     1
 42
1.0
 92
        8
 66
     7
 43
1.0
 76
     1
 77
     6
 78
     2
 67
     7
 79
     5
170
     0
171
     0
290
     0
174
     0
 93
        1
 44
-50.0
173
     0
291
     1
 45
0.0
1001
ACAD
1000
AcDbSavedByObjectVersion
1070
     0
  0
VISUALSTYLE
  5
2772
102
{ACAD_XDICTIONARY
360
27E1
102
}
102
{ACAD_REACTORS
330
275A
102
}
330
275A
100
AcDbVisualStyle
  2
EdgeColorOff
 70
    22
 71
     2
 72
     2
 73
     0
 90
        0
 40
-0.6
 41
-30.0
 62
     5
 63
     7
 74
     1
 91
        4
 64
     7
 65
   257
 75
     1
175
     1
 42
1.0
 92
        8
 66
     7
 43
1.0
 76
     1
 77
     6
 78
     2
 67
     7
 79
     5
170
     0
171
     0
290
     0
174
     0
 93
        1
 44
0.0
173
     0
291
     1
 45
0.0
1001
ACAD
1000
AcDbSavedByObjectVersion
1070
     0
  0
VISUALSTYLE
  5
2769
102
{ACAD_XDICTIONARY
360
27CF
102
}
102
{ACAD_REACTORS
330
275A
102
}
330
275A
100
AcDbVisualStyle
  2
Facepattern
 70
    15
 71
     2
 72
     2
 73
     0
 90
        0
 40
-0.6
 41
-30.0
 62
     5
 63
     7
 74
     1
 91
        4
 64
     7
 65
   257
 75
     1
175
     1
 42
1.0
 92
        8
 66
     7
 43
1.0
 76
     1
 77
     6
 78
     2
 67
     7
 79
     5
170
     0
171
     0
290
     0
174
     0
 93
        1
 44
0.0
173
     0
291
     1
 45
0.0
1001
ACAD
1000
AcDbSavedByObjectVersion
1070
     0
  0
VISUALSTYLE
  5
275B
102
{ACAD_XDICTIONARY
360
27B3
102
}
102
{ACAD_REACTORS
330
275A
102
}
330
275A
100
AcDbVisualStyle
  2
Flat
 70
     0
 71
     2
 72
     1
 73
     1
 90
        2
 40
-0.6
 41
30.0
 62
     5
 63
     7
 74
     0
 91
        0
 64
     7
 65
   257
 75
     1
175
     1
 42
1.0
 92
        8
 66
     7
 43
1.0
 76
     1
 77
     6
 78
     2
 67
     7
 79
     5
170
     0
171
     0
290
     0
174
     0
 93
       13
 44
0.0
173
     0
291
     1
 45
0.0
1001
ACAD
1000
AcDbSavedByObjectVersion
1070
     0
  0
VISUALSTYLE
  5
275C
102
{ACAD_XDICTIONARY
360
27B5
102
}
102
{ACAD_REACTORS
330
275A
102
}
330
275A
100
AcDbVisualStyle
  2
FlatWithEdges
 70
     1
 71
     2
 72
     1
 73
     1
 90
        2
 40
-0.6
 41
30.0
 62
     5
 63
     7
 74
     1
 91
        0
 64
     7
 65
   257
 75
     1
175
     1
 42
1.0
 92
        0
 66
   257
 43
1.0
 76
     1
 77
     6
 78
     2
 67
     7
 79
     5
170
     0
171
     0
290
     0
174
     0
 93
       13
 44
0.0
173
     0
291
     1
 45
0.0
1001
ACAD
1000
AcDbSavedByObjectVersion
1070
     0
  0
VISUALSTYLE
  5
275D
102
{ACAD_XDICTIONARY
360
27B7
102
}
102
{ACAD_REACTORS
330
275A
102
}
330
275A
100
AcDbVisualStyle
  2
Gouraud
 70
     2
 71
     2
 72
     2
 73
     1
 90
        2
 40
-0.6
 41
30.0
 62
     5
 63
     7
 74
     0
 91
        0
 64
     7
 65
   257
 75
     1
175
     1
 42
1.0
 92
        0
 66
     7
 43
1.0
 76
     1
 77
     6
 78
     2
 67
     7
 79
     5
170
     0
171
     0
290
     0
174
     0
 93
       13
 44
0.0
173
     0
291
     1
 45
0.0
1001
ACAD
1000
AcDbSavedByObjectVersion
1070
     0
  0
VISUALSTYLE
  5
275E
102
{ACAD_XDICTIONARY
360
27B9
102
}
102
{ACAD_REACTORS
330
275A
102
}
330
275A
100
AcDbVisualStyle
  2
GouraudWithEdges
 70
     3
 71
     2
 72
     2
 73
     1
 90
        2
 40
-0.6
 41
30.0
 62
     5
 63
     7
 74
     1
 91
        0
 64
     7
 65
   257
 75
     1
175
     1
 42
1.0
 92
        0
 66
   257
 43
1.0
 76
     1
 77
     6
 78
     2
 67
     7
 79
     5
170
     0
171
     0
290
     0
174
     0
 93
       13
 44
0.0
173
     0
291
     1
 45
0.0
1001
ACAD
1000
AcDbSavedByObjectVersion
1070
     0
  0
VISUALSTYLE
  5
2762
102
{ACAD_XDICTIONARY
360
27C1
102
}
102
{ACAD_REACTORS
330
275A
102
}
330
275A
100
AcDbVisualStyle
  2
Hidden
 70
     6
 71
     1
 72
     2
 73
     2
 90
        0
 40
-0.6
 41
-30.0
 62
     5
 63
     7
 74
     2
 91
        2
 64
     7
 65
   257
 75
     2
175
     1
 42
40.0
 92
        0
 66
   257
 43
1.0
 76
     1
 77
     6
 78
     2
 67
     7
 79
     3
170
     0
171
     0
290
     0
174
     0
 93
        1
 44
0.0
173
     0
291
     0
 45
0.0
1001
ACAD
1000
AcDbSavedByObjectVersion
1070
     0
  0
VISUALSTYLE
  5
2770
102
{ACAD_XDICTIONARY
360
27DD
102
}
102
{ACAD_REACTORS
330
275A
102
}
330
275A
100
AcDbVisualStyle
  2
JitterOff
 70
    20
 71
     2
 72
     2
 73
     0
 90
        0
 40
-0.6
 41
-30.0
 62
     5
 63
     7
 74
     1
 91
        4
 64
     7
 65
   257
 75
     1
175
     1
 42
1.0
 92
       10
 66
     7
 43
1.0
 76
     1
 77
     6
 78
     2
 67
     7
 79
     5
170
     0
171
     0
290
     0
174
     0
 93
        1
 44
0.0
173
     0
291
     1
 45
0.0
1001
ACAD
1000
AcDbSavedByObjectVersion
1070
     0
  0
VISUALSTYLE
  5
2768
102
{ACAD_XDICTIONARY
360
27CD
102
}
102
{ACAD_REACTORS
330
275A
102
}
330
275A
100
AcDbVisualStyle
  2
Linepattern
 70
    14
 71
     2
 72
     2
 73
     0
 90
        0
 40
-0.6
 41
-30.0
 62
     5
 63
     7
 74
     1
 91
        4
 64
     7
 65
   257
 75
     7
175
     7
 42
1.0
 92
        8
 66
     7
 43
1.0
 76
     1
 77
     6
 78
     2
 67
     7
 79
     5
170
     0
171
     0
290
     0
174
     0
 93
        1
 44
0.0
173
     0
291
     1
 45
0.0
1001
ACAD
1000
AcDbSavedByObjectVersion
1070
     0
  0
VISUALSTYLE
  5
2771
102
{ACAD_XDICTIONARY
360
27DF
102
}
102
{ACAD_REACTORS
330
275A
102
}
330
275A
100
AcDbVisualStyle
  2
OverhangOff
 70
    21
 71
     2
 72
     2
 73
     0
 90
        0
 40
-0.6
 41
-30.0
 62
     5
 63
     7
 74
     1
 91
        4
 64
     7
 65
   257
 75
     1
175
     1
 42
1.0
 92
        9
 66
     7
 43
1.0
 76
     1
 77
     6
 78
     2
 67
     7
 79
     5
170
     0
171
     0
290
     0
174
     0
 93
        1
 44
0.0
173
     0
291
     1
 45
0.0
1001
ACAD
1000
AcDbSavedByObjectVersion
1070
     0
  0
VISUALSTYLE
  5
2764
102
{ACAD_XDICTIONARY
360
27C5
102
}
102
{ACAD_REACTORS
330
275A
102
}
330
275A
100
AcDbVisualStyle
  2
Realistic
 70
     8
 71
     2
 72
     3
 73
     0
 90
        2
 40
-0.6
 41
30.0
 62
     5
 63
     7
 74
     0
 91
        0
 64
     7
 65
   257
 75
     1
175
     1
 42
1.0
 92
        8
 66
   257
 43
1.0
 76
     1
 77
     6
 78
     2
 67
     7
 79
     3
170
     0
171
     0
290
     0
174
     0
 93
       13
 44
0.0
173
     0
291
     0
 45
0.0
1001
ACAD
1000
AcDbSavedByObjectVersion
1070
     0
  0
VISUALSTYLE
  5
276F
102
{ACAD_XDICTIONARY
360
27DB
102
}
102
{ACAD_REACTORS
330
275A
102
}
330
275A
100
AcDbVisualStyle
  2
Shaded
 70
    27
 71
     2
 72
     2
 73
     1
 90
        2
 40
-0.6
 41
30.0
 62
     5
 63
     7
 74
     0
 91
        4
 64
     7
 65
   257
 75
     1
175
     1
 42
1.0
 92
        8
 66
   257
 43
1.0
 76
     1
 77
     6
 78
     2
 67
     8
 79
     3
170
     0
171
     0
290
     0
174
     0
 93
        5
 44
0.0
173
     0
291
     0
 45
0.0
1001
ACAD
1000
AcDbSavedByObjectVersion
1070
     0
  0
VISUALSTYLE
  5
276E
102
{ACAD_XDICTIONARY
360
27D9
102
}
102
{ACAD_REACTORS
330
275A
102
}
330
275A
100
AcDbVisualStyle
  2
Shaded with edges
 70
    26
 71
     2
 72
     2
 73
     1
 90
        2
 40
-0.6
 41
30.0
 62
     5
 63
     7
 74
     1
 91
       10
 64
     7
 65
   257
 75
     2
175
     1
 42
1.0
 92
        8
 66
   257
 43
1.0
 76
     1
 77
     6
 78
     2
 67
     7
 79
     3
170
     0
171
     0
290
     0
174
     0
 93
        5
 44
0.0
173
     0
291
     0
 45
0.0
1001
ACAD
1000
AcDbSavedByObjectVersion
1070
     0
  0
VISUALSTYLE
  5
276B
102
{ACAD_XDICTIONARY
360
27D3
102
}
102
{ACAD_REACTORS
330
275A
102
}
330
275A
100
AcDbVisualStyle
  2
Shades of Gray
 70
    23
 71
     2
 72
     2
 73
     3
 90
        0
 40
-0.6
 41
-30.0
 62
     5
 63
     7
 74
     2
 91
        2
 64
     7
 65
     7
 75
     1
175
     1
 42
40.0
 92
        8
 66
     7
 43
1.0
 76
     1
 77
     6
 78
     2
 67
     7
 79
     3
170
     0
171
     0
290
     0
174
     0
 93
        1
 44
0.0
173
     0
291
     0
 45
0.0
1001
ACAD
1000
AcDbSavedByObjectVersion
1070
     0
  0
VISUALSTYLE
  5
276C
102
{ACAD_XDICTIONARY
360
27D5
102
}
102
{ACAD_REACTORS
330
275A
102
}
330
275A
100
AcDbVisualStyle
  2
Sketchy
 70
    24
 71
     1
 72
     2
 73
     2
 90
        0
 40
-0.6
 41
-30.0
 62
     5
 63
     7
 74
     2
 91
        2
 64
     7
 65
     7
 75
     1
175
     1
 42
40.0
 92
       11
 66
     7
 43
1.0
 76
     1
 77
     6
 78
     2
 67
     7
 79
     6
170
     0
171
     0
290
     0
174
     0
 93
        1
 44
0.0
173
     0
291
     0
 45
0.0
1001
ACAD
1000
AcDbSavedByObjectVersion
1070
     0
  0
VISUALSTYLE
  5
2767
102
{ACAD_XDICTIONARY
360
27CB
102
}
102
{ACAD_REACTORS
330
275A
102
}
330
275A
100
AcDbVisualStyle
  2
Thicken
 70
    13
 71
     2
 72
     2
 73
     0
 90
        0
 40
-0.6
 41
-30.0
 62
     5
 63
     7
 74
     1
 91
        4
 64
     7
 65
   257
 75
     1
175
     1
 42
1.0
 92
       12
 66
     7
 43
1.0
 76
     1
 77
     6
 78
     2
 67
     7
 79
     5
170
     0
171
     0
290
     0
174
     0
 93
        1
 44
0.0
173
     0
291
     1
 45
0.0
1001
ACAD
1000
AcDbSavedByObjectVersion
1070
     0
  0
VISUALSTYLE
  5
2761
102
{ACAD_XDICTIONARY
360
27BF
102
}
102
{ACAD_REACTORS
330
275A
102
}
330
275A
100
AcDbVisualStyle
  2
Wireframe
 70
     5
 71
     0
 72
     2
 73
     0
 90
        0
 40
-0.6
 41
-30.0
 62
     5
 63
     7
 74
     1
 91
        4
 64
     7
 65
   257
 75
     1
175
     1
 42
1.0
 92
        0
 66
   257
 43
1.0
 76
     1
 77
     6
 78
     2
 67
     7
 79
     3
170
     0
171
     0
290
     0
174
     0
 93
        1
 44
0.0
173
     0
291
     0
 45
0.0
1001
ACAD
1000
AcDbSavedByObjectVersion
1070
     0
  0
VISUALSTYLE
  5
276D
102
{ACAD_XDICTIONARY
360
27D7
102
}
102
{ACAD_REACTORS
330
275A
102
}
330
275A
100
AcDbVisualStyle
  2
X-Ray
 70
    25
 71
     2
 72
     2
 73
     1
 90
        1
 40
0.5
 41
-30.0
 62
     5
 63
     7
 74
     1
 91
        0
 64
     7
 65
   257
 75
     1
175
     1
 42
1.0
 92
        8
 66
     7
 43
1.0
 76
     1
 77
     6
 78
     2
 67
     7
 79
     3
170
     0
171
     0
290
     0
174
     0
 93
       13
 44
0.0
173
     0
291
     0
 45
0.0
1001
ACAD
1000
AcDbSavedByObjectVersion
1070
     0
  0
DICTIONARYVAR
  5
27A6
102
{ACAD_REACTORS
330
27A1
102
}
330
27A1
100
DictionaryVariables
280
     0
  1
1:1
  0
DICTIONARYVAR
  5
27A3
102
{ACAD_REACTORS
330
27A1
102
}
330
27A1
100
DictionaryVariables
280
     0
  1
STANDARD
  0
DICTIONARYVAR
  5
27A2
102
{ACAD_REACTORS
330
27A1
102
}
330
27A1
100
DictionaryVariables
280
     0
  1
STANDARD
  0
DICTIONARYVAR
  5
27A4
102
{ACAD_REACTORS
330
27A1
102
}
330
27A1
100
DictionaryVariables
280
     0
  1
Imperial24
  0
DICTIONARYVAR
  5
27A5
102
{ACAD_REACTORS
330
27A1
102
}
330
27A1
100
DictionaryVariables
280
     0
  1
Imperial24
  0
DICTIONARYVAR
  5
27A9
102
{ACAD_REACTORS
330
27A1
102
}
330
27A1
100
DictionaryVariables
280
     0
  1
1
  0
DICTIONARYVAR
  5
27A8
102
{ACAD_REACTORS
330
27A1
102
}
330
27A1
100
DictionaryVariables
280
     0
  1
0
  0
DICTIONARYVAR
  5
27A7
102
{ACAD_REACTORS
330
27A1
102
}
330
27A1
100
DictionaryVariables
280
     0
  1
127
  0
DICTIONARYVAR
  5
27AA
102
{ACAD_REACTORS
330
27A1
102
}
330
27A1
100
DictionaryVariables
280
     0
  1
2
  0
DICTIONARY
  5
27E7
330
278D
100
AcDbDictionary
280
     1
281
     1
  3
ACAD_XREC_ROUNDTRIP
360
27E8
  0
DICTIONARY
  5
27E9
330
278E
100
AcDbDictionary
280
     1
281
     1
  3
ACAD_XREC_ROUNDTRIP
360
27EA
  0
DICTIONARY
  5
27EB
330
278F
100
AcDbDictionary
280
     1
281
     1
  3
ACAD_XREC_ROUNDTRIP
360
27EC
  0
DICTIONARY
  5
274B
330
274A
100
AcDbDictionary
280
     1
281
     1
  3
ACAD_XREC_ROUNDTRIP
360
27B1
  3
BUMPTILE
360
274D
  3
DIFFUSETILE
360
274C
  3
OPACITYTILE
360
2750
  3
REFLECTIONTILE
360
274F
  3
REFRACTIONTILE
360
2751
  3
SPECULARTILE
360
274E
  0
DICTIONARY
  5
2743
330
2742
100
AcDbDictionary
280
     1
281
     1
  3
ACAD_XREC_ROUNDTRIP
360
27B0
  3
BUMPTILE
360
2745
  3
DIFFUSETILE
360
2744
  3
OPACITYTILE
360
2748
  3
REFLECTIONTILE
360
2747
  3
REFRACTIONTILE
360
2749
  3
SPECULARTILE
360
2746
  0
DICTIONARY
  5
2753
330
2752
100
AcDbDictionary
280
     1
281
     1
  3
ACAD_XREC_ROUNDTRIP
360
27B2
  3
BUMPTILE
360
2755
  3
DIFFUSETILE
360
2754
  3
OPACITYTILE
360
2758
  3
REFLECTIONTILE
360
2757
  3
REFRACTIONTILE
360
2759
  3
SPECULARTILE
360
2756
  0
DICTIONARY
  5
27E5
330
278B
100
AcDbDictionary
280
     1
281
     1
  3
ACAD_XREC_ROUNDTRIP
360
27E6
  0
DICTIONARY
  5
27AC
330
2775
100
AcDbDictionary
280
     1
281
     1
  3
ACAD_ROUNDTRIP_2008_TABLESTYLE_CELLSTYLEMAP
360
27AD
  3
ACAD_XREC_ROUNDTRIP
360
27E3
  0
DICTIONARY
  5
27BD
330
2760
100
AcDbDictionary
280
     1
281
     1
  3
ACAD_XREC_ROUNDTRIP
360
27BE
  0
DICTIONARY
  5
27BB
330
275F
100
AcDbDictionary
280
     1
281
     1
  3
ACAD_XREC_ROUNDTRIP
360
27BC
  0
DICTIONARY
  5
27C9
330
2766
100
AcDbDictionary
280
     1
281
     1
  3
ACAD_XREC_ROUNDTRIP
360
27CA
  0
DICTIONARY
  5
27D1
330
276A
100
AcDbDictionary
280
     1
281
     1
  3
ACAD_XREC_ROUNDTRIP
360
27D2
  0
DICTIONARY
  5
27C3
330
2763
100
AcDbDictionary
280
     1
281
     1
  3
ACAD_XREC_ROUNDTRIP
360
27C4
  0
DICTIONARY
  5
27C7
330
2765
100
AcDbDictionary
280
     1
281
     1
  3
ACAD_XREC_ROUNDTRIP
360
27C8
  0
DICTIONARY
  5
27E1
330
2772
100
AcDbDictionary
280
     1
281
     1
  3
ACAD_XREC_ROUNDTRIP
360
27E2
  0
DICTIONARY
  5
27CF
330
2769
100
AcDbDictionary
280
     1
281
     1
  3
ACAD_XREC_ROUNDTRIP
360
27D0
  0
DICTIONARY
  5
27B3
330
275B
100
AcDbDictionary
280
     1
281
     1
  3
ACAD_XREC_ROUNDTRIP
360
27B4
  0
DICTIONARY
  5
27B5
330
275C
100
AcDbDictionary
280
     1
281
     1
  3
ACAD_XREC_ROUNDTRIP
360
27B6
  0
DICTIONARY
  5
27B7
330
275D
100
AcDbDictionary
280
     1
281
     1
  3
ACAD_XREC_ROUNDTRIP
360
27B8
  0
DICTIONARY
  5
27B9
330
275E
100
AcDbDictionary
280
     1
281
     1
  3
ACAD_XREC_ROUNDTRIP
360
27BA
  0
DICTIONARY
  5
27C1
330
2762
100
AcDbDictionary
280
     1
281
     1
  3
ACAD_XREC_ROUNDTRIP
360
27C2
  0
DICTIONARY
  5
27DD
330
2770
100
AcDbDictionary
280
     1
281
     1
  3
ACAD_XREC_ROUNDTRIP
360
27DE
  0
DICTIONARY
  5
27CD
330
2768
100
AcDbDictionary
280
     1
281
     1
  3
ACAD_XREC_ROUNDTRIP
360
27CE
  0
DICTIONARY
  5
27DF
330
2771
100
AcDbDictionary
280
     1
281
     1
  3
ACAD_XREC_ROUNDTRIP
360
27E0
  0
DICTIONARY
  5
27C5
330
2764
100
AcDbDictionary
280
     1
281
     1
  3
ACAD_XREC_ROUNDTRIP
360
27C6
  0
DICTIONARY
  5
27DB
330
276F
100
AcDbDictionary
280
     1
281
     1
  3
ACAD_XREC_ROUNDTRIP
360
27DC
  0
DICTIONARY
  5
27D9
330
276E
100
AcDbDictionary
280
     1
281
     1
  3
ACAD_XREC_ROUNDTRIP
360
27DA
  0
DICTIONARY
  5
27D3
330
276B
100
AcDbDictionary
280
     1
281
     1
  3
ACAD_XREC_ROUNDTRIP
360
27D4
  0
DICTIONARY
  5
27D5
330
276C
100
AcDbDictionary
280
     1
281
     1
  3
ACAD_XREC_ROUNDTRIP
360
27D6
  0
DICTIONARY
  5
27CB
330
2767
100
AcDbDictionary
280
     1
281
     1
  3
ACAD_XREC_ROUNDTRIP
360
27CC
  0
DICTIONARY
  5
27BF
330
2761
100
AcDbDictionary
280
     1
281
     1
  3
ACAD_XREC_ROUNDTRIP
360
27C0
  0
DICTIONARY
  5
27D7
330
276D
100
AcDbDictionary
280
     1
281
     1
  3
ACAD_XREC_ROUNDTRIP
360
27D8
  0
XRECORD
  5
27E8
102
{ACAD_REACTORS
330
27E7
102
}
330
27E7
100
AcDbXrecord
280
     1
102
DISPLAYNAME
  1
Imperial24
102
FLAGS
 90
        0
  0
XRECORD
  5
27EA
102
{ACAD_REACTORS
330
27E9
102
}
330
27E9
100
AcDbXrecord
280
     1
102
SHADEPLOT
 70
     0
102
SHADEPLOTRESLEVEL
 70
     2
102
SHADEPLOTCUSTOMDPI
 70
   300
  0
XRECORD
  5
27EC
102
{ACAD_REACTORS
330
27EB
102
}
330
27EB
100
AcDbXrecord
280
     1
102
SHADEPLOT
 70
     0
102
SHADEPLOTRESLEVEL
 70
     2
102
SHADEPLOTCUSTOMDPI
 70
   300
  0
XRECORD
  5
27B1
102
{ACAD_REACTORS
330
274B
102
}
330
274B
100
AcDbXrecord
280
     1
102
MATERIAL
148
0.0
149
0.0
149
0.0
 93
        0
 94
      127
282
     0
 72
     0
 77
     0
171
     0
175
     0
179
     0
273
     0
  0
XRECORD
  5
274D
102
{ACAD_REACTORS
330
274B
102
}
330
274B
100
AcDbXrecord
280
     1
270
     1
271
     1
  0
XRECORD
  5
274C
102
{ACAD_REACTORS
330
274B
102
}
330
274B
100
AcDbXrecord
280
     1
270
     1
271
     1
  0
XRECORD
  5
2750
102
{ACAD_REACTORS
330
274B
102
}
330
274B
100
AcDbXrecord
280
     1
270
     1
271
     1
  0
XRECORD
  5
274F
102
{ACAD_REACTORS
330
274B
102
}
330
274B
100
AcDbXrecord
280
     1
270
     1
271
     1
  0
XRECORD
  5
2751
102
{ACAD_REACTORS
330
274B
102
}
330
274B
100
AcDbXrecord
280
     1
270
     1
271
     1
  0
XRECORD
  5
274E
102
{ACAD_REACTORS
330
274B
102
}
330
274B
100
AcDbXrecord
280
     1
270
     1
271
     1
  0
XRECORD
  5
27B0
102
{ACAD_REACTORS
330
2743
102
}
330
2743
100
AcDbXrecord
280
     1
102
MATERIAL
148
0.0
149
0.0
149
0.0
 93
        0
 94
      127
282
     0
 72
     0
 77
     0
171
     0
175
     0
179
     0
273
     0
  0
XRECORD
  5
2745
102
{ACAD_REACTORS
330
2743
102
}
330
2743
100
AcDbXrecord
280
     1
270
     1
271
     1
  0
XRECORD
  5
2744
102
{ACAD_REACTORS
330
2743
102
}
330
2743
100
AcDbXrecord
280
     1
270
     1
271
     1
  0
XRECORD
  5
2748
102
{ACAD_REACTORS
330
2743
102
}
330
2743
100
AcDbXrecord
280
     1
270
     1
271
     1
  0
XRECORD
  5
2747
102
{ACAD_REACTORS
330
2743
102
}
330
2743
100
AcDbXrecord
280
     1
270
     1
271
     1
  0
XRECORD
  5
2749
102
{ACAD_REACTORS
330
2743
102
}
330
2743
100
AcDbXrecord
280
     1
270
     1
271
     1
  0
XRECORD
  5
2746
102
{ACAD_REACTORS
330
2743
102
}
330
2743
100
AcDbXrecord
280
     1
270
     1
271
     1
  0
XRECORD
  5
27B2
102
{ACAD_REACTORS
330
2753
102
}
330
2753
100
AcDbXrecord
280
     1
102
MATERIAL
148
0.0
149
0.0
149
0.0
 93
        0
 94
      127
282
     0
 72
     0
 77
     0
171
     0
175
     0
179
     0
273
     0
  0
XRECORD
  5
2755
102
{ACAD_REACTORS
330
2753
102
}
330
2753
100
AcDbXrecord
280
     1
270
     1
271
     1
  0
XRECORD
  5
2754
102
{ACAD_REACTORS
330
2753
102
}
330
2753
100
AcDbXrecord
280
     1
270
     1
271
     1
  0
XRECORD
  5
2758
102
{ACAD_REACTORS
330
2753
102
}
330
2753
100
AcDbXrecord
280
     1
270
     1
271
     1
  0
XRECORD
  5
2757
102
{ACAD_REACTORS
330
2753
102
}
330
2753
100
AcDbXrecord
280
     1
270
     1
271
     1
  0
XRECORD
  5
2759
102
{ACAD_REACTORS
330
2753
102
}
330
2753
100
AcDbXrecord
280
     1
270
     1
271
     1
  0
XRECORD
  5
2756
102
{ACAD_REACTORS
330
2753
102
}
330
2753
100
AcDbXrecord
280
     1
270
     1
271
     1
  0
XRECORD
  5
27E6
102
{ACAD_REACTORS
330
27E5
102
}
330
27E5
100
AcDbXrecord
280
     1
102
DISPLAYNAME
  1
Imperial24
102
FLAGS
 90
        0
  0
CELLSTYLEMAP
  5
27AD
102
{ACAD_REACTORS
330
27AC
102
}
330
27AC
100
AcDbCellStyleMap
 90
        3
300
CELLSTYLE
  1
TABLEFORMAT_BEGIN
 90
        5
170
     1
 91
        0
 92
    32768
 62
   257
 93
        1
300
CONTENTFORMAT
  1
CONTENTFORMAT_BEGIN
 90
        0
 91
        0
 92
      512
 93
        0
300

 40
0.0
140
1.0
 94
        5
 62
     0
340
F
144
0.25
309
CONTENTFORMAT_END
171
     0
 94
        0
309
TABLEFORMAT_END
  1
CELLSTYLE_BEGIN
 90
        1
 91
        1
300
_TITLE
309
CELLSTYLE_END
300
CELLSTYLE
  1
TABLEFORMAT_BEGIN
 90
        5
170
     1
 91
        0
 92
        0
 62
   257
 93
        1
300
CONTENTFORMAT
  1
CONTENTFORMAT_BEGIN
 90
        0
 91
        0
 92
      512
 93
        0
300

 40
0.0
140
1.0
 94
        5
 62
     0
340
F
144
0.18
309
CONTENTFORMAT_END
171
     0
 94
        0
309
TABLEFORMAT_END
  1
CELLSTYLE_BEGIN
 90
        2
 91
        1
300
_HEADER
309
CELLSTYLE_END
300
CELLSTYLE
  1
TABLEFORMAT_BEGIN
 90
        5
170
     1
 91
        0
 92
        0
 62
   257
 93
        1
300
CONTENTFORMAT
  1
CONTENTFORMAT_BEGIN
 90
        0
 91
        0
 92
      512
 93
        0
300

 40
0.0
140
1.0
 94
        2
 62
     0
340
F
144
0.18
309
CONTENTFORMAT_END
171
     0
 94
        0
309
TABLEFORMAT_END
  1
CELLSTYLE_BEGIN
 90
        3
 91
        2
300
_DATA
309
CELLSTYLE_END
  0
XRECORD
  5
27E3
102
{ACAD_REACTORS
330
27AC
102
}
330
27AC
100
AcDbXrecord
280
     1
102
ACAD_ROUNDTRIP_PRE2007_TABLESTYLE
 90
      512
 91
        0
  1

 92
      512
 93
        0
  2

 94
      512
 95
        0
  3

  0
XRECORD
  5
27BE
102
{ACAD_REACTORS
330
27BD
102
}
330
27BD
100
AcDbXrecord
280
     1
102
RTVSPost2010Prop28
280
     1
102
RTVSPost2010PropOp28
 70
     1
102
RTVSPost2010Prop29
280
     1
102
RTVSPost2010PropOp29
 70
     1
102
RTVSPost2010Prop30
280
     0
102
RTVSPost2010PropOp30
 70
     1
102
RTVSPost2010Prop31
280
     0
102
RTVSPost2010PropOp31
 70
     1
102
RTVSPost2010Prop32
280
     0
102
RTVSPost2010PropOp32
 70
     1
102
RTVSPost2010Prop33
280
     0
102
RTVSPost2010PropOp33
 70
     1
102
RTVSPost2010Prop34
280
     0
102
RTVSPost2010PropOp34
 70
     1
102
RTVSPost2010Prop35
280
     0
102
RTVSPost2010PropOp35
 70
     1
102
RTVSPost2010Prop36
280
     0
102
RTVSPost2010PropOp36
 70
     1
102
RTVSPost2010Prop37
 90
       50
102
RTVSPost2010PropOp37
 70
     1
102
RTVSPost2010Prop38
140
0.0
102
RTVSPost2010PropOp38
 70
     1
102
RTVSPost2010Prop39
140
1.0
102
RTVSPost2010PropOp39
 70
     1
102
RTVSPost2010Prop40
 90
        0
102
RTVSPost2010PropOp40
 70
     1
102
RTVSPost2010Prop41ColorIndex
 90
       18
102
RTVSPost2010Prop41ColorRGB
 90
        0
102
RTVSPost2010PropOp41
 70
     1
102
RTVSPost2010Prop42
 90
       50
102
RTVSPost2010PropOp42
 70
     1
102
RTVSPost2010Prop43
 90
        3
102
RTVSPost2010PropOp43
 70
     1
102
RTVSPost2010Prop44ColorIndex
 90
        5
102
RTVSPost2010Prop44ColorRGB
 90
      255
102
RTVSPost2010PropOp44
 70
     1
102
RTVSPost2010Prop45
280
     0
102
RTVSPost2010PropOp45
 70
     1
102
RTVSPost2010Prop46
 90
       50
102
RTVSPost2010PropOp46
 70
     1
102
RTVSPost2010Prop47
 90
       50
102
RTVSPost2010PropOp47
 70
     1
102
RTVSPost2010Prop48
 90
       50
102
RTVSPost2010PropOp48
 70
     1
102
RTVSPost2010Prop49
280
     0
102
RTVSPost2010PropOp49
 70
     1
102
RTVSPost2010Prop50
 90
       50
102
RTVSPost2010PropOp50
 70
     1
102
RTVSPost2010Prop51ColorIndex
 90
      256
102
RTVSPost2010Prop51ColorRGB
 90
-16777216
102
RTVSPost2010PropOp51
 70
     0
102
RTVSPost2010Prop52
140
1.0
102
RTVSPost2010PropOp52
 70
     0
102
RTVSPost2010Prop53
 90
        2
102
RTVSPost2010PropOp53
 70
     1
102
RTVSPost2010Prop54
  1
strokes_ogs.tif
102
RTVSPost2010PropOp54
 70
     1
102
RTVSPost2010Prop55
280
     0
102
RTVSPost2010PropOp55
 70
     1
102
RTVSPost2010Prop56
140
1.0
102
RTVSPost2010PropOp56
 70
     1
102
RTVSPost2010Prop57
140
1.0
102
RTVSPost2010PropOp57
 70
     1
102
RTVSPropertyOp0
 70
     1
102
RTVSPropertyOp1
 70
     1
102
RTVSPropertyOp2
 70
     1
102
RTVSPropertyOp3
 70
     1
102
RTVSPropertyOp4
 70
     1
102
RTVSPropertyOp5
 70
     1
102
RTVSPropertyOp6
 70
     1
102
RTVSPropertyOp7
 70
     1
102
RTVSPropertyOp8
 70
     1
102
RTVSPropertyOp9
 70
     1
102
RTVSPropertyOp10
 70
     1
102
RTVSPropertyOp11
 70
     1
102
RTVSPropertyOp12
 70
     1
102
RTVSPropertyOp13
 70
     1
102
RTVSPropertyOp14
 70
     1
102
RTVSPropertyOp15
 70
     1
102
RTVSPropertyOp16
 70
     1
102
RTVSPropertyOp17
 70
     1
102
RTVSPropertyOp18
 70
     1
102
RTVSPropertyOp19
 70
     1
102
RTVSPropertyOp20
 70
     1
102
RTVSPropertyOp21
 70
     1
102
RTVSPropertyOp22
 70
     1
102
RTVSPropertyOp23
 70
     1
102
RTVSPropertyOp24
 70
     1
102
RTVSPropertyOp25
 70
     1
102
RTVSPropertyOp26
 70
     1
102
RTVSPropertyOp27
 70
     1
102
RTVSPropertyOp28
 70
     1
102
RTVSPropertyOp29
 70
     1
102
RTVSPropertyOp30
 70
     1
102
RTVSPropertyOp31
 70
     1
102
RTVSPropertyOp32
 70
     1
102
RTVSPropertyOp33
 70
     1
102
RTVSPropertyOp34
 70
     1
102
RTVSPropertyOp35
 70
     1
102
RTVSPropertyOp36
 70
     1
102
RTVSPropertyOp37
 70
     1
102
RTVSPropertyOp38
 70
     1
102
RTVSPropertyOp39
 70
     1
102
RTVSPropertyOp40
 70
     1
102
RTVSPropertyOp41
 70
     1
102
RTVSPropertyOp42
 70
     1
102
RTVSPropertyOp43
 70
     1
102
RTVSPropertyOp44
 70
     1
102
RTVSPropertyOp45
 70
     1
102
RTVSPropertyOp46
 70
     1
102
RTVSPropertyOp47
 70
     1
102
RTVSPropertyOp48
 70
     1
102
RTVSPropertyOp49
 70
     1
102
RTVSPropertyOp50
 70
     1
102
RTVSPropertyOp51
 70
     0
102
RTVSPropertyOp52
 70
     0
102
RTVSPropertyOp53
 70
     1
102
RTVSPropertyOp54
 70
     1
102
RTVSPropertyOp55
 70
     1
102
RTVSPropertyOp56
 70
     1
102
RTVSPropertyOp57
 70
     1
102
RTVSPropertyOp58
 70
     1
102
RTVSPropertyOp59
 70
     1
102
RTVSPropertyOp60
 70
     1
102
RTVSPropertyOp61
 70
     1
102
RTVSPropertyOp62
 70
     1
  0
XRECORD
  5
27BC
102
{ACAD_REACTORS
330
27BB
102
}
330
27BB
100
AcDbXrecord
280
     1
102
RTVSPost2010Prop28
280
     0
102
RTVSPost2010PropOp28
 70
     1
102
RTVSPost2010Prop29
280
     1
102
RTVSPost2010PropOp29
 70
     1
102
RTVSPost2010Prop30
280
     1
102
RTVSPost2010PropOp30
 70
     1
102
RTVSPost2010Prop31
280
     0
102
RTVSPost2010PropOp31
 70
     1
102
RTVSPost2010Prop32
280
     0
102
RTVSPost2010PropOp32
 70
     1
102
RTVSPost2010Prop33
280
     0
102
RTVSPost2010PropOp33
 70
     1
102
RTVSPost2010Prop34
280
     0
102
RTVSPost2010PropOp34
 70
     1
102
RTVSPost2010Prop35
280
     0
102
RTVSPost2010PropOp35
 70
     1
102
RTVSPost2010Prop36
280
     0
102
RTVSPost2010PropOp36
 70
     1
102
RTVSPost2010Prop37
 90
       50
102
RTVSPost2010PropOp37
 70
     1
102
RTVSPost2010Prop38
140
0.0
102
RTVSPost2010PropOp38
 70
     1
102
RTVSPost2010Prop39
140
1.0
102
RTVSPost2010PropOp39
 70
     1
102
RTVSPost2010Prop40
 90
        0
102
RTVSPost2010PropOp40
 70
     1
102
RTVSPost2010Prop41ColorIndex
 90
       18
102
RTVSPost2010Prop41ColorRGB
 90
        0
102
RTVSPost2010PropOp41
 70
     1
102
RTVSPost2010Prop42
 90
       50
102
RTVSPost2010PropOp42
 70
     1
102
RTVSPost2010Prop43
 90
        3
102
RTVSPost2010PropOp43
 70
     1
102
RTVSPost2010Prop44ColorIndex
 90
        5
102
RTVSPost2010Prop44ColorRGB
 90
      255
102
RTVSPost2010PropOp44
 70
     1
102
RTVSPost2010Prop45
280
     0
102
RTVSPost2010PropOp45
 70
     1
102
RTVSPost2010Prop46
 90
       50
102
RTVSPost2010PropOp46
 70
     1
102
RTVSPost2010Prop47
 90
       50
102
RTVSPost2010PropOp47
 70
     1
102
RTVSPost2010Prop48
 90
       50
102
RTVSPost2010PropOp48
 70
     1
102
RTVSPost2010Prop49
280
     0
102
RTVSPost2010PropOp49
 70
     1
102
RTVSPost2010Prop50
 90
       50
102
RTVSPost2010PropOp50
 70
     1
102
RTVSPost2010Prop51ColorIndex
 90
      256
102
RTVSPost2010Prop51ColorRGB
 90
-16777216
102
RTVSPost2010PropOp51
 70
     0
102
RTVSPost2010Prop52
140
1.0
102
RTVSPost2010PropOp52
 70
     0
102
RTVSPost2010Prop53
 90
        2
102
RTVSPost2010PropOp53
 70
     1
102
RTVSPost2010Prop54
  1
strokes_ogs.tif
102
RTVSPost2010PropOp54
 70
     1
102
RTVSPost2010Prop55
280
     0
102
RTVSPost2010PropOp55
 70
     1
102
RTVSPost2010Prop56
140
1.0
102
RTVSPost2010PropOp56
 70
     1
102
RTVSPost2010Prop57
140
1.0
102
RTVSPost2010PropOp57
 70
     1
102
RTVSPropertyOp0
 70
     1
102
RTVSPropertyOp1
 70
     1
102
RTVSPropertyOp2
 70
     1
102
RTVSPropertyOp3
 70
     1
102
RTVSPropertyOp4
 70
     1
102
RTVSPropertyOp5
 70
     1
102
RTVSPropertyOp6
 70
     1
102
RTVSPropertyOp7
 70
     1
102
RTVSPropertyOp8
 70
     1
102
RTVSPropertyOp9
 70
     1
102
RTVSPropertyOp10
 70
     1
102
RTVSPropertyOp11
 70
     1
102
RTVSPropertyOp12
 70
     1
102
RTVSPropertyOp13
 70
     1
102
RTVSPropertyOp14
 70
     1
102
RTVSPropertyOp15
 70
     1
102
RTVSPropertyOp16
 70
     1
102
RTVSPropertyOp17
 70
     1
102
RTVSPropertyOp18
 70
     1
102
RTVSPropertyOp19
 70
     1
102
RTVSPropertyOp20
 70
     1
102
RTVSPropertyOp21
 70
     1
102
RTVSPropertyOp22
 70
     1
102
RTVSPropertyOp23
 70
     1
102
RTVSPropertyOp24
 70
     1
102
RTVSPropertyOp25
 70
     1
102
RTVSPropertyOp26
 70
     1
102
RTVSPropertyOp27
 70
     1
102
RTVSPropertyOp28
 70
     1
102
RTVSPropertyOp29
 70
     1
102
RTVSPropertyOp30
 70
     1
102
RTVSPropertyOp31
 70
     1
102
RTVSPropertyOp32
 70
     1
102
RTVSPropertyOp33
 70
     1
102
RTVSPropertyOp34
 70
     1
102
RTVSPropertyOp35
 70
     1
102
RTVSPropertyOp36
 70
     1
102
RTVSPropertyOp37
 70
     1
102
RTVSPropertyOp38
 70
     1
102
RTVSPropertyOp39
 70
     1
102
RTVSPropertyOp40
 70
     1
102
RTVSPropertyOp41
 70
     1
102
RTVSPropertyOp42
 70
     1
102
RTVSPropertyOp43
 70
     1
102
RTVSPropertyOp44
 70
     1
102
RTVSPropertyOp45
 70
     1
102
RTVSPropertyOp46
 70
     1
102
RTVSPropertyOp47
 70
     1
102
RTVSPropertyOp48
 70
     1
102
RTVSPropertyOp49
 70
     1
102
RTVSPropertyOp50
 70
     1
102
RTVSPropertyOp51
 70
     0
102
RTVSPropertyOp52
 70
     0
102
RTVSPropertyOp53
 70
     1
102
RTVSPropertyOp54
 70
     1
102
RTVSPropertyOp55
 70
     1
102
RTVSPropertyOp56
 70
     1
102
RTVSPropertyOp57
 70
     1
102
RTVSPropertyOp58
 70
     1
102
RTVSPropertyOp59
 70
     1
102
RTVSPropertyOp60
 70
     1
102
RTVSPropertyOp61
 70
     1
102
RTVSPropertyOp62
 70
     1
  0
XRECORD
  5
27CA
102
{ACAD_REACTORS
330
27C9
102
}
330
27C9
100
AcDbXrecord
280
     1
102
RTVSPost2010Prop28
280
     0
102
RTVSPost2010PropOp28
 70
     1
102
RTVSPost2010Prop29
280
     1
102
RTVSPost2010PropOp29
 70
     1
102
RTVSPost2010Prop30
280
     1
102
RTVSPost2010PropOp30
 70
     1
102
RTVSPost2010Prop31
280
     0
102
RTVSPost2010PropOp31
 70
     1
102
RTVSPost2010Prop32
280
     0
102
RTVSPost2010PropOp32
 70
     1
102
RTVSPost2010Prop33
280
     0
102
RTVSPost2010PropOp33
 70
     1
102
RTVSPost2010Prop34
280
     0
102
RTVSPost2010PropOp34
 70
     1
102
RTVSPost2010Prop35
280
     0
102
RTVSPost2010PropOp35
 70
     1
102
RTVSPost2010Prop36
280
     0
102
RTVSPost2010PropOp36
 70
     1
102
RTVSPost2010Prop37
 90
       50
102
RTVSPost2010PropOp37
 70
     1
102
RTVSPost2010Prop38
140
0.0
102
RTVSPost2010PropOp38
 70
     1
102
RTVSPost2010Prop39
140
1.0
102
RTVSPost2010PropOp39
 70
     1
102
RTVSPost2010Prop40
 90
        0
102
RTVSPost2010PropOp40
 70
     1
102
RTVSPost2010Prop41ColorIndex
 90
       18
102
RTVSPost2010Prop41ColorRGB
 90
        0
102
RTVSPost2010PropOp41
 70
     1
102
RTVSPost2010Prop42
 90
       50
102
RTVSPost2010PropOp42
 70
     1
102
RTVSPost2010Prop43
 90
        3
102
RTVSPost2010PropOp43
 70
     1
102
RTVSPost2010Prop44ColorIndex
 90
        5
102
RTVSPost2010Prop44ColorRGB
 90
      255
102
RTVSPost2010PropOp44
 70
     1
102
RTVSPost2010Prop45
280
     0
102
RTVSPost2010PropOp45
 70
     1
102
RTVSPost2010Prop46
 90
       50
102
RTVSPost2010PropOp46
 70
     1
102
RTVSPost2010Prop47
 90
       50
102
RTVSPost2010PropOp47
 70
     1
102
RTVSPost2010Prop48
 90
       50
102
RTVSPost2010PropOp48
 70
     1
102
RTVSPost2010Prop49
280
     0
102
RTVSPost2010PropOp49
 70
     1
102
RTVSPost2010Prop50
 90
       50
102
RTVSPost2010PropOp50
 70
     1
102
RTVSPost2010Prop51ColorIndex
 90
      256
102
RTVSPost2010Prop51ColorRGB
 90
-16777216
102
RTVSPost2010PropOp51
 70
     0
102
RTVSPost2010Prop52
140
1.0
102
RTVSPost2010PropOp52
 70
     0
102
RTVSPost2010Prop53
 90
        2
102
RTVSPost2010PropOp53
 70
     1
102
RTVSPost2010Prop54
  1
strokes_ogs.tif
102
RTVSPost2010PropOp54
 70
     1
102
RTVSPost2010Prop55
280
     0
102
RTVSPost2010PropOp55
 70
     1
102
RTVSPost2010Prop56
140
1.0
102
RTVSPost2010PropOp56
 70
     1
102
RTVSPost2010Prop57
140
1.0
102
RTVSPost2010PropOp57
 70
     1
102
RTVSPropertyOp0
 70
     1
102
RTVSPropertyOp1
 70
     1
102
RTVSPropertyOp2
 70
     1
102
RTVSPropertyOp3
 70
     1
102
RTVSPropertyOp4
 70
     1
102
RTVSPropertyOp5
 70
     1
102
RTVSPropertyOp6
 70
     1
102
RTVSPropertyOp7
 70
     1
102
RTVSPropertyOp8
 70
     1
102
RTVSPropertyOp9
 70
     1
102
RTVSPropertyOp10
 70
     1
102
RTVSPropertyOp11
 70
     1
102
RTVSPropertyOp12
 70
     1
102
RTVSPropertyOp13
 70
     1
102
RTVSPropertyOp14
 70
     1
102
RTVSPropertyOp15
 70
     1
102
RTVSPropertyOp16
 70
     1
102
RTVSPropertyOp17
 70
     1
102
RTVSPropertyOp18
 70
     1
102
RTVSPropertyOp19
 70
     1
102
RTVSPropertyOp20
 70
     1
102
RTVSPropertyOp21
 70
     1
102
RTVSPropertyOp22
 70
     1
102
RTVSPropertyOp23
 70
     1
102
RTVSPropertyOp24
 70
     1
102
RTVSPropertyOp25
 70
     1
102
RTVSPropertyOp26
 70
     1
102
RTVSPropertyOp27
 70
     1
102
RTVSPropertyOp28
 70
     1
102
RTVSPropertyOp29
 70
     1
102
RTVSPropertyOp30
 70
     1
102
RTVSPropertyOp31
 70
     1
102
RTVSPropertyOp32
 70
     1
102
RTVSPropertyOp33
 70
     1
102
RTVSPropertyOp34
 70
     1
102
RTVSPropertyOp35
 70
     1
102
RTVSPropertyOp36
 70
     1
102
RTVSPropertyOp37
 70
     1
102
RTVSPropertyOp38
 70
     1
102
RTVSPropertyOp39
 70
     1
102
RTVSPropertyOp40
 70
     1
102
RTVSPropertyOp41
 70
     1
102
RTVSPropertyOp42
 70
     1
102
RTVSPropertyOp43
 70
     1
102
RTVSPropertyOp44
 70
     1
102
RTVSPropertyOp45
 70
     1
102
RTVSPropertyOp46
 70
     1
102
RTVSPropertyOp47
 70
     1
102
RTVSPropertyOp48
 70
     1
102
RTVSPropertyOp49
 70
     1
102
RTVSPropertyOp50
 70
     1
102
RTVSPropertyOp51
 70
     0
102
RTVSPropertyOp52
 70
     0
102
RTVSPropertyOp53
 70
     1
102
RTVSPropertyOp54
 70
     1
102
RTVSPropertyOp55
 70
     1
102
RTVSPropertyOp56
 70
     1
102
RTVSPropertyOp57
 70
     1
102
RTVSPropertyOp58
 70
     1
102
RTVSPropertyOp59
 70
     1
102
RTVSPropertyOp60
 70
     1
102
RTVSPropertyOp61
 70
     1
102
RTVSPropertyOp62
 70
     1
  0
XRECORD
  5
27D2
102
{ACAD_REACTORS
330
27D1
102
}
330
27D1
100
AcDbXrecord
280
     1
102
RTVSPost2010Prop28
280
     0
102
RTVSPost2010PropOp28
 70
     1
102
RTVSPost2010Prop29
280
     1
102
RTVSPost2010PropOp29
 70
     1
102
RTVSPost2010Prop30
280
     1
102
RTVSPost2010PropOp30
 70
     1
102
RTVSPost2010Prop31
280
     0
102
RTVSPost2010PropOp31
 70
     1
102
RTVSPost2010Prop32
280
     0
102
RTVSPost2010PropOp32
 70
     1
102
RTVSPost2010Prop33
280
     0
102
RTVSPost2010PropOp33
 70
     1
102
RTVSPost2010Prop34
280
     0
102
RTVSPost2010PropOp34
 70
     1
102
RTVSPost2010Prop35
280
     0
102
RTVSPost2010PropOp35
 70
     1
102
RTVSPost2010Prop36
280
     0
102
RTVSPost2010PropOp36
 70
     1
102
RTVSPost2010Prop37
 90
       50
102
RTVSPost2010PropOp37
 70
     1
102
RTVSPost2010Prop38
140
0.0
102
RTVSPost2010PropOp38
 70
     1
102
RTVSPost2010Prop39
140
1.0
102
RTVSPost2010PropOp39
 70
     1
102
RTVSPost2010Prop40
 90
        0
102
RTVSPost2010PropOp40
 70
     1
102
RTVSPost2010Prop41ColorIndex
 90
       18
102
RTVSPost2010Prop41ColorRGB
 90
        0
102
RTVSPost2010PropOp41
 70
     1
102
RTVSPost2010Prop42
 90
       50
102
RTVSPost2010PropOp42
 70
     1
102
RTVSPost2010Prop43
 90
        3
102
RTVSPost2010PropOp43
 70
     1
102
RTVSPost2010Prop44ColorIndex
 90
        5
102
RTVSPost2010Prop44ColorRGB
 90
      255
102
RTVSPost2010PropOp44
 70
     1
102
RTVSPost2010Prop45
280
     0
102
RTVSPost2010PropOp45
 70
     1
102
RTVSPost2010Prop46
 90
       50
102
RTVSPost2010PropOp46
 70
     1
102
RTVSPost2010Prop47
 90
       50
102
RTVSPost2010PropOp47
 70
     1
102
RTVSPost2010Prop48
 90
       50
102
RTVSPost2010PropOp48
 70
     1
102
RTVSPost2010Prop49
280
     0
102
RTVSPost2010PropOp49
 70
     1
102
RTVSPost2010Prop50
 90
       50
102
RTVSPost2010PropOp50
 70
     1
102
RTVSPost2010Prop51ColorIndex
 90
      256
102
RTVSPost2010Prop51ColorRGB
 90
-16777216
102
RTVSPost2010PropOp51
 70
     0
102
RTVSPost2010Prop52
140
1.0
102
RTVSPost2010PropOp52
 70
     0
102
RTVSPost2010Prop53
 90
        2
102
RTVSPost2010PropOp53
 70
     1
102
RTVSPost2010Prop54
  1
strokes_ogs.tif
102
RTVSPost2010PropOp54
 70
     1
102
RTVSPost2010Prop55
280
     0
102
RTVSPost2010PropOp55
 70
     1
102
RTVSPost2010Prop56
140
1.0
102
RTVSPost2010PropOp56
 70
     1
102
RTVSPost2010Prop57
140
1.0
102
RTVSPost2010PropOp57
 70
     1
102
RTVSPropertyOp0
 70
     1
102
RTVSPropertyOp1
 70
     1
102
RTVSPropertyOp2
 70
     1
102
RTVSPropertyOp3
 70
     1
102
RTVSPropertyOp4
 70
     1
102
RTVSPropertyOp5
 70
     1
102
RTVSPropertyOp6
 70
     1
102
RTVSPropertyOp7
 70
     1
102
RTVSPropertyOp8
 70
     1
102
RTVSPropertyOp9
 70
     1
102
RTVSPropertyOp10
 70
     1
102
RTVSPropertyOp11
 70
     1
102
RTVSPropertyOp12
 70
     1
102
RTVSPropertyOp13
 70
     1
102
RTVSPropertyOp14
 70
     1
102
RTVSPropertyOp15
 70
     1
102
RTVSPropertyOp16
 70
     1
102
RTVSPropertyOp17
 70
     1
102
RTVSPropertyOp18
 70
     1
102
RTVSPropertyOp19
 70
     1
102
RTVSPropertyOp20
 70
     1
102
RTVSPropertyOp21
 70
     1
102
RTVSPropertyOp22
 70
     1
102
RTVSPropertyOp23
 70
     1
102
RTVSPropertyOp24
 70
     1
102
RTVSPropertyOp25
 70
     1
102
RTVSPropertyOp26
 70
     1
102
RTVSPropertyOp27
 70
     1
102
RTVSPropertyOp28
 70
     1
102
RTVSPropertyOp29
 70
     1
102
RTVSPropertyOp30
 70
     1
102
RTVSPropertyOp31
 70
     1
102
RTVSPropertyOp32
 70
     1
102
RTVSPropertyOp33
 70
     1
102
RTVSPropertyOp34
 70
     1
102
RTVSPropertyOp35
 70
     1
102
RTVSPropertyOp36
 70
     1
102
RTVSPropertyOp37
 70
     1
102
RTVSPropertyOp38
 70
     1
102
RTVSPropertyOp39
 70
     1
102
RTVSPropertyOp40
 70
     1
102
RTVSPropertyOp41
 70
     1
102
RTVSPropertyOp42
 70
     1
102
RTVSPropertyOp43
 70
     1
102
RTVSPropertyOp44
 70
     1
102
RTVSPropertyOp45
 70
     1
102
RTVSPropertyOp46
 70
     1
102
RTVSPropertyOp47
 70
     1
102
RTVSPropertyOp48
 70
     1
102
RTVSPropertyOp49
 70
     1
102
RTVSPropertyOp50
 70
     1
102
RTVSPropertyOp51
 70
     0
102
RTVSPropertyOp52
 70
     0
102
RTVSPropertyOp53
 70
     1
102
RTVSPropertyOp54
 70
     1
102
RTVSPropertyOp55
 70
     1
102
RTVSPropertyOp56
 70
     1
102
RTVSPropertyOp57
 70
     1
102
RTVSPropertyOp58
 70
     1
102
RTVSPropertyOp59
 70
     1
102
RTVSPropertyOp60
 70
     1
102
RTVSPropertyOp61
 70
     1
102
RTVSPropertyOp62
 70
     1
  0
XRECORD
  5
27C4
102
{ACAD_REACTORS
330
27C3
102
}
330
27C3
100
AcDbXrecord
280
     1
102
RTVSPost2010Prop28
280
     0
102
RTVSPost2010PropOp28
 70
     1
102
RTVSPost2010Prop29
280
     1
102
RTVSPost2010PropOp29
 70
     1
102
RTVSPost2010Prop30
280
     1
102
RTVSPost2010PropOp30
 70
     1
102
RTVSPost2010Prop31
280
     0
102
RTVSPost2010PropOp31
 70
     1
102
RTVSPost2010Prop32
280
     0
102
RTVSPost2010PropOp32
 70
     1
102
RTVSPost2010Prop33
280
     0
102
RTVSPost2010PropOp33
 70
     1
102
RTVSPost2010Prop34
280
     0
102
RTVSPost2010PropOp34
 70
     1
102
RTVSPost2010Prop35
280
     0
102
RTVSPost2010PropOp35
 70
     1
102
RTVSPost2010Prop36
280
     0
102
RTVSPost2010PropOp36
 70
     1
102
RTVSPost2010Prop37
 90
       50
102
RTVSPost2010PropOp37
 70
     1
102
RTVSPost2010Prop38
140
0.0
102
RTVSPost2010PropOp38
 70
     1
102
RTVSPost2010Prop39
140
1.0
102
RTVSPost2010PropOp39
 70
     1
102
RTVSPost2010Prop40
 90
        0
102
RTVSPost2010PropOp40
 70
     1
102
RTVSPost2010Prop41ColorIndex
 90
       18
102
RTVSPost2010Prop41ColorRGB
 90
        0
102
RTVSPost2010PropOp41
 70
     1
102
RTVSPost2010Prop42
 90
       50
102
RTVSPost2010PropOp42
 70
     1
102
RTVSPost2010Prop43
 90
        3
102
RTVSPost2010PropOp43
 70
     1
102
RTVSPost2010Prop44ColorIndex
 90
        5
102
RTVSPost2010Prop44ColorRGB
 90
      255
102
RTVSPost2010PropOp44
 70
     1
102
RTVSPost2010Prop45
280
     0
102
RTVSPost2010PropOp45
 70
     1
102
RTVSPost2010Prop46
 90
       50
102
RTVSPost2010PropOp46
 70
     1
102
RTVSPost2010Prop47
 90
       50
102
RTVSPost2010PropOp47
 70
     1
102
RTVSPost2010Prop48
 90
       50
102
RTVSPost2010PropOp48
 70
     1
102
RTVSPost2010Prop49
280
     0
102
RTVSPost2010PropOp49
 70
     1
102
RTVSPost2010Prop50
 90
       50
102
RTVSPost2010PropOp50
 70
     1
102
RTVSPost2010Prop51ColorIndex
 90
      256
102
RTVSPost2010Prop51ColorRGB
 90
-16777216
102
RTVSPost2010PropOp51
 70
     0
102
RTVSPost2010Prop52
140
1.0
102
RTVSPost2010PropOp52
 70
     0
102
RTVSPost2010Prop53
 90
        2
102
RTVSPost2010PropOp53
 70
     1
102
RTVSPost2010Prop54
  1
strokes_ogs.tif
102
RTVSPost2010PropOp54
 70
     1
102
RTVSPost2010Prop55
280
     0
102
RTVSPost2010PropOp55
 70
     1
102
RTVSPost2010Prop56
140
1.0
102
RTVSPost2010PropOp56
 70
     1
102
RTVSPost2010Prop57
140
1.0
102
RTVSPost2010PropOp57
 70
     1
102
RTVSPropertyOp0
 70
     1
102
RTVSPropertyOp1
 70
     1
102
RTVSPropertyOp2
 70
     1
102
RTVSPropertyOp3
 70
     1
102
RTVSPropertyOp4
 70
     1
102
RTVSPropertyOp5
 70
     1
102
RTVSPropertyOp6
 70
     1
102
RTVSPropertyOp7
 70
     1
102
RTVSPropertyOp8
 70
     1
102
RTVSPropertyOp9
 70
     1
102
RTVSPropertyOp10
 70
     1
102
RTVSPropertyOp11
 70
     1
102
RTVSPropertyOp12
 70
     1
102
RTVSPropertyOp13
 70
     1
102
RTVSPropertyOp14
 70
     1
102
RTVSPropertyOp15
 70
     1
102
RTVSPropertyOp16
 70
     1
102
RTVSPropertyOp17
 70
     1
102
RTVSPropertyOp18
 70
     1
102
RTVSPropertyOp19
 70
     1
102
RTVSPropertyOp20
 70
     1
102
RTVSPropertyOp21
 70
     1
102
RTVSPropertyOp22
 70
     1
102
RTVSPropertyOp23
 70
     1
102
RTVSPropertyOp24
 70
     1
102
RTVSPropertyOp25
 70
     1
102
RTVSPropertyOp26
 70
     1
102
RTVSPropertyOp27
 70
     1
102
RTVSPropertyOp28
 70
     1
102
RTVSPropertyOp29
 70
     1
102
RTVSPropertyOp30
 70
     1
102
RTVSPropertyOp31
 70
     1
102
RTVSPropertyOp32
 70
     1
102
RTVSPropertyOp33
 70
     1
102
RTVSPropertyOp34
 70
     1
102
RTVSPropertyOp35
 70
     1
102
RTVSPropertyOp36
 70
     1
102
RTVSPropertyOp37
 70
     1
102
RTVSPropertyOp38
 70
     1
102
RTVSPropertyOp39
 70
     1
102
RTVSPropertyOp40
 70
     1
102
RTVSPropertyOp41
 70
     1
102
RTVSPropertyOp42
 70
     1
102
RTVSPropertyOp43
 70
     1
102
RTVSPropertyOp44
 70
     1
102
RTVSPropertyOp45
 70
     1
102
RTVSPropertyOp46
 70
     1
102
RTVSPropertyOp47
 70
     1
102
RTVSPropertyOp48
 70
     1
102
RTVSPropertyOp49
 70
     1
102
RTVSPropertyOp50
 70
     1
102
RTVSPropertyOp51
 70
     0
102
RTVSPropertyOp52
 70
     0
102
RTVSPropertyOp53
 70
     1
102
RTVSPropertyOp54
 70
     1
102
RTVSPropertyOp55
 70
     1
102
RTVSPropertyOp56
 70
     1
102
RTVSPropertyOp57
 70
     1
102
RTVSPropertyOp58
 70
     1
102
RTVSPropertyOp59
 70
     1
102
RTVSPropertyOp60
 70
     1
102
RTVSPropertyOp61
 70
     1
102
RTVSPropertyOp62
 70
     1
  0
XRECORD
  5
27C8
102
{ACAD_REACTORS
330
27C7
102
}
330
27C7
100
AcDbXrecord
280
     1
102
RTVSPost2010Prop28
280
     0
102
RTVSPost2010PropOp28
 70
     1
102
RTVSPost2010Prop29
280
     1
102
RTVSPost2010PropOp29
 70
     1
102
RTVSPost2010Prop30
280
     1
102
RTVSPost2010PropOp30
 70
     1
102
RTVSPost2010Prop31
280
     0
102
RTVSPost2010PropOp31
 70
     1
102
RTVSPost2010Prop32
280
     0
102
RTVSPost2010PropOp32
 70
     1
102
RTVSPost2010Prop33
280
     0
102
RTVSPost2010PropOp33
 70
     1
102
RTVSPost2010Prop34
280
     0
102
RTVSPost2010PropOp34
 70
     1
102
RTVSPost2010Prop35
280
     0
102
RTVSPost2010PropOp35
 70
     1
102
RTVSPost2010Prop36
280
     0
102
RTVSPost2010PropOp36
 70
     1
102
RTVSPost2010Prop37
 90
       50
102
RTVSPost2010PropOp37
 70
     1
102
RTVSPost2010Prop38
140
0.0
102
RTVSPost2010PropOp38
 70
     1
102
RTVSPost2010Prop39
140
1.0
102
RTVSPost2010PropOp39
 70
     1
102
RTVSPost2010Prop40
 90
        0
102
RTVSPost2010PropOp40
 70
     1
102
RTVSPost2010Prop41ColorIndex
 90
       18
102
RTVSPost2010Prop41ColorRGB
 90
        0
102
RTVSPost2010PropOp41
 70
     1
102
RTVSPost2010Prop42
 90
       50
102
RTVSPost2010PropOp42
 70
     1
102
RTVSPost2010Prop43
 90
        3
102
RTVSPost2010PropOp43
 70
     1
102
RTVSPost2010Prop44ColorIndex
 90
        5
102
RTVSPost2010Prop44ColorRGB
 90
      255
102
RTVSPost2010PropOp44
 70
     1
102
RTVSPost2010Prop45
280
     0
102
RTVSPost2010PropOp45
 70
     1
102
RTVSPost2010Prop46
 90
       50
102
RTVSPost2010PropOp46
 70
     1
102
RTVSPost2010Prop47
 90
       50
102
RTVSPost2010PropOp47
 70
     1
102
RTVSPost2010Prop48
 90
       50
102
RTVSPost2010PropOp48
 70
     1
102
RTVSPost2010Prop49
280
     0
102
RTVSPost2010PropOp49
 70
     1
102
RTVSPost2010Prop50
 90
       50
102
RTVSPost2010PropOp50
 70
     1
102
RTVSPost2010Prop51ColorIndex
 90
      256
102
RTVSPost2010Prop51ColorRGB
 90
-16777216
102
RTVSPost2010PropOp51
 70
     0
102
RTVSPost2010Prop52
140
1.0
102
RTVSPost2010PropOp52
 70
     0
102
RTVSPost2010Prop53
 90
        2
102
RTVSPost2010PropOp53
 70
     1
102
RTVSPost2010Prop54
  1
strokes_ogs.tif
102
RTVSPost2010PropOp54
 70
     1
102
RTVSPost2010Prop55
280
     0
102
RTVSPost2010PropOp55
 70
     1
102
RTVSPost2010Prop56
140
1.0
102
RTVSPost2010PropOp56
 70
     1
102
RTVSPost2010Prop57
140
1.0
102
RTVSPost2010PropOp57
 70
     1
102
RTVSPropertyOp0
 70
     1
102
RTVSPropertyOp1
 70
     1
102
RTVSPropertyOp2
 70
     1
102
RTVSPropertyOp3
 70
     1
102
RTVSPropertyOp4
 70
     1
102
RTVSPropertyOp5
 70
     1
102
RTVSPropertyOp6
 70
     1
102
RTVSPropertyOp7
 70
     1
102
RTVSPropertyOp8
 70
     1
102
RTVSPropertyOp9
 70
     1
102
RTVSPropertyOp10
 70
     1
102
RTVSPropertyOp11
 70
     1
102
RTVSPropertyOp12
 70
     1
102
RTVSPropertyOp13
 70
     1
102
RTVSPropertyOp14
 70
     1
102
RTVSPropertyOp15
 70
     1
102
RTVSPropertyOp16
 70
     1
102
RTVSPropertyOp17
 70
     1
102
RTVSPropertyOp18
 70
     1
102
RTVSPropertyOp19
 70
     1
102
RTVSPropertyOp20
 70
     1
102
RTVSPropertyOp21
 70
     1
102
RTVSPropertyOp22
 70
     1
102
RTVSPropertyOp23
 70
     1
102
RTVSPropertyOp24
 70
     1
102
RTVSPropertyOp25
 70
     1
102
RTVSPropertyOp26
 70
     1
102
RTVSPropertyOp27
 70
     1
102
RTVSPropertyOp28
 70
     1
102
RTVSPropertyOp29
 70
     1
102
RTVSPropertyOp30
 70
     1
102
RTVSPropertyOp31
 70
     1
102
RTVSPropertyOp32
 70
     1
102
RTVSPropertyOp33
 70
     1
102
RTVSPropertyOp34
 70
     1
102
RTVSPropertyOp35
 70
     1
102
RTVSPropertyOp36
 70
     1
102
RTVSPropertyOp37
 70
     1
102
RTVSPropertyOp38
 70
     1
102
RTVSPropertyOp39
 70
     1
102
RTVSPropertyOp40
 70
     1
102
RTVSPropertyOp41
 70
     1
102
RTVSPropertyOp42
 70
     1
102
RTVSPropertyOp43
 70
     1
102
RTVSPropertyOp44
 70
     1
102
RTVSPropertyOp45
 70
     1
102
RTVSPropertyOp46
 70
     1
102
RTVSPropertyOp47
 70
     1
102
RTVSPropertyOp48
 70
     1
102
RTVSPropertyOp49
 70
     1
102
RTVSPropertyOp50
 70
     1
102
RTVSPropertyOp51
 70
     0
102
RTVSPropertyOp52
 70
     0
102
RTVSPropertyOp53
 70
     1
102
RTVSPropertyOp54
 70
     1
102
RTVSPropertyOp55
 70
     1
102
RTVSPropertyOp56
 70
     1
102
RTVSPropertyOp57
 70
     1
102
RTVSPropertyOp58
 70
     1
102
RTVSPropertyOp59
 70
     1
102
RTVSPropertyOp60
 70
     1
102
RTVSPropertyOp61
 70
     1
102
RTVSPropertyOp62
 70
     1
  0
XRECORD
  5
27E2
102
{ACAD_REACTORS
330
27E1
102
}
330
27E1
100
AcDbXrecord
280
     1
102
RTVSPost2010Prop28
280
     0
102
RTVSPost2010PropOp28
 70
     1
102
RTVSPost2010Prop29
280
     1
102
RTVSPost2010PropOp29
 70
     1
102
RTVSPost2010Prop30
280
     1
102
RTVSPost2010PropOp30
 70
     1
102
RTVSPost2010Prop31
280
     0
102
RTVSPost2010PropOp31
 70
     1
102
RTVSPost2010Prop32
280
     0
102
RTVSPost2010PropOp32
 70
     1
102
RTVSPost2010Prop33
280
     0
102
RTVSPost2010PropOp33
 70
     1
102
RTVSPost2010Prop34
280
     0
102
RTVSPost2010PropOp34
 70
     1
102
RTVSPost2010Prop35
280
     0
102
RTVSPost2010PropOp35
 70
     1
102
RTVSPost2010Prop36
280
     0
102
RTVSPost2010PropOp36
 70
     1
102
RTVSPost2010Prop37
 90
       50
102
RTVSPost2010PropOp37
 70
     0
102
RTVSPost2010Prop38
140
0.0
102
RTVSPost2010PropOp38
 70
     0
102
RTVSPost2010Prop39
140
1.0
102
RTVSPost2010PropOp39
 70
     0
102
RTVSPost2010Prop40
 90
        0
102
RTVSPost2010PropOp40
 70
     0
102
RTVSPost2010Prop41ColorIndex
 90
       18
102
RTVSPost2010Prop41ColorRGB
 90
        0
102
RTVSPost2010PropOp41
 70
     0
102
RTVSPost2010Prop42
 90
       50
102
RTVSPost2010PropOp42
 70
     0
102
RTVSPost2010Prop43
 90
        3
102
RTVSPost2010PropOp43
 70
     0
102
RTVSPost2010Prop44ColorIndex
 90
        5
102
RTVSPost2010Prop44ColorRGB
 90
      255
102
RTVSPost2010PropOp44
 70
     0
102
RTVSPost2010Prop45
280
     0
102
RTVSPost2010PropOp45
 70
     1
102
RTVSPost2010Prop46
 90
       50
102
RTVSPost2010PropOp46
 70
     0
102
RTVSPost2010Prop47
 90
       50
102
RTVSPost2010PropOp47
 70
     0
102
RTVSPost2010Prop48
 90
       50
102
RTVSPost2010PropOp48
 70
     0
102
RTVSPost2010Prop49
280
     0
102
RTVSPost2010PropOp49
 70
     1
102
RTVSPost2010Prop50
 90
       50
102
RTVSPost2010PropOp50
 70
     0
102
RTVSPost2010Prop51ColorIndex
 90
      256
102
RTVSPost2010Prop51ColorRGB
 90
-16777216
102
RTVSPost2010PropOp51
 70
     0
102
RTVSPost2010Prop52
140
1.0
102
RTVSPost2010PropOp52
 70
     0
102
RTVSPost2010Prop53
 90
        2
102
RTVSPost2010PropOp53
 70
     0
102
RTVSPost2010Prop54
  1
strokes_ogs.tif
102
RTVSPost2010PropOp54
 70
     0
102
RTVSPost2010Prop55
280
     0
102
RTVSPost2010PropOp55
 70
     1
102
RTVSPost2010Prop56
140
1.0
102
RTVSPost2010PropOp56
 70
     0
102
RTVSPost2010Prop57
140
1.0
102
RTVSPost2010PropOp57
 70
     0
102
RTVSPropertyOp0
 70
     0
102
RTVSPropertyOp1
 70
     0
102
RTVSPropertyOp2
 70
     0
102
RTVSPropertyOp3
 70
     0
102
RTVSPropertyOp4
 70
     0
102
RTVSPropertyOp5
 70
     0
102
RTVSPropertyOp6
 70
     0
102
RTVSPropertyOp7
 70
     0
102
RTVSPropertyOp8
 70
     0
102
RTVSPropertyOp9
 70
     0
102
RTVSPropertyOp10
 70
     0
102
RTVSPropertyOp11
 70
     0
102
RTVSPropertyOp12
 70
     0
102
RTVSPropertyOp13
 70
     0
102
RTVSPropertyOp14
 70
     2
102
RTVSPropertyOp15
 70
     0
102
RTVSPropertyOp16
 70
     0
102
RTVSPropertyOp17
 70
     0
102
RTVSPropertyOp18
 70
     0
102
RTVSPropertyOp19
 70
     0
102
RTVSPropertyOp20
 70
     0
102
RTVSPropertyOp21
 70
     0
102
RTVSPropertyOp22
 70
     0
102
RTVSPropertyOp23
 70
     0
102
RTVSPropertyOp24
 70
     0
102
RTVSPropertyOp25
 70
     0
102
RTVSPropertyOp26
 70
     0
102
RTVSPropertyOp27
 70
     0
102
RTVSPropertyOp28
 70
     1
102
RTVSPropertyOp29
 70
     1
102
RTVSPropertyOp30
 70
     1
102
RTVSPropertyOp31
 70
     1
102
RTVSPropertyOp32
 70
     1
102
RTVSPropertyOp33
 70
     1
102
RTVSPropertyOp34
 70
     1
102
RTVSPropertyOp35
 70
     1
102
RTVSPropertyOp36
 70
     1
102
RTVSPropertyOp37
 70
     0
102
RTVSPropertyOp38
 70
     0
102
RTVSPropertyOp39
 70
     0
102
RTVSPropertyOp40
 70
     0
102
RTVSPropertyOp41
 70
     0
102
RTVSPropertyOp42
 70
     0
102
RTVSPropertyOp43
 70
     0
102
RTVSPropertyOp44
 70
     0
102
RTVSPropertyOp45
 70
     1
102
RTVSPropertyOp46
 70
     0
102
RTVSPropertyOp47
 70
     0
102
RTVSPropertyOp48
 70
     0
102
RTVSPropertyOp49
 70
     1
102
RTVSPropertyOp50
 70
     0
102
RTVSPropertyOp51
 70
     0
102
RTVSPropertyOp52
 70
     0
102
RTVSPropertyOp53
 70
     0
102
RTVSPropertyOp54
 70
     0
102
RTVSPropertyOp55
 70
     1
102
RTVSPropertyOp56
 70
     0
102
RTVSPropertyOp57
 70
     0
102
RTVSPropertyOp58
 70
     0
102
RTVSPropertyOp59
 70
     0
102
RTVSPropertyOp60
 70
     0
102
RTVSPropertyOp61
 70
     0
102
RTVSPropertyOp62
 70
     0
  0
XRECORD
  5
27D0
102
{ACAD_REACTORS
330
27CF
102
}
330
27CF
100
AcDbXrecord
280
     1
102
RTVSPost2010Prop28
280
     0
102
RTVSPost2010PropOp28
 70
     1
102
RTVSPost2010Prop29
280
     1
102
RTVSPost2010PropOp29
 70
     1
102
RTVSPost2010Prop30
280
     1
102
RTVSPost2010PropOp30
 70
     1
102
RTVSPost2010Prop31
280
     0
102
RTVSPost2010PropOp31
 70
     1
102
RTVSPost2010Prop32
280
     0
102
RTVSPost2010PropOp32
 70
     1
102
RTVSPost2010Prop33
280
     0
102
RTVSPost2010PropOp33
 70
     1
102
RTVSPost2010Prop34
280
     0
102
RTVSPost2010PropOp34
 70
     1
102
RTVSPost2010Prop35
280
     0
102
RTVSPost2010PropOp35
 70
     1
102
RTVSPost2010Prop36
280
     0
102
RTVSPost2010PropOp36
 70
     1
102
RTVSPost2010Prop37
 90
       50
102
RTVSPost2010PropOp37
 70
     1
102
RTVSPost2010Prop38
140
0.0
102
RTVSPost2010PropOp38
 70
     1
102
RTVSPost2010Prop39
140
1.0
102
RTVSPost2010PropOp39
 70
     1
102
RTVSPost2010Prop40
 90
        0
102
RTVSPost2010PropOp40
 70
     1
102
RTVSPost2010Prop41ColorIndex
 90
       18
102
RTVSPost2010Prop41ColorRGB
 90
        0
102
RTVSPost2010PropOp41
 70
     1
102
RTVSPost2010Prop42
 90
       50
102
RTVSPost2010PropOp42
 70
     1
102
RTVSPost2010Prop43
 90
        3
102
RTVSPost2010PropOp43
 70
     1
102
RTVSPost2010Prop44ColorIndex
 90
        5
102
RTVSPost2010Prop44ColorRGB
 90
      255
102
RTVSPost2010PropOp44
 70
     1
102
RTVSPost2010Prop45
280
     0
102
RTVSPost2010PropOp45
 70
     1
102
RTVSPost2010Prop46
 90
       50
102
RTVSPost2010PropOp46
 70
     1
102
RTVSPost2010Prop47
 90
       50
102
RTVSPost2010PropOp47
 70
     1
102
RTVSPost2010Prop48
 90
       50
102
RTVSPost2010PropOp48
 70
     1
102
RTVSPost2010Prop49
280
     0
102
RTVSPost2010PropOp49
 70
     1
102
RTVSPost2010Prop50
 90
       50
102
RTVSPost2010PropOp50
 70
     1
102
RTVSPost2010Prop51ColorIndex
 90
      256
102
RTVSPost2010Prop51ColorRGB
 90
-16777216
102
RTVSPost2010PropOp51
 70
     0
102
RTVSPost2010Prop52
140
1.0
102
RTVSPost2010PropOp52
 70
     0
102
RTVSPost2010Prop53
 90
        2
102
RTVSPost2010PropOp53
 70
     1
102
RTVSPost2010Prop54
  1
strokes_ogs.tif
102
RTVSPost2010PropOp54
 70
     1
102
RTVSPost2010Prop55
280
     0
102
RTVSPost2010PropOp55
 70
     1
102
RTVSPost2010Prop56
140
1.0
102
RTVSPost2010PropOp56
 70
     1
102
RTVSPost2010Prop57
140
1.0
102
RTVSPost2010PropOp57
 70
     1
102
RTVSPropertyOp0
 70
     1
102
RTVSPropertyOp1
 70
     1
102
RTVSPropertyOp2
 70
     1
102
RTVSPropertyOp3
 70
     1
102
RTVSPropertyOp4
 70
     1
102
RTVSPropertyOp5
 70
     1
102
RTVSPropertyOp6
 70
     1
102
RTVSPropertyOp7
 70
     1
102
RTVSPropertyOp8
 70
     1
102
RTVSPropertyOp9
 70
     1
102
RTVSPropertyOp10
 70
     1
102
RTVSPropertyOp11
 70
     1
102
RTVSPropertyOp12
 70
     1
102
RTVSPropertyOp13
 70
     1
102
RTVSPropertyOp14
 70
     1
102
RTVSPropertyOp15
 70
     1
102
RTVSPropertyOp16
 70
     1
102
RTVSPropertyOp17
 70
     1
102
RTVSPropertyOp18
 70
     1
102
RTVSPropertyOp19
 70
     1
102
RTVSPropertyOp20
 70
     1
102
RTVSPropertyOp21
 70
     1
102
RTVSPropertyOp22
 70
     1
102
RTVSPropertyOp23
 70
     1
102
RTVSPropertyOp24
 70
     1
102
RTVSPropertyOp25
 70
     1
102
RTVSPropertyOp26
 70
     1
102
RTVSPropertyOp27
 70
     1
102
RTVSPropertyOp28
 70
     1
102
RTVSPropertyOp29
 70
     1
102
RTVSPropertyOp30
 70
     1
102
RTVSPropertyOp31
 70
     1
102
RTVSPropertyOp32
 70
     1
102
RTVSPropertyOp33
 70
     1
102
RTVSPropertyOp34
 70
     1
102
RTVSPropertyOp35
 70
     1
102
RTVSPropertyOp36
 70
     1
102
RTVSPropertyOp37
 70
     1
102
RTVSPropertyOp38
 70
     1
102
RTVSPropertyOp39
 70
     1
102
RTVSPropertyOp40
 70
     1
102
RTVSPropertyOp41
 70
     1
102
RTVSPropertyOp42
 70
     1
102
RTVSPropertyOp43
 70
     1
102
RTVSPropertyOp44
 70
     1
102
RTVSPropertyOp45
 70
     1
102
RTVSPropertyOp46
 70
     1
102
RTVSPropertyOp47
 70
     1
102
RTVSPropertyOp48
 70
     1
102
RTVSPropertyOp49
 70
     1
102
RTVSPropertyOp50
 70
     1
102
RTVSPropertyOp51
 70
     0
102
RTVSPropertyOp52
 70
     0
102
RTVSPropertyOp53
 70
     1
102
RTVSPropertyOp54
 70
     1
102
RTVSPropertyOp55
 70
     1
102
RTVSPropertyOp56
 70
     1
102
RTVSPropertyOp57
 70
     1
102
RTVSPropertyOp58
 70
     1
102
RTVSPropertyOp59
 70
     1
102
RTVSPropertyOp60
 70
     1
102
RTVSPropertyOp61
 70
     1
102
RTVSPropertyOp62
 70
     1
  0
XRECORD
  5
27B4
102
{ACAD_REACTORS
330
27B3
102
}
330
27B3
100
AcDbXrecord
280
     1
102
RTVSPost2010Prop28
280
     0
102
RTVSPost2010PropOp28
 70
     1
102
RTVSPost2010Prop29
280
     1
102
RTVSPost2010PropOp29
 70
     1
102
RTVSPost2010Prop30
280
     1
102
RTVSPost2010PropOp30
 70
     1
102
RTVSPost2010Prop31
280
     0
102
RTVSPost2010PropOp31
 70
     1
102
RTVSPost2010Prop32
280
     0
102
RTVSPost2010PropOp32
 70
     1
102
RTVSPost2010Prop33
280
     0
102
RTVSPost2010PropOp33
 70
     1
102
RTVSPost2010Prop34
280
     0
102
RTVSPost2010PropOp34
 70
     1
102
RTVSPost2010Prop35
280
     0
102
RTVSPost2010PropOp35
 70
     1
102
RTVSPost2010Prop36
280
     0
102
RTVSPost2010PropOp36
 70
     1
102
RTVSPost2010Prop37
 90
       50
102
RTVSPost2010PropOp37
 70
     1
102
RTVSPost2010Prop38
140
0.0
102
RTVSPost2010PropOp38
 70
     1
102
RTVSPost2010Prop39
140
1.0
102
RTVSPost2010PropOp39
 70
     1
102
RTVSPost2010Prop40
 90
        0
102
RTVSPost2010PropOp40
 70
     1
102
RTVSPost2010Prop41ColorIndex
 90
       18
102
RTVSPost2010Prop41ColorRGB
 90
        0
102
RTVSPost2010PropOp41
 70
     1
102
RTVSPost2010Prop42
 90
       50
102
RTVSPost2010PropOp42
 70
     1
102
RTVSPost2010Prop43
 90
        3
102
RTVSPost2010PropOp43
 70
     1
102
RTVSPost2010Prop44ColorIndex
 90
        5
102
RTVSPost2010Prop44ColorRGB
 90
      255
102
RTVSPost2010PropOp44
 70
     1
102
RTVSPost2010Prop45
280
     0
102
RTVSPost2010PropOp45
 70
     1
102
RTVSPost2010Prop46
 90
       50
102
RTVSPost2010PropOp46
 70
     1
102
RTVSPost2010Prop47
 90
       50
102
RTVSPost2010PropOp47
 70
     1
102
RTVSPost2010Prop48
 90
       50
102
RTVSPost2010PropOp48
 70
     1
102
RTVSPost2010Prop49
280
     0
102
RTVSPost2010PropOp49
 70
     1
102
RTVSPost2010Prop50
 90
       50
102
RTVSPost2010PropOp50
 70
     1
102
RTVSPost2010Prop51ColorIndex
 90
      256
102
RTVSPost2010Prop51ColorRGB
 90
-16777216
102
RTVSPost2010PropOp51
 70
     0
102
RTVSPost2010Prop52
140
1.0
102
RTVSPost2010PropOp52
 70
     0
102
RTVSPost2010Prop53
 90
        2
102
RTVSPost2010PropOp53
 70
     1
102
RTVSPost2010Prop54
  1
strokes_ogs.tif
102
RTVSPost2010PropOp54
 70
     1
102
RTVSPost2010Prop55
280
     0
102
RTVSPost2010PropOp55
 70
     1
102
RTVSPost2010Prop56
140
1.0
102
RTVSPost2010PropOp56
 70
     1
102
RTVSPost2010Prop57
140
1.0
102
RTVSPost2010PropOp57
 70
     1
102
RTVSPropertyOp0
 70
     1
102
RTVSPropertyOp1
 70
     1
102
RTVSPropertyOp2
 70
     1
102
RTVSPropertyOp3
 70
     1
102
RTVSPropertyOp4
 70
     1
102
RTVSPropertyOp5
 70
     1
102
RTVSPropertyOp6
 70
     1
102
RTVSPropertyOp7
 70
     1
102
RTVSPropertyOp8
 70
     1
102
RTVSPropertyOp9
 70
     1
102
RTVSPropertyOp10
 70
     1
102
RTVSPropertyOp11
 70
     1
102
RTVSPropertyOp12
 70
     1
102
RTVSPropertyOp13
 70
     1
102
RTVSPropertyOp14
 70
     1
102
RTVSPropertyOp15
 70
     1
102
RTVSPropertyOp16
 70
     1
102
RTVSPropertyOp17
 70
     1
102
RTVSPropertyOp18
 70
     1
102
RTVSPropertyOp19
 70
     1
102
RTVSPropertyOp20
 70
     1
102
RTVSPropertyOp21
 70
     1
102
RTVSPropertyOp22
 70
     1
102
RTVSPropertyOp23
 70
     1
102
RTVSPropertyOp24
 70
     1
102
RTVSPropertyOp25
 70
     1
102
RTVSPropertyOp26
 70
     1
102
RTVSPropertyOp27
 70
     1
102
RTVSPropertyOp28
 70
     1
102
RTVSPropertyOp29
 70
     1
102
RTVSPropertyOp30
 70
     1
102
RTVSPropertyOp31
 70
     1
102
RTVSPropertyOp32
 70
     1
102
RTVSPropertyOp33
 70
     1
102
RTVSPropertyOp34
 70
     1
102
RTVSPropertyOp35
 70
     1
102
RTVSPropertyOp36
 70
     1
102
RTVSPropertyOp37
 70
     1
102
RTVSPropertyOp38
 70
     1
102
RTVSPropertyOp39
 70
     1
102
RTVSPropertyOp40
 70
     1
102
RTVSPropertyOp41
 70
     1
102
RTVSPropertyOp42
 70
     1
102
RTVSPropertyOp43
 70
     1
102
RTVSPropertyOp44
 70
     1
102
RTVSPropertyOp45
 70
     1
102
RTVSPropertyOp46
 70
     1
102
RTVSPropertyOp47
 70
     1
102
RTVSPropertyOp48
 70
     1
102
RTVSPropertyOp49
 70
     1
102
RTVSPropertyOp50
 70
     1
102
RTVSPropertyOp51
 70
     0
102
RTVSPropertyOp52
 70
     0
102
RTVSPropertyOp53
 70
     1
102
RTVSPropertyOp54
 70
     1
102
RTVSPropertyOp55
 70
     1
102
RTVSPropertyOp56
 70
     1
102
RTVSPropertyOp57
 70
     1
102
RTVSPropertyOp58
 70
     1
102
RTVSPropertyOp59
 70
     1
102
RTVSPropertyOp60
 70
     1
102
RTVSPropertyOp61
 70
     1
102
RTVSPropertyOp62
 70
     1
  0
XRECORD
  5
27B6
102
{ACAD_REACTORS
330
27B5
102
}
330
27B5
100
AcDbXrecord
280
     1
102
RTVSPost2010Prop28
280
     0
102
RTVSPost2010PropOp28
 70
     1
102
RTVSPost2010Prop29
280
     1
102
RTVSPost2010PropOp29
 70
     1
102
RTVSPost2010Prop30
280
     1
102
RTVSPost2010PropOp30
 70
     1
102
RTVSPost2010Prop31
280
     0
102
RTVSPost2010PropOp31
 70
     1
102
RTVSPost2010Prop32
280
     0
102
RTVSPost2010PropOp32
 70
     1
102
RTVSPost2010Prop33
280
     0
102
RTVSPost2010PropOp33
 70
     1
102
RTVSPost2010Prop34
280
     0
102
RTVSPost2010PropOp34
 70
     1
102
RTVSPost2010Prop35
280
     0
102
RTVSPost2010PropOp35
 70
     1
102
RTVSPost2010Prop36
280
     0
102
RTVSPost2010PropOp36
 70
     1
102
RTVSPost2010Prop37
 90
       50
102
RTVSPost2010PropOp37
 70
     1
102
RTVSPost2010Prop38
140
0.0
102
RTVSPost2010PropOp38
 70
     1
102
RTVSPost2010Prop39
140
1.0
102
RTVSPost2010PropOp39
 70
     1
102
RTVSPost2010Prop40
 90
        0
102
RTVSPost2010PropOp40
 70
     1
102
RTVSPost2010Prop41ColorIndex
 90
       18
102
RTVSPost2010Prop41ColorRGB
 90
        0
102
RTVSPost2010PropOp41
 70
     1
102
RTVSPost2010Prop42
 90
       50
102
RTVSPost2010PropOp42
 70
     1
102
RTVSPost2010Prop43
 90
        3
102
RTVSPost2010PropOp43
 70
     1
102
RTVSPost2010Prop44ColorIndex
 90
        5
102
RTVSPost2010Prop44ColorRGB
 90
      255
102
RTVSPost2010PropOp44
 70
     1
102
RTVSPost2010Prop45
280
     0
102
RTVSPost2010PropOp45
 70
     1
102
RTVSPost2010Prop46
 90
       50
102
RTVSPost2010PropOp46
 70
     1
102
RTVSPost2010Prop47
 90
       50
102
RTVSPost2010PropOp47
 70
     1
102
RTVSPost2010Prop48
 90
       50
102
RTVSPost2010PropOp48
 70
     1
102
RTVSPost2010Prop49
280
     0
102
RTVSPost2010PropOp49
 70
     1
102
RTVSPost2010Prop50
 90
       50
102
RTVSPost2010PropOp50
 70
     1
102
RTVSPost2010Prop51ColorIndex
 90
      256
102
RTVSPost2010Prop51ColorRGB
 90
-16777216
102
RTVSPost2010PropOp51
 70
     0
102
RTVSPost2010Prop52
140
1.0
102
RTVSPost2010PropOp52
 70
     0
102
RTVSPost2010Prop53
 90
        2
102
RTVSPost2010PropOp53
 70
     1
102
RTVSPost2010Prop54
  1
strokes_ogs.tif
102
RTVSPost2010PropOp54
 70
     1
102
RTVSPost2010Prop55
280
     0
102
RTVSPost2010PropOp55
 70
     1
102
RTVSPost2010Prop56
140
1.0
102
RTVSPost2010PropOp56
 70
     1
102
RTVSPost2010Prop57
140
1.0
102
RTVSPost2010PropOp57
 70
     1
102
RTVSPropertyOp0
 70
     1
102
RTVSPropertyOp1
 70
     1
102
RTVSPropertyOp2
 70
     1
102
RTVSPropertyOp3
 70
     1
102
RTVSPropertyOp4
 70
     1
102
RTVSPropertyOp5
 70
     1
102
RTVSPropertyOp6
 70
     1
102
RTVSPropertyOp7
 70
     1
102
RTVSPropertyOp8
 70
     1
102
RTVSPropertyOp9
 70
     1
102
RTVSPropertyOp10
 70
     1
102
RTVSPropertyOp11
 70
     1
102
RTVSPropertyOp12
 70
     1
102
RTVSPropertyOp13
 70
     1
102
RTVSPropertyOp14
 70
     1
102
RTVSPropertyOp15
 70
     1
102
RTVSPropertyOp16
 70
     1
102
RTVSPropertyOp17
 70
     1
102
RTVSPropertyOp18
 70
     1
102
RTVSPropertyOp19
 70
     1
102
RTVSPropertyOp20
 70
     1
102
RTVSPropertyOp21
 70
     1
102
RTVSPropertyOp22
 70
     1
102
RTVSPropertyOp23
 70
     1
102
RTVSPropertyOp24
 70
     1
102
RTVSPropertyOp25
 70
     1
102
RTVSPropertyOp26
 70
     1
102
RTVSPropertyOp27
 70
     1
102
RTVSPropertyOp28
 70
     1
102
RTVSPropertyOp29
 70
     1
102
RTVSPropertyOp30
 70
     1
102
RTVSPropertyOp31
 70
     1
102
RTVSPropertyOp32
 70
     1
102
RTVSPropertyOp33
 70
     1
102
RTVSPropertyOp34
 70
     1
102
RTVSPropertyOp35
 70
     1
102
RTVSPropertyOp36
 70
     1
102
RTVSPropertyOp37
 70
     1
102
RTVSPropertyOp38
 70
     1
102
RTVSPropertyOp39
 70
     1
102
RTVSPropertyOp40
 70
     1
102
RTVSPropertyOp41
 70
     1
102
RTVSPropertyOp42
 70
     1
102
RTVSPropertyOp43
 70
     1
102
RTVSPropertyOp44
 70
     1
102
RTVSPropertyOp45
 70
     1
102
RTVSPropertyOp46
 70
     1
102
RTVSPropertyOp47
 70
     1
102
RTVSPropertyOp48
 70
     1
102
RTVSPropertyOp49
 70
     1
102
RTVSPropertyOp50
 70
     1
102
RTVSPropertyOp51
 70
     0
102
RTVSPropertyOp52
 70
     0
102
RTVSPropertyOp53
 70
     1
102
RTVSPropertyOp54
 70
     1
102
RTVSPropertyOp55
 70
     1
102
RTVSPropertyOp56
 70
     1
102
RTVSPropertyOp57
 70
     1
102
RTVSPropertyOp58
 70
     1
102
RTVSPropertyOp59
 70
     1
102
RTVSPropertyOp60
 70
     1
102
RTVSPropertyOp61
 70
     1
102
RTVSPropertyOp62
 70
     1
  0
XRECORD
  5
27B8
102
{ACAD_REACTORS
330
27B7
102
}
330
27B7
100
AcDbXrecord
280
     1
102
RTVSPost2010Prop28
280
     0
102
RTVSPost2010PropOp28
 70
     1
102
RTVSPost2010Prop29
280
     1
102
RTVSPost2010PropOp29
 70
     1
102
RTVSPost2010Prop30
280
     1
102
RTVSPost2010PropOp30
 70
     1
102
RTVSPost2010Prop31
280
     0
102
RTVSPost2010PropOp31
 70
     1
102
RTVSPost2010Prop32
280
     0
102
RTVSPost2010PropOp32
 70
     1
102
RTVSPost2010Prop33
280
     0
102
RTVSPost2010PropOp33
 70
     1
102
RTVSPost2010Prop34
280
     0
102
RTVSPost2010PropOp34
 70
     1
102
RTVSPost2010Prop35
280
     0
102
RTVSPost2010PropOp35
 70
     1
102
RTVSPost2010Prop36
280
     0
102
RTVSPost2010PropOp36
 70
     1
102
RTVSPost2010Prop37
 90
       50
102
RTVSPost2010PropOp37
 70
     1
102
RTVSPost2010Prop38
140
0.0
102
RTVSPost2010PropOp38
 70
     1
102
RTVSPost2010Prop39
140
1.0
102
RTVSPost2010PropOp39
 70
     1
102
RTVSPost2010Prop40
 90
        0
102
RTVSPost2010PropOp40
 70
     1
102
RTVSPost2010Prop41ColorIndex
 90
       18
102
RTVSPost2010Prop41ColorRGB
 90
        0
102
RTVSPost2010PropOp41
 70
     1
102
RTVSPost2010Prop42
 90
       50
102
RTVSPost2010PropOp42
 70
     1
102
RTVSPost2010Prop43
 90
        3
102
RTVSPost2010PropOp43
 70
     1
102
RTVSPost2010Prop44ColorIndex
 90
        5
102
RTVSPost2010Prop44ColorRGB
 90
      255
102
RTVSPost2010PropOp44
 70
     1
102
RTVSPost2010Prop45
280
     0
102
RTVSPost2010PropOp45
 70
     1
102
RTVSPost2010Prop46
 90
       50
102
RTVSPost2010PropOp46
 70
     1
102
RTVSPost2010Prop47
 90
       50
102
RTVSPost2010PropOp47
 70
     1
102
RTVSPost2010Prop48
 90
       50
102
RTVSPost2010PropOp48
 70
     1
102
RTVSPost2010Prop49
280
     0
102
RTVSPost2010PropOp49
 70
     1
102
RTVSPost2010Prop50
 90
       50
102
RTVSPost2010PropOp50
 70
     1
102
RTVSPost2010Prop51ColorIndex
 90
      256
102
RTVSPost2010Prop51ColorRGB
 90
-16777216
102
RTVSPost2010PropOp51
 70
     0
102
RTVSPost2010Prop52
140
1.0
102
RTVSPost2010PropOp52
 70
     0
102
RTVSPost2010Prop53
 90
        2
102
RTVSPost2010PropOp53
 70
     1
102
RTVSPost2010Prop54
  1
strokes_ogs.tif
102
RTVSPost2010PropOp54
 70
     1
102
RTVSPost2010Prop55
280
     0
102
RTVSPost2010PropOp55
 70
     1
102
RTVSPost2010Prop56
140
1.0
102
RTVSPost2010PropOp56
 70
     1
102
RTVSPost2010Prop57
140
1.0
102
RTVSPost2010PropOp57
 70
     1
102
RTVSPropertyOp0
 70
     1
102
RTVSPropertyOp1
 70
     1
102
RTVSPropertyOp2
 70
     1
102
RTVSPropertyOp3
 70
     1
102
RTVSPropertyOp4
 70
     1
102
RTVSPropertyOp5
 70
     1
102
RTVSPropertyOp6
 70
     1
102
RTVSPropertyOp7
 70
     1
102
RTVSPropertyOp8
 70
     1
102
RTVSPropertyOp9
 70
     1
102
RTVSPropertyOp10
 70
     1
102
RTVSPropertyOp11
 70
     1
102
RTVSPropertyOp12
 70
     1
102
RTVSPropertyOp13
 70
     1
102
RTVSPropertyOp14
 70
     1
102
RTVSPropertyOp15
 70
     1
102
RTVSPropertyOp16
 70
     1
102
RTVSPropertyOp17
 70
     1
102
RTVSPropertyOp18
 70
     1
102
RTVSPropertyOp19
 70
     1
102
RTVSPropertyOp20
 70
     1
102
RTVSPropertyOp21
 70
     1
102
RTVSPropertyOp22
 70
     1
102
RTVSPropertyOp23
 70
     1
102
RTVSPropertyOp24
 70
     1
102
RTVSPropertyOp25
 70
     1
102
RTVSPropertyOp26
 70
     1
102
RTVSPropertyOp27
 70
     1
102
RTVSPropertyOp28
 70
     1
102
RTVSPropertyOp29
 70
     1
102
RTVSPropertyOp30
 70
     1
102
RTVSPropertyOp31
 70
     1
102
RTVSPropertyOp32
 70
     1
102
RTVSPropertyOp33
 70
     1
102
RTVSPropertyOp34
 70
     1
102
RTVSPropertyOp35
 70
     1
102
RTVSPropertyOp36
 70
     1
102
RTVSPropertyOp37
 70
     1
102
RTVSPropertyOp38
 70
     1
102
RTVSPropertyOp39
 70
     1
102
RTVSPropertyOp40
 70
     1
102
RTVSPropertyOp41
 70
     1
102
RTVSPropertyOp42
 70
     1
102
RTVSPropertyOp43
 70
     1
102
RTVSPropertyOp44
 70
     1
102
RTVSPropertyOp45
 70
     1
102
RTVSPropertyOp46
 70
     1
102
RTVSPropertyOp47
 70
     1
102
RTVSPropertyOp48
 70
     1
102
RTVSPropertyOp49
 70
     1
102
RTVSPropertyOp50
 70
     1
102
RTVSPropertyOp51
 70
     0
102
RTVSPropertyOp52
 70
     0
102
RTVSPropertyOp53
 70
     1
102
RTVSPropertyOp54
 70
     1
102
RTVSPropertyOp55
 70
     1
102
RTVSPropertyOp56
 70
     1
102
RTVSPropertyOp57
 70
     1
102
RTVSPropertyOp58
 70
     1
102
RTVSPropertyOp59
 70
     1
102
RTVSPropertyOp60
 70
     1
102
RTVSPropertyOp61
 70
     1
102
RTVSPropertyOp62
 70
     1
  0
XRECORD
  5
27BA
102
{ACAD_REACTORS
330
27B9
102
}
330
27B9
100
AcDbXrecord
280
     1
102
RTVSPost2010Prop28
280
     0
102
RTVSPost2010PropOp28
 70
     1
102
RTVSPost2010Prop29
280
     1
102
RTVSPost2010PropOp29
 70
     1
102
RTVSPost2010Prop30
280
     1
102
RTVSPost2010PropOp30
 70
     1
102
RTVSPost2010Prop31
280
     0
102
RTVSPost2010PropOp31
 70
     1
102
RTVSPost2010Prop32
280
     0
102
RTVSPost2010PropOp32
 70
     1
102
RTVSPost2010Prop33
280
     0
102
RTVSPost2010PropOp33
 70
     1
102
RTVSPost2010Prop34
280
     0
102
RTVSPost2010PropOp34
 70
     1
102
RTVSPost2010Prop35
280
     0
102
RTVSPost2010PropOp35
 70
     1
102
RTVSPost2010Prop36
280
     0
102
RTVSPost2010PropOp36
 70
     1
102
RTVSPost2010Prop37
 90
       50
102
RTVSPost2010PropOp37
 70
     1
102
RTVSPost2010Prop38
140
0.0
102
RTVSPost2010PropOp38
 70
     1
102
RTVSPost2010Prop39
140
1.0
102
RTVSPost2010PropOp39
 70
     1
102
RTVSPost2010Prop40
 90
        0
102
RTVSPost2010PropOp40
 70
     1
102
RTVSPost2010Prop41ColorIndex
 90
       18
102
RTVSPost2010Prop41ColorRGB
 90
        0
102
RTVSPost2010PropOp41
 70
     1
102
RTVSPost2010Prop42
 90
       50
102
RTVSPost2010PropOp42
 70
     1
102
RTVSPost2010Prop43
 90
        3
102
RTVSPost2010PropOp43
 70
     1
102
RTVSPost2010Prop44ColorIndex
 90
        5
102
RTVSPost2010Prop44ColorRGB
 90
      255
102
RTVSPost2010PropOp44
 70
     1
102
RTVSPost2010Prop45
280
     0
102
RTVSPost2010PropOp45
 70
     1
102
RTVSPost2010Prop46
 90
       50
102
RTVSPost2010PropOp46
 70
     1
102
RTVSPost2010Prop47
 90
       50
102
RTVSPost2010PropOp47
 70
     1
102
RTVSPost2010Prop48
 90
       50
102
RTVSPost2010PropOp48
 70
     1
102
RTVSPost2010Prop49
280
     0
102
RTVSPost2010PropOp49
 70
     1
102
RTVSPost2010Prop50
 90
       50
102
RTVSPost2010PropOp50
 70
     1
102
RTVSPost2010Prop51ColorIndex
 90
      256
102
RTVSPost2010Prop51ColorRGB
 90
-16777216
102
RTVSPost2010PropOp51
 70
     0
102
RTVSPost2010Prop52
140
1.0
102
RTVSPost2010PropOp52
 70
     0
102
RTVSPost2010Prop53
 90
        2
102
RTVSPost2010PropOp53
 70
     1
102
RTVSPost2010Prop54
  1
strokes_ogs.tif
102
RTVSPost2010PropOp54
 70
     1
102
RTVSPost2010Prop55
280
     0
102
RTVSPost2010PropOp55
 70
     1
102
RTVSPost2010Prop56
140
1.0
102
RTVSPost2010PropOp56
 70
     1
102
RTVSPost2010Prop57
140
1.0
102
RTVSPost2010PropOp57
 70
     1
102
RTVSPropertyOp0
 70
     1
102
RTVSPropertyOp1
 70
     1
102
RTVSPropertyOp2
 70
     1
102
RTVSPropertyOp3
 70
     1
102
RTVSPropertyOp4
 70
     1
102
RTVSPropertyOp5
 70
     1
102
RTVSPropertyOp6
 70
     1
102
RTVSPropertyOp7
 70
     1
102
RTVSPropertyOp8
 70
     1
102
RTVSPropertyOp9
 70
     1
102
RTVSPropertyOp10
 70
     1
102
RTVSPropertyOp11
 70
     1
102
RTVSPropertyOp12
 70
     1
102
RTVSPropertyOp13
 70
     1
102
RTVSPropertyOp14
 70
     1
102
RTVSPropertyOp15
 70
     1
102
RTVSPropertyOp16
 70
     1
102
RTVSPropertyOp17
 70
     1
102
RTVSPropertyOp18
 70
     1
102
RTVSPropertyOp19
 70
     1
102
RTVSPropertyOp20
 70
     1
102
RTVSPropertyOp21
 70
     1
102
RTVSPropertyOp22
 70
     1
102
RTVSPropertyOp23
 70
     1
102
RTVSPropertyOp24
 70
     1
102
RTVSPropertyOp25
 70
     1
102
RTVSPropertyOp26
 70
     1
102
RTVSPropertyOp27
 70
     1
102
RTVSPropertyOp28
 70
     1
102
RTVSPropertyOp29
 70
     1
102
RTVSPropertyOp30
 70
     1
102
RTVSPropertyOp31
 70
     1
102
RTVSPropertyOp32
 70
     1
102
RTVSPropertyOp33
 70
     1
102
RTVSPropertyOp34
 70
     1
102
RTVSPropertyOp35
 70
     1
102
RTVSPropertyOp36
 70
     1
102
RTVSPropertyOp37
 70
     1
102
RTVSPropertyOp38
 70
     1
102
RTVSPropertyOp39
 70
     1
102
RTVSPropertyOp40
 70
     1
102
RTVSPropertyOp41
 70
     1
102
RTVSPropertyOp42
 70
     1
102
RTVSPropertyOp43
 70
     1
102
RTVSPropertyOp44
 70
     1
102
RTVSPropertyOp45
 70
     1
102
RTVSPropertyOp46
 70
     1
102
RTVSPropertyOp47
 70
     1
102
RTVSPropertyOp48
 70
     1
102
RTVSPropertyOp49
 70
     1
102
RTVSPropertyOp50
 70
     1
102
RTVSPropertyOp51
 70
     0
102
RTVSPropertyOp52
 70
     0
102
RTVSPropertyOp53
 70
     1
102
RTVSPropertyOp54
 70
     1
102
RTVSPropertyOp55
 70
     1
102
RTVSPropertyOp56
 70
     1
102
RTVSPropertyOp57
 70
     1
102
RTVSPropertyOp58
 70
     1
102
RTVSPropertyOp59
 70
     1
102
RTVSPropertyOp60
 70
     1
102
RTVSPropertyOp61
 70
     1
102
RTVSPropertyOp62
 70
     1
  0
XRECORD
  5
27C2
102
{ACAD_REACTORS
330
27C1
102
}
330
27C1
100
AcDbXrecord
280
     1
102
RTVSPost2010Prop28
280
     0
102
RTVSPost2010PropOp28
 70
     1
102
RTVSPost2010Prop29
280
     1
102
RTVSPost2010PropOp29
 70
     1
102
RTVSPost2010Prop30
280
     1
102
RTVSPost2010PropOp30
 70
     1
102
RTVSPost2010Prop31
280
     0
102
RTVSPost2010PropOp31
 70
     1
102
RTVSPost2010Prop32
280
     0
102
RTVSPost2010PropOp32
 70
     1
102
RTVSPost2010Prop33
280
     0
102
RTVSPost2010PropOp33
 70
     1
102
RTVSPost2010Prop34
280
     0
102
RTVSPost2010PropOp34
 70
     1
102
RTVSPost2010Prop35
280
     0
102
RTVSPost2010PropOp35
 70
     1
102
RTVSPost2010Prop36
280
     0
102
RTVSPost2010PropOp36
 70
     1
102
RTVSPost2010Prop37
 90
       50
102
RTVSPost2010PropOp37
 70
     1
102
RTVSPost2010Prop38
140
0.0
102
RTVSPost2010PropOp38
 70
     1
102
RTVSPost2010Prop39
140
1.0
102
RTVSPost2010PropOp39
 70
     1
102
RTVSPost2010Prop40
 90
        0
102
RTVSPost2010PropOp40
 70
     1
102
RTVSPost2010Prop41ColorIndex
 90
       18
102
RTVSPost2010Prop41ColorRGB
 90
        0
102
RTVSPost2010PropOp41
 70
     1
102
RTVSPost2010Prop42
 90
       50
102
RTVSPost2010PropOp42
 70
     1
102
RTVSPost2010Prop43
 90
        3
102
RTVSPost2010PropOp43
 70
     1
102
RTVSPost2010Prop44ColorIndex
 90
        5
102
RTVSPost2010Prop44ColorRGB
 90
      255
102
RTVSPost2010PropOp44
 70
     1
102
RTVSPost2010Prop45
280
     0
102
RTVSPost2010PropOp45
 70
     1
102
RTVSPost2010Prop46
 90
       50
102
RTVSPost2010PropOp46
 70
     1
102
RTVSPost2010Prop47
 90
       50
102
RTVSPost2010PropOp47
 70
     1
102
RTVSPost2010Prop48
 90
       50
102
RTVSPost2010PropOp48
 70
     1
102
RTVSPost2010Prop49
280
     0
102
RTVSPost2010PropOp49
 70
     1
102
RTVSPost2010Prop50
 90
       50
102
RTVSPost2010PropOp50
 70
     1
102
RTVSPost2010Prop51ColorIndex
 90
      256
102
RTVSPost2010Prop51ColorRGB
 90
-16777216
102
RTVSPost2010PropOp51
 70
     0
102
RTVSPost2010Prop52
140
1.0
102
RTVSPost2010PropOp52
 70
     0
102
RTVSPost2010Prop53
 90
        2
102
RTVSPost2010PropOp53
 70
     1
102
RTVSPost2010Prop54
  1
strokes_ogs.tif
102
RTVSPost2010PropOp54
 70
     1
102
RTVSPost2010Prop55
280
     0
102
RTVSPost2010PropOp55
 70
     1
102
RTVSPost2010Prop56
140
1.0
102
RTVSPost2010PropOp56
 70
     1
102
RTVSPost2010Prop57
140
1.0
102
RTVSPost2010PropOp57
 70
     1
102
RTVSPropertyOp0
 70
     1
102
RTVSPropertyOp1
 70
     1
102
RTVSPropertyOp2
 70
     1
102
RTVSPropertyOp3
 70
     1
102
RTVSPropertyOp4
 70
     1
102
RTVSPropertyOp5
 70
     1
102
RTVSPropertyOp6
 70
     1
102
RTVSPropertyOp7
 70
     1
102
RTVSPropertyOp8
 70
     1
102
RTVSPropertyOp9
 70
     1
102
RTVSPropertyOp10
 70
     1
102
RTVSPropertyOp11
 70
     1
102
RTVSPropertyOp12
 70
     1
102
RTVSPropertyOp13
 70
     1
102
RTVSPropertyOp14
 70
     1
102
RTVSPropertyOp15
 70
     1
102
RTVSPropertyOp16
 70
     1
102
RTVSPropertyOp17
 70
     1
102
RTVSPropertyOp18
 70
     1
102
RTVSPropertyOp19
 70
     1
102
RTVSPropertyOp20
 70
     1
102
RTVSPropertyOp21
 70
     1
102
RTVSPropertyOp22
 70
     1
102
RTVSPropertyOp23
 70
     1
102
RTVSPropertyOp24
 70
     1
102
RTVSPropertyOp25
 70
     1
102
RTVSPropertyOp26
 70
     1
102
RTVSPropertyOp27
 70
     1
102
RTVSPropertyOp28
 70
     1
102
RTVSPropertyOp29
 70
     1
102
RTVSPropertyOp30
 70
     1
102
RTVSPropertyOp31
 70
     1
102
RTVSPropertyOp32
 70
     1
102
RTVSPropertyOp33
 70
     1
102
RTVSPropertyOp34
 70
     1
102
RTVSPropertyOp35
 70
     1
102
RTVSPropertyOp36
 70
     1
102
RTVSPropertyOp37
 70
     1
102
RTVSPropertyOp38
 70
     1
102
RTVSPropertyOp39
 70
     1
102
RTVSPropertyOp40
 70
     1
102
RTVSPropertyOp41
 70
     1
102
RTVSPropertyOp42
 70
     1
102
RTVSPropertyOp43
 70
     1
102
RTVSPropertyOp44
 70
     1
102
RTVSPropertyOp45
 70
     1
102
RTVSPropertyOp46
 70
     1
102
RTVSPropertyOp47
 70
     1
102
RTVSPropertyOp48
 70
     1
102
RTVSPropertyOp49
 70
     1
102
RTVSPropertyOp50
 70
     1
102
RTVSPropertyOp51
 70
     0
102
RTVSPropertyOp52
 70
     0
102
RTVSPropertyOp53
 70
     1
102
RTVSPropertyOp54
 70
     1
102
RTVSPropertyOp55
 70
     1
102
RTVSPropertyOp56
 70
     1
102
RTVSPropertyOp57
 70
     1
102
RTVSPropertyOp58
 70
     1
102
RTVSPropertyOp59
 70
     1
102
RTVSPropertyOp60
 70
     1
102
RTVSPropertyOp61
 70
     1
102
RTVSPropertyOp62
 70
     1
  0
XRECORD
  5
27DE
102
{ACAD_REACTORS
330
27DD
102
}
330
27DD
100
AcDbXrecord
280
     1
102
RTVSPost2010Prop28
280
     0
102
RTVSPost2010PropOp28
 70
     1
102
RTVSPost2010Prop29
280
     1
102
RTVSPost2010PropOp29
 70
     1
102
RTVSPost2010Prop30
280
     1
102
RTVSPost2010PropOp30
 70
     1
102
RTVSPost2010Prop31
280
     0
102
RTVSPost2010PropOp31
 70
     1
102
RTVSPost2010Prop32
280
     0
102
RTVSPost2010PropOp32
 70
     1
102
RTVSPost2010Prop33
280
     0
102
RTVSPost2010PropOp33
 70
     1
102
RTVSPost2010Prop34
280
     0
102
RTVSPost2010PropOp34
 70
     1
102
RTVSPost2010Prop35
280
     0
102
RTVSPost2010PropOp35
 70
     1
102
RTVSPost2010Prop36
280
     0
102
RTVSPost2010PropOp36
 70
     1
102
RTVSPost2010Prop37
 90
       50
102
RTVSPost2010PropOp37
 70
     0
102
RTVSPost2010Prop38
140
0.0
102
RTVSPost2010PropOp38
 70
     0
102
RTVSPost2010Prop39
140
1.0
102
RTVSPost2010PropOp39
 70
     0
102
RTVSPost2010Prop40
 90
        0
102
RTVSPost2010PropOp40
 70
     0
102
RTVSPost2010Prop41ColorIndex
 90
       18
102
RTVSPost2010Prop41ColorRGB
 90
        0
102
RTVSPost2010PropOp41
 70
     0
102
RTVSPost2010Prop42
 90
       50
102
RTVSPost2010PropOp42
 70
     0
102
RTVSPost2010Prop43
 90
        3
102
RTVSPost2010PropOp43
 70
     0
102
RTVSPost2010Prop44ColorIndex
 90
        5
102
RTVSPost2010Prop44ColorRGB
 90
      255
102
RTVSPost2010PropOp44
 70
     0
102
RTVSPost2010Prop45
280
     0
102
RTVSPost2010PropOp45
 70
     1
102
RTVSPost2010Prop46
 90
       50
102
RTVSPost2010PropOp46
 70
     0
102
RTVSPost2010Prop47
 90
       50
102
RTVSPost2010PropOp47
 70
     0
102
RTVSPost2010Prop48
 90
       50
102
RTVSPost2010PropOp48
 70
     0
102
RTVSPost2010Prop49
280
     0
102
RTVSPost2010PropOp49
 70
     1
102
RTVSPost2010Prop50
 90
       50
102
RTVSPost2010PropOp50
 70
     0
102
RTVSPost2010Prop51ColorIndex
 90
      256
102
RTVSPost2010Prop51ColorRGB
 90
-16777216
102
RTVSPost2010PropOp51
 70
     0
102
RTVSPost2010Prop52
140
1.0
102
RTVSPost2010PropOp52
 70
     0
102
RTVSPost2010Prop53
 90
        2
102
RTVSPost2010PropOp53
 70
     0
102
RTVSPost2010Prop54
  1
strokes_ogs.tif
102
RTVSPost2010PropOp54
 70
     0
102
RTVSPost2010Prop55
280
     0
102
RTVSPost2010PropOp55
 70
     1
102
RTVSPost2010Prop56
140
1.0
102
RTVSPost2010PropOp56
 70
     0
102
RTVSPost2010Prop57
140
1.0
102
RTVSPost2010PropOp57
 70
     0
102
RTVSPropertyOp0
 70
     0
102
RTVSPropertyOp1
 70
     0
102
RTVSPropertyOp2
 70
     0
102
RTVSPropertyOp3
 70
     0
102
RTVSPropertyOp4
 70
     0
102
RTVSPropertyOp5
 70
     0
102
RTVSPropertyOp6
 70
     0
102
RTVSPropertyOp7
 70
     0
102
RTVSPropertyOp8
 70
     0
102
RTVSPropertyOp9
 70
     0
102
RTVSPropertyOp10
 70
     0
102
RTVSPropertyOp11
 70
     0
102
RTVSPropertyOp12
 70
     0
102
RTVSPropertyOp13
 70
     0
102
RTVSPropertyOp14
 70
     2
102
RTVSPropertyOp15
 70
     0
102
RTVSPropertyOp16
 70
     0
102
RTVSPropertyOp17
 70
     0
102
RTVSPropertyOp18
 70
     0
102
RTVSPropertyOp19
 70
     0
102
RTVSPropertyOp20
 70
     0
102
RTVSPropertyOp21
 70
     0
102
RTVSPropertyOp22
 70
     0
102
RTVSPropertyOp23
 70
     0
102
RTVSPropertyOp24
 70
     0
102
RTVSPropertyOp25
 70
     0
102
RTVSPropertyOp26
 70
     0
102
RTVSPropertyOp27
 70
     0
102
RTVSPropertyOp28
 70
     1
102
RTVSPropertyOp29
 70
     1
102
RTVSPropertyOp30
 70
     1
102
RTVSPropertyOp31
 70
     1
102
RTVSPropertyOp32
 70
     1
102
RTVSPropertyOp33
 70
     1
102
RTVSPropertyOp34
 70
     1
102
RTVSPropertyOp35
 70
     1
102
RTVSPropertyOp36
 70
     1
102
RTVSPropertyOp37
 70
     0
102
RTVSPropertyOp38
 70
     0
102
RTVSPropertyOp39
 70
     0
102
RTVSPropertyOp40
 70
     0
102
RTVSPropertyOp41
 70
     0
102
RTVSPropertyOp42
 70
     0
102
RTVSPropertyOp43
 70
     0
102
RTVSPropertyOp44
 70
     0
102
RTVSPropertyOp45
 70
     1
102
RTVSPropertyOp46
 70
     0
102
RTVSPropertyOp47
 70
     0
102
RTVSPropertyOp48
 70
     0
102
RTVSPropertyOp49
 70
     1
102
RTVSPropertyOp50
 70
     0
102
RTVSPropertyOp51
 70
     0
102
RTVSPropertyOp52
 70
     0
102
RTVSPropertyOp53
 70
     0
102
RTVSPropertyOp54
 70
     0
102
RTVSPropertyOp55
 70
     1
102
RTVSPropertyOp56
 70
     0
102
RTVSPropertyOp57
 70
     0
102
RTVSPropertyOp58
 70
     0
102
RTVSPropertyOp59
 70
     0
102
RTVSPropertyOp60
 70
     0
102
RTVSPropertyOp61
 70
     0
102
RTVSPropertyOp62
 70
     0
  0
XRECORD
  5
27CE
102
{ACAD_REACTORS
330
27CD
102
}
330
27CD
100
AcDbXrecord
280
     1
102
RTVSPost2010Prop28
280
     0
102
RTVSPost2010PropOp28
 70
     1
102
RTVSPost2010Prop29
280
     1
102
RTVSPost2010PropOp29
 70
     1
102
RTVSPost2010Prop30
280
     1
102
RTVSPost2010PropOp30
 70
     1
102
RTVSPost2010Prop31
280
     0
102
RTVSPost2010PropOp31
 70
     1
102
RTVSPost2010Prop32
280
     0
102
RTVSPost2010PropOp32
 70
     1
102
RTVSPost2010Prop33
280
     0
102
RTVSPost2010PropOp33
 70
     1
102
RTVSPost2010Prop34
280
     0
102
RTVSPost2010PropOp34
 70
     1
102
RTVSPost2010Prop35
280
     0
102
RTVSPost2010PropOp35
 70
     1
102
RTVSPost2010Prop36
280
     0
102
RTVSPost2010PropOp36
 70
     1
102
RTVSPost2010Prop37
 90
       50
102
RTVSPost2010PropOp37
 70
     1
102
RTVSPost2010Prop38
140
0.0
102
RTVSPost2010PropOp38
 70
     1
102
RTVSPost2010Prop39
140
1.0
102
RTVSPost2010PropOp39
 70
     1
102
RTVSPost2010Prop40
 90
        0
102
RTVSPost2010PropOp40
 70
     1
102
RTVSPost2010Prop41ColorIndex
 90
       18
102
RTVSPost2010Prop41ColorRGB
 90
        0
102
RTVSPost2010PropOp41
 70
     1
102
RTVSPost2010Prop42
 90
       50
102
RTVSPost2010PropOp42
 70
     1
102
RTVSPost2010Prop43
 90
        3
102
RTVSPost2010PropOp43
 70
     1
102
RTVSPost2010Prop44ColorIndex
 90
        5
102
RTVSPost2010Prop44ColorRGB
 90
      255
102
RTVSPost2010PropOp44
 70
     1
102
RTVSPost2010Prop45
280
     0
102
RTVSPost2010PropOp45
 70
     1
102
RTVSPost2010Prop46
 90
       50
102
RTVSPost2010PropOp46
 70
     1
102
RTVSPost2010Prop47
 90
       50
102
RTVSPost2010PropOp47
 70
     1
102
RTVSPost2010Prop48
 90
       50
102
RTVSPost2010PropOp48
 70
     1
102
RTVSPost2010Prop49
280
     0
102
RTVSPost2010PropOp49
 70
     1
102
RTVSPost2010Prop50
 90
       50
102
RTVSPost2010PropOp50
 70
     1
102
RTVSPost2010Prop51ColorIndex
 90
      256
102
RTVSPost2010Prop51ColorRGB
 90
-16777216
102
RTVSPost2010PropOp51
 70
     0
102
RTVSPost2010Prop52
140
1.0
102
RTVSPost2010PropOp52
 70
     0
102
RTVSPost2010Prop53
 90
        2
102
RTVSPost2010PropOp53
 70
     1
102
RTVSPost2010Prop54
  1
strokes_ogs.tif
102
RTVSPost2010PropOp54
 70
     1
102
RTVSPost2010Prop55
280
     0
102
RTVSPost2010PropOp55
 70
     1
102
RTVSPost2010Prop56
140
1.0
102
RTVSPost2010PropOp56
 70
     1
102
RTVSPost2010Prop57
140
1.0
102
RTVSPost2010PropOp57
 70
     1
102
RTVSPropertyOp0
 70
     1
102
RTVSPropertyOp1
 70
     1
102
RTVSPropertyOp2
 70
     1
102
RTVSPropertyOp3
 70
     1
102
RTVSPropertyOp4
 70
     1
102
RTVSPropertyOp5
 70
     1
102
RTVSPropertyOp6
 70
     1
102
RTVSPropertyOp7
 70
     1
102
RTVSPropertyOp8
 70
     1
102
RTVSPropertyOp9
 70
     1
102
RTVSPropertyOp10
 70
     1
102
RTVSPropertyOp11
 70
     1
102
RTVSPropertyOp12
 70
     1
102
RTVSPropertyOp13
 70
     1
102
RTVSPropertyOp14
 70
     1
102
RTVSPropertyOp15
 70
     1
102
RTVSPropertyOp16
 70
     1
102
RTVSPropertyOp17
 70
     1
102
RTVSPropertyOp18
 70
     1
102
RTVSPropertyOp19
 70
     1
102
RTVSPropertyOp20
 70
     1
102
RTVSPropertyOp21
 70
     1
102
RTVSPropertyOp22
 70
     1
102
RTVSPropertyOp23
 70
     1
102
RTVSPropertyOp24
 70
     1
102
RTVSPropertyOp25
 70
     1
102
RTVSPropertyOp26
 70
     1
102
RTVSPropertyOp27
 70
     1
102
RTVSPropertyOp28
 70
     1
102
RTVSPropertyOp29
 70
     1
102
RTVSPropertyOp30
 70
     1
102
RTVSPropertyOp31
 70
     1
102
RTVSPropertyOp32
 70
     1
102
RTVSPropertyOp33
 70
     1
102
RTVSPropertyOp34
 70
     1
102
RTVSPropertyOp35
 70
     1
102
RTVSPropertyOp36
 70
     1
102
RTVSPropertyOp37
 70
     1
102
RTVSPropertyOp38
 70
     1
102
RTVSPropertyOp39
 70
     1
102
RTVSPropertyOp40
 70
     1
102
RTVSPropertyOp41
 70
     1
102
RTVSPropertyOp42
 70
     1
102
RTVSPropertyOp43
 70
     1
102
RTVSPropertyOp44
 70
     1
102
RTVSPropertyOp45
 70
     1
102
RTVSPropertyOp46
 70
     1
102
RTVSPropertyOp47
 70
     1
102
RTVSPropertyOp48
 70
     1
102
RTVSPropertyOp49
 70
     1
102
RTVSPropertyOp50
 70
     1
102
RTVSPropertyOp51
 70
     0
102
RTVSPropertyOp52
 70
     0
102
RTVSPropertyOp53
 70
     1
102
RTVSPropertyOp54
 70
     1
102
RTVSPropertyOp55
 70
     1
102
RTVSPropertyOp56
 70
     1
102
RTVSPropertyOp57
 70
     1
102
RTVSPropertyOp58
 70
     1
102
RTVSPropertyOp59
 70
     1
102
RTVSPropertyOp60
 70
     1
102
RTVSPropertyOp61
 70
     1
102
RTVSPropertyOp62
 70
     1
  0
XRECORD
  5
27E0
102
{ACAD_REACTORS
330
27DF
102
}
330
27DF
100
AcDbXrecord
280
     1
102
RTVSPost2010Prop28
280
     0
102
RTVSPost2010PropOp28
 70
     1
102
RTVSPost2010Prop29
280
     1
102
RTVSPost2010PropOp29
 70
     1
102
RTVSPost2010Prop30
280
     1
102
RTVSPost2010PropOp30
 70
     1
102
RTVSPost2010Prop31
280
     0
102
RTVSPost2010PropOp31
 70
     1
102
RTVSPost2010Prop32
280
     0
102
RTVSPost2010PropOp32
 70
     1
102
RTVSPost2010Prop33
280
     0
102
RTVSPost2010PropOp33
 70
     1
102
RTVSPost2010Prop34
280
     0
102
RTVSPost2010PropOp34
 70
     1
102
RTVSPost2010Prop35
280
     0
102
RTVSPost2010PropOp35
 70
     1
102
RTVSPost2010Prop36
280
     0
102
RTVSPost2010PropOp36
 70
     1
102
RTVSPost2010Prop37
 90
       50
102
RTVSPost2010PropOp37
 70
     0
102
RTVSPost2010Prop38
140
0.0
102
RTVSPost2010PropOp38
 70
     0
102
RTVSPost2010Prop39
140
1.0
102
RTVSPost2010PropOp39
 70
     0
102
RTVSPost2010Prop40
 90
        0
102
RTVSPost2010PropOp40
 70
     0
102
RTVSPost2010Prop41ColorIndex
 90
       18
102
RTVSPost2010Prop41ColorRGB
 90
        0
102
RTVSPost2010PropOp41
 70
     0
102
RTVSPost2010Prop42
 90
       50
102
RTVSPost2010PropOp42
 70
     0
102
RTVSPost2010Prop43
 90
        3
102
RTVSPost2010PropOp43
 70
     0
102
RTVSPost2010Prop44ColorIndex
 90
        5
102
RTVSPost2010Prop44ColorRGB
 90
      255
102
RTVSPost2010PropOp44
 70
     0
102
RTVSPost2010Prop45
280
     0
102
RTVSPost2010PropOp45
 70
     1
102
RTVSPost2010Prop46
 90
       50
102
RTVSPost2010PropOp46
 70
     0
102
RTVSPost2010Prop47
 90
       50
102
RTVSPost2010PropOp47
 70
     0
102
RTVSPost2010Prop48
 90
       50
102
RTVSPost2010PropOp48
 70
     0
102
RTVSPost2010Prop49
280
     0
102
RTVSPost2010PropOp49
 70
     1
102
RTVSPost2010Prop50
 90
       50
102
RTVSPost2010PropOp50
 70
     0
102
RTVSPost2010Prop51ColorIndex
 90
      256
102
RTVSPost2010Prop51ColorRGB
 90
-16777216
102
RTVSPost2010PropOp51
 70
     0
102
RTVSPost2010Prop52
140
1.0
102
RTVSPost2010PropOp52
 70
     0
102
RTVSPost2010Prop53
 90
        2
102
RTVSPost2010PropOp53
 70
     0
102
RTVSPost2010Prop54
  1
strokes_ogs.tif
102
RTVSPost2010PropOp54
 70
     0
102
RTVSPost2010Prop55
280
     0
102
RTVSPost2010PropOp55
 70
     1
102
RTVSPost2010Prop56
140
1.0
102
RTVSPost2010PropOp56
 70
     0
102
RTVSPost2010Prop57
140
1.0
102
RTVSPost2010PropOp57
 70
     0
102
RTVSPropertyOp0
 70
     0
102
RTVSPropertyOp1
 70
     0
102
RTVSPropertyOp2
 70
     0
102
RTVSPropertyOp3
 70
     0
102
RTVSPropertyOp4
 70
     0
102
RTVSPropertyOp5
 70
     0
102
RTVSPropertyOp6
 70
     0
102
RTVSPropertyOp7
 70
     0
102
RTVSPropertyOp8
 70
     0
102
RTVSPropertyOp9
 70
     0
102
RTVSPropertyOp10
 70
     0
102
RTVSPropertyOp11
 70
     0
102
RTVSPropertyOp12
 70
     0
102
RTVSPropertyOp13
 70
     0
102
RTVSPropertyOp14
 70
     2
102
RTVSPropertyOp15
 70
     0
102
RTVSPropertyOp16
 70
     0
102
RTVSPropertyOp17
 70
     0
102
RTVSPropertyOp18
 70
     0
102
RTVSPropertyOp19
 70
     0
102
RTVSPropertyOp20
 70
     0
102
RTVSPropertyOp21
 70
     0
102
RTVSPropertyOp22
 70
     0
102
RTVSPropertyOp23
 70
     0
102
RTVSPropertyOp24
 70
     0
102
RTVSPropertyOp25
 70
     0
102
RTVSPropertyOp26
 70
     0
102
RTVSPropertyOp27
 70
     0
102
RTVSPropertyOp28
 70
     1
102
RTVSPropertyOp29
 70
     1
102
RTVSPropertyOp30
 70
     1
102
RTVSPropertyOp31
 70
     1
102
RTVSPropertyOp32
 70
     1
102
RTVSPropertyOp33
 70
     1
102
RTVSPropertyOp34
 70
     1
102
RTVSPropertyOp35
 70
     1
102
RTVSPropertyOp36
 70
     1
102
RTVSPropertyOp37
 70
     0
102
RTVSPropertyOp38
 70
     0
102
RTVSPropertyOp39
 70
     0
102
RTVSPropertyOp40
 70
     0
102
RTVSPropertyOp41
 70
     0
102
RTVSPropertyOp42
 70
     0
102
RTVSPropertyOp43
 70
     0
102
RTVSPropertyOp44
 70
     0
102
RTVSPropertyOp45
 70
     1
102
RTVSPropertyOp46
 70
     0
102
RTVSPropertyOp47
 70
     0
102
RTVSPropertyOp48
 70
     0
102
RTVSPropertyOp49
 70
     1
102
RTVSPropertyOp50
 70
     0
102
RTVSPropertyOp51
 70
     0
102
RTVSPropertyOp52
 70
     0
102
RTVSPropertyOp53
 70
     0
102
RTVSPropertyOp54
 70
     0
102
RTVSPropertyOp55
 70
     1
102
RTVSPropertyOp56
 70
     0
102
RTVSPropertyOp57
 70
     0
102
RTVSPropertyOp58
 70
     0
102
RTVSPropertyOp59
 70
     0
102
RTVSPropertyOp60
 70
     0
102
RTVSPropertyOp61
 70
     0
102
RTVSPropertyOp62
 70
     0
  0
XRECORD
  5
27C6
102
{ACAD_REACTORS
330
27C5
102
}
330
27C5
100
AcDbXrecord
280
     1
102
RTVSPost2010Prop28
280
     0
102
RTVSPost2010PropOp28
 70
     1
102
RTVSPost2010Prop29
280
     1
102
RTVSPost2010PropOp29
 70
     1
102
RTVSPost2010Prop30
280
     1
102
RTVSPost2010PropOp30
 70
     1
102
RTVSPost2010Prop31
280
     0
102
RTVSPost2010PropOp31
 70
     1
102
RTVSPost2010Prop32
280
     0
102
RTVSPost2010PropOp32
 70
     1
102
RTVSPost2010Prop33
280
     0
102
RTVSPost2010PropOp33
 70
     1
102
RTVSPost2010Prop34
280
     0
102
RTVSPost2010PropOp34
 70
     1
102
RTVSPost2010Prop35
280
     0
102
RTVSPost2010PropOp35
 70
     1
102
RTVSPost2010Prop36
280
     0
102
RTVSPost2010PropOp36
 70
     1
102
RTVSPost2010Prop37
 90
       50
102
RTVSPost2010PropOp37
 70
     1
102
RTVSPost2010Prop38
140
0.0
102
RTVSPost2010PropOp38
 70
     1
102
RTVSPost2010Prop39
140
1.0
102
RTVSPost2010PropOp39
 70
     1
102
RTVSPost2010Prop40
 90
        0
102
RTVSPost2010PropOp40
 70
     1
102
RTVSPost2010Prop41ColorIndex
 90
       18
102
RTVSPost2010Prop41ColorRGB
 90
        0
102
RTVSPost2010PropOp41
 70
     1
102
RTVSPost2010Prop42
 90
       50
102
RTVSPost2010PropOp42
 70
     1
102
RTVSPost2010Prop43
 90
        3
102
RTVSPost2010PropOp43
 70
     1
102
RTVSPost2010Prop44ColorIndex
 90
        5
102
RTVSPost2010Prop44ColorRGB
 90
      255
102
RTVSPost2010PropOp44
 70
     1
102
RTVSPost2010Prop45
280
     0
102
RTVSPost2010PropOp45
 70
     1
102
RTVSPost2010Prop46
 90
       50
102
RTVSPost2010PropOp46
 70
     1
102
RTVSPost2010Prop47
 90
       50
102
RTVSPost2010PropOp47
 70
     1
102
RTVSPost2010Prop48
 90
       50
102
RTVSPost2010PropOp48
 70
     1
102
RTVSPost2010Prop49
280
     0
102
RTVSPost2010PropOp49
 70
     1
102
RTVSPost2010Prop50
 90
       50
102
RTVSPost2010PropOp50
 70
     1
102
RTVSPost2010Prop51ColorIndex
 90
      256
102
RTVSPost2010Prop51ColorRGB
 90
-16777216
102
RTVSPost2010PropOp51
 70
     0
102
RTVSPost2010Prop52
140
1.0
102
RTVSPost2010PropOp52
 70
     0
102
RTVSPost2010Prop53
 90
        2
102
RTVSPost2010PropOp53
 70
     1
102
RTVSPost2010Prop54
  1
strokes_ogs.tif
102
RTVSPost2010PropOp54
 70
     1
102
RTVSPost2010Prop55
280
     0
102
RTVSPost2010PropOp55
 70
     1
102
RTVSPost2010Prop56
140
1.0
102
RTVSPost2010PropOp56
 70
     1
102
RTVSPost2010Prop57
140
1.0
102
RTVSPost2010PropOp57
 70
     1
102
RTVSPropertyOp0
 70
     1
102
RTVSPropertyOp1
 70
     1
102
RTVSPropertyOp2
 70
     1
102
RTVSPropertyOp3
 70
     1
102
RTVSPropertyOp4
 70
     1
102
RTVSPropertyOp5
 70
     1
102
RTVSPropertyOp6
 70
     1
102
RTVSPropertyOp7
 70
     1
102
RTVSPropertyOp8
 70
     1
102
RTVSPropertyOp9
 70
     1
102
RTVSPropertyOp10
 70
     1
102
RTVSPropertyOp11
 70
     1
102
RTVSPropertyOp12
 70
     1
102
RTVSPropertyOp13
 70
     1
102
RTVSPropertyOp14
 70
     1
102
RTVSPropertyOp15
 70
     1
102
RTVSPropertyOp16
 70
     1
102
RTVSPropertyOp17
 70
     1
102
RTVSPropertyOp18
 70
     1
102
RTVSPropertyOp19
 70
     1
102
RTVSPropertyOp20
 70
     1
102
RTVSPropertyOp21
 70
     1
102
RTVSPropertyOp22
 70
     1
102
RTVSPropertyOp23
 70
     1
102
RTVSPropertyOp24
 70
     1
102
RTVSPropertyOp25
 70
     1
102
RTVSPropertyOp26
 70
     1
102
RTVSPropertyOp27
 70
     1
102
RTVSPropertyOp28
 70
     1
102
RTVSPropertyOp29
 70
     1
102
RTVSPropertyOp30
 70
     1
102
RTVSPropertyOp31
 70
     1
102
RTVSPropertyOp32
 70
     1
102
RTVSPropertyOp33
 70
     1
102
RTVSPropertyOp34
 70
     1
102
RTVSPropertyOp35
 70
     1
102
RTVSPropertyOp36
 70
     1
102
RTVSPropertyOp37
 70
     1
102
RTVSPropertyOp38
 70
     1
102
RTVSPropertyOp39
 70
     1
102
RTVSPropertyOp40
 70
     1
102
RTVSPropertyOp41
 70
     1
102
RTVSPropertyOp42
 70
     1
102
RTVSPropertyOp43
 70
     1
102
RTVSPropertyOp44
 70
     1
102
RTVSPropertyOp45
 70
     1
102
RTVSPropertyOp46
 70
     1
102
RTVSPropertyOp47
 70
     1
102
RTVSPropertyOp48
 70
     1
102
RTVSPropertyOp49
 70
     1
102
RTVSPropertyOp50
 70
     1
102
RTVSPropertyOp51
 70
     0
102
RTVSPropertyOp52
 70
     0
102
RTVSPropertyOp53
 70
     1
102
RTVSPropertyOp54
 70
     1
102
RTVSPropertyOp55
 70
     1
102
RTVSPropertyOp56
 70
     1
102
RTVSPropertyOp57
 70
     1
102
RTVSPropertyOp58
 70
     1
102
RTVSPropertyOp59
 70
     1
102
RTVSPropertyOp60
 70
     1
102
RTVSPropertyOp61
 70
     1
102
RTVSPropertyOp62
 70
     1
  0
XRECORD
  5
27DC
102
{ACAD_REACTORS
330
27DB
102
}
330
27DB
100
AcDbXrecord
280
     1
102
RTVSPost2010Prop28
280
     0
102
RTVSPost2010PropOp28
 70
     1
102
RTVSPost2010Prop29
280
     1
102
RTVSPost2010PropOp29
 70
     1
102
RTVSPost2010Prop30
280
     1
102
RTVSPost2010PropOp30
 70
     1
102
RTVSPost2010Prop31
280
     0
102
RTVSPost2010PropOp31
 70
     1
102
RTVSPost2010Prop32
280
     0
102
RTVSPost2010PropOp32
 70
     1
102
RTVSPost2010Prop33
280
     0
102
RTVSPost2010PropOp33
 70
     1
102
RTVSPost2010Prop34
280
     0
102
RTVSPost2010PropOp34
 70
     1
102
RTVSPost2010Prop35
280
     0
102
RTVSPost2010PropOp35
 70
     1
102
RTVSPost2010Prop36
280
     0
102
RTVSPost2010PropOp36
 70
     1
102
RTVSPost2010Prop37
 90
       50
102
RTVSPost2010PropOp37
 70
     1
102
RTVSPost2010Prop38
140
0.0
102
RTVSPost2010PropOp38
 70
     1
102
RTVSPost2010Prop39
140
1.0
102
RTVSPost2010PropOp39
 70
     1
102
RTVSPost2010Prop40
 90
        0
102
RTVSPost2010PropOp40
 70
     1
102
RTVSPost2010Prop41ColorIndex
 90
       18
102
RTVSPost2010Prop41ColorRGB
 90
        0
102
RTVSPost2010PropOp41
 70
     1
102
RTVSPost2010Prop42
 90
       50
102
RTVSPost2010PropOp42
 70
     1
102
RTVSPost2010Prop43
 90
        3
102
RTVSPost2010PropOp43
 70
     1
102
RTVSPost2010Prop44ColorIndex
 90
        5
102
RTVSPost2010Prop44ColorRGB
 90
      255
102
RTVSPost2010PropOp44
 70
     1
102
RTVSPost2010Prop45
280
     0
102
RTVSPost2010PropOp45
 70
     1
102
RTVSPost2010Prop46
 90
       50
102
RTVSPost2010PropOp46
 70
     1
102
RTVSPost2010Prop47
 90
       50
102
RTVSPost2010PropOp47
 70
     1
102
RTVSPost2010Prop48
 90
       50
102
RTVSPost2010PropOp48
 70
     1
102
RTVSPost2010Prop49
280
     0
102
RTVSPost2010PropOp49
 70
     1
102
RTVSPost2010Prop50
 90
       50
102
RTVSPost2010PropOp50
 70
     1
102
RTVSPost2010Prop51ColorIndex
 90
      256
102
RTVSPost2010Prop51ColorRGB
 90
-16777216
102
RTVSPost2010PropOp51
 70
     0
102
RTVSPost2010Prop52
140
1.0
102
RTVSPost2010PropOp52
 70
     0
102
RTVSPost2010Prop53
 90
        2
102
RTVSPost2010PropOp53
 70
     1
102
RTVSPost2010Prop54
  1
strokes_ogs.tif
102
RTVSPost2010PropOp54
 70
     1
102
RTVSPost2010Prop55
280
     0
102
RTVSPost2010PropOp55
 70
     1
102
RTVSPost2010Prop56
140
1.0
102
RTVSPost2010PropOp56
 70
     1
102
RTVSPost2010Prop57
140
1.0
102
RTVSPost2010PropOp57
 70
     1
102
RTVSPropertyOp0
 70
     1
102
RTVSPropertyOp1
 70
     1
102
RTVSPropertyOp2
 70
     1
102
RTVSPropertyOp3
 70
     1
102
RTVSPropertyOp4
 70
     1
102
RTVSPropertyOp5
 70
     1
102
RTVSPropertyOp6
 70
     1
102
RTVSPropertyOp7
 70
     1
102
RTVSPropertyOp8
 70
     1
102
RTVSPropertyOp9
 70
     1
102
RTVSPropertyOp10
 70
     1
102
RTVSPropertyOp11
 70
     1
102
RTVSPropertyOp12
 70
     1
102
RTVSPropertyOp13
 70
     1
102
RTVSPropertyOp14
 70
     1
102
RTVSPropertyOp15
 70
     1
102
RTVSPropertyOp16
 70
     1
102
RTVSPropertyOp17
 70
     1
102
RTVSPropertyOp18
 70
     1
102
RTVSPropertyOp19
 70
     1
102
RTVSPropertyOp20
 70
     1
102
RTVSPropertyOp21
 70
     1
102
RTVSPropertyOp22
 70
     1
102
RTVSPropertyOp23
 70
     1
102
RTVSPropertyOp24
 70
     1
102
RTVSPropertyOp25
 70
     1
102
RTVSPropertyOp26
 70
     1
102
RTVSPropertyOp27
 70
     1
102
RTVSPropertyOp28
 70
     1
102
RTVSPropertyOp29
 70
     1
102
RTVSPropertyOp30
 70
     1
102
RTVSPropertyOp31
 70
     1
102
RTVSPropertyOp32
 70
     1
102
RTVSPropertyOp33
 70
     1
102
RTVSPropertyOp34
 70
     1
102
RTVSPropertyOp35
 70
     1
102
RTVSPropertyOp36
 70
     1
102
RTVSPropertyOp37
 70
     1
102
RTVSPropertyOp38
 70
     1
102
RTVSPropertyOp39
 70
     1
102
RTVSPropertyOp40
 70
     1
102
RTVSPropertyOp41
 70
     1
102
RTVSPropertyOp42
 70
     1
102
RTVSPropertyOp43
 70
     1
102
RTVSPropertyOp44
 70
     1
102
RTVSPropertyOp45
 70
     1
102
RTVSPropertyOp46
 70
     1
102
RTVSPropertyOp47
 70
     1
102
RTVSPropertyOp48
 70
     1
102
RTVSPropertyOp49
 70
     1
102
RTVSPropertyOp50
 70
     1
102
RTVSPropertyOp51
 70
     0
102
RTVSPropertyOp52
 70
     0
102
RTVSPropertyOp53
 70
     1
102
RTVSPropertyOp54
 70
     1
102
RTVSPropertyOp55
 70
     1
102
RTVSPropertyOp56
 70
     1
102
RTVSPropertyOp57
 70
     1
102
RTVSPropertyOp58
 70
     1
102
RTVSPropertyOp59
 70
     1
102
RTVSPropertyOp60
 70
     1
102
RTVSPropertyOp61
 70
     1
102
RTVSPropertyOp62
 70
     1
  0
XRECORD
  5
27DA
102
{ACAD_REACTORS
330
27D9
102
}
330
27D9
100
AcDbXrecord
280
     1
102
RTVSPost2010Prop28
280
     0
102
RTVSPost2010PropOp28
 70
     1
102
RTVSPost2010Prop29
280
     1
102
RTVSPost2010PropOp29
 70
     1
102
RTVSPost2010Prop30
280
     1
102
RTVSPost2010PropOp30
 70
     1
102
RTVSPost2010Prop31
280
     0
102
RTVSPost2010PropOp31
 70
     1
102
RTVSPost2010Prop32
280
     0
102
RTVSPost2010PropOp32
 70
     1
102
RTVSPost2010Prop33
280
     0
102
RTVSPost2010PropOp33
 70
     1
102
RTVSPost2010Prop34
280
     0
102
RTVSPost2010PropOp34
 70
     1
102
RTVSPost2010Prop35
280
     0
102
RTVSPost2010PropOp35
 70
     1
102
RTVSPost2010Prop36
280
     0
102
RTVSPost2010PropOp36
 70
     1
102
RTVSPost2010Prop37
 90
       50
102
RTVSPost2010PropOp37
 70
     1
102
RTVSPost2010Prop38
140
0.0
102
RTVSPost2010PropOp38
 70
     1
102
RTVSPost2010Prop39
140
1.0
102
RTVSPost2010PropOp39
 70
     1
102
RTVSPost2010Prop40
 90
        0
102
RTVSPost2010PropOp40
 70
     1
102
RTVSPost2010Prop41ColorIndex
 90
       18
102
RTVSPost2010Prop41ColorRGB
 90
        0
102
RTVSPost2010PropOp41
 70
     1
102
RTVSPost2010Prop42
 90
       50
102
RTVSPost2010PropOp42
 70
     1
102
RTVSPost2010Prop43
 90
        3
102
RTVSPost2010PropOp43
 70
     1
102
RTVSPost2010Prop44ColorIndex
 90
        5
102
RTVSPost2010Prop44ColorRGB
 90
      255
102
RTVSPost2010PropOp44
 70
     1
102
RTVSPost2010Prop45
280
     0
102
RTVSPost2010PropOp45
 70
     1
102
RTVSPost2010Prop46
 90
       50
102
RTVSPost2010PropOp46
 70
     1
102
RTVSPost2010Prop47
 90
       50
102
RTVSPost2010PropOp47
 70
     1
102
RTVSPost2010Prop48
 90
       50
102
RTVSPost2010PropOp48
 70
     1
102
RTVSPost2010Prop49
280
     0
102
RTVSPost2010PropOp49
 70
     1
102
RTVSPost2010Prop50
 90
       50
102
RTVSPost2010PropOp50
 70
     1
102
RTVSPost2010Prop51ColorIndex
 90
      256
102
RTVSPost2010Prop51ColorRGB
 90
-16777216
102
RTVSPost2010PropOp51
 70
     0
102
RTVSPost2010Prop52
140
1.0
102
RTVSPost2010PropOp52
 70
     0
102
RTVSPost2010Prop53
 90
        2
102
RTVSPost2010PropOp53
 70
     1
102
RTVSPost2010Prop54
  1
strokes_ogs.tif
102
RTVSPost2010PropOp54
 70
     1
102
RTVSPost2010Prop55
280
     0
102
RTVSPost2010PropOp55
 70
     1
102
RTVSPost2010Prop56
140
1.0
102
RTVSPost2010PropOp56
 70
     1
102
RTVSPost2010Prop57
140
1.0
102
RTVSPost2010PropOp57
 70
     1
102
RTVSPropertyOp0
 70
     1
102
RTVSPropertyOp1
 70
     1
102
RTVSPropertyOp2
 70
     1
102
RTVSPropertyOp3
 70
     1
102
RTVSPropertyOp4
 70
     1
102
RTVSPropertyOp5
 70
     1
102
RTVSPropertyOp6
 70
     1
102
RTVSPropertyOp7
 70
     1
102
RTVSPropertyOp8
 70
     1
102
RTVSPropertyOp9
 70
     1
102
RTVSPropertyOp10
 70
     1
102
RTVSPropertyOp11
 70
     1
102
RTVSPropertyOp12
 70
     1
102
RTVSPropertyOp13
 70
     1
102
RTVSPropertyOp14
 70
     1
102
RTVSPropertyOp15
 70
     1
102
RTVSPropertyOp16
 70
     1
102
RTVSPropertyOp17
 70
     1
102
RTVSPropertyOp18
 70
     1
102
RTVSPropertyOp19
 70
     1
102
RTVSPropertyOp20
 70
     1
102
RTVSPropertyOp21
 70
     1
102
RTVSPropertyOp22
 70
     1
102
RTVSPropertyOp23
 70
     1
102
RTVSPropertyOp24
 70
     1
102
RTVSPropertyOp25
 70
     1
102
RTVSPropertyOp26
 70
     1
102
RTVSPropertyOp27
 70
     1
102
RTVSPropertyOp28
 70
     1
102
RTVSPropertyOp29
 70
     1
102
RTVSPropertyOp30
 70
     1
102
RTVSPropertyOp31
 70
     1
102
RTVSPropertyOp32
 70
     1
102
RTVSPropertyOp33
 70
     1
102
RTVSPropertyOp34
 70
     1
102
RTVSPropertyOp35
 70
     1
102
RTVSPropertyOp36
 70
     1
102
RTVSPropertyOp37
 70
     1
102
RTVSPropertyOp38
 70
     1
102
RTVSPropertyOp39
 70
     1
102
RTVSPropertyOp40
 70
     1
102
RTVSPropertyOp41
 70
     1
102
RTVSPropertyOp42
 70
     1
102
RTVSPropertyOp43
 70
     1
102
RTVSPropertyOp44
 70
     1
102
RTVSPropertyOp45
 70
     1
102
RTVSPropertyOp46
 70
     1
102
RTVSPropertyOp47
 70
     1
102
RTVSPropertyOp48
 70
     1
102
RTVSPropertyOp49
 70
     1
102
RTVSPropertyOp50
 70
     1
102
RTVSPropertyOp51
 70
     0
102
RTVSPropertyOp52
 70
     0
102
RTVSPropertyOp53
 70
     1
102
RTVSPropertyOp54
 70
     1
102
RTVSPropertyOp55
 70
     1
102
RTVSPropertyOp56
 70
     1
102
RTVSPropertyOp57
 70
     1
102
RTVSPropertyOp58
 70
     1
102
RTVSPropertyOp59
 70
     1
102
RTVSPropertyOp60
 70
     1
102
RTVSPropertyOp61
 70
     1
102
RTVSPropertyOp62
 70
     1
  0
XRECORD
  5
27D4
102
{ACAD_REACTORS
330
27D3
102
}
330
27D3
100
AcDbXrecord
280
     1
102
RTVSPost2010Prop28
280
     0
102
RTVSPost2010PropOp28
 70
     1
102
RTVSPost2010Prop29
280
     1
102
RTVSPost2010PropOp29
 70
     1
102
RTVSPost2010Prop30
280
     1
102
RTVSPost2010PropOp30
 70
     1
102
RTVSPost2010Prop31
280
     0
102
RTVSPost2010PropOp31
 70
     1
102
RTVSPost2010Prop32
280
     0
102
RTVSPost2010PropOp32
 70
     1
102
RTVSPost2010Prop33
280
     0
102
RTVSPost2010PropOp33
 70
     1
102
RTVSPost2010Prop34
280
     0
102
RTVSPost2010PropOp34
 70
     1
102
RTVSPost2010Prop35
280
     0
102
RTVSPost2010PropOp35
 70
     1
102
RTVSPost2010Prop36
280
     0
102
RTVSPost2010PropOp36
 70
     1
102
RTVSPost2010Prop37
 90
       50
102
RTVSPost2010PropOp37
 70
     1
102
RTVSPost2010Prop38
140
0.0
102
RTVSPost2010PropOp38
 70
     1
102
RTVSPost2010Prop39
140
1.0
102
RTVSPost2010PropOp39
 70
     1
102
RTVSPost2010Prop40
 90
        0
102
RTVSPost2010PropOp40
 70
     1
102
RTVSPost2010Prop41ColorIndex
 90
       18
102
RTVSPost2010Prop41ColorRGB
 90
        0
102
RTVSPost2010PropOp41
 70
     1
102
RTVSPost2010Prop42
 90
       50
102
RTVSPost2010PropOp42
 70
     1
102
RTVSPost2010Prop43
 90
        3
102
RTVSPost2010PropOp43
 70
     1
102
RTVSPost2010Prop44ColorIndex
 90
        5
102
RTVSPost2010Prop44ColorRGB
 90
      255
102
RTVSPost2010PropOp44
 70
     1
102
RTVSPost2010Prop45
280
     0
102
RTVSPost2010PropOp45
 70
     1
102
RTVSPost2010Prop46
 90
       50
102
RTVSPost2010PropOp46
 70
     1
102
RTVSPost2010Prop47
 90
       50
102
RTVSPost2010PropOp47
 70
     1
102
RTVSPost2010Prop48
 90
       50
102
RTVSPost2010PropOp48
 70
     1
102
RTVSPost2010Prop49
280
     0
102
RTVSPost2010PropOp49
 70
     1
102
RTVSPost2010Prop50
 90
       50
102
RTVSPost2010PropOp50
 70
     1
102
RTVSPost2010Prop51ColorIndex
 90
      256
102
RTVSPost2010Prop51ColorRGB
 90
-16777216
102
RTVSPost2010PropOp51
 70
     0
102
RTVSPost2010Prop52
140
1.0
102
RTVSPost2010PropOp52
 70
     0
102
RTVSPost2010Prop53
 90
        2
102
RTVSPost2010PropOp53
 70
     1
102
RTVSPost2010Prop54
  1
strokes_ogs.tif
102
RTVSPost2010PropOp54
 70
     1
102
RTVSPost2010Prop55
280
     0
102
RTVSPost2010PropOp55
 70
     1
102
RTVSPost2010Prop56
140
1.0
102
RTVSPost2010PropOp56
 70
     1
102
RTVSPost2010Prop57
140
1.0
102
RTVSPost2010PropOp57
 70
     1
102
RTVSPropertyOp0
 70
     1
102
RTVSPropertyOp1
 70
     1
102
RTVSPropertyOp2
 70
     1
102
RTVSPropertyOp3
 70
     1
102
RTVSPropertyOp4
 70
     1
102
RTVSPropertyOp5
 70
     1
102
RTVSPropertyOp6
 70
     1
102
RTVSPropertyOp7
 70
     1
102
RTVSPropertyOp8
 70
     1
102
RTVSPropertyOp9
 70
     1
102
RTVSPropertyOp10
 70
     1
102
RTVSPropertyOp11
 70
     1
102
RTVSPropertyOp12
 70
     1
102
RTVSPropertyOp13
 70
     1
102
RTVSPropertyOp14
 70
     1
102
RTVSPropertyOp15
 70
     1
102
RTVSPropertyOp16
 70
     1
102
RTVSPropertyOp17
 70
     1
102
RTVSPropertyOp18
 70
     1
102
RTVSPropertyOp19
 70
     1
102
RTVSPropertyOp20
 70
     1
102
RTVSPropertyOp21
 70
     1
102
RTVSPropertyOp22
 70
     1
102
RTVSPropertyOp23
 70
     1
102
RTVSPropertyOp24
 70
     1
102
RTVSPropertyOp25
 70
     1
102
RTVSPropertyOp26
 70
     1
102
RTVSPropertyOp27
 70
     1
102
RTVSPropertyOp28
 70
     1
102
RTVSPropertyOp29
 70
     1
102
RTVSPropertyOp30
 70
     1
102
RTVSPropertyOp31
 70
     1
102
RTVSPropertyOp32
 70
     1
102
RTVSPropertyOp33
 70
     1
102
RTVSPropertyOp34
 70
     1
102
RTVSPropertyOp35
 70
     1
102
RTVSPropertyOp36
 70
     1
102
RTVSPropertyOp37
 70
     1
102
RTVSPropertyOp38
 70
     1
102
RTVSPropertyOp39
 70
     1
102
RTVSPropertyOp40
 70
     1
102
RTVSPropertyOp41
 70
     1
102
RTVSPropertyOp42
 70
     1
102
RTVSPropertyOp43
 70
     1
102
RTVSPropertyOp44
 70
     1
102
RTVSPropertyOp45
 70
     1
102
RTVSPropertyOp46
 70
     1
102
RTVSPropertyOp47
 70
     1
102
RTVSPropertyOp48
 70
     1
102
RTVSPropertyOp49
 70
     1
102
RTVSPropertyOp50
 70
     1
102
RTVSPropertyOp51
 70
     0
102
RTVSPropertyOp52
 70
     0
102
RTVSPropertyOp53
 70
     1
102
RTVSPropertyOp54
 70
     1
102
RTVSPropertyOp55
 70
     1
102
RTVSPropertyOp56
 70
     1
102
RTVSPropertyOp57
 70
     1
102
RTVSPropertyOp58
 70
     1
102
RTVSPropertyOp59
 70
     1
102
RTVSPropertyOp60
 70
     1
102
RTVSPropertyOp61
 70
     1
102
RTVSPropertyOp62
 70
     1
  0
XRECORD
  5
27D6
102
{ACAD_REACTORS
330
27D5
102
}
330
27D5
100
AcDbXrecord
280
     1
102
RTVSPost2010Prop28
280
     0
102
RTVSPost2010PropOp28
 70
     1
102
RTVSPost2010Prop29
280
     1
102
RTVSPost2010PropOp29
 70
     1
102
RTVSPost2010Prop30
280
     1
102
RTVSPost2010PropOp30
 70
     1
102
RTVSPost2010Prop31
280
     0
102
RTVSPost2010PropOp31
 70
     1
102
RTVSPost2010Prop32
280
     0
102
RTVSPost2010PropOp32
 70
     1
102
RTVSPost2010Prop33
280
     0
102
RTVSPost2010PropOp33
 70
     1
102
RTVSPost2010Prop34
280
     0
102
RTVSPost2010PropOp34
 70
     1
102
RTVSPost2010Prop35
280
     0
102
RTVSPost2010PropOp35
 70
     1
102
RTVSPost2010Prop36
280
     0
102
RTVSPost2010PropOp36
 70
     1
102
RTVSPost2010Prop37
 90
       50
102
RTVSPost2010PropOp37
 70
     1
102
RTVSPost2010Prop38
140
0.0
102
RTVSPost2010PropOp38
 70
     1
102
RTVSPost2010Prop39
140
1.0
102
RTVSPost2010PropOp39
 70
     1
102
RTVSPost2010Prop40
 90
        0
102
RTVSPost2010PropOp40
 70
     1
102
RTVSPost2010Prop41ColorIndex
 90
       18
102
RTVSPost2010Prop41ColorRGB
 90
        0
102
RTVSPost2010PropOp41
 70
     1
102
RTVSPost2010Prop42
 90
       50
102
RTVSPost2010PropOp42
 70
     1
102
RTVSPost2010Prop43
 90
        3
102
RTVSPost2010PropOp43
 70
     1
102
RTVSPost2010Prop44ColorIndex
 90
        5
102
RTVSPost2010Prop44ColorRGB
 90
      255
102
RTVSPost2010PropOp44
 70
     1
102
RTVSPost2010Prop45
280
     0
102
RTVSPost2010PropOp45
 70
     1
102
RTVSPost2010Prop46
 90
       50
102
RTVSPost2010PropOp46
 70
     1
102
RTVSPost2010Prop47
 90
       50
102
RTVSPost2010PropOp47
 70
     1
102
RTVSPost2010Prop48
 90
       50
102
RTVSPost2010PropOp48
 70
     1
102
RTVSPost2010Prop49
280
     0
102
RTVSPost2010PropOp49
 70
     1
102
RTVSPost2010Prop50
 90
       50
102
RTVSPost2010PropOp50
 70
     1
102
RTVSPost2010Prop51ColorIndex
 90
      256
102
RTVSPost2010Prop51ColorRGB
 90
-16777216
102
RTVSPost2010PropOp51
 70
     0
102
RTVSPost2010Prop52
140
1.0
102
RTVSPost2010PropOp52
 70
     0
102
RTVSPost2010Prop53
 90
        2
102
RTVSPost2010PropOp53
 70
     1
102
RTVSPost2010Prop54
  1
strokes_ogs.tif
102
RTVSPost2010PropOp54
 70
     1
102
RTVSPost2010Prop55
280
     0
102
RTVSPost2010PropOp55
 70
     1
102
RTVSPost2010Prop56
140
1.0
102
RTVSPost2010PropOp56
 70
     1
102
RTVSPost2010Prop57
140
1.0
102
RTVSPost2010PropOp57
 70
     1
102
RTVSPropertyOp0
 70
     1
102
RTVSPropertyOp1
 70
     1
102
RTVSPropertyOp2
 70
     1
102
RTVSPropertyOp3
 70
     1
102
RTVSPropertyOp4
 70
     1
102
RTVSPropertyOp5
 70
     1
102
RTVSPropertyOp6
 70
     1
102
RTVSPropertyOp7
 70
     1
102
RTVSPropertyOp8
 70
     1
102
RTVSPropertyOp9
 70
     1
102
RTVSPropertyOp10
 70
     1
102
RTVSPropertyOp11
 70
     1
102
RTVSPropertyOp12
 70
     1
102
RTVSPropertyOp13
 70
     1
102
RTVSPropertyOp14
 70
     1
102
RTVSPropertyOp15
 70
     1
102
RTVSPropertyOp16
 70
     1
102
RTVSPropertyOp17
 70
     1
102
RTVSPropertyOp18
 70
     1
102
RTVSPropertyOp19
 70
     1
102
RTVSPropertyOp20
 70
     1
102
RTVSPropertyOp21
 70
     1
102
RTVSPropertyOp22
 70
     1
102
RTVSPropertyOp23
 70
     1
102
RTVSPropertyOp24
 70
     1
102
RTVSPropertyOp25
 70
     1
102
RTVSPropertyOp26
 70
     1
102
RTVSPropertyOp27
 70
     1
102
RTVSPropertyOp28
 70
     1
102
RTVSPropertyOp29
 70
     1
102
RTVSPropertyOp30
 70
     1
102
RTVSPropertyOp31
 70
     1
102
RTVSPropertyOp32
 70
     1
102
RTVSPropertyOp33
 70
     1
102
RTVSPropertyOp34
 70
     1
102
RTVSPropertyOp35
 70
     1
102
RTVSPropertyOp36
 70
     1
102
RTVSPropertyOp37
 70
     1
102
RTVSPropertyOp38
 70
     1
102
RTVSPropertyOp39
 70
     1
102
RTVSPropertyOp40
 70
     1
102
RTVSPropertyOp41
 70
     1
102
RTVSPropertyOp42
 70
     1
102
RTVSPropertyOp43
 70
     1
102
RTVSPropertyOp44
 70
     1
102
RTVSPropertyOp45
 70
     1
102
RTVSPropertyOp46
 70
     1
102
RTVSPropertyOp47
 70
     1
102
RTVSPropertyOp48
 70
     1
102
RTVSPropertyOp49
 70
     1
102
RTVSPropertyOp50
 70
     1
102
RTVSPropertyOp51
 70
     0
102
RTVSPropertyOp52
 70
     0
102
RTVSPropertyOp53
 70
     1
102
RTVSPropertyOp54
 70
     1
102
RTVSPropertyOp55
 70
     1
102
RTVSPropertyOp56
 70
     1
102
RTVSPropertyOp57
 70
     1
102
RTVSPropertyOp58
 70
     1
102
RTVSPropertyOp59
 70
     1
102
RTVSPropertyOp60
 70
     1
102
RTVSPropertyOp61
 70
     1
102
RTVSPropertyOp62
 70
     1
  0
XRECORD
  5
27CC
102
{ACAD_REACTORS
330
27CB
102
}
330
27CB
100
AcDbXrecord
280
     1
102
RTVSPost2010Prop28
280
     0
102
RTVSPost2010PropOp28
 70
     1
102
RTVSPost2010Prop29
280
     1
102
RTVSPost2010PropOp29
 70
     1
102
RTVSPost2010Prop30
280
     1
102
RTVSPost2010PropOp30
 70
     1
102
RTVSPost2010Prop31
280
     0
102
RTVSPost2010PropOp31
 70
     1
102
RTVSPost2010Prop32
280
     0
102
RTVSPost2010PropOp32
 70
     1
102
RTVSPost2010Prop33
280
     0
102
RTVSPost2010PropOp33
 70
     1
102
RTVSPost2010Prop34
280
     0
102
RTVSPost2010PropOp34
 70
     1
102
RTVSPost2010Prop35
280
     0
102
RTVSPost2010PropOp35
 70
     1
102
RTVSPost2010Prop36
280
     0
102
RTVSPost2010PropOp36
 70
     1
102
RTVSPost2010Prop37
 90
       50
102
RTVSPost2010PropOp37
 70
     1
102
RTVSPost2010Prop38
140
0.0
102
RTVSPost2010PropOp38
 70
     1
102
RTVSPost2010Prop39
140
1.0
102
RTVSPost2010PropOp39
 70
     1
102
RTVSPost2010Prop40
 90
        0
102
RTVSPost2010PropOp40
 70
     1
102
RTVSPost2010Prop41ColorIndex
 90
       18
102
RTVSPost2010Prop41ColorRGB
 90
        0
102
RTVSPost2010PropOp41
 70
     1
102
RTVSPost2010Prop42
 90
       50
102
RTVSPost2010PropOp42
 70
     1
102
RTVSPost2010Prop43
 90
        3
102
RTVSPost2010PropOp43
 70
     1
102
RTVSPost2010Prop44ColorIndex
 90
        5
102
RTVSPost2010Prop44ColorRGB
 90
      255
102
RTVSPost2010PropOp44
 70
     1
102
RTVSPost2010Prop45
280
     0
102
RTVSPost2010PropOp45
 70
     1
102
RTVSPost2010Prop46
 90
       50
102
RTVSPost2010PropOp46
 70
     1
102
RTVSPost2010Prop47
 90
       50
102
RTVSPost2010PropOp47
 70
     1
102
RTVSPost2010Prop48
 90
       50
102
RTVSPost2010PropOp48
 70
     1
102
RTVSPost2010Prop49
280
     0
102
RTVSPost2010PropOp49
 70
     1
102
RTVSPost2010Prop50
 90
       50
102
RTVSPost2010PropOp50
 70
     1
102
RTVSPost2010Prop51ColorIndex
 90
      256
102
RTVSPost2010Prop51ColorRGB
 90
-16777216
102
RTVSPost2010PropOp51
 70
     0
102
RTVSPost2010Prop52
140
1.0
102
RTVSPost2010PropOp52
 70
     0
102
RTVSPost2010Prop53
 90
        2
102
RTVSPost2010PropOp53
 70
     1
102
RTVSPost2010Prop54
  1
strokes_ogs.tif
102
RTVSPost2010PropOp54
 70
     1
102
RTVSPost2010Prop55
280
     0
102
RTVSPost2010PropOp55
 70
     1
102
RTVSPost2010Prop56
140
1.0
102
RTVSPost2010PropOp56
 70
     1
102
RTVSPost2010Prop57
140
1.0
102
RTVSPost2010PropOp57
 70
     1
102
RTVSPropertyOp0
 70
     1
102
RTVSPropertyOp1
 70
     1
102
RTVSPropertyOp2
 70
     1
102
RTVSPropertyOp3
 70
     1
102
RTVSPropertyOp4
 70
     1
102
RTVSPropertyOp5
 70
     1
102
RTVSPropertyOp6
 70
     1
102
RTVSPropertyOp7
 70
     1
102
RTVSPropertyOp8
 70
     1
102
RTVSPropertyOp9
 70
     1
102
RTVSPropertyOp10
 70
     1
102
RTVSPropertyOp11
 70
     1
102
RTVSPropertyOp12
 70
     1
102
RTVSPropertyOp13
 70
     1
102
RTVSPropertyOp14
 70
     1
102
RTVSPropertyOp15
 70
     1
102
RTVSPropertyOp16
 70
     1
102
RTVSPropertyOp17
 70
     1
102
RTVSPropertyOp18
 70
     1
102
RTVSPropertyOp19
 70
     1
102
RTVSPropertyOp20
 70
     1
102
RTVSPropertyOp21
 70
     1
102
RTVSPropertyOp22
 70
     1
102
RTVSPropertyOp23
 70
     1
102
RTVSPropertyOp24
 70
     1
102
RTVSPropertyOp25
 70
     1
102
RTVSPropertyOp26
 70
     1
102
RTVSPropertyOp27
 70
     1
102
RTVSPropertyOp28
 70
     1
102
RTVSPropertyOp29
 70
     1
102
RTVSPropertyOp30
 70
     1
102
RTVSPropertyOp31
 70
     1
102
RTVSPropertyOp32
 70
     1
102
RTVSPropertyOp33
 70
     1
102
RTVSPropertyOp34
 70
     1
102
RTVSPropertyOp35
 70
     1
102
RTVSPropertyOp36
 70
     1
102
RTVSPropertyOp37
 70
     1
102
RTVSPropertyOp38
 70
     1
102
RTVSPropertyOp39
 70
     1
102
RTVSPropertyOp40
 70
     1
102
RTVSPropertyOp41
 70
     1
102
RTVSPropertyOp42
 70
     1
102
RTVSPropertyOp43
 70
     1
102
RTVSPropertyOp44
 70
     1
102
RTVSPropertyOp45
 70
     1
102
RTVSPropertyOp46
 70
     1
102
RTVSPropertyOp47
 70
     1
102
RTVSPropertyOp48
 70
     1
102
RTVSPropertyOp49
 70
     1
102
RTVSPropertyOp50
 70
     1
102
RTVSPropertyOp51
 70
     0
102
RTVSPropertyOp52
 70
     0
102
RTVSPropertyOp53
 70
     1
102
RTVSPropertyOp54
 70
     1
102
RTVSPropertyOp55
 70
     1
102
RTVSPropertyOp56
 70
     1
102
RTVSPropertyOp57
 70
     1
102
RTVSPropertyOp58
 70
     1
102
RTVSPropertyOp59
 70
     1
102
RTVSPropertyOp60
 70
     1
102
RTVSPropertyOp61
 70
     1
102
RTVSPropertyOp62
 70
     1
  0
XRECORD
  5
27C0
102
{ACAD_REACTORS
330
27BF
102
}
330
27BF
100
AcDbXrecord
280
     1
102
RTVSPost2010Prop28
280
     0
102
RTVSPost2010PropOp28
 70
     1
102
RTVSPost2010Prop29
280
     1
102
RTVSPost2010PropOp29
 70
     1
102
RTVSPost2010Prop30
280
     1
102
RTVSPost2010PropOp30
 70
     1
102
RTVSPost2010Prop31
280
     0
102
RTVSPost2010PropOp31
 70
     1
102
RTVSPost2010Prop32
280
     0
102
RTVSPost2010PropOp32
 70
     1
102
RTVSPost2010Prop33
280
     0
102
RTVSPost2010PropOp33
 70
     1
102
RTVSPost2010Prop34
280
     0
102
RTVSPost2010PropOp34
 70
     1
102
RTVSPost2010Prop35
280
     0
102
RTVSPost2010PropOp35
 70
     1
102
RTVSPost2010Prop36
280
     0
102
RTVSPost2010PropOp36
 70
     1
102
RTVSPost2010Prop37
 90
       50
102
RTVSPost2010PropOp37
 70
     1
102
RTVSPost2010Prop38
140
0.0
102
RTVSPost2010PropOp38
 70
     1
102
RTVSPost2010Prop39
140
1.0
102
RTVSPost2010PropOp39
 70
     1
102
RTVSPost2010Prop40
 90
        0
102
RTVSPost2010PropOp40
 70
     1
102
RTVSPost2010Prop41ColorIndex
 90
       18
102
RTVSPost2010Prop41ColorRGB
 90
        0
102
RTVSPost2010PropOp41
 70
     1
102
RTVSPost2010Prop42
 90
       50
102
RTVSPost2010PropOp42
 70
     1
102
RTVSPost2010Prop43
 90
        3
102
RTVSPost2010PropOp43
 70
     1
102
RTVSPost2010Prop44ColorIndex
 90
        5
102
RTVSPost2010Prop44ColorRGB
 90
      255
102
RTVSPost2010PropOp44
 70
     1
102
RTVSPost2010Prop45
280
     0
102
RTVSPost2010PropOp45
 70
     1
102
RTVSPost2010Prop46
 90
       50
102
RTVSPost2010PropOp46
 70
     1
102
RTVSPost2010Prop47
 90
       50
102
RTVSPost2010PropOp47
 70
     1
102
RTVSPost2010Prop48
 90
       50
102
RTVSPost2010PropOp48
 70
     1
102
RTVSPost2010Prop49
280
     0
102
RTVSPost2010PropOp49
 70
     1
102
RTVSPost2010Prop50
 90
       50
102
RTVSPost2010PropOp50
 70
     1
102
RTVSPost2010Prop51ColorIndex
 90
      256
102
RTVSPost2010Prop51ColorRGB
 90
-16777216
102
RTVSPost2010PropOp51
 70
     0
102
RTVSPost2010Prop52
140
1.0
102
RTVSPost2010PropOp52
 70
     0
102
RTVSPost2010Prop53
 90
        2
102
RTVSPost2010PropOp53
 70
     1
102
RTVSPost2010Prop54
  1
strokes_ogs.tif
102
RTVSPost2010PropOp54
 70
     1
102
RTVSPost2010Prop55
280
     0
102
RTVSPost2010PropOp55
 70
     1
102
RTVSPost2010Prop56
140
1.0
102
RTVSPost2010PropOp56
 70
     1
102
RTVSPost2010Prop57
140
1.0
102
RTVSPost2010PropOp57
 70
     1
102
RTVSPropertyOp0
 70
     1
102
RTVSPropertyOp1
 70
     1
102
RTVSPropertyOp2
 70
     1
102
RTVSPropertyOp3
 70
     1
102
RTVSPropertyOp4
 70
     1
102
RTVSPropertyOp5
 70
     1
102
RTVSPropertyOp6
 70
     1
102
RTVSPropertyOp7
 70
     1
102
RTVSPropertyOp8
 70
     1
102
RTVSPropertyOp9
 70
     1
102
RTVSPropertyOp10
 70
     1
102
RTVSPropertyOp11
 70
     1
102
RTVSPropertyOp12
 70
     1
102
RTVSPropertyOp13
 70
     1
102
RTVSPropertyOp14
 70
     1
102
RTVSPropertyOp15
 70
     1
102
RTVSPropertyOp16
 70
     1
102
RTVSPropertyOp17
 70
     1
102
RTVSPropertyOp18
 70
     1
102
RTVSPropertyOp19
 70
     1
102
RTVSPropertyOp20
 70
     1
102
RTVSPropertyOp21
 70
     1
102
RTVSPropertyOp22
 70
     1
102
RTVSPropertyOp23
 70
     1
102
RTVSPropertyOp24
 70
     1
102
RTVSPropertyOp25
 70
     1
102
RTVSPropertyOp26
 70
     1
102
RTVSPropertyOp27
 70
     1
102
RTVSPropertyOp28
 70
     1
102
RTVSPropertyOp29
 70
     1
102
RTVSPropertyOp30
 70
     1
102
RTVSPropertyOp31
 70
     1
102
RTVSPropertyOp32
 70
     1
102
RTVSPropertyOp33
 70
     1
102
RTVSPropertyOp34
 70
     1
102
RTVSPropertyOp35
 70
     1
102
RTVSPropertyOp36
 70
     1
102
RTVSPropertyOp37
 70
     1
102
RTVSPropertyOp38
 70
     1
102
RTVSPropertyOp39
 70
     1
102
RTVSPropertyOp40
 70
     1
102
RTVSPropertyOp41
 70
     1
102
RTVSPropertyOp42
 70
     1
102
RTVSPropertyOp43
 70
     1
102
RTVSPropertyOp44
 70
     1
102
RTVSPropertyOp45
 70
     1
102
RTVSPropertyOp46
 70
     1
102
RTVSPropertyOp47
 70
     1
102
RTVSPropertyOp48
 70
     1
102
RTVSPropertyOp49
 70
     1
102
RTVSPropertyOp50
 70
     1
102
RTVSPropertyOp51
 70
     0
102
RTVSPropertyOp52
 70
     0
102
RTVSPropertyOp53
 70
     1
102
RTVSPropertyOp54
 70
     1
102
RTVSPropertyOp55
 70
     1
102
RTVSPropertyOp56
 70
     1
102
RTVSPropertyOp57
 70
     1
102
RTVSPropertyOp58
 70
     1
102
RTVSPropertyOp59
 70
     1
102
RTVSPropertyOp60
 70
     1
102
RTVSPropertyOp61
 70
     1
102
RTVSPropertyOp62
 70
     1
  0
XRECORD
  5
27D8
102
{ACAD_REACTORS
330
27D7
102
}
330
27D7
100
AcDbXrecord
280
     1
102
RTVSPost2010Prop28
280
     0
102
RTVSPost2010PropOp28
 70
     1
102
RTVSPost2010Prop29
280
     1
102
RTVSPost2010PropOp29
 70
     1
102
RTVSPost2010Prop30
280
     1
102
RTVSPost2010PropOp30
 70
     1
102
RTVSPost2010Prop31
280
     0
102
RTVSPost2010PropOp31
 70
     1
102
RTVSPost2010Prop32
280
     0
102
RTVSPost2010PropOp32
 70
     1
102
RTVSPost2010Prop33
280
     0
102
RTVSPost2010PropOp33
 70
     1
102
RTVSPost2010Prop34
280
     0
102
RTVSPost2010PropOp34
 70
     1
102
RTVSPost2010Prop35
280
     0
102
RTVSPost2010PropOp35
 70
     1
102
RTVSPost2010Prop36
280
     0
102
RTVSPost2010PropOp36
 70
     1
102
RTVSPost2010Prop37
 90
       50
102
RTVSPost2010PropOp37
 70
     1
102
RTVSPost2010Prop38
140
0.0
102
RTVSPost2010PropOp38
 70
     1
102
RTVSPost2010Prop39
140
1.0
102
RTVSPost2010PropOp39
 70
     1
102
RTVSPost2010Prop40
 90
        0
102
RTVSPost2010PropOp40
 70
     1
102
RTVSPost2010Prop41ColorIndex
 90
       18
102
RTVSPost2010Prop41ColorRGB
 90
        0
102
RTVSPost2010PropOp41
 70
     1
102
RTVSPost2010Prop42
 90
       50
102
RTVSPost2010PropOp42
 70
     1
102
RTVSPost2010Prop43
 90
        3
102
RTVSPost2010PropOp43
 70
     1
102
RTVSPost2010Prop44ColorIndex
 90
        5
102
RTVSPost2010Prop44ColorRGB
 90
      255
102
RTVSPost2010PropOp44
 70
     1
102
RTVSPost2010Prop45
280
     0
102
RTVSPost2010PropOp45
 70
     1
102
RTVSPost2010Prop46
 90
       50
102
RTVSPost2010PropOp46
 70
     1
102
RTVSPost2010Prop47
 90
       50
102
RTVSPost2010PropOp47
 70
     1
102
RTVSPost2010Prop48
 90
       50
102
RTVSPost2010PropOp48
 70
     1
102
RTVSPost2010Prop49
280
     0
102
RTVSPost2010PropOp49
 70
     1
102
RTVSPost2010Prop50
 90
       50
102
RTVSPost2010PropOp50
 70
     1
102
RTVSPost2010Prop51ColorIndex
 90
      256
102
RTVSPost2010Prop51ColorRGB
 90
-16777216
102
RTVSPost2010PropOp51
 70
     0
102
RTVSPost2010Prop52
140
1.0
102
RTVSPost2010PropOp52
 70
     0
102
RTVSPost2010Prop53
 90
        2
102
RTVSPost2010PropOp53
 70
     1
102
RTVSPost2010Prop54
  1
strokes_ogs.tif
102
RTVSPost2010PropOp54
 70
     1
102
RTVSPost2010Prop55
280
     0
102
RTVSPost2010PropOp55
 70
     1
102
RTVSPost2010Prop56
140
1.0
102
RTVSPost2010PropOp56
 70
     1
102
RTVSPost2010Prop57
140
1.0
102
RTVSPost2010PropOp57
 70
     1
102
RTVSPropertyOp0
 70
     1
102
RTVSPropertyOp1
 70
     1
102
RTVSPropertyOp2
 70
     1
102
RTVSPropertyOp3
 70
     1
102
RTVSPropertyOp4
 70
     1
102
RTVSPropertyOp5
 70
     1
102
RTVSPropertyOp6
 70
     1
102
RTVSPropertyOp7
 70
     1
102
RTVSPropertyOp8
 70
     1
102
RTVSPropertyOp9
 70
     1
102
RTVSPropertyOp10
 70
     1
102
RTVSPropertyOp11
 70
     1
102
RTVSPropertyOp12
 70
     1
102
RTVSPropertyOp13
 70
     1
102
RTVSPropertyOp14
 70
     1
102
RTVSPropertyOp15
 70
     1
102
RTVSPropertyOp16
 70
     1
102
RTVSPropertyOp17
 70
     1
102
RTVSPropertyOp18
 70
     1
102
RTVSPropertyOp19
 70
     1
102
RTVSPropertyOp20
 70
     1
102
RTVSPropertyOp21
 70
     1
102
RTVSPropertyOp22
 70
     1
102
RTVSPropertyOp23
 70
     1
102
RTVSPropertyOp24
 70
     1
102
RTVSPropertyOp25
 70
     1
102
RTVSPropertyOp26
 70
     1
102
RTVSPropertyOp27
 70
     1
102
RTVSPropertyOp28
 70
     1
102
RTVSPropertyOp29
 70
     1
102
RTVSPropertyOp30
 70
     1
102
RTVSPropertyOp31
 70
     1
102
RTVSPropertyOp32
 70
     1
102
RTVSPropertyOp33
 70
     1
102
RTVSPropertyOp34
 70
     1
102
RTVSPropertyOp35
 70
     1
102
RTVSPropertyOp36
 70
     1
102
RTVSPropertyOp37
 70
     1
102
RTVSPropertyOp38
 70
     1
102
RTVSPropertyOp39
 70
     1
102
RTVSPropertyOp40
 70
     1
102
RTVSPropertyOp41
 70
     1
102
RTVSPropertyOp42
 70
     1
102
RTVSPropertyOp43
 70
     1
102
RTVSPropertyOp44
 70
     1
102
RTVSPropertyOp45
 70
     1
102
RTVSPropertyOp46
 70
     1
102
RTVSPropertyOp47
 70
     1
102
RTVSPropertyOp48
 70
     1
102
RTVSPropertyOp49
 70
     1
102
RTVSPropertyOp50
 70
     1
102
RTVSPropertyOp51
 70
     0
102
RTVSPropertyOp52
 70
     0
102
RTVSPropertyOp53
 70
     1
102
RTVSPropertyOp54
 70
     1
102
RTVSPropertyOp55
 70
     1
102
RTVSPropertyOp56
 70
     1
102
RTVSPropertyOp57
 70
     1
102
RTVSPropertyOp58
 70
     1
102
RTVSPropertyOp59
 70
     1
102
RTVSPropertyOp60
 70
     1
102
RTVSPropertyOp61
 70
     1
102
RTVSPropertyOp62
 70
     1
  0
ENDSEC
  0
EOF
