  0
SECTION
  2
HEADER
  9
$ACADVER
  1
AC1015
  9
$ACADMAINTVER
 70
    20
  9
$DWGCODEPAGE
  3
ANSI_932
  9
$INSBASE
 10
0.0
 20
0.0
 30
0.0
  9
$EXTMIN
 10
9.9999975266385
 20
10.0
 30
0.0
  9
$EXTMAX
 10
502.9333510076082
 20
362.9331867384062
 30
0.0
  9
$LIMMIN
 10
0.0000015376083204
 20
-0.0000001931532552
  9
$LIMMAX
 10
555.0000015376081
 20
382.6136361704829
  9
$ORTHOMODE
 70
     1
  9
$REGENMODE
 70
     1
  9
$FILLMODE
 70
     1
  9
$QTEXTMODE
 70
     0
  9
$MIRRTEXT
 70
     1
  9
$LTSCALE
 40
0.3
  9
$ATTMODE
 70
     1
  9
$TEXTSIZE
 40
2.5
  9
$TRACEWID
 40
1.0
  9
$TEXTSTYLE
  7
STANDARD
  9
$CLAYER
  8
0
  9
$CELTYPE
  6
BYLAYER
  9
$CECOLOR
 62
   256
  9
$CELTSCALE
 40
1.0
  9
$DISPSILH
 70
     0
  9
$DIMSCALE
 40
1.0
  9
$DIMASZ
 40
3.0
  9
$DIMEXO
 40
1.0
  9
$DIMDLI
 40
10.0
  9
$DIMRND
 40
0.0
  9
$DIMDLE
 40
0.0
  9
$DIMEXE
 40
1.0
  9
$DIMTP
 40
0.0
  9
$DIMTM
 40
0.0
  9
$DIMTXT
 40
3.2
  9
$DIMCEN
 40
0.0
  9
$DIMTSZ
 40
0.0
  9
$DIMTOL
 70
     0
  9
$DIMLIM
 70
     0
  9
$DIMTIH
 70
     0
  9
$DIMTOH
 70
     0
  9
$DIMSE1
 70
     0
  9
$DIMSE2
 70
     0
  9
$DIMTAD
 70
     3
  9
$DIMZIN
 70
     8
  9
$DIMBLK
  1

  9
$DIMASO
 70
     1
  9
$DIMSHO
 70
     1
  9
$DIMPOST
  1

  9
$DIMAPOST
  1

  9
$DIMALT
 70
     0
  9
$DIMALTD
 70
     2
  9
$DIMALTF
 40
25.4
  9
$DIMLFAC
 40
1.0
  9
$DIMTOFL
 70
     1
  9
$DIMTVP
 40
0.0
  9
$DIMTIX
 70
     0
  9
$DIMSOXD
 70
     0
  9
$DIMSAH
 70
     1
  9
$DIMBLK1
  1
OPEN
  9
$DIMBLK2
  1
OPEN
  9
$DIMSTYLE
  2
STANDARD
  9
$DIMCLRD
 70
     0
  9
$DIMCLRE
 70
     0
  9
$DIMCLRT
 70
     0
  9
$DIMTFAC
 40
1.0
  9
$DIMGAP
 40
1.0
  9
$DIMJUST
 70
     0
  9
$DIMSD1
 70
     0
  9
$DIMSD2
 70
     0
  9
$DIMTOLJ
 70
     1
  9
$DIMTZIN
 70
     0
  9
$DIMALTZ
 70
     0
  9
$DIMALTTZ
 70
     0
  9
$DIMUPT
 70
     0
  9
$DIMDEC
 70
     4
  9
$DIMTDEC
 70
     4
  9
$DIMALTU
 70
     2
  9
$DIMALTTD
 70
     2
  9
$DIMTXSTY
  7
STANDARD
  9
$DIMAUNIT
 70
     0
  9
$DIMADEC
 70
     0
  9
$DIMALTRND
 40
0.0
  9
$DIMAZIN
 70
     0
  9
$DIMDSEP
 70
    46
  9
$DIMATFIT
 70
     3
  9
$DIMFRAC
 70
     0
  9
$DIMLDRBLK
  1
OPEN
  9
$DIMLUNIT
 70
     2
  9
$DIMLWD
 70
    -2
  9
$DIMLWE
 70
    -2
  9
$DIMTMOVE
 70
     0
  9
$LUNITS
 70
     2
  9
$LUPREC
 70
     4
  9
$SKETCHINC
 40
1.0
  9
$FILLETRAD
 40
3.0
  9
$AUNITS
 70
     0
  9
$AUPREC
 70
     0
  9
$MENU
  1
.
  9
$ELEVATION
 40
0.0
  9
$PELEVATION
 40
0.0
  9
$THICKNESS
 40
0.0
  9
$LIMCHECK
 70
     0
  9
$CHAMFERA
 40
10.0
  9
$CHAMFERB
 40
10.0
  9
$CHAMFERC
 40
20.0
  9
$CHAMFERD
 40
0.0
  9
$SKPOLY
 70
     0
  9
$TDCREATE
 40
2453025.418617975
  9
$TDUCREATE
 40
2453025.043617975
  9
$TDUPDATE
 40
2457192.601969560
  9
$TDUUPDATE
 40
2457192.226969560
  9
$TDINDWG
 40
0.4353637269
  9
$TDUSRTIMER
 40
0.4353637037
  9
$USRTIMER
 70
     1
  9
$ANGBASE
 50
0.0
  9
$ANGDIR
 70
     0
  9
$PDMODE
 70
     0
  9
$PDSIZE
 40
0.0
  9
$PLINEWID
 40
0.0
  9
$SPLFRAME
 70
     0
  9
$SPLINETYPE
 70
     6
  9
$SPLINESEGS
 70
     8
  9
$HANDSEED
  5
379E
  9
$SURFTAB1
 70
     6
  9
$SURFTAB2
 70
     6
  9
$SURFTYPE
 70
     6
  9
$SURFU
 70
     6
  9
$SURFV
 70
     6
  9
$UCSBASE
  2

  9
$UCSNAME
  2

  9
$UCSORG
 10
0.0
 20
0.0
 30
0.0
  9
$UCSXDIR
 10
1.0
 20
0.0
 30
0.0
  9
$UCSYDIR
 10
0.0
 20
1.0
 30
0.0
  9
$UCSORTHOREF
  2

  9
$UCSORTHOVIEW
 70
     0
  9
$UCSORGTOP
 10
0.0
 20
0.0
 30
0.0
  9
$UCSORGBOTTOM
 10
0.0
 20
0.0
 30
0.0
  9
$UCSORGLEFT
 10
0.0
 20
0.0
 30
0.0
  9
$UCSORGRIGHT
 10
0.0
 20
0.0
 30
0.0
  9
$UCSORGFRONT
 10
0.0
 20
0.0
 30
0.0
  9
$UCSORGBACK
 10
0.0
 20
0.0
 30
0.0
  9
$PUCSBASE
  2

  9
$PUCSNAME
  2

  9
$PUCSORG
 10
0.0
 20
0.0
 30
0.0
  9
$PUCSXDIR
 10
1.0
 20
0.0
 30
0.0
  9
$PUCSYDIR
 10
0.0
 20
1.0
 30
0.0
  9
$PUCSORTHOREF
  2

  9
$PUCSORTHOVIEW
 70
     0
  9
$PUCSORGTOP
 10
0.0
 20
0.0
 30
0.0
  9
$PUCSORGBOTTOM
 10
0.0
 20
0.0
 30
0.0
  9
$PUCSORGLEFT
 10
0.0
 20
0.0
 30
0.0
  9
$PUCSORGRIGHT
 10
0.0
 20
0.0
 30
0.0
  9
$PUCSORGFRONT
 10
0.0
 20
0.0
 30
0.0
  9
$PUCSORGBACK
 10
0.0
 20
0.0
 30
0.0
  9
$USERI1
 70
     0
  9
$USERI2
 70
     0
  9
$USERI3
 70
     0
  9
$USERI4
 70
     0
  9
$USERI5
 70
     0
  9
$USERR1
 40
0.0
  9
$USERR2
 40
0.0
  9
$USERR3
 40
0.0
  9
$USERR4
 40
0.0
  9
$USERR5
 40
0.0
  9
$WORLDVIEW
 70
     1
  9
$SHADEDGE
 70
     3
  9
$SHADEDIF
 70
    70
  9
$TILEMODE
 70
     1
  9
$MAXACTVP
 70
    48
  9
$PINSBASE
 10
0.0
 20
0.0
 30
0.0
  9
$PLIMCHECK
 70
     0
  9
$PEXTMIN
 10
1.000000000000000E+20
 20
1.000000000000000E+20
 30
1.000000000000000E+20
  9
$PEXTMAX
 10
-1.000000000000000E+20
 20
-1.000000000000000E+20
 30
-1.000000000000000E+20
  9
$PLIMMIN
 10
0.0
 20
0.0
  9
$PLIMMAX
 10
420.0
 20
297.0
  9
$UNITMODE
 70
     0
  9
$VISRETAIN
 70
     1
  9
$PLINEGEN
 70
     0
  9
$PSLTSCALE
 70
     1
  9
$TREEDEPTH
 70
  3020
  9
$CMLSTYLE
  2
STANDARD
  9
$CMLJUST
 70
     0
  9
$CMLSCALE
 40
20.0
  9
$PROXYGRAPHICS
 70
     1
  9
$MEASUREMENT
 70
     0
  9
$CELWEIGHT
370
    -1
  9
$ENDCAPS
280
     0
  9
$JOINSTYLE
280
     0
  9
$LWDISPLAY
290
     0
  9
$INSUNITS
 70
     0
  9
$HYPERLINKBASE
  1

  9
$STYLESHEET
  1

  9
$XEDIT
290
     1
  9
$CEPSNTYPE
380
     0
  9
$PSTYLEMODE
290
     1
  9
$FINGERPRINTGUID
  2
{C0A9DB5E-CDE7-4D84-B263-4C29C554EE8D}
  9
$VERSIONGUID
  2
{E98B31C2-21E6-4C0F-987E-F5375D9BAAC5}
  9
$EXTNAMES
290
     1
  9
$PSVPSCALE
 40
0.0
  9
$OLESTARTUP
290
     0
  0
ENDSEC
  0
SECTION
  2
CLASSES
  0
CLASS
  1
ACDBDICTIONARYWDFLT
  2
AcDbDictionaryWithDefault
  3
ObjectDBX Classes
 90
        0
280
     0
281
     0
  0
CLASS
  1
ACDBPLACEHOLDER
  2
AcDbPlaceHolder
  3
ObjectDBX Classes
 90
        0
280
     0
281
     0
  0
CLASS
  1
LAYOUT
  2
AcDbLayout
  3
ObjectDBX Classes
 90
        0
280
     0
281
     0
  0
CLASS
  1
DICTIONARYVAR
  2
AcDbDictionaryVar
  3
ObjectDBX Classes
 90
        0
280
     0
281
     0
  0
CLASS
  1
MATERIAL
  2
AcDbMaterial
  3
ObjectDBX Classes
 90
     1153
280
     0
281
     0
  0
CLASS
  1
VISUALSTYLE
  2
AcDbVisualStyle
  3
ObjectDBX Classes
 90
     4095
280
     0
281
     0
  0
CLASS
  1
TABLESTYLE
  2
AcDbTableStyle
  3
ObjectDBX Classes
 90
     4095
280
     0
281
     0
  0
CLASS
  1
SCALE
  2
AcDbScale
  3
ObjectDBX Classes
 90
     1153
280
     0
281
     0
  0
CLASS
  1
MLEADERSTYLE
  2
AcDbMLeaderStyle
  3
ACDB_MLEADERSTYLE_CLASS
 90
     4095
280
     0
281
     0
  0
CLASS
  1
ACDBSECTIONVIEWSTYLE
  2
AcDbSectionViewStyle
  3
ObjectDBX Classes
 90
     1025
280
     0
281
     0
  0
CLASS
  1
ACDBDETAILVIEWSTYLE
  2
AcDbDetailViewStyle
  3
ObjectDBX Classes
 90
     1025
280
     0
281
     0
  0
CLASS
  1
CELLSTYLEMAP
  2
AcDbCellStyleMap
  3
ObjectDBX Classes
 90
     1152
280
     0
281
     0
  0
ENDSEC
  0
SECTION
  2
TABLES
  0
TABLE
  2
VPORT
  5
8
330
0
100
AcDbSymbolTable
 70
     1
  0
VPORT
  5
36E8
330
8
100
AcDbSymbolTableRecord
100
AcDbViewportTableRecord
  2
*ACTIVE
 70
     0
 10
0.0
 20
0.0
 11
1.0
 21
1.0
 12
363.3663800889556
 22
186.4610956350071
 13
0.0
 23
0.0
 14
10.0
 24
10.0
 15
10.0
 25
10.0
 16
0.0
 26
0.0
 36
1.0
 17
0.0
 27
0.0
 37
0.0
 40
356.9266903436556
 41
1.899603698811096
 42
50.0
 43
0.0
 44
0.0
 50
0.0
 51
0.0
 71
     0
 72
   100
 73
     1
 74
     0
 75
     0
 76
     0
 77
     0
 78
     0
281
     0
 65
     1
110
0.0
120
0.0
130
0.0
111
1.0
121
0.0
131
0.0
112
0.0
122
1.0
132
0.0
 79
     0
146
0.0
1001
ACAD_NAV_VCDISPLAY
1070
     3
  0
ENDTAB
  0
TABLE
  2
LTYPE
  5
5
330
0
100
AcDbSymbolTable
 70
     4
  0
LTYPE
  5
12
330
5
100
AcDbSymbolTableRecord
100
AcDbLinetypeTableRecord
  2
BYBLOCK
 70
     0
  3

 72
    65
 73
     0
 40
0.0
  0
LTYPE
  5
13
330
5
100
AcDbSymbolTableRecord
100
AcDbLinetypeTableRecord
  2
BYLAYER
 70
     0
  3

 72
    65
 73
     0
 40
0.0
  0
LTYPE
  5
14
330
5
100
AcDbSymbolTableRecord
100
AcDbLinetypeTableRecord
  2
CONTINUOUS
 70
     0
  3
Solid line
 72
    65
 73
     0
 40
0.0
  0
LTYPE
  5
4B
330
5
100
AcDbSymbolTableRecord
100
AcDbLinetypeTableRecord
  2
DASHED
 70
     0
  3
Dashed __ __ __ __ __ __ __ __ __ __ __ __ __ _
 72
    65
 73
     2
 40
19.04999999999999
 49
12.7
 74
     0
 49
-6.349999999999998
 74
     0
  0
LTYPE
  5
4C
330
5
100
AcDbSymbolTableRecord
100
AcDbLinetypeTableRecord
  2
CENTER
 70
     0
  3
Center ____ _ ____ _ ____ _ ____ _ ____ _ ____
 72
    65
 73
     4
 40
50.8
 49
31.75
 74
     0
 49
-6.349999999999998
 74
     0
 49
6.349999999999998
 74
     0
 49
-6.349999999999998
 74
     0
  0
LTYPE
  5
4D
330
5
100
AcDbSymbolTableRecord
100
AcDbLinetypeTableRecord
  2
PHANTOM
 70
     0
  3
Phantom ______  __  __  ______  __  __  ______
 72
    65
 73
     6
 40
63.5
 49
31.75
 74
     0
 49
-6.349999999999998
 74
     0
 49
6.349999999999998
 74
     0
 49
-6.349999999999998
 74
     0
 49
6.349999999999998
 74
     0
 49
-6.349999999999998
 74
     0
  0
ENDTAB
  0
TABLE
  2
LAYER
  5
2
330
0
100
AcDbSymbolTable
 70
     8
  0
LAYER
  5
E
102
{ACAD_XDICTIONARY
360
3742
102
}
330
2
100
AcDbSymbolTableRecord
100
AcDbLayerTableRecord
  2
0
 70
     0
 62
     7
  6
CONTINUOUS
370
    -3
390
36F1
  0
LAYER
  5
4E
102
{ACAD_XDICTIONARY
360
3744
102
}
330
2
100
AcDbSymbolTableRecord
100
AcDbLayerTableRecord
  2
4
 70
     0
 62
     1
  6
CENTER
370
    -3
390
36F1
  0
LAYER
  5
4F
102
{ACAD_XDICTIONARY
360
3746
102
}
330
2
100
AcDbSymbolTableRecord
100
AcDbLayerTableRecord
  2
5
 70
     0
 62
     6
  6
PHANTOM
370
    -3
390
36F1
  0
LAYER
  5
50
102
{ACAD_XDICTIONARY
360
3748
102
}
330
2
100
AcDbSymbolTableRecord
100
AcDbLayerTableRecord
  2
1
 70
     0
 62
     7
  6
CONTINUOUS
370
    -3
390
36F1
  0
LAYER
  5
51
102
{ACAD_XDICTIONARY
360
374A
102
}
330
2
100
AcDbSymbolTableRecord
100
AcDbLayerTableRecord
  2
2
 70
     0
 62
     4
  6
CONTINUOUS
370
    -3
390
36F1
  0
LAYER
  5
52
102
{ACAD_XDICTIONARY
360
374C
102
}
330
2
100
AcDbSymbolTableRecord
100
AcDbLayerTableRecord
  2
3
 70
     0
 62
     2
  6
DASHED
370
    -3
390
36F1
  0
LAYER
  5
53
102
{ACAD_XDICTIONARY
360
374E
102
}
330
2
100
AcDbSymbolTableRecord
100
AcDbLayerTableRecord
  2
6
 70
     0
 62
     5
  6
CONTINUOUS
370
    -3
390
36F1
  0
LAYER
  5
54
102
{ACAD_XDICTIONARY
360
3750
102
}
330
2
100
AcDbSymbolTableRecord
100
AcDbLayerTableRecord
  2
7
 70
     0
 62
     3
  6
CONTINUOUS
370
    -3
390
36F1
  0
ENDTAB
  0
TABLE
  2
STYLE
  5
3
330
0
100
AcDbSymbolTable
 70
     1
  0
STYLE
  5
F
330
3
100
AcDbSymbolTableRecord
100
AcDbTextStyleTableRecord
  2
STANDARD
 70
     0
 40
0.0
 41
1.0
 50
0.0
 71
     0
 42
2.5
  3
simplex.shx
  4

  0
ENDTAB
  0
TABLE
  2
VIEW
  5
6
330
0
100
AcDbSymbolTable
 70
     0
  0
ENDTAB
  0
TABLE
  2
UCS
  5
7
330
0
100
AcDbSymbolTable
 70
     0
  0
ENDTAB
  0
TABLE
  2
APPID
  5
9
330
0
100
AcDbSymbolTable
 70
     7
  0
APPID
  5
10
330
9
100
AcDbSymbolTableRecord
100
AcDbRegAppTableRecord
  2
ACAD
 70
     0
  0
APPID
  5
3E
330
9
100
AcDbSymbolTableRecord
100
AcDbRegAppTableRecord
  2
CONTENTTABDATA
 70
     0
  0
APPID
  5
3F
330
9
100
AcDbSymbolTableRecord
100
AcDbRegAppTableRecord
  2
CONTENTCURRENTTAB
 70
     0
  0
APPID
  5
2029
330
9
100
AcDbSymbolTableRecord
100
AcDbRegAppTableRecord
  2
CONTENTBLOCKICON
 70
     0
  0
APPID
  5
202A
330
9
100
AcDbSymbolTableRecord
100
AcDbRegAppTableRecord
  2
CONTENTBLOCKDESCRIPTION
 70
     0
  0
APPID
  5
375C
330
9
100
AcDbSymbolTableRecord
100
AcDbRegAppTableRecord
  2
ACAD_NAV_VCDISPLAY
 70
     0
  0
APPID
  5
3795
330
9
100
AcDbSymbolTableRecord
100
AcDbRegAppTableRecord
  2
ACAD_MLEADERVER
 70
     0
  0
ENDTAB
  0
TABLE
  2
DIMSTYLE
  5
A
330
0
100
AcDbSymbolTable
 70
     1
100
AcDbDimStyleTable
 71
     0
  0
DIMSTYLE
105
1D
330
A
100
AcDbSymbolTableRecord
100
AcDbDimStyleTableRecord
  2
STANDARD
 70
     0
 41
3.0
 42
1.0
 43
10.0
 44
1.0
 73
     0
 74
     0
 77
     3
 78
     8
140
3.2
141
0.0
147
1.0
172
     1
173
     1
340
F
341
2E
343
2E
344
2E
  0
ENDTAB
  0
TABLE
  2
BLOCK_RECORD
  5
1
330
0
100
AcDbSymbolTable
 70
     1
  0
BLOCK_RECORD
  5
18
102
{ACAD_XDICTIONARY
360
36EB
102
}
330
1
100
AcDbSymbolTableRecord
100
AcDbBlockTableRecord
  2
*MODEL_SPACE
340
373F
  0
BLOCK_RECORD
  5
15
102
{ACAD_XDICTIONARY
360
36E9
102
}
330
1
100
AcDbSymbolTableRecord
100
AcDbBlockTableRecord
  2
*PAPER_SPACE
340
3740
  0
BLOCK_RECORD
  5
2E
330
1
100
AcDbSymbolTableRecord
100
AcDbBlockTableRecord
  2
_OPEN
340
0
  0
ENDTAB
  0
ENDSEC
  0
SECTION
  2
BLOCKS
  0
BLOCK
  5
19
330
18
100
AcDbEntity
  8
0
100
AcDbBlockBegin
  2
*MODEL_SPACE
 70
     0
 10
0.0
 20
0.0
 30
0.0
  3
*MODEL_SPACE
  1

  0
ENDBLK
  5
1A
330
18
100
AcDbEntity
  8
0
100
AcDbBlockEnd
  0
BLOCK
  5
16
330
15
100
AcDbEntity
 67
     1
  8
0
100
AcDbBlockBegin
  2
*PAPER_SPACE
 70
     0
 10
0.0
 20
0.0
 30
0.0
  3
*PAPER_SPACE
  1

  0
ENDBLK
  5
17
330
15
100
AcDbEntity
 67
     1
  8
0
100
AcDbBlockEnd
  0
BLOCK
  5
2F
330
2E
100
AcDbEntity
  8
0
100
AcDbBlockBegin
  2
_OPEN
 70
     0
 10
0.0
 20
0.0
 30
0.0
  3
_OPEN
  1

  0
LINE
  5
30
330
2E
100
AcDbEntity
  8
0
  6
ByBlock
 62
     0
100
AcDbLine
 10
-1.0
 20
0.1666666666666666
 30
0.0
 11
0.0
 21
0.0
 31
0.0
  0
LINE
  5
31
330
2E
100
AcDbEntity
  8
0
  6
ByBlock
 62
     0
100
AcDbLine
 10
0.0
 20
0.0
 30
0.0
 11
-1.0
 21
-0.1666666666666666
 31
0.0
  0
LINE
  5
32
330
2E
100
AcDbEntity
  8
0
  6
ByBlock
 62
     0
100
AcDbLine
 10
0.0
 20
0.0
 30
0.0
 11
-1.0
 21
0.0
 31
0.0
  0
ENDBLK
  5
33
330
2E
100
AcDbEntity
  8
0
100
AcDbBlockEnd
  0
ENDSEC
  0
SECTION
  2
ENTITIES
  0
TEXT
  5
63
330
18
100
AcDbEntity
  8
4
  6
CENTER
 48
0.25
100
AcDbText
 10
23.97950852663849
 20
10.0
 30
0.0
 40
1.399999999999999
  1
4
100
AcDbText
  0
TEXT
  5
64
330
18
100
AcDbEntity
  8
7
  6
Continuous
 48
0.25
100
AcDbText
 10
9.999997526638502
 20
26.0000007607689
 30
0.0
 40
3.0
  1
CODE No.1992
100
AcDbText
  0
TEXT
  5
65
330
18
100
AcDbEntity
  8
7
  6
Continuous
 48
0.25
100
AcDbText
 10
9.999997526638502
 20
18.00000076076889
 30
0.0
 40
3.0
  1
TYPE No.TL-343-1A
100
AcDbText
  0
TEXT
  5
66
330
18
100
AcDbEntity
  8
1
  6
Continuous
 48
0.25
100
AcDbText
 10
9.999997526638502
 20
10.00000076076889
 30
0.0
 40
1.399999999999999
  1
LAYER
100
AcDbText
  0
TEXT
  5
67
330
18
100
AcDbEntity
  8
2
  6
Continuous
 48
0.25
100
AcDbText
 10
19.9795085266385
 20
10.0
 30
0.0
 40
1.399999999999999
  1
2
100
AcDbText
  0
TEXT
  5
68
330
18
100
AcDbEntity
  8
3
  6
DASHED
 48
0.25
100
AcDbText
 10
21.9795085266385
 20
10.0
 30
0.0
 40
1.399999999999999
  1
3
100
AcDbText
  0
TEXT
  5
69
330
18
100
AcDbEntity
  8
1
  6
Continuous
 48
0.25
100
AcDbText
 10
17.9795085266385
 20
10.0
 30
0.0
 40
1.399999999999999
  1
1
100
AcDbText
  0
TEXT
  5
6A
330
18
100
AcDbEntity
  8
5
  6
PHANTOM
 48
0.25
100
AcDbText
 10
25.9795085266385
 20
10.0
 30
0.0
 40
1.399999999999999
  1
5
100
AcDbText
  0
TEXT
  5
6B
330
18
100
AcDbEntity
  8
6
  6
Continuous
 48
0.25
100
AcDbText
 10
27.9795085266385
 20
10.0
 30
0.0
 40
1.399999999999999
  1
6
100
AcDbText
  0
TEXT
  5
6C
330
18
100
AcDbEntity
  8
7
  6
Continuous
 48
0.25
100
AcDbText
 10
29.9795085266385
 20
10.0
 30
0.0
 40
1.399999999999999
  1
7
100
AcDbText
  0
LINE
  5
6A8
330
18
100
AcDbEntity
  8
4
  6
CENTER
100
AcDbLine
 10
186.4573792537885
 20
54.83024717270418
 30
0.0
 11
260.6891682803702
 21
54.8302471728018
 31
0.0
  0
LINE
  5
6A9
330
18
100
AcDbEntity
  8
1
  6
Continuous
100
AcDbLine
 10
241.1409811528101
 20
75.83024717275344
 30
0.0
 11
256.9409846483754
 21
75.83024717274224
 31
0.0
  0
LINE
  5
6AA
330
18
100
AcDbEntity
  8
1
  6
Continuous
100
AcDbLine
 10
241.140981152803
 20
33.8302471727535
 30
0.0
 11
256.9409846483754
 21
33.83024717274224
 31
0.0
  0
LINE
  5
6AB
330
18
100
AcDbEntity
  8
1
  6
Continuous
100
AcDbLine
 10
189.9412071061526
 20
76.33024717311457
 30
0.0
 11
256.3409811528413
 21
76.33024717295395
 31
0.0
  0
ARC
  5
6AC
330
18
100
AcDbEntity
  8
1
  6
Continuous
100
AcDbCircle
 10
214.24109668014
 20
134.5326157573269
 30
0.0
 40
101.5
100
AcDbArc
 50
69.87930435694313
 51
92.34984984895405
  0
LINE
  5
6AD
330
18
100
AcDbEntity
  8
1
  6
Continuous
100
AcDbLine
 10
252.140981153041
 20
218.3169239718898
 30
0.0
 11
194.1412071061872
 21
218.3169239718898
 31
0.0
  0
LINE
  5
6AE
330
18
100
AcDbEntity
  8
1
  6
Continuous
100
AcDbLine
 10
252.1409846483758
 20
217.7169239718898
 30
0.0
 11
236.1409846483737
 21
217.7169239718887
 31
0.0
  0
LINE
  5
6AF
330
18
100
AcDbEntity
  8
1
  6
Continuous
100
AcDbLine
 10
252.1409846483723
 20
217.7169317392921
 30
0.0
 11
236.1409846483764
 21
217.7169179305758
 31
0.0
  0
LINE
  5
6B0
330
18
100
AcDbEntity
  8
1
  6
Continuous
100
AcDbLine
 10
189.9412071061385
 20
33.33024717311457
 30
0.0
 11
256.3409811527558
 21
33.33024717295393
 31
0.0
  0
LINE
  5
6B1
330
18
100
AcDbEntity
  8
1
  6
Continuous
100
AcDbLine
 10
189.9412071061531
 20
77.83024717311457
 30
0.0
 11
256.3409811528444
 21
77.83024717295404
 31
0.0
  0
LINE
  5
6B2
330
18
100
AcDbEntity
  8
1
  6
Continuous
100
AcDbLine
 10
189.9412071061381
 20
31.83024717311457
 30
0.0
 11
256.3409811527528
 21
31.83024717295404
 31
0.0
  0
LINE
  5
6B3
330
18
100
AcDbEntity
  8
4
  6
CENTER
100
AcDbLine
 10
248.7909811527864
 20
46.58024717270096
 30
0.0
 11
237.4909811527864
 21
46.58024717270096
 31
0.0
  0
CIRCLE
  5
6B4
330
18
100
AcDbEntity
  8
1
  6
Continuous
100
AcDbCircle
 10
243.1409811527864
 20
46.58024717270096
 30
0.0
 40
2.149999999999999
  0
LINE
  5
6B5
330
18
100
AcDbEntity
  8
4
  6
CENTER
100
AcDbLine
 10
248.7909811527864
 20
63.08024717270098
 30
0.0
 11
237.4909811527865
 21
63.08024717270098
 31
0.0
  0
CIRCLE
  5
6B6
330
18
100
AcDbEntity
  8
1
  6
Continuous
100
AcDbCircle
 10
243.1409811527866
 20
63.08024717270098
 30
0.0
 40
2.149999999999999
  0
LINE
  5
6BA
330
18
100
AcDbEntity
  8
1
  6
Continuous
100
AcDbLine
 10
56.49368199290582
 20
149.7169317393649
 30
0.0
 11
56.49368199300109
 21
220.2669239718898
 31
0.0
  0
LINE
  5
6BB
330
18
100
AcDbEntity
  8
1
  6
Continuous
100
AcDbLine
 10
96.49368199290579
 20
149.7169317393649
 30
0.0
 11
96.49368199300113
 21
220.2669239718898
 31
0.0
  0
ARC
  5
6BC
330
18
100
AcDbEntity
  8
1
  6
Continuous
100
AcDbCircle
 10
241.6409811530292
 20
171.2957157676513
 30
0.0
 40
50.0
100
AcDbArc
 50
180.0
 51
203.6819072912065
  0
ARC
  5
6BD
330
18
100
AcDbEntity
  8
1
  6
Continuous
100
AcDbCircle
 10
249.7784622586678
 20
142.7395615837134
 30
0.0
 40
50.0
100
AcDbArc
 50
144.4801945393986
 51
169.5998723654295
  0
LINE
  5
6BE
330
18
100
AcDbEntity
  8
1
  6
Continuous
100
AcDbLine
 10
210.6409811530388
 20
159.71693173929
 30
0.0
 11
210.6409811530386
 21
218.3169239718898
 31
0.0
  0
LINE
  5
6BF
330
18
100
AcDbEntity
  8
1
  6
Continuous
100
AcDbLine
 10
208.6409811530388
 20
159.71693173929
 30
0.0
 11
208.6409811530388
 21
171.1597594768319
 31
0.0
  0
LINE
  5
6C2
330
18
100
AcDbEntity
  8
1
  6
Continuous
100
AcDbLine
 10
93.49368199290807
 20
149.7169317393649
 30
0.0
 11
59.49368199275742
 21
149.7169317393649
 31
0.0
  0
LINE
  5
6C5
330
18
100
AcDbEntity
  8
1
  6
Continuous
100
AcDbLine
 10
59.71171295914182
 20
344.9331610175732
 30
0.0
 11
63.51050563774503
 21
344.9331610175732
 31
0.0
  0
LINE
  5
6C6
330
18
100
AcDbEntity
  8
1
  6
Continuous
100
AcDbLine
 10
59.71171295914172
 20
326.9331610175732
 30
0.0
 11
63.51050563774503
 21
326.9331610175732
 31
0.0
  0
LINE
  5
6C7
330
18
100
AcDbEntity
  8
1
  6
Continuous
100
AcDbLine
 10
59.71171295914182
 20
345.9331610175731
 30
0.0
 11
63.51050563774503
 21
345.9331610175731
 31
0.0
  0
LINE
  5
6C8
330
18
100
AcDbEntity
  8
1
  6
Continuous
100
AcDbLine
 10
59.71171295914172
 20
325.9331610175732
 30
0.0
 11
63.51050563774503
 21
325.9331610175732
 31
0.0
  0
LINE
  5
6CD
330
18
100
AcDbEntity
  8
1
  6
Continuous
100
AcDbLine
 10
59.66576174649219
 20
334.7331610175732
 30
0.0
 11
59.66576174649219
 21
337.1331610175731
 31
0.0
  0
LINE
  5
6D1
330
18
100
AcDbEntity
  8
1
  6
Continuous
100
AcDbLine
 10
55.66576174649231
 20
333.226862903917
 30
0.0
 11
59.71171295914178
 21
326.9331610175733
 31
0.0
  0
LINE
  5
6D2
330
18
100
AcDbEntity
  8
1
  6
Continuous
100
AcDbLine
 10
54.82458327111576
 20
332.6861053126034
 30
0.0
 11
58.87053448376525
 21
326.3924034262597
 31
0.0
  0
ARC
  5
6D9
330
18
100
AcDbEntity
  8
1
  6
Continuous
100
AcDbCircle
 10
59.71171295914172
 20
326.9331610175732
 30
0.0
 40
1.0
100
AcDbArc
 50
212.7352262721071
 51
270.0
  0
ARC
  5
6DE
330
18
100
AcDbEntity
  8
1
  6
Continuous
100
AcDbCircle
 10
55.66576174649219
 20
333.2268629039168
 30
0.0
 40
1.0
100
AcDbArc
 50
180.0
 51
212.7352262721071
  0
LINE
  5
6E0
330
18
100
AcDbEntity
  8
1
  6
Continuous
100
AcDbLine
 10
57.4657617464922
 20
333.9331610175731
 30
0.0
 11
58.86576174649224
 21
333.9331610175731
 31
0.0
  0
ARC
  5
6E2
330
18
100
AcDbEntity
  8
1
  6
Continuous
100
AcDbCircle
 10
58.86576174649224
 20
334.7331610175732
 30
0.0
 40
0.8
100
AcDbArc
 50
270.0
 51
0.0
  0
ARC
  5
6E3
330
18
100
AcDbEntity
  8
1
  6
Continuous
100
AcDbCircle
 10
57.4657617464922
 20
334.7331610175732
 30
0.0
 40
0.8
100
AcDbArc
 50
180.2961111740299
 51
270.0
  0
LINE
  5
6E9
330
18
100
AcDbEntity
  8
1
  6
Continuous
100
AcDbLine
 10
55.66576174649231
 20
338.6394591312295
 30
0.0
 11
59.71171295914182
 21
344.9331610175732
 31
0.0
  0
LINE
  5
6EA
330
18
100
AcDbEntity
  8
1
  6
Continuous
100
AcDbLine
 10
54.8245832711157
 20
339.1802167225431
 30
0.0
 11
58.87053448376525
 21
345.4739186088867
 31
0.0
  0
LINE
  5
6EC
330
18
100
AcDbEntity
  8
1
  6
Continuous
100
AcDbLine
 10
55.66576174649219
 20
333.2268629039171
 30
0.0
 11
55.66576174649219
 21
338.6394591312294
 31
0.0
  0
LINE
  5
6ED
330
18
100
AcDbEntity
  8
1
  6
Continuous
100
AcDbLine
 10
54.66576174649219
 20
333.2268629039168
 30
0.0
 11
54.66576174649219
 21
338.6394591312294
 31
0.0
  0
ARC
  5
6EE
330
18
100
AcDbEntity
  8
1
  6
Continuous
100
AcDbCircle
 10
55.66576174649219
 20
338.6394591312294
 30
0.0
 40
1.0
100
AcDbArc
 50
147.2647737278922
 51
180.0
  0
ARC
  5
6F3
330
18
100
AcDbEntity
  8
1
  6
Continuous
100
AcDbCircle
 10
58.86576174649224
 20
337.1331610175731
 30
0.0
 40
0.8
100
AcDbArc
 50
0.0
 51
90.0
  0
ARC
  5
6F4
330
18
100
AcDbEntity
  8
1
  6
Continuous
100
AcDbCircle
 10
57.4657617464922
 20
337.1331610175731
 30
0.0
 40
0.8
100
AcDbArc
 50
90.0
 51
180.0
  0
LINE
  5
6F5
330
18
100
AcDbEntity
  8
1
  6
Continuous
100
AcDbLine
 10
56.66576174649218
 20
334.7290265440272
 30
0.0
 11
56.66576174649218
 21
337.1331610175731
 31
0.0
  0
LINE
  5
6F6
330
18
100
AcDbEntity
  8
1
  6
Continuous
100
AcDbLine
 10
57.4657617464922
 20
337.9331610175731
 30
0.0
 11
58.86576174649224
 21
337.9331610175731
 31
0.0
  0
ARC
  5
6F7
330
18
100
AcDbEntity
  8
1
  6
Continuous
100
AcDbCircle
 10
59.71171295914182
 20
344.9331610175732
 30
0.0
 40
1.0
100
AcDbArc
 50
90.0
 51
147.2647737278928
  0
ARC
  5
6F8
330
18
100
AcDbEntity
  8
1
  6
Continuous
100
AcDbCircle
 10
57.99368199275861
 20
149.7169317394699
 30
0.0
 40
1.499999999998849
100
AcDbArc
 50
359.9999999996779
 51
89.99999999967794
  0
LINE
  5
6F9
330
18
100
AcDbEntity
  8
1
  6
Continuous
100
AcDbLine
 10
57.99368199276706
 20
151.2169317394687
 30
0.0
 11
57.9936819927578
 21
149.7169317394707
 31
0.0
  0
LINE
  5
6FA
330
18
100
AcDbEntity
  8
1
  6
Continuous
100
AcDbLine
 10
56.49368199290582
 20
149.7169317393649
 30
0.0
 11
57.99368199290811
 21
149.7169317393649
 31
0.0
  0
LINE
  5
6FB
330
18
100
AcDbEntity
  8
1
  6
Continuous
100
AcDbLine
 10
57.99368199276706
 20
151.2169317394688
 30
0.0
 11
56.49368199276622
 21
151.2169317394756
 31
0.0
  0
LINE
  5
6FD
330
18
100
AcDbEntity
  8
1
  6
Continuous
100
AcDbLine
 10
60.1657617464876
 20
328.9331610175593
 30
0.0
 11
60.1657617464741
 21
342.9331610175593
 31
0.0
  0
LINE
  5
6FE
330
18
100
AcDbEntity
  8
1
  6
Continuous
100
AcDbLine
 10
66.66576174648444
 20
341.8331610175579
 30
0.0
 11
66.66576174645939
 21
330.0331610175765
 31
0.0
  0
LINE
  5
700
330
18
100
AcDbEntity
  8
1
  6
Continuous
100
AcDbLine
 10
86.46576174649228
 20
339.4331610174937
 30
0.0
 11
86.46576174649228
 21
332.4331610174937
 31
0.0
  0
LINE
  5
701
330
18
100
AcDbEntity
  8
1
  6
Continuous
100
AcDbLine
 10
75.86576174649223
 20
339.4331610174937
 30
0.0
 11
75.86576174649223
 21
332.4331610174937
 31
0.0
  0
LINE
  5
702
330
18
100
AcDbEntity
  8
1
  6
Continuous
100
AcDbLine
 10
75.6657617464922
 20
339.2331610174937
 30
0.0
 11
75.6657617464922
 21
332.6331610174937
 31
0.0
  0
LINE
  5
703
330
18
100
AcDbEntity
  8
1
  6
Continuous
100
AcDbLine
 10
69.16576174649221
 20
337.170092705284
 30
0.0
 11
69.16576174649221
 21
334.6962293299134
 31
0.0
  0
LINE
  5
704
330
18
100
AcDbEntity
  8
1
  6
Continuous
100
AcDbLine
 10
86.66576174649225
 20
339.2331610174937
 30
0.0
 11
86.66576174649225
 21
332.6331610174936
 31
0.0
  0
ARC
  5
706
330
18
100
AcDbEntity
  8
1
  6
Continuous
100
AcDbCircle
 10
71.76576174649222
 20
335.9331610175731
 30
0.0
 40
4.299999999999998
100
AcDbArc
 50
90.0
 51
270.0
  0
LINE
  5
707
330
18
100
AcDbEntity
  8
1
  6
Continuous
100
AcDbLine
 10
68.76576174649222
 20
335.1331610175732
 30
0.0
 11
68.76576174649222
 21
336.7331610175732
 31
0.0
  0
LINE
  5
70C
330
18
100
AcDbEntity
  8
1
  6
Continuous
100
AcDbLine
 10
86.46576174649228
 20
332.4331610174937
 30
0.0
 11
75.86576174649223
 21
332.4331610174937
 31
0.0
  0
LINE
  5
716
330
18
100
AcDbEntity
  8
1
  6
Continuous
100
AcDbLine
 10
72.66576174649221
 20
329.8461970521746
 30
0.0
 11
63.51050563774498
 21
326.9331610175732
 31
0.0
  0
LINE
  5
717
330
18
100
AcDbEntity
  8
1
  6
Continuous
100
AcDbLine
 10
72.57537271832297
 20
328.768037235883
 30
0.0
 11
63.81370929502196
 21
325.9802352375599
 31
0.0
  0
LINE
  5
718
330
18
100
AcDbEntity
  8
1
  6
Continuous
100
AcDbLine
 10
63.16576174648659
 20
330.0331610175697
 30
0.0
 11
63.16576174648765
 21
328.9331610175617
 31
0.0
  0
LINE
  5
719
330
18
100
AcDbEntity
  8
1
  6
Continuous
100
AcDbLine
 10
60.1657617464876
 20
328.9331610175593
 30
0.0
 11
63.16576174648765
 21
328.9331610175616
 31
0.0
  0
ARC
  5
71A
330
18
100
AcDbEntity
  8
1
  6
Continuous
100
AcDbCircle
 10
63.51050563774503
 20
326.9331610175732
 30
0.0
 40
1.0
100
AcDbArc
 50
270.0
 51
287.6501242199296
  0
LINE
  5
71E
330
18
100
AcDbEntity
  8
1
  6
Continuous
100
AcDbLine
 10
66.66576174645939
 20
330.0331610175765
 30
0.0
 11
63.16576174648659
 21
330.0331610175697
 31
0.0
  0
ARC
  5
71F
330
18
100
AcDbEntity
  8
1
  6
Continuous
100
AcDbCircle
 10
71.66576174649221
 20
331.6268145759227
 30
0.0
 40
3.0
100
AcDbArc
 50
287.6501242199304
 51
0.0
  0
LINE
  5
723
330
18
100
AcDbEntity
  8
1
  6
Continuous
100
AcDbLine
 10
75.6657617464922
 20
333.2331610175941
 30
0.0
 11
71.56576174648927
 21
333.2331610175987
 31
0.0
  0
LINE
  5
724
330
18
100
AcDbEntity
  8
1
  6
Continuous
100
AcDbLine
 10
71.76576174649222
 20
331.6331610175732
 30
0.0
 11
72.66576174649242
 21
331.6331610175721
 31
0.0
  0
LINE
  5
725
330
18
100
AcDbEntity
  8
1
  6
Continuous
100
AcDbLine
 10
72.16576174649221
 20
332.8331610175732
 30
0.0
 11
72.16576174649221
 21
333.233161017598
 31
0.0
  0
ARC
  5
726
330
18
100
AcDbEntity
  8
1
  6
Continuous
100
AcDbCircle
 10
71.56576174649226
 20
335.9331610175987
 30
0.0
 40
2.7
100
AcDbArc
 50
207.2660444507323
 51
270.0
  0
ARC
  5
727
330
18
100
AcDbEntity
  8
1
  6
Continuous
100
AcDbCircle
 10
71.76075757286667
 20
335.9331610175731
 30
0.0
 40
3.1
100
AcDbArc
 50
194.9552483166433
 51
270.0
  0
LINE
  5
728
330
18
100
AcDbEntity
  8
1
  6
Continuous
100
AcDbLine
 10
71.76075757286667
 20
332.8331610175732
 30
0.0
 11
72.16576174649221
 21
332.8331610175732
 31
0.0
  0
LINE
  5
72B
330
18
100
AcDbEntity
  8
1
  6
Continuous
100
AcDbLine
 10
74.66576174649221
 20
331.6268145759227
 30
0.0
 11
74.66576174649221
 21
333.2331610175953
 31
0.0
  0
LINE
  5
72C
330
18
100
AcDbEntity
  8
1
  6
Continuous
100
AcDbLine
 10
75.86576174649221
 20
332.4331610174938
 30
0.0
 11
75.6657617464922
 21
332.6331610174938
 31
0.0
  0
LINE
  5
72D
330
18
100
AcDbEntity
  8
1
  6
Continuous
100
AcDbLine
 10
72.66576174649221
 20
329.8461970521745
 30
0.0
 11
72.66576174649221
 21
331.6331610175721
 31
0.0
  0
LINE
  5
73E
330
18
100
AcDbEntity
  8
1
  6
Continuous
100
AcDbLine
 10
86.66576174649213
 20
332.6331610174936
 30
0.0
 11
86.46576174649217
 21
332.4331610174937
 31
0.0
  0
LINE
  5
73F
330
18
100
AcDbEntity
  8
1
  6
Continuous
100
AcDbLine
 10
79.06576174649226
 20
339.4331610174937
 30
0.0
 11
75.86576174649223
 21
339.4331610174937
 31
0.0
  0
LINE
  5
740
330
18
100
AcDbEntity
  8
1
  6
Continuous
100
AcDbLine
 10
74.86576174649224
 20
339.5331610175732
 30
0.0
 11
79.36576174649224
 21
339.5331610175732
 31
0.0
  0
LINE
  5
741
330
18
100
AcDbEntity
  8
1
  6
Continuous
100
AcDbLine
 10
74.66576174649225
 20
342.4331610175731
 30
0.0
 11
79.56576174649225
 21
342.4331610175731
 31
0.0
  0
LINE
  5
742
330
18
100
AcDbEntity
  8
1
  6
Continuous
100
AcDbLine
 10
72.66576174649221
 20
342.0201249829718
 30
0.0
 11
63.51050563774503
 21
344.9331610175732
 31
0.0
  0
LINE
  5
743
330
18
100
AcDbEntity
  8
1
  6
Continuous
100
AcDbLine
 10
74.6657617464923
 20
342.4331610175732
 30
0.0
 11
63.81370929502202
 21
345.8860867975865
 31
0.0
  0
LINE
  5
744
330
18
100
AcDbEntity
  8
1
  6
Continuous
100
AcDbLine
 10
66.66576174648444
 20
341.8331610175579
 30
0.0
 11
63.16576174647514
 21
341.8331610175566
 31
0.0
  0
LINE
  5
745
330
18
100
AcDbEntity
  8
1
  6
Continuous
100
AcDbLine
 10
63.16576174647408
 20
342.9331610175617
 30
0.0
 11
63.16576174647514
 21
341.8331610175566
 31
0.0
  0
LINE
  5
746
330
18
100
AcDbEntity
  8
1
  6
Continuous
100
AcDbLine
 10
60.1657617464741
 20
342.9331610175593
 30
0.0
 11
63.16576174647408
 21
342.9331610175617
 31
0.0
  0
ARC
  5
747
330
18
100
AcDbEntity
  8
1
  6
Continuous
100
AcDbCircle
 10
63.51050563774503
 20
344.9331610175732
 30
0.0
 40
1.0
100
AcDbArc
 50
72.34987578007043
 51
90.0
  0
LINE
  5
748
330
18
100
AcDbEntity
  8
1
  6
Continuous
100
AcDbLine
 10
72.66576174649221
 20
340.2331610175725
 30
0.0
 11
72.66576174649221
 21
342.0201249829718
 31
0.0
  0
LINE
  5
749
330
18
100
AcDbEntity
  8
1
  6
Continuous
100
AcDbLine
 10
75.66576174649225
 20
338.6331610175941
 30
0.0
 11
71.56576174649524
 21
338.6331610175987
 31
0.0
  0
LINE
  5
74A
330
18
100
AcDbEntity
  8
1
  6
Continuous
100
AcDbLine
 10
71.76576174649222
 20
340.2331610175731
 30
0.0
 11
72.66576174649244
 21
340.2331610175725
 31
0.0
  0
LINE
  5
74B
330
18
100
AcDbEntity
  8
1
  6
Continuous
100
AcDbLine
 10
72.16576174649221
 20
338.6331610175981
 30
0.0
 11
72.16576174649221
 21
339.0331610175731
 31
0.0
  0
ARC
  5
74C
330
18
100
AcDbEntity
  8
1
  6
Continuous
100
AcDbCircle
 10
71.56576174649226
 20
335.9331610175987
 30
0.0
 40
2.7
100
AcDbArc
 50
90.0
 51
152.7339555492675
  0
ARC
  5
74D
330
18
100
AcDbEntity
  8
1
  6
Continuous
100
AcDbCircle
 10
71.76075757286667
 20
335.9331610175731
 30
0.0
 40
3.1
100
AcDbArc
 50
90.0
 51
165.0447516833566
  0
LINE
  5
74E
330
18
100
AcDbEntity
  8
1
  6
Continuous
100
AcDbLine
 10
71.76075757286667
 20
339.0331610175731
 30
0.0
 11
72.16576174649221
 21
339.0331610175731
 31
0.0
  0
LINE
  5
74F
330
18
100
AcDbEntity
  8
1
  6
Continuous
100
AcDbLine
 10
74.66576174649225
 20
338.6331610175953
 30
0.0
 11
74.66576174649225
 21
339.3331610175732
 31
0.0
  0
LINE
  5
750
330
18
100
AcDbEntity
  8
1
  6
Continuous
100
AcDbLine
 10
75.66576174649212
 20
339.2331610174939
 30
0.0
 11
75.86576174649213
 21
339.4331610174937
 31
0.0
  0
ARC
  5
751
330
18
100
AcDbEntity
  8
1
  6
Continuous
100
AcDbCircle
 10
74.86576174649224
 20
339.3331610175732
 30
0.0
 40
0.2
100
AcDbArc
 50
90.0
 51
180.0
  0
LINE
  5
752
330
18
100
AcDbEntity
  8
1
  6
Continuous
100
AcDbLine
 10
85.76576174649225
 20
339.3769053460709
 30
0.0
 11
79.06576174649226
 21
339.3769053460709
 31
0.0
  0
LINE
  5
753
330
18
100
AcDbEntity
  8
1
  6
Continuous
100
AcDbLine
 10
84.56576174649226
 20
340.1331610175732
 30
0.0
 11
85.96576174649227
 21
340.1331610175732
 31
0.0
  0
LINE
  5
754
330
18
100
AcDbEntity
  8
1
  6
Continuous
100
AcDbLine
 10
80.76576174649225
 20
339.3769053460709
 30
0.0
 11
80.76576174649225
 21
341.2331610175732
 31
0.0
  0
LINE
  5
755
330
18
100
AcDbEntity
  8
1
  6
Continuous
100
AcDbLine
 10
79.06576174649226
 20
339.4331610174937
 30
0.0
 11
79.06576174649226
 21
339.3769053460709
 31
0.0
  0
LINE
  5
756
330
18
100
AcDbEntity
  8
1
  6
Continuous
100
AcDbLine
 10
79.36576174649224
 20
339.3769053460709
 30
0.0
 11
79.36576174649224
 21
339.5331610175732
 31
0.0
  0
LINE
  5
757
330
18
100
AcDbEntity
  8
1
  6
Continuous
100
AcDbLine
 10
84.56576174649226
 20
339.3769053460709
 30
0.0
 11
84.56576174649226
 21
340.1331610175732
 31
0.0
  0
ARC
  5
758
330
18
100
AcDbEntity
  8
1
  6
Continuous
100
AcDbCircle
 10
79.56576174649225
 20
341.2331610175732
 30
0.0
 40
1.199999999999999
100
AcDbArc
 50
0.0
 51
90.0
  0
LINE
  5
759
330
18
100
AcDbEntity
  8
1
  6
Continuous
100
AcDbLine
 10
85.76576174649225
 20
339.4331610174938
 30
0.0
 11
85.76576174649225
 21
339.376905346071
 31
0.0
  0
LINE
  5
75A
330
18
100
AcDbEntity
  8
1
  6
Continuous
100
AcDbLine
 10
86.46576174649228
 20
339.4331610174937
 30
0.0
 11
85.76576174649225
 21
339.4331610174937
 31
0.0
  0
LINE
  5
75B
330
18
100
AcDbEntity
  8
1
  6
Continuous
100
AcDbLine
 10
86.66576174649213
 20
339.2331610174939
 30
0.0
 11
86.46576174649217
 21
339.4331610174937
 31
0.0
  0
LINE
  5
75C
330
18
100
AcDbEntity
  8
1
  6
Continuous
100
AcDbLine
 10
85.96576174649227
 20
339.5831610175732
 30
0.0
 11
85.96576174649227
 21
340.1331610175732
 31
0.0
  0
LINE
  5
75D
330
18
100
AcDbEntity
  8
1
  6
Continuous
100
AcDbLine
 10
85.76576174649233
 20
339.4831610175732
 30
0.0
 11
85.96576174649234
 21
339.5831610175733
 31
0.0
  0
LINE
  5
75E
330
18
100
AcDbEntity
  8
1
  6
Continuous
100
AcDbLine
 10
85.76576174649225
 20
339.3769053460709
 30
0.0
 11
85.76576174649225
 21
339.4831610175732
 31
0.0
  0
LINE
  5
761
330
18
100
AcDbEntity
  8
1
  6
Continuous
100
AcDbLine
 10
96.49368199290579
 20
149.7169317393649
 30
0.0
 11
94.99368199290808
 21
149.7169317393649
 31
0.0
  0
LINE
  5
762
330
18
100
AcDbEntity
  8
1
  6
Continuous
100
AcDbLine
 10
94.99368199290701
 20
151.2169317393648
 30
0.0
 11
96.4936819929078
 21
151.2169317393631
 31
0.0
  0
LINE
  5
763
330
18
100
AcDbEntity
  8
1
  6
Continuous
100
AcDbLine
 10
94.99368199290701
 20
151.2169317393648
 30
0.0
 11
94.99368199290779
 21
149.7169317393668
 31
0.0
  0
ARC
  5
764
330
18
100
AcDbEntity
  8
1
  6
Continuous
100
AcDbCircle
 10
94.99368199290701
 20
149.7169317393659
 30
0.0
 40
1.499999999998849
100
AcDbArc
 50
90.0
 51
180.0
  0
LINE
  5
766
330
18
100
AcDbEntity
  8
1
  6
Continuous
100
AcDbLine
 10
189.9412071061531
 20
77.83024717311457
 30
0.0
 11
189.9412071061526
 21
76.33024717311457
 31
0.0
  0
ARC
  5
767
330
18
100
AcDbEntity
  8
1
  6
Continuous
100
AcDbCircle
 10
241.1409811528066
 20
70.8302471727535
 30
0.0
 40
5.0
100
AcDbArc
 50
90.0
 51
180.0
  0
LINE
  5
768
330
18
100
AcDbEntity
  8
4
  6
CENTER
100
AcDbLine
 10
194.1412036106187
 20
27.68744193677457
 30
0.0
 11
194.1412036106187
 21
82.01428175187857
 31
0.0
  0
LINE
  5
769
330
18
100
AcDbEntity
  8
4
  6
CENTER
100
AcDbLine
 10
216.1409811530926
 20
80.83024717305125
 30
0.0
 11
216.1409811530925
 21
28.83024717305124
 31
0.0
  0
LINE
  5
76A
330
18
100
AcDbEntity
  8
1
  6
Continuous
100
AcDbLine
 10
194.6409811531564
 20
73.33024717266017
 30
0.0
 11
209.6409811531922
 21
73.33024717265931
 31
0.0
  0
LINE
  5
76B
330
18
100
AcDbEntity
  8
1
  6
Continuous
100
AcDbLine
 10
194.6409811532281
 20
36.33024717266311
 30
0.0
 11
209.6409811531922
 21
36.33024717266311
 31
0.0
  0
LINE
  5
76C
330
18
100
AcDbEntity
  8
1
  6
Continuous
100
AcDbLine
 10
193.1409811531923
 20
34.83024717276077
 30
0.0
 11
220.6409811531017
 21
34.83024717278749
 31
0.0
  0
LINE
  5
76D
330
18
100
AcDbEntity
  8
1
  6
Continuous
100
AcDbLine
 10
193.1409811531922
 20
74.83024717266028
 30
0.0
 11
220.640981153102
 21
74.8302471726588
 31
0.0
  0
LINE
  5
76F
330
18
100
AcDbEntity
  8
1
  6
Continuous
100
AcDbLine
 10
210.6409811531031
 20
71.08024717265942
 30
0.0
 11
211.6409811532302
 21
71.08024717265976
 31
0.0
  0
LINE
  5
770
330
18
100
AcDbEntity
  8
1
  6
Continuous
100
AcDbLine
 10
204.6409811531022
 20
38.58024717265739
 30
0.0
 11
208.6409811533775
 21
38.58024717265868
 31
0.0
  0
LINE
  5
771
330
18
100
AcDbEntity
  8
1
  6
Continuous
100
AcDbLine
 10
191.6409811532313
 20
36.33024717299543
 30
0.0
 11
191.6409811531531
 21
73.33024717304408
 31
0.0
  0
LINE
  5
772
330
18
100
AcDbEntity
  8
1
  6
Continuous
100
AcDbLine
 10
205.1409811531914
 20
40.77929589778397
 30
0.0
 11
205.1409811531924
 21
56.64198048844696
 31
0.0
  0
LINE
  5
773
330
18
100
AcDbEntity
  8
1
  6
Continuous
100
AcDbLine
 10
204.1909811532713
 20
63.83024717273963
 30
0.0
 11
204.1909811533386
 21
51.84475563890976
 31
0.0
  0
LINE
  5
774
330
18
100
AcDbEntity
  8
1
  6
Continuous
100
AcDbLine
 10
204.840981153192
 20
57.15961857863021
 30
0.0
 11
204.8409811531925
 21
45.83024717273922
 31
0.0
  0
LINE
  5
775
330
18
100
AcDbEntity
  8
1
  6
Continuous
100
AcDbLine
 10
203.4909811531915
 20
64.53024717281568
 30
0.0
 11
203.4909811531923
 21
52.54475563905919
 31
0.0
  0
LINE
  5
776
330
18
100
AcDbEntity
  8
1
  6
Continuous
100
AcDbLine
 10
207.1409811531916
 20
40.77929589778772
 30
0.0
 11
207.1409811531927
 21
61.33024717271041
 31
0.0
  0
LINE
  5
777
330
18
100
AcDbEntity
  8
1
  6
Continuous
100
AcDbLine
 10
190.6409811531916
 20
66.83024717270234
 30
0.0
 11
190.6409811531929
 21
42.83024717270699
 31
0.0
  0
LINE
  5
778
330
18
100
AcDbEntity
  8
1
  6
Continuous
100
AcDbLine
 10
189.6409811531917
 20
65.3302471727023
 30
0.0
 11
189.6409811531929
 21
44.3302471727024
 31
0.0
  0
LINE
  5
779
330
18
100
AcDbEntity
  8
1
  6
Continuous
100
AcDbLine
 10
200.640981153153
 20
37.83024717275679
 30
0.0
 11
200.640981153153
 21
71.83024717265493
 31
0.0
  0
LINE
  5
77A
330
18
100
AcDbEntity
  8
1
  6
Continuous
100
AcDbLine
 10
208.6409811531023
 20
73.33024717265942
 30
0.0
 11
208.6409811531023
 21
38.58024717265875
 31
0.0
  0
LINE
  5
77B
330
18
100
AcDbEntity
  8
1
  6
Continuous
100
AcDbLine
 10
191.6409811532281
 20
37.83024717275589
 30
0.0
 11
200.6409811531487
 21
37.83024717275679
 31
0.0
  0
LINE
  5
77E
330
18
100
AcDbEntity
  8
1
  6
Continuous
100
AcDbLine
 10
191.8912036106187
 20
33.33024717310986
 30
0.0
 11
191.8912036106187
 21
35.50075570584296
 31
0.0
  0
LINE
  5
780
330
18
100
AcDbEntity
  8
1
  6
Continuous
100
AcDbLine
 10
189.9412071061386
 20
33.33024717311457
 30
0.0
 11
189.9412071061381
 21
31.83024717322246
 31
0.0
  0
LINE
  5
781
330
18
100
AcDbEntity
  8
1
  6
Continuous
100
AcDbLine
 10
189.6409811531929
 20
44.33024717270234
 30
0.0
 11
190.6409811531929
 21
42.83024717270699
 31
0.0
  0
LINE
  5
782
330
18
100
AcDbEntity
  8
1
  6
Continuous
100
AcDbLine
 10
190.640981153196
 20
42.83024717270238
 30
0.0
 11
191.6409811531916
 21
42.83024717270238
 31
0.0
  0
LINE
  5
783
330
18
100
AcDbEntity
  8
1
  6
Continuous
100
AcDbLine
 10
202.6409811531022
 20
44.83024717274076
 30
0.0
 11
202.6409811531022
 21
38.58024717265903
 31
0.0
  0
LINE
  5
784
330
18
100
AcDbEntity
  8
1
  6
Continuous
100
AcDbLine
 10
204.6409811531022
 20
45.83024717273922
 30
0.0
 11
204.6409811531022
 21
38.58024717265903
 31
0.0
  0
LINE
  5
785
330
18
100
AcDbEntity
  8
1
  6
Continuous
100
AcDbLine
 10
196.3912036106187
 20
33.33024717309899
 30
0.0
 11
196.3912036106187
 21
34.83024717276396
 31
0.0
  0
LINE
  5
788
330
18
100
AcDbEntity
  8
1
  6
Continuous
100
AcDbLine
 10
204.6409811531022
 20
36.58024717265618
 30
0.0
 11
210.6409811531023
 21
36.58024717265613
 31
0.0
  0
ARC
  5
789
330
18
100
AcDbEntity
  8
1
  6
Continuous
100
AcDbCircle
 10
204.6409811531022
 20
38.58024717265641
 30
0.0
 40
2.0
100
AcDbArc
 50
180.0
 51
270.0
  0
LINE
  5
78A
330
18
100
AcDbEntity
  8
1
  6
Continuous
100
AcDbLine
 10
207.1409811531915
 20
40.77929589778772
 30
0.0
 11
205.1409811530952
 21
40.77929589778397
 31
0.0
  0
LINE
  5
78B
330
18
100
AcDbEntity
  8
2
  6
Continuous
100
AcDbLine
 10
204.1262233454948
 20
45.76548936486175
 30
0.0
 11
200.640981153153
 21
47.64849986658242
 31
0.0
  0
LINE
  5
78C
330
18
100
AcDbEntity
  8
1
  6
Continuous
100
AcDbLine
 10
204.1909811533725
 20
45.83024717273957
 30
0.0
 11
204.8409811531887
 21
45.83024717274111
 31
0.0
  0
LINE
  5
78D
330
18
100
AcDbEntity
  8
1
  6
Continuous
100
AcDbLine
 10
203.1909811533778
 20
44.83024717274026
 30
0.0
 11
204.1909811533723
 21
45.83024717273957
 31
0.0
  0
LINE
  5
78E
330
18
100
AcDbEntity
  8
1
  6
Continuous
100
AcDbLine
 10
203.1909811533778
 20
44.83024717274036
 30
0.0
 11
200.640981153153
 21
44.83024717274212
 31
0.0
  0
LINE
  5
78F
330
18
100
AcDbEntity
  8
1
  6
Continuous
100
AcDbLine
 10
203.4556574068176
 20
45.09492342618115
 30
0.0
 11
200.640981153153
 21
45.09492342617988
 31
0.0
  0
LINE
  5
790
330
18
100
AcDbEntity
  8
2
  6
Continuous
100
AcDbLine
 10
200.640981153153
 20
49.69708175303304
 30
0.0
 11
204.8409811531959
 21
51.84475563890821
 31
0.0
  0
LINE
  5
791
330
18
100
AcDbEntity
  8
1
  6
Continuous
100
AcDbLine
 10
204.1909811533386
 20
51.84475563890976
 30
0.0
 11
204.840981153196
 21
51.84475563890828
 31
0.0
  0
LINE
  5
792
330
18
100
AcDbEntity
  8
1
  6
Continuous
100
AcDbLine
 10
203.4909811531921
 20
52.54475563905923
 30
0.0
 11
200.640981153153
 21
52.54475563905811
 31
0.0
  0
LINE
  5
793
330
18
100
AcDbEntity
  8
1
  6
Continuous
100
AcDbLine
 10
203.4909811531921
 20
52.54475563905923
 30
0.0
 11
204.1909811533386
 21
51.84475563890976
 31
0.0
  0
LINE
  5
794
330
18
100
AcDbEntity
  8
1
  6
Continuous
100
AcDbLine
 10
204.8409811532037
 20
49.03024717270665
 30
0.0
 11
205.1409811531913
 21
49.03024717270643
 31
0.0
  0
LINE
  5
795
330
18
100
AcDbEntity
  8
1
  6
Continuous
100
AcDbLine
 10
191.6409811531563
 20
71.8302471726538
 30
0.0
 11
200.6409811531487
 21
71.83024717265493
 31
0.0
  0
LINE
  5
797
330
18
100
AcDbEntity
  8
1
  6
Continuous
100
AcDbLine
 10
189.640981153193
 20
65.33024717270222
 30
0.0
 11
190.640981153193
 21
66.83024717269751
 31
0.0
  0
LINE
  5
798
330
18
100
AcDbEntity
  8
1
  6
Continuous
100
AcDbLine
 10
190.6409811531962
 20
66.83024717270234
 30
0.0
 11
191.6409811531916
 21
66.83024717270234
 31
0.0
  0
LINE
  5
799
330
18
100
AcDbEntity
  8
1
  6
Continuous
100
AcDbLine
 10
191.8912036106187
 20
74.15973864019662
 30
0.0
 11
191.8912036106187
 21
76.33024717310984
 31
0.0
  0
LINE
  5
79A
330
18
100
AcDbEntity
  8
1
  6
Continuous
100
AcDbLine
 10
203.1909811532655
 20
64.83024717274043
 30
0.0
 11
204.1909811532712
 21
63.83024717273976
 31
0.0
  0
LINE
  5
79B
330
18
100
AcDbEntity
  8
1
  6
Continuous
100
AcDbLine
 10
206.1409811531942
 20
63.52357960930191
 30
0.0
 11
206.140981153161
 21
56.64198048841519
 31
0.0
  0
LINE
  5
79C
330
18
100
AcDbEntity
  8
1
  6
Continuous
100
AcDbLine
 10
206.6409811531917
 20
63.02357960930215
 30
0.0
 11
206.640981153192
 21
57.14198048844616
 31
0.0
  0
LINE
  5
79D
330
18
100
AcDbEntity
  8
1
  6
Continuous
100
AcDbLine
 10
207.1409811531924
 20
57.03020905607599
 30
0.0
 11
206.529209720822
 21
57.03020905607599
 31
0.0
  0
LINE
  5
79E
330
18
100
AcDbEntity
  8
1
  6
Continuous
100
AcDbLine
 10
207.1409811531922
 20
53.50522555483872
 30
0.0
 11
205.1409811530952
 21
53.50522555483958
 31
0.0
  0
LINE
  5
79F
330
18
100
AcDbEntity
  8
1
  6
Continuous
100
AcDbLine
 10
206.1409811531922
 20
56.64198048844646
 30
0.0
 11
206.6409811531922
 21
57.14198048844622
 31
0.0
  0
LINE
  5
7A0
330
18
100
AcDbEntity
  8
1
  6
Continuous
100
AcDbLine
 10
206.140981153192
 20
57.15961857863067
 30
0.0
 11
206.640981153192
 21
57.65961857863088
 31
0.0
  0
LINE
  5
7A1
330
18
100
AcDbEntity
  8
1
  6
Continuous
100
AcDbLine
 10
206.1409811531923
 20
56.64198048844649
 30
0.0
 11
204.8409811530506
 21
56.64198048844719
 31
0.0
  0
LINE
  5
7A2
330
18
100
AcDbEntity
  8
1
  6
Continuous
100
AcDbLine
 10
206.1409811531921
 20
57.15961857863067
 30
0.0
 11
204.8409811530504
 21
57.15961857863021
 31
0.0
  0
LINE
  5
7A3
330
18
100
AcDbEntity
  8
1
  6
Continuous
100
AcDbLine
 10
204.1909811532712
 20
63.83024717273963
 30
0.0
 11
204.8409811531959
 21
63.83024717273928
 31
0.0
  0
LINE
  5
7A4
330
18
100
AcDbEntity
  8
2
  6
Continuous
100
AcDbLine
 10
203.7324811532687
 20
64.28874717273997
 30
0.0
 11
200.640981153153
 21
64.28874717274215
 31
0.0
  0
LINE
  5
7A5
330
18
100
AcDbEntity
  8
1
  6
Continuous
100
AcDbLine
 10
207.1409811531927
 20
61.33024717271029
 30
0.0
 11
206.6409811531918
 21
61.33024717271041
 31
0.0
  0
LINE
  5
7A6
330
18
100
AcDbEntity
  8
1
  6
Continuous
100
AcDbLine
 10
206.6409811531918
 20
63.02357960930225
 30
0.0
 11
206.1409811531918
 21
63.52357960930191
 31
0.0
  0
LINE
  5
7A7
330
18
100
AcDbEntity
  8
1
  6
Continuous
100
AcDbLine
 10
206.1409811531917
 20
63.52357960930191
 30
0.0
 11
204.8409811530504
 21
63.52357960930111
 31
0.0
  0
LINE
  5
7A8
330
18
100
AcDbEntity
  8
1
  6
Continuous
100
AcDbLine
 10
204.8409811531917
 20
63.83024717273922
 30
0.0
 11
204.8409811531917
 21
63.52357960930111
 31
0.0
  0
LINE
  5
7AA
330
18
100
AcDbEntity
  8
1
  6
Continuous
100
AcDbLine
 10
196.3912036106187
 20
74.83024717266005
 30
0.0
 11
196.3912036106187
 21
76.33024717309905
 31
0.0
  0
LINE
  5
7AB
330
18
100
AcDbEntity
  8
1
  6
Continuous
100
AcDbLine
 10
203.1909811532654
 20
64.83024717274036
 30
0.0
 11
200.640981153153
 21
64.83024717274213
 31
0.0
  0
LINE
  5
7AC
330
18
100
AcDbEntity
  8
1
  6
Continuous
100
AcDbLine
 10
236.1409811528066
 20
38.8302471727535
 30
0.0
 11
236.1409811528066
 21
70.8302471727535
 31
0.0
  0
LINE
  5
7AD
330
18
100
AcDbEntity
  8
1
  6
Continuous
100
AcDbLine
 10
210.6409811531023
 20
73.33024717265925
 30
0.0
 11
210.6409811531023
 21
34.880247172949
 31
0.0
  0
LINE
  5
7AE
330
18
100
AcDbEntity
  8
1
  6
Continuous
100
AcDbLine
 10
220.6409811531018
 20
73.08024717265936
 30
0.0
 11
220.6409811531017
 21
36.58024717266198
 31
0.0
  0
LINE
  5
7B1
330
18
100
AcDbEntity
  8
1
  6
Continuous
100
AcDbLine
 10
211.6409811533835
 20
36.58024717272065
 30
0.0
 11
220.6409811531018
 21
36.58024717266198
 31
0.0
  0
LINE
  5
7B3
330
18
100
AcDbEntity
  8
1
  6
Continuous
100
AcDbLine
 10
210.1409846482876
 20
34.83024717277726
 30
0.0
 11
210.1409846482868
 21
33.33024717306568
 31
0.0
  0
LINE
  5
7B5
330
18
100
AcDbEntity
  8
1
  6
Continuous
100
AcDbLine
 10
220.6409811531018
 20
34.83024717278743
 30
0.0
 11
220.6409811531035
 21
36.330247172663
 31
0.0
  0
ARC
  5
7B7
330
18
100
AcDbEntity
  8
1
  6
Continuous
100
AcDbCircle
 10
241.1409811528065
 20
38.8302471727535
 30
0.0
 40
5.0
100
AcDbArc
 50
180.0
 51
270.0
  0
LINE
  5
7BA
330
18
100
AcDbEntity
  8
1
  6
Continuous
100
AcDbLine
 10
211.6409811532212
 20
73.08024717267791
 30
0.0
 11
220.6409811531181
 21
73.08024717265944
 31
0.0
  0
LINE
  5
7BB
330
18
100
AcDbEntity
  8
1
  6
Continuous
100
AcDbLine
 10
210.1409846483113
 20
76.3302471730658
 30
0.0
 11
210.1409846483104
 21
74.83024717265926
 31
0.0
  0
LINE
  5
7BF
330
18
100
AcDbEntity
  8
1
  6
Continuous
100
AcDbLine
 10
220.6409811531018
 20
74.8302471726588
 30
0.0
 11
220.6409811530999
 21
73.33024717265939
 31
0.0
  0
LINE
  5
7C0
330
18
100
AcDbEntity
  8
1
  6
Continuous
100
AcDbLine
 10
208.6409811530388
 20
159.71693173929
 30
0.0
 11
210.6409811530388
 21
159.71693173929
 31
0.0
  0
LINE
  5
7C1
330
18
100
AcDbEntity
  8
4
  6
CENTER
100
AcDbLine
 10
206.9210411530387
 20
164.71693173929
 30
0.0
 11
212.9210411530386
 21
164.71693173929
 31
0.0
  0
ARC
  5
7C5
330
18
100
AcDbEntity
  8
1
  6
Continuous
100
AcDbCircle
 10
198.1409811530389
 20
152.21693173929
 30
0.0
 40
2.5
100
AcDbArc
 50
203.6819072912065
 51
349.5998723654299
  0
ARC
  5
7C7
330
18
100
AcDbEntity
  8
1
  6
Continuous
100
AcDbCircle
 10
76.49368199294094
 20
188.2169317392992
 30
0.0
 40
16.0
100
AcDbArc
 50
54.99999999990844
 51
124.9999999999085
  0
ARC
  5
7C8
330
18
100
AcDbEntity
  8
1
  6
Continuous
100
AcDbCircle
 10
76.49368199294143
 20
188.2169317392992
 30
0.0
 40
15.5
100
AcDbArc
 50
54.99999999991048
 51
124.99999999991
  0
LINE
  5
7C9
330
18
100
AcDbEntity
  8
4
  6
CENTER
100
AcDbLine
 10
91.3527942362232
 20
188.2169317392992
 30
0.0
 11
61.4139806529099
 21
188.2169317392992
 31
0.0
  0
CIRCLE
  5
7CA
330
18
100
AcDbEntity
  8
1
  6
Continuous
100
AcDbCircle
 10
76.49368199294087
 20
188.2169317392992
 30
0.0
 40
10.5
  0
CIRCLE
  5
7CB
330
18
100
AcDbEntity
  8
1
  6
Continuous
100
AcDbCircle
 10
76.49368199294087
 20
188.2169317392992
 30
0.0
 40
12.0
  0
LINE
  5
7CC
330
18
100
AcDbEntity
  8
4
  6
CENTER
100
AcDbLine
 10
76.49368199294094
 20
188.2169317392992
 30
0.0
 11
65.88708027514275
 21
198.8235334570974
 31
0.0
  0
LINE
  5
7D0
330
18
100
AcDbEntity
  8
1
  6
Continuous
100
AcDbLine
 10
54.99368199304369
 20
224.7669239718898
 30
0.0
 11
97.99368199304373
 21
224.7669239718898
 31
0.0
  0
LINE
  5
7D1
330
18
100
AcDbEntity
  8
1
  6
Continuous
100
AcDbLine
 10
97.99368199303104
 20
220.2669239718898
 30
0.0
 11
54.99368199303102
 21
220.2669239718898
 31
0.0
  0
LINE
  5
7D2
330
18
100
AcDbEntity
  8
4
  6
CENTER
100
AcDbLine
 10
102.9026961420182
 20
222.5169239718898
 30
0.0
 11
49.88959539547217
 21
222.5169239718898
 31
0.0
  0
LINE
  5
7D4
330
18
100
AcDbEntity
  8
1
  6
Continuous
100
AcDbLine
 10
96.49368199299679
 20
217.0349512238626
 30
0.0
 11
56.49368199290051
 21
217.0349512237985
 31
0.0
  0
LINE
  5
7D8
330
18
100
AcDbEntity
  8
1
  6
Continuous
100
AcDbLine
 10
94.74368199291175
 20
217.7169317391317
 30
0.0
 11
58.24368199295443
 21
217.7169317392488
 31
0.0
  0
LINE
  5
7D9
330
18
100
AcDbEntity
  8
1
  6
Continuous
100
AcDbLine
 10
94.74368199291175
 20
219.7169317389175
 30
0.0
 11
58.24368199295452
 21
219.7169317387832
 31
0.0
  0
LINE
  5
7DA
330
18
100
AcDbEntity
  8
1
  6
Continuous
100
AcDbLine
 10
58.99368199333236
 20
233.2169317392379
 30
0.0
 11
93.9936819933634
 21
233.2169317392379
 31
0.0
  0
ARC
  5
7EA
330
18
100
AcDbEntity
  8
1
  6
Continuous
100
AcDbCircle
 10
73.1133750622815
 20
185.8762962514723
 30
0.0
 40
15.75
100
AcDbArc
 50
109.8676963239058
 51
117.2000000000899
  0
ARC
  5
7EB
330
18
100
AcDbEntity
  8
1
  6
Continuous
100
AcDbCircle
 10
79.15300671615551
 20
191.3526998188665
 30
0.0
 40
15.75
100
AcDbArc
 50
139.6259460252012
 51
147.2000000000898
  0
LINE
  5
7EC
330
18
100
AcDbEntity
  8
1
  6
Continuous
100
AcDbLine
 10
67.76074769714904
 20
200.6888544468022
 30
0.0
 11
67.60324722947945
 21
200.9137884257647
 31
0.0
  0
LINE
  5
7ED
330
18
100
AcDbEntity
  8
1
  6
Continuous
100
AcDbLine
 10
67.31645901130338
 20
201.3233644479084
 30
0.0
 11
67.15415702580256
 21
201.555155704991
 31
0.0
  0
LINE
  5
7F2
330
18
100
AcDbEntity
  8
1
  6
Continuous
100
AcDbLine
 10
53.49368199302555
 20
218.3169239718898
 30
0.0
 11
53.49368199307111
 21
234.5326157573311
 31
0.0
  0
LINE
  5
7F3
330
18
100
AcDbEntity
  8
1
  6
Continuous
100
AcDbLine
 10
99.99368199303027
 20
220.0169239718841
 30
0.0
 11
99.99368199304434
 21
225.0169239718841
 31
0.0
  0
LINE
  5
7F4
330
18
100
AcDbEntity
  8
1
  6
Continuous
100
AcDbLine
 10
99.99368199302887
 20
220.0169239718841
 30
0.0
 11
99.49368199302888
 21
220.0169239718841
 31
0.0
  0
LINE
  5
7F5
330
18
100
AcDbEntity
  8
1
  6
Continuous
100
AcDbLine
 10
99.99368199304576
 20
225.0169239718841
 30
0.0
 11
99.49368199304577
 21
225.0169239718841
 31
0.0
  0
LINE
  5
7F6
330
18
100
AcDbEntity
  8
1
  6
Continuous
100
AcDbLine
 10
96.99368199300408
 20
225.716931739238
 30
0.0
 11
96.99368199302092
 21
231.716931739238
 31
0.0
  0
LINE
  5
7F7
330
18
100
AcDbEntity
  8
1
  6
Continuous
100
AcDbLine
 10
54.99368199302555
 20
218.3169239718898
 30
0.0
 11
54.99368199307113
 21
234.5326157573268
 31
0.0
  0
LINE
  5
7F8
330
18
100
AcDbEntity
  8
1
  6
Continuous
100
AcDbLine
 10
56.49368199300718
 20
224.7669239718898
 30
0.0
 11
56.49368199301862
 21
233.2169317392437
 31
0.0
  0
LINE
  5
7FC
330
18
100
AcDbEntity
  8
1
  6
Continuous
100
AcDbLine
 10
57.99368199299909
 20
217.0349512238009
 30
0.0
 11
57.99368199300346
 21
220.2669239718898
 31
0.0
  0
LINE
  5
7FD
330
18
100
AcDbEntity
  8
1
  6
Continuous
100
AcDbLine
 10
58.24368199291209
 20
217.0349512238013
 30
0.0
 11
58.24368199291209
 21
220.2669239718899
 31
0.0
  0
LINE
  5
7FE
330
18
100
AcDbEntity
  8
1
  6
Continuous
100
AcDbLine
 10
60.2436819929121
 20
219.7169317387905
 30
0.0
 11
60.2436819929121
 21
220.2669239718898
 31
0.0
  0
LINE
  5
7FF
330
18
100
AcDbEntity
  8
1
  6
Continuous
100
AcDbLine
 10
96.99368199300408
 20
225.716931739238
 30
0.0
 11
96.49368199300408
 21
225.716931739238
 31
0.0
  0
LINE
  5
800
330
18
100
AcDbEntity
  8
1
  6
Continuous
100
AcDbLine
 10
58.24368199291209
 20
231.7169317392378
 30
0.0
 11
58.2436819929128
 21
233.1658408875863
 31
0.0
  0
LINE
  5
801
330
18
100
AcDbEntity
  8
1
  6
Continuous
100
AcDbLine
 10
58.99368199333235
 20
233.2169317392379
 30
0.0
 11
58.99368199333443
 21
231.7169317392584
 31
0.0
  0
LINE
  5
802
330
18
100
AcDbEntity
  8
1
  6
Continuous
100
AcDbLine
 10
57.99368199301674
 20
231.716931739238
 30
0.0
 11
57.99368199301675
 21
233.2169317392393
 31
0.0
  0
LINE
  5
803
330
18
100
AcDbEntity
  8
1
  6
Continuous
100
AcDbLine
 10
57.99368199301671
 20
231.716931739238
 30
0.0
 11
58.99368199333446
 21
231.716931739238
 31
0.0
  0
LINE
  5
804
330
18
100
AcDbEntity
  8
1
  6
Continuous
100
AcDbLine
 10
96.99368199302092
 20
231.716931739238
 30
0.0
 11
96.49368199302095
 21
231.716931739238
 31
0.0
  0
LINE
  5
805
330
18
100
AcDbEntity
  8
1
  6
Continuous
100
AcDbLine
 10
57.9936819930187
 20
233.2169317392379
 30
0.0
 11
56.49368199292077
 21
233.2169317392379
 31
0.0
  0
LINE
  5
806
330
18
100
AcDbEntity
  8
1
  6
Continuous
100
AcDbLine
 10
58.99368199333244
 20
233.1658408875859
 30
0.0
 11
58.24368199291209
 21
233.1658408875859
 31
0.0
  0
LINE
  5
809
330
18
100
AcDbEntity
  8
4
  6
CENTER
100
AcDbLine
 10
76.49368199287095
 20
144.2605794737592
 30
0.0
 11
76.49368199302386
 21
240.3486255778352
 31
0.0
  0
LINE
  5
80A
330
18
100
AcDbEntity
  8
1
  6
Continuous
100
AcDbLine
 10
80.64793433241181
 20
191.4165899241682
 30
0.0
 11
79.69334017781003
 21
192.3711840787701
 31
0.0
  0
ARC
  5
80B
330
18
100
AcDbEntity
  8
1
  6
Continuous
100
AcDbCircle
 10
76.49368199294085
 20
188.2169317392992
 30
0.0
 40
4.099999999999998
100
AcDbArc
 50
54.47598195163753
 51
125.5239999999998
  0
ARC
  5
80C
330
18
100
AcDbEntity
  8
1
  6
Continuous
100
AcDbCircle
 10
76.49368199294085
 20
188.2169317392992
 30
0.0
 40
4.099999999999998
100
AcDbArc
 50
144.4759999999998
 51
35.52401804836075
  0
LINE
  5
80D
330
18
100
AcDbEntity
  8
1
  6
Continuous
100
AcDbLine
 10
78.87599544943651
 20
191.5538393503966
 30
0.0
 11
79.69334017781003
 21
192.3711840787701
 31
0.0
  0
LINE
  5
80F
330
18
100
AcDbEntity
  8
1
  6
Continuous
100
AcDbLine
 10
73.29402380807164
 20
192.3711840787701
 30
0.0
 11
74.11136853644518
 21
191.5538393503966
 31
0.0
  0
LINE
  5
810
330
18
100
AcDbEntity
  8
1
  6
Continuous
100
AcDbLine
 10
72.33942965346987
 20
191.4165899241683
 30
0.0
 11
73.29402380807174
 21
192.3711840787701
 31
0.0
  0
LINE
  5
811
330
18
100
AcDbEntity
  8
4
  6
CENTER
100
AcDbLine
 10
76.49368199294094
 20
188.2169317392992
 30
0.0
 11
87.10028371073917
 21
198.8235334570974
 31
0.0
  0
ARC
  5
819
330
18
100
AcDbEntity
  8
1
  6
Continuous
100
AcDbCircle
 10
76.49368199294085
 20
188.2169317392992
 30
0.0
 40
2.95
100
AcDbArc
 50
147.7289999999997
 51
122.2710607744557
  0
LINE
  5
81D
330
18
100
AcDbEntity
  8
1
  6
Continuous
100
AcDbLine
 10
73.99936282230516
 20
189.7920120943922
 30
0.0
 11
75.07946843056766
 21
188.7119064861297
 31
0.0
  0
LINE
  5
81F
330
18
100
AcDbEntity
  8
1
  6
Continuous
100
AcDbLine
 10
73.1567743818433
 20
190.5992451957946
 30
0.0
 11
72.33942965346978
 21
191.4165899241683
 31
0.0
  0
LINE
  5
820
330
18
100
AcDbEntity
  8
4
  6
CENTER
100
AcDbLine
 10
77.99368199294146
 20
188.2169317392992
 30
0.0
 11
74.99368199294146
 21
188.2169317392992
 31
0.0
  0
LINE
  5
821
330
18
100
AcDbEntity
  8
4
  6
CENTER
100
AcDbLine
 10
77.99368199294093
 20
188.2169317392992
 30
0.0
 11
74.99368199294093
 21
188.2169317392992
 31
0.0
  0
LINE
  5
823
330
18
100
AcDbEntity
  8
1
  6
Continuous
100
AcDbLine
 10
75.99870724611027
 20
189.6311453016723
 30
0.0
 11
75.07946843056775
 21
188.7119064861298
 31
0.0
  0
LINE
  5
824
330
18
100
AcDbEntity
  8
1
  6
Continuous
100
AcDbLine
 10
74.91860163784775
 20
190.7112509099347
 30
0.0
 11
75.9987072461102
 21
189.6311453016723
 31
0.0
  0
LINE
  5
827
330
18
100
AcDbEntity
  8
1
  6
Continuous
100
AcDbLine
 10
79.83058960403837
 20
190.5992451957946
 30
0.0
 11
80.64793433241181
 21
191.4165899241682
 31
0.0
  0
ARC
  5
82C
330
18
100
AcDbEntity
  8
1
  6
Continuous
100
AcDbCircle
 10
73.83435726972644
 20
191.3526998188665
 30
0.0
 40
15.75
100
AcDbArc
 50
32.79999999990987
 51
40.37405397479814
  0
ARC
  5
82D
330
18
100
AcDbEntity
  8
1
  6
Continuous
100
AcDbCircle
 10
79.87398892360045
 20
185.8762962514723
 30
0.0
 40
15.75
100
AcDbArc
 50
62.79999999991005
 51
70.13230367609456
  0
LINE
  5
831
330
18
100
AcDbEntity
  8
1
  6
Continuous
100
AcDbLine
 10
85.67090497457853
 20
201.3233644479084
 30
0.0
 11
85.83320696007939
 21
201.555155704991
 31
0.0
  0
LINE
  5
832
330
18
100
AcDbEntity
  8
1
  6
Continuous
100
AcDbLine
 10
85.22661628873294
 20
200.6888544468021
 30
0.0
 11
85.38411675640253
 21
200.9137884257647
 31
0.0
  0
LINE
  5
839
330
18
100
AcDbEntity
  8
1
  6
Continuous
100
AcDbLine
 10
99.49368199302554
 20
218.3169239718898
 30
0.0
 11
99.49368199307112
 21
234.5326157573226
 31
0.0
  0
LINE
  5
83A
330
18
100
AcDbEntity
  8
1
  6
Continuous
100
AcDbLine
 10
97.99368199302557
 20
218.3169239718898
 30
0.0
 11
97.9936819930711
 21
234.5326157573268
 31
0.0
  0
LINE
  5
83E
330
18
100
AcDbEntity
  8
1
  6
Continuous
100
AcDbLine
 10
96.49368199300724
 20
224.7669239718898
 30
0.0
 11
96.49368199301859
 21
233.2169317391897
 31
0.0
  0
LINE
  5
83F
330
18
100
AcDbEntity
  8
1
  6
Continuous
100
AcDbLine
 10
94.74368199291209
 20
217.0349512238597
 30
0.0
 11
94.74368199291209
 21
220.2669239718898
 31
0.0
  0
LINE
  5
840
330
18
100
AcDbEntity
  8
1
  6
Continuous
100
AcDbLine
 10
94.99368199299906
 20
217.0349512238601
 30
0.0
 11
94.9936819930034
 21
220.2669239718898
 31
0.0
  0
LINE
  5
841
330
18
100
AcDbEntity
  8
1
  6
Continuous
100
AcDbLine
 10
92.74368199291208
 20
219.7169317389103
 30
0.0
 11
92.74368199291208
 21
220.2669239718898
 31
0.0
  0
LINE
  5
842
330
18
100
AcDbEntity
  8
1
  6
Continuous
100
AcDbLine
 10
52.29368199302817
 20
219.2669239720259
 30
0.0
 11
52.29368199304643
 21
225.7669239720259
 31
0.0
  0
LINE
  5
844
330
18
100
AcDbEntity
  8
1
  6
Continuous
100
AcDbLine
 10
52.29368199302747
 20
219.2669239720259
 30
0.0
 11
53.49368199302748
 21
219.2669239720191
 31
0.0
  0
LINE
  5
846
330
18
100
AcDbEntity
  8
1
  6
Continuous
100
AcDbLine
 10
52.29368199304714
 20
225.7669239720259
 30
0.0
 11
53.49368199304715
 21
225.7669239720191
 31
0.0
  0
LINE
  5
847
330
18
100
AcDbEntity
  8
4
  6
CENTER
100
AcDbLine
 10
51.26477187379487
 20
228.7169317392379
 30
0.0
 11
101.9253850494683
 21
228.7169317392379
 31
0.0
  0
LINE
  5
848
330
18
100
AcDbEntity
  8
1
  6
Continuous
100
AcDbLine
 10
96.4936819930187
 20
233.2169317392379
 30
0.0
 11
94.99368199301867
 21
233.2169317392379
 31
0.0
  0
LINE
  5
849
330
18
100
AcDbEntity
  8
1
  6
Continuous
100
AcDbLine
 10
94.74368199291209
 20
231.716931739238
 30
0.0
 11
94.74368199291095
 21
233.1658408875864
 31
0.0
  0
LINE
  5
84A
330
18
100
AcDbEntity
  8
1
  6
Continuous
100
AcDbLine
 10
93.9936819933634
 20
233.2169317392379
 30
0.0
 11
93.99368199336359
 21
231.7169317392584
 31
0.0
  0
LINE
  5
84B
330
18
100
AcDbEntity
  8
1
  6
Continuous
100
AcDbLine
 10
94.99368199301668
 20
231.7169317392378
 30
0.0
 11
94.99368199301628
 21
233.2169317392392
 31
0.0
  0
LINE
  5
84C
330
18
100
AcDbEntity
  8
1
  6
Continuous
100
AcDbLine
 10
93.99368199336359
 20
231.716931739238
 30
0.0
 11
94.99368199301658
 21
231.716931739238
 31
0.0
  0
LINE
  5
84D
330
18
100
AcDbEntity
  8
1
  6
Continuous
100
AcDbLine
 10
93.9936819933634
 20
233.1658408875856
 30
0.0
 11
94.74368199291209
 21
233.1658408875856
 31
0.0
  0
LINE
  5
851
330
18
100
AcDbEntity
  8
1
  6
Continuous
100
AcDbLine
 10
191.640981153029
 20
171.2957157676514
 30
0.0
 11
191.6409811530291
 21
216.6735954985415
 31
0.0
  0
LINE
  5
852
330
18
100
AcDbEntity
  8
1
  6
Continuous
100
AcDbLine
 10
209.6409811530292
 20
194.7475417386017
 30
0.0
 11
209.6409811530292
 21
217.2805403134437
 31
0.0
  0
LINE
  5
853
330
18
100
AcDbEntity
  8
1
  6
Continuous
100
AcDbLine
 10
208.6409811530292
 20
185.2169317387599
 30
0.0
 11
209.6409811530292
 21
184.7475417387036
 31
0.0
  0
LINE
  5
854
330
18
100
AcDbEntity
  8
1
  6
Continuous
100
AcDbLine
 10
208.6409811530292
 20
194.2169317387599
 30
0.0
 11
209.6409811530292
 21
194.7475417386017
 31
0.0
  0
LINE
  5
855
330
18
100
AcDbEntity
  8
1
  6
Continuous
100
AcDbLine
 10
208.6409811530388
 20
185.7169317388868
 30
0.0
 11
210.6409811530388
 21
185.7169317388869
 31
0.0
  0
LINE
  5
856
330
18
100
AcDbEntity
  8
1
  6
Continuous
100
AcDbLine
 10
208.6409811530292
 20
193.7169317388868
 30
0.0
 11
210.6409811530389
 21
193.7169317388868
 31
0.0
  0
LINE
  5
857
330
18
100
AcDbEntity
  8
4
  6
CENTER
100
AcDbLine
 10
206.6409811530387
 20
207.7169317392901
 30
0.0
 11
212.6409811530387
 21
207.7169317392901
 31
0.0
  0
LINE
  5
858
330
18
100
AcDbEntity
  8
1
  6
Continuous
100
AcDbLine
 10
189.6409811530285
 20
177.7169317392991
 30
0.0
 11
189.6409811530296
 21
198.7169317392991
 31
0.0
  0
LINE
  5
859
330
18
100
AcDbEntity
  8
1
  6
Continuous
100
AcDbLine
 10
190.6409811530284
 20
176.2169317392991
 30
0.0
 11
190.6409811530296
 21
200.2169317392944
 31
0.0
  0
LINE
  5
85A
330
18
100
AcDbEntity
  8
1
  6
Continuous
100
AcDbLine
 10
208.6409811530292
 20
194.2169317387599
 30
0.0
 11
208.6409811530292
 21
185.2169317387598
 31
0.0
  0
LINE
  5
85B
330
18
100
AcDbEntity
  8
1
  6
Continuous
100
AcDbLine
 10
190.6409811530329
 20
176.2169317392991
 30
0.0
 11
191.6409811530284
 21
176.2169317392991
 31
0.0
  0
LINE
  5
85C
330
18
100
AcDbEntity
  8
1
  6
Continuous
100
AcDbLine
 10
189.6409811530299
 20
177.7169317392992
 30
0.0
 11
190.6409811530298
 21
176.2169317393039
 31
0.0
  0
LINE
  5
85D
330
18
100
AcDbEntity
  8
1
  6
Continuous
100
AcDbLine
 10
189.6409811530296
 20
198.7169317392991
 30
0.0
 11
190.6409811530298
 21
200.2169317392944
 31
0.0
  0
LINE
  5
85E
330
18
100
AcDbEntity
  8
1
  6
Continuous
100
AcDbLine
 10
190.6409811530328
 20
200.2169317392991
 30
0.0
 11
191.6409811530284
 21
200.2169317392991
 31
0.0
  0
LINE
  5
85F
330
18
100
AcDbEntity
  8
1
  6
Continuous
100
AcDbLine
 10
209.6409811530292
 20
173.5317314302941
 30
0.0
 11
209.6409811530292
 21
184.7475417387036
 31
0.0
  0
ARC
  5
860
330
18
100
AcDbEntity
  8
1
  6
Continuous
100
AcDbCircle
 10
206.6409811530292
 20
173.5317314302941
 30
0.0
 40
3.0
100
AcDbArc
 50
324.4801945393986
 51
0.0
  0
LINE
  5
861
330
18
100
AcDbEntity
  8
1
  6
Continuous
100
AcDbLine
 10
210.1409846483755
 20
234.4485258083643
 30
0.0
 11
192.3951289441331
 21
226.3367683472536
 31
0.0
  0
LINE
  5
862
330
18
100
AcDbEntity
  8
1
  6
Continuous
100
AcDbLine
 10
193.3579841638485
 20
218.3905985093754
 30
0.0
 11
191.6409811530321
 21
216.6735954985446
 31
0.0
  0
LINE
  5
864
330
18
100
AcDbEntity
  8
4
  6
CENTER
100
AcDbLine
 10
197.6412071061871
 20
222.5169239718898
 30
0.0
 11
190.6412071061872
 21
222.5169239718898
 31
0.0
  0
ARC
  5
865
330
18
100
AcDbEntity
  8
1
  6
Continuous
100
AcDbCircle
 10
194.1412071061872
 20
222.5169239718898
 30
0.0
 40
4.2
100
AcDbArc
 50
114.5654788988264
 51
270.0
  0
ARC
  5
866
330
18
100
AcDbEntity
  8
1
  6
Continuous
100
AcDbCircle
 10
196.6507055492221
 20
228.2171077843901
 30
0.0
 40
5.0
100
AcDbArc
 50
90.0
 51
180.0
  0
LINE
  5
867
330
18
100
AcDbEntity
  8
1
  6
Continuous
100
AcDbLine
 10
191.6409811530291
 20
225.8916639890103
 30
0.0
 11
191.6409811530291
 21
228.2171077843901
 31
0.0
  0
LINE
  5
869
330
18
100
AcDbEntity
  8
4
  6
CENTER
100
AcDbLine
 10
194.1412071061872
 20
226.0169239718898
 30
0.0
 11
194.1412071061872
 21
219.0169239718898
 31
0.0
  0
LINE
  5
86B
330
18
100
AcDbEntity
  8
1
  6
Continuous
100
AcDbLine
 10
207.4470472778607
 20
233.2171077843907
 30
0.0
 11
196.6507055492225
 21
233.2171077843915
 31
0.0
  0
LINE
  5
86C
330
18
100
AcDbEntity
  8
1
  6
Continuous
100
AcDbLine
 10
210.6409811530385
 20
217.71693173929
 30
0.0
 11
220.6409811530292
 21
217.71693173929
 31
0.0
  0
ARC
  5
86D
330
18
100
AcDbEntity
  8
1
  6
Continuous
100
AcDbCircle
 10
212.6409811530292
 20
217.2805403134437
 30
0.0
 40
3.0
100
AcDbArc
 50
159.7900471458029
 51
180.0
  0
LINE
  5
86E
330
18
100
AcDbEntity
  8
1
  6
Continuous
100
AcDbLine
 10
220.6409811530296
 20
218.3169239718898
 30
0.0
 11
220.6409811530292
 21
217.7169317392829
 31
0.0
  0
LINE
  5
86F
330
18
100
AcDbEntity
  8
1
  6
Continuous
100
AcDbLine
 10
210.1409846483754
 20
234.4485258083642
 30
0.0
 11
210.0794829678989
 21
235.9472644591298
 31
0.0
  0
LINE
  5
870
330
18
100
AcDbEntity
  8
1
  6
Continuous
100
AcDbLine
 10
236.1409846483737
 20
217.7169239718887
 30
0.0
 11
236.1409846483737
 21
218.3169239718898
 31
0.0
  0
LINE
  5
871
330
18
100
AcDbEntity
  8
1
  6
Continuous
100
AcDbLine
 10
256.3409811528444
 20
77.83024717295404
 30
0.0
 11
256.3409811528413
 21
76.33024717295395
 31
0.0
  0
LINE
  5
872
330
18
100
AcDbEntity
  8
4
  6
CENTER
100
AcDbLine
 10
252.1409811528065
 20
26.46892484503814
 30
0.0
 11
252.1409811528065
 21
82.01428175187857
 31
0.0
  0
LINE
  5
873
330
18
100
AcDbEntity
  8
1
  6
Continuous
100
AcDbLine
 10
256.9409846483754
 20
75.83024717274224
 30
0.0
 11
256.9409846483754
 21
33.83024717274224
 31
0.0
  0
LINE
  5
877
330
18
100
AcDbEntity
  8
4
  6
CENTER
100
AcDbLine
 10
243.1409811527864
 20
52.230247172701
 30
0.0
 11
243.1409811527864
 21
40.93024717270099
 31
0.0
  0
LINE
  5
87A
330
18
100
AcDbEntity
  8
1
  6
Continuous
100
AcDbLine
 10
249.8909811528065
 20
33.83024717274719
 30
0.0
 11
249.8909811528067
 21
33.33024717296962
 31
0.0
  0
LINE
  5
87B
330
18
100
AcDbEntity
  8
1
  6
Continuous
100
AcDbLine
 10
256.3409811527558
 20
33.33024717295393
 30
0.0
 11
256.3409811527528
 21
31.83024717322246
 31
0.0
  0
LINE
  5
87C
330
18
100
AcDbEntity
  8
1
  6
Continuous
100
AcDbLine
 10
254.3909811528066
 20
33.83024717274406
 30
0.0
 11
254.3909811528048
 21
33.3302471729587
 31
0.0
  0
LINE
  5
87F
330
18
100
AcDbEntity
  8
1
  6
Continuous
100
AcDbLine
 10
249.8909811528065
 20
75.83024717274715
 30
0.0
 11
249.8909811528067
 21
76.33024717296968
 31
0.0
  0
LINE
  5
880
330
18
100
AcDbEntity
  8
1
  6
Continuous
100
AcDbLine
 10
254.3909811528066
 20
75.83024717274406
 30
0.0
 11
254.3909811528067
 21
76.33024717295876
 31
0.0
  0
ARC
  5
884
330
18
100
AcDbEntity
  8
1
  6
Continuous
100
AcDbCircle
 10
214.24109668014
 20
134.5326157573269
 30
0.0
 40
100.0
100
AcDbArc
 50
66.69568527064078
 51
69.87930435694313
  0
ARC
  5
885
330
18
100
AcDbEntity
  8
1
  6
Continuous
100
AcDbCircle
 10
252.1409846483753
 20
222.5169239718898
 30
0.0
 40
4.799999999999997
100
AcDbArc
 50
270.0
 51
96.33817281970992
  0
LINE
  5
886
330
18
100
AcDbEntity
  8
4
  6
CENTER
100
AcDbLine
 10
252.140981153041
 20
228.5850857872737
 30
0.0
 11
252.140981153041
 21
216.2169317392906
 31
0.0
  0
LINE
  5
888
330
18
100
AcDbEntity
  8
4
  6
CENTER
100
AcDbLine
 10
255.8909846483753
 20
222.5169239718898
 30
0.0
 11
248.3909846483753
 21
222.5169239718898
 31
0.0
  0
LINE
  5
88A
330
18
100
AcDbEntity
  8
4
  6
CENTER
100
AcDbLine
 10
243.1409902440048
 20
215.2833222691125
 30
0.0
 11
243.1409848458258
 21
221.5381323507342
 31
0.0
  0
ARC
  5
88C
330
18
100
AcDbEntity
  8
1
  6
Continuous
100
AcDbCircle
 10
252.140981153041
 20
222.5169239718898
 30
0.0
 40
4.199999999999987
100
AcDbArc
 50
270.0
 51
66.69568527064078
  0
LINE
  5
88E
330
18
100
AcDbEntity
  8
1
  6
Continuous
100
AcDbLine
 10
248.6409846483754
 20
228.4296216082743
 30
0.0
 11
249.1569829678989
 21
229.8380766960385
 31
0.0
  0
LINE
  5
8BA
330
18
100
AcDbEntity
  8
4
  6
CENTER
100
AcDbLine
 10
51.81172178079372
 20
335.9331610177028
 30
0.0
 11
89.35102717723294
 21
335.9331610174776
 31
0.0
  0
LINE
  5
96E
330
18
100
AcDbEntity
  8
1
  6
Continuous
100
AcDbLine
 10
61.44731057283015
 20
340.5660470455619
 30
0.0
 11
62.44731057283015
 21
340.5660470455619
 31
0.0
  0
LINE
  5
96F
330
18
100
AcDbEntity
  8
1
  6
Continuous
100
AcDbLine
 10
60.44731057283016
 20
339.278666057206
 30
0.0
 11
62.44731057283015
 21
339.278666057206
 31
0.0
  0
LINE
  5
970
330
18
100
AcDbEntity
  8
1
  6
Continuous
100
AcDbLine
 10
62.44731057283015
 20
341.3813045787492
 30
0.0
 11
60.44731057283016
 21
341.9813045787492
 31
0.0
  0
LINE
  5
971
330
18
100
AcDbEntity
  8
1
  6
Continuous
100
AcDbLine
 10
60.44731057283016
 20
342.0813045787492
 30
0.0
 11
62.44731057283015
 21
342.6813045787493
 31
0.0
  0
ARC
  5
972
330
18
100
AcDbEntity
  8
1
  6
Continuous
100
AcDbCircle
 10
61.97310700561274
 20
331.4413993047233
 30
0.0
 40
0.4742035672174262
100
AcDbArc
 50
302.0053832080829
 51
57.99461679191704
  0
ARC
  5
973
330
18
100
AcDbEntity
  8
1
  6
Continuous
100
AcDbCircle
 10
61.97310700561274
 20
333.2974440701752
 30
0.0
 40
0.4742035672174262
100
AcDbArc
 50
302.0053832080829
 51
57.99461679191704
  0
LINE
  5
977
330
18
100
AcDbEntity
  8
1
  6
Continuous
100
AcDbLine
 10
60.54731057283015
 20
329.8132802111856
 30
0.0
 11
62.54731057283015
 21
329.8132802111856
 31
0.0
  0
LINE
  5
978
330
18
100
AcDbEntity
  8
1
  6
Continuous
100
AcDbLine
 10
60.44731057283016
 20
336.3616251752297
 30
0.0
 11
62.44731057283015
 21
336.3616251752297
 31
0.0
  0
LINE
  5
979
330
18
100
AcDbEntity
  8
1
  6
Continuous
100
AcDbLine
 10
60.44731057283016
 20
335.5116251752297
 30
0.0
 11
62.44731057283015
 21
335.5116251752297
 31
0.0
  0
LINE
  5
97A
330
18
100
AcDbEntity
  8
1
  6
Continuous
100
AcDbLine
 10
60.44731057283016
 20
334.3616251752297
 30
0.0
 11
62.44731057283015
 21
334.3616251752297
 31
0.0
  0
LINE
  5
980
330
18
100
AcDbEntity
  8
1
  6
Continuous
100
AcDbLine
 10
63.78567552815835
 20
339.7316876720787
 30
0.0
 11
65.78567552815835
 21
339.7316876720787
 31
0.0
  0
ARC
  5
982
330
18
100
AcDbEntity
  8
1
  6
Continuous
100
AcDbCircle
 10
61.92659869075435
 20
337.7891032196763
 30
0.0
 40
0.5207118820758546
100
AcDbArc
 50
304.8882680994089
 51
55.11173190059107
  0
LINE
  5
98E
330
18
100
AcDbEntity
  8
1
  6
Continuous
100
AcDbLine
 10
65.03567552815835
 20
339.0316876720787
 30
0.0
 11
65.03567552815835
 21
340.0316876720787
 31
0.0
  0
LINE
  5
98F
330
18
100
AcDbEntity
  8
1
  6
Continuous
100
AcDbLine
 10
63.78567552815835
 20
339.7316876720787
 30
0.0
 11
65.03567552815835
 21
339.0316876720787
 31
0.0
  0
LINE
  5
992
330
18
100
AcDbEntity
  8
1
  6
Continuous
100
AcDbLine
 10
60.54731057283015
 20
330.4132802111857
 30
0.0
 11
60.54731057283015
 21
329.2132802111856
 31
0.0
  0
ARC
  5
998
330
18
100
AcDbEntity
  8
1
  6
Continuous
100
AcDbCircle
 10
60.92151414004764
 20
333.2974440701752
 30
0.0
 40
0.4742035672174262
100
AcDbArc
 50
122.0053832080828
 51
237.9946167919171
  0
ARC
  5
999
330
18
100
AcDbEntity
  8
1
  6
Continuous
100
AcDbCircle
 10
61.44731057283019
 20
332.2826735971755
 30
0.0
 40
1.466274292452125
100
AcDbArc
 50
237.9946167919171
 51
302.0053832080829
  0
ARC
  5
99A
330
18
100
AcDbEntity
  8
1
  6
Continuous
100
AcDbCircle
 10
61.44731057283019
 20
330.6001250122713
 30
0.0
 40
1.466274292452125
100
AcDbArc
 50
57.99461679191704
 51
122.0053832080828
  0
ARC
  5
99B
330
18
100
AcDbEntity
  8
1
  6
Continuous
100
AcDbCircle
 10
61.44731057283019
 20
334.1387183626273
 30
0.0
 40
1.466274292452125
100
AcDbArc
 50
237.9946167919171
 51
302.0053832080829
  0
ARC
  5
99C
330
18
100
AcDbEntity
  8
1
  6
Continuous
100
AcDbCircle
 10
60.92151414004764
 20
331.4413993047233
 30
0.0
 40
0.4742035672174262
100
AcDbArc
 50
122.0053832080828
 51
237.9946167919171
  0
LINE
  5
99D
330
18
100
AcDbEntity
  8
1
  6
Continuous
100
AcDbLine
 10
61.44731057283015
 20
334.3616251752297
 30
0.0
 11
61.44731057283015
 21
335.5116251752297
 31
0.0
  0
LINE
  5
99E
330
18
100
AcDbEntity
  8
1
  6
Continuous
100
AcDbLine
 10
61.44731057283015
 20
340.5660470455619
 30
0.0
 11
60.44731057283016
 21
341.1660470455618
 31
0.0
  0
ARC
  5
99F
330
18
100
AcDbEntity
  8
1
  6
Continuous
100
AcDbCircle
 10
61.35084657777753
 20
336.9713602985628
 30
0.0
 40
1.520805338277071
100
AcDbArc
 50
54.94066185634784
 51
86.3633132383595
  0
LINE
  5
9A0
330
18
100
AcDbEntity
  8
1
  6
Continuous
100
AcDbLine
 10
61.44731057283015
 20
338.4891032196764
 30
0.0
 11
62.35040242006906
 21
338.4891032196764
 31
0.0
  0
LINE
  5
9A1
330
18
100
AcDbEntity
  8
1
  6
Continuous
100
AcDbLine
 10
61.44731057283015
 20
338.4891032196764
 30
0.0
 11
61.44731057283015
 21
337.7999846752108
 31
0.0
  0
ARC
  5
9A2
330
18
100
AcDbEntity
  8
1
  6
Continuous
100
AcDbCircle
 10
61.5437745678829
 20
336.9713602985628
 30
0.0
 40
1.520805338277071
100
AcDbArc
 50
115.7201063039162
 51
125.0593381436521
  0
LINE
  5
9A3
330
18
100
AcDbEntity
  8
1
  6
Continuous
100
AcDbLine
 10
60.44731057283016
 20
339.9660470455618
 30
0.0
 11
61.44731057283015
 21
340.5660470455619
 31
0.0
  0
ARC
  5
9A4
330
18
100
AcDbEntity
  8
1
  6
Continuous
100
AcDbCircle
 10
61.44731057283019
 20
338.6053775121284
 30
0.0
 40
1.466274292452125
100
AcDbArc
 50
237.9946167919171
 51
302.0053832080829
  0
ARC
  5
9A5
330
18
100
AcDbEntity
  8
1
  6
Continuous
100
AcDbCircle
 10
60.96802245490603
 20
337.7891032196763
 30
0.0
 40
0.5207118820758546
100
AcDbArc
 50
124.8882680994089
 51
235.111731900591
  0
LINE
  5
9A6
330
18
100
AcDbEntity
  8
1
  6
Continuous
100
AcDbLine
 10
61.69731057283016
 20
341.6063045787492
 30
0.0
 11
61.69731057283016
 21
342.3563045787492
 31
0.0
  0
LINE
  5
9E4
330
18
100
AcDbEntity
  8
1
  6
Continuous
100
AcDbLine
 10
64.58567552815836
 20
333.2478782591913
 30
0.0
 11
65.78567552815835
 21
332.3478782591912
 31
0.0
  0
LINE
  5
9E5
330
18
100
AcDbEntity
  8
1
  6
Continuous
100
AcDbLine
 10
65.78567552815835
 20
333.3478782591912
 30
0.0
 11
65.78567552815835
 21
332.3478782591912
 31
0.0
  0
ARC
  5
9E6
330
18
100
AcDbEntity
  8
1
  6
Continuous
100
AcDbCircle
 10
64.28567552815838
 20
332.8478782591913
 30
0.0
 40
0.5000000000000006
100
AcDbArc
 50
53.13010235415486
 51
270.0
  0
ARC
  5
9E7
330
18
100
AcDbEntity
  8
1
  6
Continuous
100
AcDbCircle
 10
64.28567552815838
 20
335.9740865264214
 30
0.0
 40
0.5000000000000006
100
AcDbArc
 50
53.13010235415486
 51
270.0
  0
LINE
  5
9E8
330
18
100
AcDbEntity
  8
1
  6
Continuous
100
AcDbLine
 10
65.78567552815835
 20
336.4740865264213
 30
0.0
 11
65.78567552815835
 21
335.4740865264213
 31
0.0
  0
LINE
  5
9E9
330
18
100
AcDbEntity
  8
1
  6
Continuous
100
AcDbLine
 10
64.58567552815836
 20
336.3740865264214
 30
0.0
 11
65.78567552815835
 21
335.4740865264213
 31
0.0
  0
LINE
  5
9F1
330
18
100
AcDbEntity
  8
1
  6
Continuous
100
AcDbLine
 10
324.7882803131719
 20
149.7169317393661
 30
0.0
 11
324.7882803130794
 21
217.7169179305758
 31
0.0
  0
LINE
  5
9F2
330
18
100
AcDbEntity
  8
1
  6
Continuous
100
AcDbLine
 10
364.7882803131718
 20
149.7169317393666
 30
0.0
 11
364.7882803130793
 21
217.7169179305758
 31
0.0
  0
LINE
  5
9F5
330
18
100
AcDbEntity
  8
1
  6
Continuous
100
AcDbLine
 10
326.2882803131696
 20
149.7169317393661
 30
0.0
 11
326.2882803131206
 21
185.7169317390999
 31
0.0
  0
LINE
  5
9F6
330
18
100
AcDbEntity
  8
1
  6
Continuous
100
AcDbLine
 10
363.2882803131697
 20
149.7169317393666
 30
0.0
 11
363.2882803131206
 21
185.7169317389883
 31
0.0
  0
CIRCLE
  5
9FD
330
18
100
AcDbEntity
  8
1
  6
Continuous
100
AcDbCircle
 10
354.7882803131237
 20
192.7169317393008
 30
0.0
 40
2.149999999999999
  0
LINE
  5
9FE
330
18
100
AcDbEntity
  8
4
  6
CENTER
100
AcDbLine
 10
354.7882803131236
 20
198.2842297219883
 30
0.0
 11
354.7882803131237
 21
187.1931767054197
 31
0.0
  0
LINE
  5
9FF
330
18
100
AcDbEntity
  8
4
  6
CENTER
100
AcDbLine
 10
344.7882803132511
 20
147.5346812255876
 30
0.0
 11
344.7882803129922
 21
239.3392866861884
 31
0.0
  0
CIRCLE
  5
A03
330
18
100
AcDbEntity
  8
1
  6
Continuous
100
AcDbCircle
 10
334.7882803131237
 20
192.7169317392444
 30
0.0
 40
2.149999999999999
  0
LINE
  5
A04
330
18
100
AcDbEntity
  8
4
  6
CENTER
100
AcDbLine
 10
334.7882803131236
 20
198.2169317392444
 30
0.0
 11
334.7882803131237
 21
187.2169317392444
 31
0.0
  0
LINE
  5
A07
330
18
100
AcDbEntity
  8
1
  6
Continuous
100
AcDbLine
 10
327.7882803131697
 20
149.7169317393661
 30
0.0
 11
361.7882803133204
 21
149.7169317393666
 31
0.0
  0
LINE
  5
A09
330
18
100
AcDbEntity
  8
1
  6
Continuous
100
AcDbLine
 10
364.7882803131718
 20
149.7169317393666
 30
0.0
 11
363.2882803131697
 21
149.7169317393666
 31
0.0
  0
ARC
  5
A0B
330
18
100
AcDbEntity
  8
1
  6
Continuous
100
AcDbCircle
 10
363.2882803133191
 20
149.7169317394716
 30
0.0
 40
1.499999999998849
100
AcDbArc
 50
90.00000000032269
 51
180.0000000003226
  0
ARC
  5
A0C
330
18
100
AcDbEntity
  8
1
  6
Continuous
100
AcDbCircle
 10
326.2882803131708
 20
149.7169317393671
 30
0.0
 40
1.499999999998849
100
AcDbArc
 50
0.0000000000006584
 51
90.00000000000062
  0
LINE
  5
A0F
330
18
100
AcDbEntity
  8
1
  6
Continuous
100
AcDbLine
 10
324.7882803131719
 20
149.7169317393661
 30
0.0
 11
326.2882803131696
 21
149.7169317393661
 31
0.0
  0
LINE
  5
A10
330
18
100
AcDbEntity
  8
4
  6
CENTER
100
AcDbLine
 10
349.2882803131237
 20
192.7169317393008
 30
0.0
 11
360.2882803131237
 21
192.7169317393009
 31
0.0
  0
CIRCLE
  5
A22
330
18
100
AcDbEntity
  8
1
  6
Continuous
100
AcDbCircle
 10
344.7882803132168
 20
164.7169317391017
 30
0.0
 40
2.149999999999999
  0
LINE
  5
A23
330
18
100
AcDbEntity
  8
4
  6
CENTER
100
AcDbLine
 10
341.138280313217
 20
164.7169317391017
 30
0.0
 11
348.4382803132169
 21
164.7169317391018
 31
0.0
  0
LINE
  5
A25
330
18
100
AcDbEntity
  8
4
  6
CENTER
100
AcDbLine
 10
329.2882803131237
 20
192.7169317392444
 30
0.0
 11
340.2882803131237
 21
192.7169317392445
 31
0.0
  0
LINE
  5
A48
330
18
100
AcDbEntity
  8
1
  6
Continuous
100
AcDbLine
 10
321.7882803130464
 20
218.3169239718425
 30
0.0
 11
323.2882803130463
 21
218.3169239718442
 31
0.0
  0
LINE
  5
A4A
330
18
100
AcDbEntity
  8
4
  6
CENTER
100
AcDbLine
 10
318.6500363470885
 20
222.5169239718895
 30
0.0
 11
371.7451177642195
 21
222.5169239718901
 31
0.0
  0
LINE
  5
A51
330
18
100
AcDbEntity
  8
1
  6
Continuous
100
AcDbLine
 10
323.2882803130459
 20
220.2669239718896
 30
0.0
 11
323.7882803129392
 21
220.2669239718896
 31
0.0
  0
LINE
  5
A52
330
18
100
AcDbEntity
  8
1
  6
Continuous
100
AcDbLine
 10
366.2882803130333
 20
224.76692397189
 30
0.0
 11
365.7882803129392
 21
224.76692397189
 31
0.0
  0
LINE
  5
A5C
330
18
100
AcDbEntity
  8
1
  6
Continuous
100
AcDbLine
 10
364.7882803130663
 20
227.3169239718885
 30
0.0
 11
364.7882803130648
 21
228.4296216082746
 31
0.0
  0
LINE
  5
A60
330
18
100
AcDbEntity
  8
1
  6
Continuous
100
AcDbLine
 10
321.2882803130466
 20
220.0169239718841
 30
0.0
 11
321.2882803130326
 21
225.0169239718841
 31
0.0
  0
LINE
  5
A62
330
18
100
AcDbEntity
  8
1
  6
Continuous
100
AcDbLine
 10
363.2882803130779
 20
217.0349512238026
 30
0.0
 11
363.2882803130769
 21
217.7169179305758
 31
0.0
  0
LINE
  5
A63
330
18
100
AcDbEntity
  8
1
  6
Continuous
100
AcDbLine
 10
321.2882803130479
 20
220.0169239718841
 30
0.0
 11
321.788280313048
 21
220.0169239718841
 31
0.0
  0
LINE
  5
A64
330
18
100
AcDbEntity
  8
1
  6
Continuous
100
AcDbLine
 10
366.2882803130464
 20
218.3169239718898
 30
0.0
 11
367.7882803131739
 21
218.3169239718915
 31
0.0
  0
LINE
  5
A66
330
18
100
AcDbEntity
  8
1
  6
Continuous
100
AcDbLine
 10
321.2882803130312
 20
225.0169239718841
 30
0.0
 11
321.7882803130311
 21
225.0169239718841
 31
0.0
  0
LINE
  5
A6D
330
18
100
AcDbEntity
  8
1
  6
Continuous
100
AcDbLine
 10
363.28828031306
 20
227.3169239718885
 30
0.0
 11
363.28828031306
 21
228.4296216082746
 31
0.0
  0
CIRCLE
  5
A73
330
18
100
AcDbEntity
  8
1
  6
Continuous
100
AcDbCircle
 10
344.7882803131522
 20
207.7169317391012
 30
0.0
 40
2.149999999999999
  0
LINE
  5
A74
330
18
100
AcDbEntity
  8
4
  6
CENTER
100
AcDbLine
 10
341.1382803131522
 20
207.7169317391012
 30
0.0
 11
348.4382803131522
 21
207.7169317391013
 31
0.0
  0
LINE
  5
A7C
330
18
100
AcDbEntity
  8
1
  6
Continuous
100
AcDbLine
 10
324.7882803130662
 20
227.3169239718885
 30
0.0
 11
324.7882803130647
 21
228.4296216082746
 31
0.0
  0
LINE
  5
A82
330
18
100
AcDbEntity
  8
1
  6
Continuous
100
AcDbLine
 10
326.2882803130779
 20
217.0349512238614
 30
0.0
 11
326.288280313077
 21
217.7169179305758
 31
0.0
  0
LINE
  5
A88
330
18
100
AcDbEntity
  8
1
  6
Continuous
100
AcDbLine
 10
326.2882803130592
 20
227.3169239718885
 30
0.0
 11
326.2882803130594
 21
228.4296216082746
 31
0.0
  0
LINE
  5
1022
330
18
100
AcDbEntity
  8
1
  6
Continuous
100
AcDbLine
 10
324.8382803132299
 20
186.2169317391043
 30
0.0
 11
324.8382803132508
 21
193.2169317390022
 31
0.0
  0
LINE
  5
1023
330
18
100
AcDbEntity
  8
1
  6
Continuous
100
AcDbLine
 10
364.7382803132684
 20
186.2169317389867
 30
0.0
 11
364.7382803132684
 21
193.2169317388849
 31
0.0
  0
LINE
  5
102A
330
18
100
AcDbEntity
  8
1
  6
Continuous
100
AcDbLine
 10
358.7882803131993
 20
159.7169317389915
 30
0.0
 11
330.7882803132342
 21
159.7169317390752
 31
0.0
  0
LINE
  5
102C
330
18
100
AcDbEntity
  8
1
  6
Continuous
100
AcDbLine
 10
363.0382803131657
 20
164.7169317389788
 30
0.0
 11
363.0382803131866
 21
171.7169317389698
 31
0.0
  0
ARC
  5
102D
330
18
100
AcDbEntity
  8
1
  6
Continuous
100
AcDbCircle
 10
358.0382803131657
 20
164.7169317389938
 30
0.0
 40
5.0
100
AcDbArc
 50
269.9999999998287
 51
359.9999999998287
  0
ARC
  5
102E
330
18
100
AcDbEntity
  8
1
  6
Continuous
100
AcDbCircle
 10
361.5382803132269
 20
184.7169317389888
 30
0.0
 40
1.000000000004219
100
AcDbArc
 50
89.99999999982868
 51
269.9999999998287
  0
LINE
  5
102F
330
18
100
AcDbEntity
  8
1
  6
Continuous
100
AcDbLine
 10
361.5382803132238
 20
183.7169317389833
 30
0.0
 11
363.0382803133195
 21
183.7169317389788
 31
0.0
  0
ARC
  5
1030
330
18
100
AcDbEntity
  8
1
  6
Continuous
100
AcDbCircle
 10
361.5382803131895
 20
172.7169317389791
 30
0.0
 40
1.000000000004219
100
AcDbArc
 50
89.99999999982868
 51
269.9999999998287
  0
LINE
  5
1031
330
18
100
AcDbEntity
  8
1
  6
Continuous
100
AcDbLine
 10
363.0382803132897
 20
173.7169317389788
 30
0.0
 11
361.5382803131926
 21
173.7169317389833
 31
0.0
  0
LINE
  5
1032
330
18
100
AcDbEntity
  8
1
  6
Continuous
100
AcDbLine
 10
363.0382803131925
 20
173.7169317389788
 30
0.0
 11
363.0382803132223
 21
183.7169317389788
 31
0.0
  0
LINE
  5
1034
330
18
100
AcDbEntity
  8
1
  6
Continuous
100
AcDbLine
 10
361.5382803131861
 20
171.7169317389748
 30
0.0
 11
363.0382803132844
 21
171.7169317389698
 31
0.0
  0
ARC
  5
1035
330
18
100
AcDbEntity
  8
1
  6
Continuous
100
AcDbCircle
 10
364.2382803132684
 20
186.2169317389868
 30
0.0
 40
0.5
100
AcDbArc
 50
269.9999999998287
 51
359.9999999998287
  0
LINE
  5
1036
330
18
100
AcDbEntity
  8
1
  6
Continuous
100
AcDbLine
 10
364.2382803132669
 20
185.7169317389868
 30
0.0
 11
361.5382803132284
 21
185.716931738991
 31
0.0
  0
LINE
  5
1039
330
18
100
AcDbEntity
  8
1
  6
Continuous
100
AcDbLine
 10
326.5382803131657
 20
164.7169317390881
 30
0.0
 11
326.5382803132284
 21
185.7169317390992
 31
0.0
  0
ARC
  5
103A
330
18
100
AcDbEntity
  8
1
  6
Continuous
100
AcDbCircle
 10
331.5382803131657
 20
164.7169317390731
 30
0.0
 40
5.0
100
AcDbArc
 50
179.9999999998286
 51
269.9999999998287
  0
ARC
  5
103B
330
18
100
AcDbEntity
  8
1
  6
Continuous
100
AcDbCircle
 10
325.3382803132299
 20
186.2169317391026
 30
0.0
 40
0.5
100
AcDbArc
 50
179.9999999998286
 51
269.9999999998287
  0
LINE
  5
103C
330
18
100
AcDbEntity
  8
1
  6
Continuous
100
AcDbLine
 10
326.5382803132284
 20
185.7169317390992
 30
0.0
 11
325.3382803132284
 21
185.7169317391027
 31
0.0
  0
LINE
  5
1047
330
18
100
AcDbEntity
  8
1
  6
Continuous
100
AcDbLine
 10
326.5382803133528
 20
227.3169239718885
 30
0.0
 11
326.5382803133562
 21
228.4296216082746
 31
0.0
  0
LINE
  5
1049
330
18
100
AcDbEntity
  8
1
  6
Continuous
100
AcDbLine
 10
363.0382803133528
 20
227.3169239718885
 30
0.0
 11
363.038280313356
 21
228.4296216082746
 31
0.0
  0
LINE
  5
1050
330
18
100
AcDbEntity
  8
1
  6
Continuous
100
AcDbLine
 10
363.0382803132524
 20
193.7169317388828
 30
0.0
 11
363.0382803133181
 21
215.7169317391893
 31
0.0
  0
LINE
  5
1051
330
18
100
AcDbEntity
  8
1
  6
Continuous
100
AcDbLine
 10
363.0382803132524
 20
193.7169317388828
 30
0.0
 11
364.2382803132685
 21
193.7169317388828
 31
0.0
  0
ARC
  5
1052
330
18
100
AcDbEntity
  8
1
  6
Continuous
100
AcDbCircle
 10
364.2382803132685
 20
193.216931738885
 30
0.0
 40
0.5
100
AcDbArc
 50
0.000000000001312
 51
90.00000000000133
  0
ARC
  5
1085
330
18
100
AcDbEntity
  8
1
  6
Continuous
100
AcDbCircle
 10
361.0382803133181
 20
215.7169317391953
 30
0.0
 40
2.0
100
AcDbArc
 50
359.9999999998287
 51
89.99999999982868
  0
LINE
  5
1087
330
18
100
AcDbEntity
  8
1
  6
Continuous
100
AcDbLine
 10
326.5382803132523
 20
193.7169317389971
 30
0.0
 11
326.5382803133181
 21
215.716931739194
 31
0.0
  0
ARC
  5
108A
330
18
100
AcDbEntity
  8
1
  6
Continuous
100
AcDbCircle
 10
325.3382803132507
 20
193.2169317390007
 30
0.0
 40
0.5
100
AcDbArc
 50
89.99999999982868
 51
179.9999999998286
  0
LINE
  5
108B
330
18
100
AcDbEntity
  8
1
  6
Continuous
100
AcDbLine
 10
326.5382803132523
 20
193.7169317389971
 30
0.0
 11
325.3382803132522
 21
193.7169317390007
 31
0.0
  0
ARC
  5
108E
330
18
100
AcDbEntity
  8
1
  6
Continuous
100
AcDbCircle
 10
328.5382803133181
 20
215.7169317391881
 30
0.0
 40
2.0
100
AcDbArc
 50
89.99999999982868
 51
179.9999999998286
  0
LINE
  5
1097
330
18
100
AcDbEntity
  8
1
  6
Continuous
100
AcDbLine
 10
208.6409811532724
 20
73.33024717265939
 30
0.0
 11
208.6409811533843
 21
36.33024717266311
 31
0.0
  0
LINE
  5
109A
330
18
100
AcDbEntity
  8
1
  6
Continuous
100
AcDbLine
 10
211.6409811533835
 20
36.58024717272065
 30
0.0
 11
211.6409811533746
 21
38.58024717270279
 31
0.0
  0
LINE
  5
10A2
330
18
100
AcDbEntity
  8
1
  6
Continuous
100
AcDbLine
 10
211.6409811532302
 20
71.08024717270279
 30
0.0
 11
211.6409811532212
 21
73.08024717267791
 31
0.0
  0
LINE
  5
10A4
330
18
100
AcDbEntity
  8
1
  6
Continuous
100
AcDbLine
 10
210.6409811531205
 20
38.58024717270393
 30
0.0
 11
210.6409811532973
 21
74.78024717250559
 31
0.0
  0
LINE
  5
111C
330
18
100
AcDbEntity
  8
1
  6
Continuous
100
AcDbLine
 10
326.2882803131097
 20
193.7169317389979
 30
0.0
 11
326.2882803130779
 21
217.0349512238614
 31
0.0
  0
LINE
  5
111D
330
18
100
AcDbEntity
  8
1
  6
Continuous
100
AcDbLine
 10
363.2882803131098
 20
193.7169317388828
 30
0.0
 11
363.2882803130779
 21
217.0349512238026
 31
0.0
  0
LINE
  5
1155
330
18
100
AcDbEntity
  8
4
  6
CENTER
100
AcDbLine
 10
186.6432096186645
 20
188.2169317392992
 30
0.0
 11
212.977657045194
 21
188.2169317392992
 31
0.0
  0
LINE
  5
1156
330
18
100
AcDbEntity
  8
1
  6
Continuous
100
AcDbLine
 10
478.9355794733946
 20
159.7169317400468
 30
0.0
 11
478.9355794730643
 21
218.3169239726466
 31
0.0
  0
LINE
  5
1157
330
18
100
AcDbEntity
  8
1
  6
Continuous
100
AcDbLine
 10
497.9355794733391
 20
171.2957157685154
 30
0.0
 11
497.9355794730829
 21
216.6735954994055
 31
0.0
  0
LINE
  5
1158
330
18
100
AcDbEntity
  8
1
  6
Continuous
100
AcDbLine
 10
499.9355794733035
 20
177.7169317401744
 30
0.0
 11
499.9355794731838
 21
198.7169317401744
 31
0.0
  0
LINE
  5
1159
330
18
100
AcDbEntity
  8
1
  6
Continuous
100
AcDbLine
 10
498.9355794733119
 20
176.2169317401688
 30
0.0
 11
498.9355794731753
 21
200.2169317401641
 31
0.0
  0
LINE
  5
115A
330
18
100
AcDbEntity
  8
1
  6
Continuous
100
AcDbLine
 10
480.9355794732097
 20
194.216931739528
 30
0.0
 11
479.9355794732066
 21
194.7475417393642
 31
0.0
  0
ARC
  5
115B
330
18
100
AcDbEntity
  8
1
  6
Continuous
100
AcDbCircle
 10
439.7980983678614
 20
142.7395615842495
 30
0.0
 40
50.0
100
AcDbArc
 50
10.40012763489374
 51
35.51980546092462
  0
ARC
  5
115C
330
18
100
AcDbEntity
  8
1
  6
Continuous
100
AcDbCircle
 10
447.935579473339
 20
171.2957157682332
 30
0.0
 40
50.0
100
AcDbArc
 50
336.3180927091166
 51
0.0000000003232582
  0
ARC
  5
115D
330
18
100
AcDbEntity
  8
1
  6
Continuous
100
AcDbCircle
 10
491.4355794734369
 20
152.2169317401173
 30
0.0
 40
2.5
100
AcDbArc
 50
190.4001276348931
 51
336.3180927091166
  0
LINE
  5
115E
330
18
100
AcDbEntity
  8
4
  6
CENTER
100
AcDbLine
 10
502.9333510076082
 20
188.2169317401914
 30
0.0
 11
477.0218119553812
 21
188.2169317400452
 31
0.0
  0
LINE
  5
115F
330
18
100
AcDbEntity
  8
1
  6
Continuous
100
AcDbLine
 10
498.9355794733076
 20
176.2169317401688
 30
0.0
 11
497.935579473312
 21
176.2169317401631
 31
0.0
  0
LINE
  5
1160
330
18
100
AcDbEntity
  8
1
  6
Continuous
100
AcDbLine
 10
499.9355794733021
 20
177.7169317401745
 30
0.0
 11
498.9355794733106
 21
176.2169317401736
 31
0.0
  0
ARC
  5
1161
330
18
100
AcDbEntity
  8
1
  6
Continuous
100
AcDbCircle
 10
482.9355794733263
 20
173.5317314310735
 30
0.0
 40
3.0
100
AcDbArc
 50
180.0000000003232
 51
215.5198054609246
  0
LINE
  5
1162
330
18
100
AcDbEntity
  8
4
  6
CENTER
100
AcDbLine
 10
482.6555194733666
 20
164.7169317400678
 30
0.0
 11
476.6555194733665
 21
164.716931740034
 31
0.0
  0
LINE
  5
1163
330
18
100
AcDbEntity
  8
1
  6
Continuous
100
AcDbLine
 10
480.9355794733947
 20
159.7169317400581
 30
0.0
 11
480.9355794733301
 21
171.1597594776
 31
0.0
  0
LINE
  5
1164
330
18
100
AcDbEntity
  8
1
  6
Continuous
100
AcDbLine
 10
480.9355794733947
 20
159.7169317400581
 30
0.0
 11
478.9355794733946
 21
159.7169317400468
 31
0.0
  0
LINE
  5
1165
330
18
100
AcDbEntity
  8
1
  6
Continuous
100
AcDbLine
 10
479.9355794733263
 20
173.5317314310566
 30
0.0
 11
479.935579473263
 21
184.7475417394661
 31
0.0
  0
LINE
  5
1166
330
18
100
AcDbEntity
  8
1
  6
Continuous
100
AcDbLine
 10
480.9355794732097
 20
194.216931739528
 30
0.0
 11
480.9355794732605
 21
185.2169317395279
 31
0.0
  0
LINE
  5
1167
330
18
100
AcDbEntity
  8
1
  6
Continuous
100
AcDbLine
 10
480.9355794732605
 20
185.216931739528
 30
0.0
 11
479.935579473263
 21
184.7475417394661
 31
0.0
  0
ARC
  5
116A
330
18
100
AcDbEntity
  8
1
  6
Continuous
100
AcDbCircle
 10
475.3354639464355
 20
134.5326157580634
 30
0.0
 40
101.5
100
AcDbArc
 50
87.65015015136921
 51
110.1206956433801
  0
LINE
  5
116B
330
18
100
AcDbEntity
  8
1
  6
Continuous
100
AcDbLine
 10
437.4355794730619
 20
218.3169239724125
 30
0.0
 11
495.4353535199157
 21
218.3169239727397
 31
0.0
  0
ARC
  5
116C
330
18
100
AcDbEntity
  8
1
  6
Continuous
100
AcDbCircle
 10
492.9258550768248
 20
228.2171077852258
 30
0.0
 40
5.0
100
AcDbArc
 50
0.0000000003232582
 51
90.00000000032324
  0
LINE
  5
116D
330
18
100
AcDbEntity
  8
1
  6
Continuous
100
AcDbLine
 10
496.2185764622538
 20
218.3905985102297
 30
0.0
 11
497.93557947308
 21
216.6735954994086
 31
0.0
  0
LINE
  5
116E
330
18
100
AcDbEntity
  8
4
  6
CENTER
100
AcDbLine
 10
490.2173811916991
 20
222.5169239727102
 30
0.0
 11
501.3881921158387
 21
222.5169239727733
 31
0.0
  0
ARC
  5
116F
330
18
100
AcDbEntity
  8
1
  6
Continuous
100
AcDbCircle
 10
495.435353519892
 20
222.5169239727397
 30
0.0
 40
4.2
100
AcDbArc
 50
270.0000000003232
 51
65.43452110149686
  0
LINE
  5
1170
330
18
100
AcDbEntity
  8
1
  6
Continuous
100
AcDbLine
 10
498.9355794731721
 20
200.2169317401687
 30
0.0
 11
497.9355794731766
 21
200.2169317401631
 31
0.0
  0
LINE
  5
1171
330
18
100
AcDbEntity
  8
1
  6
Continuous
100
AcDbLine
 10
499.9355794731838
 20
198.7169317401744
 30
0.0
 11
498.9355794731753
 21
200.2169317401641
 31
0.0
  0
LINE
  5
1172
330
18
100
AcDbEntity
  8
1
  6
Continuous
100
AcDbLine
 10
497.9355794730309
 20
225.8916639898743
 30
0.0
 11
497.9355794730178
 21
228.2171077852541
 31
0.0
  0
LINE
  5
1173
330
18
100
AcDbEntity
  8
1
  6
Continuous
100
AcDbLine
 10
479.9355794732066
 20
194.7475417393642
 30
0.0
 11
479.9355794730795
 21
217.2805403142062
 31
0.0
  0
LINE
  5
1174
330
18
100
AcDbEntity
  8
4
  6
CENTER
100
AcDbLine
 10
482.935579473124
 20
207.7169317400695
 30
0.0
 11
476.9355794731239
 21
207.7169317400357
 31
0.0
  0
LINE
  5
1175
330
18
100
AcDbEntity
  8
1
  6
Continuous
100
AcDbLine
 10
479.4355759776363
 20
234.4485258091239
 30
0.0
 11
497.1814316819243
 21
226.3367683481134
 31
0.0
  0
LINE
  5
1176
330
18
100
AcDbEntity
  8
1
  6
Continuous
100
AcDbLine
 10
482.129513348158
 20
233.2171077851656
 30
0.0
 11
492.9258550767963
 21
233.2171077852272
 31
0.0
  0
LINE
  5
1177
330
18
100
AcDbEntity
  8
4
  6
CENTER
100
AcDbLine
 10
495.4353535198621
 20
227.793001136502
 30
0.0
 11
495.4353535199256
 21
216.54443541225
 31
0.0
  0
CIRCLE
  5
1178
330
18
100
AcDbEntity
  8
1
  6
Continuous
100
AcDbCircle
 10
194.1412042207153
 20
222.5169170724603
 30
0.0
 40
2.5
  0
CIRCLE
  5
1179
330
18
100
AcDbEntity
  8
1
  6
Continuous
100
AcDbCircle
 10
194.1412042207153
 20
222.5169170724603
 30
0.0
 40
1.5
  0
LINE
  5
117A
330
18
100
AcDbEntity
  8
1
  6
Continuous
100
AcDbLine
 10
478.9355794730678
 20
217.7169317400468
 30
0.0
 11
468.935579473077
 21
217.7169317399904
 31
0.0
  0
ARC
  5
117B
330
18
100
AcDbEntity
  8
1
  6
Continuous
100
AcDbCircle
 10
476.9355794730795
 20
217.2805403141893
 30
0.0
 40
3.0
100
AcDbArc
 50
0.0000000003232582
 51
20.20995285452035
  0
LINE
  5
117C
330
18
100
AcDbEntity
  8
1
  6
Continuous
100
AcDbLine
 10
468.9355794730731
 20
218.3169239725902
 30
0.0
 11
468.935579473077
 21
217.7169317399833
 31
0.0
  0
LINE
  5
117D
330
18
100
AcDbEntity
  8
1
  6
Continuous
100
AcDbLine
 10
479.4355759776363
 20
234.4485258091238
 30
0.0
 11
479.4970776581044
 21
235.9472644598898
 31
0.0
  0
ARC
  5
117E
330
18
100
AcDbEntity
  8
1
  6
Continuous
100
AcDbCircle
 10
437.4355794730381
 20
222.5169239724125
 30
0.0
 40
4.199999999999987
100
AcDbArc
 50
113.3043147296824
 51
270.0000000003232
  0
LINE
  5
1181
330
18
100
AcDbEntity
  8
4
  6
CENTER
100
AcDbLine
 10
431.5922724610566
 20
222.5169239723795
 30
0.0
 11
443.2826568508143
 21
222.5169239724455
 31
0.0
  0
ARC
  5
1182
330
18
100
AcDbEntity
  8
1
  6
Continuous
100
AcDbCircle
 10
437.4355759777039
 20
222.5169239724125
 30
0.0
 40
4.799999999999997
100
AcDbArc
 50
83.66182718061329
 51
270.0000000003232
  0
ARC
  5
1183
330
18
100
AcDbEntity
  8
1
  6
Continuous
100
AcDbCircle
 10
475.3354639464355
 20
134.5326157580634
 30
0.0
 40
100.0
100
AcDbArc
 50
110.1206956433801
 51
113.3043147296824
  0
LINE
  5
1184
330
18
100
AcDbEntity
  8
4
  6
CENTER
100
AcDbLine
 10
446.435570382115
 20
215.283322269686
 30
0.0
 11
446.4355757802588
 21
221.5381323513077
 31
0.0
  0
LINE
  5
1186
330
18
100
AcDbEntity
  8
1
  6
Continuous
100
AcDbLine
 10
437.4355759777304
 20
217.7169239724125
 30
0.0
 11
453.4355759777326
 21
217.7169239725016
 31
0.0
  0
LINE
  5
1187
330
18
100
AcDbEntity
  8
1
  6
Continuous
100
AcDbLine
 10
437.435575977734
 20
217.7169317398148
 30
0.0
 11
453.4355759777298
 21
217.7169179311887
 31
0.0
  0
LINE
  5
1188
330
18
100
AcDbEntity
  8
1
  6
Continuous
100
AcDbLine
 10
453.4355759777326
 20
217.7169239725016
 30
0.0
 11
453.4355759777291
 21
218.3169239725028
 31
0.0
  0
LINE
  5
1189
330
18
100
AcDbEntity
  8
4
  6
CENTER
100
AcDbLine
 10
437.4355794730038
 20
228.5850857877964
 30
0.0
 11
437.4355794730736
 21
216.2169317398133
 31
0.0
  0
LINE
  5
118B
330
18
100
AcDbEntity
  8
1
  6
Continuous
100
AcDbLine
 10
440.9355759776703
 20
228.4296216088167
 30
0.0
 11
440.4195776581389
 21
229.838076696578
 31
0.0
  0
CIRCLE
  5
118F
330
18
100
AcDbEntity
  8
1
  6
Continuous
100
AcDbCircle
 10
495.4353506344197
 20
222.516930872169
 30
0.0
 40
3.25
  0
CIRCLE
  5
1190
330
18
100
AcDbEntity
  8
1
  6
Continuous
100
AcDbCircle
 10
437.4355765967358
 20
222.5169282157508
 30
0.0
 40
3.25
  0
LINE
  5
1193
330
18
100
AcDbEntity
  8
1
  6
Continuous
100
AcDbLine
 10
368.9882803130487
 20
219.2669239720259
 30
0.0
 11
368.9882803130304
 21
225.7669239720259
 31
0.0
  0
LINE
  5
1194
330
18
100
AcDbEntity
  8
1
  6
Continuous
100
AcDbLine
 10
368.9882803130494
 20
219.2669239720259
 30
0.0
 11
367.7882803130494
 21
219.2669239720192
 31
0.0
  0
LINE
  5
1195
330
18
100
AcDbEntity
  8
1
  6
Continuous
100
AcDbLine
 10
368.9882803130298
 20
225.7669239720259
 30
0.0
 11
367.7882803130297
 21
225.7669239720192
 31
0.0
  0
CIRCLE
  5
1196
330
18
100
AcDbEntity
  8
1
  6
Continuous
100
AcDbCircle
 10
252.140978276739
 20
222.5169197285513
 30
0.0
 40
2.5
  0
CIRCLE
  5
1197
330
18
100
AcDbEntity
  8
1
  6
Continuous
100
AcDbCircle
 10
252.140978276739
 20
222.5169197285513
 30
0.0
 40
1.5
  0
LINE
  5
119A
330
18
100
AcDbEntity
  8
1
  6
Continuous
100
AcDbLine
 10
97.9936819930711
 20
236.0326157573268
 30
0.0
 11
54.99368199307109
 21
236.0326157573269
 31
0.0
  0
ARC
  5
11A6
330
18
100
AcDbEntity
  8
1
  6
Continuous
100
AcDbCircle
 10
54.99368199307109
 20
234.5326157573269
 30
0.0
 40
1.5
100
AcDbArc
 50
90.0
 51
179.9999999998389
  0
ARC
  5
11A7
330
18
100
AcDbEntity
  8
1
  6
Continuous
100
AcDbCircle
 10
97.9936819930711
 20
234.5326157573268
 30
0.0
 40
1.5
100
AcDbArc
 50
359.9999999998388
 51
90.0
  0
LINE
  5
11A8
330
18
100
AcDbEntity
  8
1
  6
Continuous
100
AcDbLine
 10
97.9936819930711
 20
234.5326157573268
 30
0.0
 11
54.99368199307113
 21
234.5326157573268
 31
0.0
  0
LINE
  5
11AA
330
18
100
AcDbEntity
  8
1
  6
Continuous
100
AcDbLine
 10
366.2882803130723
 20
236.0326157573283
 30
0.0
 11
323.2882803130722
 21
236.0326157573284
 31
0.0
  0
LINE
  5
11AB
330
18
100
AcDbEntity
  8
1
  6
Continuous
100
AcDbLine
 10
323.2882803130266
 20
218.3169239718898
 30
0.0
 11
323.2882803130552
 21
228.4296216082746
 31
0.0
  0
LINE
  5
11AC
330
18
100
AcDbEntity
  8
1
  6
Continuous
100
AcDbLine
 10
321.7882803130267
 20
218.3169239718898
 30
0.0
 11
321.7882803130722
 21
234.5326157573326
 31
0.0
  0
ARC
  5
11AD
330
18
100
AcDbEntity
  8
1
  6
Continuous
100
AcDbCircle
 10
323.2882803130722
 20
234.5326157573284
 30
0.0
 40
1.5
100
AcDbArc
 50
90.0
 51
179.9999999998389
  0
LINE
  5
11AE
330
18
100
AcDbEntity
  8
1
  6
Continuous
100
AcDbLine
 10
366.2882803130266
 20
218.3169239718898
 30
0.0
 11
366.2882803130551
 21
228.4296216082746
 31
0.0
  0
LINE
  5
11AF
330
18
100
AcDbEntity
  8
1
  6
Continuous
100
AcDbLine
 10
367.7882803130267
 20
218.3169239718898
 30
0.0
 11
367.7882803130722
 21
234.5326157573242
 31
0.0
  0
ARC
  5
11B0
330
18
100
AcDbEntity
  8
1
  6
Continuous
100
AcDbCircle
 10
366.2882803130723
 20
234.5326157573283
 30
0.0
 40
1.5
100
AcDbArc
 50
359.9999999998388
 51
90.0
  0
LINE
  5
11B1
330
18
100
AcDbEntity
  8
1
  6
Continuous
100
AcDbLine
 10
367.788280313059
 20
229.8380766960388
 30
0.0
 11
321.788280313059
 21
229.8380766960388
 31
0.0
  0
LINE
  5
11B2
330
18
100
AcDbEntity
  8
1
  6
Continuous
100
AcDbLine
 10
367.7882803130551
 20
228.4296216082746
 30
0.0
 11
321.7882803130551
 21
228.4296216082746
 31
0.0
  0
LINE
  5
122F
330
18
100
AcDbEntity
  8
1
  6
Continuous
100
AcDbLine
 10
323.7882803129386
 20
227.3169239718885
 30
0.0
 11
323.7882803129386
 21
217.7169179305758
 31
0.0
  0
LINE
  5
1230
330
18
100
AcDbEntity
  8
1
  6
Continuous
100
AcDbLine
 10
365.7882803129386
 20
227.3169239718885
 30
0.0
 11
365.7882803129386
 21
217.7169179305758
 31
0.0
  0
LINE
  5
1231
330
18
100
AcDbEntity
  8
1
  6
Continuous
100
AcDbLine
 10
365.7882803129386
 20
217.7169179305758
 30
0.0
 11
323.7882803129386
 21
217.7169179305758
 31
0.0
  0
LINE
  5
1232
330
18
100
AcDbEntity
  8
1
  6
Continuous
100
AcDbLine
 10
323.7882803129386
 20
227.3169239718885
 30
0.0
 11
365.7882803129386
 21
227.3169239718885
 31
0.0
  0
LINE
  5
1234
330
18
100
AcDbEntity
  8
1
  6
Continuous
100
AcDbLine
 10
365.7882803129392
 20
220.26692397189
 30
0.0
 11
366.288280313046
 21
220.26692397189
 31
0.0
  0
LINE
  5
1235
330
18
100
AcDbEntity
  8
1
  6
Continuous
100
AcDbLine
 10
323.7882803129392
 20
224.7669239718895
 30
0.0
 11
323.2882803130332
 21
224.7669239718895
 31
0.0
  0
LINE
  5
1236
330
18
100
AcDbEntity
  8
1
  6
Continuous
100
AcDbLine
 10
328.5382803133529
 20
227.3169239718885
 30
0.0
 11
328.5382803133562
 21
228.4296216082746
 31
0.0
  0
LINE
  5
1237
330
18
100
AcDbEntity
  8
1
  6
Continuous
100
AcDbLine
 10
361.0382803133528
 20
227.3169239718885
 30
0.0
 11
361.0382803133561
 21
228.4296216082746
 31
0.0
  0
LINE
  5
139D
330
18
100
AcDbEntity
  8
1
  6
Continuous
100
AcDbLine
 10
196.6412036106245
 20
78.33024717270723
 30
0.0
 11
191.6412036106244
 21
78.33024717272133
 31
0.0
  0
LINE
  5
139E
330
18
100
AcDbEntity
  8
1
  6
Continuous
100
AcDbLine
 10
191.6412036106245
 20
78.3302471727227
 30
0.0
 11
191.6412036106244
 21
77.83024717272268
 31
0.0
  0
LINE
  5
139F
330
18
100
AcDbEntity
  8
1
  6
Continuous
100
AcDbLine
 10
196.6412036106245
 20
78.33024717270581
 30
0.0
 11
196.6412036106244
 21
77.83024717270581
 31
0.0
  0
LINE
  5
13A0
330
18
100
AcDbEntity
  8
1
  6
Continuous
100
AcDbLine
 10
197.3912036104826
 20
30.63024717270514
 30
0.0
 11
190.8912036104826
 21
30.63024717272338
 31
0.0
  0
LINE
  5
13A1
330
18
100
AcDbEntity
  8
1
  6
Continuous
100
AcDbLine
 10
190.8912036104826
 20
30.63024717272412
 30
0.0
 11
190.8912036104894
 21
31.83024717272405
 31
0.0
  0
LINE
  5
13A2
330
18
100
AcDbEntity
  8
1
  6
Continuous
100
AcDbLine
 10
197.3912036104826
 20
30.63024717270447
 30
0.0
 11
197.3912036104893
 21
31.8302471727044
 31
0.0
  0
LINE
  5
13A3
330
18
100
AcDbEntity
  8
1
  6
Continuous
100
AcDbLine
 10
254.6409811528123
 20
78.3302471727821
 30
0.0
 11
254.6409811528123
 21
77.83024717278209
 31
0.0
  0
LINE
  5
13A4
330
18
100
AcDbEntity
  8
1
  6
Continuous
100
AcDbLine
 10
249.6409811528123
 20
78.33024717279896
 30
0.0
 11
249.6409811528122
 21
77.83024717279896
 31
0.0
  0
LINE
  5
13A5
330
18
100
AcDbEntity
  8
1
  6
Continuous
100
AcDbLine
 10
254.6409811528123
 20
78.33024717278352
 30
0.0
 11
249.6409811528122
 21
78.33024717279761
 31
0.0
  0
LINE
  5
13A6
330
18
100
AcDbEntity
  8
1
  6
Continuous
100
AcDbLine
 10
255.3909811526705
 20
30.63024717278068
 30
0.0
 11
255.3909811526773
 21
31.83024717278067
 31
0.0
  0
LINE
  5
13A7
330
18
100
AcDbEntity
  8
1
  6
Continuous
100
AcDbLine
 10
248.8909811526705
 20
30.63024717280035
 30
0.0
 11
248.8909811526773
 21
31.83024717280034
 31
0.0
  0
LINE
  5
13A8
330
18
100
AcDbEntity
  8
1
  6
Continuous
100
AcDbLine
 10
255.3909811526705
 20
30.63024717278136
 30
0.0
 11
248.8909811526705
 21
30.63024717279967
 31
0.0
  0
LINE
  5
13A9
330
18
100
AcDbEntity
  8
1
  6
Continuous
100
AcDbLine
 10
219.1409811530926
 20
75.33024717265057
 30
0.0
 11
213.1409811530926
 21
75.33024717266738
 31
0.0
  0
LINE
  5
13AA
330
18
100
AcDbEntity
  8
1
  6
Continuous
100
AcDbLine
 10
219.1409811530926
 20
75.33024717265057
 30
0.0
 11
219.1409811530927
 21
74.83024717265057
 31
0.0
  0
LINE
  5
13AB
330
18
100
AcDbEntity
  8
1
  6
Continuous
100
AcDbLine
 10
213.1409811530926
 20
75.33024717266738
 30
0.0
 11
213.1409811530927
 21
74.83024717266738
 31
0.0
  0
LINE
  5
13AC
330
18
100
AcDbEntity
  8
1
  6
Continuous
100
AcDbLine
 10
193.1409811531921
 20
315.9331610175196
 30
0.0
 11
210.0794829678989
 21
315.9331610175205
 31
0.0
  0
LINE
  5
13AD
330
18
100
AcDbEntity
  8
1
  6
Continuous
100
AcDbLine
 10
193.1409811531922
 20
317.4331610175197
 30
0.0
 11
210.0794829678989
 21
317.4331610175205
 31
0.0
  0
LINE
  5
13AE
330
18
100
AcDbEntity
  8
1
  6
Continuous
100
AcDbLine
 10
191.6409811531563
 20
318.433161017526
 30
0.0
 11
210.0794829678989
 21
318.4331610175236
 31
0.0
  0
LINE
  5
13AF
330
18
100
AcDbEntity
  8
1
  6
Continuous
100
AcDbLine
 10
193.1409811531921
 20
355.9331610174191
 30
0.0
 11
210.0794829678989
 21
355.9331610174027
 31
0.0
  0
LINE
  5
13B0
330
18
100
AcDbEntity
  8
1
  6
Continuous
100
AcDbLine
 10
193.1409811531922
 20
354.4331610175167
 30
0.0
 11
210.0794829678989
 21
354.4331610175167
 31
0.0
  0
LINE
  5
13B1
330
18
100
AcDbEntity
  8
1
  6
Continuous
100
AcDbLine
 10
191.6409811532281
 20
353.4331610174239
 30
0.0
 11
210.0794829678989
 21
353.433161017422
 31
0.0
  0
LINE
  5
13B2
330
18
100
AcDbEntity
  8
1
  6
Continuous
100
AcDbLine
 10
189.9412071061381
 20
358.9331610170653
 30
0.0
 11
256.3409811527528
 21
358.9331610172258
 31
0.0
  0
LINE
  5
13B3
330
18
100
AcDbEntity
  8
1
  6
Continuous
100
AcDbLine
 10
189.9412071061531
 20
312.9331610170652
 30
0.0
 11
256.3409811528444
 21
312.9331610172258
 31
0.0
  0
LINE
  5
13B4
330
18
100
AcDbEntity
  8
1
  6
Continuous
100
AcDbLine
 10
189.9412071061385
 20
357.4331610170653
 30
0.0
 11
210.0794829678989
 21
357.433161017114
 31
0.0
  0
LINE
  5
13B5
330
18
100
AcDbEntity
  8
1
  6
Continuous
100
AcDbLine
 10
189.9412071061526
 20
314.4331610170652
 30
0.0
 11
210.0794829678989
 21
314.433161017114
 31
0.0
  0
LINE
  5
13B6
330
18
100
AcDbEntity
  8
4
  6
CENTER
100
AcDbLine
 10
184.9703325963094
 20
335.9331610174776
 30
0.0
 11
257.9777102756001
 21
335.9331610173816
 31
0.0
  0
LINE
  5
13B7
330
18
100
AcDbEntity
  8
4
  6
CENTER
100
AcDbLine
 10
194.1412036106187
 20
362.2432865202906
 30
0.0
 11
194.1412036106187
 21
308.7491264383012
 31
0.0
  0
LINE
  5
13B8
330
18
100
AcDbEntity
  8
1
  6
Continuous
100
AcDbLine
 10
189.6409811531917
 20
325.4331610174775
 30
0.0
 11
189.6409811531929
 21
346.4331610174773
 31
0.0
  0
LINE
  5
13B9
330
18
100
AcDbEntity
  8
1
  6
Continuous
100
AcDbLine
 10
190.6409811531916
 20
323.9331610174774
 30
0.0
 11
190.6409811531929
 21
347.9331610174729
 31
0.0
  0
LINE
  5
13BA
330
18
100
AcDbEntity
  8
1
  6
Continuous
100
AcDbLine
 10
191.6409811532313
 20
354.4331610171843
 30
0.0
 11
191.6409811531531
 21
317.4331610171357
 31
0.0
  0
LINE
  5
13BB
330
18
100
AcDbEntity
  8
1
  6
Continuous
100
AcDbLine
 10
189.9412071061386
 20
357.4331610170653
 30
0.0
 11
189.9412071061381
 21
358.9331610169574
 31
0.0
  0
LINE
  5
13BC
330
18
100
AcDbEntity
  8
1
  6
Continuous
100
AcDbLine
 10
197.3912036104826
 20
360.1331610174753
 30
0.0
 11
197.3912036104893
 21
358.9331610174753
 31
0.0
  0
LINE
  5
13BD
330
18
100
AcDbEntity
  8
1
  6
Continuous
100
AcDbLine
 10
190.8912036104826
 20
360.1331610174558
 30
0.0
 11
190.8912036104894
 21
358.9331610174558
 31
0.0
  0
LINE
  5
13BE
330
18
100
AcDbEntity
  8
1
  6
Continuous
100
AcDbLine
 10
197.3912036104826
 20
360.1331610174747
 30
0.0
 11
190.8912036104826
 21
360.1331610174564
 31
0.0
  0
LINE
  5
13BF
330
18
100
AcDbEntity
  8
1
  6
Continuous
100
AcDbLine
 10
189.6409811531929
 20
346.4331610174775
 30
0.0
 11
190.6409811531929
 21
347.9331610174729
 31
0.0
  0
LINE
  5
13C1
330
18
100
AcDbEntity
  8
1
  6
Continuous
100
AcDbLine
 10
196.3912036106187
 20
357.4331610170809
 30
0.0
 11
196.3912036106187
 21
355.9331610174158
 31
0.0
  0
LINE
  5
13C2
330
18
100
AcDbEntity
  8
1
  6
Continuous
100
AcDbLine
 10
191.8912036106187
 20
357.43316101707
 30
0.0
 11
191.8912036106187
 21
355.262652484337
 31
0.0
  0
LINE
  5
13C3
330
18
100
AcDbEntity
  8
1
  6
Continuous
100
AcDbLine
 10
190.640981153196
 20
347.9331610174773
 30
0.0
 11
191.6409811531916
 21
347.9331610174773
 31
0.0
  0
LINE
  5
13C5
330
18
100
AcDbEntity
  8
1
  6
Continuous
100
AcDbLine
 10
189.9412071061531
 20
312.9331610170652
 30
0.0
 11
189.9412071061526
 21
314.4331610170652
 31
0.0
  0
LINE
  5
13C6
330
18
100
AcDbEntity
  8
1
  6
Continuous
100
AcDbLine
 10
189.640981153193
 20
325.4331610174777
 30
0.0
 11
190.640981153193
 21
323.9331610174823
 31
0.0
  0
LINE
  5
13C8
330
18
100
AcDbEntity
  8
1
  6
Continuous
100
AcDbLine
 10
196.3912036106187
 20
315.9331610175198
 30
0.0
 11
196.3912036106187
 21
314.4331610170808
 31
0.0
  0
LINE
  5
13C9
330
18
100
AcDbEntity
  8
1
  6
Continuous
100
AcDbLine
 10
191.8912036106187
 20
316.603669549983
 30
0.0
 11
191.8912036106187
 21
314.4331610170699
 31
0.0
  0
LINE
  5
13CA
330
18
100
AcDbEntity
  8
1
  6
Continuous
100
AcDbLine
 10
190.6409811531962
 20
323.9331610174774
 30
0.0
 11
191.6409811531916
 21
323.9331610174774
 31
0.0
  0
LINE
  5
13CC
330
18
100
AcDbEntity
  8
1
  6
Continuous
100
AcDbLine
 10
196.6412036106245
 20
312.433161017474
 30
0.0
 11
196.6412036106244
 21
312.933161017474
 31
0.0
  0
LINE
  5
13CD
330
18
100
AcDbEntity
  8
1
  6
Continuous
100
AcDbLine
 10
191.6412036106245
 20
312.4331610174571
 30
0.0
 11
191.6412036106244
 21
312.9331610174571
 31
0.0
  0
LINE
  5
13CE
330
18
100
AcDbEntity
  8
1
  6
Continuous
100
AcDbLine
 10
196.6412036106245
 20
312.4331610174726
 30
0.0
 11
191.6412036106244
 21
312.4331610174586
 31
0.0
  0
LINE
  5
13CF
330
18
100
AcDbEntity
  8
4
  6
CENTER
100
AcDbLine
 10
252.1409811528065
 20
362.9331867384062
 30
0.0
 11
252.1409811528065
 21
308.790319767384
 31
0.0
  0
LINE
  5
13D0
330
18
100
AcDbEntity
  8
1
  6
Continuous
100
AcDbLine
 10
256.9409846483754
 20
314.9331610174375
 30
0.0
 11
256.9409846483754
 21
356.9331610174376
 31
0.0
  0
LINE
  5
13D7
330
18
100
AcDbEntity
  8
1
  6
Continuous
100
AcDbLine
 10
208.6409811531023
 20
317.4331610175204
 30
0.0
 11
208.6409811531023
 21
318.4331610175238
 31
0.0
  0
LINE
  5
13E3
330
18
100
AcDbEntity
  8
1
  6
Continuous
100
AcDbLine
 10
204.6409811531022
 20
354.1831610175237
 30
0.0
 11
210.0794829678989
 21
354.1831610175237
 31
0.0
  0
ARC
  5
13E5
330
18
100
AcDbEntity
  8
1
  6
Continuous
100
AcDbCircle
 10
204.6409811531022
 20
352.1831610175234
 30
0.0
 40
2.0
100
AcDbArc
 50
90.00000000000005
 51
141.3178125502032
  0
LINE
  5
13F6
330
18
100
AcDbEntity
  8
1
  6
Continuous
100
AcDbLine
 10
256.3409811527558
 20
357.4331610172259
 30
0.0
 11
256.3409811527528
 21
358.9331610169574
 31
0.0
  0
LINE
  5
13F7
330
18
100
AcDbEntity
  8
1
  6
Continuous
100
AcDbLine
 10
255.3909811526705
 20
360.1331610173986
 30
0.0
 11
248.8909811526705
 21
360.1331610173801
 31
0.0
  0
LINE
  5
13F8
330
18
100
AcDbEntity
  8
1
  6
Continuous
100
AcDbLine
 10
248.8909811526705
 20
360.1331610173795
 30
0.0
 11
248.8909811526773
 21
358.9331610173795
 31
0.0
  0
LINE
  5
13F9
330
18
100
AcDbEntity
  8
1
  6
Continuous
100
AcDbLine
 10
255.3909811526705
 20
360.1331610173991
 30
0.0
 11
255.3909811526773
 21
358.9331610173991
 31
0.0
  0
LINE
  5
13FA
330
18
100
AcDbEntity
  8
1
  6
Continuous
100
AcDbLine
 10
249.156982967899
 20
356.933161017432
 30
0.0
 11
256.9409846483754
 21
356.9331610174376
 31
0.0
  0
LINE
  5
13FC
330
18
100
AcDbEntity
  8
1
  6
Continuous
100
AcDbLine
 10
254.3909811528066
 20
356.9331610174359
 30
0.0
 11
254.3909811528048
 21
357.4331610172212
 31
0.0
  0
LINE
  5
13FD
330
18
100
AcDbEntity
  8
1
  6
Continuous
100
AcDbLine
 10
249.8909811528065
 20
356.9331610174326
 30
0.0
 11
249.8909811528067
 21
357.4331610172102
 31
0.0
  0
LINE
  5
1418
330
18
100
AcDbEntity
  8
1
  6
Continuous
100
AcDbLine
 10
256.3409811528444
 20
312.9331610172258
 30
0.0
 11
256.3409811528413
 21
314.4331610172259
 31
0.0
  0
LINE
  5
1419
330
18
100
AcDbEntity
  8
1
  6
Continuous
100
AcDbLine
 10
249.156982967899
 20
314.933161017432
 30
0.0
 11
256.9409846483754
 21
314.9331610174375
 31
0.0
  0
LINE
  5
141D
330
18
100
AcDbEntity
  8
1
  6
Continuous
100
AcDbLine
 10
254.3909811528066
 20
314.9331610174357
 30
0.0
 11
254.3909811528067
 21
314.4331610172211
 31
0.0
  0
LINE
  5
141E
330
18
100
AcDbEntity
  8
1
  6
Continuous
100
AcDbLine
 10
249.8909811528065
 20
314.9331610174327
 30
0.0
 11
249.8909811528067
 21
314.4331610172101
 31
0.0
  0
LINE
  5
141F
330
18
100
AcDbEntity
  8
1
  6
Continuous
100
AcDbLine
 10
254.6409811528123
 20
312.4331610173963
 30
0.0
 11
249.6409811528122
 21
312.4331610173823
 31
0.0
  0
LINE
  5
1420
330
18
100
AcDbEntity
  8
1
  6
Continuous
100
AcDbLine
 10
249.6409811528123
 20
312.4331610173809
 30
0.0
 11
249.6409811528122
 21
312.9331610173808
 31
0.0
  0
LINE
  5
1421
330
18
100
AcDbEntity
  8
1
  6
Continuous
100
AcDbLine
 10
254.6409811528123
 20
312.4331610173977
 30
0.0
 11
254.6409811528123
 21
312.9331610173977
 31
0.0
  0
LINE
  5
1422
330
18
100
AcDbEntity
  8
1
  6
Continuous
100
AcDbLine
 10
210.0794829678989
 20
312.9331610171139
 30
0.0
 11
210.0794829678989
 21
358.9331610171139
 31
0.0
  0
LINE
  5
1423
330
18
100
AcDbEntity
  8
1
  6
Continuous
100
AcDbLine
 10
249.1569829678989
 20
312.9331610172084
 30
0.0
 11
249.1569829678989
 21
358.9331610172084
 31
0.0
  0
LINE
  5
1427
330
18
100
AcDbEntity
  8
1
  6
Continuous
100
AcDbLine
 10
249.156982967899
 20
357.4331610172087
 30
0.0
 11
256.3409811527558
 21
357.4331610172259
 31
0.0
  0
LINE
  5
1428
330
18
100
AcDbEntity
  8
1
  6
Continuous
100
AcDbLine
 10
249.156982967899
 20
314.4331610172085
 30
0.0
 11
256.3409811528413
 21
314.4331610172259
 31
0.0
  0
LINE
  5
1491
330
18
100
AcDbEntity
  8
1
  6
Continuous
100
AcDbLine
 10
193.1409811531922
 20
353.4331610171843
 30
0.0
 11
193.1409811531922
 21
354.4331610171844
 31
0.0
  0
ARC
  5
1492
330
18
100
AcDbEntity
  8
1
  6
Continuous
100
AcDbCircle
 10
193.1409811531921
 20
354.4331610171843
 30
0.0
 40
1.5
100
AcDbArc
 50
89.99999999999998
 51
180.0
  0
LINE
  5
1494
330
18
100
AcDbEntity
  8
1
  6
Continuous
100
AcDbLine
 10
193.1409811531922
 20
317.4331610171356
 30
0.0
 11
193.1409811531922
 21
318.4331610171356
 31
0.0
  0
ARC
  5
1495
330
18
100
AcDbEntity
  8
1
  6
Continuous
100
AcDbCircle
 10
193.1409811531921
 20
317.4331610171357
 30
0.0
 40
1.5
100
AcDbArc
 50
180.0
 51
270.0
  0
ARC
  5
1552
330
18
100
AcDbEntity
  8
1
  6
Continuous
100
AcDbCircle
 10
194.6409811531921
 20
37.83024717279511
 30
0.0
 40
3.0
100
AcDbArc
 50
180.0
 51
270.0
  0
LINE
  5
1553
330
18
100
AcDbEntity
  8
1
  6
Continuous
100
AcDbLine
 10
193.2267675907485
 20
37.33024717299497
 30
0.0
 11
203.0797316532681
 21
37.33024717294938
 31
0.0
  0
LINE
  5
1555
330
18
100
AcDbEntity
  8
1
  6
Continuous
100
AcDbLine
 10
209.6409811531922
 20
34.83024717279522
 30
0.0
 11
209.6409811531922
 21
36.33024717279522
 31
0.0
  0
ARC
  5
1557
330
18
100
AcDbEntity
  8
1
  6
Continuous
100
AcDbCircle
 10
193.1409811531923
 20
36.33024717299543
 30
0.0
 40
1.5
100
AcDbArc
 50
180.0
 51
270.0
  0
ARC
  5
1558
330
18
100
AcDbEntity
  8
1
  6
Continuous
100
AcDbCircle
 10
194.6409811531921
 20
37.83024717279511
 30
0.0
 40
1.5
100
AcDbArc
 50
180.0
 51
270.0
  0
LINE
  5
1559
330
18
100
AcDbEntity
  8
1
  6
Continuous
100
AcDbLine
 10
193.2267675909251
 20
72.33024717304362
 30
0.0
 11
208.6409811531924
 21
72.33024717294506
 31
0.0
  0
LINE
  5
155B
330
18
100
AcDbEntity
  8
1
  6
Continuous
100
AcDbLine
 10
209.6409811531922
 20
73.33024717274373
 30
0.0
 11
209.6409811531922
 21
74.78024717250559
 31
0.0
  0
ARC
  5
155C
330
18
100
AcDbEntity
  8
1
  6
Continuous
100
AcDbCircle
 10
194.6409811531921
 20
71.83024717274372
 30
0.0
 40
3.0
100
AcDbArc
 50
90.0
 51
180.0
  0
ARC
  5
155E
330
18
100
AcDbEntity
  8
1
  6
Continuous
100
AcDbCircle
 10
193.1409811531922
 20
73.33024717304408
 30
0.0
 40
1.5
100
AcDbArc
 50
90.0
 51
180.0
  0
ARC
  5
155F
330
18
100
AcDbEntity
  8
1
  6
Continuous
100
AcDbCircle
 10
194.6409811531921
 20
71.83024717274372
 30
0.0
 40
1.5
100
AcDbArc
 50
90.0
 51
180.0
  0
LINE
  5
1579
330
18
100
AcDbEntity
  8
1
  6
Continuous
100
AcDbLine
 10
210.6409811531458
 20
38.58024717281256
 30
0.0
 11
211.6409811532729
 21
38.58024717281483
 31
0.0
  0
LINE
  5
1602
330
18
100
AcDbEntity
  8
1
  6
Continuous
100
AcDbLine
 10
209.6409811531922
 20
34.88024717294894
 30
0.0
 11
210.6409811531913
 21
34.880247172949
 31
0.0
  0
LINE
  5
1607
330
18
100
AcDbEntity
  8
1
  6
Continuous
100
AcDbLine
 10
209.6409811531922
 20
74.78024717250559
 30
0.0
 11
210.6409811532973
 21
74.78024717250559
 31
0.0
  0
LINE
  5
1609
330
18
100
AcDbEntity
  8
1
  6
Continuous
100
AcDbLine
 10
210.6409811532903
 20
73.33024717265931
 30
0.0
 11
220.6409811531018
 21
73.33024717265875
 31
0.0
  0
LINE
  5
160A
330
18
100
AcDbEntity
  8
1
  6
Continuous
100
AcDbLine
 10
208.6409811532737
 20
73.08024717250559
 30
0.0
 11
210.6409811532737
 21
73.08024717250559
 31
0.0
  0
LINE
  5
160B
330
18
100
AcDbEntity
  8
1
  6
Continuous
100
AcDbLine
 10
210.6409811531023
 20
36.33024717266311
 30
0.0
 11
220.6409811531017
 21
36.33024717266311
 31
0.0
  0
LINE
  5
160E
330
18
100
AcDbEntity
  8
4
  6
CENTER
100
AcDbLine
 10
219.6409840385646
 20
228.7169386386674
 30
0.0
 11
212.6409840385646
 21
228.7169386386674
 31
0.0
  0
LINE
  5
160F
330
18
100
AcDbEntity
  8
4
  6
CENTER
100
AcDbLine
 10
216.1409840385646
 20
232.2169386386674
 30
0.0
 11
216.1409840385646
 21
225.2169386386674
 31
0.0
  0
LINE
  5
1610
330
18
100
AcDbEntity
  8
1
  6
Continuous
100
AcDbLine
 10
213.8909811530927
 20
73.08024717267329
 30
0.0
 11
213.8909811530928
 21
73.3302471726646
 31
0.0
  0
LINE
  5
1611
330
18
100
AcDbEntity
  8
1
  6
Continuous
100
AcDbLine
 10
218.3909811530927
 20
73.08024717266403
 30
0.0
 11
218.3909811530928
 21
73.33024717265368
 31
0.0
  0
LINE
  5
1612
330
18
100
AcDbEntity
  8
1
  6
Continuous
100
AcDbLine
 10
213.8909811530927
 20
36.33024717270564
 30
0.0
 11
213.8909811530927
 21
36.58024717269688
 31
0.0
  0
LINE
  5
1613
330
18
100
AcDbEntity
  8
1
  6
Continuous
100
AcDbLine
 10
218.3909811530927
 20
36.33024717269637
 30
0.0
 11
218.3909811530927
 21
36.58024717268597
 31
0.0
  0
LINE
  5
1615
330
18
100
AcDbEntity
  8
4
  6
CENTER
100
AcDbLine
 10
216.1409811530926
 20
361.9331610178025
 30
0.0
 11
216.1409811530925
 21
309.9331610178024
 31
0.0
  0
LINE
  5
1622
330
18
100
AcDbEntity
  8
4
  6
CENTER
100
AcDbLine
 10
212.6409811530387
 20
192.7169317392444
 30
0.0
 11
206.6409811530387
 21
192.7169317392444
 31
0.0
  0
LINE
  5
1623
330
18
100
AcDbEntity
  8
4
  6
CENTER
100
AcDbLine
 10
476.9355794732082
 20
192.7169317399889
 30
0.0
 11
482.9355794732083
 21
192.7169317400227
 31
0.0
  0
ARC
  5
1668
330
18
100
AcDbEntity
  8
1
  6
Continuous
100
AcDbCircle
 10
82.27942003503269
 20
208.3345813726008
 30
0.0
 40
0.9548296997429744
100
AcDbArc
 50
29.61725221294413
 51
136.0387438471429
  0
ARC
  5
1669
330
18
100
AcDbEntity
  8
1
  6
Continuous
100
AcDbCircle
 10
81.46993170615756
 20
207.9877609277231
 30
0.0
 40
1.832606660564399
100
AcDbArc
 50
319.1212062773785
 51
26.53478978270698
  0
ARC
  5
166A
330
18
100
AcDbEntity
  8
1
  6
Continuous
100
AcDbCircle
 10
82.16826238256988
 20
207.4512073510085
 30
0.0
 40
0.9548298824012404
100
AcDbArc
 50
209.6171483424913
 51
316.0387382355957
  0
ARC
  5
166B
330
18
100
AcDbEntity
  8
1
  6
Continuous
100
AcDbCircle
 10
82.97779391754017
 20
207.7980219478851
 30
0.0
 40
1.832642978589431
100
AcDbArc
 50
139.1219553087654
 51
206.5339690210453
  0
LINE
  5
166C
330
18
100
AcDbEntity
  8
1
  6
Continuous
100
AcDbLine
 10
84.56026655434369
 20
208.3223970660765
 30
0.0
 11
85.25999585623525
 21
208.0914964148807
 31
0.0
  0
LINE
  5
166D
330
18
100
AcDbEntity
  8
1
  6
Continuous
100
AcDbLine
 10
84.12155531707181
 20
206.9929113924826
 30
0.0
 11
84.82128461896335
 21
206.7620107412869
 31
0.0
  0
LINE
  5
166E
330
18
100
AcDbEntity
  8
1
  6
Continuous
100
AcDbLine
 10
84.56026655434369
 20
208.3223970660765
 30
0.0
 11
83.68284407980004
 21
205.6634257188887
 31
0.0
  0
ARC
  5
166F
330
18
100
AcDbEntity
  8
1
  6
Continuous
100
AcDbCircle
 10
85.04064023759935
 20
207.4267535780838
 30
0.0
 40
0.6999999474999916
100
AcDbArc
 50
251.7378498361946
 51
71.73784983619462
  0
LINE
  5
1670
330
18
100
AcDbEntity
  8
1
  6
Continuous
100
AcDbLine
 10
87.31106938789547
 20
207.2891100815513
 30
0.0
 11
88.6038528239616
 21
206.5816810645991
 31
0.0
  0
LINE
  5
1671
330
18
100
AcDbEntity
  8
1
  6
Continuous
100
AcDbLine
 10
86.63901182179087
 20
206.0609658172884
 30
0.0
 11
87.60859939884047
 21
205.5303940545743
 31
0.0
  0
LINE
  5
1672
330
18
100
AcDbEntity
  8
1
  6
Continuous
100
AcDbLine
 10
85.96695425568636
 20
204.8328215530256
 30
0.0
 11
87.25973769175245
 21
204.1253925360735
 31
0.0
  0
LINE
  5
1673
330
18
100
AcDbEntity
  8
1
  6
Continuous
100
AcDbLine
 10
87.31106938789547
 20
207.2891100815513
 30
0.0
 11
85.96695425568636
 21
204.8328215530256
 31
0.0
  0
LINE
  5
1674
330
18
100
AcDbEntity
  8
1
  6
Continuous
100
AcDbLine
 10
90.9033345885135
 20
204.8116023017855
 30
0.0
 11
89.25240161264722
 21
202.5500941472132
 31
0.0
  0
LINE
  5
1675
330
18
100
AcDbEntity
  8
1
  6
Continuous
100
AcDbLine
 10
89.71306713873861
 20
205.6805143943468
 30
0.0
 11
88.0621341628723
 21
203.4190062397744
 31
0.0
  0
LINE
  5
1676
330
18
100
AcDbEntity
  8
1
  6
Continuous
100
AcDbLine
 10
89.71306713873861
 20
205.6805143943468
 30
0.0
 11
89.25240161264722
 21
202.5500941472132
 31
0.0
  0
ARC
  5
1678
330
18
100
AcDbEntity
  8
1
  6
Continuous
100
AcDbCircle
 10
67.93939898193326
 20
206.3335737457129
 30
0.0
 40
0.9548298824012404
100
AcDbArc
 50
248.7747189593574
 51
355.1963088524615
  0
ARC
  5
1679
330
18
100
AcDbEntity
  8
1
  6
Continuous
100
AcDbCircle
 10
67.46778082387286
 20
207.0887439243568
 30
0.0
 40
0.9548296997429744
100
AcDbArc
 50
68.77482282981005
 51
175.1963144640088
  0
ARC
  5
167A
330
18
100
AcDbEntity
  8
1
  6
Continuous
100
AcDbCircle
 10
64.37048630462742
 20
204.6975954053388
 30
0.0
 40
1.832642978589431
100
AcDbArc
 50
181.2725299715031
 51
248.6845436837833
  0
LINE
  5
167B
330
18
100
AcDbEntity
  8
1
  6
Continuous
100
AcDbLine
 10
65.76711877538835
 20
204.1271204700726
 30
0.0
 11
67.03194693817684
 21
204.8833972350269
 31
0.0
  0
ARC
  5
167C
330
18
100
AcDbEntity
  8
1
  6
Continuous
100
AcDbCircle
 10
63.49264824870965
 20
204.6267262046779
 30
0.0
 40
0.9548296997429744
100
AcDbArc
 50
71.76782687568202
 51
178.1893185098808
  0
ARC
  5
167D
330
18
100
AcDbEntity
  8
1
  6
Continuous
100
AcDbCircle
 10
64.00305355215071
 20
203.8972112206342
 30
0.0
 40
0.9548298824012404
100
AcDbArc
 50
251.7677230052294
 51
358.1893128983335
  0
LINE
  5
167E
330
18
100
AcDbEntity
  8
1
  6
Continuous
100
AcDbLine
 10
64.3301929219751
 20
206.5302939793708
 30
0.0
 11
65.76711877538835
 21
204.1271204700726
 31
0.0
  0
ARC
  5
167F
330
18
100
AcDbEntity
  8
1
  6
Continuous
100
AcDbCircle
 10
68.34812180231368
 20
207.1136809991201
 30
0.0
 40
1.832642978589431
100
AcDbArc
 50
178.2795259256312
 51
245.6915396379113
  0
LINE
  5
1680
330
18
100
AcDbEntity
  8
1
  6
Continuous
100
AcDbLine
 10
71.95925148945512
 20
206.9437584580409
 30
0.0
 11
73.42279153947258
 21
207.1163717500772
 31
0.0
  0
LINE
  5
1681
330
18
100
AcDbEntity
  8
1
  6
Continuous
100
AcDbLine
 10
71.63128623458624
 20
209.7244845530742
 30
0.0
 11
73.09482628460372
 21
209.8970978451104
 31
0.0
  0
ARC
  5
1682
330
18
100
AcDbEntity
  8
1
  6
Continuous
100
AcDbCircle
 10
70.01239028766502
 20
208.4138279366455
 30
0.0
 40
0.6999999475000001
100
AcDbArc
 50
14.88738559976353
 51
284.8873855997603
  0
ARC
  5
1683
330
18
100
AcDbEntity
  8
1
  6
Continuous
100
AcDbCircle
 10
70.37207829827053
 20
207.0608223043488
 30
0.0
 40
0.6999999475000001
100
AcDbArc
 50
194.8873855997634
 51
104.8873855997635
  0
ARC
  5
1684
330
18
100
AcDbEntity
  8
1
  6
Continuous
100
AcDbCircle
 10
67.05909519878182
 20
206.3086594190534
 30
0.0
 40
1.832606660564399
100
AcDbArc
 50
358.2787768942445
 51
65.69236039957289
  0
LINE
  5
1685
330
18
100
AcDbEntity
  8
1
  6
Continuous
100
AcDbLine
 10
71.63128623458624
 20
209.7244845530742
 30
0.0
 11
71.95925148945512
 21
206.9437584580409
 31
0.0
  0
LINE
  5
1686
330
18
100
AcDbEntity
  8
1
  6
Continuous
100
AcDbLine
 10
71.79526886202068
 20
208.3341215055575
 30
0.0
 11
72.89292389953378
 21
208.4635814745848
 31
0.0
  0
LINE
  5
1AF7
330
18
100
AcDbEntity
  8
4
  6
CENTER
100
AcDbLine
 10
469.9355765874795
 20
228.7169386393721
 30
0.0
 11
476.9355765874794
 21
228.7169386394116
 31
0.0
  0
LINE
  5
1AF8
330
18
100
AcDbEntity
  8
4
  6
CENTER
100
AcDbLine
 10
473.4355765874599
 20
232.2169386393919
 30
0.0
 11
473.4355765874993
 21
225.2169386393919
 31
0.0
  0
LINE
  5
1FBC
330
18
100
AcDbEntity
  8
1
  6
Continuous
100
AcDbLine
 10
99.49368199302554
 20
218.3169239718898
 30
0.0
 11
97.99368199302557
 21
218.3169239718898
 31
0.0
  0
LINE
  5
1FBE
330
18
100
AcDbEntity
  8
1
  6
Continuous
100
AcDbLine
 10
54.99368199302555
 20
218.3169239718897
 30
0.0
 11
53.49368199302555
 21
218.3169239718898
 31
0.0
  0
LINE
  5
2FAE
330
18
100
AcDbEntity
  8
1
  6
Continuous
100
AcDbLine
 10
324.2882803130683
 20
227.316923971773
 30
0.0
 11
324.2882803130651
 21
228.4296216081591
 31
0.0
  0
LINE
  5
3458
330
18
100
AcDbEntity
  8
4
  6
CENTER
100
AcDbLine
 10
243.1409811527866
 20
68.73024717270102
 30
0.0
 11
243.1409811527866
 21
57.43024717270099
 31
0.0
  0
LINE
  5
34DB
330
18
100
AcDbEntity
  8
1
  6
Continuous
100
AcDbLine
 10
211.6409811530296
 20
218.3169239718898
 30
0.0
 11
211.6409811530291
 21
217.7169317392829
 31
0.0
  0
LINE
  5
34EB
330
18
100
AcDbEntity
  8
1
  6
Continuous
100
AcDbLine
 10
477.9355794730731
 20
218.3169239725902
 30
0.0
 11
477.935579473077
 21
217.7169317399833
 31
0.0
  0
LINE
  5
34FB
330
18
100
AcDbEntity
  8
4
  6
CENTER
100
AcDbLine
 10
336.53828031306
 20
215.2833222693765
 30
0.0
 11
336.5382803130456
 21
220.3520922473303
 31
0.0
  0
LINE
  5
34FC
330
18
100
AcDbEntity
  8
4
  6
CENTER
100
AcDbLine
 10
353.03828031306
 20
215.2833222693765
 30
0.0
 11
353.0382803130457
 21
220.3520922473303
 31
0.0
  0
LINE
  5
3540
330
18
100
AcDbEntity
  8
1
  6
Continuous
100
AcDbLine
 10
327.788280313245
 20
149.7169317393661
 30
0.0
 11
327.7882803132252
 21
156.7169317390668
 31
0.0
  0
ARC
  5
3541
330
18
100
AcDbEntity
  8
1
  6
Continuous
100
AcDbCircle
 10
330.7882803132252
 20
156.7169317390752
 30
0.0
 40
3.0
100
AcDbArc
 50
89.99999999982868
 51
180.0000000001616
  0
ARC
  5
3542
330
18
100
AcDbEntity
  8
1
  6
Continuous
100
AcDbCircle
 10
358.7882803132252
 20
156.7169317391543
 30
0.0
 40
3.0
100
AcDbArc
 50
0.0000000001621186
 51
90.00000000049505
  0
LINE
  5
3543
330
18
100
AcDbEntity
  8
1
  6
Continuous
100
AcDbLine
 10
361.788280313245
 20
149.7169317394623
 30
0.0
 11
361.7882803132252
 21
156.7169317391628
 31
0.0
  0
LINE
  5
355B
330
18
100
AcDbEntity
  8
1
  6
Continuous
100
AcDbLine
 10
480.9355794732126
 20
193.716931738885
 30
0.0
 11
478.9355794732029
 21
193.716931738885
 31
0.0
  0
LINE
  5
355C
330
18
100
AcDbEntity
  8
1
  6
Continuous
100
AcDbLine
 10
480.9355794732575
 20
185.716931738991
 30
0.0
 11
478.9355794732481
 21
185.716931738991
 31
0.0
  0
LINE
  5
3562
330
18
100
AcDbEntity
  8
1
  6
Continuous
100
AcDbLine
 10
479.935579473263
 20
183.7169317389911
 30
0.0
 11
478.9355794732481
 21
183.7169317389911
 31
0.0
  0
LINE
  5
3566
330
18
100
AcDbEntity
  8
1
  6
Continuous
100
AcDbLine
 10
479.935579473263
 20
173.716931738991
 30
0.0
 11
478.9355794732481
 21
173.716931738991
 31
0.0
  0
LINE
  5
3676
330
18
100
AcDbEntity
  8
1
  6
Continuous
100
AcDbLine
 10
480.5450248644095
 20
171.716931738991
 30
0.0
 11
478.9355794732481
 21
171.716931738991
 31
0.0
  0
ENDSEC
  0
SECTION
  2
OBJECTS
  0
DICTIONARY
  5
C
330
0
100
AcDbDictionary
281
     1
  3
ACAD_CIP_PREVIOUS_PRODUCT_INFO
350
3741
  3
ACAD_COLOR
350
3724
  3
ACAD_DETAILVIEWSTYLE
350
373D
  3
ACAD_GROUP
350
D
  3
ACAD_LAYOUT
350
94
  3
ACAD_MATERIAL
350
36F2
  3
ACAD_MLEADERSTYLE
350
3739
  3
ACAD_MLINESTYLE
350
1B
  3
ACAD_PLOTSETTINGS
350
95
  3
ACAD_PLOTSTYLENAME
350
36F0
  3
ACAD_SCALELIST
350
3727
  3
ACAD_SECTIONVIEWSTYLE
350
373B
  3
ACAD_TABLESTYLE
350
3725
  3
ACAD_VISUALSTYLE
350
370B
  3
ACDB_RECOMPOSE_DATA
350
375F
  3
AcDbVariableDictionary
350
3752
  3
CONTENTDICTIONARY
350
3D
  3
DWGPROPS
350
3760
  0
DICTIONARY
  5
3742
330
E
100
AcDbDictionary
280
     1
281
     1
  3
ADSK_XREC_LAYER_RECONCILED
360
3743
  0
DICTIONARY
  5
3744
330
4E
100
AcDbDictionary
280
     1
281
     1
  3
ADSK_XREC_LAYER_RECONCILED
360
3745
  0
DICTIONARY
  5
3746
330
4F
100
AcDbDictionary
280
     1
281
     1
  3
ADSK_XREC_LAYER_RECONCILED
360
3747
  0
DICTIONARY
  5
3748
330
50
100
AcDbDictionary
280
     1
281
     1
  3
ADSK_XREC_LAYER_RECONCILED
360
3749
  0
DICTIONARY
  5
374A
330
51
100
AcDbDictionary
280
     1
281
     1
  3
ADSK_XREC_LAYER_RECONCILED
360
374B
  0
DICTIONARY
  5
374C
330
52
100
AcDbDictionary
280
     1
281
     1
  3
ADSK_XREC_LAYER_RECONCILED
360
374D
  0
DICTIONARY
  5
374E
330
53
100
AcDbDictionary
280
     1
281
     1
  3
ADSK_XREC_LAYER_RECONCILED
360
374F
  0
DICTIONARY
  5
3750
330
54
100
AcDbDictionary
280
     1
281
     1
  3
ADSK_XREC_LAYER_RECONCILED
360
3751
  0
DICTIONARY
  5
36EB
330
18
100
AcDbDictionary
281
     1
  3
ACAD_LAYOUTSELFREF
350
36EC
  0
DICTIONARY
  5
36E9
330
15
100
AcDbDictionary
281
     1
  3
ACAD_LAYOUTSELFREF
350
36EA
  0
XRECORD
  5
3741
102
{ACAD_REACTORS
330
C
102
}
330
C
100
AcDbXrecord
280
     1
300
ACDLT
300
2014
300
ACDLT_F_S
  0
DICTIONARY
  5
3724
102
{ACAD_REACTORS
330
C
102
}
330
C
100
AcDbDictionary
281
     1
  0
DICTIONARY
  5
373D
102
{ACAD_REACTORS
330
C
102
}
330
C
100
AcDbDictionary
281
     1
  3
Imperial24
350
373E
  0
DICTIONARY
  5
D
102
{ACAD_REACTORS
330
C
102
}
330
C
100
AcDbDictionary
281
     1
  0
DICTIONARY
  5
94
102
{ACAD_REACTORS
330
C
102
}
330
C
100
AcDbDictionary
281
     1
  3
Model
350
373F
  3
レイアウト1
350
3740
  0
DICTIONARY
  5
36F2
102
{ACAD_REACTORS
330
C
102
}
330
C
100
AcDbDictionary
281
     1
  3
ByBlock
350
36FB
  3
ByLayer
350
36F3
  3
Global
350
3703
  0
DICTIONARY
  5
3739
102
{ACAD_REACTORS
330
C
102
}
330
C
100
AcDbDictionary
281
     1
  3
Standard
350
373A
  0
DICTIONARY
  5
1B
102
{ACAD_REACTORS
330
C
102
}
330
C
100
AcDbDictionary
281
     1
  3
STANDARD
350
1C
  0
DICTIONARY
  5
95
102
{ACAD_REACTORS
330
C
102
}
330
C
100
AcDbDictionary
281
     1
  0
ACDBDICTIONARYWDFLT
  5
36F0
102
{ACAD_REACTORS
330
C
102
}
330
C
100
AcDbDictionary
281
     1
  3
Normal
350
36F1
100
AcDbDictionaryWithDefault
340
36F1
  0
DICTIONARY
  5
3727
102
{ACAD_REACTORS
330
C
102
}
330
C
100
AcDbDictionary
281
     1
  3
A0
350
3728
  3
A1
350
3729
  3
A2
350
372A
  3
A3
350
372B
  3
A4
350
372C
  3
A5
350
372D
  3
A6
350
372E
  3
A7
350
372F
  3
A8
350
3730
  3
A9
350
3731
  3
B0
350
3732
  3
B1
350
3733
  3
B2
350
3734
  3
B3
350
3735
  3
B4
350
3736
  3
B5
350
3737
  3
B6
350
3738
  0
DICTIONARY
  5
373B
102
{ACAD_REACTORS
330
C
102
}
330
C
100
AcDbDictionary
281
     1
  3
Imperial24
350
373C
  0
DICTIONARY
  5
3725
102
{ACAD_REACTORS
330
C
102
}
330
C
100
AcDbDictionary
281
     1
  3
Standard
350
3726
  0
DICTIONARY
  5
370B
102
{ACAD_REACTORS
330
C
102
}
330
C
100
AcDbDictionary
281
     1
  3
2dWireframe
350
3711
  3
Basic
350
3710
  3
Brighten
350
3717
  3
ColorChange
350
371B
  3
Conceptual
350
3714
  3
Dim
350
3716
  3
EdgeColorOff
350
3723
  3
Facepattern
350
371A
  3
Flat
350
370C
  3
FlatWithEdges
350
370D
  3
Gouraud
350
370E
  3
GouraudWithEdges
350
370F
  3
Hidden
350
3713
  3
JitterOff
350
3721
  3
Linepattern
350
3719
  3
OverhangOff
350
3722
  3
Realistic
350
3715
  3
Shaded
350
3720
  3
Shaded with edges
350
371F
  3
Shades of Gray
350
371C
  3
Sketchy
350
371D
  3
Thicken
350
3718
  3
Wireframe
350
3712
  3
X-Ray
350
371E
  0
XRECORD
  5
375F
102
{ACAD_REACTORS
330
C
102
}
330
C
100
AcDbXrecord
280
     1
 90
        1
330
3726
  0
DICTIONARY
  5
3752
102
{ACAD_REACTORS
330
C
102
}
330
C
100
AcDbDictionary
281
     1
  3
CANNOSCALE
350
3757
  3
CMLEADERSTYLE
350
3754
  3
CTABLESTYLE
350
3753
  3
CVIEWDETAILSTYLE
350
3755
  3
CVIEWSECTIONSTYLE
350
3756
  3
DIMASSOC
350
375A
  3
INDEXCTL
350
3759
  3
SORTENTS
350
3758
  3
XCLIPFRAME
350
375B
  0
DICTIONARY
  5
3D
102
{ACAD_REACTORS
330
C
102
}
330
C
100
AcDbDictionary
281
     1
  0
XRECORD
  5
3760
102
{ACAD_REACTORS
330
C
102
}
330
C
100
AcDbXrecord
280
     1
  1
DWGPROPS COOKIE
  2

  3

  4

  6

  7

  8
Yoshitsune
  9

300
=
301
=
302
=
303
=
304
=
305
=
306
=
307
=
308
=
309
=
 40
0.4353630555555556
 41
2453025.418617975
 42
2457192.60196956
  1

 90
        0
  0
XRECORD
  5
3743
102
{ACAD_REACTORS
330
3742
102
}
330
3742
100
AcDbXrecord
280
     1
290
     1
  0
XRECORD
  5
3745
102
{ACAD_REACTORS
330
3744
102
}
330
3744
100
AcDbXrecord
280
     1
290
     1
  0
XRECORD
  5
3747
102
{ACAD_REACTORS
330
3746
102
}
330
3746
100
AcDbXrecord
280
     1
290
     1
  0
XRECORD
  5
3749
102
{ACAD_REACTORS
330
3748
102
}
330
3748
100
AcDbXrecord
280
     1
290
     1
  0
XRECORD
  5
374B
102
{ACAD_REACTORS
330
374A
102
}
330
374A
100
AcDbXrecord
280
     1
290
     1
  0
XRECORD
  5
374D
102
{ACAD_REACTORS
330
374C
102
}
330
374C
100
AcDbXrecord
280
     1
290
     1
  0
XRECORD
  5
374F
102
{ACAD_REACTORS
330
374E
102
}
330
374E
100
AcDbXrecord
280
     1
290
     1
  0
XRECORD
  5
3751
102
{ACAD_REACTORS
330
3750
102
}
330
3750
100
AcDbXrecord
280
     1
290
     1
  0
XRECORD
  5
36EC
102
{ACAD_REACTORS
330
36EB
102
}
330
36EB
100
AcDbXrecord
280
     1
340
18
  0
XRECORD
  5
36EA
102
{ACAD_REACTORS
330
36E9
102
}
330
36E9
100
AcDbXrecord
280
     1
340
15
  0
ACDBDETAILVIEWSTYLE
  5
373E
102
{ACAD_XDICTIONARY
360
3798
102
}
102
{ACAD_REACTORS
330
373D
102
}
330
373D
100
AcDbModelDocViewStyle
 70
     0
  3
Imperial24
290
     0
100
AcDbDetailViewStyle
 70
     0
 71
     0
 90
        3
 71
     1
340
F
 40
0.24
340
0
 40
0.24
300

 40
0.36
280
     3
 71
     2
340
14
 90
       25
 71
     3
340
F
 40
0.24
 90
        1
 40
0.75
 90
        1
300
%<\AcVar ViewType \f "%tc1">% %<\AcVar ViewDetailId>%\PSCALE %<\AcVar ViewScale \f "%sn">%
 71
     4
340
14
 90
       25
340
14
 90
       25
280
     0
  0
LAYOUT
  5
373F
102
{ACAD_XDICTIONARY
360
379A
102
}
102
{ACAD_REACTORS
330
94
102
}
330
94
100
AcDbPlotSettings
  1

  2
Canon LBP9100C
  4

  6

 40
0.0
 41
0.0
 42
0.0
 43
0.0
 44
0.0
 45
0.0
 46
0.0
 47
0.0
 48
0.0
 49
0.0
140
0.0
141
0.0
142
1.0
143
1.0
 70
  1712
 72
     0
 73
     0
 74
     0
  7

 75
     0
147
1.0
148
0.0
149
0.0
100
AcDbLayout
  1
Model
 70
     1
 71
     0
 10
0.0
 20
0.0
 11
12.0
 21
9.0
 12
0.0
 22
0.0
 32
0.0
 14
0.0
 24
0.0
 34
0.0
 15
0.0
 25
0.0
 35
0.0
146
0.0
 13
0.0
 23
0.0
 33
0.0
 16
1.0
 26
0.0
 36
0.0
 17
0.0
 27
1.0
 37
0.0
 76
     0
330
18
331
36E8
  0
LAYOUT
  5
3740
102
{ACAD_XDICTIONARY
360
379C
102
}
102
{ACAD_REACTORS
330
94
102
}
330
94
100
AcDbPlotSettings
  1

  2
Canon LBP9100C
  4

  6

 40
0.0
 41
0.0
 42
0.0
 43
0.0
 44
0.0
 45
0.0
 46
0.0
 47
0.0
 48
0.0
 49
0.0
140
0.0
141
0.0
142
1.0
143
1.0
 70
   688
 72
     0
 73
     0
 74
     5
  7

 75
    16
147
1.0
148
0.0
149
0.0
100
AcDbLayout
  1
レイアウト1
 70
     1
 71
     1
 10
0.0
 20
0.0
 11
420.0
 21
297.0
 12
0.0
 22
0.0
 32
0.0
 14
1.000000000000000E+20
 24
1.000000000000000E+20
 34
1.000000000000000E+20
 15
-1.000000000000000E+20
 25
-1.000000000000000E+20
 35
-1.000000000000000E+20
146
0.0
 13
0.0
 23
0.0
 33
0.0
 16
1.0
 26
0.0
 36
0.0
 17
0.0
 27
1.0
 37
0.0
 76
     0
330
15
  0
MATERIAL
  5
36FB
102
{ACAD_XDICTIONARY
360
36FC
102
}
102
{ACAD_REACTORS
330
36F2
102
}
330
36F2
100
AcDbMaterial
  1
ByBlock
 72
     0
 43
0.0208333333333333
 43
0.0
 43
0.0
 43
0.0
 43
0.0
 43
0.0208333333333333
 43
0.0
 43
0.0
 43
0.0
 43
0.0
 43
1.0
 43
0.0
 43
0.0
 43
0.0
 43
0.0
 43
1.0
 77
     0
 47
0.0208333333333333
 47
0.0
 47
0.0
 47
0.0
 47
0.0
 47
0.0208333333333333
 47
0.0
 47
0.0
 47
0.0
 47
0.0
 47
1.0
 47
0.0
 47
0.0
 47
0.0
 47
0.0
 47
1.0
171
     0
 49
0.0208333333333333
 49
0.0
 49
0.0
 49
0.0
 49
0.0
 49
0.0208333333333333
 49
0.0
 49
0.0
 49
0.0
 49
0.0
 49
1.0
 49
0.0
 49
0.0
 49
0.0
 49
0.0
 49
1.0
175
     0
142
0.0208333333333333
142
0.0
142
0.0
142
0.0
142
0.0
142
0.0208333333333333
142
0.0
142
0.0
142
0.0
142
0.0
142
1.0
142
0.0
142
0.0
142
0.0
142
0.0
142
1.0
179
     0
144
0.0208333333333333
144
0.0
144
0.0
144
0.0
144
0.0
144
0.0208333333333333
144
0.0
144
0.0
144
0.0
144
0.0
144
1.0
144
0.0
144
0.0
144
0.0
144
0.0
144
1.0
147
0.0208333333333333
147
0.0
147
0.0
147
0.0
147
0.0
147
0.0208333333333333
147
0.0
147
0.0
147
0.0
147
0.0
147
1.0
147
0.0
147
0.0
147
0.0
147
0.0
147
1.0
  0
MATERIAL
  5
36F3
102
{ACAD_XDICTIONARY
360
36F4
102
}
102
{ACAD_REACTORS
330
36F2
102
}
330
36F2
100
AcDbMaterial
  1
ByLayer
 72
     0
 43
0.0208333333333333
 43
0.0
 43
0.0
 43
0.0
 43
0.0
 43
0.0208333333333333
 43
0.0
 43
0.0
 43
0.0
 43
0.0
 43
1.0
 43
0.0
 43
0.0
 43
0.0
 43
0.0
 43
1.0
 77
     0
 47
0.0208333333333333
 47
0.0
 47
0.0
 47
0.0
 47
0.0
 47
0.0208333333333333
 47
0.0
 47
0.0
 47
0.0
 47
0.0
 47
1.0
 47
0.0
 47
0.0
 47
0.0
 47
0.0
 47
1.0
171
     0
 49
0.0208333333333333
 49
0.0
 49
0.0
 49
0.0
 49
0.0
 49
0.0208333333333333
 49
0.0
 49
0.0
 49
0.0
 49
0.0
 49
1.0
 49
0.0
 49
0.0
 49
0.0
 49
0.0
 49
1.0
175
     0
142
0.0208333333333333
142
0.0
142
0.0
142
0.0
142
0.0
142
0.0208333333333333
142
0.0
142
0.0
142
0.0
142
0.0
142
1.0
142
0.0
142
0.0
142
0.0
142
0.0
142
1.0
179
     0
144
0.0208333333333333
144
0.0
144
0.0
144
0.0
144
0.0
144
0.0208333333333333
144
0.0
144
0.0
144
0.0
144
0.0
144
1.0
144
0.0
144
0.0
144
0.0
144
0.0
144
1.0
147
0.0208333333333333
147
0.0
147
0.0
147
0.0
147
0.0
147
0.0208333333333333
147
0.0
147
0.0
147
0.0
147
0.0
147
1.0
147
0.0
147
0.0
147
0.0
147
0.0
147
1.0
  0
MATERIAL
  5
3703
102
{ACAD_XDICTIONARY
360
3704
102
}
102
{ACAD_REACTORS
330
36F2
102
}
330
36F2
100
AcDbMaterial
  1
Global
 72
     0
 43
0.0208333333333333
 43
0.0
 43
0.0
 43
0.0
 43
0.0
 43
0.0208333333333333
 43
0.0
 43
0.0
 43
0.0
 43
0.0
 43
1.0
 43
0.0
 43
0.0
 43
0.0
 43
0.0
 43
1.0
 77
     0
 47
0.0208333333333333
 47
0.0
 47
0.0
 47
0.0
 47
0.0
 47
0.0208333333333333
 47
0.0
 47
0.0
 47
0.0
 47
0.0
 47
1.0
 47
0.0
 47
0.0
 47
0.0
 47
0.0
 47
1.0
171
     0
 49
0.0208333333333333
 49
0.0
 49
0.0
 49
0.0
 49
0.0
 49
0.0208333333333333
 49
0.0
 49
0.0
 49
0.0
 49
0.0
 49
1.0
 49
0.0
 49
0.0
 49
0.0
 49
0.0
 49
1.0
175
     0
142
0.0208333333333333
142
0.0
142
0.0
142
0.0
142
0.0
142
0.0208333333333333
142
0.0
142
0.0
142
0.0
142
0.0
142
1.0
142
0.0
142
0.0
142
0.0
142
0.0
142
1.0
179
     0
144
0.0208333333333333
144
0.0
144
0.0
144
0.0
144
0.0
144
0.0208333333333333
144
0.0
144
0.0
144
0.0
144
0.0
144
1.0
144
0.0
144
0.0
144
0.0
144
0.0
144
1.0
147
0.0208333333333333
147
0.0
147
0.0
147
0.0
147
0.0
147
0.0208333333333333
147
0.0
147
0.0
147
0.0
147
0.0
147
1.0
147
0.0
147
0.0
147
0.0
147
0.0
147
1.0
  0
MLEADERSTYLE
  5
373A
102
{ACAD_REACTORS
330
3739
102
}
330
3739
100
AcDbMLeaderStyle
170
     2
171
     1
172
     0
 90
        2
 40
0.0
 41
0.0
173
     1
 91
-1056964608
340
12
 92
       -2
290
     1
 42
0.09
291
     1
 43
0.36
  3
Standard
 44
0.18
300

342
F
174
     1
178
     6
175
     1
176
     0
 93
-1056964608
 45
0.18
292
     0
297
     0
 46
0.18
 94
-1056964608
 47
1.0
 49
1.0
140
1.0
293
     1
141
0.0
294
     1
177
     0
142
1.0
295
     0
296
     0
143
0.125
1001
ACAD_MLEADERVER
1070
     2
  0
MLINESTYLE
  5
1C
102
{ACAD_REACTORS
330
1B
102
}
330
1B
100
AcDbMlineStyle
  2
STANDARD
 70
     0
  3

 62
   256
 51
90.0
 52
90.0
 71
     2
 49
0.5
 62
   256
  6
BYLAYER
 49
-0.5
 62
   256
  6
BYLAYER
  0
ACDBPLACEHOLDER
  5
36F1
102
{ACAD_REACTORS
330
36F0
102
}
330
36F0
  0
SCALE
  5
3728
102
{ACAD_REACTORS
330
3727
102
}
330
3727
100
AcDbScale
 70
     0
300
1:1
140
1.0
141
1.0
290
     1
  0
SCALE
  5
3729
102
{ACAD_REACTORS
330
3727
102
}
330
3727
100
AcDbScale
 70
     0
300
1/128" = 1'-0"
140
0.0078125
141
12.0
290
     0
  0
SCALE
  5
372A
102
{ACAD_REACTORS
330
3727
102
}
330
3727
100
AcDbScale
 70
     0
300
1/64" = 1'-0"
140
0.015625
141
12.0
290
     0
  0
SCALE
  5
372B
102
{ACAD_REACTORS
330
3727
102
}
330
3727
100
AcDbScale
 70
     0
300
1/32" = 1'-0"
140
0.03125
141
12.0
290
     0
  0
SCALE
  5
372C
102
{ACAD_REACTORS
330
3727
102
}
330
3727
100
AcDbScale
 70
     0
300
1/16" = 1'-0"
140
0.0625
141
12.0
290
     0
  0
SCALE
  5
372D
102
{ACAD_REACTORS
330
3727
102
}
330
3727
100
AcDbScale
 70
     0
300
3/32" = 1'-0"
140
0.09375
141
12.0
290
     0
  0
SCALE
  5
372E
102
{ACAD_REACTORS
330
3727
102
}
330
3727
100
AcDbScale
 70
     0
300
1/8" = 1'-0"
140
0.125
141
12.0
290
     0
  0
SCALE
  5
372F
102
{ACAD_REACTORS
330
3727
102
}
330
3727
100
AcDbScale
 70
     0
300
3/16" = 1'-0"
140
0.1875
141
12.0
290
     0
  0
SCALE
  5
3730
102
{ACAD_REACTORS
330
3727
102
}
330
3727
100
AcDbScale
 70
     0
300
1/4" = 1'-0"
140
0.25
141
12.0
290
     0
  0
SCALE
  5
3731
102
{ACAD_REACTORS
330
3727
102
}
330
3727
100
AcDbScale
 70
     0
300
3/8" = 1'-0"
140
0.375
141
12.0
290
     0
  0
SCALE
  5
3732
102
{ACAD_REACTORS
330
3727
102
}
330
3727
100
AcDbScale
 70
     0
300
1/2" = 1'-0"
140
0.5
141
12.0
290
     0
  0
SCALE
  5
3733
102
{ACAD_REACTORS
330
3727
102
}
330
3727
100
AcDbScale
 70
     0
300
3/4" = 1'-0"
140
0.75
141
12.0
290
     0
  0
SCALE
  5
3734
102
{ACAD_REACTORS
330
3727
102
}
330
3727
100
AcDbScale
 70
     0
300
1" = 1'-0"
140
1.0
141
12.0
290
     0
  0
SCALE
  5
3735
102
{ACAD_REACTORS
330
3727
102
}
330
3727
100
AcDbScale
 70
     0
300
1-1/2" = 1'-0"
140
1.5
141
12.0
290
     0
  0
SCALE
  5
3736
102
{ACAD_REACTORS
330
3727
102
}
330
3727
100
AcDbScale
 70
     0
300
3" = 1'-0"
140
3.0
141
12.0
290
     0
  0
SCALE
  5
3737
102
{ACAD_REACTORS
330
3727
102
}
330
3727
100
AcDbScale
 70
     0
300
6" = 1'-0"
140
6.0
141
12.0
290
     0
  0
SCALE
  5
3738
102
{ACAD_REACTORS
330
3727
102
}
330
3727
100
AcDbScale
 70
     0
300
1'-0" = 1'-0"
140
12.0
141
12.0
290
     0
  0
ACDBSECTIONVIEWSTYLE
  5
373C
102
{ACAD_XDICTIONARY
360
3796
102
}
102
{ACAD_REACTORS
330
373B
102
}
330
373B
100
AcDbModelDocViewStyle
 70
     0
  3
Imperial24
290
     0
100
AcDbSectionViewStyle
 70
     0
 71
     0
 90
       78
 71
     1
340
F
 40
0.24
340
0
340
0
 40
0.24
300
I, O, Q, S, X, Z
 40
0.48
 90
        3
 40
0.18
 90
        1
 71
     2
340
14
 90
       25
340
14
 90
       50
 40
0.24
 40
0.0
 40
0.24
 71
     3
340
F
 40
0.24
 90
        1
 40
0.75
 90
        1
300
%<\AcVar ViewType \f "%tc1">% %<\AcVar ViewSectionStartId>%-%<\AcVar ViewSectionEndId>%\PSCALE %<\AcVar ViewScale \f "%sn">%
 71
     4
300
ANSI31
 40
1.0
 90
        0
290
     0
290
     0
 90
        6
 40
0.0
 40
1.570796326794896
 40
0.2617993877991494
 40
1.308996938995747
 40
-0.2617993877991494
 40
1.832595714594046
  0
TABLESTYLE
  5
3726
102
{ACAD_XDICTIONARY
360
375D
102
}
102
{ACAD_REACTORS
330
3725
102
}
330
3725
100
AcDbTableStyle
  3
Standard
 70
     0
 71
     0
 40
0.06
 41
0.06
280
     0
281
     0
  7
STANDARD
140
0.18
170
     2
 62
     0
 63
     7
283
     0
274
    -2
284
     1
 64
     0
275
    -2
285
     1
 65
     0
276
    -2
286
     1
 66
     0
277
    -2
287
     1
 67
     0
278
    -2
288
     1
 68
     0
279
    -2
289
     1
 69
     0
  7
STANDARD
140
0.25
170
     5
 62
     0
 63
     7
283
     0
274
    -2
284
     1
 64
     0
275
    -2
285
     1
 65
     0
276
    -2
286
     1
 66
     0
277
    -2
287
     1
 67
     0
278
    -2
288
     1
 68
     0
279
    -2
289
     1
 69
     0
  7
STANDARD
140
0.18
170
     5
 62
     0
 63
     7
283
     0
274
    -2
284
     1
 64
     0
275
    -2
285
     1
 65
     0
276
    -2
286
     1
 66
     0
277
    -2
287
     1
 67
     0
278
    -2
288
     1
 68
     0
279
    -2
289
     1
 69
     0
  0
VISUALSTYLE
  5
3711
102
{ACAD_XDICTIONARY
360
376E
102
}
102
{ACAD_REACTORS
330
370B
102
}
330
370B
100
AcDbVisualStyle
  2
2dWireframe
 70
     4
 71
     0
 72
     2
 73
     0
 90
        0
 40
-0.6
 41
-30.0
 62
     5
 63
     7
 74
     1
 91
        4
 64
     7
 65
   257
 75
     1
175
     1
 42
1.0
 92
        0
 66
   257
 43
1.0
 76
     1
 77
     6
 78
     2
 67
     7
 79
     5
170
     0
171
     0
290
     0
174
     0
 93
        1
 44
0.0
173
     0
291
     0
 45
0.0
1001
ACAD
1000
AcDbSavedByObjectVersion
1070
     0
  0
VISUALSTYLE
  5
3710
102
{ACAD_XDICTIONARY
360
376C
102
}
102
{ACAD_REACTORS
330
370B
102
}
330
370B
100
AcDbVisualStyle
  2
Basic
 70
     7
 71
     1
 72
     0
 73
     1
 90
        0
 40
-0.6
 41
-30.0
 62
     5
 63
     7
 74
     0
 91
        4
 64
     7
 65
   257
 75
     1
175
     1
 42
1.0
 92
        8
 66
     7
 43
1.0
 76
     1
 77
     6
 78
     2
 67
     7
 79
     5
170
     0
171
     0
290
     0
174
     0
 93
        1
 44
0.0
173
     0
291
     1
 45
0.0
1001
ACAD
1000
AcDbSavedByObjectVersion
1070
     0
  0
VISUALSTYLE
  5
3717
102
{ACAD_XDICTIONARY
360
377A
102
}
102
{ACAD_REACTORS
330
370B
102
}
330
370B
100
AcDbVisualStyle
  2
Brighten
 70
    12
 71
     2
 72
     2
 73
     0
 90
        0
 40
-0.6
 41
-30.0
 62
     5
 63
     7
 74
     1
 91
        4
 64
     7
 65
   257
 75
     1
175
     1
 42
1.0
 92
        8
 66
     7
 43
1.0
 76
     1
 77
     6
 78
     2
 67
     7
 79
     5
170
     0
171
     0
290
     0
174
     0
 93
        1
 44
50.0
173
     0
291
     1
 45
0.0
1001
ACAD
1000
AcDbSavedByObjectVersion
1070
     0
  0
VISUALSTYLE
  5
371B
102
{ACAD_XDICTIONARY
360
3782
102
}
102
{ACAD_REACTORS
330
370B
102
}
330
370B
100
AcDbVisualStyle
  2
ColorChange
 70
    16
 71
     2
 72
     2
 73
     3
 90
        0
 40
-0.6
 41
-30.0
 62
     5
 63
     8
 74
     1
 91
        4
 64
     7
 65
   257
 75
     1
175
     1
 42
1.0
 92
        8
 66
     8
 43
1.0
 76
     1
 77
     6
 78
     2
 67
     7
 79
     5
170
     0
171
     0
290
     0
174
     0
 93
        1
 44
0.0
173
     0
291
     1
 45
0.0
1001
ACAD
1000
AcDbSavedByObjectVersion
1070
     0
  0
VISUALSTYLE
  5
3714
102
{ACAD_XDICTIONARY
360
3774
102
}
102
{ACAD_REACTORS
330
370B
102
}
330
370B
100
AcDbVisualStyle
  2
Conceptual
 70
     9
 71
     3
 72
     2
 73
     0
 90
        0
 40
-0.6
 41
-30.0
 62
     5
 63
     7
 74
     2
 91
        2
 64
     7
 65
   257
 75
     1
175
     1
 42
179.0
 92
        8
 66
     7
 43
1.0
 76
     1
 77
     6
 78
     2
 67
     7
 79
     3
170
     0
171
     0
290
     0
174
     0
 93
        1
 44
0.0
173
     0
291
     0
 45
0.0
1001
ACAD
1000
AcDbSavedByObjectVersion
1070
     0
  0
VISUALSTYLE
  5
3716
102
{ACAD_XDICTIONARY
360
3778
102
}
102
{ACAD_REACTORS
330
370B
102
}
330
370B
100
AcDbVisualStyle
  2
Dim
 70
    11
 71
     2
 72
     2
 73
     0
 90
        0
 40
-0.6
 41
-30.0
 62
     5
 63
     7
 74
     1
 91
        4
 64
     7
 65
   257
 75
     1
175
     1
 42
1.0
 92
        8
 66
     7
 43
1.0
 76
     1
 77
     6
 78
     2
 67
     7
 79
     5
170
     0
171
     0
290
     0
174
     0
 93
        1
 44
-50.0
173
     0
291
     1
 45
0.0
1001
ACAD
1000
AcDbSavedByObjectVersion
1070
     0
  0
VISUALSTYLE
  5
3723
102
{ACAD_XDICTIONARY
360
3792
102
}
102
{ACAD_REACTORS
330
370B
102
}
330
370B
100
AcDbVisualStyle
  2
EdgeColorOff
 70
    22
 71
     2
 72
     2
 73
     0
 90
        0
 40
-0.6
 41
-30.0
 62
     5
 63
     7
 74
     1
 91
        4
 64
     7
 65
   257
 75
     1
175
     1
 42
1.0
 92
        8
 66
     7
 43
1.0
 76
     1
 77
     6
 78
     2
 67
     7
 79
     5
170
     0
171
     0
290
     0
174
     0
 93
        1
 44
0.0
173
     0
291
     1
 45
0.0
1001
ACAD
1000
AcDbSavedByObjectVersion
1070
     0
  0
VISUALSTYLE
  5
371A
102
{ACAD_XDICTIONARY
360
3780
102
}
102
{ACAD_REACTORS
330
370B
102
}
330
370B
100
AcDbVisualStyle
  2
Facepattern
 70
    15
 71
     2
 72
     2
 73
     0
 90
        0
 40
-0.6
 41
-30.0
 62
     5
 63
     7
 74
     1
 91
        4
 64
     7
 65
   257
 75
     1
175
     1
 42
1.0
 92
        8
 66
     7
 43
1.0
 76
     1
 77
     6
 78
     2
 67
     7
 79
     5
170
     0
171
     0
290
     0
174
     0
 93
        1
 44
0.0
173
     0
291
     1
 45
0.0
1001
ACAD
1000
AcDbSavedByObjectVersion
1070
     0
  0
VISUALSTYLE
  5
370C
102
{ACAD_XDICTIONARY
360
3764
102
}
102
{ACAD_REACTORS
330
370B
102
}
330
370B
100
AcDbVisualStyle
  2
Flat
 70
     0
 71
     2
 72
     1
 73
     1
 90
        2
 40
-0.6
 41
30.0
 62
     5
 63
     7
 74
     0
 91
        0
 64
     7
 65
   257
 75
     1
175
     1
 42
1.0
 92
        8
 66
     7
 43
1.0
 76
     1
 77
     6
 78
     2
 67
     7
 79
     5
170
     0
171
     0
290
     0
174
     0
 93
       13
 44
0.0
173
     0
291
     1
 45
0.0
1001
ACAD
1000
AcDbSavedByObjectVersion
1070
     0
  0
VISUALSTYLE
  5
370D
102
{ACAD_XDICTIONARY
360
3766
102
}
102
{ACAD_REACTORS
330
370B
102
}
330
370B
100
AcDbVisualStyle
  2
FlatWithEdges
 70
     1
 71
     2
 72
     1
 73
     1
 90
        2
 40
-0.6
 41
30.0
 62
     5
 63
     7
 74
     1
 91
        0
 64
     7
 65
   257
 75
     1
175
     1
 42
1.0
 92
        0
 66
   257
 43
1.0
 76
     1
 77
     6
 78
     2
 67
     7
 79
     5
170
     0
171
     0
290
     0
174
     0
 93
       13
 44
0.0
173
     0
291
     1
 45
0.0
1001
ACAD
1000
AcDbSavedByObjectVersion
1070
     0
  0
VISUALSTYLE
  5
370E
102
{ACAD_XDICTIONARY
360
3768
102
}
102
{ACAD_REACTORS
330
370B
102
}
330
370B
100
AcDbVisualStyle
  2
Gouraud
 70
     2
 71
     2
 72
     2
 73
     1
 90
        2
 40
-0.6
 41
30.0
 62
     5
 63
     7
 74
     0
 91
        0
 64
     7
 65
   257
 75
     1
175
     1
 42
1.0
 92
        0
 66
     7
 43
1.0
 76
     1
 77
     6
 78
     2
 67
     7
 79
     5
170
     0
171
     0
290
     0
174
     0
 93
       13
 44
0.0
173
     0
291
     1
 45
0.0
1001
ACAD
1000
AcDbSavedByObjectVersion
1070
     0
  0
VISUALSTYLE
  5
370F
102
{ACAD_XDICTIONARY
360
376A
102
}
102
{ACAD_REACTORS
330
370B
102
}
330
370B
100
AcDbVisualStyle
  2
GouraudWithEdges
 70
     3
 71
     2
 72
     2
 73
     1
 90
        2
 40
-0.6
 41
30.0
 62
     5
 63
     7
 74
     1
 91
        0
 64
     7
 65
   257
 75
     1
175
     1
 42
1.0
 92
        0
 66
   257
 43
1.0
 76
     1
 77
     6
 78
     2
 67
     7
 79
     5
170
     0
171
     0
290
     0
174
     0
 93
       13
 44
0.0
173
     0
291
     1
 45
0.0
1001
ACAD
1000
AcDbSavedByObjectVersion
1070
     0
  0
VISUALSTYLE
  5
3713
102
{ACAD_XDICTIONARY
360
3772
102
}
102
{ACAD_REACTORS
330
370B
102
}
330
370B
100
AcDbVisualStyle
  2
Hidden
 70
     6
 71
     1
 72
     2
 73
     2
 90
        0
 40
-0.6
 41
-30.0
 62
     5
 63
     7
 74
     2
 91
        2
 64
     7
 65
   257
 75
     2
175
     1
 42
40.0
 92
        0
 66
   257
 43
1.0
 76
     1
 77
     6
 78
     2
 67
     7
 79
     3
170
     0
171
     0
290
     0
174
     0
 93
        1
 44
0.0
173
     0
291
     0
 45
0.0
1001
ACAD
1000
AcDbSavedByObjectVersion
1070
     0
  0
VISUALSTYLE
  5
3721
102
{ACAD_XDICTIONARY
360
378E
102
}
102
{ACAD_REACTORS
330
370B
102
}
330
370B
100
AcDbVisualStyle
  2
JitterOff
 70
    20
 71
     2
 72
     2
 73
     0
 90
        0
 40
-0.6
 41
-30.0
 62
     5
 63
     7
 74
     1
 91
        4
 64
     7
 65
   257
 75
     1
175
     1
 42
1.0
 92
       10
 66
     7
 43
1.0
 76
     1
 77
     6
 78
     2
 67
     7
 79
     5
170
     0
171
     0
290
     0
174
     0
 93
        1
 44
0.0
173
     0
291
     1
 45
0.0
1001
ACAD
1000
AcDbSavedByObjectVersion
1070
     0
  0
VISUALSTYLE
  5
3719
102
{ACAD_XDICTIONARY
360
377E
102
}
102
{ACAD_REACTORS
330
370B
102
}
330
370B
100
AcDbVisualStyle
  2
Linepattern
 70
    14
 71
     2
 72
     2
 73
     0
 90
        0
 40
-0.6
 41
-30.0
 62
     5
 63
     7
 74
     1
 91
        4
 64
     7
 65
   257
 75
     7
175
     7
 42
1.0
 92
        8
 66
     7
 43
1.0
 76
     1
 77
     6
 78
     2
 67
     7
 79
     5
170
     0
171
     0
290
     0
174
     0
 93
        1
 44
0.0
173
     0
291
     1
 45
0.0
1001
ACAD
1000
AcDbSavedByObjectVersion
1070
     0
  0
VISUALSTYLE
  5
3722
102
{ACAD_XDICTIONARY
360
3790
102
}
102
{ACAD_REACTORS
330
370B
102
}
330
370B
100
AcDbVisualStyle
  2
OverhangOff
 70
    21
 71
     2
 72
     2
 73
     0
 90
        0
 40
-0.6
 41
-30.0
 62
     5
 63
     7
 74
     1
 91
        4
 64
     7
 65
   257
 75
     1
175
     1
 42
1.0
 92
        9
 66
     7
 43
1.0
 76
     1
 77
     6
 78
     2
 67
     7
 79
     5
170
     0
171
     0
290
     0
174
     0
 93
        1
 44
0.0
173
     0
291
     1
 45
0.0
1001
ACAD
1000
AcDbSavedByObjectVersion
1070
     0
  0
VISUALSTYLE
  5
3715
102
{ACAD_XDICTIONARY
360
3776
102
}
102
{ACAD_REACTORS
330
370B
102
}
330
370B
100
AcDbVisualStyle
  2
Realistic
 70
     8
 71
     2
 72
     3
 73
     0
 90
        2
 40
-0.6
 41
30.0
 62
     5
 63
     7
 74
     0
 91
        0
 64
     7
 65
   257
 75
     1
175
     1
 42
1.0
 92
        8
 66
   257
 43
1.0
 76
     1
 77
     6
 78
     2
 67
     7
 79
     3
170
     0
171
     0
290
     0
174
     0
 93
       13
 44
0.0
173
     0
291
     0
 45
0.0
1001
ACAD
1000
AcDbSavedByObjectVersion
1070
     0
  0
VISUALSTYLE
  5
3720
102
{ACAD_XDICTIONARY
360
378C
102
}
102
{ACAD_REACTORS
330
370B
102
}
330
370B
100
AcDbVisualStyle
  2
Shaded
 70
    27
 71
     2
 72
     2
 73
     1
 90
        2
 40
-0.6
 41
30.0
 62
     5
 63
     7
 74
     0
 91
        4
 64
     7
 65
   257
 75
     1
175
     1
 42
1.0
 92
        8
 66
   257
 43
1.0
 76
     1
 77
     6
 78
     2
 67
     8
 79
     3
170
     0
171
     0
290
     0
174
     0
 93
        5
 44
0.0
173
     0
291
     0
 45
0.0
1001
ACAD
1000
AcDbSavedByObjectVersion
1070
     0
  0
VISUALSTYLE
  5
371F
102
{ACAD_XDICTIONARY
360
378A
102
}
102
{ACAD_REACTORS
330
370B
102
}
330
370B
100
AcDbVisualStyle
  2
Shaded with edges
 70
    26
 71
     2
 72
     2
 73
     1
 90
        2
 40
-0.6
 41
30.0
 62
     5
 63
     7
 74
     1
 91
       10
 64
     7
 65
   257
 75
     2
175
     1
 42
1.0
 92
        8
 66
   257
 43
1.0
 76
     1
 77
     6
 78
     2
 67
     7
 79
     3
170
     0
171
     0
290
     0
174
     0
 93
        5
 44
0.0
173
     0
291
     0
 45
0.0
1001
ACAD
1000
AcDbSavedByObjectVersion
1070
     0
  0
VISUALSTYLE
  5
371C
102
{ACAD_XDICTIONARY
360
3784
102
}
102
{ACAD_REACTORS
330
370B
102
}
330
370B
100
AcDbVisualStyle
  2
Shades of Gray
 70
    23
 71
     2
 72
     2
 73
     3
 90
        0
 40
-0.6
 41
-30.0
 62
     5
 63
     7
 74
     2
 91
        2
 64
     7
 65
     7
 75
     1
175
     1
 42
40.0
 92
        8
 66
     7
 43
1.0
 76
     1
 77
     6
 78
     2
 67
     7
 79
     3
170
     0
171
     0
290
     0
174
     0
 93
        1
 44
0.0
173
     0
291
     0
 45
0.0
1001
ACAD
1000
AcDbSavedByObjectVersion
1070
     0
  0
VISUALSTYLE
  5
371D
102
{ACAD_XDICTIONARY
360
3786
102
}
102
{ACAD_REACTORS
330
370B
102
}
330
370B
100
AcDbVisualStyle
  2
Sketchy
 70
    24
 71
     1
 72
     2
 73
     2
 90
        0
 40
-0.6
 41
-30.0
 62
     5
 63
     7
 74
     2
 91
        2
 64
     7
 65
     7
 75
     1
175
     1
 42
40.0
 92
       11
 66
     7
 43
1.0
 76
     1
 77
     6
 78
     2
 67
     7
 79
     6
170
     0
171
     0
290
     0
174
     0
 93
        1
 44
0.0
173
     0
291
     0
 45
0.0
1001
ACAD
1000
AcDbSavedByObjectVersion
1070
     0
  0
VISUALSTYLE
  5
3718
102
{ACAD_XDICTIONARY
360
377C
102
}
102
{ACAD_REACTORS
330
370B
102
}
330
370B
100
AcDbVisualStyle
  2
Thicken
 70
    13
 71
     2
 72
     2
 73
     0
 90
        0
 40
-0.6
 41
-30.0
 62
     5
 63
     7
 74
     1
 91
        4
 64
     7
 65
   257
 75
     1
175
     1
 42
1.0
 92
       12
 66
     7
 43
1.0
 76
     1
 77
     6
 78
     2
 67
     7
 79
     5
170
     0
171
     0
290
     0
174
     0
 93
        1
 44
0.0
173
     0
291
     1
 45
0.0
1001
ACAD
1000
AcDbSavedByObjectVersion
1070
     0
  0
VISUALSTYLE
  5
3712
102
{ACAD_XDICTIONARY
360
3770
102
}
102
{ACAD_REACTORS
330
370B
102
}
330
370B
100
AcDbVisualStyle
  2
Wireframe
 70
     5
 71
     0
 72
     2
 73
     0
 90
        0
 40
-0.6
 41
-30.0
 62
     5
 63
     7
 74
     1
 91
        4
 64
     7
 65
   257
 75
     1
175
     1
 42
1.0
 92
        0
 66
   257
 43
1.0
 76
     1
 77
     6
 78
     2
 67
     7
 79
     3
170
     0
171
     0
290
     0
174
     0
 93
        1
 44
0.0
173
     0
291
     0
 45
0.0
1001
ACAD
1000
AcDbSavedByObjectVersion
1070
     0
  0
VISUALSTYLE
  5
371E
102
{ACAD_XDICTIONARY
360
3788
102
}
102
{ACAD_REACTORS
330
370B
102
}
330
370B
100
AcDbVisualStyle
  2
X-Ray
 70
    25
 71
     2
 72
     2
 73
     1
 90
        1
 40
0.5
 41
-30.0
 62
     5
 63
     7
 74
     1
 91
        0
 64
     7
 65
   257
 75
     1
175
     1
 42
1.0
 92
        8
 66
     7
 43
1.0
 76
     1
 77
     6
 78
     2
 67
     7
 79
     3
170
     0
171
     0
290
     0
174
     0
 93
       13
 44
0.0
173
     0
291
     0
 45
0.0
1001
ACAD
1000
AcDbSavedByObjectVersion
1070
     0
  0
DICTIONARYVAR
  5
3757
102
{ACAD_REACTORS
330
3752
102
}
330
3752
100
DictionaryVariables
280
     0
  1
1:1
  0
DICTIONARYVAR
  5
3754
102
{ACAD_REACTORS
330
3752
102
}
330
3752
100
DictionaryVariables
280
     0
  1
STANDARD
  0
DICTIONARYVAR
  5
3753
102
{ACAD_REACTORS
330
3752
102
}
330
3752
100
DictionaryVariables
280
     0
  1
STANDARD
  0
DICTIONARYVAR
  5
3755
102
{ACAD_REACTORS
330
3752
102
}
330
3752
100
DictionaryVariables
280
     0
  1
Imperial24
  0
DICTIONARYVAR
  5
3756
102
{ACAD_REACTORS
330
3752
102
}
330
3752
100
DictionaryVariables
280
     0
  1
Imperial24
  0
DICTIONARYVAR
  5
375A
102
{ACAD_REACTORS
330
3752
102
}
330
3752
100
DictionaryVariables
280
     0
  1
1
  0
DICTIONARYVAR
  5
3759
102
{ACAD_REACTORS
330
3752
102
}
330
3752
100
DictionaryVariables
280
     0
  1
0
  0
DICTIONARYVAR
  5
3758
102
{ACAD_REACTORS
330
3752
102
}
330
3752
100
DictionaryVariables
280
     0
  1
127
  0
DICTIONARYVAR
  5
375B
102
{ACAD_REACTORS
330
3752
102
}
330
3752
100
DictionaryVariables
280
     0
  1
2
  0
DICTIONARY
  5
3798
330
373E
100
AcDbDictionary
280
     1
281
     1
  3
ACAD_XREC_ROUNDTRIP
360
3799
  0
DICTIONARY
  5
379A
330
373F
100
AcDbDictionary
280
     1
281
     1
  3
ACAD_XREC_ROUNDTRIP
360
379B
  0
DICTIONARY
  5
379C
330
3740
100
AcDbDictionary
280
     1
281
     1
  3
ACAD_XREC_ROUNDTRIP
360
379D
  0
DICTIONARY
  5
36FC
330
36FB
100
AcDbDictionary
280
     1
281
     1
  3
ACAD_XREC_ROUNDTRIP
360
3762
  3
BUMPTILE
360
36FE
  3
DIFFUSETILE
360
36FD
  3
OPACITYTILE
360
3701
  3
REFLECTIONTILE
360
3700
  3
REFRACTIONTILE
360
3702
  3
SPECULARTILE
360
36FF
  0
DICTIONARY
  5
36F4
330
36F3
100
AcDbDictionary
280
     1
281
     1
  3
ACAD_XREC_ROUNDTRIP
360
3761
  3
BUMPTILE
360
36F6
  3
DIFFUSETILE
360
36F5
  3
OPACITYTILE
360
36F9
  3
REFLECTIONTILE
360
36F8
  3
REFRACTIONTILE
360
36FA
  3
SPECULARTILE
360
36F7
  0
DICTIONARY
  5
3704
330
3703
100
AcDbDictionary
280
     1
281
     1
  3
ACAD_XREC_ROUNDTRIP
360
3763
  3
BUMPTILE
360
3706
  3
DIFFUSETILE
360
3705
  3
OPACITYTILE
360
3709
  3
REFLECTIONTILE
360
3708
  3
REFRACTIONTILE
360
370A
  3
SPECULARTILE
360
3707
  0
DICTIONARY
  5
3796
330
373C
100
AcDbDictionary
280
     1
281
     1
  3
ACAD_XREC_ROUNDTRIP
360
3797
  0
DICTIONARY
  5
375D
330
3726
100
AcDbDictionary
280
     1
281
     1
  3
ACAD_ROUNDTRIP_2008_TABLESTYLE_CELLSTYLEMAP
360
375E
  3
ACAD_XREC_ROUNDTRIP
360
3794
  0
DICTIONARY
  5
376E
330
3711
100
AcDbDictionary
280
     1
281
     1
  3
ACAD_XREC_ROUNDTRIP
360
376F
  0
DICTIONARY
  5
376C
330
3710
100
AcDbDictionary
280
     1
281
     1
  3
ACAD_XREC_ROUNDTRIP
360
376D
  0
DICTIONARY
  5
377A
330
3717
100
AcDbDictionary
280
     1
281
     1
  3
ACAD_XREC_ROUNDTRIP
360
377B
  0
DICTIONARY
  5
3782
330
371B
100
AcDbDictionary
280
     1
281
     1
  3
ACAD_XREC_ROUNDTRIP
360
3783
  0
DICTIONARY
  5
3774
330
3714
100
AcDbDictionary
280
     1
281
     1
  3
ACAD_XREC_ROUNDTRIP
360
3775
  0
DICTIONARY
  5
3778
330
3716
100
AcDbDictionary
280
     1
281
     1
  3
ACAD_XREC_ROUNDTRIP
360
3779
  0
DICTIONARY
  5
3792
330
3723
100
AcDbDictionary
280
     1
281
     1
  3
ACAD_XREC_ROUNDTRIP
360
3793
  0
DICTIONARY
  5
3780
330
371A
100
AcDbDictionary
280
     1
281
     1
  3
ACAD_XREC_ROUNDTRIP
360
3781
  0
DICTIONARY
  5
3764
330
370C
100
AcDbDictionary
280
     1
281
     1
  3
ACAD_XREC_ROUNDTRIP
360
3765
  0
DICTIONARY
  5
3766
330
370D
100
AcDbDictionary
280
     1
281
     1
  3
ACAD_XREC_ROUNDTRIP
360
3767
  0
DICTIONARY
  5
3768
330
370E
100
AcDbDictionary
280
     1
281
     1
  3
ACAD_XREC_ROUNDTRIP
360
3769
  0
DICTIONARY
  5
376A
330
370F
100
AcDbDictionary
280
     1
281
     1
  3
ACAD_XREC_ROUNDTRIP
360
376B
  0
DICTIONARY
  5
3772
330
3713
100
AcDbDictionary
280
     1
281
     1
  3
ACAD_XREC_ROUNDTRIP
360
3773
  0
DICTIONARY
  5
378E
330
3721
100
AcDbDictionary
280
     1
281
     1
  3
ACAD_XREC_ROUNDTRIP
360
378F
  0
DICTIONARY
  5
377E
330
3719
100
AcDbDictionary
280
     1
281
     1
  3
ACAD_XREC_ROUNDTRIP
360
377F
  0
DICTIONARY
  5
3790
330
3722
100
AcDbDictionary
280
     1
281
     1
  3
ACAD_XREC_ROUNDTRIP
360
3791
  0
DICTIONARY
  5
3776
330
3715
100
AcDbDictionary
280
     1
281
     1
  3
ACAD_XREC_ROUNDTRIP
360
3777
  0
DICTIONARY
  5
378C
330
3720
100
AcDbDictionary
280
     1
281
     1
  3
ACAD_XREC_ROUNDTRIP
360
378D
  0
DICTIONARY
  5
378A
330
371F
100
AcDbDictionary
280
     1
281
     1
  3
ACAD_XREC_ROUNDTRIP
360
378B
  0
DICTIONARY
  5
3784
330
371C
100
AcDbDictionary
280
     1
281
     1
  3
ACAD_XREC_ROUNDTRIP
360
3785
  0
DICTIONARY
  5
3786
330
371D
100
AcDbDictionary
280
     1
281
     1
  3
ACAD_XREC_ROUNDTRIP
360
3787
  0
DICTIONARY
  5
377C
330
3718
100
AcDbDictionary
280
     1
281
     1
  3
ACAD_XREC_ROUNDTRIP
360
377D
  0
DICTIONARY
  5
3770
330
3712
100
AcDbDictionary
280
     1
281
     1
  3
ACAD_XREC_ROUNDTRIP
360
3771
  0
DICTIONARY
  5
3788
330
371E
100
AcDbDictionary
280
     1
281
     1
  3
ACAD_XREC_ROUNDTRIP
360
3789
  0
XRECORD
  5
3799
102
{ACAD_REACTORS
330
3798
102
}
330
3798
100
AcDbXrecord
280
     1
102
DISPLAYNAME
  1
Imperial24
102
FLAGS
 90
        0
  0
XRECORD
  5
379B
102
{ACAD_REACTORS
330
379A
102
}
330
379A
100
AcDbXrecord
280
     1
102
SHADEPLOT
 70
     0
102
SHADEPLOTRESLEVEL
 70
     2
102
SHADEPLOTCUSTOMDPI
 70
   300
  0
XRECORD
  5
379D
102
{ACAD_REACTORS
330
379C
102
}
330
379C
100
AcDbXrecord
280
     1
102
SHADEPLOT
 70
     0
102
SHADEPLOTRESLEVEL
 70
     2
102
SHADEPLOTCUSTOMDPI
 70
   300
  0
XRECORD
  5
3762
102
{ACAD_REACTORS
330
36FC
102
}
330
36FC
100
AcDbXrecord
280
     1
102
MATERIAL
148
0.0
149
0.0
149
0.0
 93
        0
 94
      127
282
     0
 72
     0
 77
     0
171
     0
175
     0
179
     0
273
     0
  0
XRECORD
  5
36FE
102
{ACAD_REACTORS
330
36FC
102
}
330
36FC
100
AcDbXrecord
280
     1
270
     1
271
     1
  0
XRECORD
  5
36FD
102
{ACAD_REACTORS
330
36FC
102
}
330
36FC
100
AcDbXrecord
280
     1
270
     1
271
     1
  0
XRECORD
  5
3701
102
{ACAD_REACTORS
330
36FC
102
}
330
36FC
100
AcDbXrecord
280
     1
270
     1
271
     1
  0
XRECORD
  5
3700
102
{ACAD_REACTORS
330
36FC
102
}
330
36FC
100
AcDbXrecord
280
     1
270
     1
271
     1
  0
XRECORD
  5
3702
102
{ACAD_REACTORS
330
36FC
102
}
330
36FC
100
AcDbXrecord
280
     1
270
     1
271
     1
  0
XRECORD
  5
36FF
102
{ACAD_REACTORS
330
36FC
102
}
330
36FC
100
AcDbXrecord
280
     1
270
     1
271
     1
  0
XRECORD
  5
3761
102
{ACAD_REACTORS
330
36F4
102
}
330
36F4
100
AcDbXrecord
280
     1
102
MATERIAL
148
0.0
149
0.0
149
0.0
 93
        0
 94
      127
282
     0
 72
     0
 77
     0
171
     0
175
     0
179
     0
273
     0
  0
XRECORD
  5
36F6
102
{ACAD_REACTORS
330
36F4
102
}
330
36F4
100
AcDbXrecord
280
     1
270
     1
271
     1
  0
XRECORD
  5
36F5
102
{ACAD_REACTORS
330
36F4
102
}
330
36F4
100
AcDbXrecord
280
     1
270
     1
271
     1
  0
XRECORD
  5
36F9
102
{ACAD_REACTORS
330
36F4
102
}
330
36F4
100
AcDbXrecord
280
     1
270
     1
271
     1
  0
XRECORD
  5
36F8
102
{ACAD_REACTORS
330
36F4
102
}
330
36F4
100
AcDbXrecord
280
     1
270
     1
271
     1
  0
XRECORD
  5
36FA
102
{ACAD_REACTORS
330
36F4
102
}
330
36F4
100
AcDbXrecord
280
     1
270
     1
271
     1
  0
XRECORD
  5
36F7
102
{ACAD_REACTORS
330
36F4
102
}
330
36F4
100
AcDbXrecord
280
     1
270
     1
271
     1
  0
XRECORD
  5
3763
102
{ACAD_REACTORS
330
3704
102
}
330
3704
100
AcDbXrecord
280
     1
102
MATERIAL
148
0.0
149
0.0
149
0.0
 93
        0
 94
      127
282
     0
 72
     0
 77
     0
171
     0
175
     0
179
     0
273
     0
  0
XRECORD
  5
3706
102
{ACAD_REACTORS
330
3704
102
}
330
3704
100
AcDbXrecord
280
     1
270
     1
271
     1
  0
XRECORD
  5
3705
102
{ACAD_REACTORS
330
3704
102
}
330
3704
100
AcDbXrecord
280
     1
270
     1
271
     1
  0
XRECORD
  5
3709
102
{ACAD_REACTORS
330
3704
102
}
330
3704
100
AcDbXrecord
280
     1
270
     1
271
     1
  0
XRECORD
  5
3708
102
{ACAD_REACTORS
330
3704
102
}
330
3704
100
AcDbXrecord
280
     1
270
     1
271
     1
  0
XRECORD
  5
370A
102
{ACAD_REACTORS
330
3704
102
}
330
3704
100
AcDbXrecord
280
     1
270
     1
271
     1
  0
XRECORD
  5
3707
102
{ACAD_REACTORS
330
3704
102
}
330
3704
100
AcDbXrecord
280
     1
270
     1
271
     1
  0
XRECORD
  5
3797
102
{ACAD_REACTORS
330
3796
102
}
330
3796
100
AcDbXrecord
280
     1
102
DISPLAYNAME
  1
Imperial24
102
FLAGS
 90
        0
  0
CELLSTYLEMAP
  5
375E
102
{ACAD_REACTORS
330
375D
102
}
330
375D
100
AcDbCellStyleMap
 90
        3
300
CELLSTYLE
  1
TABLEFORMAT_BEGIN
 90
        5
170
     1
 91
        0
 92
    32768
 62
   257
 93
        1
300
CONTENTFORMAT
  1
CONTENTFORMAT_BEGIN
 90
        0
 91
        0
 92
      512
 93
        0
300

 40
0.0
140
1.0
 94
        5
 62
     0
340
F
144
0.25
309
CONTENTFORMAT_END
171
     0
 94
        0
309
TABLEFORMAT_END
  1
CELLSTYLE_BEGIN
 90
        1
 91
        1
300
_TITLE
309
CELLSTYLE_END
300
CELLSTYLE
  1
TABLEFORMAT_BEGIN
 90
        5
170
     1
 91
        0
 92
        0
 62
   257
 93
        1
300
CONTENTFORMAT
  1
CONTENTFORMAT_BEGIN
 90
        0
 91
        0
 92
      512
 93
        0
300

 40
0.0
140
1.0
 94
        5
 62
     0
340
F
144
0.18
309
CONTENTFORMAT_END
171
     0
 94
        0
309
TABLEFORMAT_END
  1
CELLSTYLE_BEGIN
 90
        2
 91
        1
300
_HEADER
309
CELLSTYLE_END
300
CELLSTYLE
  1
TABLEFORMAT_BEGIN
 90
        5
170
     1
 91
        0
 92
        0
 62
   257
 93
        1
300
CONTENTFORMAT
  1
CONTENTFORMAT_BEGIN
 90
        0
 91
        0
 92
      512
 93
        0
300

 40
0.0
140
1.0
 94
        2
 62
     0
340
F
144
0.18
309
CONTENTFORMAT_END
171
     0
 94
        0
309
TABLEFORMAT_END
  1
CELLSTYLE_BEGIN
 90
        3
 91
        2
300
_DATA
309
CELLSTYLE_END
  0
XRECORD
  5
3794
102
{ACAD_REACTORS
330
375D
102
}
330
375D
100
AcDbXrecord
280
     1
102
ACAD_ROUNDTRIP_PRE2007_TABLESTYLE
 90
      512
 91
        0
  1

 92
      512
 93
        0
  2

 94
      512
 95
        0
  3

  0
XRECORD
  5
376F
102
{ACAD_REACTORS
330
376E
102
}
330
376E
100
AcDbXrecord
280
     1
102
RTVSPost2010Prop28
280
     1
102
RTVSPost2010PropOp28
 70
     1
102
RTVSPost2010Prop29
280
     1
102
RTVSPost2010PropOp29
 70
     1
102
RTVSPost2010Prop30
280
     0
102
RTVSPost2010PropOp30
 70
     1
102
RTVSPost2010Prop31
280
     0
102
RTVSPost2010PropOp31
 70
     1
102
RTVSPost2010Prop32
280
     0
102
RTVSPost2010PropOp32
 70
     1
102
RTVSPost2010Prop33
280
     0
102
RTVSPost2010PropOp33
 70
     1
102
RTVSPost2010Prop34
280
     0
102
RTVSPost2010PropOp34
 70
     1
102
RTVSPost2010Prop35
280
     0
102
RTVSPost2010PropOp35
 70
     1
102
RTVSPost2010Prop36
280
     0
102
RTVSPost2010PropOp36
 70
     1
102
RTVSPost2010Prop37
 90
       50
102
RTVSPost2010PropOp37
 70
     1
102
RTVSPost2010Prop38
140
0.0
102
RTVSPost2010PropOp38
 70
     1
102
RTVSPost2010Prop39
140
1.0
102
RTVSPost2010PropOp39
 70
     1
102
RTVSPost2010Prop40
 90
        0
102
RTVSPost2010PropOp40
 70
     1
102
RTVSPost2010Prop41ColorIndex
 90
       18
102
RTVSPost2010Prop41ColorRGB
 90
        0
102
RTVSPost2010PropOp41
 70
     1
102
RTVSPost2010Prop42
 90
       50
102
RTVSPost2010PropOp42
 70
     1
102
RTVSPost2010Prop43
 90
        3
102
RTVSPost2010PropOp43
 70
     1
102
RTVSPost2010Prop44ColorIndex
 90
        5
102
RTVSPost2010Prop44ColorRGB
 90
      255
102
RTVSPost2010PropOp44
 70
     1
102
RTVSPost2010Prop45
280
     0
102
RTVSPost2010PropOp45
 70
     1
102
RTVSPost2010Prop46
 90
       50
102
RTVSPost2010PropOp46
 70
     1
102
RTVSPost2010Prop47
 90
       50
102
RTVSPost2010PropOp47
 70
     1
102
RTVSPost2010Prop48
 90
       50
102
RTVSPost2010PropOp48
 70
     1
102
RTVSPost2010Prop49
280
     0
102
RTVSPost2010PropOp49
 70
     1
102
RTVSPost2010Prop50
 90
       50
102
RTVSPost2010PropOp50
 70
     1
102
RTVSPost2010Prop51ColorIndex
 90
      256
102
RTVSPost2010Prop51ColorRGB
 90
-16777216
102
RTVSPost2010PropOp51
 70
     0
102
RTVSPost2010Prop52
140
1.0
102
RTVSPost2010PropOp52
 70
     0
102
RTVSPost2010Prop53
 90
        2
102
RTVSPost2010PropOp53
 70
     1
102
RTVSPost2010Prop54
  1
strokes_ogs.tif
102
RTVSPost2010PropOp54
 70
     1
102
RTVSPost2010Prop55
280
     0
102
RTVSPost2010PropOp55
 70
     1
102
RTVSPost2010Prop56
140
1.0
102
RTVSPost2010PropOp56
 70
     1
102
RTVSPost2010Prop57
140
1.0
102
RTVSPost2010PropOp57
 70
     1
102
RTVSPropertyOp0
 70
     1
102
RTVSPropertyOp1
 70
     1
102
RTVSPropertyOp2
 70
     1
102
RTVSPropertyOp3
 70
     1
102
RTVSPropertyOp4
 70
     1
102
RTVSPropertyOp5
 70
     1
102
RTVSPropertyOp6
 70
     1
102
RTVSPropertyOp7
 70
     1
102
RTVSPropertyOp8
 70
     1
102
RTVSPropertyOp9
 70
     1
102
RTVSPropertyOp10
 70
     1
102
RTVSPropertyOp11
 70
     1
102
RTVSPropertyOp12
 70
     1
102
RTVSPropertyOp13
 70
     1
102
RTVSPropertyOp14
 70
     1
102
RTVSPropertyOp15
 70
     1
102
RTVSPropertyOp16
 70
     1
102
RTVSPropertyOp17
 70
     1
102
RTVSPropertyOp18
 70
     1
102
RTVSPropertyOp19
 70
     1
102
RTVSPropertyOp20
 70
     1
102
RTVSPropertyOp21
 70
     1
102
RTVSPropertyOp22
 70
     1
102
RTVSPropertyOp23
 70
     1
102
RTVSPropertyOp24
 70
     1
102
RTVSPropertyOp25
 70
     1
102
RTVSPropertyOp26
 70
     1
102
RTVSPropertyOp27
 70
     1
102
RTVSPropertyOp28
 70
     1
102
RTVSPropertyOp29
 70
     1
102
RTVSPropertyOp30
 70
     1
102
RTVSPropertyOp31
 70
     1
102
RTVSPropertyOp32
 70
     1
102
RTVSPropertyOp33
 70
     1
102
RTVSPropertyOp34
 70
     1
102
RTVSPropertyOp35
 70
     1
102
RTVSPropertyOp36
 70
     1
102
RTVSPropertyOp37
 70
     1
102
RTVSPropertyOp38
 70
     1
102
RTVSPropertyOp39
 70
     1
102
RTVSPropertyOp40
 70
     1
102
RTVSPropertyOp41
 70
     1
102
RTVSPropertyOp42
 70
     1
102
RTVSPropertyOp43
 70
     1
102
RTVSPropertyOp44
 70
     1
102
RTVSPropertyOp45
 70
     1
102
RTVSPropertyOp46
 70
     1
102
RTVSPropertyOp47
 70
     1
102
RTVSPropertyOp48
 70
     1
102
RTVSPropertyOp49
 70
     1
102
RTVSPropertyOp50
 70
     1
102
RTVSPropertyOp51
 70
     0
102
RTVSPropertyOp52
 70
     0
102
RTVSPropertyOp53
 70
     1
102
RTVSPropertyOp54
 70
     1
102
RTVSPropertyOp55
 70
     1
102
RTVSPropertyOp56
 70
     1
102
RTVSPropertyOp57
 70
     1
102
RTVSPropertyOp58
 70
     1
102
RTVSPropertyOp59
 70
     1
102
RTVSPropertyOp60
 70
     1
102
RTVSPropertyOp61
 70
     1
102
RTVSPropertyOp62
 70
     1
  0
XRECORD
  5
376D
102
{ACAD_REACTORS
330
376C
102
}
330
376C
100
AcDbXrecord
280
     1
102
RTVSPost2010Prop28
280
     0
102
RTVSPost2010PropOp28
 70
     1
102
RTVSPost2010Prop29
280
     1
102
RTVSPost2010PropOp29
 70
     1
102
RTVSPost2010Prop30
280
     1
102
RTVSPost2010PropOp30
 70
     1
102
RTVSPost2010Prop31
280
     0
102
RTVSPost2010PropOp31
 70
     1
102
RTVSPost2010Prop32
280
     0
102
RTVSPost2010PropOp32
 70
     1
102
RTVSPost2010Prop33
280
     0
102
RTVSPost2010PropOp33
 70
     1
102
RTVSPost2010Prop34
280
     0
102
RTVSPost2010PropOp34
 70
     1
102
RTVSPost2010Prop35
280
     0
102
RTVSPost2010PropOp35
 70
     1
102
RTVSPost2010Prop36
280
     0
102
RTVSPost2010PropOp36
 70
     1
102
RTVSPost2010Prop37
 90
       50
102
RTVSPost2010PropOp37
 70
     1
102
RTVSPost2010Prop38
140
0.0
102
RTVSPost2010PropOp38
 70
     1
102
RTVSPost2010Prop39
140
1.0
102
RTVSPost2010PropOp39
 70
     1
102
RTVSPost2010Prop40
 90
        0
102
RTVSPost2010PropOp40
 70
     1
102
RTVSPost2010Prop41ColorIndex
 90
       18
102
RTVSPost2010Prop41ColorRGB
 90
        0
102
RTVSPost2010PropOp41
 70
     1
102
RTVSPost2010Prop42
 90
       50
102
RTVSPost2010PropOp42
 70
     1
102
RTVSPost2010Prop43
 90
        3
102
RTVSPost2010PropOp43
 70
     1
102
RTVSPost2010Prop44ColorIndex
 90
        5
102
RTVSPost2010Prop44ColorRGB
 90
      255
102
RTVSPost2010PropOp44
 70
     1
102
RTVSPost2010Prop45
280
     0
102
RTVSPost2010PropOp45
 70
     1
102
RTVSPost2010Prop46
 90
       50
102
RTVSPost2010PropOp46
 70
     1
102
RTVSPost2010Prop47
 90
       50
102
RTVSPost2010PropOp47
 70
     1
102
RTVSPost2010Prop48
 90
       50
102
RTVSPost2010PropOp48
 70
     1
102
RTVSPost2010Prop49
280
     0
102
RTVSPost2010PropOp49
 70
     1
102
RTVSPost2010Prop50
 90
       50
102
RTVSPost2010PropOp50
 70
     1
102
RTVSPost2010Prop51ColorIndex
 90
      256
102
RTVSPost2010Prop51ColorRGB
 90
-16777216
102
RTVSPost2010PropOp51
 70
     0
102
RTVSPost2010Prop52
140
1.0
102
RTVSPost2010PropOp52
 70
     0
102
RTVSPost2010Prop53
 90
        2
102
RTVSPost2010PropOp53
 70
     1
102
RTVSPost2010Prop54
  1
strokes_ogs.tif
102
RTVSPost2010PropOp54
 70
     1
102
RTVSPost2010Prop55
280
     0
102
RTVSPost2010PropOp55
 70
     1
102
RTVSPost2010Prop56
140
1.0
102
RTVSPost2010PropOp56
 70
     1
102
RTVSPost2010Prop57
140
1.0
102
RTVSPost2010PropOp57
 70
     1
102
RTVSPropertyOp0
 70
     1
102
RTVSPropertyOp1
 70
     1
102
RTVSPropertyOp2
 70
     1
102
RTVSPropertyOp3
 70
     1
102
RTVSPropertyOp4
 70
     1
102
RTVSPropertyOp5
 70
     1
102
RTVSPropertyOp6
 70
     1
102
RTVSPropertyOp7
 70
     1
102
RTVSPropertyOp8
 70
     1
102
RTVSPropertyOp9
 70
     1
102
RTVSPropertyOp10
 70
     1
102
RTVSPropertyOp11
 70
     1
102
RTVSPropertyOp12
 70
     1
102
RTVSPropertyOp13
 70
     1
102
RTVSPropertyOp14
 70
     1
102
RTVSPropertyOp15
 70
     1
102
RTVSPropertyOp16
 70
     1
102
RTVSPropertyOp17
 70
     1
102
RTVSPropertyOp18
 70
     1
102
RTVSPropertyOp19
 70
     1
102
RTVSPropertyOp20
 70
     1
102
RTVSPropertyOp21
 70
     1
102
RTVSPropertyOp22
 70
     1
102
RTVSPropertyOp23
 70
     1
102
RTVSPropertyOp24
 70
     1
102
RTVSPropertyOp25
 70
     1
102
RTVSPropertyOp26
 70
     1
102
RTVSPropertyOp27
 70
     1
102
RTVSPropertyOp28
 70
     1
102
RTVSPropertyOp29
 70
     1
102
RTVSPropertyOp30
 70
     1
102
RTVSPropertyOp31
 70
     1
102
RTVSPropertyOp32
 70
     1
102
RTVSPropertyOp33
 70
     1
102
RTVSPropertyOp34
 70
     1
102
RTVSPropertyOp35
 70
     1
102
RTVSPropertyOp36
 70
     1
102
RTVSPropertyOp37
 70
     1
102
RTVSPropertyOp38
 70
     1
102
RTVSPropertyOp39
 70
     1
102
RTVSPropertyOp40
 70
     1
102
RTVSPropertyOp41
 70
     1
102
RTVSPropertyOp42
 70
     1
102
RTVSPropertyOp43
 70
     1
102
RTVSPropertyOp44
 70
     1
102
RTVSPropertyOp45
 70
     1
102
RTVSPropertyOp46
 70
     1
102
RTVSPropertyOp47
 70
     1
102
RTVSPropertyOp48
 70
     1
102
RTVSPropertyOp49
 70
     1
102
RTVSPropertyOp50
 70
     1
102
RTVSPropertyOp51
 70
     0
102
RTVSPropertyOp52
 70
     0
102
RTVSPropertyOp53
 70
     1
102
RTVSPropertyOp54
 70
     1
102
RTVSPropertyOp55
 70
     1
102
RTVSPropertyOp56
 70
     1
102
RTVSPropertyOp57
 70
     1
102
RTVSPropertyOp58
 70
     1
102
RTVSPropertyOp59
 70
     1
102
RTVSPropertyOp60
 70
     1
102
RTVSPropertyOp61
 70
     1
102
RTVSPropertyOp62
 70
     1
  0
XRECORD
  5
377B
102
{ACAD_REACTORS
330
377A
102
}
330
377A
100
AcDbXrecord
280
     1
102
RTVSPost2010Prop28
280
     0
102
RTVSPost2010PropOp28
 70
     1
102
RTVSPost2010Prop29
280
     1
102
RTVSPost2010PropOp29
 70
     1
102
RTVSPost2010Prop30
280
     1
102
RTVSPost2010PropOp30
 70
     1
102
RTVSPost2010Prop31
280
     0
102
RTVSPost2010PropOp31
 70
     1
102
RTVSPost2010Prop32
280
     0
102
RTVSPost2010PropOp32
 70
     1
102
RTVSPost2010Prop33
280
     0
102
RTVSPost2010PropOp33
 70
     1
102
RTVSPost2010Prop34
280
     0
102
RTVSPost2010PropOp34
 70
     1
102
RTVSPost2010Prop35
280
     0
102
RTVSPost2010PropOp35
 70
     1
102
RTVSPost2010Prop36
280
     0
102
RTVSPost2010PropOp36
 70
     1
102
RTVSPost2010Prop37
 90
       50
102
RTVSPost2010PropOp37
 70
     1
102
RTVSPost2010Prop38
140
0.0
102
RTVSPost2010PropOp38
 70
     1
102
RTVSPost2010Prop39
140
1.0
102
RTVSPost2010PropOp39
 70
     1
102
RTVSPost2010Prop40
 90
        0
102
RTVSPost2010PropOp40
 70
     1
102
RTVSPost2010Prop41ColorIndex
 90
       18
102
RTVSPost2010Prop41ColorRGB
 90
        0
102
RTVSPost2010PropOp41
 70
     1
102
RTVSPost2010Prop42
 90
       50
102
RTVSPost2010PropOp42
 70
     1
102
RTVSPost2010Prop43
 90
        3
102
RTVSPost2010PropOp43
 70
     1
102
RTVSPost2010Prop44ColorIndex
 90
        5
102
RTVSPost2010Prop44ColorRGB
 90
      255
102
RTVSPost2010PropOp44
 70
     1
102
RTVSPost2010Prop45
280
     0
102
RTVSPost2010PropOp45
 70
     1
102
RTVSPost2010Prop46
 90
       50
102
RTVSPost2010PropOp46
 70
     1
102
RTVSPost2010Prop47
 90
       50
102
RTVSPost2010PropOp47
 70
     1
102
RTVSPost2010Prop48
 90
       50
102
RTVSPost2010PropOp48
 70
     1
102
RTVSPost2010Prop49
280
     0
102
RTVSPost2010PropOp49
 70
     1
102
RTVSPost2010Prop50
 90
       50
102
RTVSPost2010PropOp50
 70
     1
102
RTVSPost2010Prop51ColorIndex
 90
      256
102
RTVSPost2010Prop51ColorRGB
 90
-16777216
102
RTVSPost2010PropOp51
 70
     0
102
RTVSPost2010Prop52
140
1.0
102
RTVSPost2010PropOp52
 70
     0
102
RTVSPost2010Prop53
 90
        2
102
RTVSPost2010PropOp53
 70
     1
102
RTVSPost2010Prop54
  1
strokes_ogs.tif
102
RTVSPost2010PropOp54
 70
     1
102
RTVSPost2010Prop55
280
     0
102
RTVSPost2010PropOp55
 70
     1
102
RTVSPost2010Prop56
140
1.0
102
RTVSPost2010PropOp56
 70
     1
102
RTVSPost2010Prop57
140
1.0
102
RTVSPost2010PropOp57
 70
     1
102
RTVSPropertyOp0
 70
     1
102
RTVSPropertyOp1
 70
     1
102
RTVSPropertyOp2
 70
     1
102
RTVSPropertyOp3
 70
     1
102
RTVSPropertyOp4
 70
     1
102
RTVSPropertyOp5
 70
     1
102
RTVSPropertyOp6
 70
     1
102
RTVSPropertyOp7
 70
     1
102
RTVSPropertyOp8
 70
     1
102
RTVSPropertyOp9
 70
     1
102
RTVSPropertyOp10
 70
     1
102
RTVSPropertyOp11
 70
     1
102
RTVSPropertyOp12
 70
     1
102
RTVSPropertyOp13
 70
     1
102
RTVSPropertyOp14
 70
     1
102
RTVSPropertyOp15
 70
     1
102
RTVSPropertyOp16
 70
     1
102
RTVSPropertyOp17
 70
     1
102
RTVSPropertyOp18
 70
     1
102
RTVSPropertyOp19
 70
     1
102
RTVSPropertyOp20
 70
     1
102
RTVSPropertyOp21
 70
     1
102
RTVSPropertyOp22
 70
     1
102
RTVSPropertyOp23
 70
     1
102
RTVSPropertyOp24
 70
     1
102
RTVSPropertyOp25
 70
     1
102
RTVSPropertyOp26
 70
     1
102
RTVSPropertyOp27
 70
     1
102
RTVSPropertyOp28
 70
     1
102
RTVSPropertyOp29
 70
     1
102
RTVSPropertyOp30
 70
     1
102
RTVSPropertyOp31
 70
     1
102
RTVSPropertyOp32
 70
     1
102
RTVSPropertyOp33
 70
     1
102
RTVSPropertyOp34
 70
     1
102
RTVSPropertyOp35
 70
     1
102
RTVSPropertyOp36
 70
     1
102
RTVSPropertyOp37
 70
     1
102
RTVSPropertyOp38
 70
     1
102
RTVSPropertyOp39
 70
     1
102
RTVSPropertyOp40
 70
     1
102
RTVSPropertyOp41
 70
     1
102
RTVSPropertyOp42
 70
     1
102
RTVSPropertyOp43
 70
     1
102
RTVSPropertyOp44
 70
     1
102
RTVSPropertyOp45
 70
     1
102
RTVSPropertyOp46
 70
     1
102
RTVSPropertyOp47
 70
     1
102
RTVSPropertyOp48
 70
     1
102
RTVSPropertyOp49
 70
     1
102
RTVSPropertyOp50
 70
     1
102
RTVSPropertyOp51
 70
     0
102
RTVSPropertyOp52
 70
     0
102
RTVSPropertyOp53
 70
     1
102
RTVSPropertyOp54
 70
     1
102
RTVSPropertyOp55
 70
     1
102
RTVSPropertyOp56
 70
     1
102
RTVSPropertyOp57
 70
     1
102
RTVSPropertyOp58
 70
     1
102
RTVSPropertyOp59
 70
     1
102
RTVSPropertyOp60
 70
     1
102
RTVSPropertyOp61
 70
     1
102
RTVSPropertyOp62
 70
     1
  0
XRECORD
  5
3783
102
{ACAD_REACTORS
330
3782
102
}
330
3782
100
AcDbXrecord
280
     1
102
RTVSPost2010Prop28
280
     0
102
RTVSPost2010PropOp28
 70
     1
102
RTVSPost2010Prop29
280
     1
102
RTVSPost2010PropOp29
 70
     1
102
RTVSPost2010Prop30
280
     1
102
RTVSPost2010PropOp30
 70
     1
102
RTVSPost2010Prop31
280
     0
102
RTVSPost2010PropOp31
 70
     1
102
RTVSPost2010Prop32
280
     0
102
RTVSPost2010PropOp32
 70
     1
102
RTVSPost2010Prop33
280
     0
102
RTVSPost2010PropOp33
 70
     1
102
RTVSPost2010Prop34
280
     0
102
RTVSPost2010PropOp34
 70
     1
102
RTVSPost2010Prop35
280
     0
102
RTVSPost2010PropOp35
 70
     1
102
RTVSPost2010Prop36
280
     0
102
RTVSPost2010PropOp36
 70
     1
102
RTVSPost2010Prop37
 90
       50
102
RTVSPost2010PropOp37
 70
     1
102
RTVSPost2010Prop38
140
0.0
102
RTVSPost2010PropOp38
 70
     1
102
RTVSPost2010Prop39
140
1.0
102
RTVSPost2010PropOp39
 70
     1
102
RTVSPost2010Prop40
 90
        0
102
RTVSPost2010PropOp40
 70
     1
102
RTVSPost2010Prop41ColorIndex
 90
       18
102
RTVSPost2010Prop41ColorRGB
 90
        0
102
RTVSPost2010PropOp41
 70
     1
102
RTVSPost2010Prop42
 90
       50
102
RTVSPost2010PropOp42
 70
     1
102
RTVSPost2010Prop43
 90
        3
102
RTVSPost2010PropOp43
 70
     1
102
RTVSPost2010Prop44ColorIndex
 90
        5
102
RTVSPost2010Prop44ColorRGB
 90
      255
102
RTVSPost2010PropOp44
 70
     1
102
RTVSPost2010Prop45
280
     0
102
RTVSPost2010PropOp45
 70
     1
102
RTVSPost2010Prop46
 90
       50
102
RTVSPost2010PropOp46
 70
     1
102
RTVSPost2010Prop47
 90
       50
102
RTVSPost2010PropOp47
 70
     1
102
RTVSPost2010Prop48
 90
       50
102
RTVSPost2010PropOp48
 70
     1
102
RTVSPost2010Prop49
280
     0
102
RTVSPost2010PropOp49
 70
     1
102
RTVSPost2010Prop50
 90
       50
102
RTVSPost2010PropOp50
 70
     1
102
RTVSPost2010Prop51ColorIndex
 90
      256
102
RTVSPost2010Prop51ColorRGB
 90
-16777216
102
RTVSPost2010PropOp51
 70
     0
102
RTVSPost2010Prop52
140
1.0
102
RTVSPost2010PropOp52
 70
     0
102
RTVSPost2010Prop53
 90
        2
102
RTVSPost2010PropOp53
 70
     1
102
RTVSPost2010Prop54
  1
strokes_ogs.tif
102
RTVSPost2010PropOp54
 70
     1
102
RTVSPost2010Prop55
280
     0
102
RTVSPost2010PropOp55
 70
     1
102
RTVSPost2010Prop56
140
1.0
102
RTVSPost2010PropOp56
 70
     1
102
RTVSPost2010Prop57
140
1.0
102
RTVSPost2010PropOp57
 70
     1
102
RTVSPropertyOp0
 70
     1
102
RTVSPropertyOp1
 70
     1
102
RTVSPropertyOp2
 70
     1
102
RTVSPropertyOp3
 70
     1
102
RTVSPropertyOp4
 70
     1
102
RTVSPropertyOp5
 70
     1
102
RTVSPropertyOp6
 70
     1
102
RTVSPropertyOp7
 70
     1
102
RTVSPropertyOp8
 70
     1
102
RTVSPropertyOp9
 70
     1
102
RTVSPropertyOp10
 70
     1
102
RTVSPropertyOp11
 70
     1
102
RTVSPropertyOp12
 70
     1
102
RTVSPropertyOp13
 70
     1
102
RTVSPropertyOp14
 70
     1
102
RTVSPropertyOp15
 70
     1
102
RTVSPropertyOp16
 70
     1
102
RTVSPropertyOp17
 70
     1
102
RTVSPropertyOp18
 70
     1
102
RTVSPropertyOp19
 70
     1
102
RTVSPropertyOp20
 70
     1
102
RTVSPropertyOp21
 70
     1
102
RTVSPropertyOp22
 70
     1
102
RTVSPropertyOp23
 70
     1
102
RTVSPropertyOp24
 70
     1
102
RTVSPropertyOp25
 70
     1
102
RTVSPropertyOp26
 70
     1
102
RTVSPropertyOp27
 70
     1
102
RTVSPropertyOp28
 70
     1
102
RTVSPropertyOp29
 70
     1
102
RTVSPropertyOp30
 70
     1
102
RTVSPropertyOp31
 70
     1
102
RTVSPropertyOp32
 70
     1
102
RTVSPropertyOp33
 70
     1
102
RTVSPropertyOp34
 70
     1
102
RTVSPropertyOp35
 70
     1
102
RTVSPropertyOp36
 70
     1
102
RTVSPropertyOp37
 70
     1
102
RTVSPropertyOp38
 70
     1
102
RTVSPropertyOp39
 70
     1
102
RTVSPropertyOp40
 70
     1
102
RTVSPropertyOp41
 70
     1
102
RTVSPropertyOp42
 70
     1
102
RTVSPropertyOp43
 70
     1
102
RTVSPropertyOp44
 70
     1
102
RTVSPropertyOp45
 70
     1
102
RTVSPropertyOp46
 70
     1
102
RTVSPropertyOp47
 70
     1
102
RTVSPropertyOp48
 70
     1
102
RTVSPropertyOp49
 70
     1
102
RTVSPropertyOp50
 70
     1
102
RTVSPropertyOp51
 70
     0
102
RTVSPropertyOp52
 70
     0
102
RTVSPropertyOp53
 70
     1
102
RTVSPropertyOp54
 70
     1
102
RTVSPropertyOp55
 70
     1
102
RTVSPropertyOp56
 70
     1
102
RTVSPropertyOp57
 70
     1
102
RTVSPropertyOp58
 70
     1
102
RTVSPropertyOp59
 70
     1
102
RTVSPropertyOp60
 70
     1
102
RTVSPropertyOp61
 70
     1
102
RTVSPropertyOp62
 70
     1
  0
XRECORD
  5
3775
102
{ACAD_REACTORS
330
3774
102
}
330
3774
100
AcDbXrecord
280
     1
102
RTVSPost2010Prop28
280
     0
102
RTVSPost2010PropOp28
 70
     1
102
RTVSPost2010Prop29
280
     1
102
RTVSPost2010PropOp29
 70
     1
102
RTVSPost2010Prop30
280
     1
102
RTVSPost2010PropOp30
 70
     1
102
RTVSPost2010Prop31
280
     0
102
RTVSPost2010PropOp31
 70
     1
102
RTVSPost2010Prop32
280
     0
102
RTVSPost2010PropOp32
 70
     1
102
RTVSPost2010Prop33
280
     0
102
RTVSPost2010PropOp33
 70
     1
102
RTVSPost2010Prop34
280
     0
102
RTVSPost2010PropOp34
 70
     1
102
RTVSPost2010Prop35
280
     0
102
RTVSPost2010PropOp35
 70
     1
102
RTVSPost2010Prop36
280
     0
102
RTVSPost2010PropOp36
 70
     1
102
RTVSPost2010Prop37
 90
       50
102
RTVSPost2010PropOp37
 70
     1
102
RTVSPost2010Prop38
140
0.0
102
RTVSPost2010PropOp38
 70
     1
102
RTVSPost2010Prop39
140
1.0
102
RTVSPost2010PropOp39
 70
     1
102
RTVSPost2010Prop40
 90
        0
102
RTVSPost2010PropOp40
 70
     1
102
RTVSPost2010Prop41ColorIndex
 90
       18
102
RTVSPost2010Prop41ColorRGB
 90
        0
102
RTVSPost2010PropOp41
 70
     1
102
RTVSPost2010Prop42
 90
       50
102
RTVSPost2010PropOp42
 70
     1
102
RTVSPost2010Prop43
 90
        3
102
RTVSPost2010PropOp43
 70
     1
102
RTVSPost2010Prop44ColorIndex
 90
        5
102
RTVSPost2010Prop44ColorRGB
 90
      255
102
RTVSPost2010PropOp44
 70
     1
102
RTVSPost2010Prop45
280
     0
102
RTVSPost2010PropOp45
 70
     1
102
RTVSPost2010Prop46
 90
       50
102
RTVSPost2010PropOp46
 70
     1
102
RTVSPost2010Prop47
 90
       50
102
RTVSPost2010PropOp47
 70
     1
102
RTVSPost2010Prop48
 90
       50
102
RTVSPost2010PropOp48
 70
     1
102
RTVSPost2010Prop49
280
     0
102
RTVSPost2010PropOp49
 70
     1
102
RTVSPost2010Prop50
 90
       50
102
RTVSPost2010PropOp50
 70
     1
102
RTVSPost2010Prop51ColorIndex
 90
      256
102
RTVSPost2010Prop51ColorRGB
 90
-16777216
102
RTVSPost2010PropOp51
 70
     0
102
RTVSPost2010Prop52
140
1.0
102
RTVSPost2010PropOp52
 70
     0
102
RTVSPost2010Prop53
 90
        2
102
RTVSPost2010PropOp53
 70
     1
102
RTVSPost2010Prop54
  1
strokes_ogs.tif
102
RTVSPost2010PropOp54
 70
     1
102
RTVSPost2010Prop55
280
     0
102
RTVSPost2010PropOp55
 70
     1
102
RTVSPost2010Prop56
140
1.0
102
RTVSPost2010PropOp56
 70
     1
102
RTVSPost2010Prop57
140
1.0
102
RTVSPost2010PropOp57
 70
     1
102
RTVSPropertyOp0
 70
     1
102
RTVSPropertyOp1
 70
     1
102
RTVSPropertyOp2
 70
     1
102
RTVSPropertyOp3
 70
     1
102
RTVSPropertyOp4
 70
     1
102
RTVSPropertyOp5
 70
     1
102
RTVSPropertyOp6
 70
     1
102
RTVSPropertyOp7
 70
     1
102
RTVSPropertyOp8
 70
     1
102
RTVSPropertyOp9
 70
     1
102
RTVSPropertyOp10
 70
     1
102
RTVSPropertyOp11
 70
     1
102
RTVSPropertyOp12
 70
     1
102
RTVSPropertyOp13
 70
     1
102
RTVSPropertyOp14
 70
     1
102
RTVSPropertyOp15
 70
     1
102
RTVSPropertyOp16
 70
     1
102
RTVSPropertyOp17
 70
     1
102
RTVSPropertyOp18
 70
     1
102
RTVSPropertyOp19
 70
     1
102
RTVSPropertyOp20
 70
     1
102
RTVSPropertyOp21
 70
     1
102
RTVSPropertyOp22
 70
     1
102
RTVSPropertyOp23
 70
     1
102
RTVSPropertyOp24
 70
     1
102
RTVSPropertyOp25
 70
     1
102
RTVSPropertyOp26
 70
     1
102
RTVSPropertyOp27
 70
     1
102
RTVSPropertyOp28
 70
     1
102
RTVSPropertyOp29
 70
     1
102
RTVSPropertyOp30
 70
     1
102
RTVSPropertyOp31
 70
     1
102
RTVSPropertyOp32
 70
     1
102
RTVSPropertyOp33
 70
     1
102
RTVSPropertyOp34
 70
     1
102
RTVSPropertyOp35
 70
     1
102
RTVSPropertyOp36
 70
     1
102
RTVSPropertyOp37
 70
     1
102
RTVSPropertyOp38
 70
     1
102
RTVSPropertyOp39
 70
     1
102
RTVSPropertyOp40
 70
     1
102
RTVSPropertyOp41
 70
     1
102
RTVSPropertyOp42
 70
     1
102
RTVSPropertyOp43
 70
     1
102
RTVSPropertyOp44
 70
     1
102
RTVSPropertyOp45
 70
     1
102
RTVSPropertyOp46
 70
     1
102
RTVSPropertyOp47
 70
     1
102
RTVSPropertyOp48
 70
     1
102
RTVSPropertyOp49
 70
     1
102
RTVSPropertyOp50
 70
     1
102
RTVSPropertyOp51
 70
     0
102
RTVSPropertyOp52
 70
     0
102
RTVSPropertyOp53
 70
     1
102
RTVSPropertyOp54
 70
     1
102
RTVSPropertyOp55
 70
     1
102
RTVSPropertyOp56
 70
     1
102
RTVSPropertyOp57
 70
     1
102
RTVSPropertyOp58
 70
     1
102
RTVSPropertyOp59
 70
     1
102
RTVSPropertyOp60
 70
     1
102
RTVSPropertyOp61
 70
     1
102
RTVSPropertyOp62
 70
     1
  0
XRECORD
  5
3779
102
{ACAD_REACTORS
330
3778
102
}
330
3778
100
AcDbXrecord
280
     1
102
RTVSPost2010Prop28
280
     0
102
RTVSPost2010PropOp28
 70
     1
102
RTVSPost2010Prop29
280
     1
102
RTVSPost2010PropOp29
 70
     1
102
RTVSPost2010Prop30
280
     1
102
RTVSPost2010PropOp30
 70
     1
102
RTVSPost2010Prop31
280
     0
102
RTVSPost2010PropOp31
 70
     1
102
RTVSPost2010Prop32
280
     0
102
RTVSPost2010PropOp32
 70
     1
102
RTVSPost2010Prop33
280
     0
102
RTVSPost2010PropOp33
 70
     1
102
RTVSPost2010Prop34
280
     0
102
RTVSPost2010PropOp34
 70
     1
102
RTVSPost2010Prop35
280
     0
102
RTVSPost2010PropOp35
 70
     1
102
RTVSPost2010Prop36
280
     0
102
RTVSPost2010PropOp36
 70
     1
102
RTVSPost2010Prop37
 90
       50
102
RTVSPost2010PropOp37
 70
     1
102
RTVSPost2010Prop38
140
0.0
102
RTVSPost2010PropOp38
 70
     1
102
RTVSPost2010Prop39
140
1.0
102
RTVSPost2010PropOp39
 70
     1
102
RTVSPost2010Prop40
 90
        0
102
RTVSPost2010PropOp40
 70
     1
102
RTVSPost2010Prop41ColorIndex
 90
       18
102
RTVSPost2010Prop41ColorRGB
 90
        0
102
RTVSPost2010PropOp41
 70
     1
102
RTVSPost2010Prop42
 90
       50
102
RTVSPost2010PropOp42
 70
     1
102
RTVSPost2010Prop43
 90
        3
102
RTVSPost2010PropOp43
 70
     1
102
RTVSPost2010Prop44ColorIndex
 90
        5
102
RTVSPost2010Prop44ColorRGB
 90
      255
102
RTVSPost2010PropOp44
 70
     1
102
RTVSPost2010Prop45
280
     0
102
RTVSPost2010PropOp45
 70
     1
102
RTVSPost2010Prop46
 90
       50
102
RTVSPost2010PropOp46
 70
     1
102
RTVSPost2010Prop47
 90
       50
102
RTVSPost2010PropOp47
 70
     1
102
RTVSPost2010Prop48
 90
       50
102
RTVSPost2010PropOp48
 70
     1
102
RTVSPost2010Prop49
280
     0
102
RTVSPost2010PropOp49
 70
     1
102
RTVSPost2010Prop50
 90
       50
102
RTVSPost2010PropOp50
 70
     1
102
RTVSPost2010Prop51ColorIndex
 90
      256
102
RTVSPost2010Prop51ColorRGB
 90
-16777216
102
RTVSPost2010PropOp51
 70
     0
102
RTVSPost2010Prop52
140
1.0
102
RTVSPost2010PropOp52
 70
     0
102
RTVSPost2010Prop53
 90
        2
102
RTVSPost2010PropOp53
 70
     1
102
RTVSPost2010Prop54
  1
strokes_ogs.tif
102
RTVSPost2010PropOp54
 70
     1
102
RTVSPost2010Prop55
280
     0
102
RTVSPost2010PropOp55
 70
     1
102
RTVSPost2010Prop56
140
1.0
102
RTVSPost2010PropOp56
 70
     1
102
RTVSPost2010Prop57
140
1.0
102
RTVSPost2010PropOp57
 70
     1
102
RTVSPropertyOp0
 70
     1
102
RTVSPropertyOp1
 70
     1
102
RTVSPropertyOp2
 70
     1
102
RTVSPropertyOp3
 70
     1
102
RTVSPropertyOp4
 70
     1
102
RTVSPropertyOp5
 70
     1
102
RTVSPropertyOp6
 70
     1
102
RTVSPropertyOp7
 70
     1
102
RTVSPropertyOp8
 70
     1
102
RTVSPropertyOp9
 70
     1
102
RTVSPropertyOp10
 70
     1
102
RTVSPropertyOp11
 70
     1
102
RTVSPropertyOp12
 70
     1
102
RTVSPropertyOp13
 70
     1
102
RTVSPropertyOp14
 70
     1
102
RTVSPropertyOp15
 70
     1
102
RTVSPropertyOp16
 70
     1
102
RTVSPropertyOp17
 70
     1
102
RTVSPropertyOp18
 70
     1
102
RTVSPropertyOp19
 70
     1
102
RTVSPropertyOp20
 70
     1
102
RTVSPropertyOp21
 70
     1
102
RTVSPropertyOp22
 70
     1
102
RTVSPropertyOp23
 70
     1
102
RTVSPropertyOp24
 70
     1
102
RTVSPropertyOp25
 70
     1
102
RTVSPropertyOp26
 70
     1
102
RTVSPropertyOp27
 70
     1
102
RTVSPropertyOp28
 70
     1
102
RTVSPropertyOp29
 70
     1
102
RTVSPropertyOp30
 70
     1
102
RTVSPropertyOp31
 70
     1
102
RTVSPropertyOp32
 70
     1
102
RTVSPropertyOp33
 70
     1
102
RTVSPropertyOp34
 70
     1
102
RTVSPropertyOp35
 70
     1
102
RTVSPropertyOp36
 70
     1
102
RTVSPropertyOp37
 70
     1
102
RTVSPropertyOp38
 70
     1
102
RTVSPropertyOp39
 70
     1
102
RTVSPropertyOp40
 70
     1
102
RTVSPropertyOp41
 70
     1
102
RTVSPropertyOp42
 70
     1
102
RTVSPropertyOp43
 70
     1
102
RTVSPropertyOp44
 70
     1
102
RTVSPropertyOp45
 70
     1
102
RTVSPropertyOp46
 70
     1
102
RTVSPropertyOp47
 70
     1
102
RTVSPropertyOp48
 70
     1
102
RTVSPropertyOp49
 70
     1
102
RTVSPropertyOp50
 70
     1
102
RTVSPropertyOp51
 70
     0
102
RTVSPropertyOp52
 70
     0
102
RTVSPropertyOp53
 70
     1
102
RTVSPropertyOp54
 70
     1
102
RTVSPropertyOp55
 70
     1
102
RTVSPropertyOp56
 70
     1
102
RTVSPropertyOp57
 70
     1
102
RTVSPropertyOp58
 70
     1
102
RTVSPropertyOp59
 70
     1
102
RTVSPropertyOp60
 70
     1
102
RTVSPropertyOp61
 70
     1
102
RTVSPropertyOp62
 70
     1
  0
XRECORD
  5
3793
102
{ACAD_REACTORS
330
3792
102
}
330
3792
100
AcDbXrecord
280
     1
102
RTVSPost2010Prop28
280
     0
102
RTVSPost2010PropOp28
 70
     1
102
RTVSPost2010Prop29
280
     1
102
RTVSPost2010PropOp29
 70
     1
102
RTVSPost2010Prop30
280
     1
102
RTVSPost2010PropOp30
 70
     1
102
RTVSPost2010Prop31
280
     0
102
RTVSPost2010PropOp31
 70
     1
102
RTVSPost2010Prop32
280
     0
102
RTVSPost2010PropOp32
 70
     1
102
RTVSPost2010Prop33
280
     0
102
RTVSPost2010PropOp33
 70
     1
102
RTVSPost2010Prop34
280
     0
102
RTVSPost2010PropOp34
 70
     1
102
RTVSPost2010Prop35
280
     0
102
RTVSPost2010PropOp35
 70
     1
102
RTVSPost2010Prop36
280
     0
102
RTVSPost2010PropOp36
 70
     1
102
RTVSPost2010Prop37
 90
       50
102
RTVSPost2010PropOp37
 70
     0
102
RTVSPost2010Prop38
140
0.0
102
RTVSPost2010PropOp38
 70
     0
102
RTVSPost2010Prop39
140
1.0
102
RTVSPost2010PropOp39
 70
     0
102
RTVSPost2010Prop40
 90
        0
102
RTVSPost2010PropOp40
 70
     0
102
RTVSPost2010Prop41ColorIndex
 90
       18
102
RTVSPost2010Prop41ColorRGB
 90
        0
102
RTVSPost2010PropOp41
 70
     0
102
RTVSPost2010Prop42
 90
       50
102
RTVSPost2010PropOp42
 70
     0
102
RTVSPost2010Prop43
 90
        3
102
RTVSPost2010PropOp43
 70
     0
102
RTVSPost2010Prop44ColorIndex
 90
        5
102
RTVSPost2010Prop44ColorRGB
 90
      255
102
RTVSPost2010PropOp44
 70
     0
102
RTVSPost2010Prop45
280
     0
102
RTVSPost2010PropOp45
 70
     1
102
RTVSPost2010Prop46
 90
       50
102
RTVSPost2010PropOp46
 70
     0
102
RTVSPost2010Prop47
 90
       50
102
RTVSPost2010PropOp47
 70
     0
102
RTVSPost2010Prop48
 90
       50
102
RTVSPost2010PropOp48
 70
     0
102
RTVSPost2010Prop49
280
     0
102
RTVSPost2010PropOp49
 70
     1
102
RTVSPost2010Prop50
 90
       50
102
RTVSPost2010PropOp50
 70
     0
102
RTVSPost2010Prop51ColorIndex
 90
      256
102
RTVSPost2010Prop51ColorRGB
 90
-16777216
102
RTVSPost2010PropOp51
 70
     0
102
RTVSPost2010Prop52
140
1.0
102
RTVSPost2010PropOp52
 70
     0
102
RTVSPost2010Prop53
 90
        2
102
RTVSPost2010PropOp53
 70
     0
102
RTVSPost2010Prop54
  1
strokes_ogs.tif
102
RTVSPost2010PropOp54
 70
     0
102
RTVSPost2010Prop55
280
     0
102
RTVSPost2010PropOp55
 70
     1
102
RTVSPost2010Prop56
140
1.0
102
RTVSPost2010PropOp56
 70
     0
102
RTVSPost2010Prop57
140
1.0
102
RTVSPost2010PropOp57
 70
     0
102
RTVSPropertyOp0
 70
     0
102
RTVSPropertyOp1
 70
     0
102
RTVSPropertyOp2
 70
     0
102
RTVSPropertyOp3
 70
     0
102
RTVSPropertyOp4
 70
     0
102
RTVSPropertyOp5
 70
     0
102
RTVSPropertyOp6
 70
     0
102
RTVSPropertyOp7
 70
     0
102
RTVSPropertyOp8
 70
     0
102
RTVSPropertyOp9
 70
     0
102
RTVSPropertyOp10
 70
     0
102
RTVSPropertyOp11
 70
     0
102
RTVSPropertyOp12
 70
     0
102
RTVSPropertyOp13
 70
     0
102
RTVSPropertyOp14
 70
     2
102
RTVSPropertyOp15
 70
     0
102
RTVSPropertyOp16
 70
     0
102
RTVSPropertyOp17
 70
     0
102
RTVSPropertyOp18
 70
     0
102
RTVSPropertyOp19
 70
     0
102
RTVSPropertyOp20
 70
     0
102
RTVSPropertyOp21
 70
     0
102
RTVSPropertyOp22
 70
     0
102
RTVSPropertyOp23
 70
     0
102
RTVSPropertyOp24
 70
     0
102
RTVSPropertyOp25
 70
     0
102
RTVSPropertyOp26
 70
     0
102
RTVSPropertyOp27
 70
     0
102
RTVSPropertyOp28
 70
     1
102
RTVSPropertyOp29
 70
     1
102
RTVSPropertyOp30
 70
     1
102
RTVSPropertyOp31
 70
     1
102
RTVSPropertyOp32
 70
     1
102
RTVSPropertyOp33
 70
     1
102
RTVSPropertyOp34
 70
     1
102
RTVSPropertyOp35
 70
     1
102
RTVSPropertyOp36
 70
     1
102
RTVSPropertyOp37
 70
     0
102
RTVSPropertyOp38
 70
     0
102
RTVSPropertyOp39
 70
     0
102
RTVSPropertyOp40
 70
     0
102
RTVSPropertyOp41
 70
     0
102
RTVSPropertyOp42
 70
     0
102
RTVSPropertyOp43
 70
     0
102
RTVSPropertyOp44
 70
     0
102
RTVSPropertyOp45
 70
     1
102
RTVSPropertyOp46
 70
     0
102
RTVSPropertyOp47
 70
     0
102
RTVSPropertyOp48
 70
     0
102
RTVSPropertyOp49
 70
     1
102
RTVSPropertyOp50
 70
     0
102
RTVSPropertyOp51
 70
     0
102
RTVSPropertyOp52
 70
     0
102
RTVSPropertyOp53
 70
     0
102
RTVSPropertyOp54
 70
     0
102
RTVSPropertyOp55
 70
     1
102
RTVSPropertyOp56
 70
     0
102
RTVSPropertyOp57
 70
     0
102
RTVSPropertyOp58
 70
     0
102
RTVSPropertyOp59
 70
     0
102
RTVSPropertyOp60
 70
     0
102
RTVSPropertyOp61
 70
     0
102
RTVSPropertyOp62
 70
     0
  0
XRECORD
  5
3781
102
{ACAD_REACTORS
330
3780
102
}
330
3780
100
AcDbXrecord
280
     1
102
RTVSPost2010Prop28
280
     0
102
RTVSPost2010PropOp28
 70
     1
102
RTVSPost2010Prop29
280
     1
102
RTVSPost2010PropOp29
 70
     1
102
RTVSPost2010Prop30
280
     1
102
RTVSPost2010PropOp30
 70
     1
102
RTVSPost2010Prop31
280
     0
102
RTVSPost2010PropOp31
 70
     1
102
RTVSPost2010Prop32
280
     0
102
RTVSPost2010PropOp32
 70
     1
102
RTVSPost2010Prop33
280
     0
102
RTVSPost2010PropOp33
 70
     1
102
RTVSPost2010Prop34
280
     0
102
RTVSPost2010PropOp34
 70
     1
102
RTVSPost2010Prop35
280
     0
102
RTVSPost2010PropOp35
 70
     1
102
RTVSPost2010Prop36
280
     0
102
RTVSPost2010PropOp36
 70
     1
102
RTVSPost2010Prop37
 90
       50
102
RTVSPost2010PropOp37
 70
     1
102
RTVSPost2010Prop38
140
0.0
102
RTVSPost2010PropOp38
 70
     1
102
RTVSPost2010Prop39
140
1.0
102
RTVSPost2010PropOp39
 70
     1
102
RTVSPost2010Prop40
 90
        0
102
RTVSPost2010PropOp40
 70
     1
102
RTVSPost2010Prop41ColorIndex
 90
       18
102
RTVSPost2010Prop41ColorRGB
 90
        0
102
RTVSPost2010PropOp41
 70
     1
102
RTVSPost2010Prop42
 90
       50
102
RTVSPost2010PropOp42
 70
     1
102
RTVSPost2010Prop43
 90
        3
102
RTVSPost2010PropOp43
 70
     1
102
RTVSPost2010Prop44ColorIndex
 90
        5
102
RTVSPost2010Prop44ColorRGB
 90
      255
102
RTVSPost2010PropOp44
 70
     1
102
RTVSPost2010Prop45
280
     0
102
RTVSPost2010PropOp45
 70
     1
102
RTVSPost2010Prop46
 90
       50
102
RTVSPost2010PropOp46
 70
     1
102
RTVSPost2010Prop47
 90
       50
102
RTVSPost2010PropOp47
 70
     1
102
RTVSPost2010Prop48
 90
       50
102
RTVSPost2010PropOp48
 70
     1
102
RTVSPost2010Prop49
280
     0
102
RTVSPost2010PropOp49
 70
     1
102
RTVSPost2010Prop50
 90
       50
102
RTVSPost2010PropOp50
 70
     1
102
RTVSPost2010Prop51ColorIndex
 90
      256
102
RTVSPost2010Prop51ColorRGB
 90
-16777216
102
RTVSPost2010PropOp51
 70
     0
102
RTVSPost2010Prop52
140
1.0
102
RTVSPost2010PropOp52
 70
     0
102
RTVSPost2010Prop53
 90
        2
102
RTVSPost2010PropOp53
 70
     1
102
RTVSPost2010Prop54
  1
strokes_ogs.tif
102
RTVSPost2010PropOp54
 70
     1
102
RTVSPost2010Prop55
280
     0
102
RTVSPost2010PropOp55
 70
     1
102
RTVSPost2010Prop56
140
1.0
102
RTVSPost2010PropOp56
 70
     1
102
RTVSPost2010Prop57
140
1.0
102
RTVSPost2010PropOp57
 70
     1
102
RTVSPropertyOp0
 70
     1
102
RTVSPropertyOp1
 70
     1
102
RTVSPropertyOp2
 70
     1
102
RTVSPropertyOp3
 70
     1
102
RTVSPropertyOp4
 70
     1
102
RTVSPropertyOp5
 70
     1
102
RTVSPropertyOp6
 70
     1
102
RTVSPropertyOp7
 70
     1
102
RTVSPropertyOp8
 70
     1
102
RTVSPropertyOp9
 70
     1
102
RTVSPropertyOp10
 70
     1
102
RTVSPropertyOp11
 70
     1
102
RTVSPropertyOp12
 70
     1
102
RTVSPropertyOp13
 70
     1
102
RTVSPropertyOp14
 70
     1
102
RTVSPropertyOp15
 70
     1
102
RTVSPropertyOp16
 70
     1
102
RTVSPropertyOp17
 70
     1
102
RTVSPropertyOp18
 70
     1
102
RTVSPropertyOp19
 70
     1
102
RTVSPropertyOp20
 70
     1
102
RTVSPropertyOp21
 70
     1
102
RTVSPropertyOp22
 70
     1
102
RTVSPropertyOp23
 70
     1
102
RTVSPropertyOp24
 70
     1
102
RTVSPropertyOp25
 70
     1
102
RTVSPropertyOp26
 70
     1
102
RTVSPropertyOp27
 70
     1
102
RTVSPropertyOp28
 70
     1
102
RTVSPropertyOp29
 70
     1
102
RTVSPropertyOp30
 70
     1
102
RTVSPropertyOp31
 70
     1
102
RTVSPropertyOp32
 70
     1
102
RTVSPropertyOp33
 70
     1
102
RTVSPropertyOp34
 70
     1
102
RTVSPropertyOp35
 70
     1
102
RTVSPropertyOp36
 70
     1
102
RTVSPropertyOp37
 70
     1
102
RTVSPropertyOp38
 70
     1
102
RTVSPropertyOp39
 70
     1
102
RTVSPropertyOp40
 70
     1
102
RTVSPropertyOp41
 70
     1
102
RTVSPropertyOp42
 70
     1
102
RTVSPropertyOp43
 70
     1
102
RTVSPropertyOp44
 70
     1
102
RTVSPropertyOp45
 70
     1
102
RTVSPropertyOp46
 70
     1
102
RTVSPropertyOp47
 70
     1
102
RTVSPropertyOp48
 70
     1
102
RTVSPropertyOp49
 70
     1
102
RTVSPropertyOp50
 70
     1
102
RTVSPropertyOp51
 70
     0
102
RTVSPropertyOp52
 70
     0
102
RTVSPropertyOp53
 70
     1
102
RTVSPropertyOp54
 70
     1
102
RTVSPropertyOp55
 70
     1
102
RTVSPropertyOp56
 70
     1
102
RTVSPropertyOp57
 70
     1
102
RTVSPropertyOp58
 70
     1
102
RTVSPropertyOp59
 70
     1
102
RTVSPropertyOp60
 70
     1
102
RTVSPropertyOp61
 70
     1
102
RTVSPropertyOp62
 70
     1
  0
XRECORD
  5
3765
102
{ACAD_REACTORS
330
3764
102
}
330
3764
100
AcDbXrecord
280
     1
102
RTVSPost2010Prop28
280
     0
102
RTVSPost2010PropOp28
 70
     1
102
RTVSPost2010Prop29
280
     1
102
RTVSPost2010PropOp29
 70
     1
102
RTVSPost2010Prop30
280
     1
102
RTVSPost2010PropOp30
 70
     1
102
RTVSPost2010Prop31
280
     0
102
RTVSPost2010PropOp31
 70
     1
102
RTVSPost2010Prop32
280
     0
102
RTVSPost2010PropOp32
 70
     1
102
RTVSPost2010Prop33
280
     0
102
RTVSPost2010PropOp33
 70
     1
102
RTVSPost2010Prop34
280
     0
102
RTVSPost2010PropOp34
 70
     1
102
RTVSPost2010Prop35
280
     0
102
RTVSPost2010PropOp35
 70
     1
102
RTVSPost2010Prop36
280
     0
102
RTVSPost2010PropOp36
 70
     1
102
RTVSPost2010Prop37
 90
       50
102
RTVSPost2010PropOp37
 70
     1
102
RTVSPost2010Prop38
140
0.0
102
RTVSPost2010PropOp38
 70
     1
102
RTVSPost2010Prop39
140
1.0
102
RTVSPost2010PropOp39
 70
     1
102
RTVSPost2010Prop40
 90
        0
102
RTVSPost2010PropOp40
 70
     1
102
RTVSPost2010Prop41ColorIndex
 90
       18
102
RTVSPost2010Prop41ColorRGB
 90
        0
102
RTVSPost2010PropOp41
 70
     1
102
RTVSPost2010Prop42
 90
       50
102
RTVSPost2010PropOp42
 70
     1
102
RTVSPost2010Prop43
 90
        3
102
RTVSPost2010PropOp43
 70
     1
102
RTVSPost2010Prop44ColorIndex
 90
        5
102
RTVSPost2010Prop44ColorRGB
 90
      255
102
RTVSPost2010PropOp44
 70
     1
102
RTVSPost2010Prop45
280
     0
102
RTVSPost2010PropOp45
 70
     1
102
RTVSPost2010Prop46
 90
       50
102
RTVSPost2010PropOp46
 70
     1
102
RTVSPost2010Prop47
 90
       50
102
RTVSPost2010PropOp47
 70
     1
102
RTVSPost2010Prop48
 90
       50
102
RTVSPost2010PropOp48
 70
     1
102
RTVSPost2010Prop49
280
     0
102
RTVSPost2010PropOp49
 70
     1
102
RTVSPost2010Prop50
 90
       50
102
RTVSPost2010PropOp50
 70
     1
102
RTVSPost2010Prop51ColorIndex
 90
      256
102
RTVSPost2010Prop51ColorRGB
 90
-16777216
102
RTVSPost2010PropOp51
 70
     0
102
RTVSPost2010Prop52
140
1.0
102
RTVSPost2010PropOp52
 70
     0
102
RTVSPost2010Prop53
 90
        2
102
RTVSPost2010PropOp53
 70
     1
102
RTVSPost2010Prop54
  1
strokes_ogs.tif
102
RTVSPost2010PropOp54
 70
     1
102
RTVSPost2010Prop55
280
     0
102
RTVSPost2010PropOp55
 70
     1
102
RTVSPost2010Prop56
140
1.0
102
RTVSPost2010PropOp56
 70
     1
102
RTVSPost2010Prop57
140
1.0
102
RTVSPost2010PropOp57
 70
     1
102
RTVSPropertyOp0
 70
     1
102
RTVSPropertyOp1
 70
     1
102
RTVSPropertyOp2
 70
     1
102
RTVSPropertyOp3
 70
     1
102
RTVSPropertyOp4
 70
     1
102
RTVSPropertyOp5
 70
     1
102
RTVSPropertyOp6
 70
     1
102
RTVSPropertyOp7
 70
     1
102
RTVSPropertyOp8
 70
     1
102
RTVSPropertyOp9
 70
     1
102
RTVSPropertyOp10
 70
     1
102
RTVSPropertyOp11
 70
     1
102
RTVSPropertyOp12
 70
     1
102
RTVSPropertyOp13
 70
     1
102
RTVSPropertyOp14
 70
     1
102
RTVSPropertyOp15
 70
     1
102
RTVSPropertyOp16
 70
     1
102
RTVSPropertyOp17
 70
     1
102
RTVSPropertyOp18
 70
     1
102
RTVSPropertyOp19
 70
     1
102
RTVSPropertyOp20
 70
     1
102
RTVSPropertyOp21
 70
     1
102
RTVSPropertyOp22
 70
     1
102
RTVSPropertyOp23
 70
     1
102
RTVSPropertyOp24
 70
     1
102
RTVSPropertyOp25
 70
     1
102
RTVSPropertyOp26
 70
     1
102
RTVSPropertyOp27
 70
     1
102
RTVSPropertyOp28
 70
     1
102
RTVSPropertyOp29
 70
     1
102
RTVSPropertyOp30
 70
     1
102
RTVSPropertyOp31
 70
     1
102
RTVSPropertyOp32
 70
     1
102
RTVSPropertyOp33
 70
     1
102
RTVSPropertyOp34
 70
     1
102
RTVSPropertyOp35
 70
     1
102
RTVSPropertyOp36
 70
     1
102
RTVSPropertyOp37
 70
     1
102
RTVSPropertyOp38
 70
     1
102
RTVSPropertyOp39
 70
     1
102
RTVSPropertyOp40
 70
     1
102
RTVSPropertyOp41
 70
     1
102
RTVSPropertyOp42
 70
     1
102
RTVSPropertyOp43
 70
     1
102
RTVSPropertyOp44
 70
     1
102
RTVSPropertyOp45
 70
     1
102
RTVSPropertyOp46
 70
     1
102
RTVSPropertyOp47
 70
     1
102
RTVSPropertyOp48
 70
     1
102
RTVSPropertyOp49
 70
     1
102
RTVSPropertyOp50
 70
     1
102
RTVSPropertyOp51
 70
     0
102
RTVSPropertyOp52
 70
     0
102
RTVSPropertyOp53
 70
     1
102
RTVSPropertyOp54
 70
     1
102
RTVSPropertyOp55
 70
     1
102
RTVSPropertyOp56
 70
     1
102
RTVSPropertyOp57
 70
     1
102
RTVSPropertyOp58
 70
     1
102
RTVSPropertyOp59
 70
     1
102
RTVSPropertyOp60
 70
     1
102
RTVSPropertyOp61
 70
     1
102
RTVSPropertyOp62
 70
     1
  0
XRECORD
  5
3767
102
{ACAD_REACTORS
330
3766
102
}
330
3766
100
AcDbXrecord
280
     1
102
RTVSPost2010Prop28
280
     0
102
RTVSPost2010PropOp28
 70
     1
102
RTVSPost2010Prop29
280
     1
102
RTVSPost2010PropOp29
 70
     1
102
RTVSPost2010Prop30
280
     1
102
RTVSPost2010PropOp30
 70
     1
102
RTVSPost2010Prop31
280
     0
102
RTVSPost2010PropOp31
 70
     1
102
RTVSPost2010Prop32
280
     0
102
RTVSPost2010PropOp32
 70
     1
102
RTVSPost2010Prop33
280
     0
102
RTVSPost2010PropOp33
 70
     1
102
RTVSPost2010Prop34
280
     0
102
RTVSPost2010PropOp34
 70
     1
102
RTVSPost2010Prop35
280
     0
102
RTVSPost2010PropOp35
 70
     1
102
RTVSPost2010Prop36
280
     0
102
RTVSPost2010PropOp36
 70
     1
102
RTVSPost2010Prop37
 90
       50
102
RTVSPost2010PropOp37
 70
     1
102
RTVSPost2010Prop38
140
0.0
102
RTVSPost2010PropOp38
 70
     1
102
RTVSPost2010Prop39
140
1.0
102
RTVSPost2010PropOp39
 70
     1
102
RTVSPost2010Prop40
 90
        0
102
RTVSPost2010PropOp40
 70
     1
102
RTVSPost2010Prop41ColorIndex
 90
       18
102
RTVSPost2010Prop41ColorRGB
 90
        0
102
RTVSPost2010PropOp41
 70
     1
102
RTVSPost2010Prop42
 90
       50
102
RTVSPost2010PropOp42
 70
     1
102
RTVSPost2010Prop43
 90
        3
102
RTVSPost2010PropOp43
 70
     1
102
RTVSPost2010Prop44ColorIndex
 90
        5
102
RTVSPost2010Prop44ColorRGB
 90
      255
102
RTVSPost2010PropOp44
 70
     1
102
RTVSPost2010Prop45
280
     0
102
RTVSPost2010PropOp45
 70
     1
102
RTVSPost2010Prop46
 90
       50
102
RTVSPost2010PropOp46
 70
     1
102
RTVSPost2010Prop47
 90
       50
102
RTVSPost2010PropOp47
 70
     1
102
RTVSPost2010Prop48
 90
       50
102
RTVSPost2010PropOp48
 70
     1
102
RTVSPost2010Prop49
280
     0
102
RTVSPost2010PropOp49
 70
     1
102
RTVSPost2010Prop50
 90
       50
102
RTVSPost2010PropOp50
 70
     1
102
RTVSPost2010Prop51ColorIndex
 90
      256
102
RTVSPost2010Prop51ColorRGB
 90
-16777216
102
RTVSPost2010PropOp51
 70
     0
102
RTVSPost2010Prop52
140
1.0
102
RTVSPost2010PropOp52
 70
     0
102
RTVSPost2010Prop53
 90
        2
102
RTVSPost2010PropOp53
 70
     1
102
RTVSPost2010Prop54
  1
strokes_ogs.tif
102
RTVSPost2010PropOp54
 70
     1
102
RTVSPost2010Prop55
280
     0
102
RTVSPost2010PropOp55
 70
     1
102
RTVSPost2010Prop56
140
1.0
102
RTVSPost2010PropOp56
 70
     1
102
RTVSPost2010Prop57
140
1.0
102
RTVSPost2010PropOp57
 70
     1
102
RTVSPropertyOp0
 70
     1
102
RTVSPropertyOp1
 70
     1
102
RTVSPropertyOp2
 70
     1
102
RTVSPropertyOp3
 70
     1
102
RTVSPropertyOp4
 70
     1
102
RTVSPropertyOp5
 70
     1
102
RTVSPropertyOp6
 70
     1
102
RTVSPropertyOp7
 70
     1
102
RTVSPropertyOp8
 70
     1
102
RTVSPropertyOp9
 70
     1
102
RTVSPropertyOp10
 70
     1
102
RTVSPropertyOp11
 70
     1
102
RTVSPropertyOp12
 70
     1
102
RTVSPropertyOp13
 70
     1
102
RTVSPropertyOp14
 70
     1
102
RTVSPropertyOp15
 70
     1
102
RTVSPropertyOp16
 70
     1
102
RTVSPropertyOp17
 70
     1
102
RTVSPropertyOp18
 70
     1
102
RTVSPropertyOp19
 70
     1
102
RTVSPropertyOp20
 70
     1
102
RTVSPropertyOp21
 70
     1
102
RTVSPropertyOp22
 70
     1
102
RTVSPropertyOp23
 70
     1
102
RTVSPropertyOp24
 70
     1
102
RTVSPropertyOp25
 70
     1
102
RTVSPropertyOp26
 70
     1
102
RTVSPropertyOp27
 70
     1
102
RTVSPropertyOp28
 70
     1
102
RTVSPropertyOp29
 70
     1
102
RTVSPropertyOp30
 70
     1
102
RTVSPropertyOp31
 70
     1
102
RTVSPropertyOp32
 70
     1
102
RTVSPropertyOp33
 70
     1
102
RTVSPropertyOp34
 70
     1
102
RTVSPropertyOp35
 70
     1
102
RTVSPropertyOp36
 70
     1
102
RTVSPropertyOp37
 70
     1
102
RTVSPropertyOp38
 70
     1
102
RTVSPropertyOp39
 70
     1
102
RTVSPropertyOp40
 70
     1
102
RTVSPropertyOp41
 70
     1
102
RTVSPropertyOp42
 70
     1
102
RTVSPropertyOp43
 70
     1
102
RTVSPropertyOp44
 70
     1
102
RTVSPropertyOp45
 70
     1
102
RTVSPropertyOp46
 70
     1
102
RTVSPropertyOp47
 70
     1
102
RTVSPropertyOp48
 70
     1
102
RTVSPropertyOp49
 70
     1
102
RTVSPropertyOp50
 70
     1
102
RTVSPropertyOp51
 70
     0
102
RTVSPropertyOp52
 70
     0
102
RTVSPropertyOp53
 70
     1
102
RTVSPropertyOp54
 70
     1
102
RTVSPropertyOp55
 70
     1
102
RTVSPropertyOp56
 70
     1
102
RTVSPropertyOp57
 70
     1
102
RTVSPropertyOp58
 70
     1
102
RTVSPropertyOp59
 70
     1
102
RTVSPropertyOp60
 70
     1
102
RTVSPropertyOp61
 70
     1
102
RTVSPropertyOp62
 70
     1
  0
XRECORD
  5
3769
102
{ACAD_REACTORS
330
3768
102
}
330
3768
100
AcDbXrecord
280
     1
102
RTVSPost2010Prop28
280
     0
102
RTVSPost2010PropOp28
 70
     1
102
RTVSPost2010Prop29
280
     1
102
RTVSPost2010PropOp29
 70
     1
102
RTVSPost2010Prop30
280
     1
102
RTVSPost2010PropOp30
 70
     1
102
RTVSPost2010Prop31
280
     0
102
RTVSPost2010PropOp31
 70
     1
102
RTVSPost2010Prop32
280
     0
102
RTVSPost2010PropOp32
 70
     1
102
RTVSPost2010Prop33
280
     0
102
RTVSPost2010PropOp33
 70
     1
102
RTVSPost2010Prop34
280
     0
102
RTVSPost2010PropOp34
 70
     1
102
RTVSPost2010Prop35
280
     0
102
RTVSPost2010PropOp35
 70
     1
102
RTVSPost2010Prop36
280
     0
102
RTVSPost2010PropOp36
 70
     1
102
RTVSPost2010Prop37
 90
       50
102
RTVSPost2010PropOp37
 70
     1
102
RTVSPost2010Prop38
140
0.0
102
RTVSPost2010PropOp38
 70
     1
102
RTVSPost2010Prop39
140
1.0
102
RTVSPost2010PropOp39
 70
     1
102
RTVSPost2010Prop40
 90
        0
102
RTVSPost2010PropOp40
 70
     1
102
RTVSPost2010Prop41ColorIndex
 90
       18
102
RTVSPost2010Prop41ColorRGB
 90
        0
102
RTVSPost2010PropOp41
 70
     1
102
RTVSPost2010Prop42
 90
       50
102
RTVSPost2010PropOp42
 70
     1
102
RTVSPost2010Prop43
 90
        3
102
RTVSPost2010PropOp43
 70
     1
102
RTVSPost2010Prop44ColorIndex
 90
        5
102
RTVSPost2010Prop44ColorRGB
 90
      255
102
RTVSPost2010PropOp44
 70
     1
102
RTVSPost2010Prop45
280
     0
102
RTVSPost2010PropOp45
 70
     1
102
RTVSPost2010Prop46
 90
       50
102
RTVSPost2010PropOp46
 70
     1
102
RTVSPost2010Prop47
 90
       50
102
RTVSPost2010PropOp47
 70
     1
102
RTVSPost2010Prop48
 90
       50
102
RTVSPost2010PropOp48
 70
     1
102
RTVSPost2010Prop49
280
     0
102
RTVSPost2010PropOp49
 70
     1
102
RTVSPost2010Prop50
 90
       50
102
RTVSPost2010PropOp50
 70
     1
102
RTVSPost2010Prop51ColorIndex
 90
      256
102
RTVSPost2010Prop51ColorRGB
 90
-16777216
102
RTVSPost2010PropOp51
 70
     0
102
RTVSPost2010Prop52
140
1.0
102
RTVSPost2010PropOp52
 70
     0
102
RTVSPost2010Prop53
 90
        2
102
RTVSPost2010PropOp53
 70
     1
102
RTVSPost2010Prop54
  1
strokes_ogs.tif
102
RTVSPost2010PropOp54
 70
     1
102
RTVSPost2010Prop55
280
     0
102
RTVSPost2010PropOp55
 70
     1
102
RTVSPost2010Prop56
140
1.0
102
RTVSPost2010PropOp56
 70
     1
102
RTVSPost2010Prop57
140
1.0
102
RTVSPost2010PropOp57
 70
     1
102
RTVSPropertyOp0
 70
     1
102
RTVSPropertyOp1
 70
     1
102
RTVSPropertyOp2
 70
     1
102
RTVSPropertyOp3
 70
     1
102
RTVSPropertyOp4
 70
     1
102
RTVSPropertyOp5
 70
     1
102
RTVSPropertyOp6
 70
     1
102
RTVSPropertyOp7
 70
     1
102
RTVSPropertyOp8
 70
     1
102
RTVSPropertyOp9
 70
     1
102
RTVSPropertyOp10
 70
     1
102
RTVSPropertyOp11
 70
     1
102
RTVSPropertyOp12
 70
     1
102
RTVSPropertyOp13
 70
     1
102
RTVSPropertyOp14
 70
     1
102
RTVSPropertyOp15
 70
     1
102
RTVSPropertyOp16
 70
     1
102
RTVSPropertyOp17
 70
     1
102
RTVSPropertyOp18
 70
     1
102
RTVSPropertyOp19
 70
     1
102
RTVSPropertyOp20
 70
     1
102
RTVSPropertyOp21
 70
     1
102
RTVSPropertyOp22
 70
     1
102
RTVSPropertyOp23
 70
     1
102
RTVSPropertyOp24
 70
     1
102
RTVSPropertyOp25
 70
     1
102
RTVSPropertyOp26
 70
     1
102
RTVSPropertyOp27
 70
     1
102
RTVSPropertyOp28
 70
     1
102
RTVSPropertyOp29
 70
     1
102
RTVSPropertyOp30
 70
     1
102
RTVSPropertyOp31
 70
     1
102
RTVSPropertyOp32
 70
     1
102
RTVSPropertyOp33
 70
     1
102
RTVSPropertyOp34
 70
     1
102
RTVSPropertyOp35
 70
     1
102
RTVSPropertyOp36
 70
     1
102
RTVSPropertyOp37
 70
     1
102
RTVSPropertyOp38
 70
     1
102
RTVSPropertyOp39
 70
     1
102
RTVSPropertyOp40
 70
     1
102
RTVSPropertyOp41
 70
     1
102
RTVSPropertyOp42
 70
     1
102
RTVSPropertyOp43
 70
     1
102
RTVSPropertyOp44
 70
     1
102
RTVSPropertyOp45
 70
     1
102
RTVSPropertyOp46
 70
     1
102
RTVSPropertyOp47
 70
     1
102
RTVSPropertyOp48
 70
     1
102
RTVSPropertyOp49
 70
     1
102
RTVSPropertyOp50
 70
     1
102
RTVSPropertyOp51
 70
     0
102
RTVSPropertyOp52
 70
     0
102
RTVSPropertyOp53
 70
     1
102
RTVSPropertyOp54
 70
     1
102
RTVSPropertyOp55
 70
     1
102
RTVSPropertyOp56
 70
     1
102
RTVSPropertyOp57
 70
     1
102
RTVSPropertyOp58
 70
     1
102
RTVSPropertyOp59
 70
     1
102
RTVSPropertyOp60
 70
     1
102
RTVSPropertyOp61
 70
     1
102
RTVSPropertyOp62
 70
     1
  0
XRECORD
  5
376B
102
{ACAD_REACTORS
330
376A
102
}
330
376A
100
AcDbXrecord
280
     1
102
RTVSPost2010Prop28
280
     0
102
RTVSPost2010PropOp28
 70
     1
102
RTVSPost2010Prop29
280
     1
102
RTVSPost2010PropOp29
 70
     1
102
RTVSPost2010Prop30
280
     1
102
RTVSPost2010PropOp30
 70
     1
102
RTVSPost2010Prop31
280
     0
102
RTVSPost2010PropOp31
 70
     1
102
RTVSPost2010Prop32
280
     0
102
RTVSPost2010PropOp32
 70
     1
102
RTVSPost2010Prop33
280
     0
102
RTVSPost2010PropOp33
 70
     1
102
RTVSPost2010Prop34
280
     0
102
RTVSPost2010PropOp34
 70
     1
102
RTVSPost2010Prop35
280
     0
102
RTVSPost2010PropOp35
 70
     1
102
RTVSPost2010Prop36
280
     0
102
RTVSPost2010PropOp36
 70
     1
102
RTVSPost2010Prop37
 90
       50
102
RTVSPost2010PropOp37
 70
     1
102
RTVSPost2010Prop38
140
0.0
102
RTVSPost2010PropOp38
 70
     1
102
RTVSPost2010Prop39
140
1.0
102
RTVSPost2010PropOp39
 70
     1
102
RTVSPost2010Prop40
 90
        0
102
RTVSPost2010PropOp40
 70
     1
102
RTVSPost2010Prop41ColorIndex
 90
       18
102
RTVSPost2010Prop41ColorRGB
 90
        0
102
RTVSPost2010PropOp41
 70
     1
102
RTVSPost2010Prop42
 90
       50
102
RTVSPost2010PropOp42
 70
     1
102
RTVSPost2010Prop43
 90
        3
102
RTVSPost2010PropOp43
 70
     1
102
RTVSPost2010Prop44ColorIndex
 90
        5
102
RTVSPost2010Prop44ColorRGB
 90
      255
102
RTVSPost2010PropOp44
 70
     1
102
RTVSPost2010Prop45
280
     0
102
RTVSPost2010PropOp45
 70
     1
102
RTVSPost2010Prop46
 90
       50
102
RTVSPost2010PropOp46
 70
     1
102
RTVSPost2010Prop47
 90
       50
102
RTVSPost2010PropOp47
 70
     1
102
RTVSPost2010Prop48
 90
       50
102
RTVSPost2010PropOp48
 70
     1
102
RTVSPost2010Prop49
280
     0
102
RTVSPost2010PropOp49
 70
     1
102
RTVSPost2010Prop50
 90
       50
102
RTVSPost2010PropOp50
 70
     1
102
RTVSPost2010Prop51ColorIndex
 90
      256
102
RTVSPost2010Prop51ColorRGB
 90
-16777216
102
RTVSPost2010PropOp51
 70
     0
102
RTVSPost2010Prop52
140
1.0
102
RTVSPost2010PropOp52
 70
     0
102
RTVSPost2010Prop53
 90
        2
102
RTVSPost2010PropOp53
 70
     1
102
RTVSPost2010Prop54
  1
strokes_ogs.tif
102
RTVSPost2010PropOp54
 70
     1
102
RTVSPost2010Prop55
280
     0
102
RTVSPost2010PropOp55
 70
     1
102
RTVSPost2010Prop56
140
1.0
102
RTVSPost2010PropOp56
 70
     1
102
RTVSPost2010Prop57
140
1.0
102
RTVSPost2010PropOp57
 70
     1
102
RTVSPropertyOp0
 70
     1
102
RTVSPropertyOp1
 70
     1
102
RTVSPropertyOp2
 70
     1
102
RTVSPropertyOp3
 70
     1
102
RTVSPropertyOp4
 70
     1
102
RTVSPropertyOp5
 70
     1
102
RTVSPropertyOp6
 70
     1
102
RTVSPropertyOp7
 70
     1
102
RTVSPropertyOp8
 70
     1
102
RTVSPropertyOp9
 70
     1
102
RTVSPropertyOp10
 70
     1
102
RTVSPropertyOp11
 70
     1
102
RTVSPropertyOp12
 70
     1
102
RTVSPropertyOp13
 70
     1
102
RTVSPropertyOp14
 70
     1
102
RTVSPropertyOp15
 70
     1
102
RTVSPropertyOp16
 70
     1
102
RTVSPropertyOp17
 70
     1
102
RTVSPropertyOp18
 70
     1
102
RTVSPropertyOp19
 70
     1
102
RTVSPropertyOp20
 70
     1
102
RTVSPropertyOp21
 70
     1
102
RTVSPropertyOp22
 70
     1
102
RTVSPropertyOp23
 70
     1
102
RTVSPropertyOp24
 70
     1
102
RTVSPropertyOp25
 70
     1
102
RTVSPropertyOp26
 70
     1
102
RTVSPropertyOp27
 70
     1
102
RTVSPropertyOp28
 70
     1
102
RTVSPropertyOp29
 70
     1
102
RTVSPropertyOp30
 70
     1
102
RTVSPropertyOp31
 70
     1
102
RTVSPropertyOp32
 70
     1
102
RTVSPropertyOp33
 70
     1
102
RTVSPropertyOp34
 70
     1
102
RTVSPropertyOp35
 70
     1
102
RTVSPropertyOp36
 70
     1
102
RTVSPropertyOp37
 70
     1
102
RTVSPropertyOp38
 70
     1
102
RTVSPropertyOp39
 70
     1
102
RTVSPropertyOp40
 70
     1
102
RTVSPropertyOp41
 70
     1
102
RTVSPropertyOp42
 70
     1
102
RTVSPropertyOp43
 70
     1
102
RTVSPropertyOp44
 70
     1
102
RTVSPropertyOp45
 70
     1
102
RTVSPropertyOp46
 70
     1
102
RTVSPropertyOp47
 70
     1
102
RTVSPropertyOp48
 70
     1
102
RTVSPropertyOp49
 70
     1
102
RTVSPropertyOp50
 70
     1
102
RTVSPropertyOp51
 70
     0
102
RTVSPropertyOp52
 70
     0
102
RTVSPropertyOp53
 70
     1
102
RTVSPropertyOp54
 70
     1
102
RTVSPropertyOp55
 70
     1
102
RTVSPropertyOp56
 70
     1
102
RTVSPropertyOp57
 70
     1
102
RTVSPropertyOp58
 70
     1
102
RTVSPropertyOp59
 70
     1
102
RTVSPropertyOp60
 70
     1
102
RTVSPropertyOp61
 70
     1
102
RTVSPropertyOp62
 70
     1
  0
XRECORD
  5
3773
102
{ACAD_REACTORS
330
3772
102
}
330
3772
100
AcDbXrecord
280
     1
102
RTVSPost2010Prop28
280
     0
102
RTVSPost2010PropOp28
 70
     1
102
RTVSPost2010Prop29
280
     1
102
RTVSPost2010PropOp29
 70
     1
102
RTVSPost2010Prop30
280
     1
102
RTVSPost2010PropOp30
 70
     1
102
RTVSPost2010Prop31
280
     0
102
RTVSPost2010PropOp31
 70
     1
102
RTVSPost2010Prop32
280
     0
102
RTVSPost2010PropOp32
 70
     1
102
RTVSPost2010Prop33
280
     0
102
RTVSPost2010PropOp33
 70
     1
102
RTVSPost2010Prop34
280
     0
102
RTVSPost2010PropOp34
 70
     1
102
RTVSPost2010Prop35
280
     0
102
RTVSPost2010PropOp35
 70
     1
102
RTVSPost2010Prop36
280
     0
102
RTVSPost2010PropOp36
 70
     1
102
RTVSPost2010Prop37
 90
       50
102
RTVSPost2010PropOp37
 70
     1
102
RTVSPost2010Prop38
140
0.0
102
RTVSPost2010PropOp38
 70
     1
102
RTVSPost2010Prop39
140
1.0
102
RTVSPost2010PropOp39
 70
     1
102
RTVSPost2010Prop40
 90
        0
102
RTVSPost2010PropOp40
 70
     1
102
RTVSPost2010Prop41ColorIndex
 90
       18
102
RTVSPost2010Prop41ColorRGB
 90
        0
102
RTVSPost2010PropOp41
 70
     1
102
RTVSPost2010Prop42
 90
       50
102
RTVSPost2010PropOp42
 70
     1
102
RTVSPost2010Prop43
 90
        3
102
RTVSPost2010PropOp43
 70
     1
102
RTVSPost2010Prop44ColorIndex
 90
        5
102
RTVSPost2010Prop44ColorRGB
 90
      255
102
RTVSPost2010PropOp44
 70
     1
102
RTVSPost2010Prop45
280
     0
102
RTVSPost2010PropOp45
 70
     1
102
RTVSPost2010Prop46
 90
       50
102
RTVSPost2010PropOp46
 70
     1
102
RTVSPost2010Prop47
 90
       50
102
RTVSPost2010PropOp47
 70
     1
102
RTVSPost2010Prop48
 90
       50
102
RTVSPost2010PropOp48
 70
     1
102
RTVSPost2010Prop49
280
     0
102
RTVSPost2010PropOp49
 70
     1
102
RTVSPost2010Prop50
 90
       50
102
RTVSPost2010PropOp50
 70
     1
102
RTVSPost2010Prop51ColorIndex
 90
      256
102
RTVSPost2010Prop51ColorRGB
 90
-16777216
102
RTVSPost2010PropOp51
 70
     0
102
RTVSPost2010Prop52
140
1.0
102
RTVSPost2010PropOp52
 70
     0
102
RTVSPost2010Prop53
 90
        2
102
RTVSPost2010PropOp53
 70
     1
102
RTVSPost2010Prop54
  1
strokes_ogs.tif
102
RTVSPost2010PropOp54
 70
     1
102
RTVSPost2010Prop55
280
     0
102
RTVSPost2010PropOp55
 70
     1
102
RTVSPost2010Prop56
140
1.0
102
RTVSPost2010PropOp56
 70
     1
102
RTVSPost2010Prop57
140
1.0
102
RTVSPost2010PropOp57
 70
     1
102
RTVSPropertyOp0
 70
     1
102
RTVSPropertyOp1
 70
     1
102
RTVSPropertyOp2
 70
     1
102
RTVSPropertyOp3
 70
     1
102
RTVSPropertyOp4
 70
     1
102
RTVSPropertyOp5
 70
     1
102
RTVSPropertyOp6
 70
     1
102
RTVSPropertyOp7
 70
     1
102
RTVSPropertyOp8
 70
     1
102
RTVSPropertyOp9
 70
     1
102
RTVSPropertyOp10
 70
     1
102
RTVSPropertyOp11
 70
     1
102
RTVSPropertyOp12
 70
     1
102
RTVSPropertyOp13
 70
     1
102
RTVSPropertyOp14
 70
     1
102
RTVSPropertyOp15
 70
     1
102
RTVSPropertyOp16
 70
     1
102
RTVSPropertyOp17
 70
     1
102
RTVSPropertyOp18
 70
     1
102
RTVSPropertyOp19
 70
     1
102
RTVSPropertyOp20
 70
     1
102
RTVSPropertyOp21
 70
     1
102
RTVSPropertyOp22
 70
     1
102
RTVSPropertyOp23
 70
     1
102
RTVSPropertyOp24
 70
     1
102
RTVSPropertyOp25
 70
     1
102
RTVSPropertyOp26
 70
     1
102
RTVSPropertyOp27
 70
     1
102
RTVSPropertyOp28
 70
     1
102
RTVSPropertyOp29
 70
     1
102
RTVSPropertyOp30
 70
     1
102
RTVSPropertyOp31
 70
     1
102
RTVSPropertyOp32
 70
     1
102
RTVSPropertyOp33
 70
     1
102
RTVSPropertyOp34
 70
     1
102
RTVSPropertyOp35
 70
     1
102
RTVSPropertyOp36
 70
     1
102
RTVSPropertyOp37
 70
     1
102
RTVSPropertyOp38
 70
     1
102
RTVSPropertyOp39
 70
     1
102
RTVSPropertyOp40
 70
     1
102
RTVSPropertyOp41
 70
     1
102
RTVSPropertyOp42
 70
     1
102
RTVSPropertyOp43
 70
     1
102
RTVSPropertyOp44
 70
     1
102
RTVSPropertyOp45
 70
     1
102
RTVSPropertyOp46
 70
     1
102
RTVSPropertyOp47
 70
     1
102
RTVSPropertyOp48
 70
     1
102
RTVSPropertyOp49
 70
     1
102
RTVSPropertyOp50
 70
     1
102
RTVSPropertyOp51
 70
     0
102
RTVSPropertyOp52
 70
     0
102
RTVSPropertyOp53
 70
     1
102
RTVSPropertyOp54
 70
     1
102
RTVSPropertyOp55
 70
     1
102
RTVSPropertyOp56
 70
     1
102
RTVSPropertyOp57
 70
     1
102
RTVSPropertyOp58
 70
     1
102
RTVSPropertyOp59
 70
     1
102
RTVSPropertyOp60
 70
     1
102
RTVSPropertyOp61
 70
     1
102
RTVSPropertyOp62
 70
     1
  0
XRECORD
  5
378F
102
{ACAD_REACTORS
330
378E
102
}
330
378E
100
AcDbXrecord
280
     1
102
RTVSPost2010Prop28
280
     0
102
RTVSPost2010PropOp28
 70
     1
102
RTVSPost2010Prop29
280
     1
102
RTVSPost2010PropOp29
 70
     1
102
RTVSPost2010Prop30
280
     1
102
RTVSPost2010PropOp30
 70
     1
102
RTVSPost2010Prop31
280
     0
102
RTVSPost2010PropOp31
 70
     1
102
RTVSPost2010Prop32
280
     0
102
RTVSPost2010PropOp32
 70
     1
102
RTVSPost2010Prop33
280
     0
102
RTVSPost2010PropOp33
 70
     1
102
RTVSPost2010Prop34
280
     0
102
RTVSPost2010PropOp34
 70
     1
102
RTVSPost2010Prop35
280
     0
102
RTVSPost2010PropOp35
 70
     1
102
RTVSPost2010Prop36
280
     0
102
RTVSPost2010PropOp36
 70
     1
102
RTVSPost2010Prop37
 90
       50
102
RTVSPost2010PropOp37
 70
     0
102
RTVSPost2010Prop38
140
0.0
102
RTVSPost2010PropOp38
 70
     0
102
RTVSPost2010Prop39
140
1.0
102
RTVSPost2010PropOp39
 70
     0
102
RTVSPost2010Prop40
 90
        0
102
RTVSPost2010PropOp40
 70
     0
102
RTVSPost2010Prop41ColorIndex
 90
       18
102
RTVSPost2010Prop41ColorRGB
 90
        0
102
RTVSPost2010PropOp41
 70
     0
102
RTVSPost2010Prop42
 90
       50
102
RTVSPost2010PropOp42
 70
     0
102
RTVSPost2010Prop43
 90
        3
102
RTVSPost2010PropOp43
 70
     0
102
RTVSPost2010Prop44ColorIndex
 90
        5
102
RTVSPost2010Prop44ColorRGB
 90
      255
102
RTVSPost2010PropOp44
 70
     0
102
RTVSPost2010Prop45
280
     0
102
RTVSPost2010PropOp45
 70
     1
102
RTVSPost2010Prop46
 90
       50
102
RTVSPost2010PropOp46
 70
     0
102
RTVSPost2010Prop47
 90
       50
102
RTVSPost2010PropOp47
 70
     0
102
RTVSPost2010Prop48
 90
       50
102
RTVSPost2010PropOp48
 70
     0
102
RTVSPost2010Prop49
280
     0
102
RTVSPost2010PropOp49
 70
     1
102
RTVSPost2010Prop50
 90
       50
102
RTVSPost2010PropOp50
 70
     0
102
RTVSPost2010Prop51ColorIndex
 90
      256
102
RTVSPost2010Prop51ColorRGB
 90
-16777216
102
RTVSPost2010PropOp51
 70
     0
102
RTVSPost2010Prop52
140
1.0
102
RTVSPost2010PropOp52
 70
     0
102
RTVSPost2010Prop53
 90
        2
102
RTVSPost2010PropOp53
 70
     0
102
RTVSPost2010Prop54
  1
strokes_ogs.tif
102
RTVSPost2010PropOp54
 70
     0
102
RTVSPost2010Prop55
280
     0
102
RTVSPost2010PropOp55
 70
     1
102
RTVSPost2010Prop56
140
1.0
102
RTVSPost2010PropOp56
 70
     0
102
RTVSPost2010Prop57
140
1.0
102
RTVSPost2010PropOp57
 70
     0
102
RTVSPropertyOp0
 70
     0
102
RTVSPropertyOp1
 70
     0
102
RTVSPropertyOp2
 70
     0
102
RTVSPropertyOp3
 70
     0
102
RTVSPropertyOp4
 70
     0
102
RTVSPropertyOp5
 70
     0
102
RTVSPropertyOp6
 70
     0
102
RTVSPropertyOp7
 70
     0
102
RTVSPropertyOp8
 70
     0
102
RTVSPropertyOp9
 70
     0
102
RTVSPropertyOp10
 70
     0
102
RTVSPropertyOp11
 70
     0
102
RTVSPropertyOp12
 70
     0
102
RTVSPropertyOp13
 70
     0
102
RTVSPropertyOp14
 70
     2
102
RTVSPropertyOp15
 70
     0
102
RTVSPropertyOp16
 70
     0
102
RTVSPropertyOp17
 70
     0
102
RTVSPropertyOp18
 70
     0
102
RTVSPropertyOp19
 70
     0
102
RTVSPropertyOp20
 70
     0
102
RTVSPropertyOp21
 70
     0
102
RTVSPropertyOp22
 70
     0
102
RTVSPropertyOp23
 70
     0
102
RTVSPropertyOp24
 70
     0
102
RTVSPropertyOp25
 70
     0
102
RTVSPropertyOp26
 70
     0
102
RTVSPropertyOp27
 70
     0
102
RTVSPropertyOp28
 70
     1
102
RTVSPropertyOp29
 70
     1
102
RTVSPropertyOp30
 70
     1
102
RTVSPropertyOp31
 70
     1
102
RTVSPropertyOp32
 70
     1
102
RTVSPropertyOp33
 70
     1
102
RTVSPropertyOp34
 70
     1
102
RTVSPropertyOp35
 70
     1
102
RTVSPropertyOp36
 70
     1
102
RTVSPropertyOp37
 70
     0
102
RTVSPropertyOp38
 70
     0
102
RTVSPropertyOp39
 70
     0
102
RTVSPropertyOp40
 70
     0
102
RTVSPropertyOp41
 70
     0
102
RTVSPropertyOp42
 70
     0
102
RTVSPropertyOp43
 70
     0
102
RTVSPropertyOp44
 70
     0
102
RTVSPropertyOp45
 70
     1
102
RTVSPropertyOp46
 70
     0
102
RTVSPropertyOp47
 70
     0
102
RTVSPropertyOp48
 70
     0
102
RTVSPropertyOp49
 70
     1
102
RTVSPropertyOp50
 70
     0
102
RTVSPropertyOp51
 70
     0
102
RTVSPropertyOp52
 70
     0
102
RTVSPropertyOp53
 70
     0
102
RTVSPropertyOp54
 70
     0
102
RTVSPropertyOp55
 70
     1
102
RTVSPropertyOp56
 70
     0
102
RTVSPropertyOp57
 70
     0
102
RTVSPropertyOp58
 70
     0
102
RTVSPropertyOp59
 70
     0
102
RTVSPropertyOp60
 70
     0
102
RTVSPropertyOp61
 70
     0
102
RTVSPropertyOp62
 70
     0
  0
XRECORD
  5
377F
102
{ACAD_REACTORS
330
377E
102
}
330
377E
100
AcDbXrecord
280
     1
102
RTVSPost2010Prop28
280
     0
102
RTVSPost2010PropOp28
 70
     1
102
RTVSPost2010Prop29
280
     1
102
RTVSPost2010PropOp29
 70
     1
102
RTVSPost2010Prop30
280
     1
102
RTVSPost2010PropOp30
 70
     1
102
RTVSPost2010Prop31
280
     0
102
RTVSPost2010PropOp31
 70
     1
102
RTVSPost2010Prop32
280
     0
102
RTVSPost2010PropOp32
 70
     1
102
RTVSPost2010Prop33
280
     0
102
RTVSPost2010PropOp33
 70
     1
102
RTVSPost2010Prop34
280
     0
102
RTVSPost2010PropOp34
 70
     1
102
RTVSPost2010Prop35
280
     0
102
RTVSPost2010PropOp35
 70
     1
102
RTVSPost2010Prop36
280
     0
102
RTVSPost2010PropOp36
 70
     1
102
RTVSPost2010Prop37
 90
       50
102
RTVSPost2010PropOp37
 70
     1
102
RTVSPost2010Prop38
140
0.0
102
RTVSPost2010PropOp38
 70
     1
102
RTVSPost2010Prop39
140
1.0
102
RTVSPost2010PropOp39
 70
     1
102
RTVSPost2010Prop40
 90
        0
102
RTVSPost2010PropOp40
 70
     1
102
RTVSPost2010Prop41ColorIndex
 90
       18
102
RTVSPost2010Prop41ColorRGB
 90
        0
102
RTVSPost2010PropOp41
 70
     1
102
RTVSPost2010Prop42
 90
       50
102
RTVSPost2010PropOp42
 70
     1
102
RTVSPost2010Prop43
 90
        3
102
RTVSPost2010PropOp43
 70
     1
102
RTVSPost2010Prop44ColorIndex
 90
        5
102
RTVSPost2010Prop44ColorRGB
 90
      255
102
RTVSPost2010PropOp44
 70
     1
102
RTVSPost2010Prop45
280
     0
102
RTVSPost2010PropOp45
 70
     1
102
RTVSPost2010Prop46
 90
       50
102
RTVSPost2010PropOp46
 70
     1
102
RTVSPost2010Prop47
 90
       50
102
RTVSPost2010PropOp47
 70
     1
102
RTVSPost2010Prop48
 90
       50
102
RTVSPost2010PropOp48
 70
     1
102
RTVSPost2010Prop49
280
     0
102
RTVSPost2010PropOp49
 70
     1
102
RTVSPost2010Prop50
 90
       50
102
RTVSPost2010PropOp50
 70
     1
102
RTVSPost2010Prop51ColorIndex
 90
      256
102
RTVSPost2010Prop51ColorRGB
 90
-16777216
102
RTVSPost2010PropOp51
 70
     0
102
RTVSPost2010Prop52
140
1.0
102
RTVSPost2010PropOp52
 70
     0
102
RTVSPost2010Prop53
 90
        2
102
RTVSPost2010PropOp53
 70
     1
102
RTVSPost2010Prop54
  1
strokes_ogs.tif
102
RTVSPost2010PropOp54
 70
     1
102
RTVSPost2010Prop55
280
     0
102
RTVSPost2010PropOp55
 70
     1
102
RTVSPost2010Prop56
140
1.0
102
RTVSPost2010PropOp56
 70
     1
102
RTVSPost2010Prop57
140
1.0
102
RTVSPost2010PropOp57
 70
     1
102
RTVSPropertyOp0
 70
     1
102
RTVSPropertyOp1
 70
     1
102
RTVSPropertyOp2
 70
     1
102
RTVSPropertyOp3
 70
     1
102
RTVSPropertyOp4
 70
     1
102
RTVSPropertyOp5
 70
     1
102
RTVSPropertyOp6
 70
     1
102
RTVSPropertyOp7
 70
     1
102
RTVSPropertyOp8
 70
     1
102
RTVSPropertyOp9
 70
     1
102
RTVSPropertyOp10
 70
     1
102
RTVSPropertyOp11
 70
     1
102
RTVSPropertyOp12
 70
     1
102
RTVSPropertyOp13
 70
     1
102
RTVSPropertyOp14
 70
     1
102
RTVSPropertyOp15
 70
     1
102
RTVSPropertyOp16
 70
     1
102
RTVSPropertyOp17
 70
     1
102
RTVSPropertyOp18
 70
     1
102
RTVSPropertyOp19
 70
     1
102
RTVSPropertyOp20
 70
     1
102
RTVSPropertyOp21
 70
     1
102
RTVSPropertyOp22
 70
     1
102
RTVSPropertyOp23
 70
     1
102
RTVSPropertyOp24
 70
     1
102
RTVSPropertyOp25
 70
     1
102
RTVSPropertyOp26
 70
     1
102
RTVSPropertyOp27
 70
     1
102
RTVSPropertyOp28
 70
     1
102
RTVSPropertyOp29
 70
     1
102
RTVSPropertyOp30
 70
     1
102
RTVSPropertyOp31
 70
     1
102
RTVSPropertyOp32
 70
     1
102
RTVSPropertyOp33
 70
     1
102
RTVSPropertyOp34
 70
     1
102
RTVSPropertyOp35
 70
     1
102
RTVSPropertyOp36
 70
     1
102
RTVSPropertyOp37
 70
     1
102
RTVSPropertyOp38
 70
     1
102
RTVSPropertyOp39
 70
     1
102
RTVSPropertyOp40
 70
     1
102
RTVSPropertyOp41
 70
     1
102
RTVSPropertyOp42
 70
     1
102
RTVSPropertyOp43
 70
     1
102
RTVSPropertyOp44
 70
     1
102
RTVSPropertyOp45
 70
     1
102
RTVSPropertyOp46
 70
     1
102
RTVSPropertyOp47
 70
     1
102
RTVSPropertyOp48
 70
     1
102
RTVSPropertyOp49
 70
     1
102
RTVSPropertyOp50
 70
     1
102
RTVSPropertyOp51
 70
     0
102
RTVSPropertyOp52
 70
     0
102
RTVSPropertyOp53
 70
     1
102
RTVSPropertyOp54
 70
     1
102
RTVSPropertyOp55
 70
     1
102
RTVSPropertyOp56
 70
     1
102
RTVSPropertyOp57
 70
     1
102
RTVSPropertyOp58
 70
     1
102
RTVSPropertyOp59
 70
     1
102
RTVSPropertyOp60
 70
     1
102
RTVSPropertyOp61
 70
     1
102
RTVSPropertyOp62
 70
     1
  0
XRECORD
  5
3791
102
{ACAD_REACTORS
330
3790
102
}
330
3790
100
AcDbXrecord
280
     1
102
RTVSPost2010Prop28
280
     0
102
RTVSPost2010PropOp28
 70
     1
102
RTVSPost2010Prop29
280
     1
102
RTVSPost2010PropOp29
 70
     1
102
RTVSPost2010Prop30
280
     1
102
RTVSPost2010PropOp30
 70
     1
102
RTVSPost2010Prop31
280
     0
102
RTVSPost2010PropOp31
 70
     1
102
RTVSPost2010Prop32
280
     0
102
RTVSPost2010PropOp32
 70
     1
102
RTVSPost2010Prop33
280
     0
102
RTVSPost2010PropOp33
 70
     1
102
RTVSPost2010Prop34
280
     0
102
RTVSPost2010PropOp34
 70
     1
102
RTVSPost2010Prop35
280
     0
102
RTVSPost2010PropOp35
 70
     1
102
RTVSPost2010Prop36
280
     0
102
RTVSPost2010PropOp36
 70
     1
102
RTVSPost2010Prop37
 90
       50
102
RTVSPost2010PropOp37
 70
     0
102
RTVSPost2010Prop38
140
0.0
102
RTVSPost2010PropOp38
 70
     0
102
RTVSPost2010Prop39
140
1.0
102
RTVSPost2010PropOp39
 70
     0
102
RTVSPost2010Prop40
 90
        0
102
RTVSPost2010PropOp40
 70
     0
102
RTVSPost2010Prop41ColorIndex
 90
       18
102
RTVSPost2010Prop41ColorRGB
 90
        0
102
RTVSPost2010PropOp41
 70
     0
102
RTVSPost2010Prop42
 90
       50
102
RTVSPost2010PropOp42
 70
     0
102
RTVSPost2010Prop43
 90
        3
102
RTVSPost2010PropOp43
 70
     0
102
RTVSPost2010Prop44ColorIndex
 90
        5
102
RTVSPost2010Prop44ColorRGB
 90
      255
102
RTVSPost2010PropOp44
 70
     0
102
RTVSPost2010Prop45
280
     0
102
RTVSPost2010PropOp45
 70
     1
102
RTVSPost2010Prop46
 90
       50
102
RTVSPost2010PropOp46
 70
     0
102
RTVSPost2010Prop47
 90
       50
102
RTVSPost2010PropOp47
 70
     0
102
RTVSPost2010Prop48
 90
       50
102
RTVSPost2010PropOp48
 70
     0
102
RTVSPost2010Prop49
280
     0
102
RTVSPost2010PropOp49
 70
     1
102
RTVSPost2010Prop50
 90
       50
102
RTVSPost2010PropOp50
 70
     0
102
RTVSPost2010Prop51ColorIndex
 90
      256
102
RTVSPost2010Prop51ColorRGB
 90
-16777216
102
RTVSPost2010PropOp51
 70
     0
102
RTVSPost2010Prop52
140
1.0
102
RTVSPost2010PropOp52
 70
     0
102
RTVSPost2010Prop53
 90
        2
102
RTVSPost2010PropOp53
 70
     0
102
RTVSPost2010Prop54
  1
strokes_ogs.tif
102
RTVSPost2010PropOp54
 70
     0
102
RTVSPost2010Prop55
280
     0
102
RTVSPost2010PropOp55
 70
     1
102
RTVSPost2010Prop56
140
1.0
102
RTVSPost2010PropOp56
 70
     0
102
RTVSPost2010Prop57
140
1.0
102
RTVSPost2010PropOp57
 70
     0
102
RTVSPropertyOp0
 70
     0
102
RTVSPropertyOp1
 70
     0
102
RTVSPropertyOp2
 70
     0
102
RTVSPropertyOp3
 70
     0
102
RTVSPropertyOp4
 70
     0
102
RTVSPropertyOp5
 70
     0
102
RTVSPropertyOp6
 70
     0
102
RTVSPropertyOp7
 70
     0
102
RTVSPropertyOp8
 70
     0
102
RTVSPropertyOp9
 70
     0
102
RTVSPropertyOp10
 70
     0
102
RTVSPropertyOp11
 70
     0
102
RTVSPropertyOp12
 70
     0
102
RTVSPropertyOp13
 70
     0
102
RTVSPropertyOp14
 70
     2
102
RTVSPropertyOp15
 70
     0
102
RTVSPropertyOp16
 70
     0
102
RTVSPropertyOp17
 70
     0
102
RTVSPropertyOp18
 70
     0
102
RTVSPropertyOp19
 70
     0
102
RTVSPropertyOp20
 70
     0
102
RTVSPropertyOp21
 70
     0
102
RTVSPropertyOp22
 70
     0
102
RTVSPropertyOp23
 70
     0
102
RTVSPropertyOp24
 70
     0
102
RTVSPropertyOp25
 70
     0
102
RTVSPropertyOp26
 70
     0
102
RTVSPropertyOp27
 70
     0
102
RTVSPropertyOp28
 70
     1
102
RTVSPropertyOp29
 70
     1
102
RTVSPropertyOp30
 70
     1
102
RTVSPropertyOp31
 70
     1
102
RTVSPropertyOp32
 70
     1
102
RTVSPropertyOp33
 70
     1
102
RTVSPropertyOp34
 70
     1
102
RTVSPropertyOp35
 70
     1
102
RTVSPropertyOp36
 70
     1
102
RTVSPropertyOp37
 70
     0
102
RTVSPropertyOp38
 70
     0
102
RTVSPropertyOp39
 70
     0
102
RTVSPropertyOp40
 70
     0
102
RTVSPropertyOp41
 70
     0
102
RTVSPropertyOp42
 70
     0
102
RTVSPropertyOp43
 70
     0
102
RTVSPropertyOp44
 70
     0
102
RTVSPropertyOp45
 70
     1
102
RTVSPropertyOp46
 70
     0
102
RTVSPropertyOp47
 70
     0
102
RTVSPropertyOp48
 70
     0
102
RTVSPropertyOp49
 70
     1
102
RTVSPropertyOp50
 70
     0
102
RTVSPropertyOp51
 70
     0
102
RTVSPropertyOp52
 70
     0
102
RTVSPropertyOp53
 70
     0
102
RTVSPropertyOp54
 70
     0
102
RTVSPropertyOp55
 70
     1
102
RTVSPropertyOp56
 70
     0
102
RTVSPropertyOp57
 70
     0
102
RTVSPropertyOp58
 70
     0
102
RTVSPropertyOp59
 70
     0
102
RTVSPropertyOp60
 70
     0
102
RTVSPropertyOp61
 70
     0
102
RTVSPropertyOp62
 70
     0
  0
XRECORD
  5
3777
102
{ACAD_REACTORS
330
3776
102
}
330
3776
100
AcDbXrecord
280
     1
102
RTVSPost2010Prop28
280
     0
102
RTVSPost2010PropOp28
 70
     1
102
RTVSPost2010Prop29
280
     1
102
RTVSPost2010PropOp29
 70
     1
102
RTVSPost2010Prop30
280
     1
102
RTVSPost2010PropOp30
 70
     1
102
RTVSPost2010Prop31
280
     0
102
RTVSPost2010PropOp31
 70
     1
102
RTVSPost2010Prop32
280
     0
102
RTVSPost2010PropOp32
 70
     1
102
RTVSPost2010Prop33
280
     0
102
RTVSPost2010PropOp33
 70
     1
102
RTVSPost2010Prop34
280
     0
102
RTVSPost2010PropOp34
 70
     1
102
RTVSPost2010Prop35
280
     0
102
RTVSPost2010PropOp35
 70
     1
102
RTVSPost2010Prop36
280
     0
102
RTVSPost2010PropOp36
 70
     1
102
RTVSPost2010Prop37
 90
       50
102
RTVSPost2010PropOp37
 70
     1
102
RTVSPost2010Prop38
140
0.0
102
RTVSPost2010PropOp38
 70
     1
102
RTVSPost2010Prop39
140
1.0
102
RTVSPost2010PropOp39
 70
     1
102
RTVSPost2010Prop40
 90
        0
102
RTVSPost2010PropOp40
 70
     1
102
RTVSPost2010Prop41ColorIndex
 90
       18
102
RTVSPost2010Prop41ColorRGB
 90
        0
102
RTVSPost2010PropOp41
 70
     1
102
RTVSPost2010Prop42
 90
       50
102
RTVSPost2010PropOp42
 70
     1
102
RTVSPost2010Prop43
 90
        3
102
RTVSPost2010PropOp43
 70
     1
102
RTVSPost2010Prop44ColorIndex
 90
        5
102
RTVSPost2010Prop44ColorRGB
 90
      255
102
RTVSPost2010PropOp44
 70
     1
102
RTVSPost2010Prop45
280
     0
102
RTVSPost2010PropOp45
 70
     1
102
RTVSPost2010Prop46
 90
       50
102
RTVSPost2010PropOp46
 70
     1
102
RTVSPost2010Prop47
 90
       50
102
RTVSPost2010PropOp47
 70
     1
102
RTVSPost2010Prop48
 90
       50
102
RTVSPost2010PropOp48
 70
     1
102
RTVSPost2010Prop49
280
     0
102
RTVSPost2010PropOp49
 70
     1
102
RTVSPost2010Prop50
 90
       50
102
RTVSPost2010PropOp50
 70
     1
102
RTVSPost2010Prop51ColorIndex
 90
      256
102
RTVSPost2010Prop51ColorRGB
 90
-16777216
102
RTVSPost2010PropOp51
 70
     0
102
RTVSPost2010Prop52
140
1.0
102
RTVSPost2010PropOp52
 70
     0
102
RTVSPost2010Prop53
 90
        2
102
RTVSPost2010PropOp53
 70
     1
102
RTVSPost2010Prop54
  1
strokes_ogs.tif
102
RTVSPost2010PropOp54
 70
     1
102
RTVSPost2010Prop55
280
     0
102
RTVSPost2010PropOp55
 70
     1
102
RTVSPost2010Prop56
140
1.0
102
RTVSPost2010PropOp56
 70
     1
102
RTVSPost2010Prop57
140
1.0
102
RTVSPost2010PropOp57
 70
     1
102
RTVSPropertyOp0
 70
     1
102
RTVSPropertyOp1
 70
     1
102
RTVSPropertyOp2
 70
     1
102
RTVSPropertyOp3
 70
     1
102
RTVSPropertyOp4
 70
     1
102
RTVSPropertyOp5
 70
     1
102
RTVSPropertyOp6
 70
     1
102
RTVSPropertyOp7
 70
     1
102
RTVSPropertyOp8
 70
     1
102
RTVSPropertyOp9
 70
     1
102
RTVSPropertyOp10
 70
     1
102
RTVSPropertyOp11
 70
     1
102
RTVSPropertyOp12
 70
     1
102
RTVSPropertyOp13
 70
     1
102
RTVSPropertyOp14
 70
     1
102
RTVSPropertyOp15
 70
     1
102
RTVSPropertyOp16
 70
     1
102
RTVSPropertyOp17
 70
     1
102
RTVSPropertyOp18
 70
     1
102
RTVSPropertyOp19
 70
     1
102
RTVSPropertyOp20
 70
     1
102
RTVSPropertyOp21
 70
     1
102
RTVSPropertyOp22
 70
     1
102
RTVSPropertyOp23
 70
     1
102
RTVSPropertyOp24
 70
     1
102
RTVSPropertyOp25
 70
     1
102
RTVSPropertyOp26
 70
     1
102
RTVSPropertyOp27
 70
     1
102
RTVSPropertyOp28
 70
     1
102
RTVSPropertyOp29
 70
     1
102
RTVSPropertyOp30
 70
     1
102
RTVSPropertyOp31
 70
     1
102
RTVSPropertyOp32
 70
     1
102
RTVSPropertyOp33
 70
     1
102
RTVSPropertyOp34
 70
     1
102
RTVSPropertyOp35
 70
     1
102
RTVSPropertyOp36
 70
     1
102
RTVSPropertyOp37
 70
     1
102
RTVSPropertyOp38
 70
     1
102
RTVSPropertyOp39
 70
     1
102
RTVSPropertyOp40
 70
     1
102
RTVSPropertyOp41
 70
     1
102
RTVSPropertyOp42
 70
     1
102
RTVSPropertyOp43
 70
     1
102
RTVSPropertyOp44
 70
     1
102
RTVSPropertyOp45
 70
     1
102
RTVSPropertyOp46
 70
     1
102
RTVSPropertyOp47
 70
     1
102
RTVSPropertyOp48
 70
     1
102
RTVSPropertyOp49
 70
     1
102
RTVSPropertyOp50
 70
     1
102
RTVSPropertyOp51
 70
     0
102
RTVSPropertyOp52
 70
     0
102
RTVSPropertyOp53
 70
     1
102
RTVSPropertyOp54
 70
     1
102
RTVSPropertyOp55
 70
     1
102
RTVSPropertyOp56
 70
     1
102
RTVSPropertyOp57
 70
     1
102
RTVSPropertyOp58
 70
     1
102
RTVSPropertyOp59
 70
     1
102
RTVSPropertyOp60
 70
     1
102
RTVSPropertyOp61
 70
     1
102
RTVSPropertyOp62
 70
     1
  0
XRECORD
  5
378D
102
{ACAD_REACTORS
330
378C
102
}
330
378C
100
AcDbXrecord
280
     1
102
RTVSPost2010Prop28
280
     0
102
RTVSPost2010PropOp28
 70
     1
102
RTVSPost2010Prop29
280
     1
102
RTVSPost2010PropOp29
 70
     1
102
RTVSPost2010Prop30
280
     1
102
RTVSPost2010PropOp30
 70
     1
102
RTVSPost2010Prop31
280
     0
102
RTVSPost2010PropOp31
 70
     1
102
RTVSPost2010Prop32
280
     0
102
RTVSPost2010PropOp32
 70
     1
102
RTVSPost2010Prop33
280
     0
102
RTVSPost2010PropOp33
 70
     1
102
RTVSPost2010Prop34
280
     0
102
RTVSPost2010PropOp34
 70
     1
102
RTVSPost2010Prop35
280
     0
102
RTVSPost2010PropOp35
 70
     1
102
RTVSPost2010Prop36
280
     0
102
RTVSPost2010PropOp36
 70
     1
102
RTVSPost2010Prop37
 90
       50
102
RTVSPost2010PropOp37
 70
     1
102
RTVSPost2010Prop38
140
0.0
102
RTVSPost2010PropOp38
 70
     1
102
RTVSPost2010Prop39
140
1.0
102
RTVSPost2010PropOp39
 70
     1
102
RTVSPost2010Prop40
 90
        0
102
RTVSPost2010PropOp40
 70
     1
102
RTVSPost2010Prop41ColorIndex
 90
       18
102
RTVSPost2010Prop41ColorRGB
 90
        0
102
RTVSPost2010PropOp41
 70
     1
102
RTVSPost2010Prop42
 90
       50
102
RTVSPost2010PropOp42
 70
     1
102
RTVSPost2010Prop43
 90
        3
102
RTVSPost2010PropOp43
 70
     1
102
RTVSPost2010Prop44ColorIndex
 90
        5
102
RTVSPost2010Prop44ColorRGB
 90
      255
102
RTVSPost2010PropOp44
 70
     1
102
RTVSPost2010Prop45
280
     0
102
RTVSPost2010PropOp45
 70
     1
102
RTVSPost2010Prop46
 90
       50
102
RTVSPost2010PropOp46
 70
     1
102
RTVSPost2010Prop47
 90
       50
102
RTVSPost2010PropOp47
 70
     1
102
RTVSPost2010Prop48
 90
       50
102
RTVSPost2010PropOp48
 70
     1
102
RTVSPost2010Prop49
280
     0
102
RTVSPost2010PropOp49
 70
     1
102
RTVSPost2010Prop50
 90
       50
102
RTVSPost2010PropOp50
 70
     1
102
RTVSPost2010Prop51ColorIndex
 90
      256
102
RTVSPost2010Prop51ColorRGB
 90
-16777216
102
RTVSPost2010PropOp51
 70
     0
102
RTVSPost2010Prop52
140
1.0
102
RTVSPost2010PropOp52
 70
     0
102
RTVSPost2010Prop53
 90
        2
102
RTVSPost2010PropOp53
 70
     1
102
RTVSPost2010Prop54
  1
strokes_ogs.tif
102
RTVSPost2010PropOp54
 70
     1
102
RTVSPost2010Prop55
280
     0
102
RTVSPost2010PropOp55
 70
     1
102
RTVSPost2010Prop56
140
1.0
102
RTVSPost2010PropOp56
 70
     1
102
RTVSPost2010Prop57
140
1.0
102
RTVSPost2010PropOp57
 70
     1
102
RTVSPropertyOp0
 70
     1
102
RTVSPropertyOp1
 70
     1
102
RTVSPropertyOp2
 70
     1
102
RTVSPropertyOp3
 70
     1
102
RTVSPropertyOp4
 70
     1
102
RTVSPropertyOp5
 70
     1
102
RTVSPropertyOp6
 70
     1
102
RTVSPropertyOp7
 70
     1
102
RTVSPropertyOp8
 70
     1
102
RTVSPropertyOp9
 70
     1
102
RTVSPropertyOp10
 70
     1
102
RTVSPropertyOp11
 70
     1
102
RTVSPropertyOp12
 70
     1
102
RTVSPropertyOp13
 70
     1
102
RTVSPropertyOp14
 70
     1
102
RTVSPropertyOp15
 70
     1
102
RTVSPropertyOp16
 70
     1
102
RTVSPropertyOp17
 70
     1
102
RTVSPropertyOp18
 70
     1
102
RTVSPropertyOp19
 70
     1
102
RTVSPropertyOp20
 70
     1
102
RTVSPropertyOp21
 70
     1
102
RTVSPropertyOp22
 70
     1
102
RTVSPropertyOp23
 70
     1
102
RTVSPropertyOp24
 70
     1
102
RTVSPropertyOp25
 70
     1
102
RTVSPropertyOp26
 70
     1
102
RTVSPropertyOp27
 70
     1
102
RTVSPropertyOp28
 70
     1
102
RTVSPropertyOp29
 70
     1
102
RTVSPropertyOp30
 70
     1
102
RTVSPropertyOp31
 70
     1
102
RTVSPropertyOp32
 70
     1
102
RTVSPropertyOp33
 70
     1
102
RTVSPropertyOp34
 70
     1
102
RTVSPropertyOp35
 70
     1
102
RTVSPropertyOp36
 70
     1
102
RTVSPropertyOp37
 70
     1
102
RTVSPropertyOp38
 70
     1
102
RTVSPropertyOp39
 70
     1
102
RTVSPropertyOp40
 70
     1
102
RTVSPropertyOp41
 70
     1
102
RTVSPropertyOp42
 70
     1
102
RTVSPropertyOp43
 70
     1
102
RTVSPropertyOp44
 70
     1
102
RTVSPropertyOp45
 70
     1
102
RTVSPropertyOp46
 70
     1
102
RTVSPropertyOp47
 70
     1
102
RTVSPropertyOp48
 70
     1
102
RTVSPropertyOp49
 70
     1
102
RTVSPropertyOp50
 70
     1
102
RTVSPropertyOp51
 70
     0
102
RTVSPropertyOp52
 70
     0
102
RTVSPropertyOp53
 70
     1
102
RTVSPropertyOp54
 70
     1
102
RTVSPropertyOp55
 70
     1
102
RTVSPropertyOp56
 70
     1
102
RTVSPropertyOp57
 70
     1
102
RTVSPropertyOp58
 70
     1
102
RTVSPropertyOp59
 70
     1
102
RTVSPropertyOp60
 70
     1
102
RTVSPropertyOp61
 70
     1
102
RTVSPropertyOp62
 70
     1
  0
XRECORD
  5
378B
102
{ACAD_REACTORS
330
378A
102
}
330
378A
100
AcDbXrecord
280
     1
102
RTVSPost2010Prop28
280
     0
102
RTVSPost2010PropOp28
 70
     1
102
RTVSPost2010Prop29
280
     1
102
RTVSPost2010PropOp29
 70
     1
102
RTVSPost2010Prop30
280
     1
102
RTVSPost2010PropOp30
 70
     1
102
RTVSPost2010Prop31
280
     0
102
RTVSPost2010PropOp31
 70
     1
102
RTVSPost2010Prop32
280
     0
102
RTVSPost2010PropOp32
 70
     1
102
RTVSPost2010Prop33
280
     0
102
RTVSPost2010PropOp33
 70
     1
102
RTVSPost2010Prop34
280
     0
102
RTVSPost2010PropOp34
 70
     1
102
RTVSPost2010Prop35
280
     0
102
RTVSPost2010PropOp35
 70
     1
102
RTVSPost2010Prop36
280
     0
102
RTVSPost2010PropOp36
 70
     1
102
RTVSPost2010Prop37
 90
       50
102
RTVSPost2010PropOp37
 70
     1
102
RTVSPost2010Prop38
140
0.0
102
RTVSPost2010PropOp38
 70
     1
102
RTVSPost2010Prop39
140
1.0
102
RTVSPost2010PropOp39
 70
     1
102
RTVSPost2010Prop40
 90
        0
102
RTVSPost2010PropOp40
 70
     1
102
RTVSPost2010Prop41ColorIndex
 90
       18
102
RTVSPost2010Prop41ColorRGB
 90
        0
102
RTVSPost2010PropOp41
 70
     1
102
RTVSPost2010Prop42
 90
       50
102
RTVSPost2010PropOp42
 70
     1
102
RTVSPost2010Prop43
 90
        3
102
RTVSPost2010PropOp43
 70
     1
102
RTVSPost2010Prop44ColorIndex
 90
        5
102
RTVSPost2010Prop44ColorRGB
 90
      255
102
RTVSPost2010PropOp44
 70
     1
102
RTVSPost2010Prop45
280
     0
102
RTVSPost2010PropOp45
 70
     1
102
RTVSPost2010Prop46
 90
       50
102
RTVSPost2010PropOp46
 70
     1
102
RTVSPost2010Prop47
 90
       50
102
RTVSPost2010PropOp47
 70
     1
102
RTVSPost2010Prop48
 90
       50
102
RTVSPost2010PropOp48
 70
     1
102
RTVSPost2010Prop49
280
     0
102
RTVSPost2010PropOp49
 70
     1
102
RTVSPost2010Prop50
 90
       50
102
RTVSPost2010PropOp50
 70
     1
102
RTVSPost2010Prop51ColorIndex
 90
      256
102
RTVSPost2010Prop51ColorRGB
 90
-16777216
102
RTVSPost2010PropOp51
 70
     0
102
RTVSPost2010Prop52
140
1.0
102
RTVSPost2010PropOp52
 70
     0
102
RTVSPost2010Prop53
 90
        2
102
RTVSPost2010PropOp53
 70
     1
102
RTVSPost2010Prop54
  1
strokes_ogs.tif
102
RTVSPost2010PropOp54
 70
     1
102
RTVSPost2010Prop55
280
     0
102
RTVSPost2010PropOp55
 70
     1
102
RTVSPost2010Prop56
140
1.0
102
RTVSPost2010PropOp56
 70
     1
102
RTVSPost2010Prop57
140
1.0
102
RTVSPost2010PropOp57
 70
     1
102
RTVSPropertyOp0
 70
     1
102
RTVSPropertyOp1
 70
     1
102
RTVSPropertyOp2
 70
     1
102
RTVSPropertyOp3
 70
     1
102
RTVSPropertyOp4
 70
     1
102
RTVSPropertyOp5
 70
     1
102
RTVSPropertyOp6
 70
     1
102
RTVSPropertyOp7
 70
     1
102
RTVSPropertyOp8
 70
     1
102
RTVSPropertyOp9
 70
     1
102
RTVSPropertyOp10
 70
     1
102
RTVSPropertyOp11
 70
     1
102
RTVSPropertyOp12
 70
     1
102
RTVSPropertyOp13
 70
     1
102
RTVSPropertyOp14
 70
     1
102
RTVSPropertyOp15
 70
     1
102
RTVSPropertyOp16
 70
     1
102
RTVSPropertyOp17
 70
     1
102
RTVSPropertyOp18
 70
     1
102
RTVSPropertyOp19
 70
     1
102
RTVSPropertyOp20
 70
     1
102
RTVSPropertyOp21
 70
     1
102
RTVSPropertyOp22
 70
     1
102
RTVSPropertyOp23
 70
     1
102
RTVSPropertyOp24
 70
     1
102
RTVSPropertyOp25
 70
     1
102
RTVSPropertyOp26
 70
     1
102
RTVSPropertyOp27
 70
     1
102
RTVSPropertyOp28
 70
     1
102
RTVSPropertyOp29
 70
     1
102
RTVSPropertyOp30
 70
     1
102
RTVSPropertyOp31
 70
     1
102
RTVSPropertyOp32
 70
     1
102
RTVSPropertyOp33
 70
     1
102
RTVSPropertyOp34
 70
     1
102
RTVSPropertyOp35
 70
     1
102
RTVSPropertyOp36
 70
     1
102
RTVSPropertyOp37
 70
     1
102
RTVSPropertyOp38
 70
     1
102
RTVSPropertyOp39
 70
     1
102
RTVSPropertyOp40
 70
     1
102
RTVSPropertyOp41
 70
     1
102
RTVSPropertyOp42
 70
     1
102
RTVSPropertyOp43
 70
     1
102
RTVSPropertyOp44
 70
     1
102
RTVSPropertyOp45
 70
     1
102
RTVSPropertyOp46
 70
     1
102
RTVSPropertyOp47
 70
     1
102
RTVSPropertyOp48
 70
     1
102
RTVSPropertyOp49
 70
     1
102
RTVSPropertyOp50
 70
     1
102
RTVSPropertyOp51
 70
     0
102
RTVSPropertyOp52
 70
     0
102
RTVSPropertyOp53
 70
     1
102
RTVSPropertyOp54
 70
     1
102
RTVSPropertyOp55
 70
     1
102
RTVSPropertyOp56
 70
     1
102
RTVSPropertyOp57
 70
     1
102
RTVSPropertyOp58
 70
     1
102
RTVSPropertyOp59
 70
     1
102
RTVSPropertyOp60
 70
     1
102
RTVSPropertyOp61
 70
     1
102
RTVSPropertyOp62
 70
     1
  0
XRECORD
  5
3785
102
{ACAD_REACTORS
330
3784
102
}
330
3784
100
AcDbXrecord
280
     1
102
RTVSPost2010Prop28
280
     0
102
RTVSPost2010PropOp28
 70
     1
102
RTVSPost2010Prop29
280
     1
102
RTVSPost2010PropOp29
 70
     1
102
RTVSPost2010Prop30
280
     1
102
RTVSPost2010PropOp30
 70
     1
102
RTVSPost2010Prop31
280
     0
102
RTVSPost2010PropOp31
 70
     1
102
RTVSPost2010Prop32
280
     0
102
RTVSPost2010PropOp32
 70
     1
102
RTVSPost2010Prop33
280
     0
102
RTVSPost2010PropOp33
 70
     1
102
RTVSPost2010Prop34
280
     0
102
RTVSPost2010PropOp34
 70
     1
102
RTVSPost2010Prop35
280
     0
102
RTVSPost2010PropOp35
 70
     1
102
RTVSPost2010Prop36
280
     0
102
RTVSPost2010PropOp36
 70
     1
102
RTVSPost2010Prop37
 90
       50
102
RTVSPost2010PropOp37
 70
     1
102
RTVSPost2010Prop38
140
0.0
102
RTVSPost2010PropOp38
 70
     1
102
RTVSPost2010Prop39
140
1.0
102
RTVSPost2010PropOp39
 70
     1
102
RTVSPost2010Prop40
 90
        0
102
RTVSPost2010PropOp40
 70
     1
102
RTVSPost2010Prop41ColorIndex
 90
       18
102
RTVSPost2010Prop41ColorRGB
 90
        0
102
RTVSPost2010PropOp41
 70
     1
102
RTVSPost2010Prop42
 90
       50
102
RTVSPost2010PropOp42
 70
     1
102
RTVSPost2010Prop43
 90
        3
102
RTVSPost2010PropOp43
 70
     1
102
RTVSPost2010Prop44ColorIndex
 90
        5
102
RTVSPost2010Prop44ColorRGB
 90
      255
102
RTVSPost2010PropOp44
 70
     1
102
RTVSPost2010Prop45
280
     0
102
RTVSPost2010PropOp45
 70
     1
102
RTVSPost2010Prop46
 90
       50
102
RTVSPost2010PropOp46
 70
     1
102
RTVSPost2010Prop47
 90
       50
102
RTVSPost2010PropOp47
 70
     1
102
RTVSPost2010Prop48
 90
       50
102
RTVSPost2010PropOp48
 70
     1
102
RTVSPost2010Prop49
280
     0
102
RTVSPost2010PropOp49
 70
     1
102
RTVSPost2010Prop50
 90
       50
102
RTVSPost2010PropOp50
 70
     1
102
RTVSPost2010Prop51ColorIndex
 90
      256
102
RTVSPost2010Prop51ColorRGB
 90
-16777216
102
RTVSPost2010PropOp51
 70
     0
102
RTVSPost2010Prop52
140
1.0
102
RTVSPost2010PropOp52
 70
     0
102
RTVSPost2010Prop53
 90
        2
102
RTVSPost2010PropOp53
 70
     1
102
RTVSPost2010Prop54
  1
strokes_ogs.tif
102
RTVSPost2010PropOp54
 70
     1
102
RTVSPost2010Prop55
280
     0
102
RTVSPost2010PropOp55
 70
     1
102
RTVSPost2010Prop56
140
1.0
102
RTVSPost2010PropOp56
 70
     1
102
RTVSPost2010Prop57
140
1.0
102
RTVSPost2010PropOp57
 70
     1
102
RTVSPropertyOp0
 70
     1
102
RTVSPropertyOp1
 70
     1
102
RTVSPropertyOp2
 70
     1
102
RTVSPropertyOp3
 70
     1
102
RTVSPropertyOp4
 70
     1
102
RTVSPropertyOp5
 70
     1
102
RTVSPropertyOp6
 70
     1
102
RTVSPropertyOp7
 70
     1
102
RTVSPropertyOp8
 70
     1
102
RTVSPropertyOp9
 70
     1
102
RTVSPropertyOp10
 70
     1
102
RTVSPropertyOp11
 70
     1
102
RTVSPropertyOp12
 70
     1
102
RTVSPropertyOp13
 70
     1
102
RTVSPropertyOp14
 70
     1
102
RTVSPropertyOp15
 70
     1
102
RTVSPropertyOp16
 70
     1
102
RTVSPropertyOp17
 70
     1
102
RTVSPropertyOp18
 70
     1
102
RTVSPropertyOp19
 70
     1
102
RTVSPropertyOp20
 70
     1
102
RTVSPropertyOp21
 70
     1
102
RTVSPropertyOp22
 70
     1
102
RTVSPropertyOp23
 70
     1
102
RTVSPropertyOp24
 70
     1
102
RTVSPropertyOp25
 70
     1
102
RTVSPropertyOp26
 70
     1
102
RTVSPropertyOp27
 70
     1
102
RTVSPropertyOp28
 70
     1
102
RTVSPropertyOp29
 70
     1
102
RTVSPropertyOp30
 70
     1
102
RTVSPropertyOp31
 70
     1
102
RTVSPropertyOp32
 70
     1
102
RTVSPropertyOp33
 70
     1
102
RTVSPropertyOp34
 70
     1
102
RTVSPropertyOp35
 70
     1
102
RTVSPropertyOp36
 70
     1
102
RTVSPropertyOp37
 70
     1
102
RTVSPropertyOp38
 70
     1
102
RTVSPropertyOp39
 70
     1
102
RTVSPropertyOp40
 70
     1
102
RTVSPropertyOp41
 70
     1
102
RTVSPropertyOp42
 70
     1
102
RTVSPropertyOp43
 70
     1
102
RTVSPropertyOp44
 70
     1
102
RTVSPropertyOp45
 70
     1
102
RTVSPropertyOp46
 70
     1
102
RTVSPropertyOp47
 70
     1
102
RTVSPropertyOp48
 70
     1
102
RTVSPropertyOp49
 70
     1
102
RTVSPropertyOp50
 70
     1
102
RTVSPropertyOp51
 70
     0
102
RTVSPropertyOp52
 70
     0
102
RTVSPropertyOp53
 70
     1
102
RTVSPropertyOp54
 70
     1
102
RTVSPropertyOp55
 70
     1
102
RTVSPropertyOp56
 70
     1
102
RTVSPropertyOp57
 70
     1
102
RTVSPropertyOp58
 70
     1
102
RTVSPropertyOp59
 70
     1
102
RTVSPropertyOp60
 70
     1
102
RTVSPropertyOp61
 70
     1
102
RTVSPropertyOp62
 70
     1
  0
XRECORD
  5
3787
102
{ACAD_REACTORS
330
3786
102
}
330
3786
100
AcDbXrecord
280
     1
102
RTVSPost2010Prop28
280
     0
102
RTVSPost2010PropOp28
 70
     1
102
RTVSPost2010Prop29
280
     1
102
RTVSPost2010PropOp29
 70
     1
102
RTVSPost2010Prop30
280
     1
102
RTVSPost2010PropOp30
 70
     1
102
RTVSPost2010Prop31
280
     0
102
RTVSPost2010PropOp31
 70
     1
102
RTVSPost2010Prop32
280
     0
102
RTVSPost2010PropOp32
 70
     1
102
RTVSPost2010Prop33
280
     0
102
RTVSPost2010PropOp33
 70
     1
102
RTVSPost2010Prop34
280
     0
102
RTVSPost2010PropOp34
 70
     1
102
RTVSPost2010Prop35
280
     0
102
RTVSPost2010PropOp35
 70
     1
102
RTVSPost2010Prop36
280
     0
102
RTVSPost2010PropOp36
 70
     1
102
RTVSPost2010Prop37
 90
       50
102
RTVSPost2010PropOp37
 70
     1
102
RTVSPost2010Prop38
140
0.0
102
RTVSPost2010PropOp38
 70
     1
102
RTVSPost2010Prop39
140
1.0
102
RTVSPost2010PropOp39
 70
     1
102
RTVSPost2010Prop40
 90
        0
102
RTVSPost2010PropOp40
 70
     1
102
RTVSPost2010Prop41ColorIndex
 90
       18
102
RTVSPost2010Prop41ColorRGB
 90
        0
102
RTVSPost2010PropOp41
 70
     1
102
RTVSPost2010Prop42
 90
       50
102
RTVSPost2010PropOp42
 70
     1
102
RTVSPost2010Prop43
 90
        3
102
RTVSPost2010PropOp43
 70
     1
102
RTVSPost2010Prop44ColorIndex
 90
        5
102
RTVSPost2010Prop44ColorRGB
 90
      255
102
RTVSPost2010PropOp44
 70
     1
102
RTVSPost2010Prop45
280
     0
102
RTVSPost2010PropOp45
 70
     1
102
RTVSPost2010Prop46
 90
       50
102
RTVSPost2010PropOp46
 70
     1
102
RTVSPost2010Prop47
 90
       50
102
RTVSPost2010PropOp47
 70
     1
102
RTVSPost2010Prop48
 90
       50
102
RTVSPost2010PropOp48
 70
     1
102
RTVSPost2010Prop49
280
     0
102
RTVSPost2010PropOp49
 70
     1
102
RTVSPost2010Prop50
 90
       50
102
RTVSPost2010PropOp50
 70
     1
102
RTVSPost2010Prop51ColorIndex
 90
      256
102
RTVSPost2010Prop51ColorRGB
 90
-16777216
102
RTVSPost2010PropOp51
 70
     0
102
RTVSPost2010Prop52
140
1.0
102
RTVSPost2010PropOp52
 70
     0
102
RTVSPost2010Prop53
 90
        2
102
RTVSPost2010PropOp53
 70
     1
102
RTVSPost2010Prop54
  1
strokes_ogs.tif
102
RTVSPost2010PropOp54
 70
     1
102
RTVSPost2010Prop55
280
     0
102
RTVSPost2010PropOp55
 70
     1
102
RTVSPost2010Prop56
140
1.0
102
RTVSPost2010PropOp56
 70
     1
102
RTVSPost2010Prop57
140
1.0
102
RTVSPost2010PropOp57
 70
     1
102
RTVSPropertyOp0
 70
     1
102
RTVSPropertyOp1
 70
     1
102
RTVSPropertyOp2
 70
     1
102
RTVSPropertyOp3
 70
     1
102
RTVSPropertyOp4
 70
     1
102
RTVSPropertyOp5
 70
     1
102
RTVSPropertyOp6
 70
     1
102
RTVSPropertyOp7
 70
     1
102
RTVSPropertyOp8
 70
     1
102
RTVSPropertyOp9
 70
     1
102
RTVSPropertyOp10
 70
     1
102
RTVSPropertyOp11
 70
     1
102
RTVSPropertyOp12
 70
     1
102
RTVSPropertyOp13
 70
     1
102
RTVSPropertyOp14
 70
     1
102
RTVSPropertyOp15
 70
     1
102
RTVSPropertyOp16
 70
     1
102
RTVSPropertyOp17
 70
     1
102
RTVSPropertyOp18
 70
     1
102
RTVSPropertyOp19
 70
     1
102
RTVSPropertyOp20
 70
     1
102
RTVSPropertyOp21
 70
     1
102
RTVSPropertyOp22
 70
     1
102
RTVSPropertyOp23
 70
     1
102
RTVSPropertyOp24
 70
     1
102
RTVSPropertyOp25
 70
     1
102
RTVSPropertyOp26
 70
     1
102
RTVSPropertyOp27
 70
     1
102
RTVSPropertyOp28
 70
     1
102
RTVSPropertyOp29
 70
     1
102
RTVSPropertyOp30
 70
     1
102
RTVSPropertyOp31
 70
     1
102
RTVSPropertyOp32
 70
     1
102
RTVSPropertyOp33
 70
     1
102
RTVSPropertyOp34
 70
     1
102
RTVSPropertyOp35
 70
     1
102
RTVSPropertyOp36
 70
     1
102
RTVSPropertyOp37
 70
     1
102
RTVSPropertyOp38
 70
     1
102
RTVSPropertyOp39
 70
     1
102
RTVSPropertyOp40
 70
     1
102
RTVSPropertyOp41
 70
     1
102
RTVSPropertyOp42
 70
     1
102
RTVSPropertyOp43
 70
     1
102
RTVSPropertyOp44
 70
     1
102
RTVSPropertyOp45
 70
     1
102
RTVSPropertyOp46
 70
     1
102
RTVSPropertyOp47
 70
     1
102
RTVSPropertyOp48
 70
     1
102
RTVSPropertyOp49
 70
     1
102
RTVSPropertyOp50
 70
     1
102
RTVSPropertyOp51
 70
     0
102
RTVSPropertyOp52
 70
     0
102
RTVSPropertyOp53
 70
     1
102
RTVSPropertyOp54
 70
     1
102
RTVSPropertyOp55
 70
     1
102
RTVSPropertyOp56
 70
     1
102
RTVSPropertyOp57
 70
     1
102
RTVSPropertyOp58
 70
     1
102
RTVSPropertyOp59
 70
     1
102
RTVSPropertyOp60
 70
     1
102
RTVSPropertyOp61
 70
     1
102
RTVSPropertyOp62
 70
     1
  0
XRECORD
  5
377D
102
{ACAD_REACTORS
330
377C
102
}
330
377C
100
AcDbXrecord
280
     1
102
RTVSPost2010Prop28
280
     0
102
RTVSPost2010PropOp28
 70
     1
102
RTVSPost2010Prop29
280
     1
102
RTVSPost2010PropOp29
 70
     1
102
RTVSPost2010Prop30
280
     1
102
RTVSPost2010PropOp30
 70
     1
102
RTVSPost2010Prop31
280
     0
102
RTVSPost2010PropOp31
 70
     1
102
RTVSPost2010Prop32
280
     0
102
RTVSPost2010PropOp32
 70
     1
102
RTVSPost2010Prop33
280
     0
102
RTVSPost2010PropOp33
 70
     1
102
RTVSPost2010Prop34
280
     0
102
RTVSPost2010PropOp34
 70
     1
102
RTVSPost2010Prop35
280
     0
102
RTVSPost2010PropOp35
 70
     1
102
RTVSPost2010Prop36
280
     0
102
RTVSPost2010PropOp36
 70
     1
102
RTVSPost2010Prop37
 90
       50
102
RTVSPost2010PropOp37
 70
     1
102
RTVSPost2010Prop38
140
0.0
102
RTVSPost2010PropOp38
 70
     1
102
RTVSPost2010Prop39
140
1.0
102
RTVSPost2010PropOp39
 70
     1
102
RTVSPost2010Prop40
 90
        0
102
RTVSPost2010PropOp40
 70
     1
102
RTVSPost2010Prop41ColorIndex
 90
       18
102
RTVSPost2010Prop41ColorRGB
 90
        0
102
RTVSPost2010PropOp41
 70
     1
102
RTVSPost2010Prop42
 90
       50
102
RTVSPost2010PropOp42
 70
     1
102
RTVSPost2010Prop43
 90
        3
102
RTVSPost2010PropOp43
 70
     1
102
RTVSPost2010Prop44ColorIndex
 90
        5
102
RTVSPost2010Prop44ColorRGB
 90
      255
102
RTVSPost2010PropOp44
 70
     1
102
RTVSPost2010Prop45
280
     0
102
RTVSPost2010PropOp45
 70
     1
102
RTVSPost2010Prop46
 90
       50
102
RTVSPost2010PropOp46
 70
     1
102
RTVSPost2010Prop47
 90
       50
102
RTVSPost2010PropOp47
 70
     1
102
RTVSPost2010Prop48
 90
       50
102
RTVSPost2010PropOp48
 70
     1
102
RTVSPost2010Prop49
280
     0
102
RTVSPost2010PropOp49
 70
     1
102
RTVSPost2010Prop50
 90
       50
102
RTVSPost2010PropOp50
 70
     1
102
RTVSPost2010Prop51ColorIndex
 90
      256
102
RTVSPost2010Prop51ColorRGB
 90
-16777216
102
RTVSPost2010PropOp51
 70
     0
102
RTVSPost2010Prop52
140
1.0
102
RTVSPost2010PropOp52
 70
     0
102
RTVSPost2010Prop53
 90
        2
102
RTVSPost2010PropOp53
 70
     1
102
RTVSPost2010Prop54
  1
strokes_ogs.tif
102
RTVSPost2010PropOp54
 70
     1
102
RTVSPost2010Prop55
280
     0
102
RTVSPost2010PropOp55
 70
     1
102
RTVSPost2010Prop56
140
1.0
102
RTVSPost2010PropOp56
 70
     1
102
RTVSPost2010Prop57
140
1.0
102
RTVSPost2010PropOp57
 70
     1
102
RTVSPropertyOp0
 70
     1
102
RTVSPropertyOp1
 70
     1
102
RTVSPropertyOp2
 70
     1
102
RTVSPropertyOp3
 70
     1
102
RTVSPropertyOp4
 70
     1
102
RTVSPropertyOp5
 70
     1
102
RTVSPropertyOp6
 70
     1
102
RTVSPropertyOp7
 70
     1
102
RTVSPropertyOp8
 70
     1
102
RTVSPropertyOp9
 70
     1
102
RTVSPropertyOp10
 70
     1
102
RTVSPropertyOp11
 70
     1
102
RTVSPropertyOp12
 70
     1
102
RTVSPropertyOp13
 70
     1
102
RTVSPropertyOp14
 70
     1
102
RTVSPropertyOp15
 70
     1
102
RTVSPropertyOp16
 70
     1
102
RTVSPropertyOp17
 70
     1
102
RTVSPropertyOp18
 70
     1
102
RTVSPropertyOp19
 70
     1
102
RTVSPropertyOp20
 70
     1
102
RTVSPropertyOp21
 70
     1
102
RTVSPropertyOp22
 70
     1
102
RTVSPropertyOp23
 70
     1
102
RTVSPropertyOp24
 70
     1
102
RTVSPropertyOp25
 70
     1
102
RTVSPropertyOp26
 70
     1
102
RTVSPropertyOp27
 70
     1
102
RTVSPropertyOp28
 70
     1
102
RTVSPropertyOp29
 70
     1
102
RTVSPropertyOp30
 70
     1
102
RTVSPropertyOp31
 70
     1
102
RTVSPropertyOp32
 70
     1
102
RTVSPropertyOp33
 70
     1
102
RTVSPropertyOp34
 70
     1
102
RTVSPropertyOp35
 70
     1
102
RTVSPropertyOp36
 70
     1
102
RTVSPropertyOp37
 70
     1
102
RTVSPropertyOp38
 70
     1
102
RTVSPropertyOp39
 70
     1
102
RTVSPropertyOp40
 70
     1
102
RTVSPropertyOp41
 70
     1
102
RTVSPropertyOp42
 70
     1
102
RTVSPropertyOp43
 70
     1
102
RTVSPropertyOp44
 70
     1
102
RTVSPropertyOp45
 70
     1
102
RTVSPropertyOp46
 70
     1
102
RTVSPropertyOp47
 70
     1
102
RTVSPropertyOp48
 70
     1
102
RTVSPropertyOp49
 70
     1
102
RTVSPropertyOp50
 70
     1
102
RTVSPropertyOp51
 70
     0
102
RTVSPropertyOp52
 70
     0
102
RTVSPropertyOp53
 70
     1
102
RTVSPropertyOp54
 70
     1
102
RTVSPropertyOp55
 70
     1
102
RTVSPropertyOp56
 70
     1
102
RTVSPropertyOp57
 70
     1
102
RTVSPropertyOp58
 70
     1
102
RTVSPropertyOp59
 70
     1
102
RTVSPropertyOp60
 70
     1
102
RTVSPropertyOp61
 70
     1
102
RTVSPropertyOp62
 70
     1
  0
XRECORD
  5
3771
102
{ACAD_REACTORS
330
3770
102
}
330
3770
100
AcDbXrecord
280
     1
102
RTVSPost2010Prop28
280
     0
102
RTVSPost2010PropOp28
 70
     1
102
RTVSPost2010Prop29
280
     1
102
RTVSPost2010PropOp29
 70
     1
102
RTVSPost2010Prop30
280
     1
102
RTVSPost2010PropOp30
 70
     1
102
RTVSPost2010Prop31
280
     0
102
RTVSPost2010PropOp31
 70
     1
102
RTVSPost2010Prop32
280
     0
102
RTVSPost2010PropOp32
 70
     1
102
RTVSPost2010Prop33
280
     0
102
RTVSPost2010PropOp33
 70
     1
102
RTVSPost2010Prop34
280
     0
102
RTVSPost2010PropOp34
 70
     1
102
RTVSPost2010Prop35
280
     0
102
RTVSPost2010PropOp35
 70
     1
102
RTVSPost2010Prop36
280
     0
102
RTVSPost2010PropOp36
 70
     1
102
RTVSPost2010Prop37
 90
       50
102
RTVSPost2010PropOp37
 70
     1
102
RTVSPost2010Prop38
140
0.0
102
RTVSPost2010PropOp38
 70
     1
102
RTVSPost2010Prop39
140
1.0
102
RTVSPost2010PropOp39
 70
     1
102
RTVSPost2010Prop40
 90
        0
102
RTVSPost2010PropOp40
 70
     1
102
RTVSPost2010Prop41ColorIndex
 90
       18
102
RTVSPost2010Prop41ColorRGB
 90
        0
102
RTVSPost2010PropOp41
 70
     1
102
RTVSPost2010Prop42
 90
       50
102
RTVSPost2010PropOp42
 70
     1
102
RTVSPost2010Prop43
 90
        3
102
RTVSPost2010PropOp43
 70
     1
102
RTVSPost2010Prop44ColorIndex
 90
        5
102
RTVSPost2010Prop44ColorRGB
 90
      255
102
RTVSPost2010PropOp44
 70
     1
102
RTVSPost2010Prop45
280
     0
102
RTVSPost2010PropOp45
 70
     1
102
RTVSPost2010Prop46
 90
       50
102
RTVSPost2010PropOp46
 70
     1
102
RTVSPost2010Prop47
 90
       50
102
RTVSPost2010PropOp47
 70
     1
102
RTVSPost2010Prop48
 90
       50
102
RTVSPost2010PropOp48
 70
     1
102
RTVSPost2010Prop49
280
     0
102
RTVSPost2010PropOp49
 70
     1
102
RTVSPost2010Prop50
 90
       50
102
RTVSPost2010PropOp50
 70
     1
102
RTVSPost2010Prop51ColorIndex
 90
      256
102
RTVSPost2010Prop51ColorRGB
 90
-16777216
102
RTVSPost2010PropOp51
 70
     0
102
RTVSPost2010Prop52
140
1.0
102
RTVSPost2010PropOp52
 70
     0
102
RTVSPost2010Prop53
 90
        2
102
RTVSPost2010PropOp53
 70
     1
102
RTVSPost2010Prop54
  1
strokes_ogs.tif
102
RTVSPost2010PropOp54
 70
     1
102
RTVSPost2010Prop55
280
     0
102
RTVSPost2010PropOp55
 70
     1
102
RTVSPost2010Prop56
140
1.0
102
RTVSPost2010PropOp56
 70
     1
102
RTVSPost2010Prop57
140
1.0
102
RTVSPost2010PropOp57
 70
     1
102
RTVSPropertyOp0
 70
     1
102
RTVSPropertyOp1
 70
     1
102
RTVSPropertyOp2
 70
     1
102
RTVSPropertyOp3
 70
     1
102
RTVSPropertyOp4
 70
     1
102
RTVSPropertyOp5
 70
     1
102
RTVSPropertyOp6
 70
     1
102
RTVSPropertyOp7
 70
     1
102
RTVSPropertyOp8
 70
     1
102
RTVSPropertyOp9
 70
     1
102
RTVSPropertyOp10
 70
     1
102
RTVSPropertyOp11
 70
     1
102
RTVSPropertyOp12
 70
     1
102
RTVSPropertyOp13
 70
     1
102
RTVSPropertyOp14
 70
     1
102
RTVSPropertyOp15
 70
     1
102
RTVSPropertyOp16
 70
     1
102
RTVSPropertyOp17
 70
     1
102
RTVSPropertyOp18
 70
     1
102
RTVSPropertyOp19
 70
     1
102
RTVSPropertyOp20
 70
     1
102
RTVSPropertyOp21
 70
     1
102
RTVSPropertyOp22
 70
     1
102
RTVSPropertyOp23
 70
     1
102
RTVSPropertyOp24
 70
     1
102
RTVSPropertyOp25
 70
     1
102
RTVSPropertyOp26
 70
     1
102
RTVSPropertyOp27
 70
     1
102
RTVSPropertyOp28
 70
     1
102
RTVSPropertyOp29
 70
     1
102
RTVSPropertyOp30
 70
     1
102
RTVSPropertyOp31
 70
     1
102
RTVSPropertyOp32
 70
     1
102
RTVSPropertyOp33
 70
     1
102
RTVSPropertyOp34
 70
     1
102
RTVSPropertyOp35
 70
     1
102
RTVSPropertyOp36
 70
     1
102
RTVSPropertyOp37
 70
     1
102
RTVSPropertyOp38
 70
     1
102
RTVSPropertyOp39
 70
     1
102
RTVSPropertyOp40
 70
     1
102
RTVSPropertyOp41
 70
     1
102
RTVSPropertyOp42
 70
     1
102
RTVSPropertyOp43
 70
     1
102
RTVSPropertyOp44
 70
     1
102
RTVSPropertyOp45
 70
     1
102
RTVSPropertyOp46
 70
     1
102
RTVSPropertyOp47
 70
     1
102
RTVSPropertyOp48
 70
     1
102
RTVSPropertyOp49
 70
     1
102
RTVSPropertyOp50
 70
     1
102
RTVSPropertyOp51
 70
     0
102
RTVSPropertyOp52
 70
     0
102
RTVSPropertyOp53
 70
     1
102
RTVSPropertyOp54
 70
     1
102
RTVSPropertyOp55
 70
     1
102
RTVSPropertyOp56
 70
     1
102
RTVSPropertyOp57
 70
     1
102
RTVSPropertyOp58
 70
     1
102
RTVSPropertyOp59
 70
     1
102
RTVSPropertyOp60
 70
     1
102
RTVSPropertyOp61
 70
     1
102
RTVSPropertyOp62
 70
     1
  0
XRECORD
  5
3789
102
{ACAD_REACTORS
330
3788
102
}
330
3788
100
AcDbXrecord
280
     1
102
RTVSPost2010Prop28
280
     0
102
RTVSPost2010PropOp28
 70
     1
102
RTVSPost2010Prop29
280
     1
102
RTVSPost2010PropOp29
 70
     1
102
RTVSPost2010Prop30
280
     1
102
RTVSPost2010PropOp30
 70
     1
102
RTVSPost2010Prop31
280
     0
102
RTVSPost2010PropOp31
 70
     1
102
RTVSPost2010Prop32
280
     0
102
RTVSPost2010PropOp32
 70
     1
102
RTVSPost2010Prop33
280
     0
102
RTVSPost2010PropOp33
 70
     1
102
RTVSPost2010Prop34
280
     0
102
RTVSPost2010PropOp34
 70
     1
102
RTVSPost2010Prop35
280
     0
102
RTVSPost2010PropOp35
 70
     1
102
RTVSPost2010Prop36
280
     0
102
RTVSPost2010PropOp36
 70
     1
102
RTVSPost2010Prop37
 90
       50
102
RTVSPost2010PropOp37
 70
     1
102
RTVSPost2010Prop38
140
0.0
102
RTVSPost2010PropOp38
 70
     1
102
RTVSPost2010Prop39
140
1.0
102
RTVSPost2010PropOp39
 70
     1
102
RTVSPost2010Prop40
 90
        0
102
RTVSPost2010PropOp40
 70
     1
102
RTVSPost2010Prop41ColorIndex
 90
       18
102
RTVSPost2010Prop41ColorRGB
 90
        0
102
RTVSPost2010PropOp41
 70
     1
102
RTVSPost2010Prop42
 90
       50
102
RTVSPost2010PropOp42
 70
     1
102
RTVSPost2010Prop43
 90
        3
102
RTVSPost2010PropOp43
 70
     1
102
RTVSPost2010Prop44ColorIndex
 90
        5
102
RTVSPost2010Prop44ColorRGB
 90
      255
102
RTVSPost2010PropOp44
 70
     1
102
RTVSPost2010Prop45
280
     0
102
RTVSPost2010PropOp45
 70
     1
102
RTVSPost2010Prop46
 90
       50
102
RTVSPost2010PropOp46
 70
     1
102
RTVSPost2010Prop47
 90
       50
102
RTVSPost2010PropOp47
 70
     1
102
RTVSPost2010Prop48
 90
       50
102
RTVSPost2010PropOp48
 70
     1
102
RTVSPost2010Prop49
280
     0
102
RTVSPost2010PropOp49
 70
     1
102
RTVSPost2010Prop50
 90
       50
102
RTVSPost2010PropOp50
 70
     1
102
RTVSPost2010Prop51ColorIndex
 90
      256
102
RTVSPost2010Prop51ColorRGB
 90
-16777216
102
RTVSPost2010PropOp51
 70
     0
102
RTVSPost2010Prop52
140
1.0
102
RTVSPost2010PropOp52
 70
     0
102
RTVSPost2010Prop53
 90
        2
102
RTVSPost2010PropOp53
 70
     1
102
RTVSPost2010Prop54
  1
strokes_ogs.tif
102
RTVSPost2010PropOp54
 70
     1
102
RTVSPost2010Prop55
280
     0
102
RTVSPost2010PropOp55
 70
     1
102
RTVSPost2010Prop56
140
1.0
102
RTVSPost2010PropOp56
 70
     1
102
RTVSPost2010Prop57
140
1.0
102
RTVSPost2010PropOp57
 70
     1
102
RTVSPropertyOp0
 70
     1
102
RTVSPropertyOp1
 70
     1
102
RTVSPropertyOp2
 70
     1
102
RTVSPropertyOp3
 70
     1
102
RTVSPropertyOp4
 70
     1
102
RTVSPropertyOp5
 70
     1
102
RTVSPropertyOp6
 70
     1
102
RTVSPropertyOp7
 70
     1
102
RTVSPropertyOp8
 70
     1
102
RTVSPropertyOp9
 70
     1
102
RTVSPropertyOp10
 70
     1
102
RTVSPropertyOp11
 70
     1
102
RTVSPropertyOp12
 70
     1
102
RTVSPropertyOp13
 70
     1
102
RTVSPropertyOp14
 70
     1
102
RTVSPropertyOp15
 70
     1
102
RTVSPropertyOp16
 70
     1
102
RTVSPropertyOp17
 70
     1
102
RTVSPropertyOp18
 70
     1
102
RTVSPropertyOp19
 70
     1
102
RTVSPropertyOp20
 70
     1
102
RTVSPropertyOp21
 70
     1
102
RTVSPropertyOp22
 70
     1
102
RTVSPropertyOp23
 70
     1
102
RTVSPropertyOp24
 70
     1
102
RTVSPropertyOp25
 70
     1
102
RTVSPropertyOp26
 70
     1
102
RTVSPropertyOp27
 70
     1
102
RTVSPropertyOp28
 70
     1
102
RTVSPropertyOp29
 70
     1
102
RTVSPropertyOp30
 70
     1
102
RTVSPropertyOp31
 70
     1
102
RTVSPropertyOp32
 70
     1
102
RTVSPropertyOp33
 70
     1
102
RTVSPropertyOp34
 70
     1
102
RTVSPropertyOp35
 70
     1
102
RTVSPropertyOp36
 70
     1
102
RTVSPropertyOp37
 70
     1
102
RTVSPropertyOp38
 70
     1
102
RTVSPropertyOp39
 70
     1
102
RTVSPropertyOp40
 70
     1
102
RTVSPropertyOp41
 70
     1
102
RTVSPropertyOp42
 70
     1
102
RTVSPropertyOp43
 70
     1
102
RTVSPropertyOp44
 70
     1
102
RTVSPropertyOp45
 70
     1
102
RTVSPropertyOp46
 70
     1
102
RTVSPropertyOp47
 70
     1
102
RTVSPropertyOp48
 70
     1
102
RTVSPropertyOp49
 70
     1
102
RTVSPropertyOp50
 70
     1
102
RTVSPropertyOp51
 70
     0
102
RTVSPropertyOp52
 70
     0
102
RTVSPropertyOp53
 70
     1
102
RTVSPropertyOp54
 70
     1
102
RTVSPropertyOp55
 70
     1
102
RTVSPropertyOp56
 70
     1
102
RTVSPropertyOp57
 70
     1
102
RTVSPropertyOp58
 70
     1
102
RTVSPropertyOp59
 70
     1
102
RTVSPropertyOp60
 70
     1
102
RTVSPropertyOp61
 70
     1
102
RTVSPropertyOp62
 70
     1
  0
ENDSEC
  0
EOF
