  0
SECTION
  2
HEADER
  9
$ACADVER
  1
AC1015
  9
$ACADMAINTVER
 70
    20
  9
$DWGCODEPAGE
  3
ANSI_932
  9
$INSBASE
 10
0.0
 20
0.0
 30
0.0
  9
$EXTMIN
 10
9.9999975266385
 20
10.0
 30
0.0
  9
$EXTMAX
 10
748.1816792562554
 20
324.1405543355825
 30
0.0
  9
$LIMMIN
 10
0.0000015376081137
 20
-0.0000001931532552
  9
$LIMMAX
 10
792.0000015376082
 20
545.9999998068467
  9
$ORTHOMODE
 70
     1
  9
$REGENMODE
 70
     1
  9
$FILLMODE
 70
     1
  9
$QTEXTMODE
 70
     0
  9
$MIRRTEXT
 70
     1
  9
$LTSCALE
 40
1.0
  9
$ATTMODE
 70
     1
  9
$TEXTSIZE
 40
2.5
  9
$TRACEWID
 40
1.0
  9
$TEXTSTYLE
  7
STANDARD
  9
$CLAYER
  8
0
  9
$CELTYPE
  6
BYLAYER
  9
$CECOLOR
 62
   256
  9
$CELTSCALE
 40
1.0
  9
$DISPSILH
 70
     0
  9
$DIMSCALE
 40
1.0
  9
$DIMASZ
 40
3.0
  9
$DIMEXO
 40
1.0
  9
$DIMDLI
 40
10.0
  9
$DIMRND
 40
0.0
  9
$DIMDLE
 40
0.0
  9
$DIMEXE
 40
1.0
  9
$DIMTP
 40
0.0
  9
$DIMTM
 40
0.0
  9
$DIMTXT
 40
3.2
  9
$DIMCEN
 40
0.0
  9
$DIMTSZ
 40
0.0
  9
$DIMTOL
 70
     0
  9
$DIMLIM
 70
     0
  9
$DIMTIH
 70
     0
  9
$DIMTOH
 70
     0
  9
$DIMSE1
 70
     0
  9
$DIMSE2
 70
     0
  9
$DIMTAD
 70
     3
  9
$DIMZIN
 70
     8
  9
$DIMBLK
  1

  9
$DIMASO
 70
     1
  9
$DIMSHO
 70
     1
  9
$DIMPOST
  1

  9
$DIMAPOST
  1

  9
$DIMALT
 70
     0
  9
$DIMALTD
 70
     2
  9
$DIMALTF
 40
25.4
  9
$DIMLFAC
 40
1.0
  9
$DIMTOFL
 70
     1
  9
$DIMTVP
 40
0.0
  9
$DIMTIX
 70
     0
  9
$DIMSOXD
 70
     0
  9
$DIMSAH
 70
     1
  9
$DIMBLK1
  1
OPEN
  9
$DIMBLK2
  1
OPEN
  9
$DIMSTYLE
  2
STANDARD
  9
$DIMCLRD
 70
     0
  9
$DIMCLRE
 70
     0
  9
$DIMCLRT
 70
     0
  9
$DIMTFAC
 40
1.0
  9
$DIMGAP
 40
1.0
  9
$DIMJUST
 70
     0
  9
$DIMSD1
 70
     0
  9
$DIMSD2
 70
     0
  9
$DIMTOLJ
 70
     1
  9
$DIMTZIN
 70
     0
  9
$DIMALTZ
 70
     0
  9
$DIMALTTZ
 70
     0
  9
$DIMUPT
 70
     0
  9
$DIMDEC
 70
     4
  9
$DIMTDEC
 70
     4
  9
$DIMALTU
 70
     2
  9
$DIMALTTD
 70
     2
  9
$DIMTXSTY
  7
STANDARD
  9
$DIMAUNIT
 70
     0
  9
$DIMADEC
 70
     0
  9
$DIMALTRND
 40
0.0
  9
$DIMAZIN
 70
     0
  9
$DIMDSEP
 70
    46
  9
$DIMATFIT
 70
     3
  9
$DIMFRAC
 70
     0
  9
$DIMLDRBLK
  1
OPEN
  9
$DIMLUNIT
 70
     2
  9
$DIMLWD
 70
    -2
  9
$DIMLWE
 70
    -2
  9
$DIMTMOVE
 70
     0
  9
$LUNITS
 70
     2
  9
$LUPREC
 70
     4
  9
$SKETCHINC
 40
1.0
  9
$FILLETRAD
 40
3.0
  9
$AUNITS
 70
     0
  9
$AUPREC
 70
     0
  9
$MENU
  1
.
  9
$ELEVATION
 40
0.0
  9
$PELEVATION
 40
0.0
  9
$THICKNESS
 40
0.0
  9
$LIMCHECK
 70
     0
  9
$CHAMFERA
 40
10.0
  9
$CHAMFERB
 40
10.0
  9
$CHAMFERC
 40
20.0
  9
$CHAMFERD
 40
0.0
  9
$SKPOLY
 70
     0
  9
$TDCREATE
 40
2452051.395592083
  9
$TDUCREATE
 40
2452051.020592084
  9
$TDUPDATE
 40
2457192.602071806
  9
$TDUUPDATE
 40
2457192.227071806
  9
$TDINDWG
 40
0.3309123958
  9
$TDUSRTIMER
 40
0.3309123727
  9
$USRTIMER
 70
     1
  9
$ANGBASE
 50
0.0
  9
$ANGDIR
 70
     0
  9
$PDMODE
 70
     0
  9
$PDSIZE
 40
0.0
  9
$PLINEWID
 40
0.0
  9
$SPLFRAME
 70
     0
  9
$SPLINETYPE
 70
     6
  9
$SPLINESEGS
 70
     8
  9
$HANDSEED
  5
88C0
  9
$SURFTAB1
 70
     6
  9
$SURFTAB2
 70
     6
  9
$SURFTYPE
 70
     6
  9
$SURFU
 70
     6
  9
$SURFV
 70
     6
  9
$UCSBASE
  2

  9
$UCSNAME
  2

  9
$UCSORG
 10
0.0
 20
0.0
 30
0.0
  9
$UCSXDIR
 10
1.0
 20
0.0
 30
0.0
  9
$UCSYDIR
 10
0.0
 20
1.0
 30
0.0
  9
$UCSORTHOREF
  2

  9
$UCSORTHOVIEW
 70
     0
  9
$UCSORGTOP
 10
0.0
 20
0.0
 30
0.0
  9
$UCSORGBOTTOM
 10
0.0
 20
0.0
 30
0.0
  9
$UCSORGLEFT
 10
0.0
 20
0.0
 30
0.0
  9
$UCSORGRIGHT
 10
0.0
 20
0.0
 30
0.0
  9
$UCSORGFRONT
 10
0.0
 20
0.0
 30
0.0
  9
$UCSORGBACK
 10
0.0
 20
0.0
 30
0.0
  9
$PUCSBASE
  2

  9
$PUCSNAME
  2

  9
$PUCSORG
 10
0.0
 20
0.0
 30
0.0
  9
$PUCSXDIR
 10
1.0
 20
0.0
 30
0.0
  9
$PUCSYDIR
 10
0.0
 20
1.0
 30
0.0
  9
$PUCSORTHOREF
  2

  9
$PUCSORTHOVIEW
 70
     0
  9
$PUCSORGTOP
 10
0.0
 20
0.0
 30
0.0
  9
$PUCSORGBOTTOM
 10
0.0
 20
0.0
 30
0.0
  9
$PUCSORGLEFT
 10
0.0
 20
0.0
 30
0.0
  9
$PUCSORGRIGHT
 10
0.0
 20
0.0
 30
0.0
  9
$PUCSORGFRONT
 10
0.0
 20
0.0
 30
0.0
  9
$PUCSORGBACK
 10
0.0
 20
0.0
 30
0.0
  9
$USERI1
 70
     0
  9
$USERI2
 70
     0
  9
$USERI3
 70
     0
  9
$USERI4
 70
     0
  9
$USERI5
 70
     0
  9
$USERR1
 40
0.0
  9
$USERR2
 40
0.0
  9
$USERR3
 40
0.0
  9
$USERR4
 40
0.0
  9
$USERR5
 40
0.0
  9
$WORLDVIEW
 70
     1
  9
$SHADEDGE
 70
     3
  9
$SHADEDIF
 70
    70
  9
$TILEMODE
 70
     1
  9
$MAXACTVP
 70
    48
  9
$PINSBASE
 10
0.0
 20
0.0
 30
0.0
  9
$PLIMCHECK
 70
     0
  9
$PEXTMIN
 10
1.000000000000000E+20
 20
1.000000000000000E+20
 30
1.000000000000000E+20
  9
$PEXTMAX
 10
-1.000000000000000E+20
 20
-1.000000000000000E+20
 30
-1.000000000000000E+20
  9
$PLIMMIN
 10
0.0
 20
0.0
  9
$PLIMMAX
 10
420.0
 20
297.0
  9
$UNITMODE
 70
     0
  9
$VISRETAIN
 70
     1
  9
$PLINEGEN
 70
     0
  9
$PSLTSCALE
 70
     1
  9
$TREEDEPTH
 70
  3020
  9
$CMLSTYLE
  2
STANDARD
  9
$CMLJUST
 70
     0
  9
$CMLSCALE
 40
20.0
  9
$PROXYGRAPHICS
 70
     1
  9
$MEASUREMENT
 70
     0
  9
$CELWEIGHT
370
    -1
  9
$ENDCAPS
280
     0
  9
$JOINSTYLE
280
     0
  9
$LWDISPLAY
290
     0
  9
$INSUNITS
 70
     0
  9
$HYPERLINKBASE
  1

  9
$STYLESHEET
  1

  9
$XEDIT
290
     1
  9
$CEPSNTYPE
380
     0
  9
$PSTYLEMODE
290
     1
  9
$FINGERPRINTGUID
  2
{D243D48C-B88A-4624-AAAA-346B03A0E69B}
  9
$VERSIONGUID
  2
{F3D1A1E4-C597-41B4-9C7A-77171478BB93}
  9
$EXTNAMES
290
     1
  9
$PSVPSCALE
 40
0.0
  9
$OLESTARTUP
290
     0
  0
ENDSEC
  0
SECTION
  2
CLASSES
  0
CLASS
  1
ACDBDICTIONARYWDFLT
  2
AcDbDictionaryWithDefault
  3
ObjectDBX Classes
 90
        0
280
     0
281
     0
  0
CLASS
  1
ACDBPLACEHOLDER
  2
AcDbPlaceHolder
  3
ObjectDBX Classes
 90
        0
280
     0
281
     0
  0
CLASS
  1
LAYOUT
  2
AcDbLayout
  3
ObjectDBX Classes
 90
        0
280
     0
281
     0
  0
CLASS
  1
DICTIONARYVAR
  2
AcDbDictionaryVar
  3
ObjectDBX Classes
 90
        0
280
     0
281
     0
  0
CLASS
  1
MATERIAL
  2
AcDbMaterial
  3
ObjectDBX Classes
 90
     1153
280
     0
281
     0
  0
CLASS
  1
VISUALSTYLE
  2
AcDbVisualStyle
  3
ObjectDBX Classes
 90
     4095
280
     0
281
     0
  0
CLASS
  1
TABLESTYLE
  2
AcDbTableStyle
  3
ObjectDBX Classes
 90
     4095
280
     0
281
     0
  0
CLASS
  1
SCALE
  2
AcDbScale
  3
ObjectDBX Classes
 90
     1153
280
     0
281
     0
  0
CLASS
  1
MLEADERSTYLE
  2
AcDbMLeaderStyle
  3
ACDB_MLEADERSTYLE_CLASS
 90
     4095
280
     0
281
     0
  0
CLASS
  1
ACDBSECTIONVIEWSTYLE
  2
AcDbSectionViewStyle
  3
ObjectDBX Classes
 90
     1025
280
     0
281
     0
  0
CLASS
  1
ACDBDETAILVIEWSTYLE
  2
AcDbDetailViewStyle
  3
ObjectDBX Classes
 90
     1025
280
     0
281
     0
  0
CLASS
  1
CELLSTYLEMAP
  2
AcDbCellStyleMap
  3
ObjectDBX Classes
 90
     1152
280
     0
281
     0
  0
ENDSEC
  0
SECTION
  2
TABLES
  0
TABLE
  2
VPORT
  5
8
330
0
100
AcDbSymbolTable
 70
     1
  0
VPORT
  5
880A
330
8
100
AcDbSymbolTableRecord
100
AcDbViewportTableRecord
  2
*ACTIVE
 70
     0
 10
0.0
 20
0.0
 11
1.0
 21
1.0
 12
576.7448264245985
 22
167.0675363551709
 13
0.0
 23
0.0
 14
10.0
 24
10.0
 15
10.0
 25
10.0
 16
0.0
 26
0.0
 36
1.0
 17
0.0
 27
0.0
 37
0.0
 40
483.9990881804643
 41
1.899603698811096
 42
50.0
 43
0.0
 44
0.0
 50
0.0
 51
0.0
 71
     0
 72
   100
 73
     1
 74
     0
 75
     0
 76
     0
 77
     0
 78
     0
281
     0
 65
     1
110
0.0
120
0.0
130
0.0
111
1.0
121
0.0
131
0.0
112
0.0
122
1.0
132
0.0
 79
     0
146
0.0
1001
ACAD_NAV_VCDISPLAY
1070
     3
  0
ENDTAB
  0
TABLE
  2
LTYPE
  5
5
330
0
100
AcDbSymbolTable
 70
     4
  0
LTYPE
  5
12
330
5
100
AcDbSymbolTableRecord
100
AcDbLinetypeTableRecord
  2
BYBLOCK
 70
     0
  3

 72
    65
 73
     0
 40
0.0
  0
LTYPE
  5
13
330
5
100
AcDbSymbolTableRecord
100
AcDbLinetypeTableRecord
  2
BYLAYER
 70
     0
  3

 72
    65
 73
     0
 40
0.0
  0
LTYPE
  5
14
330
5
100
AcDbSymbolTableRecord
100
AcDbLinetypeTableRecord
  2
CONTINUOUS
 70
     0
  3
Solid line
 72
    65
 73
     0
 40
0.0
  0
LTYPE
  5
4B
330
5
100
AcDbSymbolTableRecord
100
AcDbLinetypeTableRecord
  2
DASHED
 70
     0
  3
Dashed __ __ __ __ __ __ __ __ __ __ __ __ __ _
 72
    65
 73
     2
 40
19.04999999999999
 49
12.7
 74
     0
 49
-6.349999999999998
 74
     0
  0
LTYPE
  5
4C
330
5
100
AcDbSymbolTableRecord
100
AcDbLinetypeTableRecord
  2
CENTER
 70
     0
  3
Center ____ _ ____ _ ____ _ ____ _ ____ _ ____
 72
    65
 73
     4
 40
50.8
 49
31.75
 74
     0
 49
-6.349999999999998
 74
     0
 49
6.349999999999998
 74
     0
 49
-6.349999999999998
 74
     0
  0
LTYPE
  5
4D
330
5
100
AcDbSymbolTableRecord
100
AcDbLinetypeTableRecord
  2
PHANTOM
 70
     0
  3
Phantom ______  __  __  ______  __  __  ______
 72
    65
 73
     6
 40
63.5
 49
31.75
 74
     0
 49
-6.349999999999998
 74
     0
 49
6.349999999999998
 74
     0
 49
-6.349999999999998
 74
     0
 49
6.349999999999998
 74
     0
 49
-6.349999999999998
 74
     0
  0
ENDTAB
  0
TABLE
  2
LAYER
  5
2
330
0
100
AcDbSymbolTable
 70
     8
  0
LAYER
  5
E
102
{ACAD_XDICTIONARY
360
8864
102
}
330
2
100
AcDbSymbolTableRecord
100
AcDbLayerTableRecord
  2
0
 70
     0
 62
     7
  6
CONTINUOUS
370
    -3
390
8813
  0
LAYER
  5
4E
102
{ACAD_XDICTIONARY
360
8866
102
}
330
2
100
AcDbSymbolTableRecord
100
AcDbLayerTableRecord
  2
4
 70
     0
 62
     1
  6
CENTER
370
    -3
390
8813
  0
LAYER
  5
4F
102
{ACAD_XDICTIONARY
360
8868
102
}
330
2
100
AcDbSymbolTableRecord
100
AcDbLayerTableRecord
  2
5
 70
     0
 62
     6
  6
PHANTOM
370
    -3
390
8813
  0
LAYER
  5
50
102
{ACAD_XDICTIONARY
360
886A
102
}
330
2
100
AcDbSymbolTableRecord
100
AcDbLayerTableRecord
  2
1
 70
     0
 62
     7
  6
CONTINUOUS
370
    -3
390
8813
  0
LAYER
  5
51
102
{ACAD_XDICTIONARY
360
886C
102
}
330
2
100
AcDbSymbolTableRecord
100
AcDbLayerTableRecord
  2
2
 70
     0
 62
     4
  6
CONTINUOUS
370
    -3
390
8813
  0
LAYER
  5
52
102
{ACAD_XDICTIONARY
360
886E
102
}
330
2
100
AcDbSymbolTableRecord
100
AcDbLayerTableRecord
  2
3
 70
     0
 62
     2
  6
DASHED
370
    -3
390
8813
  0
LAYER
  5
53
102
{ACAD_XDICTIONARY
360
8870
102
}
330
2
100
AcDbSymbolTableRecord
100
AcDbLayerTableRecord
  2
6
 70
     0
 62
     5
  6
CONTINUOUS
370
    -3
390
8813
  0
LAYER
  5
54
102
{ACAD_XDICTIONARY
360
8872
102
}
330
2
100
AcDbSymbolTableRecord
100
AcDbLayerTableRecord
  2
7
 70
     0
 62
     3
  6
CONTINUOUS
370
    -3
390
8813
  0
ENDTAB
  0
TABLE
  2
STYLE
  5
3
330
0
100
AcDbSymbolTable
 70
     1
  0
STYLE
  5
F
330
3
100
AcDbSymbolTableRecord
100
AcDbTextStyleTableRecord
  2
STANDARD
 70
     0
 40
0.0
 41
1.0
 50
0.0
 71
     0
 42
2.5
  3
simplex.shx
  4

  0
ENDTAB
  0
TABLE
  2
VIEW
  5
6
330
0
100
AcDbSymbolTable
 70
     0
  0
ENDTAB
  0
TABLE
  2
UCS
  5
7
330
0
100
AcDbSymbolTable
 70
     0
  0
ENDTAB
  0
TABLE
  2
APPID
  5
9
330
0
100
AcDbSymbolTable
 70
     5
  0
APPID
  5
10
330
9
100
AcDbSymbolTableRecord
100
AcDbRegAppTableRecord
  2
ACAD
 70
     0
  0
APPID
  5
3E
330
9
100
AcDbSymbolTableRecord
100
AcDbRegAppTableRecord
  2
CONTENTTABDATA
 70
     0
  0
APPID
  5
3F
330
9
100
AcDbSymbolTableRecord
100
AcDbRegAppTableRecord
  2
CONTENTCURRENTTAB
 70
     0
  0
APPID
  5
887E
330
9
100
AcDbSymbolTableRecord
100
AcDbRegAppTableRecord
  2
ACAD_NAV_VCDISPLAY
 70
     0
  0
APPID
  5
88B7
330
9
100
AcDbSymbolTableRecord
100
AcDbRegAppTableRecord
  2
ACAD_MLEADERVER
 70
     0
  0
ENDTAB
  0
TABLE
  2
DIMSTYLE
  5
A
330
0
100
AcDbSymbolTable
 70
     1
100
AcDbDimStyleTable
 71
     0
  0
DIMSTYLE
105
1D
330
A
100
AcDbSymbolTableRecord
100
AcDbDimStyleTableRecord
  2
STANDARD
 70
     0
 41
3.0
 42
1.0
 43
10.0
 44
1.0
 73
     0
 74
     0
 77
     3
 78
     8
140
3.2
141
0.0
147
1.0
172
     1
173
     1
340
F
341
2E
343
2E
344
2E
  0
ENDTAB
  0
TABLE
  2
BLOCK_RECORD
  5
1
330
0
100
AcDbSymbolTable
 70
     1
  0
BLOCK_RECORD
  5
18
102
{ACAD_XDICTIONARY
360
880D
102
}
330
1
100
AcDbSymbolTableRecord
100
AcDbBlockTableRecord
  2
*MODEL_SPACE
340
8861
  0
BLOCK_RECORD
  5
15
102
{ACAD_XDICTIONARY
360
880B
102
}
330
1
100
AcDbSymbolTableRecord
100
AcDbBlockTableRecord
  2
*PAPER_SPACE
340
8862
  0
BLOCK_RECORD
  5
2E
330
1
100
AcDbSymbolTableRecord
100
AcDbBlockTableRecord
  2
_OPEN
340
0
  0
ENDTAB
  0
ENDSEC
  0
SECTION
  2
BLOCKS
  0
BLOCK
  5
19
330
18
100
AcDbEntity
  8
0
100
AcDbBlockBegin
  2
*MODEL_SPACE
 70
     0
 10
0.0
 20
0.0
 30
0.0
  3
*MODEL_SPACE
  1

  0
ENDBLK
  5
1A
330
18
100
AcDbEntity
  8
0
100
AcDbBlockEnd
  0
BLOCK
  5
16
330
15
100
AcDbEntity
 67
     1
  8
0
100
AcDbBlockBegin
  2
*PAPER_SPACE
 70
     0
 10
0.0
 20
0.0
 30
0.0
  3
*PAPER_SPACE
  1

  0
ENDBLK
  5
17
330
15
100
AcDbEntity
 67
     1
  8
0
100
AcDbBlockEnd
  0
BLOCK
  5
2F
330
2E
100
AcDbEntity
  8
0
100
AcDbBlockBegin
  2
_OPEN
 70
     0
 10
0.0
 20
0.0
 30
0.0
  3
_OPEN
  1

  0
LINE
  5
30
330
2E
100
AcDbEntity
  8
0
  6
ByBlock
 62
     0
100
AcDbLine
 10
-1.0
 20
0.1666666666666666
 30
0.0
 11
0.0
 21
0.0
 31
0.0
  0
LINE
  5
31
330
2E
100
AcDbEntity
  8
0
  6
ByBlock
 62
     0
100
AcDbLine
 10
0.0
 20
0.0
 30
0.0
 11
-1.0
 21
-0.1666666666666666
 31
0.0
  0
LINE
  5
32
330
2E
100
AcDbEntity
  8
0
  6
ByBlock
 62
     0
100
AcDbLine
 10
0.0
 20
0.0
 30
0.0
 11
-1.0
 21
0.0
 31
0.0
  0
ENDBLK
  5
33
330
2E
100
AcDbEntity
  8
0
100
AcDbBlockEnd
  0
ENDSEC
  0
SECTION
  2
ENTITIES
  0
TEXT
  5
63
330
18
100
AcDbEntity
  8
4
  6
CENTER
 48
0.25
100
AcDbText
 10
23.97950852663849
 20
10.0
 30
0.0
 40
1.399999999999999
  1
4
100
AcDbText
  0
TEXT
  5
64
330
18
100
AcDbEntity
  8
7
  6
Continuous
 48
0.25
100
AcDbText
 10
9.999997526638502
 20
26.0000007607689
 30
0.0
 40
3.0
  1
CODE No.1998
100
AcDbText
  0
TEXT
  5
65
330
18
100
AcDbEntity
  8
7
  6
Continuous
 48
0.25
100
AcDbText
 10
9.999997526638502
 20
18.00000076076889
 30
0.0
 40
3.0
  1
TYPE No.TL-346K
100
AcDbText
  0
TEXT
  5
66
330
18
100
AcDbEntity
  8
1
  6
Continuous
 48
0.25
100
AcDbText
 10
9.999997526638502
 20
10.00000076076889
 30
0.0
 40
1.399999999999999
  1
LAYER
100
AcDbText
  0
TEXT
  5
67
330
18
100
AcDbEntity
  8
2
  6
Continuous
 48
0.25
100
AcDbText
 10
19.9795085266385
 20
10.0
 30
0.0
 40
1.399999999999999
  1
2
100
AcDbText
  0
TEXT
  5
68
330
18
100
AcDbEntity
  8
3
  6
DASHED
 48
0.25
100
AcDbText
 10
21.9795085266385
 20
10.0
 30
0.0
 40
1.399999999999999
  1
3
100
AcDbText
  0
TEXT
  5
69
330
18
100
AcDbEntity
  8
1
  6
Continuous
 48
0.25
100
AcDbText
 10
17.9795085266385
 20
10.0
 30
0.0
 40
1.399999999999999
  1
1
100
AcDbText
  0
TEXT
  5
6A
330
18
100
AcDbEntity
  8
5
  6
PHANTOM
 48
0.25
100
AcDbText
 10
25.9795085266385
 20
10.0
 30
0.0
 40
1.399999999999999
  1
5
100
AcDbText
  0
TEXT
  5
6B
330
18
100
AcDbEntity
  8
6
  6
Continuous
 48
0.25
100
AcDbText
 10
27.9795085266385
 20
10.0
 30
0.0
 40
1.399999999999999
  1
6
100
AcDbText
  0
TEXT
  5
6C
330
18
100
AcDbEntity
  8
7
  6
Continuous
 48
0.25
100
AcDbText
 10
29.9795085266385
 20
10.0
 30
0.0
 40
1.399999999999999
  1
7
100
AcDbText
  0
LINE
  5
20C
330
18
100
AcDbEntity
  8
1
  6
Continuous
100
AcDbLine
 10
217.6816792563
 20
114.5850646336613
 30
0.0
 11
217.6816792563398
 21
163.0664404142065
 31
0.0
  0
LINE
  5
20D
330
18
100
AcDbEntity
  8
1
  6
Continuous
100
AcDbLine
 10
257.6816792562486
 20
114.5850646336613
 30
0.0
 11
257.6816792563093
 21
163.066440414138
 31
0.0
  0
ARC
  5
20E
330
18
100
AcDbEntity
  8
1
  6
Continuous
100
AcDbCircle
 10
476.3191603619806
 20
107.6076944784041
 30
0.0
 40
50.0
100
AcDbArc
 50
144.4801945393986
 51
169.5998723654299
  0
ARC
  5
20F
330
18
100
AcDbEntity
  8
1
  6
Continuous
100
AcDbCircle
 10
468.1816792563417
 20
136.1638486623419
 30
0.0
 40
50.0
100
AcDbArc
 50
180.0
 51
203.6819072912066
  0
LINE
  5
210
330
18
100
AcDbEntity
  8
4
  6
CENTER
 48
0.1
100
AcDbLine
 10
426.6816792563518
 20
117.0850646339806
 30
0.0
 11
422.6816792563518
 21
117.0850646339806
 31
0.0
  0
ARC
  5
211
330
18
100
AcDbEntity
  8
1
  6
Continuous
100
AcDbCircle
 10
424.6816792563516
 20
117.0850646339807
 30
0.0
 40
2.5
100
AcDbArc
 50
203.6819072912066
 51
349.5998723654299
  0
LINE
  5
217
330
18
100
AcDbEntity
  8
4
  6
CENTER
 48
0.1
100
AcDbLine
 10
424.6816792563516
 20
119.0850646339806
 30
0.0
 11
424.6816792563516
 21
115.0850646339806
 31
0.0
  0
LINE
  5
21A
330
18
100
AcDbEntity
  8
1
  6
Continuous
100
AcDbLine
 10
254.6816792562489
 20
114.5850646336612
 30
0.0
 11
220.6816792562485
 21
114.5850646336612
 31
0.0
  0
LINE
  5
221
330
18
100
AcDbEntity
  8
1
  6
Continuous
100
AcDbLine
 10
257.6816792562486
 20
114.5850646336612
 30
0.0
 11
256.1816792562532
 21
114.5850646336612
 31
0.0
  0
LINE
  5
222
330
18
100
AcDbEntity
  8
1
  6
Continuous
100
AcDbLine
 10
256.1816792562507
 20
116.0850646336026
 30
0.0
 11
256.1816792562532
 21
114.5850646336607
 31
0.0
  0
LINE
  5
223
330
18
100
AcDbEntity
  8
1
  6
Continuous
100
AcDbLine
 10
256.1816792562041
 20
116.0850646336026
 30
0.0
 11
257.6816792561486
 21
116.085064633597
 31
0.0
  0
ARC
  5
224
330
18
100
AcDbEntity
  8
1
  6
Continuous
100
AcDbCircle
 10
256.1816792561736
 20
114.5850646336284
 30
0.0
 40
1.499999999974221
100
AcDbArc
 50
89.99999999981758
 51
179.9999999998176
  0
LINE
  5
22A
330
18
100
AcDbEntity
  8
1
  6
Continuous
100
AcDbLine
 10
219.1816792562485
 20
116.0850646336613
 30
0.0
 11
217.681679256304
 21
116.0850646336605
 31
0.0
  0
LINE
  5
22B
330
18
100
AcDbEntity
  8
1
  6
Continuous
100
AcDbLine
 10
219.1816792562485
 20
114.5850646336612
 30
0.0
 11
217.6816792563001
 21
114.5850646336612
 31
0.0
  0
LINE
  5
22C
330
18
100
AcDbEntity
  8
1
  6
Continuous
100
AcDbLine
 10
219.1816792562485
 20
114.5850646336613
 30
0.0
 11
219.1816792562485
 21
116.0850646336613
 31
0.0
  0
ARC
  5
22D
330
18
100
AcDbEntity
  8
1
  6
Continuous
100
AcDbCircle
 10
219.1816792562743
 20
114.5850646336871
 30
0.0
 40
1.499999999974221
100
AcDbArc
 50
0.0
 51
90.0
  0
LINE
  5
232
330
18
100
AcDbEntity
  8
1
  6
Continuous
100
AcDbLine
 10
436.181679256342
 20
159.5850646339772
 30
0.0
 11
436.181679256342
 21
195.3170113923573
 31
0.0
  0
ARC
  5
233
330
18
100
AcDbEntity
  8
1
  6
Continuous
100
AcDbCircle
 10
515.0438416365748
 20
168.3181695283549
 30
0.0
 40
101.5
100
AcDbArc
 50
154.3096944255992
 51
168.1313383972841
  0
LINE
  5
236
330
18
100
AcDbEntity
  8
1
  6
Continuous
100
AcDbLine
 10
437.1816792563453
 20
125.0850646343913
 30
0.0
 11
437.1816792563449
 21
193.5850646343912
 31
0.0
  0
LINE
  5
237
330
18
100
AcDbEntity
  8
1
  6
Continuous
100
AcDbLine
 10
418.181679256342
 20
136.1638486623418
 30
0.0
 11
418.181679256342
 21
182.0850646334719
 31
0.0
  0
LINE
  5
238
330
18
100
AcDbEntity
  8
1
  6
Continuous
100
AcDbLine
 10
435.1816792563421
 20
159.0850646339773
 30
0.0
 11
435.1816792563421
 21
151.0850646340787
 31
0.0
  0
ARC
  5
239
330
18
100
AcDbEntity
  8
1
  6
Continuous
100
AcDbCircle
 10
433.1816792563421
 20
138.3998643249847
 30
0.0
 40
3.0
100
AcDbArc
 50
324.4801945393986
 51
0.0
  0
LINE
  5
23A
330
18
100
AcDbEntity
  8
1
  6
Continuous
100
AcDbLine
 10
435.1816792563453
 20
125.0850646343914
 30
0.0
 11
437.1816792563453
 21
125.0850646343914
 31
0.0
  0
LINE
  5
23C
330
18
100
AcDbEntity
  8
1
  6
Continuous
100
AcDbLine
 10
435.1816792563452
 20
125.0850646343913
 30
0.0
 11
435.1816792563441
 21
136.0278923715113
 31
0.0
  0
LINE
  5
23D
330
18
100
AcDbEntity
  8
1
  6
Continuous
100
AcDbLine
 10
435.1816792563417
 20
151.085064634079
 30
0.0
 11
436.1816792563418
 21
150.585064634079
 31
0.0
  0
LINE
  5
23E
330
18
100
AcDbEntity
  8
1
  6
Continuous
100
AcDbLine
 10
435.1816792563424
 20
152.0850646342407
 30
0.0
 11
437.1816792565306
 21
152.0850646342378
 31
0.0
  0
LINE
  5
23F
330
18
100
AcDbEntity
  8
1
  6
Continuous
100
AcDbLine
 10
436.1816792563421
 20
138.3998643249848
 30
0.0
 11
436.181679256342
 21
150.5850646340789
 31
0.0
  0
LINE
  5
242
330
18
100
AcDbEntity
  8
1
  6
Continuous
100
AcDbLine
 10
431.181679256342
 20
171.885064633473
 30
0.0
 11
424.000161690883
 21
171.885064633473
 31
0.0
  0
LINE
  5
244
330
18
100
AcDbEntity
  8
1
  6
Continuous
100
AcDbLine
 10
422.0731388116452
 20
165.302508391638
 30
0.0
 11
433.0472899172824
 21
165.302508391638
 31
0.0
  0
ARC
  5
247
330
18
100
AcDbEntity
  8
1
  6
Continuous
100
AcDbCircle
 10
431.181679256342
 20
176.8850646334731
 30
0.0
 40
5.0
100
AcDbArc
 50
270.0
 51
0.0
  0
LINE
  5
24A
330
18
100
AcDbEntity
  8
1
  6
Continuous
100
AcDbLine
 10
435.181679256342
 20
159.0850646339773
 30
0.0
 11
436.1816792563418
 21
159.5850646339773
 31
0.0
  0
LINE
  5
24B
330
18
100
AcDbEntity
  8
1
  6
Continuous
100
AcDbLine
 10
435.1816792563453
 20
159.0850646339381
 30
0.0
 11
437.1816792563462
 21
159.0850646339361
 31
0.0
  0
LINE
  5
24D
330
18
100
AcDbEntity
  8
4
  6
CENTER
 48
0.1
100
AcDbLine
 10
434.1816792563419
 20
176.0850646343914
 30
0.0
 11
439.1816792563449
 21
176.0850646343914
 31
0.0
  0
LINE
  5
24E
330
18
100
AcDbEntity
  8
1
  6
Continuous
100
AcDbLine
 10
436.1816792563418
 20
180.5850646342385
 30
0.0
 11
437.1816792560649
 21
180.5850646342377
 31
0.0
  0
LINE
  5
24F
330
18
100
AcDbEntity
  8
1
  6
Continuous
100
AcDbLine
 10
436.1816792563418
 20
184.5850646344045
 30
0.0
 11
437.1816792563608
 21
184.5850646344047
 31
0.0
  0
ARC
  5
253
330
18
100
AcDbEntity
  8
1
  6
Continuous
100
AcDbCircle
 10
424.000161690883
 20
176.8850646334731
 30
0.0
 40
5.0
100
AcDbArc
 50
188.3658861240324
 51
270.0
  0
LINE
  5
256
330
18
100
AcDbEntity
  8
1
  6
Continuous
100
AcDbLine
 10
419.0533660140586
 20
176.157594680999
 30
0.0
 11
417.1816792563418
 21
188.8850646334732
 31
0.0
  0
LINE
  5
258
330
18
100
AcDbEntity
  8
1
  6
Continuous
100
AcDbLine
 10
417.1816792563421
 20
188.885064633473
 30
0.0
 11
415.7137468206383
 21
189.1935680600499
 31
0.0
  0
ARC
  5
25B
330
18
100
AcDbEntity
  8
1
  6
Continuous
100
AcDbCircle
 10
427.181679256342
 20
210.5850646339761
 30
0.0
 40
4.0
100
AcDbArc
 50
90.0
 51
154.3096944256006
  0
LINE
  5
25E
330
18
100
AcDbEntity
  8
1
  6
Continuous
100
AcDbLine
 10
434.6816962950486
 20
202.9163479688879
 30
0.0
 11
434.6817019044856
 21
211.5850626927026
 31
0.0
  0
ARC
  5
260
330
18
100
AcDbEntity
  8
1
  6
Continuous
100
AcDbCircle
 10
426.1816913775956
 20
195.3170113923573
 30
0.0
 40
10.0
100
AcDbArc
 50
359.9999258489703
 51
22.33160793373832
  0
LINE
  5
261
330
18
100
AcDbEntity
  8
1
  6
Continuous
100
AcDbLine
 10
436.181679256342
 20
193.5850646343919
 30
0.0
 11
437.181679256352
 21
193.5850646343912
 31
0.0
  0
ARC
  5
265
330
18
100
AcDbEntity
  8
1
  6
Continuous
100
AcDbCircle
 10
444.6816962950443
 20
202.9163414979897
 30
0.0
 40
10.0
100
AcDbArc
 50
179.9999258489703
 51
202.3316079337383
  0
LINE
  5
269
330
18
100
AcDbEntity
  8
1
  6
Continuous
100
AcDbLine
 10
427.1816792563454
 20
214.5850646339762
 30
0.0
 11
431.6817019045195
 21
214.5850646339721
 31
0.0
  0
ARC
  5
26A
330
18
100
AcDbEntity
  8
1
  6
Continuous
100
AcDbCircle
 10
431.6817019045169
 20
211.5850646339722
 30
0.0
 40
3.0
100
AcDbArc
 50
359.9999999999511
 51
89.99999999995035
  0
LINE
  5
26E
330
18
100
AcDbEntity
  8
1
  6
Continuous
100
AcDbLine
 10
514.9923220321078
 20
201.4869835698848
 30
0.0
 11
509.681679256259
 21
204.5530846060911
 31
0.0
  0
LINE
  5
26F
330
18
100
AcDbEntity
  8
1
  6
Continuous
100
AcDbLine
 10
513.9923220321081
 20
199.7549327623161
 30
0.0
 11
508.6816792562591
 21
202.8210337985224
 31
0.0
  0
LINE
  5
270
330
18
100
AcDbEntity
  8
1
  6
Continuous
100
AcDbLine
 10
520.6816792562591
 20
214.0850597812383
 30
0.0
 11
520.6816792562633
 21
204.0850597812381
 31
0.0
  0
LINE
  5
271
330
18
100
AcDbEntity
  8
1
  6
Continuous
100
AcDbLine
 10
522.6816792562591
 20
214.0850597812387
 30
0.0
 11
522.6816792562633
 21
204.0850597812386
 31
0.0
  0
LINE
  5
272
330
18
100
AcDbEntity
  8
4
  6
CENTER
 48
0.1
100
AcDbLine
 10
519.6816792562635
 20
204.0850597812366
 30
0.0
 11
514.1816792562633
 21
204.0850597812366
 31
0.0
  0
LINE
  5
273
330
18
100
AcDbEntity
  8
1
  6
Continuous
100
AcDbLine
 10
520.6816792562632
 20
204.5850597812381
 30
0.0
 11
522.6816792562632
 21
204.5850597812389
 31
0.0
  0
ARC
  5
274
330
18
100
AcDbEntity
  8
1
  6
Continuous
100
AcDbCircle
 10
517.6816792562634
 20
204.0850597812368
 30
0.0
 40
4.999999805771492
100
AcDbArc
 50
269.9999999999307
 51
359.9999999999316
  0
LINE
  5
275
330
18
100
AcDbEntity
  8
4
  6
CENTER
 48
0.1
100
AcDbLine
 10
518.6816792562613
 20
209.0850597812382
 30
0.0
 11
524.6816792562611
 21
209.0850597812387
 31
0.0
  0
LINE
  5
277
330
18
100
AcDbEntity
  8
4
  6
CENTER
 48
0.1
100
AcDbLine
 10
517.6816792562633
 20
206.0850597812366
 30
0.0
 11
517.6816792562633
 21
202.0850597812366
 31
0.0
  0
ARC
  5
278
330
18
100
AcDbEntity
  8
1
  6
Continuous
100
AcDbCircle
 10
516.4923220321078
 20
204.0850597812381
 30
0.0
 40
3.0
100
AcDbArc
 50
240.0
 51
269.9999999999307
  0
ARC
  5
279
330
18
100
AcDbEntity
  8
1
  6
Continuous
100
AcDbCircle
 10
517.6816792562634
 20
204.0850597812368
 30
0.0
 40
3.0
100
AcDbArc
 50
269.9999999999307
 51
359.9999999999316
  0
ARC
  5
27A
330
18
100
AcDbEntity
  8
1
  6
Continuous
100
AcDbCircle
 10
516.4923220321078
 20
204.0850597812381
 30
0.0
 40
5.0
100
AcDbArc
 50
240.0
 51
269.9999999999307
  0
LINE
  5
27B
330
18
100
AcDbEntity
  8
1
  6
Continuous
100
AcDbLine
 10
516.4923220321019
 20
199.0850597812383
 30
0.0
 11
517.6816792562574
 21
199.0850597812368
 31
0.0
  0
LINE
  5
27C
330
18
100
AcDbEntity
  8
1
  6
Continuous
100
AcDbLine
 10
516.4923220321043
 20
201.0850597812383
 30
0.0
 11
517.6816792562599
 21
201.0850597812368
 31
0.0
  0
LINE
  5
27E
330
18
100
AcDbEntity
  8
1
  6
Continuous
100
AcDbLine
 10
520.6816792562591
 20
214.0850597812379
 30
0.0
 11
522.6816792562591
 21
214.0850597812387
 31
0.0
  0
LINE
  5
282
330
18
100
AcDbEntity
  8
1
  6
Continuous
100
AcDbLine
 10
508.6816792562591
 20
202.8210337985226
 30
0.0
 11
509.6816792562591
 21
204.5530846060912
 31
0.0
  0
LINE
  5
284
330
18
100
AcDbEntity
  8
4
  6
CENTER
 48
0.5
100
AcDbLine
 10
237.6816792562247
 20
111.5850646336612
 30
0.0
 11
237.6816792564606
 21
217.5850870917712
 31
0.0
  0
LINE
  5
285
330
18
100
AcDbEntity
  8
1
  6
Continuous
100
AcDbLine
 10
217.6816792563703
 20
171.8850646333375
 30
0.0
 11
217.6816792564735
 21
214.5850870917714
 31
0.0
  0
LINE
  5
286
330
18
100
AcDbEntity
  8
1
  6
Continuous
100
AcDbLine
 10
257.6816792563446
 20
171.8850646333816
 30
0.0
 11
257.6816792564481
 21
214.5850870917714
 31
0.0
  0
LINE
  5
289
330
18
100
AcDbEntity
  8
4
  6
CENTER
 48
0.5
100
AcDbLine
 10
260.1816792563937
 20
176.5850646334852
 30
0.0
 11
214.4816792564169
 21
176.5850646335497
 31
0.0
  0
LINE
  5
28A
330
18
100
AcDbEntity
  8
1
  6
Continuous
100
AcDbLine
 10
254.6816792563602
 20
189.1935680600499
 30
0.0
 11
220.6816792563857
 21
189.1935680600499
 31
0.0
  0
LINE
  5
28B
330
18
100
AcDbEntity
  8
1
  6
Continuous
100
AcDbLine
 10
254.6816792563938
 20
188.8850646334528
 30
0.0
 11
220.6816792563511
 21
188.8850646334932
 31
0.0
  0
LINE
  5
296
330
18
100
AcDbEntity
  8
4
  6
CENTER
 48
0.1
100
AcDbLine
 10
255.681679256385
 20
188.5850646343534
 30
0.0
 11
259.6816792563851
 21
188.5850646343677
 31
0.0
  0
LINE
  5
298
330
18
100
AcDbEntity
  8
1
  6
Continuous
100
AcDbLine
 10
256.1816792563448
 20
171.8850646333802
 30
0.0
 11
256.1816792563823
 21
187.3852870912355
 31
0.0
  0
LINE
  5
299
330
18
100
AcDbEntity
  8
1
  6
Continuous
100
AcDbLine
 10
255.6816792563125
 20
167.5385763691411
 30
0.0
 11
255.6816792563631
 21
188.5033210800675
 31
0.0
  0
ARC
  5
29C
330
18
100
AcDbEntity
  8
1
  6
Continuous
100
AcDbCircle
 10
254.6816792563082
 20
163.0664404141417
 30
0.0
 40
3.0
100
AcDbArc
 50
0.0
 51
48.18968510411369
  0
ARC
  5
2A0
330
18
100
AcDbEntity
  8
1
  6
Continuous
100
AcDbCircle
 10
258.6816792563165
 20
167.538576369134
 30
0.0
 40
3.0
100
AcDbArc
 50
180.0
 51
228.1896851041151
  0
LINE
  5
2A1
330
18
100
AcDbEntity
  8
1
  6
Continuous
100
AcDbLine
 10
257.6816792563448
 20
171.8850646333818
 30
0.0
 11
256.1816792563444
 21
171.8850646333804
 31
0.0
  0
LINE
  5
2A4
330
18
100
AcDbEntity
  8
1
  6
Continuous
100
AcDbLine
 10
258.1816792563882
 20
174.3350646334851
 30
0.0
 11
258.1816792563992
 21
178.8350646334852
 31
0.0
  0
ARC
  5
2A5
330
18
100
AcDbEntity
  8
1
  6
Continuous
100
AcDbCircle
 10
257.9316792563879
 20
174.3350646334858
 30
0.0
 40
0.2499999999995571
100
AcDbArc
 50
270.0
 51
0.0
  0
LINE
  5
2A6
330
18
100
AcDbEntity
  8
1
  6
Continuous
100
AcDbLine
 10
257.9316792563879
 20
174.0850646334863
 30
0.0
 11
257.681679256388
 21
174.0850646334861
 31
0.0
  0
LINE
  5
2A7
330
18
100
AcDbEntity
  8
1
  6
Continuous
100
AcDbLine
 10
255.6816792564267
 20
174.3350646333364
 30
0.0
 11
256.1816792563538
 21
174.3350646333364
 31
0.0
  0
ARC
  5
2A8
330
18
100
AcDbEntity
  8
1
  6
Continuous
100
AcDbCircle
 10
257.9316792563996
 20
178.8350646334859
 30
0.0
 40
0.2499999999995925
100
AcDbArc
 50
0.0
 51
90.0
  0
LINE
  5
2A9
330
18
100
AcDbEntity
  8
1
  6
Continuous
100
AcDbLine
 10
257.9316792563996
 20
179.0850646334852
 30
0.0
 11
257.6816792563997
 21
179.0850646334851
 31
0.0
  0
LINE
  5
2AA
330
18
100
AcDbEntity
  8
1
  6
Continuous
100
AcDbLine
 10
255.6816792564376
 20
178.8350646333364
 30
0.0
 11
256.1816792563538
 21
178.8350646333364
 31
0.0
  0
ARC
  5
2AE
330
18
100
AcDbEntity
  8
1
  6
Continuous
100
AcDbCircle
 10
254.7489164039476
 20
186.2615522193826
 30
0.0
 40
2.932786682311056
100
AcDbArc
 50
0.2309716127990148
 51
91.3136797022244
  0
ARC
  5
2AF
330
18
100
AcDbEntity
  8
1
  6
Continuous
100
AcDbCircle
 10
254.6816792564507
 20
187.3852870912394
 30
0.0
 40
1.5
100
AcDbArc
 50
0.0
 51
90.0
  0
LINE
  5
2C7
330
18
100
AcDbEntity
  8
1
  6
Continuous
100
AcDbLine
 10
216.4816792564169
 20
173.3350646334828
 30
0.0
 11
216.4816792564169
 21
179.8350646334828
 31
0.0
  0
LINE
  5
2C8
330
18
100
AcDbEntity
  8
1
  6
Continuous
100
AcDbLine
 10
219.1816792563703
 20
171.8850646333389
 30
0.0
 11
219.1816792564078
 21
187.3852870912429
 31
0.0
  0
LINE
  5
2C9
330
18
100
AcDbEntity
  8
1
  6
Continuous
100
AcDbLine
 10
219.6816792563379
 20
167.5385763692016
 30
0.0
 11
219.6816792563886
 21
188.503321079972
 31
0.0
  0
ARC
  5
2CB
330
18
100
AcDbEntity
  8
1
  6
Continuous
100
AcDbCircle
 10
220.6816792563366
 20
163.066440414204
 30
0.0
 40
3.0
100
AcDbArc
 50
131.8103148957
 51
180.0
  0
LINE
  5
2CF
330
18
100
AcDbEntity
  8
1
  6
Continuous
100
AcDbLine
 10
219.1816792563699
 20
171.8850646333389
 30
0.0
 11
217.6816792563778
 21
171.8850646333375
 31
0.0
  0
ARC
  5
2D0
330
18
100
AcDbEntity
  8
1
  6
Continuous
100
AcDbCircle
 10
216.6816792563429
 20
167.538576369209
 30
0.0
 40
3.0
100
AcDbArc
 50
311.8103148956991
 51
359.9999999997752
  0
LINE
  5
2D1
330
18
100
AcDbEntity
  8
1
  6
Continuous
100
AcDbLine
 10
216.4816792564167
 20
173.3350646334827
 30
0.0
 11
217.6816792564168
 21
173.3350646334838
 31
0.0
  0
LINE
  5
2D2
330
18
100
AcDbEntity
  8
4
  6
CENTER
 48
0.1
100
AcDbLine
 10
215.6816792564106
 20
188.5850646343619
 30
0.0
 11
219.6816792564106
 21
188.5850646343478
 31
0.0
  0
LINE
  5
2D8
330
18
100
AcDbEntity
  8
1
  6
Continuous
100
AcDbLine
 10
219.1816792564138
 20
174.3350646333363
 30
0.0
 11
219.6816792564523
 21
174.3350646333363
 31
0.0
  0
LINE
  5
2D9
330
18
100
AcDbEntity
  8
1
  6
Continuous
100
AcDbLine
 10
219.1816792564247
 20
178.8350646333362
 30
0.0
 11
219.681679256463
 21
178.8350646333362
 31
0.0
  0
LINE
  5
2DB
330
18
100
AcDbEntity
  8
1
  6
Continuous
100
AcDbLine
 10
216.4816792564167
 20
179.8350646334827
 30
0.0
 11
217.6816792564168
 21
179.8350646334835
 31
0.0
  0
ARC
  5
2DC
330
18
100
AcDbEntity
  8
1
  6
Continuous
100
AcDbCircle
 10
220.6144421088041
 20
186.261552219415
 30
0.0
 40
2.932786682278289
100
AcDbArc
 50
88.6863202978731
 51
179.7690283878358
  0
ARC
  5
2DD
330
18
100
AcDbEntity
  8
1
  6
Continuous
100
AcDbCircle
 10
220.6814893905205
 20
187.3852545110444
 30
0.0
 40
1.499810134466571
100
AcDbArc
 50
89.99274674144421
 51
179.9987553706828
  0
LINE
  5
2E7
330
18
100
AcDbEntity
  8
4
  6
CENTER
 48
0.5
100
AcDbLine
 10
260.1816792564361
 20
202.5850626921063
 30
0.0
 11
214.4816792564824
 21
202.5850626921075
 31
0.0
  0
LINE
  5
2E8
330
18
100
AcDbEntity
  8
4
  6
CENTER
 48
0.2
100
AcDbLine
 10
348.1816792563042
 20
204.0850597812233
 30
0.0
 11
307.1816792563692
 21
204.0850597812233
 31
0.0
  0
LINE
  5
2E9
330
18
100
AcDbEntity
  8
1
  6
Continuous
100
AcDbLine
 10
312.1816792563769
 20
204.5530846061897
 30
0.0
 11
343.1816792563119
 21
204.553084606073
 31
0.0
  0
LINE
  5
2EA
330
18
100
AcDbEntity
  8
1
  6
Continuous
100
AcDbLine
 10
312.1816792563621
 20
202.8210337985082
 30
0.0
 11
343.1816792562971
 21
202.8210337986163
 31
0.0
  0
LINE
  5
2EB
330
18
100
AcDbEntity
  8
4
  6
CENTER
 48
0.2
100
AcDbLine
 10
311.681679256342
 20
209.0850597812827
 30
0.0
 11
323.681679256342
 21
209.0850597812827
 31
0.0
  0
LINE
  5
2EC
330
18
100
AcDbEntity
  8
1
  6
Continuous
100
AcDbLine
 10
310.1816792563693
 20
199.0850597812766
 30
0.0
 11
345.1816792563042
 21
199.0850597812768
 31
0.0
  0
LINE
  5
2ED
330
18
100
AcDbEntity
  8
1
  6
Continuous
100
AcDbLine
 10
312.681679256342
 20
214.0850597812865
 30
0.0
 11
342.681679256342
 21
214.0850597812865
 31
0.0
  0
LINE
  5
2EE
330
18
100
AcDbEntity
  8
1
  6
Continuous
100
AcDbLine
 10
217.6816792564733
 20
214.5850870917712
 30
0.0
 11
257.6816792564478
 21
214.5850870917712
 31
0.0
  0
LINE
  5
2F4
330
18
100
AcDbEntity
  8
1
  6
Continuous
100
AcDbLine
 10
258.1816792564306
 20
200.3350626921063
 30
0.0
 11
258.1816792564416
 21
204.8350626921063
 31
0.0
  0
ARC
  5
2F5
330
18
100
AcDbEntity
  8
1
  6
Continuous
100
AcDbCircle
 10
257.9316792564303
 20
200.3350626921071
 30
0.0
 40
0.2499999999995571
100
AcDbArc
 50
270.0
 51
0.0
  0
LINE
  5
2F6
330
18
100
AcDbEntity
  8
1
  6
Continuous
100
AcDbLine
 10
257.9316792564303
 20
200.0850626921073
 30
0.0
 11
257.6816792564303
 21
200.0850626921071
 31
0.0
  0
LINE
  5
2F7
330
18
100
AcDbEntity
  8
1
  6
Continuous
100
AcDbLine
 10
257.9316792564419
 20
205.0850626921064
 30
0.0
 11
257.6816792564421
 21
205.0850626921064
 31
0.0
  0
ARC
  5
2F8
330
18
100
AcDbEntity
  8
1
  6
Continuous
100
AcDbCircle
 10
257.9316792564419
 20
204.835062692107
 30
0.0
 40
0.2499999999995925
100
AcDbArc
 50
0.0
 51
90.0
  0
LINE
  5
2F9
330
18
100
AcDbEntity
  8
1
  6
Continuous
100
AcDbLine
 10
256.1816792564425
 20
212.3190910998524
 30
0.0
 11
256.1816792564481
 21
214.5850870917748
 31
0.0
  0
LINE
  5
2FA
330
18
100
AcDbEntity
  8
1
  6
Continuous
100
AcDbLine
 10
257.6816792564424
 20
212.3190910998489
 30
0.0
 11
256.1816792564424
 21
212.3190910998489
 31
0.0
  0
ARC
  5
300
330
18
100
AcDbEntity
  8
1
  6
Continuous
100
AcDbCircle
 10
342.681679256342
 20
209.0850597812773
 30
0.0
 40
5.0
100
AcDbArc
 50
0.0
 51
90.0
  0
CIRCLE
  5
30F
330
18
100
AcDbEntity
  8
1
  6
Continuous
100
AcDbCircle
 10
337.681679256342
 20
209.0850597812832
 30
0.0
 40
2.149999999999999
  0
CIRCLE
  5
310
330
18
100
AcDbEntity
  8
1
  6
Continuous
100
AcDbCircle
 10
337.681679256342
 20
209.0850597812832
 30
0.0
 40
4.0
  0
LINE
  5
311
330
18
100
AcDbEntity
  8
4
  6
CENTER
 48
0.2
100
AcDbLine
 10
327.6816792563451
 20
217.0850597812865
 30
0.0
 11
327.6816792563367
 21
196.0850597812767
 31
0.0
  0
ARC
  5
312
330
18
100
AcDbEntity
  8
1
  6
Continuous
100
AcDbCircle
 10
343.1816792563042
 20
200.8210337986342
 30
0.0
 40
2.0
100
AcDbArc
 50
0.0
 51
90.0
  0
LINE
  5
313
330
18
100
AcDbEntity
  8
1
  6
Continuous
100
AcDbLine
 10
345.1816792563042
 20
204.5850597812831
 30
0.0
 11
345.1816792563042
 21
199.0850597812863
 31
0.0
  0
LINE
  5
314
330
18
100
AcDbEntity
  8
1
  6
Continuous
100
AcDbLine
 10
347.681679256342
 20
209.0850597812741
 30
0.0
 11
347.6816792563398
 21
205.5850597812823
 31
0.0
  0
ARC
  5
315
330
18
100
AcDbEntity
  8
1
  6
Continuous
100
AcDbCircle
 10
346.6816792563399
 20
205.5850597812831
 30
0.0
 40
1.0
100
AcDbArc
 50
270.0
 51
0.0
  0
LINE
  5
316
330
18
100
AcDbEntity
  8
1
  6
Continuous
100
AcDbLine
 10
345.1816792563042
 20
204.5850597812829
 30
0.0
 11
346.6816792563398
 21
204.5850597812829
 31
0.0
  0
ARC
  5
317
330
18
100
AcDbEntity
  8
1
  6
Continuous
100
AcDbCircle
 10
343.1816792563042
 20
202.553084606073
 30
0.0
 40
2.0
100
AcDbArc
 50
0.0
 51
90.0
  0
LINE
  5
31C
330
18
100
AcDbEntity
  8
1
  6
Continuous
100
AcDbLine
 10
216.4816792564824
 20
199.3350626920801
 30
0.0
 11
216.4816792564824
 21
205.83506269208
 31
0.0
  0
LINE
  5
31D
330
18
100
AcDbEntity
  8
1
  6
Continuous
100
AcDbLine
 10
216.4816792564821
 20
199.3350626920799
 30
0.0
 11
217.6816792564823
 21
199.335062692081
 31
0.0
  0
LINE
  5
31E
330
18
100
AcDbEntity
  8
1
  6
Continuous
100
AcDbLine
 10
216.4816792564822
 20
205.83506269208
 30
0.0
 11
217.6816792564823
 21
205.835062692081
 31
0.0
  0
LINE
  5
321
330
18
100
AcDbEntity
  8
1
  6
Continuous
100
AcDbLine
 10
217.6816792564202
 20
212.3190910998488
 30
0.0
 11
219.1816792564202
 21
212.3190910998488
 31
0.0
  0
LINE
  5
322
330
18
100
AcDbEntity
  8
1
  6
Continuous
100
AcDbLine
 10
219.1816792564202
 20
212.3190910998523
 30
0.0
 11
219.1816792564162
 21
214.5850870917748
 31
0.0
  0
ARC
  5
328
330
18
100
AcDbEntity
  8
1
  6
Continuous
100
AcDbCircle
 10
312.681679256342
 20
209.0850597812867
 30
0.0
 40
5.0
100
AcDbArc
 50
90.0
 51
180.0
  0
LINE
  5
329
330
18
100
AcDbEntity
  8
4
  6
CENTER
 48
0.2
100
AcDbLine
 10
317.681679256342
 20
203.0850597812832
 30
0.0
 11
317.6816792563418
 21
215.0850597812832
 31
0.0
  0
CIRCLE
  5
32A
330
18
100
AcDbEntity
  8
1
  6
Continuous
100
AcDbCircle
 10
317.681679256342
 20
209.0850597812832
 30
0.0
 40
4.0
  0
CIRCLE
  5
32B
330
18
100
AcDbEntity
  8
1
  6
Continuous
100
AcDbCircle
 10
317.681679256342
 20
209.0850597812832
 30
0.0
 40
2.149999999999999
  0
ARC
  5
32C
330
18
100
AcDbEntity
  8
1
  6
Continuous
100
AcDbCircle
 10
312.1816792563691
 20
200.8210337985083
 30
0.0
 40
2.0
100
AcDbArc
 50
90.0
 51
180.0
  0
LINE
  5
32D
330
18
100
AcDbEntity
  8
1
  6
Continuous
100
AcDbLine
 10
310.1816792563693
 20
204.5850597812829
 30
0.0
 11
310.1816792563693
 21
199.0850597812853
 31
0.0
  0
ARC
  5
32E
330
18
100
AcDbEntity
  8
1
  6
Continuous
100
AcDbCircle
 10
308.68167925634
 20
205.5850597812828
 30
0.0
 40
1.0
100
AcDbArc
 50
180.0
 51
270.0
  0
LINE
  5
32F
330
18
100
AcDbEntity
  8
1
  6
Continuous
100
AcDbLine
 10
308.6816792563398
 20
204.5850597812829
 30
0.0
 11
310.1816792563693
 21
204.5850597812829
 31
0.0
  0
ARC
  5
330
330
18
100
AcDbEntity
  8
1
  6
Continuous
100
AcDbCircle
 10
312.1816792563693
 20
202.5530846062078
 30
0.0
 40
2.0
100
AcDbArc
 50
90.0
 51
180.0
  0
LINE
  5
331
330
18
100
AcDbEntity
  8
1
  6
Continuous
100
AcDbLine
 10
307.681679256342
 20
209.0850597812894
 30
0.0
 11
307.6816792563398
 21
205.5850597812834
 31
0.0
  0
LINE
  5
335
330
18
100
AcDbEntity
  8
1
  6
Continuous
100
AcDbLine
 10
655.4816792563161
 20
138.585059781215
 30
0.0
 11
655.4816792563161
 21
148.5850597812149
 31
0.0
  0
LINE
  5
338
330
18
100
AcDbEntity
  8
1
  6
Continuous
100
AcDbLine
 10
621.9316792563919
 20
151.0850597812277
 30
0.0
 11
621.9316792564255
 21
130.085059781207
 31
0.0
  0
LINE
  5
33A
330
18
100
AcDbEntity
  8
4
  6
CENTER
 48
0.5
100
AcDbLine
 10
637.6816792564587
 20
111.5850646339807
 30
0.0
 11
637.6816792562634
 21
217.5850646339851
 31
0.0
  0
LINE
  5
33C
330
18
100
AcDbEntity
  8
1
  6
Continuous
100
AcDbLine
 10
648.4316792563758
 20
125.0850597812149
 30
0.0
 11
626.9316792564255
 21
125.0850597812149
 31
0.0
  0
LINE
  5
33D
330
18
100
AcDbEntity
  8
1
  6
Continuous
100
AcDbLine
 10
655.4816792563161
 20
138.585059781215
 30
0.0
 11
653.4316792563767
 21
138.5850597812149
 31
0.0
  0
LINE
  5
343
330
18
100
AcDbEntity
  8
1
  6
Continuous
100
AcDbLine
 10
653.4316792563767
 20
138.585059781215
 30
0.0
 11
653.4316792563758
 21
130.0850597812145
 31
0.0
  0
ARC
  5
344
330
18
100
AcDbEntity
  8
1
  6
Continuous
100
AcDbCircle
 10
648.4316792563756
 20
130.0850597812149
 30
0.0
 40
5.0
100
AcDbArc
 50
270.0
 51
0.000000000000007
  0
CIRCLE
  5
349
330
18
100
AcDbEntity
  8
1
  6
Continuous
100
AcDbCircle
 10
637.6816792564272
 20
133.0850597812831
 30
0.0
 40
2.25
  0
LINE
  5
34A
330
18
100
AcDbEntity
  8
4
  6
CENTER
 48
0.1
100
AcDbLine
 10
633.4316792564273
 20
133.0850597812831
 30
0.0
 11
641.9316792564273
 21
133.0850597812831
 31
0.0
  0
ARC
  5
34B
330
18
100
AcDbEntity
  8
1
  6
Continuous
100
AcDbCircle
 10
626.9316792564252
 20
130.085059781215
 30
0.0
 40
5.0
100
AcDbArc
 50
180.0
 51
270.0
  0
LINE
  5
34E
330
18
100
AcDbEntity
  8
4
  6
CENTER
 48
0.5
100
AcDbLine
 10
615.1816792562677
 20
202.5850578390238
 30
0.0
 11
660.8816792562216
 21
202.5850578389976
 31
0.0
  0
LINE
  5
351
330
18
100
AcDbEntity
  8
4
  6
CENTER
 48
0.5
100
AcDbLine
 10
615.1816792563103
 20
176.5850597803944
 30
0.0
 11
660.881679256287
 21
176.5850597804664
 31
0.0
  0
LINE
  5
353
330
18
100
AcDbEntity
  8
1
  6
Continuous
100
AcDbLine
 10
653.9316792563774
 20
184.585059781153
 30
0.0
 11
653.9316792563773
 21
193.5850597813086
 31
0.0
  0
LINE
  5
358
330
18
100
AcDbEntity
  8
1
  6
Continuous
100
AcDbLine
 10
653.4316792563774
 20
160.0850597811145
 30
0.0
 11
653.4316792563775
 21
180.0850597812394
 31
0.0
  0
LINE
  5
359
330
18
100
AcDbEntity
  8
1
  6
Continuous
100
AcDbLine
 10
657.6316792564162
 20
152.5850597812265
 30
0.0
 11
657.6316792563983
 21
158.5850597811261
 31
0.0
  0
LINE
  5
35A
330
18
100
AcDbEntity
  8
1
  6
Continuous
100
AcDbLine
 10
657.1316792564192
 20
152.0850597812263
 30
0.0
 11
654.4316792563807
 21
152.0850597812225
 31
0.0
  0
LINE
  5
35B
330
18
100
AcDbEntity
  8
1
  6
Continuous
100
AcDbLine
 10
653.431679256378
 20
148.5850597812147
 30
0.0
 11
655.4816792563161
 21
148.5850597812147
 31
0.0
  0
ARC
  5
35C
330
18
100
AcDbEntity
  8
1
  6
Continuous
100
AcDbCircle
 10
657.1316792564191
 20
152.5850597812265
 30
0.0
 40
0.5
100
AcDbArc
 50
270.0
 51
0.000000000000007
  0
ARC
  5
35D
330
18
100
AcDbEntity
  8
1
  6
Continuous
100
AcDbCircle
 10
654.4316792563778
 20
151.0850597812226
 30
0.0
 40
1.0
100
AcDbArc
 50
90.0
 51
180.0
  0
LINE
  5
35E
330
18
100
AcDbEntity
  8
1
  6
Continuous
100
AcDbLine
 10
653.431679256378
 20
148.5850597812149
 30
0.0
 11
653.431679256378
 21
151.0850597812226
 31
0.0
  0
LINE
  5
35F
330
18
100
AcDbEntity
  8
1
  6
Continuous
100
AcDbLine
 10
654.4316792563805
 20
159.0850597811141
 30
0.0
 11
657.6816792563645
 21
159.0850597811241
 31
0.0
  0
ARC
  5
360
330
18
100
AcDbEntity
  8
1
  6
Continuous
100
AcDbCircle
 10
657.1316792563983
 20
158.5850597811246
 30
0.0
 40
0.5
100
AcDbArc
 50
0.0000000001709936
 51
90.000000000171
  0
ARC
  5
361
330
18
100
AcDbEntity
  8
1
  6
Continuous
100
AcDbCircle
 10
654.4316792563773
 20
160.0850597811146
 30
0.0
 40
1.0
100
AcDbArc
 50
180.0
 51
270.0
  0
LINE
  5
362
330
18
100
AcDbEntity
  8
1
  6
Continuous
100
AcDbLine
 10
658.8816792562871
 20
173.3350597804003
 30
0.0
 11
658.8816792562871
 21
179.8350597804003
 31
0.0
  0
LINE
  5
363
330
18
100
AcDbEntity
  8
1
  6
Continuous
100
AcDbLine
 10
658.8816792562872
 20
173.3350597804002
 30
0.0
 11
657.6816792562872
 21
173.3350597804013
 31
0.0
  0
LINE
  5
364
330
18
100
AcDbEntity
  8
1
  6
Continuous
100
AcDbLine
 10
656.1816792562901
 20
174.3350597802538
 30
0.0
 11
655.6816792563465
 21
174.3350597802536
 31
0.0
  0
LINE
  5
367
330
18
100
AcDbEntity
  8
1
  6
Continuous
100
AcDbLine
 10
658.8816792562872
 20
179.8350597804002
 30
0.0
 11
657.6816792562872
 21
179.8350597804011
 31
0.0
  0
LINE
  5
368
330
18
100
AcDbEntity
  8
1
  6
Continuous
100
AcDbLine
 10
656.1816792562792
 20
178.8350597802538
 30
0.0
 11
655.6816792563356
 21
178.8350597802536
 31
0.0
  0
LINE
  5
369
330
18
100
AcDbEntity
  8
1
  6
Continuous
100
AcDbLine
 10
651.4316792563207
 20
184.5850597811552
 30
0.0
 11
653.9316792563774
 21
184.585059781153
 31
0.0
  0
ARC
  5
36A
330
18
100
AcDbEntity
  8
1
  6
Continuous
100
AcDbCircle
 10
652.9316792563772
 20
180.0850597812393
 30
0.0
 40
0.5
100
AcDbArc
 50
0.000000000000007
 51
90.0
  0
LINE
  5
36B
330
18
100
AcDbEntity
  8
1
  6
Continuous
100
AcDbLine
 10
652.9316792563753
 20
180.5850597812394
 30
0.0
 11
651.4316792563244
 21
180.5850597812334
 31
0.0
  0
LINE
  5
36C
330
18
100
AcDbEntity
  8
1
  6
Continuous
100
AcDbLine
 10
650.4316792563197
 20
183.5850597812336
 30
0.0
 11
650.4316792563197
 21
181.5850597812336
 31
0.0
  0
ARC
  5
36D
330
18
100
AcDbEntity
  8
1
  6
Continuous
100
AcDbCircle
 10
651.4316792563197
 20
183.5850597812335
 30
0.0
 40
1.0
100
AcDbArc
 50
90.000000000171
 51
180.0
  0
ARC
  5
36E
330
18
100
AcDbEntity
  8
1
  6
Continuous
100
AcDbCircle
 10
651.4316792563197
 20
181.5850597812336
 30
0.0
 40
1.0
100
AcDbArc
 50
180.0
 51
270.0
  0
LINE
  5
371
330
18
100
AcDbEntity
  8
4
  6
CENTER
 48
0.1
100
AcDbLine
 10
659.6816792562842
 20
188.5850597812833
 30
0.0
 11
651.9316792563775
 21
188.5850597812457
 31
0.0
  0
LINE
  5
372
330
18
100
AcDbEntity
  8
1
  6
Continuous
100
AcDbLine
 10
658.8816792562218
 20
205.8350578389976
 30
0.0
 11
657.6816792562217
 21
205.8350578389985
 31
0.0
  0
LINE
  5
373
330
18
100
AcDbEntity
  8
1
  6
Continuous
100
AcDbLine
 10
658.8816792562218
 20
199.3350578389975
 30
0.0
 11
657.6816792562217
 21
199.3350578389985
 31
0.0
  0
LINE
  5
374
330
18
100
AcDbEntity
  8
1
  6
Continuous
100
AcDbLine
 10
658.8816792562218
 20
199.3350578389976
 30
0.0
 11
658.8816792562218
 21
205.8350578389976
 31
0.0
  0
LINE
  5
378
330
18
100
AcDbEntity
  8
1
  6
Continuous
100
AcDbLine
 10
621.4316792563773
 20
184.5850597811877
 30
0.0
 11
621.4316792563773
 21
193.5850597813086
 31
0.0
  0
LINE
  5
37D
330
18
100
AcDbEntity
  8
1
  6
Continuous
100
AcDbLine
 10
621.9316792563772
 20
160.0850597811243
 30
0.0
 11
621.9316792563773
 21
180.0850597811864
 31
0.0
  0
LINE
  5
37E
330
18
100
AcDbEntity
  8
1
  6
Continuous
100
AcDbLine
 10
617.7316792563807
 20
152.5850597812263
 30
0.0
 11
617.7316792563807
 21
158.5850597811241
 31
0.0
  0
ARC
  5
37F
330
18
100
AcDbEntity
  8
1
  6
Continuous
100
AcDbCircle
 10
620.9316792563932
 20
151.0850597812263
 30
0.0
 40
1.0
100
AcDbArc
 50
0.000000000000007
 51
90.0
  0
ARC
  5
380
330
18
100
AcDbEntity
  8
1
  6
Continuous
100
AcDbCircle
 10
618.2316792563807
 20
152.5850597812263
 30
0.0
 40
0.5
100
AcDbArc
 50
180.0
 51
270.0
  0
LINE
  5
381
330
18
100
AcDbEntity
  8
1
  6
Continuous
100
AcDbLine
 10
620.9316792563932
 20
152.0850597812262
 30
0.0
 11
618.2316792563807
 21
152.0850597812262
 31
0.0
  0
ARC
  5
382
330
18
100
AcDbEntity
  8
1
  6
Continuous
100
AcDbCircle
 10
620.9316792563773
 20
160.0850597811244
 30
0.0
 40
1.0
100
AcDbArc
 50
270.0
 51
0.000000000000007
  0
ARC
  5
383
330
18
100
AcDbEntity
  8
1
  6
Continuous
100
AcDbCircle
 10
618.2316792563806
 20
158.5850597811241
 30
0.0
 40
0.5
100
AcDbArc
 50
90.0
 51
180.0
  0
LINE
  5
384
330
18
100
AcDbEntity
  8
1
  6
Continuous
100
AcDbLine
 10
620.9316792563774
 20
159.0850597811241
 30
0.0
 11
617.6816792563966
 21
159.0850597811241
 31
0.0
  0
CIRCLE
  5
385
330
18
100
AcDbEntity
  8
1
  6
Continuous
100
AcDbCircle
 10
637.6816792563631
 20
176.0850597812827
 30
0.0
 40
2.25
  0
LINE
  5
386
330
18
100
AcDbEntity
  8
4
  6
CENTER
 48
0.1
100
AcDbLine
 10
633.4316792563631
 20
176.0850597812827
 30
0.0
 11
641.9316792563631
 21
176.0850597812827
 31
0.0
  0
LINE
  5
387
330
18
100
AcDbEntity
  8
1
  6
Continuous
100
AcDbLine
 10
617.1816792563157
 20
174.3350597804026
 30
0.0
 11
617.1816792563047
 21
178.8350597804027
 31
0.0
  0
LINE
  5
388
330
18
100
AcDbEntity
  8
1
  6
Continuous
100
AcDbLine
 10
621.9316792563773
 20
174.3350597802539
 30
0.0
 11
621.1816792563722
 21
174.3350597802539
 31
0.0
  0
LINE
  5
389
330
18
100
AcDbEntity
  8
1
  6
Continuous
100
AcDbLine
 10
617.4316792563161
 20
174.0850597804038
 30
0.0
 11
617.6816792563158
 21
174.0850597804036
 31
0.0
  0
ARC
  5
38A
330
18
100
AcDbEntity
  8
1
  6
Continuous
100
AcDbCircle
 10
617.4316792563161
 20
174.3350597804034
 30
0.0
 40
0.2499999999995571
100
AcDbArc
 50
180.0
 51
270.0
  0
ARC
  5
38D
330
18
100
AcDbEntity
  8
1
  6
Continuous
100
AcDbCircle
 10
623.9316792563847
 20
183.5850597811926
 30
0.0
 40
1.0
100
AcDbArc
 50
0.0000000001709936
 51
90.0
  0
ARC
  5
38E
330
18
100
AcDbEntity
  8
1
  6
Continuous
100
AcDbCircle
 10
623.9316792563905
 20
181.5850597811926
 30
0.0
 40
1.0
100
AcDbArc
 50
270.0000000001709
 51
0.0000000001709936
  0
LINE
  5
38F
330
18
100
AcDbEntity
  8
1
  6
Continuous
100
AcDbLine
 10
624.9316792563846
 20
183.5850597811955
 30
0.0
 11
624.9316792563908
 21
181.5850597811955
 31
0.0
  0
LINE
  5
390
330
18
100
AcDbEntity
  8
1
  6
Continuous
100
AcDbLine
 10
621.4316792563773
 20
184.5850597811875
 30
0.0
 11
623.9316792563784
 21
184.5850597811852
 31
0.0
  0
ARC
  5
391
330
18
100
AcDbEntity
  8
1
  6
Continuous
100
AcDbCircle
 10
622.4316792563772
 20
180.0850597811864
 30
0.0
 40
0.5
100
AcDbArc
 50
90.0
 51
180.0
  0
LINE
  5
392
330
18
100
AcDbEntity
  8
1
  6
Continuous
100
AcDbLine
 10
621.9316792563773
 20
178.8350597802539
 30
0.0
 11
621.1816792563612
 21
178.8350597802539
 31
0.0
  0
LINE
  5
393
330
18
100
AcDbEntity
  8
1
  6
Continuous
100
AcDbLine
 10
622.4316792563778
 20
180.5850597811864
 30
0.0
 11
623.9316792563756
 21
180.585059781185
 31
0.0
  0
LINE
  5
394
330
18
100
AcDbEntity
  8
1
  6
Continuous
100
AcDbLine
 10
617.4316792563042
 20
179.0850597804027
 30
0.0
 11
617.6816792563043
 21
179.0850597804026
 31
0.0
  0
ARC
  5
395
330
18
100
AcDbEntity
  8
1
  6
Continuous
100
AcDbCircle
 10
617.4316792563042
 20
178.8350597804034
 30
0.0
 40
0.2499999999995925
100
AcDbArc
 50
90.0
 51
180.0
  0
LINE
  5
397
330
18
100
AcDbEntity
  8
4
  6
CENTER
 48
0.1
100
AcDbLine
 10
623.4316792563775
 20
188.5850597812442
 30
0.0
 11
615.6816792562842
 21
188.5850597812851
 31
0.0
  0
ARC
  5
39A
330
18
100
AcDbEntity
  8
1
  6
Continuous
100
AcDbCircle
 10
617.431679256262
 20
204.8350578390245
 30
0.0
 40
0.2499999999995925
100
AcDbArc
 50
90.0
 51
180.0
  0
LINE
  5
39B
330
18
100
AcDbEntity
  8
1
  6
Continuous
100
AcDbLine
 10
617.4316792562621
 20
205.0850578390239
 30
0.0
 11
617.6816792562617
 21
205.0850578390239
 31
0.0
  0
LINE
  5
39C
330
18
100
AcDbEntity
  8
1
  6
Continuous
100
AcDbLine
 10
617.1816792562732
 20
200.3350578390239
 30
0.0
 11
617.1816792562623
 21
204.8350578390238
 31
0.0
  0
LINE
  5
39D
330
18
100
AcDbEntity
  8
1
  6
Continuous
100
AcDbLine
 10
617.4316792562737
 20
200.0850578390248
 30
0.0
 11
617.6816792562736
 21
200.0850578390246
 31
0.0
  0
ARC
  5
39E
330
18
100
AcDbEntity
  8
1
  6
Continuous
100
AcDbCircle
 10
617.4316792562734
 20
200.3350578390246
 30
0.0
 40
0.2499999999995571
100
AcDbArc
 50
180.0
 51
270.0
  0
LINE
  5
418
330
18
100
AcDbEntity
  8
1
  6
Continuous
100
AcDbLine
 10
619.6816792563268
 20
193.0850646346606
 30
0.0
 11
621.1816792563268
 21
193.0850646346594
 31
0.0
  0
LINE
  5
419
330
18
100
AcDbEntity
  8
1
  6
Continuous
100
AcDbLine
 10
654.1816792563013
 20
193.0850646346334
 30
0.0
 11
655.6816792563012
 21
193.0850646346321
 31
0.0
  0
LINE
  5
41A
330
18
100
AcDbEntity
  8
1
  6
Continuous
100
AcDbLine
 10
619.6816792563818
 20
167.4850646346607
 30
0.0
 11
619.6816792563268
 21
193.0850646346606
 31
0.0
  0
LINE
  5
41B
330
18
100
AcDbEntity
  8
1
  6
Continuous
100
AcDbLine
 10
621.1816792563816
 20
167.5850646346642
 30
0.0
 11
621.1816792563268
 21
193.0850646346641
 31
0.0
  0
LINE
  5
41C
330
18
100
AcDbEntity
  8
1
  6
Continuous
100
AcDbLine
 10
655.6816792563632
 20
167.4850367431117
 30
0.0
 11
655.6816792563012
 21
193.0850646346321
 31
0.0
  0
LINE
  5
41D
330
18
100
AcDbEntity
  8
1
  6
Continuous
100
AcDbLine
 10
654.1816792563628
 20
167.58503053068
 30
0.0
 11
654.1816792563013
 21
193.0850646346286
 31
0.0
  0
LINE
  5
41E
330
18
100
AcDbEntity
  8
1
  6
Continuous
100
AcDbLine
 10
657.6816792564011
 20
114.5850646339807
 30
0.0
 11
657.6816792563612
 21
163.0664404145258
 31
0.0
  0
LINE
  5
41F
330
18
100
AcDbEntity
  8
1
  6
Continuous
100
AcDbLine
 10
656.1816792564011
 20
114.5850646339795
 30
0.0
 11
656.1816792563702
 21
152.085059781225
 31
0.0
  0
ARC
  5
420
330
18
100
AcDbEntity
  8
1
  6
Continuous
100
AcDbCircle
 10
652.6816792564536
 20
121.5850646340011
 30
0.0
 40
2.0
100
AcDbArc
 50
0.0
 51
90.0
  0
ARC
  5
421
330
18
100
AcDbEntity
  8
1
  6
Continuous
100
AcDbCircle
 10
656.1816792564266
 20
114.5850646340065
 30
0.0
 40
1.499999999974221
100
AcDbArc
 50
90.0
 51
180.0
  0
LINE
  5
422
330
18
100
AcDbEntity
  8
1
  6
Continuous
100
AcDbLine
 10
654.6816792564525
 20
114.5850646339807
 30
0.0
 11
654.6816792564536
 21
121.5850646340007
 31
0.0
  0
LINE
  5
423
330
18
100
AcDbEntity
  8
1
  6
Continuous
100
AcDbLine
 10
656.1816792564525
 20
114.5850646339807
 30
0.0
 11
657.6816792564009
 21
114.5850646339807
 31
0.0
  0
LINE
  5
424
330
18
100
AcDbEntity
  8
1
  6
Continuous
100
AcDbLine
 10
656.1816792564525
 20
114.5850646339807
 30
0.0
 11
656.1816792564525
 21
116.0850646339808
 31
0.0
  0
LINE
  5
42D
330
18
100
AcDbEntity
  8
1
  6
Continuous
100
AcDbLine
 10
620.6816792564523
 20
114.5850646339807
 30
0.0
 11
654.6816792564525
 21
114.5850646339807
 31
0.0
  0
LINE
  5
42E
330
18
100
AcDbEntity
  8
1
  6
Continuous
100
AcDbLine
 10
652.6816792564536
 20
123.5850646340011
 30
0.0
 11
622.6816792564491
 21
123.5850646340011
 31
0.0
  0
ARC
  5
42F
330
18
100
AcDbEntity
  8
1
  6
Continuous
100
AcDbCircle
 10
622.6816792564491
 20
121.5850646340011
 30
0.0
 40
2.0
100
AcDbArc
 50
90.0
 51
180.0
  0
ARC
  5
430
330
18
100
AcDbEntity
  8
1
  6
Continuous
100
AcDbCircle
 10
619.1816792565274
 20
114.5850646339477
 30
0.0
 40
1.499999999974221
100
AcDbArc
 50
0.0000000001823857
 51
90.00000000018239
  0
LINE
  5
431
330
18
100
AcDbEntity
  8
1
  6
Continuous
100
AcDbLine
 10
619.1816792564504
 20
116.0850646339218
 30
0.0
 11
619.1816792564479
 21
114.5850646339801
 31
0.0
  0
LINE
  5
432
330
18
100
AcDbEntity
  8
1
  6
Continuous
100
AcDbLine
 10
620.6816792564523
 20
114.5850646339807
 30
0.0
 11
620.6816792564492
 21
121.5850646340003
 31
0.0
  0
LINE
  5
433
330
18
100
AcDbEntity
  8
1
  6
Continuous
100
AcDbLine
 10
617.6816792564525
 20
114.5850646339807
 30
0.0
 11
619.1816792564479
 21
114.5850646339807
 31
0.0
  0
LINE
  5
434
330
18
100
AcDbEntity
  8
1
  6
Continuous
100
AcDbLine
 10
617.6816792564522
 20
114.5850646339807
 30
0.0
 11
617.6816792563912
 21
163.0850646346605
 31
0.0
  0
LINE
  5
435
330
18
100
AcDbEntity
  8
1
  6
Continuous
100
AcDbLine
 10
619.1816792564524
 20
114.5850646339825
 30
0.0
 11
619.1816792564052
 21
152.0850597812262
 31
0.0
  0
LINE
  5
440
330
18
100
AcDbEntity
  8
1
  6
Continuous
100
AcDbLine
 10
621.4316792563773
 20
193.5850597813086
 30
0.0
 11
653.9316792563773
 21
193.5850597813086
 31
0.0
  0
LINE
  5
62B
330
18
100
AcDbEntity
  8
1
  6
Continuous
100
AcDbLine
 10
657.6816792562842
 20
214.585064633996
 30
0.0
 11
617.6816792562842
 21
214.5850646339741
 31
0.0
  0
LINE
  5
62C
330
18
100
AcDbEntity
  8
1
  6
Continuous
100
AcDbLine
 10
656.1816792562843
 20
213.8050646339995
 30
0.0
 11
619.1816792562843
 21
213.8050646339794
 31
0.0
  0
LINE
  5
690
330
18
100
AcDbEntity
  8
1
  6
Continuous
100
AcDbLine
 10
617.6816792563827
 20
150.5850646344218
 30
0.0
 11
619.1816792562811
 21
150.5850646344232
 31
0.0
  0
LINE
  5
691
330
18
100
AcDbEntity
  8
1
  6
Continuous
100
AcDbLine
 10
617.6816792563715
 20
159.5850646341927
 30
0.0
 11
619.1816792563975
 21
159.5850646341904
 31
0.0
  0
LINE
  5
692
330
18
100
AcDbEntity
  8
1
  6
Continuous
100
AcDbLine
 10
617.6816792563823
 20
151.0850646344218
 30
0.0
 11
619.1816792563975
 21
151.0850646344232
 31
0.0
  0
LINE
  5
6A7
330
18
100
AcDbEntity
  8
1
  6
Continuous
100
AcDbLine
 10
657.6816792563808
 20
150.5850646345001
 30
0.0
 11
656.1816792564824
 21
150.5850646344956
 31
0.0
  0
LINE
  5
6A8
330
18
100
AcDbEntity
  8
1
  6
Continuous
100
AcDbLine
 10
657.6816792563796
 20
151.0850646345001
 30
0.0
 11
656.1816792563641
 21
151.0850646344956
 31
0.0
  0
LINE
  5
6A9
330
18
100
AcDbEntity
  8
1
  6
Continuous
100
AcDbLine
 10
657.6816792563569
 20
159.5850646342711
 30
0.0
 11
656.181679256331
 21
159.5850646342628
 31
0.0
  0
LINE
  5
6BC
330
18
100
AcDbEntity
  8
1
  6
Continuous
100
AcDbLine
 10
657.6816792562842
 20
214.585064633996
 30
0.0
 11
657.6816792562842
 21
171.885064633473
 31
0.0
  0
LINE
  5
6BD
330
18
100
AcDbEntity
  8
1
  6
Continuous
100
AcDbLine
 10
617.6816792562842
 20
214.5850646339741
 30
0.0
 11
617.6816792562842
 21
171.885064633473
 31
0.0
  0
LINE
  5
6BE
330
18
100
AcDbEntity
  8
1
  6
Continuous
100
AcDbLine
 10
619.1816792562843
 20
213.8050646339794
 30
0.0
 11
619.1816792562843
 21
171.885064633473
 31
0.0
  0
LINE
  5
6BF
330
18
100
AcDbEntity
  8
1
  6
Continuous
100
AcDbLine
 10
656.1816792562843
 20
213.8050646339996
 30
0.0
 11
656.1816792562843
 21
171.885064633473
 31
0.0
  0
LINE
  5
6C0
330
18
100
AcDbEntity
  8
1
  6
Continuous
100
AcDbLine
 10
617.6816792562842
 20
171.885064633473
 30
0.0
 11
619.1816792562843
 21
171.885064633473
 31
0.0
  0
LINE
  5
6C1
330
18
100
AcDbEntity
  8
1
  6
Continuous
100
AcDbLine
 10
656.1816792562843
 20
171.885064633473
 30
0.0
 11
657.6816792562842
 21
171.885064633473
 31
0.0
  0
LINE
  5
6D3
330
18
100
AcDbEntity
  8
1
  6
Continuous
100
AcDbLine
 10
619.1816792563964
 20
159.0850597811241
 30
0.0
 11
619.1816792563915
 21
163.1129286796617
 31
0.0
  0
LINE
  5
6F3
330
18
100
AcDbEntity
  8
1
  6
Continuous
100
AcDbLine
 10
656.1816792562843
 20
204.835057839025
 30
0.0
 11
619.1816792562843
 21
204.835057839025
 31
0.0
  0
LINE
  5
6F4
330
18
100
AcDbEntity
  8
1
  6
Continuous
100
AcDbLine
 10
656.1816792562843
 20
200.335057839025
 30
0.0
 11
619.1816792562843
 21
200.335057839025
 31
0.0
  0
LINE
  5
6F5
330
18
100
AcDbEntity
  8
1
  6
Continuous
100
AcDbLine
 10
654.1816792563357
 20
178.8350597802536
 30
0.0
 11
653.4316792563775
 21
178.8350597802538
 31
0.0
  0
LINE
  5
6F6
330
18
100
AcDbEntity
  8
1
  6
Continuous
100
AcDbLine
 10
654.1816792563466
 20
174.3350597802538
 30
0.0
 11
653.4316792563775
 21
174.3350597802538
 31
0.0
  0
LINE
  5
6F7
330
18
100
AcDbEntity
  8
1
  6
Continuous
100
AcDbLine
 10
619.6816792563612
 20
178.8350597802539
 30
0.0
 11
619.1816792563502
 21
178.8350597802539
 31
0.0
  0
LINE
  5
6F8
330
18
100
AcDbEntity
  8
1
  6
Continuous
100
AcDbLine
 10
619.6816792563723
 20
174.3350597802539
 30
0.0
 11
619.1816792563502
 21
174.3350597802539
 31
0.0
  0
LINE
  5
775
330
18
100
AcDbEntity
  8
4
  6
CENTER
 48
0.1
100
AcDbLine
 10
426.1816950561913
 20
202.5850626921987
 30
0.0
 11
435.1816950561913
 21
202.5850626921987
 31
0.0
  0
LINE
  5
777
330
18
100
AcDbEntity
  8
4
  6
CENTER
 48
0.1
100
AcDbLine
 10
430.6816950561913
 20
198.0850626921986
 30
0.0
 11
430.6816950561913
 21
207.0850626921987
 31
0.0
  0
LINE
  5
779
330
18
100
AcDbEntity
  8
4
  6
CENTER
 48
0.2
100
AcDbLine
 10
331.6816792563419
 20
209.0850597812827
 30
0.0
 11
343.6816792563419
 21
209.0850597812827
 31
0.0
  0
LINE
  5
77A
330
18
100
AcDbEntity
  8
4
  6
CENTER
 48
0.2
100
AcDbLine
 10
337.681679256342
 20
203.0850597812832
 30
0.0
 11
337.6816792563419
 21
215.0850597812832
 31
0.0
  0
LINE
  5
780
330
18
100
AcDbEntity
  8
4
  6
CENTER
 48
0.1
100
AcDbLine
 10
426.1816792563482
 20
184.0850646343913
 30
0.0
 11
426.1816792563482
 21
193.0850646343913
 31
0.0
  0
LINE
  5
781
330
18
100
AcDbEntity
  8
4
  6
CENTER
 48
0.1
100
AcDbLine
 10
421.6816792563482
 20
188.5850646343913
 30
0.0
 11
430.6816792563481
 21
188.5850646343913
 31
0.0
  0
LINE
  5
782
330
18
100
AcDbEntity
  8
4
  6
CENTER
 48
0.1
100
AcDbLine
 10
427.6816792563418
 20
172.0850646334729
 30
0.0
 11
427.6816792563418
 21
181.0850646334729
 31
0.0
  0
LINE
  5
783
330
18
100
AcDbEntity
  8
4
  6
CENTER
 48
0.1
100
AcDbLine
 10
423.181679256342
 20
176.5850646334729
 30
0.0
 11
432.181679256342
 21
176.5850646334729
 31
0.0
  0
LINE
  5
785
330
18
100
AcDbEntity
  8
4
  6
CENTER
 48
0.1
100
AcDbLine
 10
433.1816792563443
 20
133.0850646343914
 30
0.0
 11
439.1816792563453
 21
133.0850646343914
 31
0.0
  0
ARC
  5
F64
330
18
100
AcDbEntity
  8
1
  6
Continuous
100
AcDbCircle
 10
616.6816792563817
 20
167.4850646346538
 30
0.0
 40
3.0
100
AcDbArc
 50
311.8103148959011
 51
0.000000000130988
  0
ARC
  5
F71
330
18
100
AcDbEntity
  8
1
  6
Continuous
100
AcDbCircle
 10
616.6816792563816
 20
167.585064634654
 30
0.0
 40
4.5
100
AcDbArc
 50
311.8103148959046
 51
0.000000000130848
  0
ARC
  5
F73
330
18
100
AcDbEntity
  8
1
  6
Continuous
100
AcDbCircle
 10
620.6816792563914
 20
163.1129286796632
 30
0.0
 40
1.5
100
AcDbArc
 50
131.8103148959057
 51
180.0000000000564
  0
ARC
  5
F74
330
18
100
AcDbEntity
  8
1
  6
Continuous
100
AcDbCircle
 10
620.6861619254984
 20
163.0096547934986
 30
0.0
 40
3.005428880061665
100
AcDbArc
 50
131.8324024322586
 51
178.5622287891075
  0
ARC
  5
FAC
330
18
100
AcDbEntity
  8
1
  6
Continuous
100
AcDbCircle
 10
654.677196587117
 20
163.0096547934986
 30
0.0
 40
3.005428880061665
100
AcDbArc
 50
358.5622288893744
 51
48.16759756774138
  0
ARC
  5
FAE
330
18
100
AcDbEntity
  8
1
  6
Continuous
100
AcDbCircle
 10
658.6816792562338
 20
167.585064634654
 30
0.0
 40
4.5
100
AcDbArc
 50
179.9999999998691
 51
228.1896851040952
  0
ARC
  5
FAF
330
18
100
AcDbEntity
  8
1
  6
Continuous
100
AcDbCircle
 10
658.6816792562335
 20
167.4850646346538
 30
0.0
 40
3.0
100
AcDbArc
 50
179.9999999998689
 51
228.1896851040989
  0
ARC
  5
FB0
330
18
100
AcDbEntity
  8
1
  6
Continuous
100
AcDbCircle
 10
654.6816792562882
 20
163.1129286796632
 30
0.0
 40
1.5
100
AcDbArc
 50
359.9999999999434
 51
48.18968510409426
  0
LINE
  5
FB1
330
18
100
AcDbEntity
  8
1
  6
Continuous
100
AcDbLine
 10
656.1816792562832
 20
159.0850597811241
 30
0.0
 11
656.1816792562884
 21
163.1129286796617
 31
0.0
  0
LINE
  5
13BC
330
18
100
AcDbEntity
  8
4
  6
CENTER
 48
0.2
100
AcDbLine
 10
348.1816792563042
 20
274.127176555582
 30
0.0
 11
307.1816792563692
 21
274.127176555582
 31
0.0
  0
LINE
  5
13BE
330
18
100
AcDbEntity
  8
1
  6
Continuous
100
AcDbLine
 10
347.681679256342
 20
279.1271765555777
 30
0.0
 11
307.6816792563421
 21
279.1271765555778
 31
0.0
  0
LINE
  5
13BF
330
18
100
AcDbEntity
  8
1
  6
Continuous
100
AcDbLine
 10
347.681679256342
 20
277.1271765555776
 30
0.0
 11
307.6816792563421
 21
277.1271765555776
 31
0.0
  0
LINE
  5
13C3
330
18
100
AcDbEntity
  8
1
  6
Continuous
100
AcDbLine
 10
345.1816792563042
 20
266.1271765555776
 30
0.0
 11
310.1816792563693
 21
266.1271765555778
 31
0.0
  0
LINE
  5
13C4
330
18
100
AcDbEntity
  8
1
  6
Continuous
100
AcDbLine
 10
345.1816792563042
 20
265.1271765555776
 30
0.0
 11
310.1816792563693
 21
265.1271765555776
 31
0.0
  0
LINE
  5
13C5
330
18
100
AcDbEntity
  8
1
  6
Continuous
100
AcDbLine
 10
347.681679256342
 20
279.1271765555777
 30
0.0
 11
347.681679256342
 21
277.1271765555776
 31
0.0
  0
LINE
  5
13C6
330
18
100
AcDbEntity
  8
1
  6
Continuous
100
AcDbLine
 10
307.6816792563421
 20
279.1271765555778
 30
0.0
 11
307.6816792563421
 21
277.1271765555776
 31
0.0
  0
LINE
  5
13C7
330
18
100
AcDbEntity
  8
1
  6
Continuous
100
AcDbLine
 10
345.1816792563042
 20
265.1271765555776
 30
0.0
 11
345.1816792563042
 21
277.1271765555776
 31
0.0
  0
LINE
  5
13C8
330
18
100
AcDbEntity
  8
1
  6
Continuous
100
AcDbLine
 10
310.1816792563693
 20
265.1271765555776
 30
0.0
 11
310.1816792563693
 21
277.1271765555775
 31
0.0
  0
LINE
  5
13C9
330
18
100
AcDbEntity
  8
4
  6
CENTER
 48
0.2
100
AcDbLine
 10
327.681679256342
 20
282.1271765555778
 30
0.0
 11
327.6816792563367
 21
262.1271765555776
 31
0.0
  0
LINE
  5
13CC
330
18
100
AcDbEntity
  8
4
  6
CENTER
 48
0.1
100
AcDbLine
 10
317.6816792563418
 20
281.1271765555778
 30
0.0
 11
317.6816792563418
 21
275.1271765555776
 31
0.0
  0
LINE
  5
13CD
330
18
100
AcDbEntity
  8
4
  6
CENTER
 48
0.1
100
AcDbLine
 10
337.6816792563419
 20
281.1271765555777
 30
0.0
 11
337.6816792563419
 21
275.1271765555775
 31
0.0
  0
LINE
  5
1658
330
18
100
AcDbEntity
  8
1
  6
Continuous
100
AcDbLine
 10
220.6816792564733
 20
257.6592441198623
 30
0.0
 11
254.6816792564478
 21
257.6592441198623
 31
0.0
  0
LINE
  5
1659
330
18
100
AcDbEntity
  8
1
  6
Continuous
100
AcDbLine
 10
217.7816792563248
 20
279.127176555569
 30
0.0
 11
257.6816792562722
 21
279.1271765555687
 31
0.0
  0
LINE
  5
174F
330
18
100
AcDbEntity
  8
1
  6
Continuous
100
AcDbLine
 10
257.6816792564478
 20
260.6592441198623
 30
0.0
 11
257.6816792564478
 21
278.1217720778834
 31
0.0
  0
LINE
  5
1750
330
18
100
AcDbEntity
  8
1
  6
Continuous
100
AcDbLine
 10
217.6816792564733
 20
260.6592441198623
 30
0.0
 11
217.6816792564733
 21
278.1217720778832
 31
0.0
  0
LINE
  5
1752
330
18
100
AcDbEntity
  8
4
  6
CENTER
 48
0.5
100
AcDbLine
 10
260.5316792564375
 20
272.6217720778833
 30
0.0
 11
214.1316792564837
 21
272.6217720778844
 31
0.0
  0
LINE
  5
1753
330
18
100
AcDbEntity
  8
1
  6
Continuous
100
AcDbLine
 10
216.4816792565158
 20
269.371772077857
 30
0.0
 11
216.4816792565158
 21
275.871772077857
 31
0.0
  0
LINE
  5
1754
330
18
100
AcDbEntity
  8
1
  6
Continuous
100
AcDbLine
 10
216.4816792565155
 20
269.3717720778569
 30
0.0
 11
217.6816792565157
 21
269.3717720778579
 31
0.0
  0
LINE
  5
1755
330
18
100
AcDbEntity
  8
1
  6
Continuous
100
AcDbLine
 10
216.4816792565157
 20
275.871772077857
 30
0.0
 11
217.6816792565157
 21
275.8717720778579
 31
0.0
  0
LINE
  5
1756
330
18
100
AcDbEntity
  8
1
  6
Continuous
100
AcDbLine
 10
258.1816792564641
 20
270.3717720778832
 30
0.0
 11
258.181679256475
 21
274.8717720778833
 31
0.0
  0
LINE
  5
1757
330
18
100
AcDbEntity
  8
1
  6
Continuous
100
AcDbLine
 10
257.9316792564637
 20
270.1217720778843
 30
0.0
 11
257.6816792564637
 21
270.121772077884
 31
0.0
  0
ARC
  5
1758
330
18
100
AcDbEntity
  8
1
  6
Continuous
100
AcDbCircle
 10
257.9316792564637
 20
270.371772077884
 30
0.0
 40
0.2499999999995571
100
AcDbArc
 50
270.0
 51
0.0
  0
ARC
  5
1759
330
18
100
AcDbEntity
  8
1
  6
Continuous
100
AcDbCircle
 10
257.9316792564753
 20
274.8717720778839
 30
0.0
 40
0.2499999999995925
100
AcDbArc
 50
0.0
 51
90.0
  0
LINE
  5
175A
330
18
100
AcDbEntity
  8
1
  6
Continuous
100
AcDbLine
 10
257.9316792564753
 20
275.1217720778833
 30
0.0
 11
257.6816792564756
 21
275.1217720778833
 31
0.0
  0
LINE
  5
1765
330
18
100
AcDbEntity
  8
1
  6
Continuous
100
AcDbLine
 10
219.1816792564271
 20
272.1217947261133
 30
0.0
 11
219.1816792564123
 21
278.1217720778834
 31
0.0
  0
LINE
  5
1768
330
18
100
AcDbEntity
  8
1
  6
Continuous
100
AcDbLine
 10
256.181679256437
 20
272.1217947261133
 30
0.0
 11
256.1816792564513
 21
278.1217720778835
 31
0.0
  0
LINE
  5
176D
330
18
100
AcDbEntity
  8
1
  6
Continuous
100
AcDbLine
 10
217.6816792564733
 20
278.1217720778832
 30
0.0
 11
219.1816792564123
 21
278.1217720778834
 31
0.0
  0
LINE
  5
176E
330
18
100
AcDbEntity
  8
1
  6
Continuous
100
AcDbLine
 10
257.6816792564478
 20
278.1217720778834
 30
0.0
 11
256.1816792564513
 21
278.1217720778835
 31
0.0
  0
ARC
  5
178F
330
18
100
AcDbEntity
  8
1
  6
Continuous
100
AcDbCircle
 10
223.531679256248
 20
277.1271765555676
 30
0.0
 40
2.0
100
AcDbArc
 50
90.0
 51
180.0
  0
ARC
  5
1790
330
18
100
AcDbEntity
  8
1
  6
Continuous
100
AcDbCircle
 10
251.9316792563492
 20
277.1271765555697
 30
0.0
 40
2.0
100
AcDbArc
 50
0.0
 51
90.0
  0
LINE
  5
1794
330
18
100
AcDbEntity
  8
1
  6
Continuous
100
AcDbLine
 10
223.4316792564444
 20
274.871772077874
 30
0.0
 11
223.4316792564444
 21
277.1271765555695
 31
0.0
  0
LINE
  5
1795
330
18
100
AcDbEntity
  8
1
  6
Continuous
100
AcDbLine
 10
221.4316792563741
 20
274.8717720778789
 30
0.0
 11
221.4316792563739
 21
277.1271765555678
 31
0.0
  0
LINE
  5
179B
330
18
100
AcDbEntity
  8
1
  6
Continuous
100
AcDbLine
 10
251.9316792563492
 20
274.871772077806
 30
0.0
 11
251.931679256349
 21
277.1271765555617
 31
0.0
  0
LINE
  5
179C
330
18
100
AcDbEntity
  8
1
  6
Continuous
100
AcDbLine
 10
253.9316792563492
 20
274.8717720778012
 30
0.0
 11
253.9316792563492
 21
277.1271765555697
 31
0.0
  0
LINE
  5
17A1
330
18
100
AcDbEntity
  8
1
  6
Continuous
100
AcDbLine
 10
223.4316792564444
 20
277.1271765555695
 30
0.0
 11
251.931679256349
 21
277.1271765555697
 31
0.0
  0
ARC
  5
17A2
330
18
100
AcDbEntity
  8
1
  6
Continuous
100
AcDbCircle
 10
220.6816792564733
 20
260.6592441198623
 30
0.0
 40
3.0
100
AcDbArc
 50
180.0
 51
270.0
  0
ARC
  5
17A3
330
18
100
AcDbEntity
  8
1
  6
Continuous
100
AcDbCircle
 10
254.6816792564478
 20
260.6592441198623
 30
0.0
 40
3.0
100
AcDbArc
 50
270.0
 51
359.9999999999998
  0
LINE
  5
17A6
330
18
100
AcDbEntity
  8
4
  6
CENTER
 48
0.5
100
AcDbLine
 10
237.6816792564606
 20
252.659244119863
 30
0.0
 11
237.6816792564606
 21
282.1271765555689
 31
0.0
  0
LINE
  5
1DD5
330
18
100
AcDbEntity
  8
4
  6
CENTER
 48
0.5
100
AcDbLine
 10
260.5316792564375
 20
56.54837964754904
 30
0.0
 11
214.1316792564837
 21
56.5483796475479
 31
0.0
  0
LINE
  5
1DDA
330
18
100
AcDbEntity
  8
1
  6
Continuous
100
AcDbLine
 10
216.4816792565158
 20
59.79837964757529
 30
0.0
 11
216.4816792565158
 21
53.2983796475753
 31
0.0
  0
LINE
  5
1DDB
330
18
100
AcDbEntity
  8
1
  6
Continuous
100
AcDbLine
 10
217.6816792564733
 20
68.51090760556997
 30
0.0
 11
217.6816792564733
 21
51.04837964754904
 31
0.0
  0
ARC
  5
1DDD
330
18
100
AcDbEntity
  8
1
  6
Continuous
100
AcDbCircle
 10
220.6816792564733
 20
68.51090760556997
 30
0.0
 40
3.0
100
AcDbArc
 50
90.00000000000005
 51
179.9999999999999
  0
LINE
  5
1DDE
330
18
100
AcDbEntity
  8
1
  6
Continuous
100
AcDbLine
 10
216.4816792565155
 20
59.79837964757543
 30
0.0
 11
217.6816792565157
 21
59.7983796475744
 31
0.0
  0
LINE
  5
1DDF
330
18
100
AcDbEntity
  8
1
  6
Continuous
100
AcDbLine
 10
216.4816792565157
 20
53.2983796475753
 30
0.0
 11
217.6816792565157
 21
53.29837964757438
 31
0.0
  0
LINE
  5
1DE0
330
18
100
AcDbEntity
  8
1
  6
Continuous
100
AcDbLine
 10
217.6816792564733
 20
51.04837964754904
 30
0.0
 11
219.1816792564123
 21
51.04837964754892
 31
0.0
  0
LINE
  5
1DE1
330
18
100
AcDbEntity
  8
1
  6
Continuous
100
AcDbLine
 10
219.1816792564259
 20
56.54837964754904
 30
0.0
 11
219.1816792564123
 21
51.04837964754892
 31
0.0
  0
LINE
  5
1DE7
330
18
100
AcDbEntity
  8
1
  6
Continuous
100
AcDbLine
 10
258.1816792564641
 20
58.79837964754904
 30
0.0
 11
258.181679256475
 21
54.29837964754904
 31
0.0
  0
LINE
  5
1DE9
330
18
100
AcDbEntity
  8
4
  6
CENTER
 48
0.5
100
AcDbLine
 10
237.6816792564606
 20
76.51090760557611
 30
0.0
 11
237.6816792564606
 21
47.04297516986343
 31
0.0
  0
LINE
  5
1DEA
330
18
100
AcDbEntity
  8
1
  6
Continuous
100
AcDbLine
 10
257.6816792564478
 20
68.51090760556997
 30
0.0
 11
257.6816792564478
 21
51.04837964754892
 31
0.0
  0
LINE
  5
1DEB
330
18
100
AcDbEntity
  8
1
  6
Continuous
100
AcDbLine
 10
257.9316792564637
 20
59.04837964754801
 30
0.0
 11
257.6816792564637
 21
59.04837964754825
 31
0.0
  0
ARC
  5
1DEC
330
18
100
AcDbEntity
  8
1
  6
Continuous
100
AcDbCircle
 10
257.9316792564637
 20
58.79837964754824
 30
0.0
 40
0.2499999999995571
100
AcDbArc
 50
0.0
 51
90.00000000000005
  0
ARC
  5
1DED
330
18
100
AcDbEntity
  8
1
  6
Continuous
100
AcDbCircle
 10
254.6816792564478
 20
68.51090760556997
 30
0.0
 40
3.0
100
AcDbArc
 50
0.0000000000000649
 51
90.00000000000005
  0
ARC
  5
1DEE
330
18
100
AcDbEntity
  8
1
  6
Continuous
100
AcDbCircle
 10
257.9316792564753
 20
54.29837964754836
 30
0.0
 40
0.2499999999995925
100
AcDbArc
 50
270.0
 51
0.0
  0
LINE
  5
1DEF
330
18
100
AcDbEntity
  8
1
  6
Continuous
100
AcDbLine
 10
257.9316792564753
 20
54.04837964754893
 30
0.0
 11
257.6816792564756
 21
54.04837964754893
 31
0.0
  0
LINE
  5
1DF3
330
18
100
AcDbEntity
  8
1
  6
Continuous
100
AcDbLine
 10
257.6816792564478
 20
51.04837964754892
 30
0.0
 11
256.1816792564513
 21
51.04837964754882
 31
0.0
  0
LINE
  5
1DF4
330
18
100
AcDbEntity
  8
1
  6
Continuous
100
AcDbLine
 10
256.1816792564381
 20
56.54837964754893
 30
0.0
 11
256.1816792564513
 21
51.04837964754882
 31
0.0
  0
LINE
  5
1E5F
330
18
100
AcDbEntity
  8
1
  6
Continuous
100
AcDbLine
 10
220.6816792564733
 20
60.04297516987357
 30
0.0
 11
254.6816792564478
 21
60.04297516987357
 31
0.0
  0
ARC
  5
1E7D
330
18
100
AcDbEntity
  8
1
  6
Continuous
100
AcDbCircle
 10
254.6816792564461
 20
68.51090760556758
 30
0.0
 40
3.0
100
AcDbArc
 50
0.0
 51
90.0
  0
ARC
  5
1E7E
330
18
100
AcDbEntity
  8
1
  6
Continuous
100
AcDbCircle
 10
220.6816792564718
 20
68.510907605586
 30
0.0
 40
3.0
100
AcDbArc
 50
90.0
 51
180.0
  0
LINE
  5
1E83
330
18
100
AcDbEntity
  8
1
  6
Continuous
100
AcDbLine
 10
219.1816792563317
 20
61.54297516984774
 30
0.0
 11
219.1816792563008
 21
51.06198115223015
 31
0.0
  0
LINE
  5
1E86
330
18
100
AcDbEntity
  8
1
  6
Continuous
100
AcDbLine
 10
256.1816792563272
 20
61.54297516978897
 30
0.0
 11
256.1816792563007
 21
51.06198115223015
 31
0.0
  0
LINE
  5
1E90
330
18
100
AcDbEntity
  8
1
  6
Continuous
100
AcDbLine
 10
220.6816792564718
 20
71.5109076055768
 30
0.0
 11
254.6816792564461
 21
71.5109076055768
 31
0.0
  0
LINE
  5
1EC3
330
18
100
AcDbEntity
  8
1
  6
Continuous
100
AcDbLine
 10
217.7816792563229
 20
278.1217720778834
 30
0.0
 11
217.7816792563248
 21
279.1271765556292
 31
0.0
  0
LINE
  5
1EC4
330
18
100
AcDbEntity
  8
1
  6
Continuous
100
AcDbLine
 10
221.3816792562117
 20
277.1271765556102
 30
0.0
 11
219.1816792564146
 21
277.127176555613
 31
0.0
  0
LINE
  5
1EC5
330
18
100
AcDbEntity
  8
1
  6
Continuous
100
AcDbLine
 10
257.6316792564332
 20
278.1217720778834
 30
0.0
 11
257.6316792564341
 21
279.1271765555778
 31
0.0
  0
LINE
  5
1EC6
330
18
100
AcDbEntity
  8
1
  6
Continuous
100
AcDbLine
 10
253.9316792563492
 20
277.1271765555697
 30
0.0
 11
256.1816792564489
 21
277.1271765555658
 31
0.0
  0
LINE
  5
1F02
330
18
100
AcDbEntity
  8
1
  6
Continuous
100
AcDbLine
 10
217.731679256554
 20
51.04837964754904
 30
0.0
 11
217.7316792565559
 21
50.04297516980297
 31
0.0
  0
LINE
  5
1F03
330
18
100
AcDbEntity
  8
1
  6
Continuous
100
AcDbLine
 10
257.6316792565022
 20
51.04837964754882
 30
0.0
 11
257.6316792565032
 21
50.04297516986276
 31
0.0
  0
LINE
  5
1F06
330
18
100
AcDbEntity
  8
1
  6
Continuous
100
AcDbLine
 10
256.1816792564489
 20
52.04297516987151
 30
0.0
 11
219.1816792564146
 21
52.04297516986197
 31
0.0
  0
LINE
  5
1F09
330
18
100
AcDbEntity
  8
1
  6
Continuous
100
AcDbLine
 10
217.7316792565559
 20
50.04297516986435
 30
0.0
 11
257.6316792565032
 21
50.04297516986253
 31
0.0
  0
LINE
  5
1F0A
330
18
100
AcDbEntity
  8
1
  6
Continuous
100
AcDbLine
 10
232.1890385691911
 20
56.04297516986367
 30
0.0
 11
221.4316792564429
 21
56.04297516986274
 31
0.0
  0
LINE
  5
1F0B
330
18
100
AcDbEntity
  8
1
  6
Continuous
100
AcDbLine
 10
232.1890385691911
 20
58.04297516986365
 30
0.0
 11
221.4316792564429
 21
58.04297516986252
 31
0.0
  0
LINE
  5
1F0C
330
18
100
AcDbEntity
  8
1
  6
Continuous
100
AcDbLine
 10
223.4316792565135
 20
60.04297516987357
 30
0.0
 11
223.4316792565135
 21
58.04297516986276
 31
0.0
  0
LINE
  5
1F0D
330
18
100
AcDbEntity
  8
1
  6
Continuous
100
AcDbLine
 10
221.4316792564429
 20
60.04297516987357
 30
0.0
 11
221.4316792564429
 21
52.04297516986435
 31
0.0
  0
LINE
  5
1F11
330
18
100
AcDbEntity
  8
1
  6
Continuous
100
AcDbLine
 10
232.1890385691911
 20
58.04297516986365
 30
0.0
 11
232.1890385691911
 21
56.04297516986367
 31
0.0
  0
LINE
  5
1F12
330
18
100
AcDbEntity
  8
1
  6
Continuous
100
AcDbLine
 10
251.931679256418
 20
60.04297516987357
 30
0.0
 11
251.931679256418
 21
52.04297516987061
 31
0.0
  0
LINE
  5
1F13
330
18
100
AcDbEntity
  8
1
  6
Continuous
100
AcDbLine
 10
253.9316792564182
 20
60.04297516987357
 30
0.0
 11
253.9316792564182
 21
52.04297516986253
 31
0.0
  0
LINE
  5
1F1A
330
18
100
AcDbEntity
  8
1
  6
Continuous
100
AcDbLine
 10
223.4316792565135
 20
56.04297516986298
 30
0.0
 11
223.4316792565134
 21
52.04297516986276
 31
0.0
  0
ARC
  5
1F2A
330
18
100
AcDbEntity
  8
1
  6
Continuous
100
AcDbCircle
 10
219.1816792564991
 20
60.04297516987357
 30
0.0
 40
1.499999999974221
100
AcDbArc
 50
0.0
 51
90.0
  0
LINE
  5
1F2B
330
18
100
AcDbEntity
  8
1
  6
Continuous
100
AcDbLine
 10
219.1816792564733
 20
61.54297516984774
 30
0.0
 11
217.6816792565288
 21
61.54297516984695
 31
0.0
  0
LINE
  5
1F2F
330
18
100
AcDbEntity
  8
1
  6
Continuous
100
AcDbLine
 10
256.1816792564288
 20
61.54297516978897
 30
0.0
 11
257.6816792563732
 21
61.5429751697834
 31
0.0
  0
ARC
  5
1F31
330
18
100
AcDbEntity
  8
1
  6
Continuous
100
AcDbCircle
 10
256.1816792563983
 20
60.04297516981465
 30
0.0
 40
1.499999999974221
100
AcDbArc
 50
89.99999999981762
 51
179.9999999998176
  0
LINE
  5
1F41
330
18
100
AcDbEntity
  8
1
  6
Continuous
100
AcDbLine
 10
219.181679256326
 20
57.29837964787248
 30
0.0
 11
221.4316792564429
 21
57.29837964786679
 31
0.0
  0
LINE
  5
1F42
330
18
100
AcDbEntity
  8
1
  6
Continuous
100
AcDbLine
 10
232.1890385691911
 20
57.29837964783961
 30
0.0
 11
251.931679256418
 21
57.29837964778972
 31
0.0
  0
LINE
  5
1F43
330
18
100
AcDbEntity
  8
1
  6
Continuous
100
AcDbLine
 10
253.9316792564182
 20
57.29837964778461
 30
0.0
 11
256.1816792563165
 21
57.29837964777892
 31
0.0
  0
LINE
  5
1F44
330
18
100
AcDbEntity
  8
1
  6
Continuous
100
AcDbLine
 10
219.1816792563104
 20
54.29837964754891
 30
0.0
 11
221.4316792564429
 21
54.29837964754324
 31
0.0
  0
LINE
  5
1F45
330
18
100
AcDbEntity
  8
1
  6
Continuous
100
AcDbLine
 10
223.4316792565134
 20
54.29837964753811
 30
0.0
 11
251.931679256418
 21
54.29837964746628
 31
0.0
  0
LINE
  5
1F46
330
18
100
AcDbEntity
  8
1
  6
Continuous
100
AcDbLine
 10
253.9316792564182
 20
54.29837964746115
 30
0.0
 11
256.1816792563089
 21
54.29837964745547
 31
0.0
  0
LINE
  5
1F7B
330
18
100
AcDbEntity
  8
1
  6
Continuous
100
AcDbLine
 10
219.1816792564271
 20
272.1217947261131
 30
0.0
 11
256.181679256437
 21
272.1217947261133
 31
0.0
  0
LINE
  5
1FB2
330
18
100
AcDbEntity
  8
1
  6
Continuous
100
AcDbLine
 10
219.1816792564259
 20
274.8717720778843
 30
0.0
 11
256.1816792564435
 21
274.8717720777958
 31
0.0
  0
LINE
  5
215F
330
18
100
AcDbEntity
  8
4
  6
CENTER
 48
0.2
100
AcDbLine
 10
727.6816792562795
 20
217.0850597808996
 30
0.0
 11
727.6816792562877
 21
196.0850597808898
 31
0.0
  0
LINE
  5
2163
330
18
100
AcDbEntity
  8
4
  6
CENTER
 48
0.2
100
AcDbLine
 10
707.1816792563203
 20
204.0850597808364
 30
0.0
 11
748.1816792562554
 21
204.0850597808364
 31
0.0
  0
LINE
  5
2164
330
18
100
AcDbEntity
  8
1
  6
Continuous
100
AcDbLine
 10
742.6816792562826
 20
214.0850597808996
 30
0.0
 11
712.6816792562826
 21
214.0850597808996
 31
0.0
  0
LINE
  5
2165
330
18
100
AcDbEntity
  8
1
  6
Continuous
100
AcDbLine
 10
745.1816792562554
 20
199.0850597808897
 30
0.0
 11
710.1816792563202
 21
199.0850597808899
 31
0.0
  0
LINE
  5
216A
330
18
100
AcDbEntity
  8
4
  6
CENTER
 48
0.2
100
AcDbLine
 10
743.6816792562828
 20
209.0850597808958
 30
0.0
 11
731.6816792562828
 21
209.0850597808958
 31
0.0
  0
LINE
  5
216C
330
18
100
AcDbEntity
  8
1
  6
Continuous
100
AcDbLine
 10
745.1816792562554
 20
204.585059780896
 30
0.0
 11
745.1816792562554
 21
199.0850597808985
 31
0.0
  0
ARC
  5
216D
330
18
100
AcDbEntity
  8
1
  6
Continuous
100
AcDbCircle
 10
742.6816792562826
 20
209.0850597808998
 30
0.0
 40
5.0
100
AcDbArc
 50
0.000000000000007
 51
90.0
  0
ARC
  5
216E
330
18
100
AcDbEntity
  8
1
  6
Continuous
100
AcDbCircle
 10
746.6816792562848
 20
205.585059780896
 30
0.0
 40
1.0
100
AcDbArc
 50
270.0
 51
0.000000000000007
  0
LINE
  5
216F
330
18
100
AcDbEntity
  8
1
  6
Continuous
100
AcDbLine
 10
746.6816792562848
 20
204.585059780896
 30
0.0
 11
745.1816792562554
 21
204.585059780896
 31
0.0
  0
LINE
  5
2170
330
18
100
AcDbEntity
  8
1
  6
Continuous
100
AcDbLine
 10
747.6816792562828
 20
209.0850597809025
 30
0.0
 11
747.6816792562848
 21
205.5850597808965
 31
0.0
  0
CIRCLE
  5
2172
330
18
100
AcDbEntity
  8
1
  6
Continuous
100
AcDbCircle
 10
737.6816792562826
 20
209.0850597808963
 30
0.0
 40
2.149999999999999
  0
LINE
  5
2173
330
18
100
AcDbEntity
  8
4
  6
CENTER
 48
0.2
100
AcDbLine
 10
737.6816792562826
 20
203.0850597808963
 30
0.0
 11
737.6816792562827
 21
215.0850597808963
 31
0.0
  0
LINE
  5
2174
330
18
100
AcDbEntity
  8
1
  6
Continuous
100
AcDbLine
 10
710.1816792563202
 20
204.585059780896
 30
0.0
 11
708.6816792562848
 21
204.585059780896
 31
0.0
  0
ARC
  5
2175
330
18
100
AcDbEntity
  8
1
  6
Continuous
100
AcDbCircle
 10
712.6816792562826
 20
209.0850597808904
 30
0.0
 40
5.0
100
AcDbArc
 50
90.0
 51
180.0
  0
LINE
  5
2176
330
18
100
AcDbEntity
  8
1
  6
Continuous
100
AcDbLine
 10
710.1816792563202
 20
204.5850597808962
 30
0.0
 11
710.1816792563202
 21
199.0850597808994
 31
0.0
  0
LINE
  5
2178
330
18
100
AcDbEntity
  8
4
  6
CENTER
 48
0.2
100
AcDbLine
 10
723.6816792562827
 20
209.0850597808958
 30
0.0
 11
711.6816792562827
 21
209.0850597808958
 31
0.0
  0
CIRCLE
  5
217A
330
18
100
AcDbEntity
  8
1
  6
Continuous
100
AcDbCircle
 10
717.6816792562826
 20
209.0850597808963
 30
0.0
 40
2.149999999999999
  0
LINE
  5
217B
330
18
100
AcDbEntity
  8
4
  6
CENTER
 48
0.2
100
AcDbLine
 10
717.6816792562826
 20
203.0850597808963
 30
0.0
 11
717.6816792562828
 21
215.0850597808963
 31
0.0
  0
ARC
  5
217E
330
18
100
AcDbEntity
  8
1
  6
Continuous
100
AcDbCircle
 10
708.6816792562848
 20
205.5850597808962
 30
0.0
 40
1.0
100
AcDbArc
 50
180.0
 51
270.0
  0
LINE
  5
217F
330
18
100
AcDbEntity
  8
1
  6
Continuous
100
AcDbLine
 10
707.6816792562826
 20
209.0850597808872
 30
0.0
 11
707.6816792562848
 21
205.5850597808954
 31
0.0
  0
LINE
  5
3ADA
330
18
100
AcDbEntity
  8
1
  6
Continuous
100
AcDbLine
 10
128.1816792564572
 20
125.0850646343913
 30
0.0
 11
128.1816792564576
 21
193.5850646343912
 31
0.0
  0
ARC
  5
3ADD
330
18
100
AcDbEntity
  8
1
  6
Continuous
100
AcDbCircle
 10
97.18167925646072
 20
136.1638486623419
 30
0.0
 40
50.0
100
AcDbArc
 50
336.3180927087934
 51
0.000000000000007
  0
ARC
  5
3ADE
330
18
100
AcDbEntity
  8
1
  6
Continuous
100
AcDbCircle
 10
89.0441981508219
 20
107.6076944784041
 30
0.0
 40
50.0
100
AcDbArc
 50
10.40012763457008
 51
35.51980546060135
  0
LINE
  5
3ADF
330
18
100
AcDbEntity
  8
1
  6
Continuous
100
AcDbLine
 10
130.1816792564574
 20
125.0850646343913
 30
0.0
 11
130.1816792564584
 21
136.0278923715113
 31
0.0
  0
ARC
  5
3AE1
330
18
100
AcDbEntity
  8
1
  6
Continuous
100
AcDbCircle
 10
140.6816792564508
 20
117.0850646339807
 30
0.0
 40
2.5
100
AcDbArc
 50
190.4001276345701
 51
336.3180927087934
  0
LINE
  5
3AE2
330
18
100
AcDbEntity
  8
4
  6
CENTER
 48
0.1
100
AcDbLine
 10
138.6816792564508
 20
117.0850646339806
 30
0.0
 11
142.6816792564508
 21
117.0850646339806
 31
0.0
  0
LINE
  5
3AE3
330
18
100
AcDbEntity
  8
4
  6
CENTER
 48
0.1
100
AcDbLine
 10
140.6816792564508
 20
119.0850646339806
 30
0.0
 11
140.6816792564508
 21
115.0850646339806
 31
0.0
  0
LINE
  5
3AE4
330
18
100
AcDbEntity
  8
1
  6
Continuous
100
AcDbLine
 10
130.1816792564572
 20
125.0850646343914
 30
0.0
 11
128.1816792564572
 21
125.0850646343914
 31
0.0
  0
ARC
  5
3AE6
330
18
100
AcDbEntity
  8
1
  6
Continuous
100
AcDbCircle
 10
50.31951687622779
 20
168.3181695283549
 30
0.0
 40
101.5
100
AcDbArc
 50
11.8686616027159
 51
25.69030557440079
  0
ARC
  5
3AE7
330
18
100
AcDbEntity
  8
1
  6
Continuous
100
AcDbCircle
 10
141.3631968219195
 20
176.8850646334731
 30
0.0
 40
5.0
100
AcDbArc
 50
270.0
 51
351.6341138759676
  0
LINE
  5
3AEB
330
18
100
AcDbEntity
  8
1
  6
Continuous
100
AcDbLine
 10
146.309992498744
 20
176.157594680999
 30
0.0
 11
148.1816792564608
 21
188.8850646334732
 31
0.0
  0
LINE
  5
3AEC
330
18
100
AcDbEntity
  8
1
  6
Continuous
100
AcDbLine
 10
147.1816792564605
 20
136.1638486623418
 30
0.0
 11
147.1816792564605
 21
182.0850646334719
 31
0.0
  0
LINE
  5
3AED
330
18
100
AcDbEntity
  8
1
  6
Continuous
100
AcDbLine
 10
148.1816792564604
 20
188.885064633473
 30
0.0
 11
149.6496116921641
 21
189.1935680600499
 31
0.0
  0
LINE
  5
3AEE
330
18
100
AcDbEntity
  8
1
  6
Continuous
100
AcDbLine
 10
129.1816792564606
 20
159.5850646339772
 30
0.0
 11
129.1816792564606
 21
195.3170113923573
 31
0.0
  0
LINE
  5
3AF1
330
18
100
AcDbEntity
  8
1
  6
Continuous
100
AcDbLine
 10
130.1816792564604
 20
159.0850646339773
 30
0.0
 11
130.1816792564604
 21
151.0850646340787
 31
0.0
  0
LINE
  5
3AF3
330
18
100
AcDbEntity
  8
4
  6
CENTER
 48
0.1
100
AcDbLine
 10
132.181679256458
 20
133.0850646343914
 30
0.0
 11
126.1816792564573
 21
133.0850646343914
 31
0.0
  0
LINE
  5
3AF4
330
18
100
AcDbEntity
  8
1
  6
Continuous
100
AcDbLine
 10
129.1816792564604
 20
138.3998643249848
 30
0.0
 11
129.1816792564606
 21
150.5850646340789
 31
0.0
  0
ARC
  5
3AF5
330
18
100
AcDbEntity
  8
1
  6
Continuous
100
AcDbCircle
 10
132.1816792564604
 20
138.3998643249847
 30
0.0
 40
3.0
100
AcDbArc
 50
180.0
 51
215.5198054606013
  0
LINE
  5
3AF6
330
18
100
AcDbEntity
  8
1
  6
Continuous
100
AcDbLine
 10
130.1816792564608
 20
151.085064634079
 30
0.0
 11
129.1816792564607
 21
150.585064634079
 31
0.0
  0
LINE
  5
3AF7
330
18
100
AcDbEntity
  8
1
  6
Continuous
100
AcDbLine
 10
130.1816792564602
 20
152.0850646342407
 30
0.0
 11
128.1816792562718
 21
152.0850646342378
 31
0.0
  0
ARC
  5
3AF8
330
18
100
AcDbEntity
  8
1
  6
Continuous
100
AcDbCircle
 10
134.1816792564606
 20
176.8850646334731
 30
0.0
 40
5.0
100
AcDbArc
 50
180.0
 51
270.0
  0
LINE
  5
3AF9
330
18
100
AcDbEntity
  8
1
  6
Continuous
100
AcDbLine
 10
143.2902197011572
 20
165.302508391638
 30
0.0
 11
132.3160685955201
 21
165.302508391638
 31
0.0
  0
LINE
  5
3AFB
330
18
100
AcDbEntity
  8
1
  6
Continuous
100
AcDbLine
 10
134.1816792564606
 20
171.885064633473
 30
0.0
 11
141.3631968219195
 21
171.885064633473
 31
0.0
  0
LINE
  5
3AFC
330
18
100
AcDbEntity
  8
4
  6
CENTER
 48
0.1
100
AcDbLine
 10
142.1816792564604
 20
176.5850646334729
 30
0.0
 11
133.1816792564606
 21
176.5850646334729
 31
0.0
  0
LINE
  5
3AFD
330
18
100
AcDbEntity
  8
4
  6
CENTER
 48
0.1
100
AcDbLine
 10
137.6816792564607
 20
172.0850646334729
 30
0.0
 11
137.6816792564607
 21
181.0850646334729
 31
0.0
  0
LINE
  5
3AFF
330
18
100
AcDbEntity
  8
1
  6
Continuous
100
AcDbLine
 10
130.1816792564606
 20
159.0850646339773
 30
0.0
 11
129.1816792564607
 21
159.5850646339773
 31
0.0
  0
LINE
  5
3B00
330
18
100
AcDbEntity
  8
1
  6
Continuous
100
AcDbLine
 10
130.1816792564572
 20
159.0850646339381
 30
0.0
 11
128.1816792564564
 21
159.0850646339361
 31
0.0
  0
LINE
  5
3B01
330
18
100
AcDbEntity
  8
1
  6
Continuous
100
AcDbLine
 10
129.1816792564607
 20
180.5850646342385
 30
0.0
 11
128.1816792567376
 21
180.5850646342377
 31
0.0
  0
LINE
  5
3B02
330
18
100
AcDbEntity
  8
4
  6
CENTER
 48
0.1
100
AcDbLine
 10
131.1816792564606
 20
176.0850646343914
 30
0.0
 11
126.1816792564575
 21
176.0850646343914
 31
0.0
  0
LINE
  5
3B05
330
18
100
AcDbEntity
  8
1
  6
Continuous
100
AcDbLine
 10
130.6816622177539
 20
202.9163479688879
 30
0.0
 11
130.6816566083169
 21
211.5850626927026
 31
0.0
  0
LINE
  5
3B06
330
18
100
AcDbEntity
  8
4
  6
CENTER
 48
0.1
100
AcDbLine
 10
139.1816634566113
 20
202.5850626921987
 30
0.0
 11
130.1816634566113
 21
202.5850626921987
 31
0.0
  0
LINE
  5
3B07
330
18
100
AcDbEntity
  8
4
  6
CENTER
 48
0.1
100
AcDbLine
 10
143.6816792564543
 20
188.5850646343913
 30
0.0
 11
134.6816792564543
 21
188.5850646343913
 31
0.0
  0
LINE
  5
3B08
330
18
100
AcDbEntity
  8
4
  6
CENTER
 48
0.1
100
AcDbLine
 10
139.1816792564543
 20
184.0850646343913
 30
0.0
 11
139.1816792564543
 21
193.0850646343913
 31
0.0
  0
LINE
  5
3B09
330
18
100
AcDbEntity
  8
4
  6
CENTER
 48
0.1
100
AcDbLine
 10
134.6816634566113
 20
198.0850626921986
 30
0.0
 11
134.6816634566113
 21
207.0850626921987
 31
0.0
  0
ARC
  5
3B0C
330
18
100
AcDbEntity
  8
1
  6
Continuous
100
AcDbCircle
 10
139.1816671352069
 20
195.3170113923573
 30
0.0
 40
10.0
100
AcDbArc
 50
157.6683920662616
 51
180.0000741510296
  0
LINE
  5
3B0D
330
18
100
AcDbEntity
  8
1
  6
Continuous
100
AcDbLine
 10
129.1816792564607
 20
184.5850646344045
 30
0.0
 11
128.1816792564417
 21
184.5850646344047
 31
0.0
  0
LINE
  5
3B0E
330
18
100
AcDbEntity
  8
1
  6
Continuous
100
AcDbLine
 10
129.1816792564606
 20
193.5850646343919
 30
0.0
 11
128.1816792564505
 21
193.5850646343912
 31
0.0
  0
ARC
  5
3B0F
330
18
100
AcDbEntity
  8
1
  6
Continuous
100
AcDbCircle
 10
120.6816622177581
 20
202.9163414979897
 30
0.0
 40
10.0
100
AcDbArc
 50
337.6683920662617
 51
0.0000741510296766
  0
ARC
  5
3B10
330
18
100
AcDbEntity
  8
1
  6
Continuous
100
AcDbCircle
 10
133.6816566082856
 20
211.5850646339722
 30
0.0
 40
3.0
100
AcDbArc
 50
90.00000000004964
 51
180.0000000000489
  0
ARC
  5
3B11
330
18
100
AcDbEntity
  8
1
  6
Continuous
100
AcDbCircle
 10
138.1816792564606
 20
210.5850646339761
 30
0.0
 40
4.0
100
AcDbArc
 50
25.69030557439932
 51
90.0
  0
LINE
  5
3B12
330
18
100
AcDbEntity
  8
1
  6
Continuous
100
AcDbLine
 10
138.1816792564571
 20
214.5850646339762
 30
0.0
 11
133.6816566082831
 21
214.5850646339721
 31
0.0
  0
LINE
  5
3B1B
330
18
100
AcDbEntity
  8
1
  6
Continuous
100
AcDbLine
 10
42.68167925654346
 20
214.0850597812387
 30
0.0
 11
42.68167925653915
 21
204.0850597812386
 31
0.0
  0
LINE
  5
3B1C
330
18
100
AcDbEntity
  8
1
  6
Continuous
100
AcDbLine
 10
44.68167925654348
 20
214.0850597812383
 30
0.0
 11
44.68167925653914
 21
204.0850597812381
 31
0.0
  0
LINE
  5
3B1D
330
18
100
AcDbEntity
  8
1
  6
Continuous
100
AcDbLine
 10
48.87103648070058
 20
199.0850597812383
 30
0.0
 11
47.68167925654506
 21
199.0850597812368
 31
0.0
  0
LINE
  5
3B1E
330
18
100
AcDbEntity
  8
1
  6
Continuous
100
AcDbLine
 10
48.87103648069818
 20
201.0850597812383
 30
0.0
 11
47.68167925654256
 21
201.0850597812368
 31
0.0
  0
LINE
  5
3B1F
330
18
100
AcDbEntity
  8
4
  6
CENTER
 48
0.1
100
AcDbLine
 10
45.68167925653916
 20
204.0850597812366
 30
0.0
 11
51.18167925653914
 21
204.0850597812366
 31
0.0
  0
LINE
  5
3B22
330
18
100
AcDbEntity
  8
1
  6
Continuous
100
AcDbLine
 10
56.68167925654348
 20
202.8210337985226
 30
0.0
 11
55.68167925654346
 21
204.5530846060912
 31
0.0
  0
LINE
  5
3B23
330
18
100
AcDbEntity
  8
1
  6
Continuous
100
AcDbLine
 10
51.37103648069444
 20
199.7549327623161
 30
0.0
 11
56.68167925654348
 21
202.8210337985224
 31
0.0
  0
ARC
  5
3B25
330
18
100
AcDbEntity
  8
1
  6
Continuous
100
AcDbCircle
 10
48.87103648069468
 20
204.0850597812381
 30
0.0
 40
3.0
100
AcDbArc
 50
270.0000000000692
 51
299.9999999999999
  0
ARC
  5
3B26
330
18
100
AcDbEntity
  8
1
  6
Continuous
100
AcDbCircle
 10
48.87103648069468
 20
204.0850597812381
 30
0.0
 40
5.0
100
AcDbArc
 50
270.0000000000692
 51
299.9999999999999
  0
LINE
  5
3B27
330
18
100
AcDbEntity
  8
1
  6
Continuous
100
AcDbLine
 10
50.37103648069479
 20
201.4869835698848
 30
0.0
 11
55.6816792565436
 21
204.5530846060911
 31
0.0
  0
LINE
  5
3B28
330
18
100
AcDbEntity
  8
4
  6
CENTER
 48
0.1
100
AcDbLine
 10
46.6816792565413
 20
209.0850597812382
 30
0.0
 11
40.68167925654131
 21
209.0850597812387
 31
0.0
  0
LINE
  5
3B29
330
18
100
AcDbEntity
  8
1
  6
Continuous
100
AcDbLine
 10
44.68167925653938
 20
204.5850597812381
 30
0.0
 11
42.68167925653938
 21
204.5850597812389
 31
0.0
  0
LINE
  5
3B2A
330
18
100
AcDbEntity
  8
4
  6
CENTER
 48
0.1
100
AcDbLine
 10
47.68167925653914
 20
206.0850597812366
 30
0.0
 11
47.68167925653914
 21
202.0850597812366
 31
0.0
  0
ARC
  5
3B2B
330
18
100
AcDbEntity
  8
1
  6
Continuous
100
AcDbCircle
 10
47.68167925653904
 20
204.0850597812368
 30
0.0
 40
3.0
100
AcDbArc
 50
180.0000000000684
 51
270.0000000000692
  0
ARC
  5
3B2C
330
18
100
AcDbEntity
  8
1
  6
Continuous
100
AcDbCircle
 10
47.68167925653904
 20
204.0850597812368
 30
0.0
 40
4.999999805771492
100
AcDbArc
 50
180.0000000000684
 51
270.0000000000692
  0
LINE
  5
3B2D
330
18
100
AcDbEntity
  8
1
  6
Continuous
100
AcDbLine
 10
44.68167925654348
 20
214.0850597812379
 30
0.0
 11
42.68167925654346
 21
214.0850597812387
 31
0.0
  0
ARC
  5
4B63
330
18
100
AcDbEntity
  8
1
  6
Continuous
100
AcDbCircle
 10
127.4923747835088
 20
314.1405543356082
 30
0.0
 40
2.7
100
AcDbArc
 50
90.0
 51
152.7339555492681
  0
ARC
  5
4B64
330
18
100
AcDbEntity
  8
1
  6
Continuous
100
AcDbCircle
 10
127.4923747835088
 20
314.1405543356082
 30
0.0
 40
2.7
100
AcDbArc
 50
207.2660444507318
 51
270.0
  0
ARC
  5
4B65
330
18
100
AcDbEntity
  8
1
  6
Continuous
100
AcDbCircle
 10
127.6923747835087
 20
314.1405543355825
 30
0.0
 40
4.299999999999998
100
AcDbArc
 50
90.0
 51
270.0
  0
LINE
  5
4B66
330
18
100
AcDbEntity
  8
1
  6
Continuous
100
AcDbLine
 10
128.5923747835087
 20
320.2275183009811
 30
0.0
 11
119.4371186747614
 21
323.1405543355825
 31
0.0
  0
LINE
  5
4B67
330
18
100
AcDbEntity
  8
1
  6
Continuous
100
AcDbLine
 10
128.5923747835087
 20
308.0535903701839
 30
0.0
 11
119.4371186747614
 21
305.1405543355826
 31
0.0
  0
ARC
  5
4B68
330
18
100
AcDbEntity
  8
1
  6
Continuous
100
AcDbCircle
 10
127.6873706098831
 20
314.1405543355825
 30
0.0
 40
3.1
100
AcDbArc
 50
194.9552483166429
 51
270.0
  0
ARC
  5
4B69
330
18
100
AcDbEntity
  8
1
  6
Continuous
100
AcDbCircle
 10
127.6873706098831
 20
314.1405543355825
 30
0.0
 40
3.1
100
AcDbArc
 50
90.0
 51
165.044751683357
  0
LINE
  5
4B6A
330
18
100
AcDbEntity
  8
1
  6
Continuous
100
AcDbLine
 10
128.5019857553395
 20
306.9754305538924
 30
0.0
 11
119.7403223320384
 21
304.1876285555692
 31
0.0
  0
LINE
  5
4B6B
330
18
100
AcDbEntity
  8
1
  6
Continuous
100
AcDbLine
 10
130.5923747835088
 20
320.6405543355827
 30
0.0
 11
119.7403223320385
 21
324.0934801155959
 31
0.0
  0
LINE
  5
4B6C
330
18
100
AcDbEntity
  8
1
  6
Continuous
100
AcDbLine
 10
110.7511963081323
 20
310.8934986306128
 30
0.0
 11
114.7971475207817
 21
304.5997967442692
 31
0.0
  0
LINE
  5
4B72
330
18
100
AcDbEntity
  8
1
  6
Continuous
100
AcDbLine
 10
115.6383259961583
 20
304.1405543355825
 30
0.0
 11
119.4371186747615
 21
304.1405543355825
 31
0.0
  0
ARC
  5
4B73
330
18
100
AcDbEntity
  8
1
  6
Continuous
100
AcDbCircle
 10
115.6383259961583
 20
305.1405543355826
 30
0.0
 40
1.0
100
AcDbArc
 50
212.7352262721067
 51
270.0
  0
ARC
  5
4B74
330
18
100
AcDbEntity
  8
1
  6
Continuous
100
AcDbCircle
 10
119.4371186747615
 20
305.1405543355826
 30
0.0
 40
1.0
100
AcDbArc
 50
270.0
 51
287.6501242199291
  0
LINE
  5
4B77
330
18
100
AcDbEntity
  8
1
  6
Continuous
100
AcDbLine
 10
110.7511963081321
 20
317.3876100405523
 30
0.0
 11
114.7971475207816
 21
323.6813119268962
 31
0.0
  0
LINE
  5
4B78
330
18
100
AcDbEntity
  8
1
  6
Continuous
100
AcDbLine
 10
110.5923747835087
 20
311.4342562219262
 30
0.0
 11
110.5923747835087
 21
316.8468524492388
 31
0.0
  0
ARC
  5
4B7D
330
18
100
AcDbEntity
  8
1
  6
Continuous
100
AcDbCircle
 10
111.5923747835087
 20
311.4342562219262
 30
0.0
 40
1.0
100
AcDbArc
 50
180.0
 51
212.7352262721067
  0
ARC
  5
4B7E
330
18
100
AcDbEntity
  8
1
  6
Continuous
100
AcDbCircle
 10
111.5923747835087
 20
316.8468524492388
 30
0.0
 40
1.0
100
AcDbArc
 50
147.2647737278933
 51
180.0
  0
LINE
  5
4B7F
330
18
100
AcDbEntity
  8
1
  6
Continuous
100
AcDbLine
 10
116.092374783504
 20
307.1405543355687
 30
0.0
 11
116.0923747834906
 21
321.1405543355687
 31
0.0
  0
LINE
  5
4B80
330
18
100
AcDbEntity
  8
1
  6
Continuous
100
AcDbLine
 10
122.5923747835009
 20
320.0405543355671
 30
0.0
 11
122.5923747834758
 21
308.240554335586
 31
0.0
  0
LINE
  5
4B81
330
18
100
AcDbEntity
  8
1
  6
Continuous
100
AcDbLine
 10
111.5923747835087
 20
311.4342562219265
 30
0.0
 11
111.5923747835087
 21
316.8468524492388
 31
0.0
  0
LINE
  5
4B83
330
18
100
AcDbEntity
  8
1
  6
Continuous
100
AcDbLine
 10
122.5923747834758
 20
308.240554335586
 30
0.0
 11
119.0923747835031
 21
308.2405543355791
 31
0.0
  0
LINE
  5
4B84
330
18
100
AcDbEntity
  8
1
  6
Continuous
100
AcDbLine
 10
115.6383259961583
 20
305.1405543355826
 30
0.0
 11
119.4371186747615
 21
305.1405543355826
 31
0.0
  0
LINE
  5
4B85
330
18
100
AcDbEntity
  8
1
  6
Continuous
100
AcDbLine
 10
111.5923747835088
 20
311.4342562219263
 30
0.0
 11
115.6383259961583
 21
305.1405543355826
 31
0.0
  0
LINE
  5
4B86
330
18
100
AcDbEntity
  8
1
  6
Continuous
100
AcDbLine
 10
119.0923747835031
 20
308.2405543355791
 30
0.0
 11
119.092374783504
 21
307.1405543355711
 31
0.0
  0
LINE
  5
4B87
330
18
100
AcDbEntity
  8
1
  6
Continuous
100
AcDbLine
 10
116.092374783504
 20
307.1405543355687
 30
0.0
 11
119.0923747835041
 21
307.1405543355711
 31
0.0
  0
ARC
  5
4B8A
330
18
100
AcDbEntity
  8
1
  6
Continuous
100
AcDbCircle
 10
114.7923747835087
 20
312.9405543355825
 30
0.0
 40
0.8
100
AcDbArc
 50
270.0
 51
0.0
  0
ARC
  5
4B8B
330
18
100
AcDbEntity
  8
1
  6
Continuous
100
AcDbCircle
 10
114.7923747835087
 20
315.3405543355825
 30
0.0
 40
0.8
100
AcDbArc
 50
0.0
 51
90.0
  0
LINE
  5
4B8E
330
18
100
AcDbEntity
  8
1
  6
Continuous
100
AcDbLine
 10
113.3923747835087
 20
312.1405543355825
 30
0.0
 11
114.7923747835087
 21
312.1405543355825
 31
0.0
  0
ARC
  5
4B92
330
18
100
AcDbEntity
  8
1
  6
Continuous
100
AcDbCircle
 10
113.3923747835087
 20
315.3405543355825
 30
0.0
 40
0.8
100
AcDbArc
 50
90.0
 51
180.0
  0
LINE
  5
4B94
330
18
100
AcDbEntity
  8
1
  6
Continuous
100
AcDbLine
 10
112.5923747835087
 20
312.9405543355825
 30
0.0
 11
112.5923747835087
 21
315.3405543355825
 31
0.0
  0
LINE
  5
4B95
330
18
100
AcDbEntity
  8
1
  6
Continuous
100
AcDbLine
 10
113.3923747835087
 20
316.1405543355825
 30
0.0
 11
114.7923747835087
 21
316.1405543355825
 31
0.0
  0
LINE
  5
4B97
330
18
100
AcDbEntity
  8
1
  6
Continuous
100
AcDbLine
 10
115.5923747835087
 20
312.9405543355825
 30
0.0
 11
115.5923747835087
 21
315.3405543355825
 31
0.0
  0
LINE
  5
4B99
330
18
100
AcDbEntity
  8
1
  6
Continuous
100
AcDbLine
 10
125.0923747835087
 20
315.3774860232934
 30
0.0
 11
125.0923747835087
 21
312.9036226479228
 31
0.0
  0
LINE
  5
4B9A
330
18
100
AcDbEntity
  8
1
  6
Continuous
100
AcDbLine
 10
124.6923747835087
 20
313.3405543355825
 30
0.0
 11
124.6923747835087
 21
314.9405543355825
 31
0.0
  0
LINE
  5
4B9B
330
18
100
AcDbEntity
  8
1
  6
Continuous
100
AcDbLine
 10
122.5923747835009
 20
320.0405543355671
 30
0.0
 11
119.0923747834915
 21
320.040554335566
 31
0.0
  0
LINE
  5
4B9C
330
18
100
AcDbEntity
  8
1
  6
Continuous
100
AcDbLine
 10
115.6383259961583
 20
323.1405543355825
 30
0.0
 11
119.4371186747615
 21
323.1405543355825
 31
0.0
  0
LINE
  5
4B9D
330
18
100
AcDbEntity
  8
1
  6
Continuous
100
AcDbLine
 10
115.6383259961583
 20
324.1405543355825
 30
0.0
 11
119.4371186747615
 21
324.1405543355825
 31
0.0
  0
LINE
  5
4B9E
330
18
100
AcDbEntity
  8
1
  6
Continuous
100
AcDbLine
 10
111.5923747835088
 20
316.8468524492388
 30
0.0
 11
115.6383259961583
 21
323.1405543355827
 31
0.0
  0
LINE
  5
4B9F
330
18
100
AcDbEntity
  8
1
  6
Continuous
100
AcDbLine
 10
119.0923747834906
 20
321.1405543355712
 30
0.0
 11
119.0923747834915
 21
320.040554335566
 31
0.0
  0
LINE
  5
4BA0
330
18
100
AcDbEntity
  8
1
  6
Continuous
100
AcDbLine
 10
116.0923747834906
 20
321.1405543355687
 30
0.0
 11
119.0923747834906
 21
321.1405543355712
 31
0.0
  0
ARC
  5
4BA1
330
18
100
AcDbEntity
  8
1
  6
Continuous
100
AcDbCircle
 10
115.6383259961583
 20
323.1405543355825
 30
0.0
 40
1.0
100
AcDbArc
 50
90.0
 51
147.2647737278933
  0
ARC
  5
4BA2
330
18
100
AcDbEntity
  8
1
  6
Continuous
100
AcDbCircle
 10
119.4371186747615
 20
323.1405543355825
 30
0.0
 40
1.0
100
AcDbArc
 50
72.3498757800708
 51
90.0
  0
LINE
  5
4BA3
330
18
100
AcDbEntity
  8
1
  6
Continuous
100
AcDbLine
 10
142.3923747835086
 20
317.6405543355031
 30
0.0
 11
142.3923747835086
 21
310.6405543355031
 31
0.0
  0
LINE
  5
4BA4
330
18
100
AcDbEntity
  8
1
  6
Continuous
100
AcDbLine
 10
131.7923747835087
 20
317.6405543355031
 30
0.0
 11
131.7923747835087
 21
310.6405543355031
 31
0.0
  0
LINE
  5
4BA5
330
18
100
AcDbEntity
  8
1
  6
Continuous
100
AcDbLine
 10
131.5923747835087
 20
317.440554335503
 30
0.0
 11
131.5923747835087
 21
310.8405543355031
 31
0.0
  0
LINE
  5
4BA6
330
18
100
AcDbEntity
  8
1
  6
Continuous
100
AcDbLine
 10
142.5923747835087
 20
317.440554335503
 30
0.0
 11
142.5923747835087
 21
310.840554335503
 31
0.0
  0
LINE
  5
4BA9
330
18
100
AcDbEntity
  8
1
  6
Continuous
100
AcDbLine
 10
142.3923747835086
 20
310.6405543355031
 30
0.0
 11
131.7923747835087
 21
310.6405543355031
 31
0.0
  0
LINE
  5
4BAB
330
18
100
AcDbEntity
  8
1
  6
Continuous
100
AcDbLine
 10
130.5923747835087
 20
309.8342078939321
 30
0.0
 11
130.5923747835087
 21
311.4405543356046
 31
0.0
  0
LINE
  5
4BAC
330
18
100
AcDbEntity
  8
1
  6
Continuous
100
AcDbLine
 10
131.7923747835086
 20
310.6405543355032
 30
0.0
 11
131.5923747835087
 21
310.8405543355031
 31
0.0
  0
LINE
  5
4BB2
330
18
100
AcDbEntity
  8
1
  6
Continuous
100
AcDbLine
 10
128.5923747835087
 20
308.0535903701839
 30
0.0
 11
128.5923747835087
 21
309.8405543355815
 31
0.0
  0
LINE
  5
4BB3
330
18
100
AcDbEntity
  8
1
  6
Continuous
100
AcDbLine
 10
127.6923747835087
 20
309.8405543355825
 30
0.0
 11
128.5923747835088
 21
309.8405543355815
 31
0.0
  0
ARC
  5
4BB4
330
18
100
AcDbEntity
  8
1
  6
Continuous
100
AcDbCircle
 10
127.5923747835087
 20
309.8342078939321
 30
0.0
 40
3.0
100
AcDbArc
 50
287.6501242199299
 51
0.0
  0
LINE
  5
4BB7
330
18
100
AcDbEntity
  8
1
  6
Continuous
100
AcDbLine
 10
131.5923747835088
 20
311.4405543356035
 30
0.0
 11
127.4923747835057
 21
311.4405543356081
 31
0.0
  0
LINE
  5
4BB8
330
18
100
AcDbEntity
  8
1
  6
Continuous
100
AcDbLine
 10
128.0923747835087
 20
311.0405543355825
 30
0.0
 11
128.0923747835087
 21
311.4405543356074
 31
0.0
  0
LINE
  5
4BB9
330
18
100
AcDbEntity
  8
1
  6
Continuous
100
AcDbLine
 10
127.6873706098831
 20
311.0405543355825
 30
0.0
 11
128.0923747835087
 21
311.0405543355825
 31
0.0
  0
LINE
  5
4BBA
330
18
100
AcDbEntity
  8
1
  6
Continuous
100
AcDbLine
 10
142.5923747835087
 20
310.840554335503
 30
0.0
 11
142.3923747835086
 21
310.640554335503
 31
0.0
  0
LINE
  5
4BBC
330
18
100
AcDbEntity
  8
1
  6
Continuous
100
AcDbLine
 10
141.6923747835087
 20
317.5842986640803
 30
0.0
 11
134.9923747835088
 21
317.5842986640803
 31
0.0
  0
ARC
  5
4BBD
330
18
100
AcDbEntity
  8
1
  6
Continuous
100
AcDbCircle
 10
135.4923747835088
 20
319.4405543355827
 30
0.0
 40
1.199999999999999
100
AcDbArc
 50
0.0
 51
90.0
  0
LINE
  5
4BBE
330
18
100
AcDbEntity
  8
1
  6
Continuous
100
AcDbLine
 10
131.5923747835088
 20
316.8405543356036
 30
0.0
 11
127.4923747835117
 21
316.8405543356081
 31
0.0
  0
LINE
  5
4BBF
330
18
100
AcDbEntity
  8
1
  6
Continuous
100
AcDbLine
 10
130.7923747835087
 20
317.7405543355825
 30
0.0
 11
135.2923747835087
 21
317.7405543355825
 31
0.0
  0
LINE
  5
4BC0
330
18
100
AcDbEntity
  8
1
  6
Continuous
100
AcDbLine
 10
130.5923747835088
 20
320.6405543355825
 30
0.0
 11
135.4923747835088
 21
320.6405543355825
 31
0.0
  0
LINE
  5
4BC1
330
18
100
AcDbEntity
  8
1
  6
Continuous
100
AcDbLine
 10
130.5923747835088
 20
316.8405543356046
 30
0.0
 11
130.5923747835088
 21
317.5405543355825
 31
0.0
  0
LINE
  5
4BC2
330
18
100
AcDbEntity
  8
1
  6
Continuous
100
AcDbLine
 10
128.0923747835087
 20
316.8405543356073
 30
0.0
 11
128.0923747835087
 21
317.2405543355826
 31
0.0
  0
ARC
  5
4BC3
330
18
100
AcDbEntity
  8
1
  6
Continuous
100
AcDbCircle
 10
130.7923747835087
 20
317.5405543355825
 30
0.0
 40
0.2
100
AcDbArc
 50
90.0
 51
180.0
  0
LINE
  5
4BC4
330
18
100
AcDbEntity
  8
1
  6
Continuous
100
AcDbLine
 10
128.5923747835087
 20
318.4405543355818
 30
0.0
 11
128.5923747835087
 21
320.2275183009811
 31
0.0
  0
LINE
  5
4BC5
330
18
100
AcDbEntity
  8
1
  6
Continuous
100
AcDbLine
 10
127.6923747835087
 20
318.4405543355825
 30
0.0
 11
128.5923747835089
 21
318.4405543355818
 31
0.0
  0
LINE
  5
4BC6
330
18
100
AcDbEntity
  8
1
  6
Continuous
100
AcDbLine
 10
127.6873706098831
 20
317.2405543355826
 30
0.0
 11
128.0923747835087
 21
317.2405543355826
 31
0.0
  0
LINE
  5
4BC7
330
18
100
AcDbEntity
  8
1
  6
Continuous
100
AcDbLine
 10
134.9923747835088
 20
317.6405543355031
 30
0.0
 11
134.9923747835088
 21
317.5842986640803
 31
0.0
  0
LINE
  5
4BC8
330
18
100
AcDbEntity
  8
1
  6
Continuous
100
AcDbLine
 10
134.9923747835088
 20
317.6405543355031
 30
0.0
 11
131.7923747835087
 21
317.6405543355031
 31
0.0
  0
LINE
  5
4BC9
330
18
100
AcDbEntity
  8
1
  6
Continuous
100
AcDbLine
 10
131.5923747835086
 20
317.4405543355031
 30
0.0
 11
131.7923747835086
 21
317.6405543355031
 31
0.0
  0
LINE
  5
4BCA
330
18
100
AcDbEntity
  8
1
  6
Continuous
100
AcDbLine
 10
135.2923747835087
 20
317.5842986640803
 30
0.0
 11
135.2923747835087
 21
317.7405543355825
 31
0.0
  0
LINE
  5
4BCB
330
18
100
AcDbEntity
  8
1
  6
Continuous
100
AcDbLine
 10
136.6923747835087
 20
317.5842986640803
 30
0.0
 11
136.6923747835087
 21
319.4405543355827
 31
0.0
  0
LINE
  5
4BCC
330
18
100
AcDbEntity
  8
1
  6
Continuous
100
AcDbLine
 10
141.6923747835087
 20
317.6405543355031
 30
0.0
 11
141.6923747835087
 21
317.5842986640803
 31
0.0
  0
LINE
  5
4BCD
330
18
100
AcDbEntity
  8
1
  6
Continuous
100
AcDbLine
 10
142.3923747835086
 20
317.6405543355031
 30
0.0
 11
141.6923747835087
 21
317.6405543355031
 31
0.0
  0
LINE
  5
4BCE
330
18
100
AcDbEntity
  8
1
  6
Continuous
100
AcDbLine
 10
142.5923747835087
 20
317.4405543355031
 30
0.0
 11
142.3923747835086
 21
317.640554335503
 31
0.0
  0
LINE
  5
4BCF
330
18
100
AcDbEntity
  8
1
  6
Continuous
100
AcDbLine
 10
141.8923747835085
 20
317.7905543355825
 30
0.0
 11
141.8923747835085
 21
318.3405543355825
 31
0.0
  0
LINE
  5
4BD0
330
18
100
AcDbEntity
  8
1
  6
Continuous
100
AcDbLine
 10
141.6923747835088
 20
317.6905543355827
 30
0.0
 11
141.8923747835089
 21
317.7905543355827
 31
0.0
  0
LINE
  5
4BD1
330
18
100
AcDbEntity
  8
1
  6
Continuous
100
AcDbLine
 10
140.4923747835088
 20
317.5842986640803
 30
0.0
 11
140.4923747835088
 21
318.3405543355825
 31
0.0
  0
LINE
  5
4BD2
330
18
100
AcDbEntity
  8
1
  6
Continuous
100
AcDbLine
 10
140.4923747835088
 20
318.3405543355825
 30
0.0
 11
141.8923747835085
 21
318.3405543355825
 31
0.0
  0
LINE
  5
4BD3
330
18
100
AcDbEntity
  8
1
  6
Continuous
100
AcDbLine
 10
141.6923747835087
 20
317.5842986640803
 30
0.0
 11
141.6923747835087
 21
317.6905543355825
 31
0.0
  0
ARC
  5
4BD5
330
18
100
AcDbEntity
  8
1
  6
Continuous
100
AcDbCircle
 10
113.3923747835087
 20
312.9405543355825
 30
0.0
 40
0.8
100
AcDbArc
 50
180.0
 51
270.0
  0
LINE
  5
4C82
330
18
100
AcDbEntity
  8
4
  6
CENTER
100
AcDbLine
 10
228.3434591648406
 20
162.3858462776563
 30
0.0
 11
247.0198993477939
 21
143.709406094703
 31
0.0
  0
LINE
  5
4C83
330
18
100
AcDbEntity
  8
4
  6
CENTER
100
AcDbLine
 10
224.1442408085299
 20
153.0850646339668
 30
0.0
 11
251.1442408085302
 21
153.0850646339668
 31
0.0
  0
LINE
  5
4C84
330
18
100
AcDbEntity
  8
4
  6
CENTER
100
AcDbLine
 10
228.3808222624179
 20
143.8216460878545
 30
0.0
 11
246.7717625947491
 21
162.2125864201859
 31
0.0
  0
CIRCLE
  5
4C86
330
18
100
AcDbEntity
  8
1
  6
Continuous
100
AcDbCircle
 10
237.6442408085301
 20
153.0850646339668
 30
0.0
 40
10.5
  0
CIRCLE
  5
4C87
330
18
100
AcDbEntity
  8
1
  6
Continuous
100
AcDbCircle
 10
237.6442408085301
 20
153.0850646339668
 30
0.0
 40
12.0
  0
LINE
  5
4C89
330
18
100
AcDbEntity
  8
1
  6
Continuous
100
AcDbLine
 10
240.9811484196276
 20
155.4673780904623
 30
0.0
 11
241.6954535441349
 21
156.1816832149696
 31
0.0
  0
LINE
  5
4C8A
330
18
100
AcDbEntity
  8
1
  6
Continuous
100
AcDbLine
 10
241.6374157218081
 20
156.4458002450288
 30
0.0
 11
241.0049764195921
 21
157.0782395472447
 31
0.0
  0
ARC
  5
4C8B
330
18
100
AcDbEntity
  8
1
  6
Continuous
100
AcDbCircle
 10
237.6442408085301
 20
153.0850646339668
 30
0.0
 40
4.099999999999998
100
AcDbArc
 50
144.4759999999999
 51
35.52401804836155
  0
LINE
  5
4C8E
330
18
100
AcDbEntity
  8
4
  6
CENTER
100
AcDbLine
 10
224.1442408085301
 20
153.0850646339806
 30
0.0
 11
251.1442408085301
 21
153.0850646339806
 31
0.0
  0
LINE
  5
4C8F
330
18
100
AcDbEntity
  8
4
  6
CENTER
100
AcDbLine
 10
228.3434591648404
 20
162.3858462776702
 30
0.0
 11
247.0198993477937
 21
143.7094060947169
 31
0.0
  0
ARC
  5
4C90
330
18
100
AcDbEntity
  8
1
  6
Continuous
100
AcDbCircle
 10
237.6442408085294
 20
153.0850646339809
 30
0.0
 40
16.0
100
AcDbArc
 50
54.99999999990778
 51
124.9999999999078
  0
ARC
  5
4C91
330
18
100
AcDbEntity
  8
1
  6
Continuous
100
AcDbCircle
 10
237.6442408085299
 20
153.0850646339809
 30
0.0
 40
15.5
100
AcDbArc
 50
54.99999999990958
 51
124.9999999999097
  0
ARC
  5
4C92
330
18
100
AcDbEntity
  8
1
  6
Continuous
100
AcDbCircle
 10
237.6442408085301
 20
153.0850646339668
 30
0.0
 40
2.95
100
AcDbArc
 50
147.7290000000003
 51
122.2710561268792
  0
ARC
  5
4C94
330
18
100
AcDbEntity
  8
1
  6
Continuous
100
AcDbCircle
 10
237.6442408085301
 20
153.0850646339668
 30
0.0
 40
4.099999999999998
100
AcDbArc
 50
54.47598195163778
 51
125.5239999999989
  0
LINE
  5
4C96
330
18
100
AcDbEntity
  8
1
  6
Continuous
100
AcDbLine
 10
241.0049764195921
 20
157.0782395472447
 30
0.0
 11
240.8438989933992
 21
157.2393169734377
 31
0.0
  0
LINE
  5
4C97
330
18
100
AcDbEntity
  8
1
  6
Continuous
100
AcDbLine
 10
240.0265542650257
 20
156.4219722450642
 30
0.0
 11
240.8438989933992
 21
157.2393169734377
 31
0.0
  0
LINE
  5
4C9B
330
18
100
AcDbEntity
  8
1
  6
Continuous
100
AcDbLine
 10
241.6954535441349
 20
156.1816832149696
 30
0.0
 11
241.7984931480011
 21
156.2847228188358
 31
0.0
  0
LINE
  5
4C9C
330
18
100
AcDbEntity
  8
1
  6
Continuous
100
AcDbLine
 10
241.7984931480011
 20
156.2847228188358
 30
0.0
 11
241.6374157218081
 21
156.4458002450288
 31
0.0
  0
LINE
  5
4C9D
330
18
100
AcDbEntity
  8
1
  6
Continuous
100
AcDbLine
 10
246.8214637901669
 20
166.1914973425901
 30
0.0
 11
246.9837657756678
 21
166.4232885996726
 31
0.0
  0
LINE
  5
4C9E
330
18
100
AcDbEntity
  8
1
  6
Continuous
100
AcDbLine
 10
246.3771751043213
 20
165.5569873414839
 30
0.0
 11
246.5346755719909
 21
165.7819213204464
 31
0.0
  0
ARC
  5
4C9F
330
18
100
AcDbEntity
  8
1
  6
Continuous
100
AcDbCircle
 10
234.9849160853149
 20
156.2208327135483
 30
0.0
 40
15.75
100
AcDbArc
 50
32.79999999991022
 51
40.37405397479896
  0
ARC
  5
4CA0
330
18
100
AcDbEntity
  8
1
  6
Continuous
100
AcDbCircle
 10
241.0245477391889
 20
150.7444291461539
 30
0.0
 40
15.75
100
AcDbArc
 50
62.79999999991024
 51
70.13230367609456
  0
ARC
  5
4CA2
330
18
100
AcDbEntity
  8
1
  6
Continuous
100
AcDbCircle
 10
234.26393387787
 20
150.7444291461539
 30
0.0
 40
15.75
100
AcDbArc
 50
109.8676963239054
 51
117.2000000000897
  0
LINE
  5
4CA3
330
18
100
AcDbEntity
  8
1
  6
Continuous
100
AcDbLine
 10
228.9113065127375
 20
165.5569873414837
 30
0.0
 11
228.7538060450679
 21
165.7819213204463
 31
0.0
  0
LINE
  5
4CA4
330
18
100
AcDbEntity
  8
1
  6
Continuous
100
AcDbLine
 10
228.4670178268918
 20
166.1914973425901
 30
0.0
 11
228.304715841391
 21
166.4232885996726
 31
0.0
  0
ARC
  5
4CA5
330
18
100
AcDbEntity
  8
1
  6
Continuous
100
AcDbCircle
 10
240.303565531744
 20
156.2208327135483
 30
0.0
 40
15.75
100
AcDbArc
 50
139.625946025201
 51
147.2000000000897
  0
LINE
  5
4CAB
330
18
100
AcDbEntity
  8
1
  6
Continuous
100
AcDbLine
 10
237.1492660616994
 20
154.4992781963398
 30
0.0
 11
236.2300272461569
 21
153.5800393807973
 31
0.0
  0
LINE
  5
4CAC
330
18
100
AcDbEntity
  8
1
  6
Continuous
100
AcDbLine
 10
236.069160453437
 20
155.5793838046023
 30
0.0
 11
237.1492660616995
 21
154.4992781963397
 31
0.0
  0
LINE
  5
4CAD
330
18
100
AcDbEntity
  8
1
  6
Continuous
100
AcDbLine
 10
235.1499216378945
 20
154.6601449890596
 30
0.0
 11
236.2300272461569
 21
153.5800393807971
 31
0.0
  0
LINE
  5
4CAE
330
18
100
AcDbEntity
  8
1
  6
Continuous
100
AcDbLine
 10
234.3073331974326
 20
155.4673780904622
 30
0.0
 11
233.4899884690591
 21
156.2847228188357
 31
0.0
  0
LINE
  5
4CAF
330
18
100
AcDbEntity
  8
1
  6
Continuous
100
AcDbLine
 10
234.4445826236609
 20
157.2393169734375
 30
0.0
 11
235.2619273520345
 21
156.4219722450641
 31
0.0
  0
LINE
  5
4CB0
330
18
100
AcDbEntity
  8
1
  6
Continuous
100
AcDbLine
 10
233.4899884690591
 20
156.2847228188359
 30
0.0
 11
234.4445826236609
 21
157.2393169734378
 31
0.0
  0
LINE
  5
4E46
330
18
100
AcDbEntity
  8
1
  6
Continuous
100
AcDbLine
 10
417.1816792563421
 20
141.0850646339845
 30
0.0
 11
417.1816792563431
 21
165.0850646339798
 31
0.0
  0
LINE
  5
4E47
330
18
100
AcDbEntity
  8
1
  6
Continuous
100
AcDbLine
 10
416.1816792563421
 20
142.5850646339846
 30
0.0
 11
416.1816792563431
 21
163.5850646339844
 31
0.0
  0
LINE
  5
4E48
330
18
100
AcDbEntity
  8
1
  6
Continuous
100
AcDbLine
 10
417.1816792563467
 20
141.0850646339845
 30
0.0
 11
418.181679256342
 21
141.0850646339845
 31
0.0
  0
LINE
  5
4E49
330
18
100
AcDbEntity
  8
1
  6
Continuous
100
AcDbLine
 10
416.1816792563431
 20
142.5850646339846
 30
0.0
 11
417.1816792563434
 21
141.0850646339893
 31
0.0
  0
LINE
  5
4E4E
330
18
100
AcDbEntity
  8
4
  6
CENTER
 48
0.1
100
AcDbLine
 10
414.1816792563426
 20
153.0850646339806
 30
0.0
 11
420.1816792563418
 21
153.0850646339806
 31
0.0
  0
LINE
  5
4E4F
330
18
100
AcDbEntity
  8
1
  6
Continuous
100
AcDbLine
 10
416.1816792563433
 20
163.5850646339845
 30
0.0
 11
417.1816792563434
 21
165.0850646339798
 31
0.0
  0
LINE
  5
4E50
330
18
100
AcDbEntity
  8
1
  6
Continuous
100
AcDbLine
 10
417.1816792563463
 20
165.0850646339845
 30
0.0
 11
418.181679256342
 21
165.0850646339845
 31
0.0
  0
LINE
  5
4E7E
330
18
100
AcDbEntity
  8
1
  6
Continuous
100
AcDbLine
 10
149.1816792564604
 20
142.5850646339846
 30
0.0
 11
149.1816792564593
 21
163.5850646339844
 31
0.0
  0
LINE
  5
4E7F
330
18
100
AcDbEntity
  8
4
  6
CENTER
 48
0.1
100
AcDbLine
 10
151.1816792564599
 20
153.0850646339806
 30
0.0
 11
145.1816792564605
 21
153.0850646339806
 31
0.0
  0
LINE
  5
4E80
330
18
100
AcDbEntity
  8
1
  6
Continuous
100
AcDbLine
 10
148.1816792564604
 20
141.0850646339845
 30
0.0
 11
148.1816792564593
 21
165.0850646339798
 31
0.0
  0
LINE
  5
4E81
330
18
100
AcDbEntity
  8
1
  6
Continuous
100
AcDbLine
 10
149.1816792564593
 20
142.5850646339846
 30
0.0
 11
148.1816792564591
 21
141.0850646339893
 31
0.0
  0
LINE
  5
4E82
330
18
100
AcDbEntity
  8
1
  6
Continuous
100
AcDbLine
 10
148.1816792564559
 20
141.0850646339845
 30
0.0
 11
147.1816792564605
 21
141.0850646339845
 31
0.0
  0
LINE
  5
4E83
330
18
100
AcDbEntity
  8
1
  6
Continuous
100
AcDbLine
 10
149.1816792564591
 20
163.5850646339845
 30
0.0
 11
148.1816792564591
 21
165.0850646339798
 31
0.0
  0
LINE
  5
4E84
330
18
100
AcDbEntity
  8
1
  6
Continuous
100
AcDbLine
 10
148.1816792564561
 20
165.0850646339845
 30
0.0
 11
147.1816792564605
 21
165.0850646339845
 31
0.0
  0
LINE
  5
4E86
330
18
100
AcDbEntity
  8
1
  6
Continuous
100
AcDbLine
 10
249.681679256459
 20
72.51090760557666
 30
0.0
 11
225.6816792564636
 21
72.51090760557554
 31
0.0
  0
LINE
  5
4E87
330
18
100
AcDbEntity
  8
1
  6
Continuous
100
AcDbLine
 10
248.1816792564588
 20
73.51090760557666
 30
0.0
 11
227.1816792564591
 21
73.51090760557553
 31
0.0
  0
LINE
  5
4E88
330
18
100
AcDbEntity
  8
1
  6
Continuous
100
AcDbLine
 10
249.681679256459
 20
72.51090760557213
 30
0.0
 11
249.681679256459
 21
71.5109076055768
 31
0.0
  0
LINE
  5
4E89
330
18
100
AcDbEntity
  8
1
  6
Continuous
100
AcDbLine
 10
248.1816792564588
 20
73.51090760557553
 30
0.0
 11
249.6816792564541
 21
72.51090760557541
 31
0.0
  0
LINE
  5
4E8B
330
18
100
AcDbEntity
  8
1
  6
Continuous
100
AcDbLine
 10
225.681679256459
 20
72.51090760557236
 30
0.0
 11
225.681679256459
 21
71.5109076055768
 31
0.0
  0
LINE
  5
4E8C
330
18
100
AcDbEntity
  8
1
  6
Continuous
100
AcDbLine
 10
227.181679256459
 20
73.51090760557544
 30
0.0
 11
225.6816792564636
 21
72.51090760557541
 31
0.0
  0
LINE
  5
4EA2
330
18
100
AcDbEntity
  8
1
  6
Continuous
100
AcDbLine
 10
248.1816792564604
 20
255.6592441198624
 30
0.0
 11
227.1816792564607
 21
255.6592441198636
 31
0.0
  0
LINE
  5
4EA3
330
18
100
AcDbEntity
  8
1
  6
Continuous
100
AcDbLine
 10
249.6816792564605
 20
256.6592441198624
 30
0.0
 11
225.6816792564652
 21
256.6592441198636
 31
0.0
  0
LINE
  5
4EA4
330
18
100
AcDbEntity
  8
1
  6
Continuous
100
AcDbLine
 10
227.1816792564606
 20
255.6592441198637
 30
0.0
 11
225.6816792564652
 21
256.6592441198637
 31
0.0
  0
LINE
  5
4EA5
330
18
100
AcDbEntity
  8
1
  6
Continuous
100
AcDbLine
 10
225.6816792564606
 20
256.6592441198669
 30
0.0
 11
225.6816792564606
 21
257.6592441198623
 31
0.0
  0
LINE
  5
4EA7
330
18
100
AcDbEntity
  8
1
  6
Continuous
100
AcDbLine
 10
248.1816792564604
 20
255.6592441198636
 30
0.0
 11
249.6816792564557
 21
256.6592441198637
 31
0.0
  0
LINE
  5
4EA8
330
18
100
AcDbEntity
  8
1
  6
Continuous
100
AcDbLine
 10
249.6816792564605
 20
256.659244119867
 30
0.0
 11
249.6816792564605
 21
257.6592441198623
 31
0.0
  0
ARC
  5
4F72
330
18
100
AcDbEntity
  8
1
  6
Continuous
100
AcDbCircle
 10
242.3849559400371
 20
173.3839922872084
 30
0.0
 40
0.9548296997429744
100
AcDbArc
 50
23.78927469375308
 51
130.2107663279528
  0
ARC
  5
4F73
330
18
100
AcDbEntity
  8
1
  6
Continuous
100
AcDbCircle
 10
241.5444347872937
 20
173.1211616052836
 30
0.0
 40
1.832606660564399
100
AcDbArc
 50
313.2932287581875
 51
20.70681226351593
  0
ARC
  5
4F74
330
18
100
AcDbEntity
  8
1
  6
Continuous
100
AcDbCircle
 10
242.1846731941493
 20
172.516471389809
 30
0.0
 40
0.9548298824012404
100
AcDbArc
 50
203.7891708232992
 51
310.2107607164058
  0
ARC
  5
4F75
330
18
100
AcDbEntity
  8
1
  6
Continuous
100
AcDbCircle
 10
243.0252367358479
 20
172.7792918667226
 30
0.0
 40
1.832642978589431
100
AcDbArc
 50
133.2939777895753
 51
200.7059915018543
  0
LINE
  5
4F76
330
18
100
AcDbEntity
  8
1
  6
Continuous
100
AcDbLine
 10
244.8525586855718
 20
173.6689324902281
 30
0.0
 11
245.5404600008719
 21
173.4048719156308
 31
0.0
  0
LINE
  5
4F77
330
18
100
AcDbEntity
  8
1
  6
Continuous
100
AcDbLine
 10
244.3508435938369
 20
172.3619199911579
 30
0.0
 11
245.0387449091371
 21
172.0978594165607
 31
0.0
  0
LINE
  5
4F78
330
18
100
AcDbEntity
  8
1
  6
Continuous
100
AcDbLine
 10
244.8525586855718
 20
173.6689324902281
 30
0.0
 11
243.8491285021022
 21
171.0549074920878
 31
0.0
  0
ARC
  5
4F79
330
18
100
AcDbEntity
  8
1
  6
Continuous
100
AcDbCircle
 10
245.2896024550045
 20
172.7513656660958
 30
0.0
 40
0.6999999474999916
100
AcDbArc
 50
248.9999999999983
 51
68.99999999999834
  0
LINE
  5
4F7A
330
18
100
AcDbEntity
  8
1
  6
Continuous
100
AcDbLine
 10
247.6149056660181
 20
172.4832689481623
 30
0.0
 11
248.9038188219761
 21
171.7688127192781
 31
0.0
  0
LINE
  5
4F7B
330
18
100
AcDbEntity
  8
1
  6
Continuous
100
AcDbLine
 10
246.9361722485782
 20
171.2588014500022
 30
0.0
 11
247.9028571155466
 21
170.7229592783392
 31
0.0
  0
LINE
  5
4F7C
330
18
100
AcDbEntity
  8
1
  6
Continuous
100
AcDbLine
 10
246.2574388311384
 20
170.0343339518421
 30
0.0
 11
247.5463519870964
 21
169.319877722958
 31
0.0
  0
LINE
  5
4F7D
330
18
100
AcDbEntity
  8
1
  6
Continuous
100
AcDbLine
 10
247.6149056660181
 20
172.4832689481623
 30
0.0
 11
246.2574388311384
 21
170.0343339518421
 31
0.0
  0
LINE
  5
4F7E
330
18
100
AcDbEntity
  8
1
  6
Continuous
100
AcDbLine
 10
251.3945166045284
 20
170.019953463484
 30
0.0
 11
249.7094346660837
 21
167.783774203065
 31
0.0
  0
LINE
  5
4F7F
330
18
100
AcDbEntity
  8
1
  6
Continuous
100
AcDbLine
 10
250.2175801516762
 20
170.9068386942443
 30
0.0
 11
248.5324982132317
 21
168.6706594338254
 31
0.0
  0
LINE
  5
4F80
330
18
100
AcDbEntity
  8
1
  6
Continuous
100
AcDbLine
 10
250.2175801516762
 20
170.9068386942443
 30
0.0
 11
249.7094346660837
 21
167.783774203065
 31
0.0
  0
ARC
  5
4F81
330
18
100
AcDbEntity
  8
1
  6
Continuous
100
AcDbCircle
 10
229.2560843400328
 20
171.1912496891359
 30
0.0
 40
0.9548298824012404
100
AcDbArc
 50
241.7891708232992
 51
348.2107607164058
  0
ARC
  5
4F82
330
18
100
AcDbEntity
  8
1
  6
Continuous
100
AcDbCircle
 10
228.8798101019856
 20
171.9981718560808
 30
0.0
 40
0.9548296997429744
100
AcDbArc
 50
61.7892746937531
 51
168.2107663279528
  0
ARC
  5
4F83
330
18
100
AcDbEntity
  8
1
  6
Continuous
100
AcDbCircle
 10
225.6379448116299
 20
169.5925775126475
 30
0.0
 40
1.832642978589431
100
AcDbArc
 50
184.2939777895754
 51
251.7059915018544
  0
LINE
  5
4F84
330
18
100
AcDbEntity
  8
1
  6
Continuous
100
AcDbLine
 10
227.0886934583072
 20
168.8928013262611
 30
0.0
 11
228.3384484536481
 21
169.6737349202452
 31
0.0
  0
ARC
  5
4F85
330
18
100
AcDbEntity
  8
1
  6
Continuous
100
AcDbCircle
 10
224.7650625611567
 20
169.475536183073
 30
0.0
 40
0.9548296997429744
100
AcDbArc
 50
74.78927469375308
 51
181.2107663279529
  0
ARC
  5
4F86
330
18
100
AcDbEntity
  8
1
  6
Continuous
100
AcDbCircle
 10
225.3132109070874
 20
168.7739386655614
 30
0.0
 40
0.9548298824012404
100
AcDbArc
 50
254.7891708232993
 51
1.210760716405879
  0
LINE
  5
4F87
330
18
100
AcDbEntity
  8
1
  6
Continuous
100
AcDbLine
 10
225.6049196297372
 20
171.267335817409
 30
0.0
 11
227.0886934583072
 21
168.8928013262611
 31
0.0
  0
ARC
  5
4F88
330
18
100
AcDbEntity
  8
1
  6
Continuous
100
AcDbCircle
 10
229.7566490074187
 20
171.915857641399
 30
0.0
 40
1.832642978589431
100
AcDbArc
 50
171.2939777895753
 51
238.7059915018543
  0
LINE
  5
4F89
330
18
100
AcDbEntity
  8
1
  6
Continuous
100
AcDbLine
 10
233.1246988866336
 20
171.54823317698
 30
0.0
 11
234.5661794532881
 21
171.8546293299423
 31
0.0
  0
LINE
  5
4F8A
330
18
100
AcDbEntity
  8
1
  6
Continuous
100
AcDbLine
 10
232.5425461960053
 20
174.2870462536236
 30
0.0
 11
233.9840267626598
 21
174.5934424065859
 31
0.0
  0
ARC
  5
4F8B
330
18
100
AcDbEntity
  8
1
  6
Continuous
100
AcDbCircle
 10
231.0638860253671
 20
173.1327199205365
 30
0.0
 40
0.6999999475000001
100
AcDbArc
 50
17.99999999999833
 51
287.9999999999983
  0
ARC
  5
4F8C
330
18
100
AcDbEntity
  8
1
  6
Continuous
100
AcDbCircle
 10
231.4965097850453
 20
171.8012408975843
 30
0.0
 40
0.6999999475000001
100
AcDbArc
 50
197.9999999999983
 51
108.0
  0
ARC
  5
4F8D
330
18
100
AcDbEntity
  8
1
  6
Continuous
100
AcDbCircle
 10
228.3792851203845
 20
171.2735819594057
 30
0.0
 40
1.832606660564399
100
AcDbArc
 50
351.2932287581875
 51
58.70681226351596
  0
LINE
  5
4F8E
330
18
100
AcDbEntity
  8
1
  6
Continuous
100
AcDbLine
 10
232.5425461960053
 20
174.2870462536236
 30
0.0
 11
233.1246988866336
 21
171.54823317698
 31
0.0
  0
LINE
  5
4F8F
330
18
100
AcDbEntity
  8
1
  6
Continuous
100
AcDbLine
 10
232.8336225413195
 20
172.9176397153019
 30
0.0
 11
233.9147329663103
 21
173.1474368300235
 31
0.0
  0
LINE
  5
5073
330
18
100
AcDbEntity
  8
1
  6
Continuous
100
AcDbLine
 10
117.5923747834973
 20
318.9449762059047
 30
0.0
 11
118.5923747834973
 21
318.9449762059047
 31
0.0
  0
LINE
  5
5074
330
18
100
AcDbEntity
  8
1
  6
Continuous
100
AcDbLine
 10
116.5923747834973
 20
317.6575952175489
 30
0.0
 11
118.5923747834973
 21
317.6575952175489
 31
0.0
  0
LINE
  5
5075
330
18
100
AcDbEntity
  8
1
  6
Continuous
100
AcDbLine
 10
118.5923747834973
 20
319.7602337390922
 30
0.0
 11
116.5923747834973
 21
320.3602337390922
 31
0.0
  0
LINE
  5
5076
330
18
100
AcDbEntity
  8
1
  6
Continuous
100
AcDbLine
 10
116.5923747834973
 20
320.3602337390922
 30
0.0
 11
118.5923747834973
 21
320.9602337390921
 31
0.0
  0
ARC
  5
5077
330
18
100
AcDbEntity
  8
1
  6
Continuous
100
AcDbCircle
 10
118.1181712162799
 20
309.7203284650663
 30
0.0
 40
0.4742035672174262
100
AcDbArc
 50
302.0053832080829
 51
57.99461679191704
  0
ARC
  5
5078
330
18
100
AcDbEntity
  8
1
  6
Continuous
100
AcDbCircle
 10
118.1181712162799
 20
311.5763732305181
 30
0.0
 40
0.4742035672174262
100
AcDbArc
 50
302.0053832080829
 51
57.99461679191704
  0
LINE
  5
507C
330
18
100
AcDbEntity
  8
1
  6
Continuous
100
AcDbLine
 10
116.5923747834973
 20
307.9922093715286
 30
0.0
 11
118.5923747834973
 21
307.9922093715286
 31
0.0
  0
LINE
  5
507D
330
18
100
AcDbEntity
  8
1
  6
Continuous
100
AcDbLine
 10
116.5923747834973
 20
314.6405543355726
 30
0.0
 11
118.5923747834973
 21
314.6405543355726
 31
0.0
  0
LINE
  5
507E
330
18
100
AcDbEntity
  8
1
  6
Continuous
100
AcDbLine
 10
116.5923747834973
 20
313.7905543355726
 30
0.0
 11
118.5923747834973
 21
313.7905543355726
 31
0.0
  0
LINE
  5
507F
330
18
100
AcDbEntity
  8
1
  6
Continuous
100
AcDbLine
 10
116.5923747834973
 20
312.6405543355726
 30
0.0
 11
118.5923747834973
 21
312.6405543355726
 31
0.0
  0
ARC
  5
5087
330
18
100
AcDbEntity
  8
1
  6
Continuous
100
AcDbCircle
 10
118.0716629014215
 20
316.1680323800192
 30
0.0
 40
0.5207118820758546
100
AcDbArc
 50
304.8882680994089
 51
55.11173190059107
  0
LINE
  5
5096
330
18
100
AcDbEntity
  8
1
  6
Continuous
100
AcDbLine
 10
116.5923747834973
 20
308.5922093715285
 30
0.0
 11
116.5923747834973
 21
307.3922093715285
 31
0.0
  0
ARC
  5
509C
330
18
100
AcDbEntity
  8
1
  6
Continuous
100
AcDbCircle
 10
117.0665783507147
 20
311.5763732305181
 30
0.0
 40
0.4742035672174262
100
AcDbArc
 50
122.0053832080828
 51
237.9946167919171
  0
ARC
  5
509D
330
18
100
AcDbEntity
  8
1
  6
Continuous
100
AcDbCircle
 10
117.5923747834973
 20
310.5616027575184
 30
0.0
 40
1.466274292452125
100
AcDbArc
 50
237.9946167919171
 51
302.0053832080829
  0
ARC
  5
509E
330
18
100
AcDbEntity
  8
1
  6
Continuous
100
AcDbCircle
 10
117.5923747834973
 20
308.8790541726142
 30
0.0
 40
1.466274292452125
100
AcDbArc
 50
57.99461679191704
 51
122.0053832080828
  0
ARC
  5
509F
330
18
100
AcDbEntity
  8
1
  6
Continuous
100
AcDbCircle
 10
117.5923747834973
 20
312.4176475229702
 30
0.0
 40
1.466274292452125
100
AcDbArc
 50
237.9946167919171
 51
302.0053832080829
  0
ARC
  5
50A0
330
18
100
AcDbEntity
  8
1
  6
Continuous
100
AcDbCircle
 10
117.0665783507147
 20
309.7203284650663
 30
0.0
 40
0.4742035672174262
100
AcDbArc
 50
122.0053832080828
 51
237.9946167919171
  0
LINE
  5
50A1
330
18
100
AcDbEntity
  8
1
  6
Continuous
100
AcDbLine
 10
117.5923747834973
 20
312.6405543355726
 30
0.0
 11
117.5923747834973
 21
313.7905543355726
 31
0.0
  0
LINE
  5
50A2
330
18
100
AcDbEntity
  8
1
  6
Continuous
100
AcDbLine
 10
117.5923747834973
 20
318.9449762059047
 30
0.0
 11
116.5923747834973
 21
319.5449762059047
 31
0.0
  0
ARC
  5
50A3
330
18
100
AcDbEntity
  8
1
  6
Continuous
100
AcDbCircle
 10
117.4959107884447
 20
315.3502894589057
 30
0.0
 40
1.520805338277071
100
AcDbArc
 50
54.94066185634784
 51
86.3633132383595
  0
LINE
  5
50A4
330
18
100
AcDbEntity
  8
1
  6
Continuous
100
AcDbLine
 10
117.5923747834973
 20
316.8680323800192
 30
0.0
 11
118.4954666307362
 21
316.8680323800192
 31
0.0
  0
LINE
  5
50A5
330
18
100
AcDbEntity
  8
1
  6
Continuous
100
AcDbLine
 10
117.5923747834973
 20
316.8680323800192
 30
0.0
 11
117.5923747834973
 21
316.1789138355538
 31
0.0
  0
ARC
  5
50A6
330
18
100
AcDbEntity
  8
1
  6
Continuous
100
AcDbCircle
 10
117.68883877855
 20
315.3502894589057
 30
0.0
 40
1.520805338277071
100
AcDbArc
 50
115.7201063039162
 51
125.0593381436521
  0
LINE
  5
50A7
330
18
100
AcDbEntity
  8
1
  6
Continuous
100
AcDbLine
 10
116.5923747834973
 20
318.3449762059048
 30
0.0
 11
117.5923747834973
 21
318.9449762059047
 31
0.0
  0
ARC
  5
50A8
330
18
100
AcDbEntity
  8
1
  6
Continuous
100
AcDbCircle
 10
117.5923747834973
 20
316.9843066724713
 30
0.0
 40
1.466274292452125
100
AcDbArc
 50
237.9946167919171
 51
302.0053832080829
  0
ARC
  5
50A9
330
18
100
AcDbEntity
  8
1
  6
Continuous
100
AcDbCircle
 10
117.1130866655731
 20
316.1680323800192
 30
0.0
 40
0.5207118820758546
100
AcDbArc
 50
124.8882680994089
 51
235.111731900591
  0
LINE
  5
50AA
330
18
100
AcDbEntity
  8
1
  6
Continuous
100
AcDbLine
 10
117.8423747834973
 20
319.9852337390922
 30
0.0
 11
117.8423747834973
 21
320.7352337390922
 31
0.0
  0
LINE
  5
50DB
330
18
100
AcDbEntity
  8
1
  6
Continuous
100
AcDbLine
 10
120.6023747835019
 20
312.2205543355732
 30
0.0
 11
122.042374783502
 21
311.1405543355732
 31
0.0
  0
LINE
  5
50DC
330
18
100
AcDbEntity
  8
1
  6
Continuous
100
AcDbLine
 10
122.042374783502
 20
312.3405543355732
 30
0.0
 11
122.042374783502
 21
311.1405543355732
 31
0.0
  0
ARC
  5
50DD
330
18
100
AcDbEntity
  8
1
  6
Continuous
100
AcDbCircle
 10
120.2423747835021
 20
311.7405543355733
 30
0.0
 40
0.6000000000000007
100
AcDbArc
 50
53.13010235415486
 51
270.0
  0
LINE
  5
50DE
330
18
100
AcDbEntity
  8
1
  6
Continuous
100
AcDbLine
 10
120.6023747835019
 20
314.6205543355732
 30
0.0
 11
122.042374783502
 21
313.5405543355732
 31
0.0
  0
LINE
  5
50DF
330
18
100
AcDbEntity
  8
1
  6
Continuous
100
AcDbLine
 10
122.042374783502
 20
314.7405543355732
 30
0.0
 11
122.042374783502
 21
313.5405543355732
 31
0.0
  0
ARC
  5
50E0
330
18
100
AcDbEntity
  8
1
  6
Continuous
100
AcDbCircle
 10
120.2423747835021
 20
314.1405543355732
 30
0.0
 40
0.6000000000000007
100
AcDbArc
 50
53.13010235415486
 51
270.0
  0
LINE
  5
50E1
330
18
100
AcDbEntity
  8
1
  6
Continuous
100
AcDbLine
 10
119.6423747835019
 20
316.7805543355732
 30
0.0
 11
122.042374783502
 21
316.7805543355732
 31
0.0
  0
LINE
  5
50E2
330
18
100
AcDbEntity
  8
1
  6
Continuous
100
AcDbLine
 10
121.1423747835019
 20
315.9405543355732
 30
0.0
 11
121.1423747835019
 21
317.1405543355732
 31
0.0
  0
LINE
  5
50E3
330
18
100
AcDbEntity
  8
1
  6
Continuous
100
AcDbLine
 10
119.6423747835019
 20
316.7805543355732
 30
0.0
 11
121.1423747835019
 21
315.9405543355732
 31
0.0
  0
LINE
  5
531C
330
18
100
AcDbEntity
  8
4
  6
CENTER
 48
0.1
100
AcDbLine
 10
234.6816792563682
 20
176.0850646343914
 30
0.0
 11
240.6816792563682
 21
176.0850646343914
 31
0.0
  0
LINE
  5
531D
330
18
100
AcDbEntity
  8
4
  6
CENTER
 48
0.1
100
AcDbLine
 10
234.6816792563682
 20
133.0850646343914
 30
0.0
 11
240.6816792563682
 21
133.0850646343914
 31
0.0
  0
CIRCLE
  5
7CFC
330
18
100
AcDbEntity
  8
1
  6
Continuous
100
AcDbCircle
 10
134.6816634566113
 20
202.5850626921987
 30
0.0
 40
3.25
  0
CIRCLE
  5
7CFE
330
18
100
AcDbEntity
  8
1
  6
Continuous
100
AcDbCircle
 10
137.6816792564607
 20
176.5850646334729
 30
0.0
 40
3.25
  0
CIRCLE
  5
7D22
330
18
100
AcDbEntity
  8
1
  6
Continuous
100
AcDbCircle
 10
430.6816950561913
 20
202.5850626921987
 30
0.0
 40
2.5
  0
CIRCLE
  5
7D23
330
18
100
AcDbEntity
  8
1
  6
Continuous
100
AcDbCircle
 10
427.681679256342
 20
176.5850646334729
 30
0.0
 40
2.5
  0
LINE
  5
85D7
330
18
100
AcDbEntity
  8
4
  6
CENTER
 48
0.1
100
AcDbLine
 10
516.4923220321075
 20
206.0850597812366
 30
0.0
 11
516.4923220321075
 21
202.0850597812366
 31
0.0
  0
LINE
  5
8640
330
18
100
AcDbEntity
  8
4
  6
CENTER
 48
0.1
100
AcDbLine
 10
48.87103648069437
 20
206.0850597812366
 30
0.0
 11
48.87103648069437
 21
202.0850597812366
 31
0.0
  0
LINE
  5
8732
330
18
100
AcDbEntity
  8
4
  6
CENTER
 48
0.2
100
AcDbLine
 10
348.1816792563042
 20
272.9378193314268
 30
0.0
 11
307.1816792563692
 21
272.9378193314268
 31
0.0
  0
ENDSEC
  0
SECTION
  2
OBJECTS
  0
DICTIONARY
  5
C
330
0
100
AcDbDictionary
281
     1
  3
ACAD_CIP_PREVIOUS_PRODUCT_INFO
350
8863
  3
ACAD_COLOR
350
8846
  3
ACAD_DETAILVIEWSTYLE
350
885F
  3
ACAD_GROUP
350
D
  3
ACAD_LAYOUT
350
94
  3
ACAD_MATERIAL
350
8814
  3
ACAD_MLEADERSTYLE
350
885B
  3
ACAD_MLINESTYLE
350
1B
  3
ACAD_PLOTSETTINGS
350
95
  3
ACAD_PLOTSTYLENAME
350
8812
  3
ACAD_SCALELIST
350
8849
  3
ACAD_SECTIONVIEWSTYLE
350
885D
  3
ACAD_TABLESTYLE
350
8847
  3
ACAD_VISUALSTYLE
350
882D
  3
ACDB_RECOMPOSE_DATA
350
8881
  3
AcDbVariableDictionary
350
8874
  3
CONTENTDICTIONARY
350
3D
  3
DWGPROPS
350
8882
  0
DICTIONARY
  5
8864
330
E
100
AcDbDictionary
280
     1
281
     1
  3
ADSK_XREC_LAYER_RECONCILED
360
8865
  0
DICTIONARY
  5
8866
330
4E
100
AcDbDictionary
280
     1
281
     1
  3
ADSK_XREC_LAYER_RECONCILED
360
8867
  0
DICTIONARY
  5
8868
330
4F
100
AcDbDictionary
280
     1
281
     1
  3
ADSK_XREC_LAYER_RECONCILED
360
8869
  0
DICTIONARY
  5
886A
330
50
100
AcDbDictionary
280
     1
281
     1
  3
ADSK_XREC_LAYER_RECONCILED
360
886B
  0
DICTIONARY
  5
886C
330
51
100
AcDbDictionary
280
     1
281
     1
  3
ADSK_XREC_LAYER_RECONCILED
360
886D
  0
DICTIONARY
  5
886E
330
52
100
AcDbDictionary
280
     1
281
     1
  3
ADSK_XREC_LAYER_RECONCILED
360
886F
  0
DICTIONARY
  5
8870
330
53
100
AcDbDictionary
280
     1
281
     1
  3
ADSK_XREC_LAYER_RECONCILED
360
8871
  0
DICTIONARY
  5
8872
330
54
100
AcDbDictionary
280
     1
281
     1
  3
ADSK_XREC_LAYER_RECONCILED
360
8873
  0
DICTIONARY
  5
880D
330
18
100
AcDbDictionary
281
     1
  3
ACAD_LAYOUTSELFREF
350
880E
  0
DICTIONARY
  5
880B
330
15
100
AcDbDictionary
281
     1
  3
ACAD_LAYOUTSELFREF
350
880C
  0
XRECORD
  5
8863
102
{ACAD_REACTORS
330
C
102
}
330
C
100
AcDbXrecord
280
     1
300
ACDLT
300
2014
300
ACDLT_F_S
  0
DICTIONARY
  5
8846
102
{ACAD_REACTORS
330
C
102
}
330
C
100
AcDbDictionary
281
     1
  0
DICTIONARY
  5
885F
102
{ACAD_REACTORS
330
C
102
}
330
C
100
AcDbDictionary
281
     1
  3
Imperial24
350
8860
  0
DICTIONARY
  5
D
102
{ACAD_REACTORS
330
C
102
}
330
C
100
AcDbDictionary
281
     1
  0
DICTIONARY
  5
94
102
{ACAD_REACTORS
330
C
102
}
330
C
100
AcDbDictionary
281
     1
  3
Model
350
8861
  3
レイアウト1
350
8862
  0
DICTIONARY
  5
8814
102
{ACAD_REACTORS
330
C
102
}
330
C
100
AcDbDictionary
281
     1
  3
ByBlock
350
881D
  3
ByLayer
350
8815
  3
Global
350
8825
  0
DICTIONARY
  5
885B
102
{ACAD_REACTORS
330
C
102
}
330
C
100
AcDbDictionary
281
     1
  3
Standard
350
885C
  0
DICTIONARY
  5
1B
102
{ACAD_REACTORS
330
C
102
}
330
C
100
AcDbDictionary
281
     1
  3
STANDARD
350
1C
  0
DICTIONARY
  5
95
102
{ACAD_REACTORS
330
C
102
}
330
C
100
AcDbDictionary
281
     1
  0
ACDBDICTIONARYWDFLT
  5
8812
102
{ACAD_REACTORS
330
C
102
}
330
C
100
AcDbDictionary
281
     1
  3
Normal
350
8813
100
AcDbDictionaryWithDefault
340
8813
  0
DICTIONARY
  5
8849
102
{ACAD_REACTORS
330
C
102
}
330
C
100
AcDbDictionary
281
     1
  3
A0
350
884A
  3
A1
350
884B
  3
A2
350
884C
  3
A3
350
884D
  3
A4
350
884E
  3
A5
350
884F
  3
A6
350
8850
  3
A7
350
8851
  3
A8
350
8852
  3
A9
350
8853
  3
B0
350
8854
  3
B1
350
8855
  3
B2
350
8856
  3
B3
350
8857
  3
B4
350
8858
  3
B5
350
8859
  3
B6
350
885A
  0
DICTIONARY
  5
885D
102
{ACAD_REACTORS
330
C
102
}
330
C
100
AcDbDictionary
281
     1
  3
Imperial24
350
885E
  0
DICTIONARY
  5
8847
102
{ACAD_REACTORS
330
C
102
}
330
C
100
AcDbDictionary
281
     1
  3
Standard
350
8848
  0
DICTIONARY
  5
882D
102
{ACAD_REACTORS
330
C
102
}
330
C
100
AcDbDictionary
281
     1
  3
2dWireframe
350
8833
  3
Basic
350
8832
  3
Brighten
350
8839
  3
ColorChange
350
883D
  3
Conceptual
350
8836
  3
Dim
350
8838
  3
EdgeColorOff
350
8845
  3
Facepattern
350
883C
  3
Flat
350
882E
  3
FlatWithEdges
350
882F
  3
Gouraud
350
8830
  3
GouraudWithEdges
350
8831
  3
Hidden
350
8835
  3
JitterOff
350
8843
  3
Linepattern
350
883B
  3
OverhangOff
350
8844
  3
Realistic
350
8837
  3
Shaded
350
8842
  3
Shaded with edges
350
8841
  3
Shades of Gray
350
883E
  3
Sketchy
350
883F
  3
Thicken
350
883A
  3
Wireframe
350
8834
  3
X-Ray
350
8840
  0
XRECORD
  5
8881
102
{ACAD_REACTORS
330
C
102
}
330
C
100
AcDbXrecord
280
     1
 90
        1
330
8848
  0
DICTIONARY
  5
8874
102
{ACAD_REACTORS
330
C
102
}
330
C
100
AcDbDictionary
281
     1
  3
CANNOSCALE
350
8879
  3
CMLEADERSTYLE
350
8876
  3
CTABLESTYLE
350
8875
  3
CVIEWDETAILSTYLE
350
8877
  3
CVIEWSECTIONSTYLE
350
8878
  3
DIMASSOC
350
887C
  3
INDEXCTL
350
887B
  3
SORTENTS
350
887A
  3
XCLIPFRAME
350
887D
  0
DICTIONARY
  5
3D
102
{ACAD_REACTORS
330
C
102
}
330
C
100
AcDbDictionary
281
     1
  0
XRECORD
  5
8882
102
{ACAD_REACTORS
330
C
102
}
330
C
100
AcDbXrecord
280
     1
  1
DWGPROPS COOKIE
  2

  3

  4

  6

  7

  8
Yoshitsune
  9

300
=
301
=
302
=
303
=
304
=
305
=
306
=
307
=
308
=
309
=
 40
0.330911724537037
 41
2452051.395592083
 42
2457192.602071806
  1

 90
        0
  0
XRECORD
  5
8865
102
{ACAD_REACTORS
330
8864
102
}
330
8864
100
AcDbXrecord
280
     1
290
     1
  0
XRECORD
  5
8867
102
{ACAD_REACTORS
330
8866
102
}
330
8866
100
AcDbXrecord
280
     1
290
     1
  0
XRECORD
  5
8869
102
{ACAD_REACTORS
330
8868
102
}
330
8868
100
AcDbXrecord
280
     1
290
     1
  0
XRECORD
  5
886B
102
{ACAD_REACTORS
330
886A
102
}
330
886A
100
AcDbXrecord
280
     1
290
     1
  0
XRECORD
  5
886D
102
{ACAD_REACTORS
330
886C
102
}
330
886C
100
AcDbXrecord
280
     1
290
     1
  0
XRECORD
  5
886F
102
{ACAD_REACTORS
330
886E
102
}
330
886E
100
AcDbXrecord
280
     1
290
     1
  0
XRECORD
  5
8871
102
{ACAD_REACTORS
330
8870
102
}
330
8870
100
AcDbXrecord
280
     1
290
     1
  0
XRECORD
  5
8873
102
{ACAD_REACTORS
330
8872
102
}
330
8872
100
AcDbXrecord
280
     1
290
     1
  0
XRECORD
  5
880E
102
{ACAD_REACTORS
330
880D
102
}
330
880D
100
AcDbXrecord
280
     1
340
18
  0
XRECORD
  5
880C
102
{ACAD_REACTORS
330
880B
102
}
330
880B
100
AcDbXrecord
280
     1
340
15
  0
ACDBDETAILVIEWSTYLE
  5
8860
102
{ACAD_XDICTIONARY
360
88BA
102
}
102
{ACAD_REACTORS
330
885F
102
}
330
885F
100
AcDbModelDocViewStyle
 70
     0
  3
Imperial24
290
     0
100
AcDbDetailViewStyle
 70
     0
 71
     0
 90
        3
 71
     1
340
F
 40
0.24
340
0
 40
0.24
300

 40
0.36
280
     3
 71
     2
340
14
 90
       25
 71
     3
340
F
 40
0.24
 90
        1
 40
0.75
 90
        1
300
%<\AcVar ViewType \f "%tc1">% %<\AcVar ViewDetailId>%\PSCALE %<\AcVar ViewScale \f "%sn">%
 71
     4
340
14
 90
       25
340
14
 90
       25
280
     0
  0
LAYOUT
  5
8861
102
{ACAD_XDICTIONARY
360
88BC
102
}
102
{ACAD_REACTORS
330
94
102
}
330
94
100
AcDbPlotSettings
  1

  2
Canon LBP9100C
  4

  6

 40
0.0
 41
0.0
 42
0.0
 43
0.0
 44
0.0
 45
0.0
 46
0.0
 47
0.0
 48
0.0
 49
0.0
140
0.0
141
0.0
142
1.0
143
1.0
 70
  1712
 72
     0
 73
     0
 74
     0
  7

 75
     0
147
1.0
148
0.0
149
0.0
100
AcDbLayout
  1
Model
 70
     1
 71
     0
 10
0.0
 20
0.0
 11
12.0
 21
9.0
 12
0.0
 22
0.0
 32
0.0
 14
0.0
 24
0.0
 34
0.0
 15
0.0
 25
0.0
 35
0.0
146
0.0
 13
0.0
 23
0.0
 33
0.0
 16
1.0
 26
0.0
 36
0.0
 17
0.0
 27
1.0
 37
0.0
 76
     0
330
18
331
880A
  0
LAYOUT
  5
8862
102
{ACAD_XDICTIONARY
360
88BE
102
}
102
{ACAD_REACTORS
330
94
102
}
330
94
100
AcDbPlotSettings
  1

  2
Canon LBP9100C
  4

  6

 40
0.0
 41
0.0
 42
0.0
 43
0.0
 44
0.0
 45
0.0
 46
0.0
 47
0.0
 48
0.0
 49
0.0
140
0.0
141
0.0
142
1.0
143
1.0
 70
   688
 72
     0
 73
     0
 74
     5
  7

 75
    16
147
1.0
148
0.0
149
0.0
100
AcDbLayout
  1
レイアウト1
 70
     1
 71
     1
 10
0.0
 20
0.0
 11
420.0
 21
297.0
 12
0.0
 22
0.0
 32
0.0
 14
1.000000000000000E+20
 24
1.000000000000000E+20
 34
1.000000000000000E+20
 15
-1.000000000000000E+20
 25
-1.000000000000000E+20
 35
-1.000000000000000E+20
146
0.0
 13
0.0
 23
0.0
 33
0.0
 16
1.0
 26
0.0
 36
0.0
 17
0.0
 27
1.0
 37
0.0
 76
     0
330
15
  0
MATERIAL
  5
881D
102
{ACAD_XDICTIONARY
360
881E
102
}
102
{ACAD_REACTORS
330
8814
102
}
330
8814
100
AcDbMaterial
  1
ByBlock
 72
     0
 43
0.0208333333333333
 43
0.0
 43
0.0
 43
0.0
 43
0.0
 43
0.0208333333333333
 43
0.0
 43
0.0
 43
0.0
 43
0.0
 43
1.0
 43
0.0
 43
0.0
 43
0.0
 43
0.0
 43
1.0
 77
     0
 47
0.0208333333333333
 47
0.0
 47
0.0
 47
0.0
 47
0.0
 47
0.0208333333333333
 47
0.0
 47
0.0
 47
0.0
 47
0.0
 47
1.0
 47
0.0
 47
0.0
 47
0.0
 47
0.0
 47
1.0
171
     0
 49
0.0208333333333333
 49
0.0
 49
0.0
 49
0.0
 49
0.0
 49
0.0208333333333333
 49
0.0
 49
0.0
 49
0.0
 49
0.0
 49
1.0
 49
0.0
 49
0.0
 49
0.0
 49
0.0
 49
1.0
175
     0
142
0.0208333333333333
142
0.0
142
0.0
142
0.0
142
0.0
142
0.0208333333333333
142
0.0
142
0.0
142
0.0
142
0.0
142
1.0
142
0.0
142
0.0
142
0.0
142
0.0
142
1.0
179
     0
144
0.0208333333333333
144
0.0
144
0.0
144
0.0
144
0.0
144
0.0208333333333333
144
0.0
144
0.0
144
0.0
144
0.0
144
1.0
144
0.0
144
0.0
144
0.0
144
0.0
144
1.0
147
0.0208333333333333
147
0.0
147
0.0
147
0.0
147
0.0
147
0.0208333333333333
147
0.0
147
0.0
147
0.0
147
0.0
147
1.0
147
0.0
147
0.0
147
0.0
147
0.0
147
1.0
  0
MATERIAL
  5
8815
102
{ACAD_XDICTIONARY
360
8816
102
}
102
{ACAD_REACTORS
330
8814
102
}
330
8814
100
AcDbMaterial
  1
ByLayer
 72
     0
 43
0.0208333333333333
 43
0.0
 43
0.0
 43
0.0
 43
0.0
 43
0.0208333333333333
 43
0.0
 43
0.0
 43
0.0
 43
0.0
 43
1.0
 43
0.0
 43
0.0
 43
0.0
 43
0.0
 43
1.0
 77
     0
 47
0.0208333333333333
 47
0.0
 47
0.0
 47
0.0
 47
0.0
 47
0.0208333333333333
 47
0.0
 47
0.0
 47
0.0
 47
0.0
 47
1.0
 47
0.0
 47
0.0
 47
0.0
 47
0.0
 47
1.0
171
     0
 49
0.0208333333333333
 49
0.0
 49
0.0
 49
0.0
 49
0.0
 49
0.0208333333333333
 49
0.0
 49
0.0
 49
0.0
 49
0.0
 49
1.0
 49
0.0
 49
0.0
 49
0.0
 49
0.0
 49
1.0
175
     0
142
0.0208333333333333
142
0.0
142
0.0
142
0.0
142
0.0
142
0.0208333333333333
142
0.0
142
0.0
142
0.0
142
0.0
142
1.0
142
0.0
142
0.0
142
0.0
142
0.0
142
1.0
179
     0
144
0.0208333333333333
144
0.0
144
0.0
144
0.0
144
0.0
144
0.0208333333333333
144
0.0
144
0.0
144
0.0
144
0.0
144
1.0
144
0.0
144
0.0
144
0.0
144
0.0
144
1.0
147
0.0208333333333333
147
0.0
147
0.0
147
0.0
147
0.0
147
0.0208333333333333
147
0.0
147
0.0
147
0.0
147
0.0
147
1.0
147
0.0
147
0.0
147
0.0
147
0.0
147
1.0
  0
MATERIAL
  5
8825
102
{ACAD_XDICTIONARY
360
8826
102
}
102
{ACAD_REACTORS
330
8814
102
}
330
8814
100
AcDbMaterial
  1
Global
 72
     0
 43
0.0208333333333333
 43
0.0
 43
0.0
 43
0.0
 43
0.0
 43
0.0208333333333333
 43
0.0
 43
0.0
 43
0.0
 43
0.0
 43
1.0
 43
0.0
 43
0.0
 43
0.0
 43
0.0
 43
1.0
 77
     0
 47
0.0208333333333333
 47
0.0
 47
0.0
 47
0.0
 47
0.0
 47
0.0208333333333333
 47
0.0
 47
0.0
 47
0.0
 47
0.0
 47
1.0
 47
0.0
 47
0.0
 47
0.0
 47
0.0
 47
1.0
171
     0
 49
0.0208333333333333
 49
0.0
 49
0.0
 49
0.0
 49
0.0
 49
0.0208333333333333
 49
0.0
 49
0.0
 49
0.0
 49
0.0
 49
1.0
 49
0.0
 49
0.0
 49
0.0
 49
0.0
 49
1.0
175
     0
142
0.0208333333333333
142
0.0
142
0.0
142
0.0
142
0.0
142
0.0208333333333333
142
0.0
142
0.0
142
0.0
142
0.0
142
1.0
142
0.0
142
0.0
142
0.0
142
0.0
142
1.0
179
     0
144
0.0208333333333333
144
0.0
144
0.0
144
0.0
144
0.0
144
0.0208333333333333
144
0.0
144
0.0
144
0.0
144
0.0
144
1.0
144
0.0
144
0.0
144
0.0
144
0.0
144
1.0
147
0.0208333333333333
147
0.0
147
0.0
147
0.0
147
0.0
147
0.0208333333333333
147
0.0
147
0.0
147
0.0
147
0.0
147
1.0
147
0.0
147
0.0
147
0.0
147
0.0
147
1.0
  0
MLEADERSTYLE
  5
885C
102
{ACAD_REACTORS
330
885B
102
}
330
885B
100
AcDbMLeaderStyle
170
     2
171
     1
172
     0
 90
        2
 40
0.0
 41
0.0
173
     1
 91
-1056964608
340
12
 92
       -2
290
     1
 42
0.09
291
     1
 43
0.36
  3
Standard
 44
0.18
300

342
F
174
     1
178
     6
175
     1
176
     0
 93
-1056964608
 45
0.18
292
     0
297
     0
 46
0.18
 94
-1056964608
 47
1.0
 49
1.0
140
1.0
293
     1
141
0.0
294
     1
177
     0
142
1.0
295
     0
296
     0
143
0.125
1001
ACAD_MLEADERVER
1070
     2
  0
MLINESTYLE
  5
1C
102
{ACAD_REACTORS
330
1B
102
}
330
1B
100
AcDbMlineStyle
  2
STANDARD
 70
     0
  3

 62
   256
 51
90.0
 52
90.0
 71
     2
 49
0.5
 62
   256
  6
BYLAYER
 49
-0.5
 62
   256
  6
BYLAYER
  0
ACDBPLACEHOLDER
  5
8813
102
{ACAD_REACTORS
330
8812
102
}
330
8812
  0
SCALE
  5
884A
102
{ACAD_REACTORS
330
8849
102
}
330
8849
100
AcDbScale
 70
     0
300
1:1
140
1.0
141
1.0
290
     1
  0
SCALE
  5
884B
102
{ACAD_REACTORS
330
8849
102
}
330
8849
100
AcDbScale
 70
     0
300
1/128" = 1'-0"
140
0.0078125
141
12.0
290
     0
  0
SCALE
  5
884C
102
{ACAD_REACTORS
330
8849
102
}
330
8849
100
AcDbScale
 70
     0
300
1/64" = 1'-0"
140
0.015625
141
12.0
290
     0
  0
SCALE
  5
884D
102
{ACAD_REACTORS
330
8849
102
}
330
8849
100
AcDbScale
 70
     0
300
1/32" = 1'-0"
140
0.03125
141
12.0
290
     0
  0
SCALE
  5
884E
102
{ACAD_REACTORS
330
8849
102
}
330
8849
100
AcDbScale
 70
     0
300
1/16" = 1'-0"
140
0.0625
141
12.0
290
     0
  0
SCALE
  5
884F
102
{ACAD_REACTORS
330
8849
102
}
330
8849
100
AcDbScale
 70
     0
300
3/32" = 1'-0"
140
0.09375
141
12.0
290
     0
  0
SCALE
  5
8850
102
{ACAD_REACTORS
330
8849
102
}
330
8849
100
AcDbScale
 70
     0
300
1/8" = 1'-0"
140
0.125
141
12.0
290
     0
  0
SCALE
  5
8851
102
{ACAD_REACTORS
330
8849
102
}
330
8849
100
AcDbScale
 70
     0
300
3/16" = 1'-0"
140
0.1875
141
12.0
290
     0
  0
SCALE
  5
8852
102
{ACAD_REACTORS
330
8849
102
}
330
8849
100
AcDbScale
 70
     0
300
1/4" = 1'-0"
140
0.25
141
12.0
290
     0
  0
SCALE
  5
8853
102
{ACAD_REACTORS
330
8849
102
}
330
8849
100
AcDbScale
 70
     0
300
3/8" = 1'-0"
140
0.375
141
12.0
290
     0
  0
SCALE
  5
8854
102
{ACAD_REACTORS
330
8849
102
}
330
8849
100
AcDbScale
 70
     0
300
1/2" = 1'-0"
140
0.5
141
12.0
290
     0
  0
SCALE
  5
8855
102
{ACAD_REACTORS
330
8849
102
}
330
8849
100
AcDbScale
 70
     0
300
3/4" = 1'-0"
140
0.75
141
12.0
290
     0
  0
SCALE
  5
8856
102
{ACAD_REACTORS
330
8849
102
}
330
8849
100
AcDbScale
 70
     0
300
1" = 1'-0"
140
1.0
141
12.0
290
     0
  0
SCALE
  5
8857
102
{ACAD_REACTORS
330
8849
102
}
330
8849
100
AcDbScale
 70
     0
300
1-1/2" = 1'-0"
140
1.5
141
12.0
290
     0
  0
SCALE
  5
8858
102
{ACAD_REACTORS
330
8849
102
}
330
8849
100
AcDbScale
 70
     0
300
3" = 1'-0"
140
3.0
141
12.0
290
     0
  0
SCALE
  5
8859
102
{ACAD_REACTORS
330
8849
102
}
330
8849
100
AcDbScale
 70
     0
300
6" = 1'-0"
140
6.0
141
12.0
290
     0
  0
SCALE
  5
885A
102
{ACAD_REACTORS
330
8849
102
}
330
8849
100
AcDbScale
 70
     0
300
1'-0" = 1'-0"
140
12.0
141
12.0
290
     0
  0
ACDBSECTIONVIEWSTYLE
  5
885E
102
{ACAD_XDICTIONARY
360
88B8
102
}
102
{ACAD_REACTORS
330
885D
102
}
330
885D
100
AcDbModelDocViewStyle
 70
     0
  3
Imperial24
290
     0
100
AcDbSectionViewStyle
 70
     0
 71
     0
 90
       78
 71
     1
340
F
 40
0.24
340
0
340
0
 40
0.24
300
I, O, Q, S, X, Z
 40
0.48
 90
        3
 40
0.18
 90
        1
 71
     2
340
14
 90
       25
340
14
 90
       50
 40
0.24
 40
0.0
 40
0.24
 71
     3
340
F
 40
0.24
 90
        1
 40
0.75
 90
        1
300
%<\AcVar ViewType \f "%tc1">% %<\AcVar ViewSectionStartId>%-%<\AcVar ViewSectionEndId>%\PSCALE %<\AcVar ViewScale \f "%sn">%
 71
     4
300
ANSI31
 40
1.0
 90
        0
290
     0
290
     0
 90
        6
 40
0.0
 40
1.570796326794896
 40
0.2617993877991494
 40
1.308996938995747
 40
-0.2617993877991494
 40
1.832595714594046
  0
TABLESTYLE
  5
8848
102
{ACAD_XDICTIONARY
360
887F
102
}
102
{ACAD_REACTORS
330
8847
102
}
330
8847
100
AcDbTableStyle
  3
Standard
 70
     0
 71
     0
 40
0.06
 41
0.06
280
     0
281
     0
  7
STANDARD
140
0.18
170
     2
 62
     0
 63
     7
283
     0
274
    -2
284
     1
 64
     0
275
    -2
285
     1
 65
     0
276
    -2
286
     1
 66
     0
277
    -2
287
     1
 67
     0
278
    -2
288
     1
 68
     0
279
    -2
289
     1
 69
     0
  7
STANDARD
140
0.25
170
     5
 62
     0
 63
     7
283
     0
274
    -2
284
     1
 64
     0
275
    -2
285
     1
 65
     0
276
    -2
286
     1
 66
     0
277
    -2
287
     1
 67
     0
278
    -2
288
     1
 68
     0
279
    -2
289
     1
 69
     0
  7
STANDARD
140
0.18
170
     5
 62
     0
 63
     7
283
     0
274
    -2
284
     1
 64
     0
275
    -2
285
     1
 65
     0
276
    -2
286
     1
 66
     0
277
    -2
287
     1
 67
     0
278
    -2
288
     1
 68
     0
279
    -2
289
     1
 69
     0
  0
VISUALSTYLE
  5
8833
102
{ACAD_XDICTIONARY
360
8890
102
}
102
{ACAD_REACTORS
330
882D
102
}
330
882D
100
AcDbVisualStyle
  2
2dWireframe
 70
     4
 71
     0
 72
     2
 73
     0
 90
        0
 40
-0.6
 41
-30.0
 62
     5
 63
     7
 74
     1
 91
        4
 64
     7
 65
   257
 75
     1
175
     1
 42
1.0
 92
        0
 66
   257
 43
1.0
 76
     1
 77
     6
 78
     2
 67
     7
 79
     5
170
     0
171
     0
290
     0
174
     0
 93
        1
 44
0.0
173
     0
291
     0
 45
0.0
1001
ACAD
1000
AcDbSavedByObjectVersion
1070
     0
  0
VISUALSTYLE
  5
8832
102
{ACAD_XDICTIONARY
360
888E
102
}
102
{ACAD_REACTORS
330
882D
102
}
330
882D
100
AcDbVisualStyle
  2
Basic
 70
     7
 71
     1
 72
     0
 73
     1
 90
        0
 40
-0.6
 41
-30.0
 62
     5
 63
     7
 74
     0
 91
        4
 64
     7
 65
   257
 75
     1
175
     1
 42
1.0
 92
        8
 66
     7
 43
1.0
 76
     1
 77
     6
 78
     2
 67
     7
 79
     5
170
     0
171
     0
290
     0
174
     0
 93
        1
 44
0.0
173
     0
291
     1
 45
0.0
1001
ACAD
1000
AcDbSavedByObjectVersion
1070
     0
  0
VISUALSTYLE
  5
8839
102
{ACAD_XDICTIONARY
360
889C
102
}
102
{ACAD_REACTORS
330
882D
102
}
330
882D
100
AcDbVisualStyle
  2
Brighten
 70
    12
 71
     2
 72
     2
 73
     0
 90
        0
 40
-0.6
 41
-30.0
 62
     5
 63
     7
 74
     1
 91
        4
 64
     7
 65
   257
 75
     1
175
     1
 42
1.0
 92
        8
 66
     7
 43
1.0
 76
     1
 77
     6
 78
     2
 67
     7
 79
     5
170
     0
171
     0
290
     0
174
     0
 93
        1
 44
50.0
173
     0
291
     1
 45
0.0
1001
ACAD
1000
AcDbSavedByObjectVersion
1070
     0
  0
VISUALSTYLE
  5
883D
102
{ACAD_XDICTIONARY
360
88A4
102
}
102
{ACAD_REACTORS
330
882D
102
}
330
882D
100
AcDbVisualStyle
  2
ColorChange
 70
    16
 71
     2
 72
     2
 73
     3
 90
        0
 40
-0.6
 41
-30.0
 62
     5
 63
     8
 74
     1
 91
        4
 64
     7
 65
   257
 75
     1
175
     1
 42
1.0
 92
        8
 66
     8
 43
1.0
 76
     1
 77
     6
 78
     2
 67
     7
 79
     5
170
     0
171
     0
290
     0
174
     0
 93
        1
 44
0.0
173
     0
291
     1
 45
0.0
1001
ACAD
1000
AcDbSavedByObjectVersion
1070
     0
  0
VISUALSTYLE
  5
8836
102
{ACAD_XDICTIONARY
360
8896
102
}
102
{ACAD_REACTORS
330
882D
102
}
330
882D
100
AcDbVisualStyle
  2
Conceptual
 70
     9
 71
     3
 72
     2
 73
     0
 90
        0
 40
-0.6
 41
-30.0
 62
     5
 63
     7
 74
     2
 91
        2
 64
     7
 65
   257
 75
     1
175
     1
 42
179.0
 92
        8
 66
     7
 43
1.0
 76
     1
 77
     6
 78
     2
 67
     7
 79
     3
170
     0
171
     0
290
     0
174
     0
 93
        1
 44
0.0
173
     0
291
     0
 45
0.0
1001
ACAD
1000
AcDbSavedByObjectVersion
1070
     0
  0
VISUALSTYLE
  5
8838
102
{ACAD_XDICTIONARY
360
889A
102
}
102
{ACAD_REACTORS
330
882D
102
}
330
882D
100
AcDbVisualStyle
  2
Dim
 70
    11
 71
     2
 72
     2
 73
     0
 90
        0
 40
-0.6
 41
-30.0
 62
     5
 63
     7
 74
     1
 91
        4
 64
     7
 65
   257
 75
     1
175
     1
 42
1.0
 92
        8
 66
     7
 43
1.0
 76
     1
 77
     6
 78
     2
 67
     7
 79
     5
170
     0
171
     0
290
     0
174
     0
 93
        1
 44
-50.0
173
     0
291
     1
 45
0.0
1001
ACAD
1000
AcDbSavedByObjectVersion
1070
     0
  0
VISUALSTYLE
  5
8845
102
{ACAD_XDICTIONARY
360
88B4
102
}
102
{ACAD_REACTORS
330
882D
102
}
330
882D
100
AcDbVisualStyle
  2
EdgeColorOff
 70
    22
 71
     2
 72
     2
 73
     0
 90
        0
 40
-0.6
 41
-30.0
 62
     5
 63
     7
 74
     1
 91
        4
 64
     7
 65
   257
 75
     1
175
     1
 42
1.0
 92
        8
 66
     7
 43
1.0
 76
     1
 77
     6
 78
     2
 67
     7
 79
     5
170
     0
171
     0
290
     0
174
     0
 93
        1
 44
0.0
173
     0
291
     1
 45
0.0
1001
ACAD
1000
AcDbSavedByObjectVersion
1070
     0
  0
VISUALSTYLE
  5
883C
102
{ACAD_XDICTIONARY
360
88A2
102
}
102
{ACAD_REACTORS
330
882D
102
}
330
882D
100
AcDbVisualStyle
  2
Facepattern
 70
    15
 71
     2
 72
     2
 73
     0
 90
        0
 40
-0.6
 41
-30.0
 62
     5
 63
     7
 74
     1
 91
        4
 64
     7
 65
   257
 75
     1
175
     1
 42
1.0
 92
        8
 66
     7
 43
1.0
 76
     1
 77
     6
 78
     2
 67
     7
 79
     5
170
     0
171
     0
290
     0
174
     0
 93
        1
 44
0.0
173
     0
291
     1
 45
0.0
1001
ACAD
1000
AcDbSavedByObjectVersion
1070
     0
  0
VISUALSTYLE
  5
882E
102
{ACAD_XDICTIONARY
360
8886
102
}
102
{ACAD_REACTORS
330
882D
102
}
330
882D
100
AcDbVisualStyle
  2
Flat
 70
     0
 71
     2
 72
     1
 73
     1
 90
        2
 40
-0.6
 41
30.0
 62
     5
 63
     7
 74
     0
 91
        0
 64
     7
 65
   257
 75
     1
175
     1
 42
1.0
 92
        8
 66
     7
 43
1.0
 76
     1
 77
     6
 78
     2
 67
     7
 79
     5
170
     0
171
     0
290
     0
174
     0
 93
       13
 44
0.0
173
     0
291
     1
 45
0.0
1001
ACAD
1000
AcDbSavedByObjectVersion
1070
     0
  0
VISUALSTYLE
  5
882F
102
{ACAD_XDICTIONARY
360
8888
102
}
102
{ACAD_REACTORS
330
882D
102
}
330
882D
100
AcDbVisualStyle
  2
FlatWithEdges
 70
     1
 71
     2
 72
     1
 73
     1
 90
        2
 40
-0.6
 41
30.0
 62
     5
 63
     7
 74
     1
 91
        0
 64
     7
 65
   257
 75
     1
175
     1
 42
1.0
 92
        0
 66
   257
 43
1.0
 76
     1
 77
     6
 78
     2
 67
     7
 79
     5
170
     0
171
     0
290
     0
174
     0
 93
       13
 44
0.0
173
     0
291
     1
 45
0.0
1001
ACAD
1000
AcDbSavedByObjectVersion
1070
     0
  0
VISUALSTYLE
  5
8830
102
{ACAD_XDICTIONARY
360
888A
102
}
102
{ACAD_REACTORS
330
882D
102
}
330
882D
100
AcDbVisualStyle
  2
Gouraud
 70
     2
 71
     2
 72
     2
 73
     1
 90
        2
 40
-0.6
 41
30.0
 62
     5
 63
     7
 74
     0
 91
        0
 64
     7
 65
   257
 75
     1
175
     1
 42
1.0
 92
        0
 66
     7
 43
1.0
 76
     1
 77
     6
 78
     2
 67
     7
 79
     5
170
     0
171
     0
290
     0
174
     0
 93
       13
 44
0.0
173
     0
291
     1
 45
0.0
1001
ACAD
1000
AcDbSavedByObjectVersion
1070
     0
  0
VISUALSTYLE
  5
8831
102
{ACAD_XDICTIONARY
360
888C
102
}
102
{ACAD_REACTORS
330
882D
102
}
330
882D
100
AcDbVisualStyle
  2
GouraudWithEdges
 70
     3
 71
     2
 72
     2
 73
     1
 90
        2
 40
-0.6
 41
30.0
 62
     5
 63
     7
 74
     1
 91
        0
 64
     7
 65
   257
 75
     1
175
     1
 42
1.0
 92
        0
 66
   257
 43
1.0
 76
     1
 77
     6
 78
     2
 67
     7
 79
     5
170
     0
171
     0
290
     0
174
     0
 93
       13
 44
0.0
173
     0
291
     1
 45
0.0
1001
ACAD
1000
AcDbSavedByObjectVersion
1070
     0
  0
VISUALSTYLE
  5
8835
102
{ACAD_XDICTIONARY
360
8894
102
}
102
{ACAD_REACTORS
330
882D
102
}
330
882D
100
AcDbVisualStyle
  2
Hidden
 70
     6
 71
     1
 72
     2
 73
     2
 90
        0
 40
-0.6
 41
-30.0
 62
     5
 63
     7
 74
     2
 91
        2
 64
     7
 65
   257
 75
     2
175
     1
 42
40.0
 92
        0
 66
   257
 43
1.0
 76
     1
 77
     6
 78
     2
 67
     7
 79
     3
170
     0
171
     0
290
     0
174
     0
 93
        1
 44
0.0
173
     0
291
     0
 45
0.0
1001
ACAD
1000
AcDbSavedByObjectVersion
1070
     0
  0
VISUALSTYLE
  5
8843
102
{ACAD_XDICTIONARY
360
88B0
102
}
102
{ACAD_REACTORS
330
882D
102
}
330
882D
100
AcDbVisualStyle
  2
JitterOff
 70
    20
 71
     2
 72
     2
 73
     0
 90
        0
 40
-0.6
 41
-30.0
 62
     5
 63
     7
 74
     1
 91
        4
 64
     7
 65
   257
 75
     1
175
     1
 42
1.0
 92
       10
 66
     7
 43
1.0
 76
     1
 77
     6
 78
     2
 67
     7
 79
     5
170
     0
171
     0
290
     0
174
     0
 93
        1
 44
0.0
173
     0
291
     1
 45
0.0
1001
ACAD
1000
AcDbSavedByObjectVersion
1070
     0
  0
VISUALSTYLE
  5
883B
102
{ACAD_XDICTIONARY
360
88A0
102
}
102
{ACAD_REACTORS
330
882D
102
}
330
882D
100
AcDbVisualStyle
  2
Linepattern
 70
    14
 71
     2
 72
     2
 73
     0
 90
        0
 40
-0.6
 41
-30.0
 62
     5
 63
     7
 74
     1
 91
        4
 64
     7
 65
   257
 75
     7
175
     7
 42
1.0
 92
        8
 66
     7
 43
1.0
 76
     1
 77
     6
 78
     2
 67
     7
 79
     5
170
     0
171
     0
290
     0
174
     0
 93
        1
 44
0.0
173
     0
291
     1
 45
0.0
1001
ACAD
1000
AcDbSavedByObjectVersion
1070
     0
  0
VISUALSTYLE
  5
8844
102
{ACAD_XDICTIONARY
360
88B2
102
}
102
{ACAD_REACTORS
330
882D
102
}
330
882D
100
AcDbVisualStyle
  2
OverhangOff
 70
    21
 71
     2
 72
     2
 73
     0
 90
        0
 40
-0.6
 41
-30.0
 62
     5
 63
     7
 74
     1
 91
        4
 64
     7
 65
   257
 75
     1
175
     1
 42
1.0
 92
        9
 66
     7
 43
1.0
 76
     1
 77
     6
 78
     2
 67
     7
 79
     5
170
     0
171
     0
290
     0
174
     0
 93
        1
 44
0.0
173
     0
291
     1
 45
0.0
1001
ACAD
1000
AcDbSavedByObjectVersion
1070
     0
  0
VISUALSTYLE
  5
8837
102
{ACAD_XDICTIONARY
360
8898
102
}
102
{ACAD_REACTORS
330
882D
102
}
330
882D
100
AcDbVisualStyle
  2
Realistic
 70
     8
 71
     2
 72
     3
 73
     0
 90
        2
 40
-0.6
 41
30.0
 62
     5
 63
     7
 74
     0
 91
        0
 64
     7
 65
   257
 75
     1
175
     1
 42
1.0
 92
        8
 66
   257
 43
1.0
 76
     1
 77
     6
 78
     2
 67
     7
 79
     3
170
     0
171
     0
290
     0
174
     0
 93
       13
 44
0.0
173
     0
291
     0
 45
0.0
1001
ACAD
1000
AcDbSavedByObjectVersion
1070
     0
  0
VISUALSTYLE
  5
8842
102
{ACAD_XDICTIONARY
360
88AE
102
}
102
{ACAD_REACTORS
330
882D
102
}
330
882D
100
AcDbVisualStyle
  2
Shaded
 70
    27
 71
     2
 72
     2
 73
     1
 90
        2
 40
-0.6
 41
30.0
 62
     5
 63
     7
 74
     0
 91
        4
 64
     7
 65
   257
 75
     1
175
     1
 42
1.0
 92
        8
 66
   257
 43
1.0
 76
     1
 77
     6
 78
     2
 67
     8
 79
     3
170
     0
171
     0
290
     0
174
     0
 93
        5
 44
0.0
173
     0
291
     0
 45
0.0
1001
ACAD
1000
AcDbSavedByObjectVersion
1070
     0
  0
VISUALSTYLE
  5
8841
102
{ACAD_XDICTIONARY
360
88AC
102
}
102
{ACAD_REACTORS
330
882D
102
}
330
882D
100
AcDbVisualStyle
  2
Shaded with edges
 70
    26
 71
     2
 72
     2
 73
     1
 90
        2
 40
-0.6
 41
30.0
 62
     5
 63
     7
 74
     1
 91
       10
 64
     7
 65
   257
 75
     2
175
     1
 42
1.0
 92
        8
 66
   257
 43
1.0
 76
     1
 77
     6
 78
     2
 67
     7
 79
     3
170
     0
171
     0
290
     0
174
     0
 93
        5
 44
0.0
173
     0
291
     0
 45
0.0
1001
ACAD
1000
AcDbSavedByObjectVersion
1070
     0
  0
VISUALSTYLE
  5
883E
102
{ACAD_XDICTIONARY
360
88A6
102
}
102
{ACAD_REACTORS
330
882D
102
}
330
882D
100
AcDbVisualStyle
  2
Shades of Gray
 70
    23
 71
     2
 72
     2
 73
     3
 90
        0
 40
-0.6
 41
-30.0
 62
     5
 63
     7
 74
     2
 91
        2
 64
     7
 65
     7
 75
     1
175
     1
 42
40.0
 92
        8
 66
     7
 43
1.0
 76
     1
 77
     6
 78
     2
 67
     7
 79
     3
170
     0
171
     0
290
     0
174
     0
 93
        1
 44
0.0
173
     0
291
     0
 45
0.0
1001
ACAD
1000
AcDbSavedByObjectVersion
1070
     0
  0
VISUALSTYLE
  5
883F
102
{ACAD_XDICTIONARY
360
88A8
102
}
102
{ACAD_REACTORS
330
882D
102
}
330
882D
100
AcDbVisualStyle
  2
Sketchy
 70
    24
 71
     1
 72
     2
 73
     2
 90
        0
 40
-0.6
 41
-30.0
 62
     5
 63
     7
 74
     2
 91
        2
 64
     7
 65
     7
 75
     1
175
     1
 42
40.0
 92
       11
 66
     7
 43
1.0
 76
     1
 77
     6
 78
     2
 67
     7
 79
     6
170
     0
171
     0
290
     0
174
     0
 93
        1
 44
0.0
173
     0
291
     0
 45
0.0
1001
ACAD
1000
AcDbSavedByObjectVersion
1070
     0
  0
VISUALSTYLE
  5
883A
102
{ACAD_XDICTIONARY
360
889E
102
}
102
{ACAD_REACTORS
330
882D
102
}
330
882D
100
AcDbVisualStyle
  2
Thicken
 70
    13
 71
     2
 72
     2
 73
     0
 90
        0
 40
-0.6
 41
-30.0
 62
     5
 63
     7
 74
     1
 91
        4
 64
     7
 65
   257
 75
     1
175
     1
 42
1.0
 92
       12
 66
     7
 43
1.0
 76
     1
 77
     6
 78
     2
 67
     7
 79
     5
170
     0
171
     0
290
     0
174
     0
 93
        1
 44
0.0
173
     0
291
     1
 45
0.0
1001
ACAD
1000
AcDbSavedByObjectVersion
1070
     0
  0
VISUALSTYLE
  5
8834
102
{ACAD_XDICTIONARY
360
8892
102
}
102
{ACAD_REACTORS
330
882D
102
}
330
882D
100
AcDbVisualStyle
  2
Wireframe
 70
     5
 71
     0
 72
     2
 73
     0
 90
        0
 40
-0.6
 41
-30.0
 62
     5
 63
     7
 74
     1
 91
        4
 64
     7
 65
   257
 75
     1
175
     1
 42
1.0
 92
        0
 66
   257
 43
1.0
 76
     1
 77
     6
 78
     2
 67
     7
 79
     3
170
     0
171
     0
290
     0
174
     0
 93
        1
 44
0.0
173
     0
291
     0
 45
0.0
1001
ACAD
1000
AcDbSavedByObjectVersion
1070
     0
  0
VISUALSTYLE
  5
8840
102
{ACAD_XDICTIONARY
360
88AA
102
}
102
{ACAD_REACTORS
330
882D
102
}
330
882D
100
AcDbVisualStyle
  2
X-Ray
 70
    25
 71
     2
 72
     2
 73
     1
 90
        1
 40
0.5
 41
-30.0
 62
     5
 63
     7
 74
     1
 91
        0
 64
     7
 65
   257
 75
     1
175
     1
 42
1.0
 92
        8
 66
     7
 43
1.0
 76
     1
 77
     6
 78
     2
 67
     7
 79
     3
170
     0
171
     0
290
     0
174
     0
 93
       13
 44
0.0
173
     0
291
     0
 45
0.0
1001
ACAD
1000
AcDbSavedByObjectVersion
1070
     0
  0
DICTIONARYVAR
  5
8879
102
{ACAD_REACTORS
330
8874
102
}
330
8874
100
DictionaryVariables
280
     0
  1
1:1
  0
DICTIONARYVAR
  5
8876
102
{ACAD_REACTORS
330
8874
102
}
330
8874
100
DictionaryVariables
280
     0
  1
STANDARD
  0
DICTIONARYVAR
  5
8875
102
{ACAD_REACTORS
330
8874
102
}
330
8874
100
DictionaryVariables
280
     0
  1
STANDARD
  0
DICTIONARYVAR
  5
8877
102
{ACAD_REACTORS
330
8874
102
}
330
8874
100
DictionaryVariables
280
     0
  1
Imperial24
  0
DICTIONARYVAR
  5
8878
102
{ACAD_REACTORS
330
8874
102
}
330
8874
100
DictionaryVariables
280
     0
  1
Imperial24
  0
DICTIONARYVAR
  5
887C
102
{ACAD_REACTORS
330
8874
102
}
330
8874
100
DictionaryVariables
280
     0
  1
1
  0
DICTIONARYVAR
  5
887B
102
{ACAD_REACTORS
330
8874
102
}
330
8874
100
DictionaryVariables
280
     0
  1
0
  0
DICTIONARYVAR
  5
887A
102
{ACAD_REACTORS
330
8874
102
}
330
8874
100
DictionaryVariables
280
     0
  1
127
  0
DICTIONARYVAR
  5
887D
102
{ACAD_REACTORS
330
8874
102
}
330
8874
100
DictionaryVariables
280
     0
  1
2
  0
DICTIONARY
  5
88BA
330
8860
100
AcDbDictionary
280
     1
281
     1
  3
ACAD_XREC_ROUNDTRIP
360
88BB
  0
DICTIONARY
  5
88BC
330
8861
100
AcDbDictionary
280
     1
281
     1
  3
ACAD_XREC_ROUNDTRIP
360
88BD
  0
DICTIONARY
  5
88BE
330
8862
100
AcDbDictionary
280
     1
281
     1
  3
ACAD_XREC_ROUNDTRIP
360
88BF
  0
DICTIONARY
  5
881E
330
881D
100
AcDbDictionary
280
     1
281
     1
  3
ACAD_XREC_ROUNDTRIP
360
8884
  3
BUMPTILE
360
8820
  3
DIFFUSETILE
360
881F
  3
OPACITYTILE
360
8823
  3
REFLECTIONTILE
360
8822
  3
REFRACTIONTILE
360
8824
  3
SPECULARTILE
360
8821
  0
DICTIONARY
  5
8816
330
8815
100
AcDbDictionary
280
     1
281
     1
  3
ACAD_XREC_ROUNDTRIP
360
8883
  3
BUMPTILE
360
8818
  3
DIFFUSETILE
360
8817
  3
OPACITYTILE
360
881B
  3
REFLECTIONTILE
360
881A
  3
REFRACTIONTILE
360
881C
  3
SPECULARTILE
360
8819
  0
DICTIONARY
  5
8826
330
8825
100
AcDbDictionary
280
     1
281
     1
  3
ACAD_XREC_ROUNDTRIP
360
8885
  3
BUMPTILE
360
8828
  3
DIFFUSETILE
360
8827
  3
OPACITYTILE
360
882B
  3
REFLECTIONTILE
360
882A
  3
REFRACTIONTILE
360
882C
  3
SPECULARTILE
360
8829
  0
DICTIONARY
  5
88B8
330
885E
100
AcDbDictionary
280
     1
281
     1
  3
ACAD_XREC_ROUNDTRIP
360
88B9
  0
DICTIONARY
  5
887F
330
8848
100
AcDbDictionary
280
     1
281
     1
  3
ACAD_ROUNDTRIP_2008_TABLESTYLE_CELLSTYLEMAP
360
8880
  3
ACAD_XREC_ROUNDTRIP
360
88B6
  0
DICTIONARY
  5
8890
330
8833
100
AcDbDictionary
280
     1
281
     1
  3
ACAD_XREC_ROUNDTRIP
360
8891
  0
DICTIONARY
  5
888E
330
8832
100
AcDbDictionary
280
     1
281
     1
  3
ACAD_XREC_ROUNDTRIP
360
888F
  0
DICTIONARY
  5
889C
330
8839
100
AcDbDictionary
280
     1
281
     1
  3
ACAD_XREC_ROUNDTRIP
360
889D
  0
DICTIONARY
  5
88A4
330
883D
100
AcDbDictionary
280
     1
281
     1
  3
ACAD_XREC_ROUNDTRIP
360
88A5
  0
DICTIONARY
  5
8896
330
8836
100
AcDbDictionary
280
     1
281
     1
  3
ACAD_XREC_ROUNDTRIP
360
8897
  0
DICTIONARY
  5
889A
330
8838
100
AcDbDictionary
280
     1
281
     1
  3
ACAD_XREC_ROUNDTRIP
360
889B
  0
DICTIONARY
  5
88B4
330
8845
100
AcDbDictionary
280
     1
281
     1
  3
ACAD_XREC_ROUNDTRIP
360
88B5
  0
DICTIONARY
  5
88A2
330
883C
100
AcDbDictionary
280
     1
281
     1
  3
ACAD_XREC_ROUNDTRIP
360
88A3
  0
DICTIONARY
  5
8886
330
882E
100
AcDbDictionary
280
     1
281
     1
  3
ACAD_XREC_ROUNDTRIP
360
8887
  0
DICTIONARY
  5
8888
330
882F
100
AcDbDictionary
280
     1
281
     1
  3
ACAD_XREC_ROUNDTRIP
360
8889
  0
DICTIONARY
  5
888A
330
8830
100
AcDbDictionary
280
     1
281
     1
  3
ACAD_XREC_ROUNDTRIP
360
888B
  0
DICTIONARY
  5
888C
330
8831
100
AcDbDictionary
280
     1
281
     1
  3
ACAD_XREC_ROUNDTRIP
360
888D
  0
DICTIONARY
  5
8894
330
8835
100
AcDbDictionary
280
     1
281
     1
  3
ACAD_XREC_ROUNDTRIP
360
8895
  0
DICTIONARY
  5
88B0
330
8843
100
AcDbDictionary
280
     1
281
     1
  3
ACAD_XREC_ROUNDTRIP
360
88B1
  0
DICTIONARY
  5
88A0
330
883B
100
AcDbDictionary
280
     1
281
     1
  3
ACAD_XREC_ROUNDTRIP
360
88A1
  0
DICTIONARY
  5
88B2
330
8844
100
AcDbDictionary
280
     1
281
     1
  3
ACAD_XREC_ROUNDTRIP
360
88B3
  0
DICTIONARY
  5
8898
330
8837
100
AcDbDictionary
280
     1
281
     1
  3
ACAD_XREC_ROUNDTRIP
360
8899
  0
DICTIONARY
  5
88AE
330
8842
100
AcDbDictionary
280
     1
281
     1
  3
ACAD_XREC_ROUNDTRIP
360
88AF
  0
DICTIONARY
  5
88AC
330
8841
100
AcDbDictionary
280
     1
281
     1
  3
ACAD_XREC_ROUNDTRIP
360
88AD
  0
DICTIONARY
  5
88A6
330
883E
100
AcDbDictionary
280
     1
281
     1
  3
ACAD_XREC_ROUNDTRIP
360
88A7
  0
DICTIONARY
  5
88A8
330
883F
100
AcDbDictionary
280
     1
281
     1
  3
ACAD_XREC_ROUNDTRIP
360
88A9
  0
DICTIONARY
  5
889E
330
883A
100
AcDbDictionary
280
     1
281
     1
  3
ACAD_XREC_ROUNDTRIP
360
889F
  0
DICTIONARY
  5
8892
330
8834
100
AcDbDictionary
280
     1
281
     1
  3
ACAD_XREC_ROUNDTRIP
360
8893
  0
DICTIONARY
  5
88AA
330
8840
100
AcDbDictionary
280
     1
281
     1
  3
ACAD_XREC_ROUNDTRIP
360
88AB
  0
XRECORD
  5
88BB
102
{ACAD_REACTORS
330
88BA
102
}
330
88BA
100
AcDbXrecord
280
     1
102
DISPLAYNAME
  1
Imperial24
102
FLAGS
 90
        0
  0
XRECORD
  5
88BD
102
{ACAD_REACTORS
330
88BC
102
}
330
88BC
100
AcDbXrecord
280
     1
102
SHADEPLOT
 70
     0
102
SHADEPLOTRESLEVEL
 70
     2
102
SHADEPLOTCUSTOMDPI
 70
   300
  0
XRECORD
  5
88BF
102
{ACAD_REACTORS
330
88BE
102
}
330
88BE
100
AcDbXrecord
280
     1
102
SHADEPLOT
 70
     0
102
SHADEPLOTRESLEVEL
 70
     2
102
SHADEPLOTCUSTOMDPI
 70
   300
  0
XRECORD
  5
8884
102
{ACAD_REACTORS
330
881E
102
}
330
881E
100
AcDbXrecord
280
     1
102
MATERIAL
148
0.0
149
0.0
149
0.0
 93
        0
 94
      127
282
     0
 72
     0
 77
     0
171
     0
175
     0
179
     0
273
     0
  0
XRECORD
  5
8820
102
{ACAD_REACTORS
330
881E
102
}
330
881E
100
AcDbXrecord
280
     1
270
     1
271
     1
  0
XRECORD
  5
881F
102
{ACAD_REACTORS
330
881E
102
}
330
881E
100
AcDbXrecord
280
     1
270
     1
271
     1
  0
XRECORD
  5
8823
102
{ACAD_REACTORS
330
881E
102
}
330
881E
100
AcDbXrecord
280
     1
270
     1
271
     1
  0
XRECORD
  5
8822
102
{ACAD_REACTORS
330
881E
102
}
330
881E
100
AcDbXrecord
280
     1
270
     1
271
     1
  0
XRECORD
  5
8824
102
{ACAD_REACTORS
330
881E
102
}
330
881E
100
AcDbXrecord
280
     1
270
     1
271
     1
  0
XRECORD
  5
8821
102
{ACAD_REACTORS
330
881E
102
}
330
881E
100
AcDbXrecord
280
     1
270
     1
271
     1
  0
XRECORD
  5
8883
102
{ACAD_REACTORS
330
8816
102
}
330
8816
100
AcDbXrecord
280
     1
102
MATERIAL
148
0.0
149
0.0
149
0.0
 93
        0
 94
      127
282
     0
 72
     0
 77
     0
171
     0
175
     0
179
     0
273
     0
  0
XRECORD
  5
8818
102
{ACAD_REACTORS
330
8816
102
}
330
8816
100
AcDbXrecord
280
     1
270
     1
271
     1
  0
XRECORD
  5
8817
102
{ACAD_REACTORS
330
8816
102
}
330
8816
100
AcDbXrecord
280
     1
270
     1
271
     1
  0
XRECORD
  5
881B
102
{ACAD_REACTORS
330
8816
102
}
330
8816
100
AcDbXrecord
280
     1
270
     1
271
     1
  0
XRECORD
  5
881A
102
{ACAD_REACTORS
330
8816
102
}
330
8816
100
AcDbXrecord
280
     1
270
     1
271
     1
  0
XRECORD
  5
881C
102
{ACAD_REACTORS
330
8816
102
}
330
8816
100
AcDbXrecord
280
     1
270
     1
271
     1
  0
XRECORD
  5
8819
102
{ACAD_REACTORS
330
8816
102
}
330
8816
100
AcDbXrecord
280
     1
270
     1
271
     1
  0
XRECORD
  5
8885
102
{ACAD_REACTORS
330
8826
102
}
330
8826
100
AcDbXrecord
280
     1
102
MATERIAL
148
0.0
149
0.0
149
0.0
 93
        0
 94
      127
282
     0
 72
     0
 77
     0
171
     0
175
     0
179
     0
273
     0
  0
XRECORD
  5
8828
102
{ACAD_REACTORS
330
8826
102
}
330
8826
100
AcDbXrecord
280
     1
270
     1
271
     1
  0
XRECORD
  5
8827
102
{ACAD_REACTORS
330
8826
102
}
330
8826
100
AcDbXrecord
280
     1
270
     1
271
     1
  0
XRECORD
  5
882B
102
{ACAD_REACTORS
330
8826
102
}
330
8826
100
AcDbXrecord
280
     1
270
     1
271
     1
  0
XRECORD
  5
882A
102
{ACAD_REACTORS
330
8826
102
}
330
8826
100
AcDbXrecord
280
     1
270
     1
271
     1
  0
XRECORD
  5
882C
102
{ACAD_REACTORS
330
8826
102
}
330
8826
100
AcDbXrecord
280
     1
270
     1
271
     1
  0
XRECORD
  5
8829
102
{ACAD_REACTORS
330
8826
102
}
330
8826
100
AcDbXrecord
280
     1
270
     1
271
     1
  0
XRECORD
  5
88B9
102
{ACAD_REACTORS
330
88B8
102
}
330
88B8
100
AcDbXrecord
280
     1
102
DISPLAYNAME
  1
Imperial24
102
FLAGS
 90
        0
  0
CELLSTYLEMAP
  5
8880
102
{ACAD_REACTORS
330
887F
102
}
330
887F
100
AcDbCellStyleMap
 90
        3
300
CELLSTYLE
  1
TABLEFORMAT_BEGIN
 90
        5
170
     1
 91
        0
 92
    32768
 62
   257
 93
        1
300
CONTENTFORMAT
  1
CONTENTFORMAT_BEGIN
 90
        0
 91
        0
 92
      512
 93
        0
300

 40
0.0
140
1.0
 94
        5
 62
     0
340
F
144
0.25
309
CONTENTFORMAT_END
171
     0
 94
        0
309
TABLEFORMAT_END
  1
CELLSTYLE_BEGIN
 90
        1
 91
        1
300
_TITLE
309
CELLSTYLE_END
300
CELLSTYLE
  1
TABLEFORMAT_BEGIN
 90
        5
170
     1
 91
        0
 92
        0
 62
   257
 93
        1
300
CONTENTFORMAT
  1
CONTENTFORMAT_BEGIN
 90
        0
 91
        0
 92
      512
 93
        0
300

 40
0.0
140
1.0
 94
        5
 62
     0
340
F
144
0.18
309
CONTENTFORMAT_END
171
     0
 94
        0
309
TABLEFORMAT_END
  1
CELLSTYLE_BEGIN
 90
        2
 91
        1
300
_HEADER
309
CELLSTYLE_END
300
CELLSTYLE
  1
TABLEFORMAT_BEGIN
 90
        5
170
     1
 91
        0
 92
        0
 62
   257
 93
        1
300
CONTENTFORMAT
  1
CONTENTFORMAT_BEGIN
 90
        0
 91
        0
 92
      512
 93
        0
300

 40
0.0
140
1.0
 94
        2
 62
     0
340
F
144
0.18
309
CONTENTFORMAT_END
171
     0
 94
        0
309
TABLEFORMAT_END
  1
CELLSTYLE_BEGIN
 90
        3
 91
        2
300
_DATA
309
CELLSTYLE_END
  0
XRECORD
  5
88B6
102
{ACAD_REACTORS
330
887F
102
}
330
887F
100
AcDbXrecord
280
     1
102
ACAD_ROUNDTRIP_PRE2007_TABLESTYLE
 90
      512
 91
        0
  1

 92
      512
 93
        0
  2

 94
      512
 95
        0
  3

  0
XRECORD
  5
8891
102
{ACAD_REACTORS
330
8890
102
}
330
8890
100
AcDbXrecord
280
     1
102
RTVSPost2010Prop28
280
     1
102
RTVSPost2010PropOp28
 70
     1
102
RTVSPost2010Prop29
280
     1
102
RTVSPost2010PropOp29
 70
     1
102
RTVSPost2010Prop30
280
     0
102
RTVSPost2010PropOp30
 70
     1
102
RTVSPost2010Prop31
280
     0
102
RTVSPost2010PropOp31
 70
     1
102
RTVSPost2010Prop32
280
     0
102
RTVSPost2010PropOp32
 70
     1
102
RTVSPost2010Prop33
280
     0
102
RTVSPost2010PropOp33
 70
     1
102
RTVSPost2010Prop34
280
     0
102
RTVSPost2010PropOp34
 70
     1
102
RTVSPost2010Prop35
280
     0
102
RTVSPost2010PropOp35
 70
     1
102
RTVSPost2010Prop36
280
     0
102
RTVSPost2010PropOp36
 70
     1
102
RTVSPost2010Prop37
 90
       50
102
RTVSPost2010PropOp37
 70
     1
102
RTVSPost2010Prop38
140
0.0
102
RTVSPost2010PropOp38
 70
     1
102
RTVSPost2010Prop39
140
1.0
102
RTVSPost2010PropOp39
 70
     1
102
RTVSPost2010Prop40
 90
        0
102
RTVSPost2010PropOp40
 70
     1
102
RTVSPost2010Prop41ColorIndex
 90
       18
102
RTVSPost2010Prop41ColorRGB
 90
        0
102
RTVSPost2010PropOp41
 70
     1
102
RTVSPost2010Prop42
 90
       50
102
RTVSPost2010PropOp42
 70
     1
102
RTVSPost2010Prop43
 90
        3
102
RTVSPost2010PropOp43
 70
     1
102
RTVSPost2010Prop44ColorIndex
 90
        5
102
RTVSPost2010Prop44ColorRGB
 90
      255
102
RTVSPost2010PropOp44
 70
     1
102
RTVSPost2010Prop45
280
     0
102
RTVSPost2010PropOp45
 70
     1
102
RTVSPost2010Prop46
 90
       50
102
RTVSPost2010PropOp46
 70
     1
102
RTVSPost2010Prop47
 90
       50
102
RTVSPost2010PropOp47
 70
     1
102
RTVSPost2010Prop48
 90
       50
102
RTVSPost2010PropOp48
 70
     1
102
RTVSPost2010Prop49
280
     0
102
RTVSPost2010PropOp49
 70
     1
102
RTVSPost2010Prop50
 90
       50
102
RTVSPost2010PropOp50
 70
     1
102
RTVSPost2010Prop51ColorIndex
 90
      256
102
RTVSPost2010Prop51ColorRGB
 90
-16777216
102
RTVSPost2010PropOp51
 70
     0
102
RTVSPost2010Prop52
140
1.0
102
RTVSPost2010PropOp52
 70
     0
102
RTVSPost2010Prop53
 90
        2
102
RTVSPost2010PropOp53
 70
     1
102
RTVSPost2010Prop54
  1
strokes_ogs.tif
102
RTVSPost2010PropOp54
 70
     1
102
RTVSPost2010Prop55
280
     0
102
RTVSPost2010PropOp55
 70
     1
102
RTVSPost2010Prop56
140
1.0
102
RTVSPost2010PropOp56
 70
     1
102
RTVSPost2010Prop57
140
1.0
102
RTVSPost2010PropOp57
 70
     1
102
RTVSPropertyOp0
 70
     1
102
RTVSPropertyOp1
 70
     1
102
RTVSPropertyOp2
 70
     1
102
RTVSPropertyOp3
 70
     1
102
RTVSPropertyOp4
 70
     1
102
RTVSPropertyOp5
 70
     1
102
RTVSPropertyOp6
 70
     1
102
RTVSPropertyOp7
 70
     1
102
RTVSPropertyOp8
 70
     1
102
RTVSPropertyOp9
 70
     1
102
RTVSPropertyOp10
 70
     1
102
RTVSPropertyOp11
 70
     1
102
RTVSPropertyOp12
 70
     1
102
RTVSPropertyOp13
 70
     1
102
RTVSPropertyOp14
 70
     1
102
RTVSPropertyOp15
 70
     1
102
RTVSPropertyOp16
 70
     1
102
RTVSPropertyOp17
 70
     1
102
RTVSPropertyOp18
 70
     1
102
RTVSPropertyOp19
 70
     1
102
RTVSPropertyOp20
 70
     1
102
RTVSPropertyOp21
 70
     1
102
RTVSPropertyOp22
 70
     1
102
RTVSPropertyOp23
 70
     1
102
RTVSPropertyOp24
 70
     1
102
RTVSPropertyOp25
 70
     1
102
RTVSPropertyOp26
 70
     1
102
RTVSPropertyOp27
 70
     1
102
RTVSPropertyOp28
 70
     1
102
RTVSPropertyOp29
 70
     1
102
RTVSPropertyOp30
 70
     1
102
RTVSPropertyOp31
 70
     1
102
RTVSPropertyOp32
 70
     1
102
RTVSPropertyOp33
 70
     1
102
RTVSPropertyOp34
 70
     1
102
RTVSPropertyOp35
 70
     1
102
RTVSPropertyOp36
 70
     1
102
RTVSPropertyOp37
 70
     1
102
RTVSPropertyOp38
 70
     1
102
RTVSPropertyOp39
 70
     1
102
RTVSPropertyOp40
 70
     1
102
RTVSPropertyOp41
 70
     1
102
RTVSPropertyOp42
 70
     1
102
RTVSPropertyOp43
 70
     1
102
RTVSPropertyOp44
 70
     1
102
RTVSPropertyOp45
 70
     1
102
RTVSPropertyOp46
 70
     1
102
RTVSPropertyOp47
 70
     1
102
RTVSPropertyOp48
 70
     1
102
RTVSPropertyOp49
 70
     1
102
RTVSPropertyOp50
 70
     1
102
RTVSPropertyOp51
 70
     0
102
RTVSPropertyOp52
 70
     0
102
RTVSPropertyOp53
 70
     1
102
RTVSPropertyOp54
 70
     1
102
RTVSPropertyOp55
 70
     1
102
RTVSPropertyOp56
 70
     1
102
RTVSPropertyOp57
 70
     1
102
RTVSPropertyOp58
 70
     1
102
RTVSPropertyOp59
 70
     1
102
RTVSPropertyOp60
 70
     1
102
RTVSPropertyOp61
 70
     1
102
RTVSPropertyOp62
 70
     1
  0
XRECORD
  5
888F
102
{ACAD_REACTORS
330
888E
102
}
330
888E
100
AcDbXrecord
280
     1
102
RTVSPost2010Prop28
280
     0
102
RTVSPost2010PropOp28
 70
     1
102
RTVSPost2010Prop29
280
     1
102
RTVSPost2010PropOp29
 70
     1
102
RTVSPost2010Prop30
280
     1
102
RTVSPost2010PropOp30
 70
     1
102
RTVSPost2010Prop31
280
     0
102
RTVSPost2010PropOp31
 70
     1
102
RTVSPost2010Prop32
280
     0
102
RTVSPost2010PropOp32
 70
     1
102
RTVSPost2010Prop33
280
     0
102
RTVSPost2010PropOp33
 70
     1
102
RTVSPost2010Prop34
280
     0
102
RTVSPost2010PropOp34
 70
     1
102
RTVSPost2010Prop35
280
     0
102
RTVSPost2010PropOp35
 70
     1
102
RTVSPost2010Prop36
280
     0
102
RTVSPost2010PropOp36
 70
     1
102
RTVSPost2010Prop37
 90
       50
102
RTVSPost2010PropOp37
 70
     1
102
RTVSPost2010Prop38
140
0.0
102
RTVSPost2010PropOp38
 70
     1
102
RTVSPost2010Prop39
140
1.0
102
RTVSPost2010PropOp39
 70
     1
102
RTVSPost2010Prop40
 90
        0
102
RTVSPost2010PropOp40
 70
     1
102
RTVSPost2010Prop41ColorIndex
 90
       18
102
RTVSPost2010Prop41ColorRGB
 90
        0
102
RTVSPost2010PropOp41
 70
     1
102
RTVSPost2010Prop42
 90
       50
102
RTVSPost2010PropOp42
 70
     1
102
RTVSPost2010Prop43
 90
        3
102
RTVSPost2010PropOp43
 70
     1
102
RTVSPost2010Prop44ColorIndex
 90
        5
102
RTVSPost2010Prop44ColorRGB
 90
      255
102
RTVSPost2010PropOp44
 70
     1
102
RTVSPost2010Prop45
280
     0
102
RTVSPost2010PropOp45
 70
     1
102
RTVSPost2010Prop46
 90
       50
102
RTVSPost2010PropOp46
 70
     1
102
RTVSPost2010Prop47
 90
       50
102
RTVSPost2010PropOp47
 70
     1
102
RTVSPost2010Prop48
 90
       50
102
RTVSPost2010PropOp48
 70
     1
102
RTVSPost2010Prop49
280
     0
102
RTVSPost2010PropOp49
 70
     1
102
RTVSPost2010Prop50
 90
       50
102
RTVSPost2010PropOp50
 70
     1
102
RTVSPost2010Prop51ColorIndex
 90
      256
102
RTVSPost2010Prop51ColorRGB
 90
-16777216
102
RTVSPost2010PropOp51
 70
     0
102
RTVSPost2010Prop52
140
1.0
102
RTVSPost2010PropOp52
 70
     0
102
RTVSPost2010Prop53
 90
        2
102
RTVSPost2010PropOp53
 70
     1
102
RTVSPost2010Prop54
  1
strokes_ogs.tif
102
RTVSPost2010PropOp54
 70
     1
102
RTVSPost2010Prop55
280
     0
102
RTVSPost2010PropOp55
 70
     1
102
RTVSPost2010Prop56
140
1.0
102
RTVSPost2010PropOp56
 70
     1
102
RTVSPost2010Prop57
140
1.0
102
RTVSPost2010PropOp57
 70
     1
102
RTVSPropertyOp0
 70
     1
102
RTVSPropertyOp1
 70
     1
102
RTVSPropertyOp2
 70
     1
102
RTVSPropertyOp3
 70
     1
102
RTVSPropertyOp4
 70
     1
102
RTVSPropertyOp5
 70
     1
102
RTVSPropertyOp6
 70
     1
102
RTVSPropertyOp7
 70
     1
102
RTVSPropertyOp8
 70
     1
102
RTVSPropertyOp9
 70
     1
102
RTVSPropertyOp10
 70
     1
102
RTVSPropertyOp11
 70
     1
102
RTVSPropertyOp12
 70
     1
102
RTVSPropertyOp13
 70
     1
102
RTVSPropertyOp14
 70
     1
102
RTVSPropertyOp15
 70
     1
102
RTVSPropertyOp16
 70
     1
102
RTVSPropertyOp17
 70
     1
102
RTVSPropertyOp18
 70
     1
102
RTVSPropertyOp19
 70
     1
102
RTVSPropertyOp20
 70
     1
102
RTVSPropertyOp21
 70
     1
102
RTVSPropertyOp22
 70
     1
102
RTVSPropertyOp23
 70
     1
102
RTVSPropertyOp24
 70
     1
102
RTVSPropertyOp25
 70
     1
102
RTVSPropertyOp26
 70
     1
102
RTVSPropertyOp27
 70
     1
102
RTVSPropertyOp28
 70
     1
102
RTVSPropertyOp29
 70
     1
102
RTVSPropertyOp30
 70
     1
102
RTVSPropertyOp31
 70
     1
102
RTVSPropertyOp32
 70
     1
102
RTVSPropertyOp33
 70
     1
102
RTVSPropertyOp34
 70
     1
102
RTVSPropertyOp35
 70
     1
102
RTVSPropertyOp36
 70
     1
102
RTVSPropertyOp37
 70
     1
102
RTVSPropertyOp38
 70
     1
102
RTVSPropertyOp39
 70
     1
102
RTVSPropertyOp40
 70
     1
102
RTVSPropertyOp41
 70
     1
102
RTVSPropertyOp42
 70
     1
102
RTVSPropertyOp43
 70
     1
102
RTVSPropertyOp44
 70
     1
102
RTVSPropertyOp45
 70
     1
102
RTVSPropertyOp46
 70
     1
102
RTVSPropertyOp47
 70
     1
102
RTVSPropertyOp48
 70
     1
102
RTVSPropertyOp49
 70
     1
102
RTVSPropertyOp50
 70
     1
102
RTVSPropertyOp51
 70
     0
102
RTVSPropertyOp52
 70
     0
102
RTVSPropertyOp53
 70
     1
102
RTVSPropertyOp54
 70
     1
102
RTVSPropertyOp55
 70
     1
102
RTVSPropertyOp56
 70
     1
102
RTVSPropertyOp57
 70
     1
102
RTVSPropertyOp58
 70
     1
102
RTVSPropertyOp59
 70
     1
102
RTVSPropertyOp60
 70
     1
102
RTVSPropertyOp61
 70
     1
102
RTVSPropertyOp62
 70
     1
  0
XRECORD
  5
889D
102
{ACAD_REACTORS
330
889C
102
}
330
889C
100
AcDbXrecord
280
     1
102
RTVSPost2010Prop28
280
     0
102
RTVSPost2010PropOp28
 70
     1
102
RTVSPost2010Prop29
280
     1
102
RTVSPost2010PropOp29
 70
     1
102
RTVSPost2010Prop30
280
     1
102
RTVSPost2010PropOp30
 70
     1
102
RTVSPost2010Prop31
280
     0
102
RTVSPost2010PropOp31
 70
     1
102
RTVSPost2010Prop32
280
     0
102
RTVSPost2010PropOp32
 70
     1
102
RTVSPost2010Prop33
280
     0
102
RTVSPost2010PropOp33
 70
     1
102
RTVSPost2010Prop34
280
     0
102
RTVSPost2010PropOp34
 70
     1
102
RTVSPost2010Prop35
280
     0
102
RTVSPost2010PropOp35
 70
     1
102
RTVSPost2010Prop36
280
     0
102
RTVSPost2010PropOp36
 70
     1
102
RTVSPost2010Prop37
 90
       50
102
RTVSPost2010PropOp37
 70
     1
102
RTVSPost2010Prop38
140
0.0
102
RTVSPost2010PropOp38
 70
     1
102
RTVSPost2010Prop39
140
1.0
102
RTVSPost2010PropOp39
 70
     1
102
RTVSPost2010Prop40
 90
        0
102
RTVSPost2010PropOp40
 70
     1
102
RTVSPost2010Prop41ColorIndex
 90
       18
102
RTVSPost2010Prop41ColorRGB
 90
        0
102
RTVSPost2010PropOp41
 70
     1
102
RTVSPost2010Prop42
 90
       50
102
RTVSPost2010PropOp42
 70
     1
102
RTVSPost2010Prop43
 90
        3
102
RTVSPost2010PropOp43
 70
     1
102
RTVSPost2010Prop44ColorIndex
 90
        5
102
RTVSPost2010Prop44ColorRGB
 90
      255
102
RTVSPost2010PropOp44
 70
     1
102
RTVSPost2010Prop45
280
     0
102
RTVSPost2010PropOp45
 70
     1
102
RTVSPost2010Prop46
 90
       50
102
RTVSPost2010PropOp46
 70
     1
102
RTVSPost2010Prop47
 90
       50
102
RTVSPost2010PropOp47
 70
     1
102
RTVSPost2010Prop48
 90
       50
102
RTVSPost2010PropOp48
 70
     1
102
RTVSPost2010Prop49
280
     0
102
RTVSPost2010PropOp49
 70
     1
102
RTVSPost2010Prop50
 90
       50
102
RTVSPost2010PropOp50
 70
     1
102
RTVSPost2010Prop51ColorIndex
 90
      256
102
RTVSPost2010Prop51ColorRGB
 90
-16777216
102
RTVSPost2010PropOp51
 70
     0
102
RTVSPost2010Prop52
140
1.0
102
RTVSPost2010PropOp52
 70
     0
102
RTVSPost2010Prop53
 90
        2
102
RTVSPost2010PropOp53
 70
     1
102
RTVSPost2010Prop54
  1
strokes_ogs.tif
102
RTVSPost2010PropOp54
 70
     1
102
RTVSPost2010Prop55
280
     0
102
RTVSPost2010PropOp55
 70
     1
102
RTVSPost2010Prop56
140
1.0
102
RTVSPost2010PropOp56
 70
     1
102
RTVSPost2010Prop57
140
1.0
102
RTVSPost2010PropOp57
 70
     1
102
RTVSPropertyOp0
 70
     1
102
RTVSPropertyOp1
 70
     1
102
RTVSPropertyOp2
 70
     1
102
RTVSPropertyOp3
 70
     1
102
RTVSPropertyOp4
 70
     1
102
RTVSPropertyOp5
 70
     1
102
RTVSPropertyOp6
 70
     1
102
RTVSPropertyOp7
 70
     1
102
RTVSPropertyOp8
 70
     1
102
RTVSPropertyOp9
 70
     1
102
RTVSPropertyOp10
 70
     1
102
RTVSPropertyOp11
 70
     1
102
RTVSPropertyOp12
 70
     1
102
RTVSPropertyOp13
 70
     1
102
RTVSPropertyOp14
 70
     1
102
RTVSPropertyOp15
 70
     1
102
RTVSPropertyOp16
 70
     1
102
RTVSPropertyOp17
 70
     1
102
RTVSPropertyOp18
 70
     1
102
RTVSPropertyOp19
 70
     1
102
RTVSPropertyOp20
 70
     1
102
RTVSPropertyOp21
 70
     1
102
RTVSPropertyOp22
 70
     1
102
RTVSPropertyOp23
 70
     1
102
RTVSPropertyOp24
 70
     1
102
RTVSPropertyOp25
 70
     1
102
RTVSPropertyOp26
 70
     1
102
RTVSPropertyOp27
 70
     1
102
RTVSPropertyOp28
 70
     1
102
RTVSPropertyOp29
 70
     1
102
RTVSPropertyOp30
 70
     1
102
RTVSPropertyOp31
 70
     1
102
RTVSPropertyOp32
 70
     1
102
RTVSPropertyOp33
 70
     1
102
RTVSPropertyOp34
 70
     1
102
RTVSPropertyOp35
 70
     1
102
RTVSPropertyOp36
 70
     1
102
RTVSPropertyOp37
 70
     1
102
RTVSPropertyOp38
 70
     1
102
RTVSPropertyOp39
 70
     1
102
RTVSPropertyOp40
 70
     1
102
RTVSPropertyOp41
 70
     1
102
RTVSPropertyOp42
 70
     1
102
RTVSPropertyOp43
 70
     1
102
RTVSPropertyOp44
 70
     1
102
RTVSPropertyOp45
 70
     1
102
RTVSPropertyOp46
 70
     1
102
RTVSPropertyOp47
 70
     1
102
RTVSPropertyOp48
 70
     1
102
RTVSPropertyOp49
 70
     1
102
RTVSPropertyOp50
 70
     1
102
RTVSPropertyOp51
 70
     0
102
RTVSPropertyOp52
 70
     0
102
RTVSPropertyOp53
 70
     1
102
RTVSPropertyOp54
 70
     1
102
RTVSPropertyOp55
 70
     1
102
RTVSPropertyOp56
 70
     1
102
RTVSPropertyOp57
 70
     1
102
RTVSPropertyOp58
 70
     1
102
RTVSPropertyOp59
 70
     1
102
RTVSPropertyOp60
 70
     1
102
RTVSPropertyOp61
 70
     1
102
RTVSPropertyOp62
 70
     1
  0
XRECORD
  5
88A5
102
{ACAD_REACTORS
330
88A4
102
}
330
88A4
100
AcDbXrecord
280
     1
102
RTVSPost2010Prop28
280
     0
102
RTVSPost2010PropOp28
 70
     1
102
RTVSPost2010Prop29
280
     1
102
RTVSPost2010PropOp29
 70
     1
102
RTVSPost2010Prop30
280
     1
102
RTVSPost2010PropOp30
 70
     1
102
RTVSPost2010Prop31
280
     0
102
RTVSPost2010PropOp31
 70
     1
102
RTVSPost2010Prop32
280
     0
102
RTVSPost2010PropOp32
 70
     1
102
RTVSPost2010Prop33
280
     0
102
RTVSPost2010PropOp33
 70
     1
102
RTVSPost2010Prop34
280
     0
102
RTVSPost2010PropOp34
 70
     1
102
RTVSPost2010Prop35
280
     0
102
RTVSPost2010PropOp35
 70
     1
102
RTVSPost2010Prop36
280
     0
102
RTVSPost2010PropOp36
 70
     1
102
RTVSPost2010Prop37
 90
       50
102
RTVSPost2010PropOp37
 70
     1
102
RTVSPost2010Prop38
140
0.0
102
RTVSPost2010PropOp38
 70
     1
102
RTVSPost2010Prop39
140
1.0
102
RTVSPost2010PropOp39
 70
     1
102
RTVSPost2010Prop40
 90
        0
102
RTVSPost2010PropOp40
 70
     1
102
RTVSPost2010Prop41ColorIndex
 90
       18
102
RTVSPost2010Prop41ColorRGB
 90
        0
102
RTVSPost2010PropOp41
 70
     1
102
RTVSPost2010Prop42
 90
       50
102
RTVSPost2010PropOp42
 70
     1
102
RTVSPost2010Prop43
 90
        3
102
RTVSPost2010PropOp43
 70
     1
102
RTVSPost2010Prop44ColorIndex
 90
        5
102
RTVSPost2010Prop44ColorRGB
 90
      255
102
RTVSPost2010PropOp44
 70
     1
102
RTVSPost2010Prop45
280
     0
102
RTVSPost2010PropOp45
 70
     1
102
RTVSPost2010Prop46
 90
       50
102
RTVSPost2010PropOp46
 70
     1
102
RTVSPost2010Prop47
 90
       50
102
RTVSPost2010PropOp47
 70
     1
102
RTVSPost2010Prop48
 90
       50
102
RTVSPost2010PropOp48
 70
     1
102
RTVSPost2010Prop49
280
     0
102
RTVSPost2010PropOp49
 70
     1
102
RTVSPost2010Prop50
 90
       50
102
RTVSPost2010PropOp50
 70
     1
102
RTVSPost2010Prop51ColorIndex
 90
      256
102
RTVSPost2010Prop51ColorRGB
 90
-16777216
102
RTVSPost2010PropOp51
 70
     0
102
RTVSPost2010Prop52
140
1.0
102
RTVSPost2010PropOp52
 70
     0
102
RTVSPost2010Prop53
 90
        2
102
RTVSPost2010PropOp53
 70
     1
102
RTVSPost2010Prop54
  1
strokes_ogs.tif
102
RTVSPost2010PropOp54
 70
     1
102
RTVSPost2010Prop55
280
     0
102
RTVSPost2010PropOp55
 70
     1
102
RTVSPost2010Prop56
140
1.0
102
RTVSPost2010PropOp56
 70
     1
102
RTVSPost2010Prop57
140
1.0
102
RTVSPost2010PropOp57
 70
     1
102
RTVSPropertyOp0
 70
     1
102
RTVSPropertyOp1
 70
     1
102
RTVSPropertyOp2
 70
     1
102
RTVSPropertyOp3
 70
     1
102
RTVSPropertyOp4
 70
     1
102
RTVSPropertyOp5
 70
     1
102
RTVSPropertyOp6
 70
     1
102
RTVSPropertyOp7
 70
     1
102
RTVSPropertyOp8
 70
     1
102
RTVSPropertyOp9
 70
     1
102
RTVSPropertyOp10
 70
     1
102
RTVSPropertyOp11
 70
     1
102
RTVSPropertyOp12
 70
     1
102
RTVSPropertyOp13
 70
     1
102
RTVSPropertyOp14
 70
     1
102
RTVSPropertyOp15
 70
     1
102
RTVSPropertyOp16
 70
     1
102
RTVSPropertyOp17
 70
     1
102
RTVSPropertyOp18
 70
     1
102
RTVSPropertyOp19
 70
     1
102
RTVSPropertyOp20
 70
     1
102
RTVSPropertyOp21
 70
     1
102
RTVSPropertyOp22
 70
     1
102
RTVSPropertyOp23
 70
     1
102
RTVSPropertyOp24
 70
     1
102
RTVSPropertyOp25
 70
     1
102
RTVSPropertyOp26
 70
     1
102
RTVSPropertyOp27
 70
     1
102
RTVSPropertyOp28
 70
     1
102
RTVSPropertyOp29
 70
     1
102
RTVSPropertyOp30
 70
     1
102
RTVSPropertyOp31
 70
     1
102
RTVSPropertyOp32
 70
     1
102
RTVSPropertyOp33
 70
     1
102
RTVSPropertyOp34
 70
     1
102
RTVSPropertyOp35
 70
     1
102
RTVSPropertyOp36
 70
     1
102
RTVSPropertyOp37
 70
     1
102
RTVSPropertyOp38
 70
     1
102
RTVSPropertyOp39
 70
     1
102
RTVSPropertyOp40
 70
     1
102
RTVSPropertyOp41
 70
     1
102
RTVSPropertyOp42
 70
     1
102
RTVSPropertyOp43
 70
     1
102
RTVSPropertyOp44
 70
     1
102
RTVSPropertyOp45
 70
     1
102
RTVSPropertyOp46
 70
     1
102
RTVSPropertyOp47
 70
     1
102
RTVSPropertyOp48
 70
     1
102
RTVSPropertyOp49
 70
     1
102
RTVSPropertyOp50
 70
     1
102
RTVSPropertyOp51
 70
     0
102
RTVSPropertyOp52
 70
     0
102
RTVSPropertyOp53
 70
     1
102
RTVSPropertyOp54
 70
     1
102
RTVSPropertyOp55
 70
     1
102
RTVSPropertyOp56
 70
     1
102
RTVSPropertyOp57
 70
     1
102
RTVSPropertyOp58
 70
     1
102
RTVSPropertyOp59
 70
     1
102
RTVSPropertyOp60
 70
     1
102
RTVSPropertyOp61
 70
     1
102
RTVSPropertyOp62
 70
     1
  0
XRECORD
  5
8897
102
{ACAD_REACTORS
330
8896
102
}
330
8896
100
AcDbXrecord
280
     1
102
RTVSPost2010Prop28
280
     0
102
RTVSPost2010PropOp28
 70
     1
102
RTVSPost2010Prop29
280
     1
102
RTVSPost2010PropOp29
 70
     1
102
RTVSPost2010Prop30
280
     1
102
RTVSPost2010PropOp30
 70
     1
102
RTVSPost2010Prop31
280
     0
102
RTVSPost2010PropOp31
 70
     1
102
RTVSPost2010Prop32
280
     0
102
RTVSPost2010PropOp32
 70
     1
102
RTVSPost2010Prop33
280
     0
102
RTVSPost2010PropOp33
 70
     1
102
RTVSPost2010Prop34
280
     0
102
RTVSPost2010PropOp34
 70
     1
102
RTVSPost2010Prop35
280
     0
102
RTVSPost2010PropOp35
 70
     1
102
RTVSPost2010Prop36
280
     0
102
RTVSPost2010PropOp36
 70
     1
102
RTVSPost2010Prop37
 90
       50
102
RTVSPost2010PropOp37
 70
     1
102
RTVSPost2010Prop38
140
0.0
102
RTVSPost2010PropOp38
 70
     1
102
RTVSPost2010Prop39
140
1.0
102
RTVSPost2010PropOp39
 70
     1
102
RTVSPost2010Prop40
 90
        0
102
RTVSPost2010PropOp40
 70
     1
102
RTVSPost2010Prop41ColorIndex
 90
       18
102
RTVSPost2010Prop41ColorRGB
 90
        0
102
RTVSPost2010PropOp41
 70
     1
102
RTVSPost2010Prop42
 90
       50
102
RTVSPost2010PropOp42
 70
     1
102
RTVSPost2010Prop43
 90
        3
102
RTVSPost2010PropOp43
 70
     1
102
RTVSPost2010Prop44ColorIndex
 90
        5
102
RTVSPost2010Prop44ColorRGB
 90
      255
102
RTVSPost2010PropOp44
 70
     1
102
RTVSPost2010Prop45
280
     0
102
RTVSPost2010PropOp45
 70
     1
102
RTVSPost2010Prop46
 90
       50
102
RTVSPost2010PropOp46
 70
     1
102
RTVSPost2010Prop47
 90
       50
102
RTVSPost2010PropOp47
 70
     1
102
RTVSPost2010Prop48
 90
       50
102
RTVSPost2010PropOp48
 70
     1
102
RTVSPost2010Prop49
280
     0
102
RTVSPost2010PropOp49
 70
     1
102
RTVSPost2010Prop50
 90
       50
102
RTVSPost2010PropOp50
 70
     1
102
RTVSPost2010Prop51ColorIndex
 90
      256
102
RTVSPost2010Prop51ColorRGB
 90
-16777216
102
RTVSPost2010PropOp51
 70
     0
102
RTVSPost2010Prop52
140
1.0
102
RTVSPost2010PropOp52
 70
     0
102
RTVSPost2010Prop53
 90
        2
102
RTVSPost2010PropOp53
 70
     1
102
RTVSPost2010Prop54
  1
strokes_ogs.tif
102
RTVSPost2010PropOp54
 70
     1
102
RTVSPost2010Prop55
280
     0
102
RTVSPost2010PropOp55
 70
     1
102
RTVSPost2010Prop56
140
1.0
102
RTVSPost2010PropOp56
 70
     1
102
RTVSPost2010Prop57
140
1.0
102
RTVSPost2010PropOp57
 70
     1
102
RTVSPropertyOp0
 70
     1
102
RTVSPropertyOp1
 70
     1
102
RTVSPropertyOp2
 70
     1
102
RTVSPropertyOp3
 70
     1
102
RTVSPropertyOp4
 70
     1
102
RTVSPropertyOp5
 70
     1
102
RTVSPropertyOp6
 70
     1
102
RTVSPropertyOp7
 70
     1
102
RTVSPropertyOp8
 70
     1
102
RTVSPropertyOp9
 70
     1
102
RTVSPropertyOp10
 70
     1
102
RTVSPropertyOp11
 70
     1
102
RTVSPropertyOp12
 70
     1
102
RTVSPropertyOp13
 70
     1
102
RTVSPropertyOp14
 70
     1
102
RTVSPropertyOp15
 70
     1
102
RTVSPropertyOp16
 70
     1
102
RTVSPropertyOp17
 70
     1
102
RTVSPropertyOp18
 70
     1
102
RTVSPropertyOp19
 70
     1
102
RTVSPropertyOp20
 70
     1
102
RTVSPropertyOp21
 70
     1
102
RTVSPropertyOp22
 70
     1
102
RTVSPropertyOp23
 70
     1
102
RTVSPropertyOp24
 70
     1
102
RTVSPropertyOp25
 70
     1
102
RTVSPropertyOp26
 70
     1
102
RTVSPropertyOp27
 70
     1
102
RTVSPropertyOp28
 70
     1
102
RTVSPropertyOp29
 70
     1
102
RTVSPropertyOp30
 70
     1
102
RTVSPropertyOp31
 70
     1
102
RTVSPropertyOp32
 70
     1
102
RTVSPropertyOp33
 70
     1
102
RTVSPropertyOp34
 70
     1
102
RTVSPropertyOp35
 70
     1
102
RTVSPropertyOp36
 70
     1
102
RTVSPropertyOp37
 70
     1
102
RTVSPropertyOp38
 70
     1
102
RTVSPropertyOp39
 70
     1
102
RTVSPropertyOp40
 70
     1
102
RTVSPropertyOp41
 70
     1
102
RTVSPropertyOp42
 70
     1
102
RTVSPropertyOp43
 70
     1
102
RTVSPropertyOp44
 70
     1
102
RTVSPropertyOp45
 70
     1
102
RTVSPropertyOp46
 70
     1
102
RTVSPropertyOp47
 70
     1
102
RTVSPropertyOp48
 70
     1
102
RTVSPropertyOp49
 70
     1
102
RTVSPropertyOp50
 70
     1
102
RTVSPropertyOp51
 70
     0
102
RTVSPropertyOp52
 70
     0
102
RTVSPropertyOp53
 70
     1
102
RTVSPropertyOp54
 70
     1
102
RTVSPropertyOp55
 70
     1
102
RTVSPropertyOp56
 70
     1
102
RTVSPropertyOp57
 70
     1
102
RTVSPropertyOp58
 70
     1
102
RTVSPropertyOp59
 70
     1
102
RTVSPropertyOp60
 70
     1
102
RTVSPropertyOp61
 70
     1
102
RTVSPropertyOp62
 70
     1
  0
XRECORD
  5
889B
102
{ACAD_REACTORS
330
889A
102
}
330
889A
100
AcDbXrecord
280
     1
102
RTVSPost2010Prop28
280
     0
102
RTVSPost2010PropOp28
 70
     1
102
RTVSPost2010Prop29
280
     1
102
RTVSPost2010PropOp29
 70
     1
102
RTVSPost2010Prop30
280
     1
102
RTVSPost2010PropOp30
 70
     1
102
RTVSPost2010Prop31
280
     0
102
RTVSPost2010PropOp31
 70
     1
102
RTVSPost2010Prop32
280
     0
102
RTVSPost2010PropOp32
 70
     1
102
RTVSPost2010Prop33
280
     0
102
RTVSPost2010PropOp33
 70
     1
102
RTVSPost2010Prop34
280
     0
102
RTVSPost2010PropOp34
 70
     1
102
RTVSPost2010Prop35
280
     0
102
RTVSPost2010PropOp35
 70
     1
102
RTVSPost2010Prop36
280
     0
102
RTVSPost2010PropOp36
 70
     1
102
RTVSPost2010Prop37
 90
       50
102
RTVSPost2010PropOp37
 70
     1
102
RTVSPost2010Prop38
140
0.0
102
RTVSPost2010PropOp38
 70
     1
102
RTVSPost2010Prop39
140
1.0
102
RTVSPost2010PropOp39
 70
     1
102
RTVSPost2010Prop40
 90
        0
102
RTVSPost2010PropOp40
 70
     1
102
RTVSPost2010Prop41ColorIndex
 90
       18
102
RTVSPost2010Prop41ColorRGB
 90
        0
102
RTVSPost2010PropOp41
 70
     1
102
RTVSPost2010Prop42
 90
       50
102
RTVSPost2010PropOp42
 70
     1
102
RTVSPost2010Prop43
 90
        3
102
RTVSPost2010PropOp43
 70
     1
102
RTVSPost2010Prop44ColorIndex
 90
        5
102
RTVSPost2010Prop44ColorRGB
 90
      255
102
RTVSPost2010PropOp44
 70
     1
102
RTVSPost2010Prop45
280
     0
102
RTVSPost2010PropOp45
 70
     1
102
RTVSPost2010Prop46
 90
       50
102
RTVSPost2010PropOp46
 70
     1
102
RTVSPost2010Prop47
 90
       50
102
RTVSPost2010PropOp47
 70
     1
102
RTVSPost2010Prop48
 90
       50
102
RTVSPost2010PropOp48
 70
     1
102
RTVSPost2010Prop49
280
     0
102
RTVSPost2010PropOp49
 70
     1
102
RTVSPost2010Prop50
 90
       50
102
RTVSPost2010PropOp50
 70
     1
102
RTVSPost2010Prop51ColorIndex
 90
      256
102
RTVSPost2010Prop51ColorRGB
 90
-16777216
102
RTVSPost2010PropOp51
 70
     0
102
RTVSPost2010Prop52
140
1.0
102
RTVSPost2010PropOp52
 70
     0
102
RTVSPost2010Prop53
 90
        2
102
RTVSPost2010PropOp53
 70
     1
102
RTVSPost2010Prop54
  1
strokes_ogs.tif
102
RTVSPost2010PropOp54
 70
     1
102
RTVSPost2010Prop55
280
     0
102
RTVSPost2010PropOp55
 70
     1
102
RTVSPost2010Prop56
140
1.0
102
RTVSPost2010PropOp56
 70
     1
102
RTVSPost2010Prop57
140
1.0
102
RTVSPost2010PropOp57
 70
     1
102
RTVSPropertyOp0
 70
     1
102
RTVSPropertyOp1
 70
     1
102
RTVSPropertyOp2
 70
     1
102
RTVSPropertyOp3
 70
     1
102
RTVSPropertyOp4
 70
     1
102
RTVSPropertyOp5
 70
     1
102
RTVSPropertyOp6
 70
     1
102
RTVSPropertyOp7
 70
     1
102
RTVSPropertyOp8
 70
     1
102
RTVSPropertyOp9
 70
     1
102
RTVSPropertyOp10
 70
     1
102
RTVSPropertyOp11
 70
     1
102
RTVSPropertyOp12
 70
     1
102
RTVSPropertyOp13
 70
     1
102
RTVSPropertyOp14
 70
     1
102
RTVSPropertyOp15
 70
     1
102
RTVSPropertyOp16
 70
     1
102
RTVSPropertyOp17
 70
     1
102
RTVSPropertyOp18
 70
     1
102
RTVSPropertyOp19
 70
     1
102
RTVSPropertyOp20
 70
     1
102
RTVSPropertyOp21
 70
     1
102
RTVSPropertyOp22
 70
     1
102
RTVSPropertyOp23
 70
     1
102
RTVSPropertyOp24
 70
     1
102
RTVSPropertyOp25
 70
     1
102
RTVSPropertyOp26
 70
     1
102
RTVSPropertyOp27
 70
     1
102
RTVSPropertyOp28
 70
     1
102
RTVSPropertyOp29
 70
     1
102
RTVSPropertyOp30
 70
     1
102
RTVSPropertyOp31
 70
     1
102
RTVSPropertyOp32
 70
     1
102
RTVSPropertyOp33
 70
     1
102
RTVSPropertyOp34
 70
     1
102
RTVSPropertyOp35
 70
     1
102
RTVSPropertyOp36
 70
     1
102
RTVSPropertyOp37
 70
     1
102
RTVSPropertyOp38
 70
     1
102
RTVSPropertyOp39
 70
     1
102
RTVSPropertyOp40
 70
     1
102
RTVSPropertyOp41
 70
     1
102
RTVSPropertyOp42
 70
     1
102
RTVSPropertyOp43
 70
     1
102
RTVSPropertyOp44
 70
     1
102
RTVSPropertyOp45
 70
     1
102
RTVSPropertyOp46
 70
     1
102
RTVSPropertyOp47
 70
     1
102
RTVSPropertyOp48
 70
     1
102
RTVSPropertyOp49
 70
     1
102
RTVSPropertyOp50
 70
     1
102
RTVSPropertyOp51
 70
     0
102
RTVSPropertyOp52
 70
     0
102
RTVSPropertyOp53
 70
     1
102
RTVSPropertyOp54
 70
     1
102
RTVSPropertyOp55
 70
     1
102
RTVSPropertyOp56
 70
     1
102
RTVSPropertyOp57
 70
     1
102
RTVSPropertyOp58
 70
     1
102
RTVSPropertyOp59
 70
     1
102
RTVSPropertyOp60
 70
     1
102
RTVSPropertyOp61
 70
     1
102
RTVSPropertyOp62
 70
     1
  0
XRECORD
  5
88B5
102
{ACAD_REACTORS
330
88B4
102
}
330
88B4
100
AcDbXrecord
280
     1
102
RTVSPost2010Prop28
280
     0
102
RTVSPost2010PropOp28
 70
     1
102
RTVSPost2010Prop29
280
     1
102
RTVSPost2010PropOp29
 70
     1
102
RTVSPost2010Prop30
280
     1
102
RTVSPost2010PropOp30
 70
     1
102
RTVSPost2010Prop31
280
     0
102
RTVSPost2010PropOp31
 70
     1
102
RTVSPost2010Prop32
280
     0
102
RTVSPost2010PropOp32
 70
     1
102
RTVSPost2010Prop33
280
     0
102
RTVSPost2010PropOp33
 70
     1
102
RTVSPost2010Prop34
280
     0
102
RTVSPost2010PropOp34
 70
     1
102
RTVSPost2010Prop35
280
     0
102
RTVSPost2010PropOp35
 70
     1
102
RTVSPost2010Prop36
280
     0
102
RTVSPost2010PropOp36
 70
     1
102
RTVSPost2010Prop37
 90
       50
102
RTVSPost2010PropOp37
 70
     0
102
RTVSPost2010Prop38
140
0.0
102
RTVSPost2010PropOp38
 70
     0
102
RTVSPost2010Prop39
140
1.0
102
RTVSPost2010PropOp39
 70
     0
102
RTVSPost2010Prop40
 90
        0
102
RTVSPost2010PropOp40
 70
     0
102
RTVSPost2010Prop41ColorIndex
 90
       18
102
RTVSPost2010Prop41ColorRGB
 90
        0
102
RTVSPost2010PropOp41
 70
     0
102
RTVSPost2010Prop42
 90
       50
102
RTVSPost2010PropOp42
 70
     0
102
RTVSPost2010Prop43
 90
        3
102
RTVSPost2010PropOp43
 70
     0
102
RTVSPost2010Prop44ColorIndex
 90
        5
102
RTVSPost2010Prop44ColorRGB
 90
      255
102
RTVSPost2010PropOp44
 70
     0
102
RTVSPost2010Prop45
280
     0
102
RTVSPost2010PropOp45
 70
     1
102
RTVSPost2010Prop46
 90
       50
102
RTVSPost2010PropOp46
 70
     0
102
RTVSPost2010Prop47
 90
       50
102
RTVSPost2010PropOp47
 70
     0
102
RTVSPost2010Prop48
 90
       50
102
RTVSPost2010PropOp48
 70
     0
102
RTVSPost2010Prop49
280
     0
102
RTVSPost2010PropOp49
 70
     1
102
RTVSPost2010Prop50
 90
       50
102
RTVSPost2010PropOp50
 70
     0
102
RTVSPost2010Prop51ColorIndex
 90
      256
102
RTVSPost2010Prop51ColorRGB
 90
-16777216
102
RTVSPost2010PropOp51
 70
     0
102
RTVSPost2010Prop52
140
1.0
102
RTVSPost2010PropOp52
 70
     0
102
RTVSPost2010Prop53
 90
        2
102
RTVSPost2010PropOp53
 70
     0
102
RTVSPost2010Prop54
  1
strokes_ogs.tif
102
RTVSPost2010PropOp54
 70
     0
102
RTVSPost2010Prop55
280
     0
102
RTVSPost2010PropOp55
 70
     1
102
RTVSPost2010Prop56
140
1.0
102
RTVSPost2010PropOp56
 70
     0
102
RTVSPost2010Prop57
140
1.0
102
RTVSPost2010PropOp57
 70
     0
102
RTVSPropertyOp0
 70
     0
102
RTVSPropertyOp1
 70
     0
102
RTVSPropertyOp2
 70
     0
102
RTVSPropertyOp3
 70
     0
102
RTVSPropertyOp4
 70
     0
102
RTVSPropertyOp5
 70
     0
102
RTVSPropertyOp6
 70
     0
102
RTVSPropertyOp7
 70
     0
102
RTVSPropertyOp8
 70
     0
102
RTVSPropertyOp9
 70
     0
102
RTVSPropertyOp10
 70
     0
102
RTVSPropertyOp11
 70
     0
102
RTVSPropertyOp12
 70
     0
102
RTVSPropertyOp13
 70
     0
102
RTVSPropertyOp14
 70
     2
102
RTVSPropertyOp15
 70
     0
102
RTVSPropertyOp16
 70
     0
102
RTVSPropertyOp17
 70
     0
102
RTVSPropertyOp18
 70
     0
102
RTVSPropertyOp19
 70
     0
102
RTVSPropertyOp20
 70
     0
102
RTVSPropertyOp21
 70
     0
102
RTVSPropertyOp22
 70
     0
102
RTVSPropertyOp23
 70
     0
102
RTVSPropertyOp24
 70
     0
102
RTVSPropertyOp25
 70
     0
102
RTVSPropertyOp26
 70
     0
102
RTVSPropertyOp27
 70
     0
102
RTVSPropertyOp28
 70
     1
102
RTVSPropertyOp29
 70
     1
102
RTVSPropertyOp30
 70
     1
102
RTVSPropertyOp31
 70
     1
102
RTVSPropertyOp32
 70
     1
102
RTVSPropertyOp33
 70
     1
102
RTVSPropertyOp34
 70
     1
102
RTVSPropertyOp35
 70
     1
102
RTVSPropertyOp36
 70
     1
102
RTVSPropertyOp37
 70
     0
102
RTVSPropertyOp38
 70
     0
102
RTVSPropertyOp39
 70
     0
102
RTVSPropertyOp40
 70
     0
102
RTVSPropertyOp41
 70
     0
102
RTVSPropertyOp42
 70
     0
102
RTVSPropertyOp43
 70
     0
102
RTVSPropertyOp44
 70
     0
102
RTVSPropertyOp45
 70
     1
102
RTVSPropertyOp46
 70
     0
102
RTVSPropertyOp47
 70
     0
102
RTVSPropertyOp48
 70
     0
102
RTVSPropertyOp49
 70
     1
102
RTVSPropertyOp50
 70
     0
102
RTVSPropertyOp51
 70
     0
102
RTVSPropertyOp52
 70
     0
102
RTVSPropertyOp53
 70
     0
102
RTVSPropertyOp54
 70
     0
102
RTVSPropertyOp55
 70
     1
102
RTVSPropertyOp56
 70
     0
102
RTVSPropertyOp57
 70
     0
102
RTVSPropertyOp58
 70
     0
102
RTVSPropertyOp59
 70
     0
102
RTVSPropertyOp60
 70
     0
102
RTVSPropertyOp61
 70
     0
102
RTVSPropertyOp62
 70
     0
  0
XRECORD
  5
88A3
102
{ACAD_REACTORS
330
88A2
102
}
330
88A2
100
AcDbXrecord
280
     1
102
RTVSPost2010Prop28
280
     0
102
RTVSPost2010PropOp28
 70
     1
102
RTVSPost2010Prop29
280
     1
102
RTVSPost2010PropOp29
 70
     1
102
RTVSPost2010Prop30
280
     1
102
RTVSPost2010PropOp30
 70
     1
102
RTVSPost2010Prop31
280
     0
102
RTVSPost2010PropOp31
 70
     1
102
RTVSPost2010Prop32
280
     0
102
RTVSPost2010PropOp32
 70
     1
102
RTVSPost2010Prop33
280
     0
102
RTVSPost2010PropOp33
 70
     1
102
RTVSPost2010Prop34
280
     0
102
RTVSPost2010PropOp34
 70
     1
102
RTVSPost2010Prop35
280
     0
102
RTVSPost2010PropOp35
 70
     1
102
RTVSPost2010Prop36
280
     0
102
RTVSPost2010PropOp36
 70
     1
102
RTVSPost2010Prop37
 90
       50
102
RTVSPost2010PropOp37
 70
     1
102
RTVSPost2010Prop38
140
0.0
102
RTVSPost2010PropOp38
 70
     1
102
RTVSPost2010Prop39
140
1.0
102
RTVSPost2010PropOp39
 70
     1
102
RTVSPost2010Prop40
 90
        0
102
RTVSPost2010PropOp40
 70
     1
102
RTVSPost2010Prop41ColorIndex
 90
       18
102
RTVSPost2010Prop41ColorRGB
 90
        0
102
RTVSPost2010PropOp41
 70
     1
102
RTVSPost2010Prop42
 90
       50
102
RTVSPost2010PropOp42
 70
     1
102
RTVSPost2010Prop43
 90
        3
102
RTVSPost2010PropOp43
 70
     1
102
RTVSPost2010Prop44ColorIndex
 90
        5
102
RTVSPost2010Prop44ColorRGB
 90
      255
102
RTVSPost2010PropOp44
 70
     1
102
RTVSPost2010Prop45
280
     0
102
RTVSPost2010PropOp45
 70
     1
102
RTVSPost2010Prop46
 90
       50
102
RTVSPost2010PropOp46
 70
     1
102
RTVSPost2010Prop47
 90
       50
102
RTVSPost2010PropOp47
 70
     1
102
RTVSPost2010Prop48
 90
       50
102
RTVSPost2010PropOp48
 70
     1
102
RTVSPost2010Prop49
280
     0
102
RTVSPost2010PropOp49
 70
     1
102
RTVSPost2010Prop50
 90
       50
102
RTVSPost2010PropOp50
 70
     1
102
RTVSPost2010Prop51ColorIndex
 90
      256
102
RTVSPost2010Prop51ColorRGB
 90
-16777216
102
RTVSPost2010PropOp51
 70
     0
102
RTVSPost2010Prop52
140
1.0
102
RTVSPost2010PropOp52
 70
     0
102
RTVSPost2010Prop53
 90
        2
102
RTVSPost2010PropOp53
 70
     1
102
RTVSPost2010Prop54
  1
strokes_ogs.tif
102
RTVSPost2010PropOp54
 70
     1
102
RTVSPost2010Prop55
280
     0
102
RTVSPost2010PropOp55
 70
     1
102
RTVSPost2010Prop56
140
1.0
102
RTVSPost2010PropOp56
 70
     1
102
RTVSPost2010Prop57
140
1.0
102
RTVSPost2010PropOp57
 70
     1
102
RTVSPropertyOp0
 70
     1
102
RTVSPropertyOp1
 70
     1
102
RTVSPropertyOp2
 70
     1
102
RTVSPropertyOp3
 70
     1
102
RTVSPropertyOp4
 70
     1
102
RTVSPropertyOp5
 70
     1
102
RTVSPropertyOp6
 70
     1
102
RTVSPropertyOp7
 70
     1
102
RTVSPropertyOp8
 70
     1
102
RTVSPropertyOp9
 70
     1
102
RTVSPropertyOp10
 70
     1
102
RTVSPropertyOp11
 70
     1
102
RTVSPropertyOp12
 70
     1
102
RTVSPropertyOp13
 70
     1
102
RTVSPropertyOp14
 70
     1
102
RTVSPropertyOp15
 70
     1
102
RTVSPropertyOp16
 70
     1
102
RTVSPropertyOp17
 70
     1
102
RTVSPropertyOp18
 70
     1
102
RTVSPropertyOp19
 70
     1
102
RTVSPropertyOp20
 70
     1
102
RTVSPropertyOp21
 70
     1
102
RTVSPropertyOp22
 70
     1
102
RTVSPropertyOp23
 70
     1
102
RTVSPropertyOp24
 70
     1
102
RTVSPropertyOp25
 70
     1
102
RTVSPropertyOp26
 70
     1
102
RTVSPropertyOp27
 70
     1
102
RTVSPropertyOp28
 70
     1
102
RTVSPropertyOp29
 70
     1
102
RTVSPropertyOp30
 70
     1
102
RTVSPropertyOp31
 70
     1
102
RTVSPropertyOp32
 70
     1
102
RTVSPropertyOp33
 70
     1
102
RTVSPropertyOp34
 70
     1
102
RTVSPropertyOp35
 70
     1
102
RTVSPropertyOp36
 70
     1
102
RTVSPropertyOp37
 70
     1
102
RTVSPropertyOp38
 70
     1
102
RTVSPropertyOp39
 70
     1
102
RTVSPropertyOp40
 70
     1
102
RTVSPropertyOp41
 70
     1
102
RTVSPropertyOp42
 70
     1
102
RTVSPropertyOp43
 70
     1
102
RTVSPropertyOp44
 70
     1
102
RTVSPropertyOp45
 70
     1
102
RTVSPropertyOp46
 70
     1
102
RTVSPropertyOp47
 70
     1
102
RTVSPropertyOp48
 70
     1
102
RTVSPropertyOp49
 70
     1
102
RTVSPropertyOp50
 70
     1
102
RTVSPropertyOp51
 70
     0
102
RTVSPropertyOp52
 70
     0
102
RTVSPropertyOp53
 70
     1
102
RTVSPropertyOp54
 70
     1
102
RTVSPropertyOp55
 70
     1
102
RTVSPropertyOp56
 70
     1
102
RTVSPropertyOp57
 70
     1
102
RTVSPropertyOp58
 70
     1
102
RTVSPropertyOp59
 70
     1
102
RTVSPropertyOp60
 70
     1
102
RTVSPropertyOp61
 70
     1
102
RTVSPropertyOp62
 70
     1
  0
XRECORD
  5
8887
102
{ACAD_REACTORS
330
8886
102
}
330
8886
100
AcDbXrecord
280
     1
102
RTVSPost2010Prop28
280
     0
102
RTVSPost2010PropOp28
 70
     1
102
RTVSPost2010Prop29
280
     1
102
RTVSPost2010PropOp29
 70
     1
102
RTVSPost2010Prop30
280
     1
102
RTVSPost2010PropOp30
 70
     1
102
RTVSPost2010Prop31
280
     0
102
RTVSPost2010PropOp31
 70
     1
102
RTVSPost2010Prop32
280
     0
102
RTVSPost2010PropOp32
 70
     1
102
RTVSPost2010Prop33
280
     0
102
RTVSPost2010PropOp33
 70
     1
102
RTVSPost2010Prop34
280
     0
102
RTVSPost2010PropOp34
 70
     1
102
RTVSPost2010Prop35
280
     0
102
RTVSPost2010PropOp35
 70
     1
102
RTVSPost2010Prop36
280
     0
102
RTVSPost2010PropOp36
 70
     1
102
RTVSPost2010Prop37
 90
       50
102
RTVSPost2010PropOp37
 70
     1
102
RTVSPost2010Prop38
140
0.0
102
RTVSPost2010PropOp38
 70
     1
102
RTVSPost2010Prop39
140
1.0
102
RTVSPost2010PropOp39
 70
     1
102
RTVSPost2010Prop40
 90
        0
102
RTVSPost2010PropOp40
 70
     1
102
RTVSPost2010Prop41ColorIndex
 90
       18
102
RTVSPost2010Prop41ColorRGB
 90
        0
102
RTVSPost2010PropOp41
 70
     1
102
RTVSPost2010Prop42
 90
       50
102
RTVSPost2010PropOp42
 70
     1
102
RTVSPost2010Prop43
 90
        3
102
RTVSPost2010PropOp43
 70
     1
102
RTVSPost2010Prop44ColorIndex
 90
        5
102
RTVSPost2010Prop44ColorRGB
 90
      255
102
RTVSPost2010PropOp44
 70
     1
102
RTVSPost2010Prop45
280
     0
102
RTVSPost2010PropOp45
 70
     1
102
RTVSPost2010Prop46
 90
       50
102
RTVSPost2010PropOp46
 70
     1
102
RTVSPost2010Prop47
 90
       50
102
RTVSPost2010PropOp47
 70
     1
102
RTVSPost2010Prop48
 90
       50
102
RTVSPost2010PropOp48
 70
     1
102
RTVSPost2010Prop49
280
     0
102
RTVSPost2010PropOp49
 70
     1
102
RTVSPost2010Prop50
 90
       50
102
RTVSPost2010PropOp50
 70
     1
102
RTVSPost2010Prop51ColorIndex
 90
      256
102
RTVSPost2010Prop51ColorRGB
 90
-16777216
102
RTVSPost2010PropOp51
 70
     0
102
RTVSPost2010Prop52
140
1.0
102
RTVSPost2010PropOp52
 70
     0
102
RTVSPost2010Prop53
 90
        2
102
RTVSPost2010PropOp53
 70
     1
102
RTVSPost2010Prop54
  1
strokes_ogs.tif
102
RTVSPost2010PropOp54
 70
     1
102
RTVSPost2010Prop55
280
     0
102
RTVSPost2010PropOp55
 70
     1
102
RTVSPost2010Prop56
140
1.0
102
RTVSPost2010PropOp56
 70
     1
102
RTVSPost2010Prop57
140
1.0
102
RTVSPost2010PropOp57
 70
     1
102
RTVSPropertyOp0
 70
     1
102
RTVSPropertyOp1
 70
     1
102
RTVSPropertyOp2
 70
     1
102
RTVSPropertyOp3
 70
     1
102
RTVSPropertyOp4
 70
     1
102
RTVSPropertyOp5
 70
     1
102
RTVSPropertyOp6
 70
     1
102
RTVSPropertyOp7
 70
     1
102
RTVSPropertyOp8
 70
     1
102
RTVSPropertyOp9
 70
     1
102
RTVSPropertyOp10
 70
     1
102
RTVSPropertyOp11
 70
     1
102
RTVSPropertyOp12
 70
     1
102
RTVSPropertyOp13
 70
     1
102
RTVSPropertyOp14
 70
     1
102
RTVSPropertyOp15
 70
     1
102
RTVSPropertyOp16
 70
     1
102
RTVSPropertyOp17
 70
     1
102
RTVSPropertyOp18
 70
     1
102
RTVSPropertyOp19
 70
     1
102
RTVSPropertyOp20
 70
     1
102
RTVSPropertyOp21
 70
     1
102
RTVSPropertyOp22
 70
     1
102
RTVSPropertyOp23
 70
     1
102
RTVSPropertyOp24
 70
     1
102
RTVSPropertyOp25
 70
     1
102
RTVSPropertyOp26
 70
     1
102
RTVSPropertyOp27
 70
     1
102
RTVSPropertyOp28
 70
     1
102
RTVSPropertyOp29
 70
     1
102
RTVSPropertyOp30
 70
     1
102
RTVSPropertyOp31
 70
     1
102
RTVSPropertyOp32
 70
     1
102
RTVSPropertyOp33
 70
     1
102
RTVSPropertyOp34
 70
     1
102
RTVSPropertyOp35
 70
     1
102
RTVSPropertyOp36
 70
     1
102
RTVSPropertyOp37
 70
     1
102
RTVSPropertyOp38
 70
     1
102
RTVSPropertyOp39
 70
     1
102
RTVSPropertyOp40
 70
     1
102
RTVSPropertyOp41
 70
     1
102
RTVSPropertyOp42
 70
     1
102
RTVSPropertyOp43
 70
     1
102
RTVSPropertyOp44
 70
     1
102
RTVSPropertyOp45
 70
     1
102
RTVSPropertyOp46
 70
     1
102
RTVSPropertyOp47
 70
     1
102
RTVSPropertyOp48
 70
     1
102
RTVSPropertyOp49
 70
     1
102
RTVSPropertyOp50
 70
     1
102
RTVSPropertyOp51
 70
     0
102
RTVSPropertyOp52
 70
     0
102
RTVSPropertyOp53
 70
     1
102
RTVSPropertyOp54
 70
     1
102
RTVSPropertyOp55
 70
     1
102
RTVSPropertyOp56
 70
     1
102
RTVSPropertyOp57
 70
     1
102
RTVSPropertyOp58
 70
     1
102
RTVSPropertyOp59
 70
     1
102
RTVSPropertyOp60
 70
     1
102
RTVSPropertyOp61
 70
     1
102
RTVSPropertyOp62
 70
     1
  0
XRECORD
  5
8889
102
{ACAD_REACTORS
330
8888
102
}
330
8888
100
AcDbXrecord
280
     1
102
RTVSPost2010Prop28
280
     0
102
RTVSPost2010PropOp28
 70
     1
102
RTVSPost2010Prop29
280
     1
102
RTVSPost2010PropOp29
 70
     1
102
RTVSPost2010Prop30
280
     1
102
RTVSPost2010PropOp30
 70
     1
102
RTVSPost2010Prop31
280
     0
102
RTVSPost2010PropOp31
 70
     1
102
RTVSPost2010Prop32
280
     0
102
RTVSPost2010PropOp32
 70
     1
102
RTVSPost2010Prop33
280
     0
102
RTVSPost2010PropOp33
 70
     1
102
RTVSPost2010Prop34
280
     0
102
RTVSPost2010PropOp34
 70
     1
102
RTVSPost2010Prop35
280
     0
102
RTVSPost2010PropOp35
 70
     1
102
RTVSPost2010Prop36
280
     0
102
RTVSPost2010PropOp36
 70
     1
102
RTVSPost2010Prop37
 90
       50
102
RTVSPost2010PropOp37
 70
     1
102
RTVSPost2010Prop38
140
0.0
102
RTVSPost2010PropOp38
 70
     1
102
RTVSPost2010Prop39
140
1.0
102
RTVSPost2010PropOp39
 70
     1
102
RTVSPost2010Prop40
 90
        0
102
RTVSPost2010PropOp40
 70
     1
102
RTVSPost2010Prop41ColorIndex
 90
       18
102
RTVSPost2010Prop41ColorRGB
 90
        0
102
RTVSPost2010PropOp41
 70
     1
102
RTVSPost2010Prop42
 90
       50
102
RTVSPost2010PropOp42
 70
     1
102
RTVSPost2010Prop43
 90
        3
102
RTVSPost2010PropOp43
 70
     1
102
RTVSPost2010Prop44ColorIndex
 90
        5
102
RTVSPost2010Prop44ColorRGB
 90
      255
102
RTVSPost2010PropOp44
 70
     1
102
RTVSPost2010Prop45
280
     0
102
RTVSPost2010PropOp45
 70
     1
102
RTVSPost2010Prop46
 90
       50
102
RTVSPost2010PropOp46
 70
     1
102
RTVSPost2010Prop47
 90
       50
102
RTVSPost2010PropOp47
 70
     1
102
RTVSPost2010Prop48
 90
       50
102
RTVSPost2010PropOp48
 70
     1
102
RTVSPost2010Prop49
280
     0
102
RTVSPost2010PropOp49
 70
     1
102
RTVSPost2010Prop50
 90
       50
102
RTVSPost2010PropOp50
 70
     1
102
RTVSPost2010Prop51ColorIndex
 90
      256
102
RTVSPost2010Prop51ColorRGB
 90
-16777216
102
RTVSPost2010PropOp51
 70
     0
102
RTVSPost2010Prop52
140
1.0
102
RTVSPost2010PropOp52
 70
     0
102
RTVSPost2010Prop53
 90
        2
102
RTVSPost2010PropOp53
 70
     1
102
RTVSPost2010Prop54
  1
strokes_ogs.tif
102
RTVSPost2010PropOp54
 70
     1
102
RTVSPost2010Prop55
280
     0
102
RTVSPost2010PropOp55
 70
     1
102
RTVSPost2010Prop56
140
1.0
102
RTVSPost2010PropOp56
 70
     1
102
RTVSPost2010Prop57
140
1.0
102
RTVSPost2010PropOp57
 70
     1
102
RTVSPropertyOp0
 70
     1
102
RTVSPropertyOp1
 70
     1
102
RTVSPropertyOp2
 70
     1
102
RTVSPropertyOp3
 70
     1
102
RTVSPropertyOp4
 70
     1
102
RTVSPropertyOp5
 70
     1
102
RTVSPropertyOp6
 70
     1
102
RTVSPropertyOp7
 70
     1
102
RTVSPropertyOp8
 70
     1
102
RTVSPropertyOp9
 70
     1
102
RTVSPropertyOp10
 70
     1
102
RTVSPropertyOp11
 70
     1
102
RTVSPropertyOp12
 70
     1
102
RTVSPropertyOp13
 70
     1
102
RTVSPropertyOp14
 70
     1
102
RTVSPropertyOp15
 70
     1
102
RTVSPropertyOp16
 70
     1
102
RTVSPropertyOp17
 70
     1
102
RTVSPropertyOp18
 70
     1
102
RTVSPropertyOp19
 70
     1
102
RTVSPropertyOp20
 70
     1
102
RTVSPropertyOp21
 70
     1
102
RTVSPropertyOp22
 70
     1
102
RTVSPropertyOp23
 70
     1
102
RTVSPropertyOp24
 70
     1
102
RTVSPropertyOp25
 70
     1
102
RTVSPropertyOp26
 70
     1
102
RTVSPropertyOp27
 70
     1
102
RTVSPropertyOp28
 70
     1
102
RTVSPropertyOp29
 70
     1
102
RTVSPropertyOp30
 70
     1
102
RTVSPropertyOp31
 70
     1
102
RTVSPropertyOp32
 70
     1
102
RTVSPropertyOp33
 70
     1
102
RTVSPropertyOp34
 70
     1
102
RTVSPropertyOp35
 70
     1
102
RTVSPropertyOp36
 70
     1
102
RTVSPropertyOp37
 70
     1
102
RTVSPropertyOp38
 70
     1
102
RTVSPropertyOp39
 70
     1
102
RTVSPropertyOp40
 70
     1
102
RTVSPropertyOp41
 70
     1
102
RTVSPropertyOp42
 70
     1
102
RTVSPropertyOp43
 70
     1
102
RTVSPropertyOp44
 70
     1
102
RTVSPropertyOp45
 70
     1
102
RTVSPropertyOp46
 70
     1
102
RTVSPropertyOp47
 70
     1
102
RTVSPropertyOp48
 70
     1
102
RTVSPropertyOp49
 70
     1
102
RTVSPropertyOp50
 70
     1
102
RTVSPropertyOp51
 70
     0
102
RTVSPropertyOp52
 70
     0
102
RTVSPropertyOp53
 70
     1
102
RTVSPropertyOp54
 70
     1
102
RTVSPropertyOp55
 70
     1
102
RTVSPropertyOp56
 70
     1
102
RTVSPropertyOp57
 70
     1
102
RTVSPropertyOp58
 70
     1
102
RTVSPropertyOp59
 70
     1
102
RTVSPropertyOp60
 70
     1
102
RTVSPropertyOp61
 70
     1
102
RTVSPropertyOp62
 70
     1
  0
XRECORD
  5
888B
102
{ACAD_REACTORS
330
888A
102
}
330
888A
100
AcDbXrecord
280
     1
102
RTVSPost2010Prop28
280
     0
102
RTVSPost2010PropOp28
 70
     1
102
RTVSPost2010Prop29
280
     1
102
RTVSPost2010PropOp29
 70
     1
102
RTVSPost2010Prop30
280
     1
102
RTVSPost2010PropOp30
 70
     1
102
RTVSPost2010Prop31
280
     0
102
RTVSPost2010PropOp31
 70
     1
102
RTVSPost2010Prop32
280
     0
102
RTVSPost2010PropOp32
 70
     1
102
RTVSPost2010Prop33
280
     0
102
RTVSPost2010PropOp33
 70
     1
102
RTVSPost2010Prop34
280
     0
102
RTVSPost2010PropOp34
 70
     1
102
RTVSPost2010Prop35
280
     0
102
RTVSPost2010PropOp35
 70
     1
102
RTVSPost2010Prop36
280
     0
102
RTVSPost2010PropOp36
 70
     1
102
RTVSPost2010Prop37
 90
       50
102
RTVSPost2010PropOp37
 70
     1
102
RTVSPost2010Prop38
140
0.0
102
RTVSPost2010PropOp38
 70
     1
102
RTVSPost2010Prop39
140
1.0
102
RTVSPost2010PropOp39
 70
     1
102
RTVSPost2010Prop40
 90
        0
102
RTVSPost2010PropOp40
 70
     1
102
RTVSPost2010Prop41ColorIndex
 90
       18
102
RTVSPost2010Prop41ColorRGB
 90
        0
102
RTVSPost2010PropOp41
 70
     1
102
RTVSPost2010Prop42
 90
       50
102
RTVSPost2010PropOp42
 70
     1
102
RTVSPost2010Prop43
 90
        3
102
RTVSPost2010PropOp43
 70
     1
102
RTVSPost2010Prop44ColorIndex
 90
        5
102
RTVSPost2010Prop44ColorRGB
 90
      255
102
RTVSPost2010PropOp44
 70
     1
102
RTVSPost2010Prop45
280
     0
102
RTVSPost2010PropOp45
 70
     1
102
RTVSPost2010Prop46
 90
       50
102
RTVSPost2010PropOp46
 70
     1
102
RTVSPost2010Prop47
 90
       50
102
RTVSPost2010PropOp47
 70
     1
102
RTVSPost2010Prop48
 90
       50
102
RTVSPost2010PropOp48
 70
     1
102
RTVSPost2010Prop49
280
     0
102
RTVSPost2010PropOp49
 70
     1
102
RTVSPost2010Prop50
 90
       50
102
RTVSPost2010PropOp50
 70
     1
102
RTVSPost2010Prop51ColorIndex
 90
      256
102
RTVSPost2010Prop51ColorRGB
 90
-16777216
102
RTVSPost2010PropOp51
 70
     0
102
RTVSPost2010Prop52
140
1.0
102
RTVSPost2010PropOp52
 70
     0
102
RTVSPost2010Prop53
 90
        2
102
RTVSPost2010PropOp53
 70
     1
102
RTVSPost2010Prop54
  1
strokes_ogs.tif
102
RTVSPost2010PropOp54
 70
     1
102
RTVSPost2010Prop55
280
     0
102
RTVSPost2010PropOp55
 70
     1
102
RTVSPost2010Prop56
140
1.0
102
RTVSPost2010PropOp56
 70
     1
102
RTVSPost2010Prop57
140
1.0
102
RTVSPost2010PropOp57
 70
     1
102
RTVSPropertyOp0
 70
     1
102
RTVSPropertyOp1
 70
     1
102
RTVSPropertyOp2
 70
     1
102
RTVSPropertyOp3
 70
     1
102
RTVSPropertyOp4
 70
     1
102
RTVSPropertyOp5
 70
     1
102
RTVSPropertyOp6
 70
     1
102
RTVSPropertyOp7
 70
     1
102
RTVSPropertyOp8
 70
     1
102
RTVSPropertyOp9
 70
     1
102
RTVSPropertyOp10
 70
     1
102
RTVSPropertyOp11
 70
     1
102
RTVSPropertyOp12
 70
     1
102
RTVSPropertyOp13
 70
     1
102
RTVSPropertyOp14
 70
     1
102
RTVSPropertyOp15
 70
     1
102
RTVSPropertyOp16
 70
     1
102
RTVSPropertyOp17
 70
     1
102
RTVSPropertyOp18
 70
     1
102
RTVSPropertyOp19
 70
     1
102
RTVSPropertyOp20
 70
     1
102
RTVSPropertyOp21
 70
     1
102
RTVSPropertyOp22
 70
     1
102
RTVSPropertyOp23
 70
     1
102
RTVSPropertyOp24
 70
     1
102
RTVSPropertyOp25
 70
     1
102
RTVSPropertyOp26
 70
     1
102
RTVSPropertyOp27
 70
     1
102
RTVSPropertyOp28
 70
     1
102
RTVSPropertyOp29
 70
     1
102
RTVSPropertyOp30
 70
     1
102
RTVSPropertyOp31
 70
     1
102
RTVSPropertyOp32
 70
     1
102
RTVSPropertyOp33
 70
     1
102
RTVSPropertyOp34
 70
     1
102
RTVSPropertyOp35
 70
     1
102
RTVSPropertyOp36
 70
     1
102
RTVSPropertyOp37
 70
     1
102
RTVSPropertyOp38
 70
     1
102
RTVSPropertyOp39
 70
     1
102
RTVSPropertyOp40
 70
     1
102
RTVSPropertyOp41
 70
     1
102
RTVSPropertyOp42
 70
     1
102
RTVSPropertyOp43
 70
     1
102
RTVSPropertyOp44
 70
     1
102
RTVSPropertyOp45
 70
     1
102
RTVSPropertyOp46
 70
     1
102
RTVSPropertyOp47
 70
     1
102
RTVSPropertyOp48
 70
     1
102
RTVSPropertyOp49
 70
     1
102
RTVSPropertyOp50
 70
     1
102
RTVSPropertyOp51
 70
     0
102
RTVSPropertyOp52
 70
     0
102
RTVSPropertyOp53
 70
     1
102
RTVSPropertyOp54
 70
     1
102
RTVSPropertyOp55
 70
     1
102
RTVSPropertyOp56
 70
     1
102
RTVSPropertyOp57
 70
     1
102
RTVSPropertyOp58
 70
     1
102
RTVSPropertyOp59
 70
     1
102
RTVSPropertyOp60
 70
     1
102
RTVSPropertyOp61
 70
     1
102
RTVSPropertyOp62
 70
     1
  0
XRECORD
  5
888D
102
{ACAD_REACTORS
330
888C
102
}
330
888C
100
AcDbXrecord
280
     1
102
RTVSPost2010Prop28
280
     0
102
RTVSPost2010PropOp28
 70
     1
102
RTVSPost2010Prop29
280
     1
102
RTVSPost2010PropOp29
 70
     1
102
RTVSPost2010Prop30
280
     1
102
RTVSPost2010PropOp30
 70
     1
102
RTVSPost2010Prop31
280
     0
102
RTVSPost2010PropOp31
 70
     1
102
RTVSPost2010Prop32
280
     0
102
RTVSPost2010PropOp32
 70
     1
102
RTVSPost2010Prop33
280
     0
102
RTVSPost2010PropOp33
 70
     1
102
RTVSPost2010Prop34
280
     0
102
RTVSPost2010PropOp34
 70
     1
102
RTVSPost2010Prop35
280
     0
102
RTVSPost2010PropOp35
 70
     1
102
RTVSPost2010Prop36
280
     0
102
RTVSPost2010PropOp36
 70
     1
102
RTVSPost2010Prop37
 90
       50
102
RTVSPost2010PropOp37
 70
     1
102
RTVSPost2010Prop38
140
0.0
102
RTVSPost2010PropOp38
 70
     1
102
RTVSPost2010Prop39
140
1.0
102
RTVSPost2010PropOp39
 70
     1
102
RTVSPost2010Prop40
 90
        0
102
RTVSPost2010PropOp40
 70
     1
102
RTVSPost2010Prop41ColorIndex
 90
       18
102
RTVSPost2010Prop41ColorRGB
 90
        0
102
RTVSPost2010PropOp41
 70
     1
102
RTVSPost2010Prop42
 90
       50
102
RTVSPost2010PropOp42
 70
     1
102
RTVSPost2010Prop43
 90
        3
102
RTVSPost2010PropOp43
 70
     1
102
RTVSPost2010Prop44ColorIndex
 90
        5
102
RTVSPost2010Prop44ColorRGB
 90
      255
102
RTVSPost2010PropOp44
 70
     1
102
RTVSPost2010Prop45
280
     0
102
RTVSPost2010PropOp45
 70
     1
102
RTVSPost2010Prop46
 90
       50
102
RTVSPost2010PropOp46
 70
     1
102
RTVSPost2010Prop47
 90
       50
102
RTVSPost2010PropOp47
 70
     1
102
RTVSPost2010Prop48
 90
       50
102
RTVSPost2010PropOp48
 70
     1
102
RTVSPost2010Prop49
280
     0
102
RTVSPost2010PropOp49
 70
     1
102
RTVSPost2010Prop50
 90
       50
102
RTVSPost2010PropOp50
 70
     1
102
RTVSPost2010Prop51ColorIndex
 90
      256
102
RTVSPost2010Prop51ColorRGB
 90
-16777216
102
RTVSPost2010PropOp51
 70
     0
102
RTVSPost2010Prop52
140
1.0
102
RTVSPost2010PropOp52
 70
     0
102
RTVSPost2010Prop53
 90
        2
102
RTVSPost2010PropOp53
 70
     1
102
RTVSPost2010Prop54
  1
strokes_ogs.tif
102
RTVSPost2010PropOp54
 70
     1
102
RTVSPost2010Prop55
280
     0
102
RTVSPost2010PropOp55
 70
     1
102
RTVSPost2010Prop56
140
1.0
102
RTVSPost2010PropOp56
 70
     1
102
RTVSPost2010Prop57
140
1.0
102
RTVSPost2010PropOp57
 70
     1
102
RTVSPropertyOp0
 70
     1
102
RTVSPropertyOp1
 70
     1
102
RTVSPropertyOp2
 70
     1
102
RTVSPropertyOp3
 70
     1
102
RTVSPropertyOp4
 70
     1
102
RTVSPropertyOp5
 70
     1
102
RTVSPropertyOp6
 70
     1
102
RTVSPropertyOp7
 70
     1
102
RTVSPropertyOp8
 70
     1
102
RTVSPropertyOp9
 70
     1
102
RTVSPropertyOp10
 70
     1
102
RTVSPropertyOp11
 70
     1
102
RTVSPropertyOp12
 70
     1
102
RTVSPropertyOp13
 70
     1
102
RTVSPropertyOp14
 70
     1
102
RTVSPropertyOp15
 70
     1
102
RTVSPropertyOp16
 70
     1
102
RTVSPropertyOp17
 70
     1
102
RTVSPropertyOp18
 70
     1
102
RTVSPropertyOp19
 70
     1
102
RTVSPropertyOp20
 70
     1
102
RTVSPropertyOp21
 70
     1
102
RTVSPropertyOp22
 70
     1
102
RTVSPropertyOp23
 70
     1
102
RTVSPropertyOp24
 70
     1
102
RTVSPropertyOp25
 70
     1
102
RTVSPropertyOp26
 70
     1
102
RTVSPropertyOp27
 70
     1
102
RTVSPropertyOp28
 70
     1
102
RTVSPropertyOp29
 70
     1
102
RTVSPropertyOp30
 70
     1
102
RTVSPropertyOp31
 70
     1
102
RTVSPropertyOp32
 70
     1
102
RTVSPropertyOp33
 70
     1
102
RTVSPropertyOp34
 70
     1
102
RTVSPropertyOp35
 70
     1
102
RTVSPropertyOp36
 70
     1
102
RTVSPropertyOp37
 70
     1
102
RTVSPropertyOp38
 70
     1
102
RTVSPropertyOp39
 70
     1
102
RTVSPropertyOp40
 70
     1
102
RTVSPropertyOp41
 70
     1
102
RTVSPropertyOp42
 70
     1
102
RTVSPropertyOp43
 70
     1
102
RTVSPropertyOp44
 70
     1
102
RTVSPropertyOp45
 70
     1
102
RTVSPropertyOp46
 70
     1
102
RTVSPropertyOp47
 70
     1
102
RTVSPropertyOp48
 70
     1
102
RTVSPropertyOp49
 70
     1
102
RTVSPropertyOp50
 70
     1
102
RTVSPropertyOp51
 70
     0
102
RTVSPropertyOp52
 70
     0
102
RTVSPropertyOp53
 70
     1
102
RTVSPropertyOp54
 70
     1
102
RTVSPropertyOp55
 70
     1
102
RTVSPropertyOp56
 70
     1
102
RTVSPropertyOp57
 70
     1
102
RTVSPropertyOp58
 70
     1
102
RTVSPropertyOp59
 70
     1
102
RTVSPropertyOp60
 70
     1
102
RTVSPropertyOp61
 70
     1
102
RTVSPropertyOp62
 70
     1
  0
XRECORD
  5
8895
102
{ACAD_REACTORS
330
8894
102
}
330
8894
100
AcDbXrecord
280
     1
102
RTVSPost2010Prop28
280
     0
102
RTVSPost2010PropOp28
 70
     1
102
RTVSPost2010Prop29
280
     1
102
RTVSPost2010PropOp29
 70
     1
102
RTVSPost2010Prop30
280
     1
102
RTVSPost2010PropOp30
 70
     1
102
RTVSPost2010Prop31
280
     0
102
RTVSPost2010PropOp31
 70
     1
102
RTVSPost2010Prop32
280
     0
102
RTVSPost2010PropOp32
 70
     1
102
RTVSPost2010Prop33
280
     0
102
RTVSPost2010PropOp33
 70
     1
102
RTVSPost2010Prop34
280
     0
102
RTVSPost2010PropOp34
 70
     1
102
RTVSPost2010Prop35
280
     0
102
RTVSPost2010PropOp35
 70
     1
102
RTVSPost2010Prop36
280
     0
102
RTVSPost2010PropOp36
 70
     1
102
RTVSPost2010Prop37
 90
       50
102
RTVSPost2010PropOp37
 70
     1
102
RTVSPost2010Prop38
140
0.0
102
RTVSPost2010PropOp38
 70
     1
102
RTVSPost2010Prop39
140
1.0
102
RTVSPost2010PropOp39
 70
     1
102
RTVSPost2010Prop40
 90
        0
102
RTVSPost2010PropOp40
 70
     1
102
RTVSPost2010Prop41ColorIndex
 90
       18
102
RTVSPost2010Prop41ColorRGB
 90
        0
102
RTVSPost2010PropOp41
 70
     1
102
RTVSPost2010Prop42
 90
       50
102
RTVSPost2010PropOp42
 70
     1
102
RTVSPost2010Prop43
 90
        3
102
RTVSPost2010PropOp43
 70
     1
102
RTVSPost2010Prop44ColorIndex
 90
        5
102
RTVSPost2010Prop44ColorRGB
 90
      255
102
RTVSPost2010PropOp44
 70
     1
102
RTVSPost2010Prop45
280
     0
102
RTVSPost2010PropOp45
 70
     1
102
RTVSPost2010Prop46
 90
       50
102
RTVSPost2010PropOp46
 70
     1
102
RTVSPost2010Prop47
 90
       50
102
RTVSPost2010PropOp47
 70
     1
102
RTVSPost2010Prop48
 90
       50
102
RTVSPost2010PropOp48
 70
     1
102
RTVSPost2010Prop49
280
     0
102
RTVSPost2010PropOp49
 70
     1
102
RTVSPost2010Prop50
 90
       50
102
RTVSPost2010PropOp50
 70
     1
102
RTVSPost2010Prop51ColorIndex
 90
      256
102
RTVSPost2010Prop51ColorRGB
 90
-16777216
102
RTVSPost2010PropOp51
 70
     0
102
RTVSPost2010Prop52
140
1.0
102
RTVSPost2010PropOp52
 70
     0
102
RTVSPost2010Prop53
 90
        2
102
RTVSPost2010PropOp53
 70
     1
102
RTVSPost2010Prop54
  1
strokes_ogs.tif
102
RTVSPost2010PropOp54
 70
     1
102
RTVSPost2010Prop55
280
     0
102
RTVSPost2010PropOp55
 70
     1
102
RTVSPost2010Prop56
140
1.0
102
RTVSPost2010PropOp56
 70
     1
102
RTVSPost2010Prop57
140
1.0
102
RTVSPost2010PropOp57
 70
     1
102
RTVSPropertyOp0
 70
     1
102
RTVSPropertyOp1
 70
     1
102
RTVSPropertyOp2
 70
     1
102
RTVSPropertyOp3
 70
     1
102
RTVSPropertyOp4
 70
     1
102
RTVSPropertyOp5
 70
     1
102
RTVSPropertyOp6
 70
     1
102
RTVSPropertyOp7
 70
     1
102
RTVSPropertyOp8
 70
     1
102
RTVSPropertyOp9
 70
     1
102
RTVSPropertyOp10
 70
     1
102
RTVSPropertyOp11
 70
     1
102
RTVSPropertyOp12
 70
     1
102
RTVSPropertyOp13
 70
     1
102
RTVSPropertyOp14
 70
     1
102
RTVSPropertyOp15
 70
     1
102
RTVSPropertyOp16
 70
     1
102
RTVSPropertyOp17
 70
     1
102
RTVSPropertyOp18
 70
     1
102
RTVSPropertyOp19
 70
     1
102
RTVSPropertyOp20
 70
     1
102
RTVSPropertyOp21
 70
     1
102
RTVSPropertyOp22
 70
     1
102
RTVSPropertyOp23
 70
     1
102
RTVSPropertyOp24
 70
     1
102
RTVSPropertyOp25
 70
     1
102
RTVSPropertyOp26
 70
     1
102
RTVSPropertyOp27
 70
     1
102
RTVSPropertyOp28
 70
     1
102
RTVSPropertyOp29
 70
     1
102
RTVSPropertyOp30
 70
     1
102
RTVSPropertyOp31
 70
     1
102
RTVSPropertyOp32
 70
     1
102
RTVSPropertyOp33
 70
     1
102
RTVSPropertyOp34
 70
     1
102
RTVSPropertyOp35
 70
     1
102
RTVSPropertyOp36
 70
     1
102
RTVSPropertyOp37
 70
     1
102
RTVSPropertyOp38
 70
     1
102
RTVSPropertyOp39
 70
     1
102
RTVSPropertyOp40
 70
     1
102
RTVSPropertyOp41
 70
     1
102
RTVSPropertyOp42
 70
     1
102
RTVSPropertyOp43
 70
     1
102
RTVSPropertyOp44
 70
     1
102
RTVSPropertyOp45
 70
     1
102
RTVSPropertyOp46
 70
     1
102
RTVSPropertyOp47
 70
     1
102
RTVSPropertyOp48
 70
     1
102
RTVSPropertyOp49
 70
     1
102
RTVSPropertyOp50
 70
     1
102
RTVSPropertyOp51
 70
     0
102
RTVSPropertyOp52
 70
     0
102
RTVSPropertyOp53
 70
     1
102
RTVSPropertyOp54
 70
     1
102
RTVSPropertyOp55
 70
     1
102
RTVSPropertyOp56
 70
     1
102
RTVSPropertyOp57
 70
     1
102
RTVSPropertyOp58
 70
     1
102
RTVSPropertyOp59
 70
     1
102
RTVSPropertyOp60
 70
     1
102
RTVSPropertyOp61
 70
     1
102
RTVSPropertyOp62
 70
     1
  0
XRECORD
  5
88B1
102
{ACAD_REACTORS
330
88B0
102
}
330
88B0
100
AcDbXrecord
280
     1
102
RTVSPost2010Prop28
280
     0
102
RTVSPost2010PropOp28
 70
     1
102
RTVSPost2010Prop29
280
     1
102
RTVSPost2010PropOp29
 70
     1
102
RTVSPost2010Prop30
280
     1
102
RTVSPost2010PropOp30
 70
     1
102
RTVSPost2010Prop31
280
     0
102
RTVSPost2010PropOp31
 70
     1
102
RTVSPost2010Prop32
280
     0
102
RTVSPost2010PropOp32
 70
     1
102
RTVSPost2010Prop33
280
     0
102
RTVSPost2010PropOp33
 70
     1
102
RTVSPost2010Prop34
280
     0
102
RTVSPost2010PropOp34
 70
     1
102
RTVSPost2010Prop35
280
     0
102
RTVSPost2010PropOp35
 70
     1
102
RTVSPost2010Prop36
280
     0
102
RTVSPost2010PropOp36
 70
     1
102
RTVSPost2010Prop37
 90
       50
102
RTVSPost2010PropOp37
 70
     0
102
RTVSPost2010Prop38
140
0.0
102
RTVSPost2010PropOp38
 70
     0
102
RTVSPost2010Prop39
140
1.0
102
RTVSPost2010PropOp39
 70
     0
102
RTVSPost2010Prop40
 90
        0
102
RTVSPost2010PropOp40
 70
     0
102
RTVSPost2010Prop41ColorIndex
 90
       18
102
RTVSPost2010Prop41ColorRGB
 90
        0
102
RTVSPost2010PropOp41
 70
     0
102
RTVSPost2010Prop42
 90
       50
102
RTVSPost2010PropOp42
 70
     0
102
RTVSPost2010Prop43
 90
        3
102
RTVSPost2010PropOp43
 70
     0
102
RTVSPost2010Prop44ColorIndex
 90
        5
102
RTVSPost2010Prop44ColorRGB
 90
      255
102
RTVSPost2010PropOp44
 70
     0
102
RTVSPost2010Prop45
280
     0
102
RTVSPost2010PropOp45
 70
     1
102
RTVSPost2010Prop46
 90
       50
102
RTVSPost2010PropOp46
 70
     0
102
RTVSPost2010Prop47
 90
       50
102
RTVSPost2010PropOp47
 70
     0
102
RTVSPost2010Prop48
 90
       50
102
RTVSPost2010PropOp48
 70
     0
102
RTVSPost2010Prop49
280
     0
102
RTVSPost2010PropOp49
 70
     1
102
RTVSPost2010Prop50
 90
       50
102
RTVSPost2010PropOp50
 70
     0
102
RTVSPost2010Prop51ColorIndex
 90
      256
102
RTVSPost2010Prop51ColorRGB
 90
-16777216
102
RTVSPost2010PropOp51
 70
     0
102
RTVSPost2010Prop52
140
1.0
102
RTVSPost2010PropOp52
 70
     0
102
RTVSPost2010Prop53
 90
        2
102
RTVSPost2010PropOp53
 70
     0
102
RTVSPost2010Prop54
  1
strokes_ogs.tif
102
RTVSPost2010PropOp54
 70
     0
102
RTVSPost2010Prop55
280
     0
102
RTVSPost2010PropOp55
 70
     1
102
RTVSPost2010Prop56
140
1.0
102
RTVSPost2010PropOp56
 70
     0
102
RTVSPost2010Prop57
140
1.0
102
RTVSPost2010PropOp57
 70
     0
102
RTVSPropertyOp0
 70
     0
102
RTVSPropertyOp1
 70
     0
102
RTVSPropertyOp2
 70
     0
102
RTVSPropertyOp3
 70
     0
102
RTVSPropertyOp4
 70
     0
102
RTVSPropertyOp5
 70
     0
102
RTVSPropertyOp6
 70
     0
102
RTVSPropertyOp7
 70
     0
102
RTVSPropertyOp8
 70
     0
102
RTVSPropertyOp9
 70
     0
102
RTVSPropertyOp10
 70
     0
102
RTVSPropertyOp11
 70
     0
102
RTVSPropertyOp12
 70
     0
102
RTVSPropertyOp13
 70
     0
102
RTVSPropertyOp14
 70
     2
102
RTVSPropertyOp15
 70
     0
102
RTVSPropertyOp16
 70
     0
102
RTVSPropertyOp17
 70
     0
102
RTVSPropertyOp18
 70
     0
102
RTVSPropertyOp19
 70
     0
102
RTVSPropertyOp20
 70
     0
102
RTVSPropertyOp21
 70
     0
102
RTVSPropertyOp22
 70
     0
102
RTVSPropertyOp23
 70
     0
102
RTVSPropertyOp24
 70
     0
102
RTVSPropertyOp25
 70
     0
102
RTVSPropertyOp26
 70
     0
102
RTVSPropertyOp27
 70
     0
102
RTVSPropertyOp28
 70
     1
102
RTVSPropertyOp29
 70
     1
102
RTVSPropertyOp30
 70
     1
102
RTVSPropertyOp31
 70
     1
102
RTVSPropertyOp32
 70
     1
102
RTVSPropertyOp33
 70
     1
102
RTVSPropertyOp34
 70
     1
102
RTVSPropertyOp35
 70
     1
102
RTVSPropertyOp36
 70
     1
102
RTVSPropertyOp37
 70
     0
102
RTVSPropertyOp38
 70
     0
102
RTVSPropertyOp39
 70
     0
102
RTVSPropertyOp40
 70
     0
102
RTVSPropertyOp41
 70
     0
102
RTVSPropertyOp42
 70
     0
102
RTVSPropertyOp43
 70
     0
102
RTVSPropertyOp44
 70
     0
102
RTVSPropertyOp45
 70
     1
102
RTVSPropertyOp46
 70
     0
102
RTVSPropertyOp47
 70
     0
102
RTVSPropertyOp48
 70
     0
102
RTVSPropertyOp49
 70
     1
102
RTVSPropertyOp50
 70
     0
102
RTVSPropertyOp51
 70
     0
102
RTVSPropertyOp52
 70
     0
102
RTVSPropertyOp53
 70
     0
102
RTVSPropertyOp54
 70
     0
102
RTVSPropertyOp55
 70
     1
102
RTVSPropertyOp56
 70
     0
102
RTVSPropertyOp57
 70
     0
102
RTVSPropertyOp58
 70
     0
102
RTVSPropertyOp59
 70
     0
102
RTVSPropertyOp60
 70
     0
102
RTVSPropertyOp61
 70
     0
102
RTVSPropertyOp62
 70
     0
  0
XRECORD
  5
88A1
102
{ACAD_REACTORS
330
88A0
102
}
330
88A0
100
AcDbXrecord
280
     1
102
RTVSPost2010Prop28
280
     0
102
RTVSPost2010PropOp28
 70
     1
102
RTVSPost2010Prop29
280
     1
102
RTVSPost2010PropOp29
 70
     1
102
RTVSPost2010Prop30
280
     1
102
RTVSPost2010PropOp30
 70
     1
102
RTVSPost2010Prop31
280
     0
102
RTVSPost2010PropOp31
 70
     1
102
RTVSPost2010Prop32
280
     0
102
RTVSPost2010PropOp32
 70
     1
102
RTVSPost2010Prop33
280
     0
102
RTVSPost2010PropOp33
 70
     1
102
RTVSPost2010Prop34
280
     0
102
RTVSPost2010PropOp34
 70
     1
102
RTVSPost2010Prop35
280
     0
102
RTVSPost2010PropOp35
 70
     1
102
RTVSPost2010Prop36
280
     0
102
RTVSPost2010PropOp36
 70
     1
102
RTVSPost2010Prop37
 90
       50
102
RTVSPost2010PropOp37
 70
     1
102
RTVSPost2010Prop38
140
0.0
102
RTVSPost2010PropOp38
 70
     1
102
RTVSPost2010Prop39
140
1.0
102
RTVSPost2010PropOp39
 70
     1
102
RTVSPost2010Prop40
 90
        0
102
RTVSPost2010PropOp40
 70
     1
102
RTVSPost2010Prop41ColorIndex
 90
       18
102
RTVSPost2010Prop41ColorRGB
 90
        0
102
RTVSPost2010PropOp41
 70
     1
102
RTVSPost2010Prop42
 90
       50
102
RTVSPost2010PropOp42
 70
     1
102
RTVSPost2010Prop43
 90
        3
102
RTVSPost2010PropOp43
 70
     1
102
RTVSPost2010Prop44ColorIndex
 90
        5
102
RTVSPost2010Prop44ColorRGB
 90
      255
102
RTVSPost2010PropOp44
 70
     1
102
RTVSPost2010Prop45
280
     0
102
RTVSPost2010PropOp45
 70
     1
102
RTVSPost2010Prop46
 90
       50
102
RTVSPost2010PropOp46
 70
     1
102
RTVSPost2010Prop47
 90
       50
102
RTVSPost2010PropOp47
 70
     1
102
RTVSPost2010Prop48
 90
       50
102
RTVSPost2010PropOp48
 70
     1
102
RTVSPost2010Prop49
280
     0
102
RTVSPost2010PropOp49
 70
     1
102
RTVSPost2010Prop50
 90
       50
102
RTVSPost2010PropOp50
 70
     1
102
RTVSPost2010Prop51ColorIndex
 90
      256
102
RTVSPost2010Prop51ColorRGB
 90
-16777216
102
RTVSPost2010PropOp51
 70
     0
102
RTVSPost2010Prop52
140
1.0
102
RTVSPost2010PropOp52
 70
     0
102
RTVSPost2010Prop53
 90
        2
102
RTVSPost2010PropOp53
 70
     1
102
RTVSPost2010Prop54
  1
strokes_ogs.tif
102
RTVSPost2010PropOp54
 70
     1
102
RTVSPost2010Prop55
280
     0
102
RTVSPost2010PropOp55
 70
     1
102
RTVSPost2010Prop56
140
1.0
102
RTVSPost2010PropOp56
 70
     1
102
RTVSPost2010Prop57
140
1.0
102
RTVSPost2010PropOp57
 70
     1
102
RTVSPropertyOp0
 70
     1
102
RTVSPropertyOp1
 70
     1
102
RTVSPropertyOp2
 70
     1
102
RTVSPropertyOp3
 70
     1
102
RTVSPropertyOp4
 70
     1
102
RTVSPropertyOp5
 70
     1
102
RTVSPropertyOp6
 70
     1
102
RTVSPropertyOp7
 70
     1
102
RTVSPropertyOp8
 70
     1
102
RTVSPropertyOp9
 70
     1
102
RTVSPropertyOp10
 70
     1
102
RTVSPropertyOp11
 70
     1
102
RTVSPropertyOp12
 70
     1
102
RTVSPropertyOp13
 70
     1
102
RTVSPropertyOp14
 70
     1
102
RTVSPropertyOp15
 70
     1
102
RTVSPropertyOp16
 70
     1
102
RTVSPropertyOp17
 70
     1
102
RTVSPropertyOp18
 70
     1
102
RTVSPropertyOp19
 70
     1
102
RTVSPropertyOp20
 70
     1
102
RTVSPropertyOp21
 70
     1
102
RTVSPropertyOp22
 70
     1
102
RTVSPropertyOp23
 70
     1
102
RTVSPropertyOp24
 70
     1
102
RTVSPropertyOp25
 70
     1
102
RTVSPropertyOp26
 70
     1
102
RTVSPropertyOp27
 70
     1
102
RTVSPropertyOp28
 70
     1
102
RTVSPropertyOp29
 70
     1
102
RTVSPropertyOp30
 70
     1
102
RTVSPropertyOp31
 70
     1
102
RTVSPropertyOp32
 70
     1
102
RTVSPropertyOp33
 70
     1
102
RTVSPropertyOp34
 70
     1
102
RTVSPropertyOp35
 70
     1
102
RTVSPropertyOp36
 70
     1
102
RTVSPropertyOp37
 70
     1
102
RTVSPropertyOp38
 70
     1
102
RTVSPropertyOp39
 70
     1
102
RTVSPropertyOp40
 70
     1
102
RTVSPropertyOp41
 70
     1
102
RTVSPropertyOp42
 70
     1
102
RTVSPropertyOp43
 70
     1
102
RTVSPropertyOp44
 70
     1
102
RTVSPropertyOp45
 70
     1
102
RTVSPropertyOp46
 70
     1
102
RTVSPropertyOp47
 70
     1
102
RTVSPropertyOp48
 70
     1
102
RTVSPropertyOp49
 70
     1
102
RTVSPropertyOp50
 70
     1
102
RTVSPropertyOp51
 70
     0
102
RTVSPropertyOp52
 70
     0
102
RTVSPropertyOp53
 70
     1
102
RTVSPropertyOp54
 70
     1
102
RTVSPropertyOp55
 70
     1
102
RTVSPropertyOp56
 70
     1
102
RTVSPropertyOp57
 70
     1
102
RTVSPropertyOp58
 70
     1
102
RTVSPropertyOp59
 70
     1
102
RTVSPropertyOp60
 70
     1
102
RTVSPropertyOp61
 70
     1
102
RTVSPropertyOp62
 70
     1
  0
XRECORD
  5
88B3
102
{ACAD_REACTORS
330
88B2
102
}
330
88B2
100
AcDbXrecord
280
     1
102
RTVSPost2010Prop28
280
     0
102
RTVSPost2010PropOp28
 70
     1
102
RTVSPost2010Prop29
280
     1
102
RTVSPost2010PropOp29
 70
     1
102
RTVSPost2010Prop30
280
     1
102
RTVSPost2010PropOp30
 70
     1
102
RTVSPost2010Prop31
280
     0
102
RTVSPost2010PropOp31
 70
     1
102
RTVSPost2010Prop32
280
     0
102
RTVSPost2010PropOp32
 70
     1
102
RTVSPost2010Prop33
280
     0
102
RTVSPost2010PropOp33
 70
     1
102
RTVSPost2010Prop34
280
     0
102
RTVSPost2010PropOp34
 70
     1
102
RTVSPost2010Prop35
280
     0
102
RTVSPost2010PropOp35
 70
     1
102
RTVSPost2010Prop36
280
     0
102
RTVSPost2010PropOp36
 70
     1
102
RTVSPost2010Prop37
 90
       50
102
RTVSPost2010PropOp37
 70
     0
102
RTVSPost2010Prop38
140
0.0
102
RTVSPost2010PropOp38
 70
     0
102
RTVSPost2010Prop39
140
1.0
102
RTVSPost2010PropOp39
 70
     0
102
RTVSPost2010Prop40
 90
        0
102
RTVSPost2010PropOp40
 70
     0
102
RTVSPost2010Prop41ColorIndex
 90
       18
102
RTVSPost2010Prop41ColorRGB
 90
        0
102
RTVSPost2010PropOp41
 70
     0
102
RTVSPost2010Prop42
 90
       50
102
RTVSPost2010PropOp42
 70
     0
102
RTVSPost2010Prop43
 90
        3
102
RTVSPost2010PropOp43
 70
     0
102
RTVSPost2010Prop44ColorIndex
 90
        5
102
RTVSPost2010Prop44ColorRGB
 90
      255
102
RTVSPost2010PropOp44
 70
     0
102
RTVSPost2010Prop45
280
     0
102
RTVSPost2010PropOp45
 70
     1
102
RTVSPost2010Prop46
 90
       50
102
RTVSPost2010PropOp46
 70
     0
102
RTVSPost2010Prop47
 90
       50
102
RTVSPost2010PropOp47
 70
     0
102
RTVSPost2010Prop48
 90
       50
102
RTVSPost2010PropOp48
 70
     0
102
RTVSPost2010Prop49
280
     0
102
RTVSPost2010PropOp49
 70
     1
102
RTVSPost2010Prop50
 90
       50
102
RTVSPost2010PropOp50
 70
     0
102
RTVSPost2010Prop51ColorIndex
 90
      256
102
RTVSPost2010Prop51ColorRGB
 90
-16777216
102
RTVSPost2010PropOp51
 70
     0
102
RTVSPost2010Prop52
140
1.0
102
RTVSPost2010PropOp52
 70
     0
102
RTVSPost2010Prop53
 90
        2
102
RTVSPost2010PropOp53
 70
     0
102
RTVSPost2010Prop54
  1
strokes_ogs.tif
102
RTVSPost2010PropOp54
 70
     0
102
RTVSPost2010Prop55
280
     0
102
RTVSPost2010PropOp55
 70
     1
102
RTVSPost2010Prop56
140
1.0
102
RTVSPost2010PropOp56
 70
     0
102
RTVSPost2010Prop57
140
1.0
102
RTVSPost2010PropOp57
 70
     0
102
RTVSPropertyOp0
 70
     0
102
RTVSPropertyOp1
 70
     0
102
RTVSPropertyOp2
 70
     0
102
RTVSPropertyOp3
 70
     0
102
RTVSPropertyOp4
 70
     0
102
RTVSPropertyOp5
 70
     0
102
RTVSPropertyOp6
 70
     0
102
RTVSPropertyOp7
 70
     0
102
RTVSPropertyOp8
 70
     0
102
RTVSPropertyOp9
 70
     0
102
RTVSPropertyOp10
 70
     0
102
RTVSPropertyOp11
 70
     0
102
RTVSPropertyOp12
 70
     0
102
RTVSPropertyOp13
 70
     0
102
RTVSPropertyOp14
 70
     2
102
RTVSPropertyOp15
 70
     0
102
RTVSPropertyOp16
 70
     0
102
RTVSPropertyOp17
 70
     0
102
RTVSPropertyOp18
 70
     0
102
RTVSPropertyOp19
 70
     0
102
RTVSPropertyOp20
 70
     0
102
RTVSPropertyOp21
 70
     0
102
RTVSPropertyOp22
 70
     0
102
RTVSPropertyOp23
 70
     0
102
RTVSPropertyOp24
 70
     0
102
RTVSPropertyOp25
 70
     0
102
RTVSPropertyOp26
 70
     0
102
RTVSPropertyOp27
 70
     0
102
RTVSPropertyOp28
 70
     1
102
RTVSPropertyOp29
 70
     1
102
RTVSPropertyOp30
 70
     1
102
RTVSPropertyOp31
 70
     1
102
RTVSPropertyOp32
 70
     1
102
RTVSPropertyOp33
 70
     1
102
RTVSPropertyOp34
 70
     1
102
RTVSPropertyOp35
 70
     1
102
RTVSPropertyOp36
 70
     1
102
RTVSPropertyOp37
 70
     0
102
RTVSPropertyOp38
 70
     0
102
RTVSPropertyOp39
 70
     0
102
RTVSPropertyOp40
 70
     0
102
RTVSPropertyOp41
 70
     0
102
RTVSPropertyOp42
 70
     0
102
RTVSPropertyOp43
 70
     0
102
RTVSPropertyOp44
 70
     0
102
RTVSPropertyOp45
 70
     1
102
RTVSPropertyOp46
 70
     0
102
RTVSPropertyOp47
 70
     0
102
RTVSPropertyOp48
 70
     0
102
RTVSPropertyOp49
 70
     1
102
RTVSPropertyOp50
 70
     0
102
RTVSPropertyOp51
 70
     0
102
RTVSPropertyOp52
 70
     0
102
RTVSPropertyOp53
 70
     0
102
RTVSPropertyOp54
 70
     0
102
RTVSPropertyOp55
 70
     1
102
RTVSPropertyOp56
 70
     0
102
RTVSPropertyOp57
 70
     0
102
RTVSPropertyOp58
 70
     0
102
RTVSPropertyOp59
 70
     0
102
RTVSPropertyOp60
 70
     0
102
RTVSPropertyOp61
 70
     0
102
RTVSPropertyOp62
 70
     0
  0
XRECORD
  5
8899
102
{ACAD_REACTORS
330
8898
102
}
330
8898
100
AcDbXrecord
280
     1
102
RTVSPost2010Prop28
280
     0
102
RTVSPost2010PropOp28
 70
     1
102
RTVSPost2010Prop29
280
     1
102
RTVSPost2010PropOp29
 70
     1
102
RTVSPost2010Prop30
280
     1
102
RTVSPost2010PropOp30
 70
     1
102
RTVSPost2010Prop31
280
     0
102
RTVSPost2010PropOp31
 70
     1
102
RTVSPost2010Prop32
280
     0
102
RTVSPost2010PropOp32
 70
     1
102
RTVSPost2010Prop33
280
     0
102
RTVSPost2010PropOp33
 70
     1
102
RTVSPost2010Prop34
280
     0
102
RTVSPost2010PropOp34
 70
     1
102
RTVSPost2010Prop35
280
     0
102
RTVSPost2010PropOp35
 70
     1
102
RTVSPost2010Prop36
280
     0
102
RTVSPost2010PropOp36
 70
     1
102
RTVSPost2010Prop37
 90
       50
102
RTVSPost2010PropOp37
 70
     1
102
RTVSPost2010Prop38
140
0.0
102
RTVSPost2010PropOp38
 70
     1
102
RTVSPost2010Prop39
140
1.0
102
RTVSPost2010PropOp39
 70
     1
102
RTVSPost2010Prop40
 90
        0
102
RTVSPost2010PropOp40
 70
     1
102
RTVSPost2010Prop41ColorIndex
 90
       18
102
RTVSPost2010Prop41ColorRGB
 90
        0
102
RTVSPost2010PropOp41
 70
     1
102
RTVSPost2010Prop42
 90
       50
102
RTVSPost2010PropOp42
 70
     1
102
RTVSPost2010Prop43
 90
        3
102
RTVSPost2010PropOp43
 70
     1
102
RTVSPost2010Prop44ColorIndex
 90
        5
102
RTVSPost2010Prop44ColorRGB
 90
      255
102
RTVSPost2010PropOp44
 70
     1
102
RTVSPost2010Prop45
280
     0
102
RTVSPost2010PropOp45
 70
     1
102
RTVSPost2010Prop46
 90
       50
102
RTVSPost2010PropOp46
 70
     1
102
RTVSPost2010Prop47
 90
       50
102
RTVSPost2010PropOp47
 70
     1
102
RTVSPost2010Prop48
 90
       50
102
RTVSPost2010PropOp48
 70
     1
102
RTVSPost2010Prop49
280
     0
102
RTVSPost2010PropOp49
 70
     1
102
RTVSPost2010Prop50
 90
       50
102
RTVSPost2010PropOp50
 70
     1
102
RTVSPost2010Prop51ColorIndex
 90
      256
102
RTVSPost2010Prop51ColorRGB
 90
-16777216
102
RTVSPost2010PropOp51
 70
     0
102
RTVSPost2010Prop52
140
1.0
102
RTVSPost2010PropOp52
 70
     0
102
RTVSPost2010Prop53
 90
        2
102
RTVSPost2010PropOp53
 70
     1
102
RTVSPost2010Prop54
  1
strokes_ogs.tif
102
RTVSPost2010PropOp54
 70
     1
102
RTVSPost2010Prop55
280
     0
102
RTVSPost2010PropOp55
 70
     1
102
RTVSPost2010Prop56
140
1.0
102
RTVSPost2010PropOp56
 70
     1
102
RTVSPost2010Prop57
140
1.0
102
RTVSPost2010PropOp57
 70
     1
102
RTVSPropertyOp0
 70
     1
102
RTVSPropertyOp1
 70
     1
102
RTVSPropertyOp2
 70
     1
102
RTVSPropertyOp3
 70
     1
102
RTVSPropertyOp4
 70
     1
102
RTVSPropertyOp5
 70
     1
102
RTVSPropertyOp6
 70
     1
102
RTVSPropertyOp7
 70
     1
102
RTVSPropertyOp8
 70
     1
102
RTVSPropertyOp9
 70
     1
102
RTVSPropertyOp10
 70
     1
102
RTVSPropertyOp11
 70
     1
102
RTVSPropertyOp12
 70
     1
102
RTVSPropertyOp13
 70
     1
102
RTVSPropertyOp14
 70
     1
102
RTVSPropertyOp15
 70
     1
102
RTVSPropertyOp16
 70
     1
102
RTVSPropertyOp17
 70
     1
102
RTVSPropertyOp18
 70
     1
102
RTVSPropertyOp19
 70
     1
102
RTVSPropertyOp20
 70
     1
102
RTVSPropertyOp21
 70
     1
102
RTVSPropertyOp22
 70
     1
102
RTVSPropertyOp23
 70
     1
102
RTVSPropertyOp24
 70
     1
102
RTVSPropertyOp25
 70
     1
102
RTVSPropertyOp26
 70
     1
102
RTVSPropertyOp27
 70
     1
102
RTVSPropertyOp28
 70
     1
102
RTVSPropertyOp29
 70
     1
102
RTVSPropertyOp30
 70
     1
102
RTVSPropertyOp31
 70
     1
102
RTVSPropertyOp32
 70
     1
102
RTVSPropertyOp33
 70
     1
102
RTVSPropertyOp34
 70
     1
102
RTVSPropertyOp35
 70
     1
102
RTVSPropertyOp36
 70
     1
102
RTVSPropertyOp37
 70
     1
102
RTVSPropertyOp38
 70
     1
102
RTVSPropertyOp39
 70
     1
102
RTVSPropertyOp40
 70
     1
102
RTVSPropertyOp41
 70
     1
102
RTVSPropertyOp42
 70
     1
102
RTVSPropertyOp43
 70
     1
102
RTVSPropertyOp44
 70
     1
102
RTVSPropertyOp45
 70
     1
102
RTVSPropertyOp46
 70
     1
102
RTVSPropertyOp47
 70
     1
102
RTVSPropertyOp48
 70
     1
102
RTVSPropertyOp49
 70
     1
102
RTVSPropertyOp50
 70
     1
102
RTVSPropertyOp51
 70
     0
102
RTVSPropertyOp52
 70
     0
102
RTVSPropertyOp53
 70
     1
102
RTVSPropertyOp54
 70
     1
102
RTVSPropertyOp55
 70
     1
102
RTVSPropertyOp56
 70
     1
102
RTVSPropertyOp57
 70
     1
102
RTVSPropertyOp58
 70
     1
102
RTVSPropertyOp59
 70
     1
102
RTVSPropertyOp60
 70
     1
102
RTVSPropertyOp61
 70
     1
102
RTVSPropertyOp62
 70
     1
  0
XRECORD
  5
88AF
102
{ACAD_REACTORS
330
88AE
102
}
330
88AE
100
AcDbXrecord
280
     1
102
RTVSPost2010Prop28
280
     0
102
RTVSPost2010PropOp28
 70
     1
102
RTVSPost2010Prop29
280
     1
102
RTVSPost2010PropOp29
 70
     1
102
RTVSPost2010Prop30
280
     1
102
RTVSPost2010PropOp30
 70
     1
102
RTVSPost2010Prop31
280
     0
102
RTVSPost2010PropOp31
 70
     1
102
RTVSPost2010Prop32
280
     0
102
RTVSPost2010PropOp32
 70
     1
102
RTVSPost2010Prop33
280
     0
102
RTVSPost2010PropOp33
 70
     1
102
RTVSPost2010Prop34
280
     0
102
RTVSPost2010PropOp34
 70
     1
102
RTVSPost2010Prop35
280
     0
102
RTVSPost2010PropOp35
 70
     1
102
RTVSPost2010Prop36
280
     0
102
RTVSPost2010PropOp36
 70
     1
102
RTVSPost2010Prop37
 90
       50
102
RTVSPost2010PropOp37
 70
     1
102
RTVSPost2010Prop38
140
0.0
102
RTVSPost2010PropOp38
 70
     1
102
RTVSPost2010Prop39
140
1.0
102
RTVSPost2010PropOp39
 70
     1
102
RTVSPost2010Prop40
 90
        0
102
RTVSPost2010PropOp40
 70
     1
102
RTVSPost2010Prop41ColorIndex
 90
       18
102
RTVSPost2010Prop41ColorRGB
 90
        0
102
RTVSPost2010PropOp41
 70
     1
102
RTVSPost2010Prop42
 90
       50
102
RTVSPost2010PropOp42
 70
     1
102
RTVSPost2010Prop43
 90
        3
102
RTVSPost2010PropOp43
 70
     1
102
RTVSPost2010Prop44ColorIndex
 90
        5
102
RTVSPost2010Prop44ColorRGB
 90
      255
102
RTVSPost2010PropOp44
 70
     1
102
RTVSPost2010Prop45
280
     0
102
RTVSPost2010PropOp45
 70
     1
102
RTVSPost2010Prop46
 90
       50
102
RTVSPost2010PropOp46
 70
     1
102
RTVSPost2010Prop47
 90
       50
102
RTVSPost2010PropOp47
 70
     1
102
RTVSPost2010Prop48
 90
       50
102
RTVSPost2010PropOp48
 70
     1
102
RTVSPost2010Prop49
280
     0
102
RTVSPost2010PropOp49
 70
     1
102
RTVSPost2010Prop50
 90
       50
102
RTVSPost2010PropOp50
 70
     1
102
RTVSPost2010Prop51ColorIndex
 90
      256
102
RTVSPost2010Prop51ColorRGB
 90
-16777216
102
RTVSPost2010PropOp51
 70
     0
102
RTVSPost2010Prop52
140
1.0
102
RTVSPost2010PropOp52
 70
     0
102
RTVSPost2010Prop53
 90
        2
102
RTVSPost2010PropOp53
 70
     1
102
RTVSPost2010Prop54
  1
strokes_ogs.tif
102
RTVSPost2010PropOp54
 70
     1
102
RTVSPost2010Prop55
280
     0
102
RTVSPost2010PropOp55
 70
     1
102
RTVSPost2010Prop56
140
1.0
102
RTVSPost2010PropOp56
 70
     1
102
RTVSPost2010Prop57
140
1.0
102
RTVSPost2010PropOp57
 70
     1
102
RTVSPropertyOp0
 70
     1
102
RTVSPropertyOp1
 70
     1
102
RTVSPropertyOp2
 70
     1
102
RTVSPropertyOp3
 70
     1
102
RTVSPropertyOp4
 70
     1
102
RTVSPropertyOp5
 70
     1
102
RTVSPropertyOp6
 70
     1
102
RTVSPropertyOp7
 70
     1
102
RTVSPropertyOp8
 70
     1
102
RTVSPropertyOp9
 70
     1
102
RTVSPropertyOp10
 70
     1
102
RTVSPropertyOp11
 70
     1
102
RTVSPropertyOp12
 70
     1
102
RTVSPropertyOp13
 70
     1
102
RTVSPropertyOp14
 70
     1
102
RTVSPropertyOp15
 70
     1
102
RTVSPropertyOp16
 70
     1
102
RTVSPropertyOp17
 70
     1
102
RTVSPropertyOp18
 70
     1
102
RTVSPropertyOp19
 70
     1
102
RTVSPropertyOp20
 70
     1
102
RTVSPropertyOp21
 70
     1
102
RTVSPropertyOp22
 70
     1
102
RTVSPropertyOp23
 70
     1
102
RTVSPropertyOp24
 70
     1
102
RTVSPropertyOp25
 70
     1
102
RTVSPropertyOp26
 70
     1
102
RTVSPropertyOp27
 70
     1
102
RTVSPropertyOp28
 70
     1
102
RTVSPropertyOp29
 70
     1
102
RTVSPropertyOp30
 70
     1
102
RTVSPropertyOp31
 70
     1
102
RTVSPropertyOp32
 70
     1
102
RTVSPropertyOp33
 70
     1
102
RTVSPropertyOp34
 70
     1
102
RTVSPropertyOp35
 70
     1
102
RTVSPropertyOp36
 70
     1
102
RTVSPropertyOp37
 70
     1
102
RTVSPropertyOp38
 70
     1
102
RTVSPropertyOp39
 70
     1
102
RTVSPropertyOp40
 70
     1
102
RTVSPropertyOp41
 70
     1
102
RTVSPropertyOp42
 70
     1
102
RTVSPropertyOp43
 70
     1
102
RTVSPropertyOp44
 70
     1
102
RTVSPropertyOp45
 70
     1
102
RTVSPropertyOp46
 70
     1
102
RTVSPropertyOp47
 70
     1
102
RTVSPropertyOp48
 70
     1
102
RTVSPropertyOp49
 70
     1
102
RTVSPropertyOp50
 70
     1
102
RTVSPropertyOp51
 70
     0
102
RTVSPropertyOp52
 70
     0
102
RTVSPropertyOp53
 70
     1
102
RTVSPropertyOp54
 70
     1
102
RTVSPropertyOp55
 70
     1
102
RTVSPropertyOp56
 70
     1
102
RTVSPropertyOp57
 70
     1
102
RTVSPropertyOp58
 70
     1
102
RTVSPropertyOp59
 70
     1
102
RTVSPropertyOp60
 70
     1
102
RTVSPropertyOp61
 70
     1
102
RTVSPropertyOp62
 70
     1
  0
XRECORD
  5
88AD
102
{ACAD_REACTORS
330
88AC
102
}
330
88AC
100
AcDbXrecord
280
     1
102
RTVSPost2010Prop28
280
     0
102
RTVSPost2010PropOp28
 70
     1
102
RTVSPost2010Prop29
280
     1
102
RTVSPost2010PropOp29
 70
     1
102
RTVSPost2010Prop30
280
     1
102
RTVSPost2010PropOp30
 70
     1
102
RTVSPost2010Prop31
280
     0
102
RTVSPost2010PropOp31
 70
     1
102
RTVSPost2010Prop32
280
     0
102
RTVSPost2010PropOp32
 70
     1
102
RTVSPost2010Prop33
280
     0
102
RTVSPost2010PropOp33
 70
     1
102
RTVSPost2010Prop34
280
     0
102
RTVSPost2010PropOp34
 70
     1
102
RTVSPost2010Prop35
280
     0
102
RTVSPost2010PropOp35
 70
     1
102
RTVSPost2010Prop36
280
     0
102
RTVSPost2010PropOp36
 70
     1
102
RTVSPost2010Prop37
 90
       50
102
RTVSPost2010PropOp37
 70
     1
102
RTVSPost2010Prop38
140
0.0
102
RTVSPost2010PropOp38
 70
     1
102
RTVSPost2010Prop39
140
1.0
102
RTVSPost2010PropOp39
 70
     1
102
RTVSPost2010Prop40
 90
        0
102
RTVSPost2010PropOp40
 70
     1
102
RTVSPost2010Prop41ColorIndex
 90
       18
102
RTVSPost2010Prop41ColorRGB
 90
        0
102
RTVSPost2010PropOp41
 70
     1
102
RTVSPost2010Prop42
 90
       50
102
RTVSPost2010PropOp42
 70
     1
102
RTVSPost2010Prop43
 90
        3
102
RTVSPost2010PropOp43
 70
     1
102
RTVSPost2010Prop44ColorIndex
 90
        5
102
RTVSPost2010Prop44ColorRGB
 90
      255
102
RTVSPost2010PropOp44
 70
     1
102
RTVSPost2010Prop45
280
     0
102
RTVSPost2010PropOp45
 70
     1
102
RTVSPost2010Prop46
 90
       50
102
RTVSPost2010PropOp46
 70
     1
102
RTVSPost2010Prop47
 90
       50
102
RTVSPost2010PropOp47
 70
     1
102
RTVSPost2010Prop48
 90
       50
102
RTVSPost2010PropOp48
 70
     1
102
RTVSPost2010Prop49
280
     0
102
RTVSPost2010PropOp49
 70
     1
102
RTVSPost2010Prop50
 90
       50
102
RTVSPost2010PropOp50
 70
     1
102
RTVSPost2010Prop51ColorIndex
 90
      256
102
RTVSPost2010Prop51ColorRGB
 90
-16777216
102
RTVSPost2010PropOp51
 70
     0
102
RTVSPost2010Prop52
140
1.0
102
RTVSPost2010PropOp52
 70
     0
102
RTVSPost2010Prop53
 90
        2
102
RTVSPost2010PropOp53
 70
     1
102
RTVSPost2010Prop54
  1
strokes_ogs.tif
102
RTVSPost2010PropOp54
 70
     1
102
RTVSPost2010Prop55
280
     0
102
RTVSPost2010PropOp55
 70
     1
102
RTVSPost2010Prop56
140
1.0
102
RTVSPost2010PropOp56
 70
     1
102
RTVSPost2010Prop57
140
1.0
102
RTVSPost2010PropOp57
 70
     1
102
RTVSPropertyOp0
 70
     1
102
RTVSPropertyOp1
 70
     1
102
RTVSPropertyOp2
 70
     1
102
RTVSPropertyOp3
 70
     1
102
RTVSPropertyOp4
 70
     1
102
RTVSPropertyOp5
 70
     1
102
RTVSPropertyOp6
 70
     1
102
RTVSPropertyOp7
 70
     1
102
RTVSPropertyOp8
 70
     1
102
RTVSPropertyOp9
 70
     1
102
RTVSPropertyOp10
 70
     1
102
RTVSPropertyOp11
 70
     1
102
RTVSPropertyOp12
 70
     1
102
RTVSPropertyOp13
 70
     1
102
RTVSPropertyOp14
 70
     1
102
RTVSPropertyOp15
 70
     1
102
RTVSPropertyOp16
 70
     1
102
RTVSPropertyOp17
 70
     1
102
RTVSPropertyOp18
 70
     1
102
RTVSPropertyOp19
 70
     1
102
RTVSPropertyOp20
 70
     1
102
RTVSPropertyOp21
 70
     1
102
RTVSPropertyOp22
 70
     1
102
RTVSPropertyOp23
 70
     1
102
RTVSPropertyOp24
 70
     1
102
RTVSPropertyOp25
 70
     1
102
RTVSPropertyOp26
 70
     1
102
RTVSPropertyOp27
 70
     1
102
RTVSPropertyOp28
 70
     1
102
RTVSPropertyOp29
 70
     1
102
RTVSPropertyOp30
 70
     1
102
RTVSPropertyOp31
 70
     1
102
RTVSPropertyOp32
 70
     1
102
RTVSPropertyOp33
 70
     1
102
RTVSPropertyOp34
 70
     1
102
RTVSPropertyOp35
 70
     1
102
RTVSPropertyOp36
 70
     1
102
RTVSPropertyOp37
 70
     1
102
RTVSPropertyOp38
 70
     1
102
RTVSPropertyOp39
 70
     1
102
RTVSPropertyOp40
 70
     1
102
RTVSPropertyOp41
 70
     1
102
RTVSPropertyOp42
 70
     1
102
RTVSPropertyOp43
 70
     1
102
RTVSPropertyOp44
 70
     1
102
RTVSPropertyOp45
 70
     1
102
RTVSPropertyOp46
 70
     1
102
RTVSPropertyOp47
 70
     1
102
RTVSPropertyOp48
 70
     1
102
RTVSPropertyOp49
 70
     1
102
RTVSPropertyOp50
 70
     1
102
RTVSPropertyOp51
 70
     0
102
RTVSPropertyOp52
 70
     0
102
RTVSPropertyOp53
 70
     1
102
RTVSPropertyOp54
 70
     1
102
RTVSPropertyOp55
 70
     1
102
RTVSPropertyOp56
 70
     1
102
RTVSPropertyOp57
 70
     1
102
RTVSPropertyOp58
 70
     1
102
RTVSPropertyOp59
 70
     1
102
RTVSPropertyOp60
 70
     1
102
RTVSPropertyOp61
 70
     1
102
RTVSPropertyOp62
 70
     1
  0
XRECORD
  5
88A7
102
{ACAD_REACTORS
330
88A6
102
}
330
88A6
100
AcDbXrecord
280
     1
102
RTVSPost2010Prop28
280
     0
102
RTVSPost2010PropOp28
 70
     1
102
RTVSPost2010Prop29
280
     1
102
RTVSPost2010PropOp29
 70
     1
102
RTVSPost2010Prop30
280
     1
102
RTVSPost2010PropOp30
 70
     1
102
RTVSPost2010Prop31
280
     0
102
RTVSPost2010PropOp31
 70
     1
102
RTVSPost2010Prop32
280
     0
102
RTVSPost2010PropOp32
 70
     1
102
RTVSPost2010Prop33
280
     0
102
RTVSPost2010PropOp33
 70
     1
102
RTVSPost2010Prop34
280
     0
102
RTVSPost2010PropOp34
 70
     1
102
RTVSPost2010Prop35
280
     0
102
RTVSPost2010PropOp35
 70
     1
102
RTVSPost2010Prop36
280
     0
102
RTVSPost2010PropOp36
 70
     1
102
RTVSPost2010Prop37
 90
       50
102
RTVSPost2010PropOp37
 70
     1
102
RTVSPost2010Prop38
140
0.0
102
RTVSPost2010PropOp38
 70
     1
102
RTVSPost2010Prop39
140
1.0
102
RTVSPost2010PropOp39
 70
     1
102
RTVSPost2010Prop40
 90
        0
102
RTVSPost2010PropOp40
 70
     1
102
RTVSPost2010Prop41ColorIndex
 90
       18
102
RTVSPost2010Prop41ColorRGB
 90
        0
102
RTVSPost2010PropOp41
 70
     1
102
RTVSPost2010Prop42
 90
       50
102
RTVSPost2010PropOp42
 70
     1
102
RTVSPost2010Prop43
 90
        3
102
RTVSPost2010PropOp43
 70
     1
102
RTVSPost2010Prop44ColorIndex
 90
        5
102
RTVSPost2010Prop44ColorRGB
 90
      255
102
RTVSPost2010PropOp44
 70
     1
102
RTVSPost2010Prop45
280
     0
102
RTVSPost2010PropOp45
 70
     1
102
RTVSPost2010Prop46
 90
       50
102
RTVSPost2010PropOp46
 70
     1
102
RTVSPost2010Prop47
 90
       50
102
RTVSPost2010PropOp47
 70
     1
102
RTVSPost2010Prop48
 90
       50
102
RTVSPost2010PropOp48
 70
     1
102
RTVSPost2010Prop49
280
     0
102
RTVSPost2010PropOp49
 70
     1
102
RTVSPost2010Prop50
 90
       50
102
RTVSPost2010PropOp50
 70
     1
102
RTVSPost2010Prop51ColorIndex
 90
      256
102
RTVSPost2010Prop51ColorRGB
 90
-16777216
102
RTVSPost2010PropOp51
 70
     0
102
RTVSPost2010Prop52
140
1.0
102
RTVSPost2010PropOp52
 70
     0
102
RTVSPost2010Prop53
 90
        2
102
RTVSPost2010PropOp53
 70
     1
102
RTVSPost2010Prop54
  1
strokes_ogs.tif
102
RTVSPost2010PropOp54
 70
     1
102
RTVSPost2010Prop55
280
     0
102
RTVSPost2010PropOp55
 70
     1
102
RTVSPost2010Prop56
140
1.0
102
RTVSPost2010PropOp56
 70
     1
102
RTVSPost2010Prop57
140
1.0
102
RTVSPost2010PropOp57
 70
     1
102
RTVSPropertyOp0
 70
     1
102
RTVSPropertyOp1
 70
     1
102
RTVSPropertyOp2
 70
     1
102
RTVSPropertyOp3
 70
     1
102
RTVSPropertyOp4
 70
     1
102
RTVSPropertyOp5
 70
     1
102
RTVSPropertyOp6
 70
     1
102
RTVSPropertyOp7
 70
     1
102
RTVSPropertyOp8
 70
     1
102
RTVSPropertyOp9
 70
     1
102
RTVSPropertyOp10
 70
     1
102
RTVSPropertyOp11
 70
     1
102
RTVSPropertyOp12
 70
     1
102
RTVSPropertyOp13
 70
     1
102
RTVSPropertyOp14
 70
     1
102
RTVSPropertyOp15
 70
     1
102
RTVSPropertyOp16
 70
     1
102
RTVSPropertyOp17
 70
     1
102
RTVSPropertyOp18
 70
     1
102
RTVSPropertyOp19
 70
     1
102
RTVSPropertyOp20
 70
     1
102
RTVSPropertyOp21
 70
     1
102
RTVSPropertyOp22
 70
     1
102
RTVSPropertyOp23
 70
     1
102
RTVSPropertyOp24
 70
     1
102
RTVSPropertyOp25
 70
     1
102
RTVSPropertyOp26
 70
     1
102
RTVSPropertyOp27
 70
     1
102
RTVSPropertyOp28
 70
     1
102
RTVSPropertyOp29
 70
     1
102
RTVSPropertyOp30
 70
     1
102
RTVSPropertyOp31
 70
     1
102
RTVSPropertyOp32
 70
     1
102
RTVSPropertyOp33
 70
     1
102
RTVSPropertyOp34
 70
     1
102
RTVSPropertyOp35
 70
     1
102
RTVSPropertyOp36
 70
     1
102
RTVSPropertyOp37
 70
     1
102
RTVSPropertyOp38
 70
     1
102
RTVSPropertyOp39
 70
     1
102
RTVSPropertyOp40
 70
     1
102
RTVSPropertyOp41
 70
     1
102
RTVSPropertyOp42
 70
     1
102
RTVSPropertyOp43
 70
     1
102
RTVSPropertyOp44
 70
     1
102
RTVSPropertyOp45
 70
     1
102
RTVSPropertyOp46
 70
     1
102
RTVSPropertyOp47
 70
     1
102
RTVSPropertyOp48
 70
     1
102
RTVSPropertyOp49
 70
     1
102
RTVSPropertyOp50
 70
     1
102
RTVSPropertyOp51
 70
     0
102
RTVSPropertyOp52
 70
     0
102
RTVSPropertyOp53
 70
     1
102
RTVSPropertyOp54
 70
     1
102
RTVSPropertyOp55
 70
     1
102
RTVSPropertyOp56
 70
     1
102
RTVSPropertyOp57
 70
     1
102
RTVSPropertyOp58
 70
     1
102
RTVSPropertyOp59
 70
     1
102
RTVSPropertyOp60
 70
     1
102
RTVSPropertyOp61
 70
     1
102
RTVSPropertyOp62
 70
     1
  0
XRECORD
  5
88A9
102
{ACAD_REACTORS
330
88A8
102
}
330
88A8
100
AcDbXrecord
280
     1
102
RTVSPost2010Prop28
280
     0
102
RTVSPost2010PropOp28
 70
     1
102
RTVSPost2010Prop29
280
     1
102
RTVSPost2010PropOp29
 70
     1
102
RTVSPost2010Prop30
280
     1
102
RTVSPost2010PropOp30
 70
     1
102
RTVSPost2010Prop31
280
     0
102
RTVSPost2010PropOp31
 70
     1
102
RTVSPost2010Prop32
280
     0
102
RTVSPost2010PropOp32
 70
     1
102
RTVSPost2010Prop33
280
     0
102
RTVSPost2010PropOp33
 70
     1
102
RTVSPost2010Prop34
280
     0
102
RTVSPost2010PropOp34
 70
     1
102
RTVSPost2010Prop35
280
     0
102
RTVSPost2010PropOp35
 70
     1
102
RTVSPost2010Prop36
280
     0
102
RTVSPost2010PropOp36
 70
     1
102
RTVSPost2010Prop37
 90
       50
102
RTVSPost2010PropOp37
 70
     1
102
RTVSPost2010Prop38
140
0.0
102
RTVSPost2010PropOp38
 70
     1
102
RTVSPost2010Prop39
140
1.0
102
RTVSPost2010PropOp39
 70
     1
102
RTVSPost2010Prop40
 90
        0
102
RTVSPost2010PropOp40
 70
     1
102
RTVSPost2010Prop41ColorIndex
 90
       18
102
RTVSPost2010Prop41ColorRGB
 90
        0
102
RTVSPost2010PropOp41
 70
     1
102
RTVSPost2010Prop42
 90
       50
102
RTVSPost2010PropOp42
 70
     1
102
RTVSPost2010Prop43
 90
        3
102
RTVSPost2010PropOp43
 70
     1
102
RTVSPost2010Prop44ColorIndex
 90
        5
102
RTVSPost2010Prop44ColorRGB
 90
      255
102
RTVSPost2010PropOp44
 70
     1
102
RTVSPost2010Prop45
280
     0
102
RTVSPost2010PropOp45
 70
     1
102
RTVSPost2010Prop46
 90
       50
102
RTVSPost2010PropOp46
 70
     1
102
RTVSPost2010Prop47
 90
       50
102
RTVSPost2010PropOp47
 70
     1
102
RTVSPost2010Prop48
 90
       50
102
RTVSPost2010PropOp48
 70
     1
102
RTVSPost2010Prop49
280
     0
102
RTVSPost2010PropOp49
 70
     1
102
RTVSPost2010Prop50
 90
       50
102
RTVSPost2010PropOp50
 70
     1
102
RTVSPost2010Prop51ColorIndex
 90
      256
102
RTVSPost2010Prop51ColorRGB
 90
-16777216
102
RTVSPost2010PropOp51
 70
     0
102
RTVSPost2010Prop52
140
1.0
102
RTVSPost2010PropOp52
 70
     0
102
RTVSPost2010Prop53
 90
        2
102
RTVSPost2010PropOp53
 70
     1
102
RTVSPost2010Prop54
  1
strokes_ogs.tif
102
RTVSPost2010PropOp54
 70
     1
102
RTVSPost2010Prop55
280
     0
102
RTVSPost2010PropOp55
 70
     1
102
RTVSPost2010Prop56
140
1.0
102
RTVSPost2010PropOp56
 70
     1
102
RTVSPost2010Prop57
140
1.0
102
RTVSPost2010PropOp57
 70
     1
102
RTVSPropertyOp0
 70
     1
102
RTVSPropertyOp1
 70
     1
102
RTVSPropertyOp2
 70
     1
102
RTVSPropertyOp3
 70
     1
102
RTVSPropertyOp4
 70
     1
102
RTVSPropertyOp5
 70
     1
102
RTVSPropertyOp6
 70
     1
102
RTVSPropertyOp7
 70
     1
102
RTVSPropertyOp8
 70
     1
102
RTVSPropertyOp9
 70
     1
102
RTVSPropertyOp10
 70
     1
102
RTVSPropertyOp11
 70
     1
102
RTVSPropertyOp12
 70
     1
102
RTVSPropertyOp13
 70
     1
102
RTVSPropertyOp14
 70
     1
102
RTVSPropertyOp15
 70
     1
102
RTVSPropertyOp16
 70
     1
102
RTVSPropertyOp17
 70
     1
102
RTVSPropertyOp18
 70
     1
102
RTVSPropertyOp19
 70
     1
102
RTVSPropertyOp20
 70
     1
102
RTVSPropertyOp21
 70
     1
102
RTVSPropertyOp22
 70
     1
102
RTVSPropertyOp23
 70
     1
102
RTVSPropertyOp24
 70
     1
102
RTVSPropertyOp25
 70
     1
102
RTVSPropertyOp26
 70
     1
102
RTVSPropertyOp27
 70
     1
102
RTVSPropertyOp28
 70
     1
102
RTVSPropertyOp29
 70
     1
102
RTVSPropertyOp30
 70
     1
102
RTVSPropertyOp31
 70
     1
102
RTVSPropertyOp32
 70
     1
102
RTVSPropertyOp33
 70
     1
102
RTVSPropertyOp34
 70
     1
102
RTVSPropertyOp35
 70
     1
102
RTVSPropertyOp36
 70
     1
102
RTVSPropertyOp37
 70
     1
102
RTVSPropertyOp38
 70
     1
102
RTVSPropertyOp39
 70
     1
102
RTVSPropertyOp40
 70
     1
102
RTVSPropertyOp41
 70
     1
102
RTVSPropertyOp42
 70
     1
102
RTVSPropertyOp43
 70
     1
102
RTVSPropertyOp44
 70
     1
102
RTVSPropertyOp45
 70
     1
102
RTVSPropertyOp46
 70
     1
102
RTVSPropertyOp47
 70
     1
102
RTVSPropertyOp48
 70
     1
102
RTVSPropertyOp49
 70
     1
102
RTVSPropertyOp50
 70
     1
102
RTVSPropertyOp51
 70
     0
102
RTVSPropertyOp52
 70
     0
102
RTVSPropertyOp53
 70
     1
102
RTVSPropertyOp54
 70
     1
102
RTVSPropertyOp55
 70
     1
102
RTVSPropertyOp56
 70
     1
102
RTVSPropertyOp57
 70
     1
102
RTVSPropertyOp58
 70
     1
102
RTVSPropertyOp59
 70
     1
102
RTVSPropertyOp60
 70
     1
102
RTVSPropertyOp61
 70
     1
102
RTVSPropertyOp62
 70
     1
  0
XRECORD
  5
889F
102
{ACAD_REACTORS
330
889E
102
}
330
889E
100
AcDbXrecord
280
     1
102
RTVSPost2010Prop28
280
     0
102
RTVSPost2010PropOp28
 70
     1
102
RTVSPost2010Prop29
280
     1
102
RTVSPost2010PropOp29
 70
     1
102
RTVSPost2010Prop30
280
     1
102
RTVSPost2010PropOp30
 70
     1
102
RTVSPost2010Prop31
280
     0
102
RTVSPost2010PropOp31
 70
     1
102
RTVSPost2010Prop32
280
     0
102
RTVSPost2010PropOp32
 70
     1
102
RTVSPost2010Prop33
280
     0
102
RTVSPost2010PropOp33
 70
     1
102
RTVSPost2010Prop34
280
     0
102
RTVSPost2010PropOp34
 70
     1
102
RTVSPost2010Prop35
280
     0
102
RTVSPost2010PropOp35
 70
     1
102
RTVSPost2010Prop36
280
     0
102
RTVSPost2010PropOp36
 70
     1
102
RTVSPost2010Prop37
 90
       50
102
RTVSPost2010PropOp37
 70
     1
102
RTVSPost2010Prop38
140
0.0
102
RTVSPost2010PropOp38
 70
     1
102
RTVSPost2010Prop39
140
1.0
102
RTVSPost2010PropOp39
 70
     1
102
RTVSPost2010Prop40
 90
        0
102
RTVSPost2010PropOp40
 70
     1
102
RTVSPost2010Prop41ColorIndex
 90
       18
102
RTVSPost2010Prop41ColorRGB
 90
        0
102
RTVSPost2010PropOp41
 70
     1
102
RTVSPost2010Prop42
 90
       50
102
RTVSPost2010PropOp42
 70
     1
102
RTVSPost2010Prop43
 90
        3
102
RTVSPost2010PropOp43
 70
     1
102
RTVSPost2010Prop44ColorIndex
 90
        5
102
RTVSPost2010Prop44ColorRGB
 90
      255
102
RTVSPost2010PropOp44
 70
     1
102
RTVSPost2010Prop45
280
     0
102
RTVSPost2010PropOp45
 70
     1
102
RTVSPost2010Prop46
 90
       50
102
RTVSPost2010PropOp46
 70
     1
102
RTVSPost2010Prop47
 90
       50
102
RTVSPost2010PropOp47
 70
     1
102
RTVSPost2010Prop48
 90
       50
102
RTVSPost2010PropOp48
 70
     1
102
RTVSPost2010Prop49
280
     0
102
RTVSPost2010PropOp49
 70
     1
102
RTVSPost2010Prop50
 90
       50
102
RTVSPost2010PropOp50
 70
     1
102
RTVSPost2010Prop51ColorIndex
 90
      256
102
RTVSPost2010Prop51ColorRGB
 90
-16777216
102
RTVSPost2010PropOp51
 70
     0
102
RTVSPost2010Prop52
140
1.0
102
RTVSPost2010PropOp52
 70
     0
102
RTVSPost2010Prop53
 90
        2
102
RTVSPost2010PropOp53
 70
     1
102
RTVSPost2010Prop54
  1
strokes_ogs.tif
102
RTVSPost2010PropOp54
 70
     1
102
RTVSPost2010Prop55
280
     0
102
RTVSPost2010PropOp55
 70
     1
102
RTVSPost2010Prop56
140
1.0
102
RTVSPost2010PropOp56
 70
     1
102
RTVSPost2010Prop57
140
1.0
102
RTVSPost2010PropOp57
 70
     1
102
RTVSPropertyOp0
 70
     1
102
RTVSPropertyOp1
 70
     1
102
RTVSPropertyOp2
 70
     1
102
RTVSPropertyOp3
 70
     1
102
RTVSPropertyOp4
 70
     1
102
RTVSPropertyOp5
 70
     1
102
RTVSPropertyOp6
 70
     1
102
RTVSPropertyOp7
 70
     1
102
RTVSPropertyOp8
 70
     1
102
RTVSPropertyOp9
 70
     1
102
RTVSPropertyOp10
 70
     1
102
RTVSPropertyOp11
 70
     1
102
RTVSPropertyOp12
 70
     1
102
RTVSPropertyOp13
 70
     1
102
RTVSPropertyOp14
 70
     1
102
RTVSPropertyOp15
 70
     1
102
RTVSPropertyOp16
 70
     1
102
RTVSPropertyOp17
 70
     1
102
RTVSPropertyOp18
 70
     1
102
RTVSPropertyOp19
 70
     1
102
RTVSPropertyOp20
 70
     1
102
RTVSPropertyOp21
 70
     1
102
RTVSPropertyOp22
 70
     1
102
RTVSPropertyOp23
 70
     1
102
RTVSPropertyOp24
 70
     1
102
RTVSPropertyOp25
 70
     1
102
RTVSPropertyOp26
 70
     1
102
RTVSPropertyOp27
 70
     1
102
RTVSPropertyOp28
 70
     1
102
RTVSPropertyOp29
 70
     1
102
RTVSPropertyOp30
 70
     1
102
RTVSPropertyOp31
 70
     1
102
RTVSPropertyOp32
 70
     1
102
RTVSPropertyOp33
 70
     1
102
RTVSPropertyOp34
 70
     1
102
RTVSPropertyOp35
 70
     1
102
RTVSPropertyOp36
 70
     1
102
RTVSPropertyOp37
 70
     1
102
RTVSPropertyOp38
 70
     1
102
RTVSPropertyOp39
 70
     1
102
RTVSPropertyOp40
 70
     1
102
RTVSPropertyOp41
 70
     1
102
RTVSPropertyOp42
 70
     1
102
RTVSPropertyOp43
 70
     1
102
RTVSPropertyOp44
 70
     1
102
RTVSPropertyOp45
 70
     1
102
RTVSPropertyOp46
 70
     1
102
RTVSPropertyOp47
 70
     1
102
RTVSPropertyOp48
 70
     1
102
RTVSPropertyOp49
 70
     1
102
RTVSPropertyOp50
 70
     1
102
RTVSPropertyOp51
 70
     0
102
RTVSPropertyOp52
 70
     0
102
RTVSPropertyOp53
 70
     1
102
RTVSPropertyOp54
 70
     1
102
RTVSPropertyOp55
 70
     1
102
RTVSPropertyOp56
 70
     1
102
RTVSPropertyOp57
 70
     1
102
RTVSPropertyOp58
 70
     1
102
RTVSPropertyOp59
 70
     1
102
RTVSPropertyOp60
 70
     1
102
RTVSPropertyOp61
 70
     1
102
RTVSPropertyOp62
 70
     1
  0
XRECORD
  5
8893
102
{ACAD_REACTORS
330
8892
102
}
330
8892
100
AcDbXrecord
280
     1
102
RTVSPost2010Prop28
280
     0
102
RTVSPost2010PropOp28
 70
     1
102
RTVSPost2010Prop29
280
     1
102
RTVSPost2010PropOp29
 70
     1
102
RTVSPost2010Prop30
280
     1
102
RTVSPost2010PropOp30
 70
     1
102
RTVSPost2010Prop31
280
     0
102
RTVSPost2010PropOp31
 70
     1
102
RTVSPost2010Prop32
280
     0
102
RTVSPost2010PropOp32
 70
     1
102
RTVSPost2010Prop33
280
     0
102
RTVSPost2010PropOp33
 70
     1
102
RTVSPost2010Prop34
280
     0
102
RTVSPost2010PropOp34
 70
     1
102
RTVSPost2010Prop35
280
     0
102
RTVSPost2010PropOp35
 70
     1
102
RTVSPost2010Prop36
280
     0
102
RTVSPost2010PropOp36
 70
     1
102
RTVSPost2010Prop37
 90
       50
102
RTVSPost2010PropOp37
 70
     1
102
RTVSPost2010Prop38
140
0.0
102
RTVSPost2010PropOp38
 70
     1
102
RTVSPost2010Prop39
140
1.0
102
RTVSPost2010PropOp39
 70
     1
102
RTVSPost2010Prop40
 90
        0
102
RTVSPost2010PropOp40
 70
     1
102
RTVSPost2010Prop41ColorIndex
 90
       18
102
RTVSPost2010Prop41ColorRGB
 90
        0
102
RTVSPost2010PropOp41
 70
     1
102
RTVSPost2010Prop42
 90
       50
102
RTVSPost2010PropOp42
 70
     1
102
RTVSPost2010Prop43
 90
        3
102
RTVSPost2010PropOp43
 70
     1
102
RTVSPost2010Prop44ColorIndex
 90
        5
102
RTVSPost2010Prop44ColorRGB
 90
      255
102
RTVSPost2010PropOp44
 70
     1
102
RTVSPost2010Prop45
280
     0
102
RTVSPost2010PropOp45
 70
     1
102
RTVSPost2010Prop46
 90
       50
102
RTVSPost2010PropOp46
 70
     1
102
RTVSPost2010Prop47
 90
       50
102
RTVSPost2010PropOp47
 70
     1
102
RTVSPost2010Prop48
 90
       50
102
RTVSPost2010PropOp48
 70
     1
102
RTVSPost2010Prop49
280
     0
102
RTVSPost2010PropOp49
 70
     1
102
RTVSPost2010Prop50
 90
       50
102
RTVSPost2010PropOp50
 70
     1
102
RTVSPost2010Prop51ColorIndex
 90
      256
102
RTVSPost2010Prop51ColorRGB
 90
-16777216
102
RTVSPost2010PropOp51
 70
     0
102
RTVSPost2010Prop52
140
1.0
102
RTVSPost2010PropOp52
 70
     0
102
RTVSPost2010Prop53
 90
        2
102
RTVSPost2010PropOp53
 70
     1
102
RTVSPost2010Prop54
  1
strokes_ogs.tif
102
RTVSPost2010PropOp54
 70
     1
102
RTVSPost2010Prop55
280
     0
102
RTVSPost2010PropOp55
 70
     1
102
RTVSPost2010Prop56
140
1.0
102
RTVSPost2010PropOp56
 70
     1
102
RTVSPost2010Prop57
140
1.0
102
RTVSPost2010PropOp57
 70
     1
102
RTVSPropertyOp0
 70
     1
102
RTVSPropertyOp1
 70
     1
102
RTVSPropertyOp2
 70
     1
102
RTVSPropertyOp3
 70
     1
102
RTVSPropertyOp4
 70
     1
102
RTVSPropertyOp5
 70
     1
102
RTVSPropertyOp6
 70
     1
102
RTVSPropertyOp7
 70
     1
102
RTVSPropertyOp8
 70
     1
102
RTVSPropertyOp9
 70
     1
102
RTVSPropertyOp10
 70
     1
102
RTVSPropertyOp11
 70
     1
102
RTVSPropertyOp12
 70
     1
102
RTVSPropertyOp13
 70
     1
102
RTVSPropertyOp14
 70
     1
102
RTVSPropertyOp15
 70
     1
102
RTVSPropertyOp16
 70
     1
102
RTVSPropertyOp17
 70
     1
102
RTVSPropertyOp18
 70
     1
102
RTVSPropertyOp19
 70
     1
102
RTVSPropertyOp20
 70
     1
102
RTVSPropertyOp21
 70
     1
102
RTVSPropertyOp22
 70
     1
102
RTVSPropertyOp23
 70
     1
102
RTVSPropertyOp24
 70
     1
102
RTVSPropertyOp25
 70
     1
102
RTVSPropertyOp26
 70
     1
102
RTVSPropertyOp27
 70
     1
102
RTVSPropertyOp28
 70
     1
102
RTVSPropertyOp29
 70
     1
102
RTVSPropertyOp30
 70
     1
102
RTVSPropertyOp31
 70
     1
102
RTVSPropertyOp32
 70
     1
102
RTVSPropertyOp33
 70
     1
102
RTVSPropertyOp34
 70
     1
102
RTVSPropertyOp35
 70
     1
102
RTVSPropertyOp36
 70
     1
102
RTVSPropertyOp37
 70
     1
102
RTVSPropertyOp38
 70
     1
102
RTVSPropertyOp39
 70
     1
102
RTVSPropertyOp40
 70
     1
102
RTVSPropertyOp41
 70
     1
102
RTVSPropertyOp42
 70
     1
102
RTVSPropertyOp43
 70
     1
102
RTVSPropertyOp44
 70
     1
102
RTVSPropertyOp45
 70
     1
102
RTVSPropertyOp46
 70
     1
102
RTVSPropertyOp47
 70
     1
102
RTVSPropertyOp48
 70
     1
102
RTVSPropertyOp49
 70
     1
102
RTVSPropertyOp50
 70
     1
102
RTVSPropertyOp51
 70
     0
102
RTVSPropertyOp52
 70
     0
102
RTVSPropertyOp53
 70
     1
102
RTVSPropertyOp54
 70
     1
102
RTVSPropertyOp55
 70
     1
102
RTVSPropertyOp56
 70
     1
102
RTVSPropertyOp57
 70
     1
102
RTVSPropertyOp58
 70
     1
102
RTVSPropertyOp59
 70
     1
102
RTVSPropertyOp60
 70
     1
102
RTVSPropertyOp61
 70
     1
102
RTVSPropertyOp62
 70
     1
  0
XRECORD
  5
88AB
102
{ACAD_REACTORS
330
88AA
102
}
330
88AA
100
AcDbXrecord
280
     1
102
RTVSPost2010Prop28
280
     0
102
RTVSPost2010PropOp28
 70
     1
102
RTVSPost2010Prop29
280
     1
102
RTVSPost2010PropOp29
 70
     1
102
RTVSPost2010Prop30
280
     1
102
RTVSPost2010PropOp30
 70
     1
102
RTVSPost2010Prop31
280
     0
102
RTVSPost2010PropOp31
 70
     1
102
RTVSPost2010Prop32
280
     0
102
RTVSPost2010PropOp32
 70
     1
102
RTVSPost2010Prop33
280
     0
102
RTVSPost2010PropOp33
 70
     1
102
RTVSPost2010Prop34
280
     0
102
RTVSPost2010PropOp34
 70
     1
102
RTVSPost2010Prop35
280
     0
102
RTVSPost2010PropOp35
 70
     1
102
RTVSPost2010Prop36
280
     0
102
RTVSPost2010PropOp36
 70
     1
102
RTVSPost2010Prop37
 90
       50
102
RTVSPost2010PropOp37
 70
     1
102
RTVSPost2010Prop38
140
0.0
102
RTVSPost2010PropOp38
 70
     1
102
RTVSPost2010Prop39
140
1.0
102
RTVSPost2010PropOp39
 70
     1
102
RTVSPost2010Prop40
 90
        0
102
RTVSPost2010PropOp40
 70
     1
102
RTVSPost2010Prop41ColorIndex
 90
       18
102
RTVSPost2010Prop41ColorRGB
 90
        0
102
RTVSPost2010PropOp41
 70
     1
102
RTVSPost2010Prop42
 90
       50
102
RTVSPost2010PropOp42
 70
     1
102
RTVSPost2010Prop43
 90
        3
102
RTVSPost2010PropOp43
 70
     1
102
RTVSPost2010Prop44ColorIndex
 90
        5
102
RTVSPost2010Prop44ColorRGB
 90
      255
102
RTVSPost2010PropOp44
 70
     1
102
RTVSPost2010Prop45
280
     0
102
RTVSPost2010PropOp45
 70
     1
102
RTVSPost2010Prop46
 90
       50
102
RTVSPost2010PropOp46
 70
     1
102
RTVSPost2010Prop47
 90
       50
102
RTVSPost2010PropOp47
 70
     1
102
RTVSPost2010Prop48
 90
       50
102
RTVSPost2010PropOp48
 70
     1
102
RTVSPost2010Prop49
280
     0
102
RTVSPost2010PropOp49
 70
     1
102
RTVSPost2010Prop50
 90
       50
102
RTVSPost2010PropOp50
 70
     1
102
RTVSPost2010Prop51ColorIndex
 90
      256
102
RTVSPost2010Prop51ColorRGB
 90
-16777216
102
RTVSPost2010PropOp51
 70
     0
102
RTVSPost2010Prop52
140
1.0
102
RTVSPost2010PropOp52
 70
     0
102
RTVSPost2010Prop53
 90
        2
102
RTVSPost2010PropOp53
 70
     1
102
RTVSPost2010Prop54
  1
strokes_ogs.tif
102
RTVSPost2010PropOp54
 70
     1
102
RTVSPost2010Prop55
280
     0
102
RTVSPost2010PropOp55
 70
     1
102
RTVSPost2010Prop56
140
1.0
102
RTVSPost2010PropOp56
 70
     1
102
RTVSPost2010Prop57
140
1.0
102
RTVSPost2010PropOp57
 70
     1
102
RTVSPropertyOp0
 70
     1
102
RTVSPropertyOp1
 70
     1
102
RTVSPropertyOp2
 70
     1
102
RTVSPropertyOp3
 70
     1
102
RTVSPropertyOp4
 70
     1
102
RTVSPropertyOp5
 70
     1
102
RTVSPropertyOp6
 70
     1
102
RTVSPropertyOp7
 70
     1
102
RTVSPropertyOp8
 70
     1
102
RTVSPropertyOp9
 70
     1
102
RTVSPropertyOp10
 70
     1
102
RTVSPropertyOp11
 70
     1
102
RTVSPropertyOp12
 70
     1
102
RTVSPropertyOp13
 70
     1
102
RTVSPropertyOp14
 70
     1
102
RTVSPropertyOp15
 70
     1
102
RTVSPropertyOp16
 70
     1
102
RTVSPropertyOp17
 70
     1
102
RTVSPropertyOp18
 70
     1
102
RTVSPropertyOp19
 70
     1
102
RTVSPropertyOp20
 70
     1
102
RTVSPropertyOp21
 70
     1
102
RTVSPropertyOp22
 70
     1
102
RTVSPropertyOp23
 70
     1
102
RTVSPropertyOp24
 70
     1
102
RTVSPropertyOp25
 70
     1
102
RTVSPropertyOp26
 70
     1
102
RTVSPropertyOp27
 70
     1
102
RTVSPropertyOp28
 70
     1
102
RTVSPropertyOp29
 70
     1
102
RTVSPropertyOp30
 70
     1
102
RTVSPropertyOp31
 70
     1
102
RTVSPropertyOp32
 70
     1
102
RTVSPropertyOp33
 70
     1
102
RTVSPropertyOp34
 70
     1
102
RTVSPropertyOp35
 70
     1
102
RTVSPropertyOp36
 70
     1
102
RTVSPropertyOp37
 70
     1
102
RTVSPropertyOp38
 70
     1
102
RTVSPropertyOp39
 70
     1
102
RTVSPropertyOp40
 70
     1
102
RTVSPropertyOp41
 70
     1
102
RTVSPropertyOp42
 70
     1
102
RTVSPropertyOp43
 70
     1
102
RTVSPropertyOp44
 70
     1
102
RTVSPropertyOp45
 70
     1
102
RTVSPropertyOp46
 70
     1
102
RTVSPropertyOp47
 70
     1
102
RTVSPropertyOp48
 70
     1
102
RTVSPropertyOp49
 70
     1
102
RTVSPropertyOp50
 70
     1
102
RTVSPropertyOp51
 70
     0
102
RTVSPropertyOp52
 70
     0
102
RTVSPropertyOp53
 70
     1
102
RTVSPropertyOp54
 70
     1
102
RTVSPropertyOp55
 70
     1
102
RTVSPropertyOp56
 70
     1
102
RTVSPropertyOp57
 70
     1
102
RTVSPropertyOp58
 70
     1
102
RTVSPropertyOp59
 70
     1
102
RTVSPropertyOp60
 70
     1
102
RTVSPropertyOp61
 70
     1
102
RTVSPropertyOp62
 70
     1
  0
ENDSEC
  0
EOF
