  0
SECTION
  2
HEADER
  9
$ACADVER
  1
AC1015
  9
$ACADMAINTVER
 70
    20
  9
$DWGCODEPAGE
  3
ANSI_932
  9
$INSBASE
 10
0.0
 20
0.0
 30
0.0
  9
$EXTMIN
 10
9.9999975266385
 20
10.0
 30
0.0
  9
$EXTMAX
 10
483.7234933027557
 20
170.3530520461883
 30
0.0
  9
$LIMMIN
 10
0.0000015376081137
 20
-0.0000001931532552
  9
$LIMMAX
 10
515.0000015376082
 20
355.0378785947253
  9
$ORTHOMODE
 70
     1
  9
$REGENMODE
 70
     1
  9
$FILLMODE
 70
     1
  9
$QTEXTMODE
 70
     0
  9
$MIRRTEXT
 70
     1
  9
$LTSCALE
 40
1.0
  9
$ATTMODE
 70
     1
  9
$TEXTSIZE
 40
2.5
  9
$TRACEWID
 40
1.0
  9
$TEXTSTYLE
  7
STANDARD
  9
$CLAYER
  8
0
  9
$CELTYPE
  6
BYLAYER
  9
$CECOLOR
 62
   256
  9
$CELTSCALE
 40
1.0
  9
$DISPSILH
 70
     0
  9
$DIMSCALE
 40
1.0
  9
$DIMASZ
 40
3.0
  9
$DIMEXO
 40
1.0
  9
$DIMDLI
 40
10.0
  9
$DIMRND
 40
0.0
  9
$DIMDLE
 40
0.0
  9
$DIMEXE
 40
1.0
  9
$DIMTP
 40
0.0
  9
$DIMTM
 40
0.0
  9
$DIMTXT
 40
2.5
  9
$DIMCEN
 40
0.0
  9
$DIMTSZ
 40
0.0
  9
$DIMTOL
 70
     0
  9
$DIMLIM
 70
     0
  9
$DIMTIH
 70
     0
  9
$DIMTOH
 70
     0
  9
$DIMSE1
 70
     0
  9
$DIMSE2
 70
     0
  9
$DIMTAD
 70
     3
  9
$DIMZIN
 70
     8
  9
$DIMBLK
  1

  9
$DIMASO
 70
     1
  9
$DIMSHO
 70
     1
  9
$DIMPOST
  1

  9
$DIMAPOST
  1

  9
$DIMALT
 70
     0
  9
$DIMALTD
 70
     2
  9
$DIMALTF
 40
25.4
  9
$DIMLFAC
 40
1.0
  9
$DIMTOFL
 70
     1
  9
$DIMTVP
 40
0.0
  9
$DIMTIX
 70
     0
  9
$DIMSOXD
 70
     0
  9
$DIMSAH
 70
     1
  9
$DIMBLK1
  1
OPEN
  9
$DIMBLK2
  1
OPEN
  9
$DIMSTYLE
  2
STANDARD
  9
$DIMCLRD
 70
     0
  9
$DIMCLRE
 70
     0
  9
$DIMCLRT
 70
     0
  9
$DIMTFAC
 40
1.0
  9
$DIMGAP
 40
1.0
  9
$DIMJUST
 70
     0
  9
$DIMSD1
 70
     0
  9
$DIMSD2
 70
     0
  9
$DIMTOLJ
 70
     1
  9
$DIMTZIN
 70
     0
  9
$DIMALTZ
 70
     0
  9
$DIMALTTZ
 70
     0
  9
$DIMUPT
 70
     0
  9
$DIMDEC
 70
     4
  9
$DIMTDEC
 70
     4
  9
$DIMALTU
 70
     2
  9
$DIMALTTD
 70
     2
  9
$DIMTXSTY
  7
STANDARD
  9
$DIMAUNIT
 70
     0
  9
$DIMADEC
 70
     0
  9
$DIMALTRND
 40
0.0
  9
$DIMAZIN
 70
     0
  9
$DIMDSEP
 70
    46
  9
$DIMATFIT
 70
     3
  9
$DIMFRAC
 70
     0
  9
$DIMLDRBLK
  1
OPEN
  9
$DIMLUNIT
 70
     2
  9
$DIMLWD
 70
    -2
  9
$DIMLWE
 70
    -2
  9
$DIMTMOVE
 70
     0
  9
$LUNITS
 70
     2
  9
$LUPREC
 70
     4
  9
$SKETCHINC
 40
1.0
  9
$FILLETRAD
 40
0.0
  9
$AUNITS
 70
     0
  9
$AUPREC
 70
     0
  9
$MENU
  1
.
  9
$ELEVATION
 40
0.0
  9
$PELEVATION
 40
0.0
  9
$THICKNESS
 40
0.0
  9
$LIMCHECK
 70
     0
  9
$CHAMFERA
 40
10.0
  9
$CHAMFERB
 40
10.0
  9
$CHAMFERC
 40
20.0
  9
$CHAMFERD
 40
0.0
  9
$SKPOLY
 70
     0
  9
$TDCREATE
 40
2454153.648918542
  9
$TDUCREATE
 40
2454153.273918542
  9
$TDUPDATE
 40
2457192.602223033
  9
$TDUUPDATE
 40
2457192.227223033
  9
$TDINDWG
 40
0.1091703704
  9
$TDUSRTIMER
 40
0.1091701736
  9
$USRTIMER
 70
     1
  9
$ANGBASE
 50
0.0
  9
$ANGDIR
 70
     0
  9
$PDMODE
 70
     0
  9
$PDSIZE
 40
0.0
  9
$PLINEWID
 40
0.0
  9
$SPLFRAME
 70
     0
  9
$SPLINETYPE
 70
     6
  9
$SPLINESEGS
 70
     8
  9
$HANDSEED
  5
3E35
  9
$SURFTAB1
 70
     6
  9
$SURFTAB2
 70
     6
  9
$SURFTYPE
 70
     6
  9
$SURFU
 70
     6
  9
$SURFV
 70
     6
  9
$UCSBASE
  2

  9
$UCSNAME
  2

  9
$UCSORG
 10
0.0
 20
0.0
 30
0.0
  9
$UCSXDIR
 10
1.0
 20
0.0
 30
0.0
  9
$UCSYDIR
 10
0.0
 20
1.0
 30
0.0
  9
$UCSORTHOREF
  2

  9
$UCSORTHOVIEW
 70
     0
  9
$UCSORGTOP
 10
0.0
 20
0.0
 30
0.0
  9
$UCSORGBOTTOM
 10
0.0
 20
0.0
 30
0.0
  9
$UCSORGLEFT
 10
0.0
 20
0.0
 30
0.0
  9
$UCSORGRIGHT
 10
0.0
 20
0.0
 30
0.0
  9
$UCSORGFRONT
 10
0.0
 20
0.0
 30
0.0
  9
$UCSORGBACK
 10
0.0
 20
0.0
 30
0.0
  9
$PUCSBASE
  2

  9
$PUCSNAME
  2

  9
$PUCSORG
 10
0.0
 20
0.0
 30
0.0
  9
$PUCSXDIR
 10
1.0
 20
0.0
 30
0.0
  9
$PUCSYDIR
 10
0.0
 20
1.0
 30
0.0
  9
$PUCSORTHOREF
  2

  9
$PUCSORTHOVIEW
 70
     0
  9
$PUCSORGTOP
 10
0.0
 20
0.0
 30
0.0
  9
$PUCSORGBOTTOM
 10
0.0
 20
0.0
 30
0.0
  9
$PUCSORGLEFT
 10
0.0
 20
0.0
 30
0.0
  9
$PUCSORGRIGHT
 10
0.0
 20
0.0
 30
0.0
  9
$PUCSORGFRONT
 10
0.0
 20
0.0
 30
0.0
  9
$PUCSORGBACK
 10
0.0
 20
0.0
 30
0.0
  9
$USERI1
 70
     0
  9
$USERI2
 70
     0
  9
$USERI3
 70
     0
  9
$USERI4
 70
     0
  9
$USERI5
 70
     0
  9
$USERR1
 40
0.0
  9
$USERR2
 40
0.0
  9
$USERR3
 40
0.0
  9
$USERR4
 40
0.0
  9
$USERR5
 40
0.0
  9
$WORLDVIEW
 70
     1
  9
$SHADEDGE
 70
     3
  9
$SHADEDIF
 70
    70
  9
$TILEMODE
 70
     1
  9
$MAXACTVP
 70
    48
  9
$PINSBASE
 10
0.0
 20
0.0
 30
0.0
  9
$PLIMCHECK
 70
     0
  9
$PEXTMIN
 10
1.000000000000000E+20
 20
1.000000000000000E+20
 30
1.000000000000000E+20
  9
$PEXTMAX
 10
-1.000000000000000E+20
 20
-1.000000000000000E+20
 30
-1.000000000000000E+20
  9
$PLIMMIN
 10
0.0
 20
0.0
  9
$PLIMMAX
 10
420.0
 20
297.0
  9
$UNITMODE
 70
     0
  9
$VISRETAIN
 70
     1
  9
$PLINEGEN
 70
     0
  9
$PSLTSCALE
 70
     1
  9
$TREEDEPTH
 70
  3020
  9
$CMLSTYLE
  2
STANDARD
  9
$CMLJUST
 70
     0
  9
$CMLSCALE
 40
20.0
  9
$PROXYGRAPHICS
 70
     1
  9
$MEASUREMENT
 70
     0
  9
$CELWEIGHT
370
    -1
  9
$ENDCAPS
280
     0
  9
$JOINSTYLE
280
     0
  9
$LWDISPLAY
290
     0
  9
$INSUNITS
 70
     0
  9
$HYPERLINKBASE
  1

  9
$STYLESHEET
  1

  9
$XEDIT
290
     1
  9
$CEPSNTYPE
380
     0
  9
$PSTYLEMODE
290
     1
  9
$FINGERPRINTGUID
  2
{C1FBA3F6-A2CE-400E-85AE-1481514AA59D}
  9
$VERSIONGUID
  2
{A79E6E85-5C35-49B1-B05A-8DA7718A7177}
  9
$EXTNAMES
290
     1
  9
$PSVPSCALE
 40
0.0
  9
$OLESTARTUP
290
     0
  0
ENDSEC
  0
SECTION
  2
CLASSES
  0
CLASS
  1
ACDBDICTIONARYWDFLT
  2
AcDbDictionaryWithDefault
  3
ObjectDBX Classes
 90
        0
280
     0
281
     0
  0
CLASS
  1
ACDBPLACEHOLDER
  2
AcDbPlaceHolder
  3
ObjectDBX Classes
 90
        0
280
     0
281
     0
  0
CLASS
  1
LAYOUT
  2
AcDbLayout
  3
ObjectDBX Classes
 90
        0
280
     0
281
     0
  0
CLASS
  1
DICTIONARYVAR
  2
AcDbDictionaryVar
  3
ObjectDBX Classes
 90
        0
280
     0
281
     0
  0
CLASS
  1
MATERIAL
  2
AcDbMaterial
  3
ObjectDBX Classes
 90
     1153
280
     0
281
     0
  0
CLASS
  1
VISUALSTYLE
  2
AcDbVisualStyle
  3
ObjectDBX Classes
 90
     4095
280
     0
281
     0
  0
CLASS
  1
TABLESTYLE
  2
AcDbTableStyle
  3
ObjectDBX Classes
 90
     4095
280
     0
281
     0
  0
CLASS
  1
SCALE
  2
AcDbScale
  3
ObjectDBX Classes
 90
     1153
280
     0
281
     0
  0
CLASS
  1
MLEADERSTYLE
  2
AcDbMLeaderStyle
  3
ACDB_MLEADERSTYLE_CLASS
 90
     4095
280
     0
281
     0
  0
CLASS
  1
ACDBSECTIONVIEWSTYLE
  2
AcDbSectionViewStyle
  3
ObjectDBX Classes
 90
     1025
280
     0
281
     0
  0
CLASS
  1
ACDBDETAILVIEWSTYLE
  2
AcDbDetailViewStyle
  3
ObjectDBX Classes
 90
     1025
280
     0
281
     0
  0
CLASS
  1
CELLSTYLEMAP
  2
AcDbCellStyleMap
  3
ObjectDBX Classes
 90
     1152
280
     0
281
     0
  0
ENDSEC
  0
SECTION
  2
TABLES
  0
TABLE
  2
VPORT
  5
8
330
0
100
AcDbSymbolTable
 70
     1
  0
VPORT
  5
3D7F
330
8
100
AcDbSymbolTableRecord
100
AcDbViewportTableRecord
  2
*ACTIVE
 70
     0
 10
0.0
 20
0.0
 11
1.0
 21
1.0
 12
374.9517313586324
 22
90.17613290734699
 13
0.0
 23
0.0
 14
10.0
 24
10.0
 15
10.0
 25
10.0
 16
0.0
 26
0.0
 36
1.0
 17
0.0
 27
0.0
 37
0.0
 40
311.6637704805537
 41
1.899603698811096
 42
50.0
 43
0.0
 44
0.0
 50
0.0
 51
0.0
 71
     0
 72
   100
 73
     1
 74
     0
 75
     0
 76
     0
 77
     0
 78
     0
281
     0
 65
     1
110
0.0
120
0.0
130
0.0
111
1.0
121
0.0
131
0.0
112
0.0
122
1.0
132
0.0
 79
     0
146
0.0
1001
ACAD_NAV_VCDISPLAY
1070
     3
  0
ENDTAB
  0
TABLE
  2
LTYPE
  5
5
330
0
100
AcDbSymbolTable
 70
     4
  0
LTYPE
  5
12
330
5
100
AcDbSymbolTableRecord
100
AcDbLinetypeTableRecord
  2
BYBLOCK
 70
     0
  3

 72
    65
 73
     0
 40
0.0
  0
LTYPE
  5
13
330
5
100
AcDbSymbolTableRecord
100
AcDbLinetypeTableRecord
  2
BYLAYER
 70
     0
  3

 72
    65
 73
     0
 40
0.0
  0
LTYPE
  5
14
330
5
100
AcDbSymbolTableRecord
100
AcDbLinetypeTableRecord
  2
CONTINUOUS
 70
     0
  3
Solid line
 72
    65
 73
     0
 40
0.0
  0
LTYPE
  5
4B
330
5
100
AcDbSymbolTableRecord
100
AcDbLinetypeTableRecord
  2
DASHED
 70
     0
  3
Dashed __ __ __ __ __ __ __ __ __ __ __ __ __ _
 72
    65
 73
     2
 40
19.04999999999999
 49
12.7
 74
     0
 49
-6.349999999999998
 74
     0
  0
LTYPE
  5
4C
330
5
100
AcDbSymbolTableRecord
100
AcDbLinetypeTableRecord
  2
CENTER
 70
     0
  3
Center ____ _ ____ _ ____ _ ____ _ ____ _ ____
 72
    65
 73
     4
 40
50.8
 49
31.75
 74
     0
 49
-6.349999999999998
 74
     0
 49
6.349999999999998
 74
     0
 49
-6.349999999999998
 74
     0
  0
LTYPE
  5
4D
330
5
100
AcDbSymbolTableRecord
100
AcDbLinetypeTableRecord
  2
PHANTOM
 70
     0
  3
Phantom ______  __  __  ______  __  __  ______
 72
    65
 73
     6
 40
63.5
 49
31.75
 74
     0
 49
-6.349999999999998
 74
     0
 49
6.349999999999998
 74
     0
 49
-6.349999999999998
 74
     0
 49
6.349999999999998
 74
     0
 49
-6.349999999999998
 74
     0
  0
ENDTAB
  0
TABLE
  2
LAYER
  5
2
330
0
100
AcDbSymbolTable
 70
     8
  0
LAYER
  5
E
102
{ACAD_XDICTIONARY
360
3DD9
102
}
330
2
100
AcDbSymbolTableRecord
100
AcDbLayerTableRecord
  2
0
 70
     0
 62
     7
  6
CONTINUOUS
370
    -3
390
3D88
  0
LAYER
  5
4E
102
{ACAD_XDICTIONARY
360
3DDB
102
}
330
2
100
AcDbSymbolTableRecord
100
AcDbLayerTableRecord
  2
4
 70
     0
 62
     1
  6
CENTER
370
    -3
390
3D88
  0
LAYER
  5
4F
102
{ACAD_XDICTIONARY
360
3DDD
102
}
330
2
100
AcDbSymbolTableRecord
100
AcDbLayerTableRecord
  2
5
 70
     0
 62
     6
  6
PHANTOM
370
    -3
390
3D88
  0
LAYER
  5
50
102
{ACAD_XDICTIONARY
360
3DDF
102
}
330
2
100
AcDbSymbolTableRecord
100
AcDbLayerTableRecord
  2
1
 70
     0
 62
     7
  6
CONTINUOUS
370
    -3
390
3D88
  0
LAYER
  5
51
102
{ACAD_XDICTIONARY
360
3DE1
102
}
330
2
100
AcDbSymbolTableRecord
100
AcDbLayerTableRecord
  2
2
 70
     0
 62
     4
  6
CONTINUOUS
370
    -3
390
3D88
  0
LAYER
  5
52
102
{ACAD_XDICTIONARY
360
3DE3
102
}
330
2
100
AcDbSymbolTableRecord
100
AcDbLayerTableRecord
  2
3
 70
     0
 62
     2
  6
DASHED
370
    -3
390
3D88
  0
LAYER
  5
53
102
{ACAD_XDICTIONARY
360
3DE5
102
}
330
2
100
AcDbSymbolTableRecord
100
AcDbLayerTableRecord
  2
6
 70
     0
 62
     5
  6
CONTINUOUS
370
    -3
390
3D88
  0
LAYER
  5
54
102
{ACAD_XDICTIONARY
360
3DE7
102
}
330
2
100
AcDbSymbolTableRecord
100
AcDbLayerTableRecord
  2
7
 70
     0
 62
     3
  6
CONTINUOUS
370
    -3
390
3D88
  0
ENDTAB
  0
TABLE
  2
STYLE
  5
3
330
0
100
AcDbSymbolTable
 70
     1
  0
STYLE
  5
F
330
3
100
AcDbSymbolTableRecord
100
AcDbTextStyleTableRecord
  2
STANDARD
 70
     0
 40
0.0
 41
1.0
 50
0.0
 71
     0
 42
2.5
  3
simplex.shx
  4

  0
ENDTAB
  0
TABLE
  2
VIEW
  5
6
330
0
100
AcDbSymbolTable
 70
     0
  0
ENDTAB
  0
TABLE
  2
UCS
  5
7
330
0
100
AcDbSymbolTable
 70
     0
  0
ENDTAB
  0
TABLE
  2
APPID
  5
9
330
0
100
AcDbSymbolTable
 70
     7
  0
APPID
  5
10
330
9
100
AcDbSymbolTableRecord
100
AcDbRegAppTableRecord
  2
ACAD
 70
     0
  0
APPID
  5
3E
330
9
100
AcDbSymbolTableRecord
100
AcDbRegAppTableRecord
  2
CONTENTTABDATA
 70
     0
  0
APPID
  5
3F
330
9
100
AcDbSymbolTableRecord
100
AcDbRegAppTableRecord
  2
CONTENTCURRENTTAB
 70
     0
  0
APPID
  5
FE8
330
9
100
AcDbSymbolTableRecord
100
AcDbRegAppTableRecord
  2
CONTENTBLOCKICON
 70
     0
  0
APPID
  5
FE9
330
9
100
AcDbSymbolTableRecord
100
AcDbRegAppTableRecord
  2
CONTENTBLOCKDESCRIPTION
 70
     0
  0
APPID
  5
3DF3
330
9
100
AcDbSymbolTableRecord
100
AcDbRegAppTableRecord
  2
ACAD_NAV_VCDISPLAY
 70
     0
  0
APPID
  5
3E2C
330
9
100
AcDbSymbolTableRecord
100
AcDbRegAppTableRecord
  2
ACAD_MLEADERVER
 70
     0
  0
ENDTAB
  0
TABLE
  2
DIMSTYLE
  5
A
330
0
100
AcDbSymbolTable
 70
     1
100
AcDbDimStyleTable
 71
     0
  0
DIMSTYLE
105
1D
330
A
100
AcDbSymbolTableRecord
100
AcDbDimStyleTableRecord
  2
STANDARD
 70
     0
 41
3.0
 42
1.0
 43
10.0
 44
1.0
 73
     0
 74
     0
 77
     3
 78
     8
140
2.5
141
0.0
147
1.0
172
     1
173
     1
340
F
341
2E
343
2E
344
2E
  0
ENDTAB
  0
TABLE
  2
BLOCK_RECORD
  5
1
330
0
100
AcDbSymbolTable
 70
     1
  0
BLOCK_RECORD
  5
18
102
{ACAD_XDICTIONARY
360
3D82
102
}
330
1
100
AcDbSymbolTableRecord
100
AcDbBlockTableRecord
  2
*MODEL_SPACE
340
3DD6
  0
BLOCK_RECORD
  5
15
102
{ACAD_XDICTIONARY
360
3D80
102
}
330
1
100
AcDbSymbolTableRecord
100
AcDbBlockTableRecord
  2
*PAPER_SPACE
340
3DD7
  0
BLOCK_RECORD
  5
2E
330
1
100
AcDbSymbolTableRecord
100
AcDbBlockTableRecord
  2
_OPEN
340
0
  0
ENDTAB
  0
ENDSEC
  0
SECTION
  2
BLOCKS
  0
BLOCK
  5
19
330
18
100
AcDbEntity
  8
0
100
AcDbBlockBegin
  2
*MODEL_SPACE
 70
     0
 10
0.0
 20
0.0
 30
0.0
  3
*MODEL_SPACE
  1

  0
ENDBLK
  5
1A
330
18
100
AcDbEntity
  8
0
100
AcDbBlockEnd
  0
BLOCK
  5
16
330
15
100
AcDbEntity
 67
     1
  8
0
100
AcDbBlockBegin
  2
*PAPER_SPACE
 70
     0
 10
0.0
 20
0.0
 30
0.0
  3
*PAPER_SPACE
  1

  0
ENDBLK
  5
17
330
15
100
AcDbEntity
 67
     1
  8
0
100
AcDbBlockEnd
  0
BLOCK
  5
2F
330
2E
100
AcDbEntity
  8
0
100
AcDbBlockBegin
  2
_OPEN
 70
     0
 10
0.0
 20
0.0
 30
0.0
  3
_OPEN
  1

  0
LINE
  5
30
330
2E
100
AcDbEntity
  8
0
  6
ByBlock
 62
     0
100
AcDbLine
 10
-1.0
 20
0.1666666666666666
 30
0.0
 11
0.0
 21
0.0
 31
0.0
  0
LINE
  5
31
330
2E
100
AcDbEntity
  8
0
  6
ByBlock
 62
     0
100
AcDbLine
 10
0.0
 20
0.0
 30
0.0
 11
-1.0
 21
-0.1666666666666666
 31
0.0
  0
LINE
  5
32
330
2E
100
AcDbEntity
  8
0
  6
ByBlock
 62
     0
100
AcDbLine
 10
0.0
 20
0.0
 30
0.0
 11
-1.0
 21
0.0
 31
0.0
  0
ENDBLK
  5
33
330
2E
100
AcDbEntity
  8
0
100
AcDbBlockEnd
  0
ENDSEC
  0
SECTION
  2
ENTITIES
  0
TEXT
  5
63
330
18
100
AcDbEntity
  8
4
  6
CENTER
 48
0.25
100
AcDbText
 10
23.97950852663849
 20
10.0
 30
0.0
 40
1.399999999999999
  1
4
100
AcDbText
  0
TEXT
  5
64
330
18
100
AcDbEntity
  8
7
  6
Continuous
 48
0.25
100
AcDbText
 10
9.999997526638502
 20
26.0000007607689
 30
0.0
 40
3.0
  1
CODE No.11013
100
AcDbText
  0
TEXT
  5
65
330
18
100
AcDbEntity
  8
7
  6
Continuous
 48
0.25
100
AcDbText
 10
9.999997526638502
 20
18.00000076076889
 30
0.0
 40
3.0
  1
TYPE No.TL-355-2
100
AcDbText
  0
TEXT
  5
66
330
18
100
AcDbEntity
  8
1
  6
Continuous
 48
0.25
100
AcDbText
 10
9.999997526638502
 20
10.00000076076889
 30
0.0
 40
1.399999999999999
  1
LAYER
100
AcDbText
  0
TEXT
  5
67
330
18
100
AcDbEntity
  8
2
  6
Continuous
 48
0.25
100
AcDbText
 10
19.9795085266385
 20
10.0
 30
0.0
 40
1.399999999999999
  1
2
100
AcDbText
  0
TEXT
  5
68
330
18
100
AcDbEntity
  8
3
  6
DASHED
 48
0.25
100
AcDbText
 10
21.9795085266385
 20
10.0
 30
0.0
 40
1.399999999999999
  1
3
100
AcDbText
  0
TEXT
  5
69
330
18
100
AcDbEntity
  8
1
  6
Continuous
 48
0.25
100
AcDbText
 10
17.9795085266385
 20
10.0
 30
0.0
 40
1.399999999999999
  1
1
100
AcDbText
  0
TEXT
  5
6A
330
18
100
AcDbEntity
  8
5
  6
PHANTOM
 48
0.25
100
AcDbText
 10
25.9795085266385
 20
10.0
 30
0.0
 40
1.399999999999999
  1
5
100
AcDbText
  0
TEXT
  5
6B
330
18
100
AcDbEntity
  8
6
  6
Continuous
 48
0.25
100
AcDbText
 10
27.9795085266385
 20
10.0
 30
0.0
 40
1.399999999999999
  1
6
100
AcDbText
  0
TEXT
  5
6C
330
18
100
AcDbEntity
  8
7
  6
Continuous
 48
0.25
100
AcDbText
 10
29.9795085266385
 20
10.0
 30
0.0
 40
1.399999999999999
  1
7
100
AcDbText
  0
LINE
  5
880
330
18
100
AcDbEntity
  8
4
  6
CENTER
 48
0.2
100
AcDbLine
 10
75.94752414676475
 20
103.9858443636578
 30
0.0
 11
104.4475241467647
 21
103.9858443636578
 31
0.0
  0
LINE
  5
881
330
18
100
AcDbEntity
  8
4
  6
CENTER
 48
0.2
100
AcDbLine
 10
13.74291564131542
 20
103.9858443636578
 30
0.0
 11
34.74291564131542
 21
103.9858443636578
 31
0.0
  0
ARC
  5
8BA
330
18
100
AcDbEntity
  8
1
  6
Continuous
100
AcDbCircle
 10
87.19752414676475
 20
105.2358429331462
 30
0.0
 40
0.25
100
AcDbArc
 50
90.0
 51
270.0
  0
ARC
  5
8BB
330
18
100
AcDbEntity
  8
1
  6
Continuous
100
AcDbCircle
 10
87.19752414676475
 20
99.73584317156493
 30
0.0
 40
0.25
100
AcDbArc
 50
90.0
 51
270.0
  0
ARC
  5
8BC
330
18
100
AcDbEntity
  8
1
  6
Continuous
100
AcDbCircle
 10
79.44752414676475
 20
108.938901085593
 30
0.0
 40
1.0
100
AcDbArc
 50
93.12213039624102
 51
180.0
  0
ARC
  5
8BD
330
18
100
AcDbEntity
  8
1
  6
Continuous
100
AcDbCircle
 10
151.283389442853
 20
103.1858427424114
 30
0.0
 40
0.2000000029802322
100
AcDbArc
 50
179.9999913485769
 51
270.0000006832462
  0
ARC
  5
8BE
330
18
100
AcDbEntity
  8
1
  6
Continuous
100
AcDbCircle
 10
160.4833878216066
 20
104.1858413118999
 30
0.0
 40
0.2000000029802322
100
AcDbArc
 50
269.9999974955215
 51
0.0
  0
ARC
  5
8BF
330
18
100
AcDbEntity
  8
1
  6
Continuous
100
AcDbCircle
 10
160.4833878216066
 20
103.1858427424114
 30
0.0
 40
0.2000000029802322
100
AcDbArc
 50
269.9999974955215
 51
0.0
  0
ARC
  5
8C0
330
18
100
AcDbEntity
  8
1
  6
Continuous
100
AcDbCircle
 10
151.283389442853
 20
100.6858432192485
 30
0.0
 40
0.2000000029802322
100
AcDbArc
 50
179.9999913485769
 51
270.0000006832462
  0
ARC
  5
8C1
330
18
100
AcDbEntity
  8
1
  6
Continuous
100
AcDbCircle
 10
160.4833878216066
 20
100.6858432192485
 30
0.0
 40
0.2000000029802322
100
AcDbArc
 50
270.0000043257123
 51
0.0000050089553168
  0
ARC
  5
8C2
330
18
100
AcDbEntity
  8
1
  6
Continuous
100
AcDbCircle
 10
161.2833892044344
 20
108.6858413118999
 30
0.0
 40
0.2999999821186066
100
AcDbArc
 50
0.0000359721780749
 51
90.00001616485681
  0
ARC
  5
8C3
330
18
100
AcDbEntity
  8
1
  6
Continuous
100
AcDbCircle
 10
150.4833892521181
 20
108.6858413118999
 30
0.0
 40
0.2999999821186066
100
AcDbArc
 50
90.00001616485681
 51
180.0000050089569
  0
ARC
  5
8C4
330
18
100
AcDbEntity
  8
1
  6
Continuous
100
AcDbCircle
 10
150.4833892521181
 20
106.9858415026348
 30
0.0
 40
0.2999999821186066
100
AcDbArc
 50
179.9999913485769
 51
269.9999733624895
  0
ARC
  5
8C5
330
18
100
AcDbEntity
  8
1
  6
Continuous
100
AcDbCircle
 10
161.2833892044344
 20
106.9858415026348
 30
0.0
 40
0.2999999821186066
100
AcDbArc
 50
269.9999701747648
 51
0.0000223118013633
  0
ARC
  5
8C6
330
18
100
AcDbEntity
  8
1
  6
Continuous
100
AcDbCircle
 10
28.74291564131542
 20
106.3858430285137
 30
0.0
 40
0.4000000059604645
100
AcDbArc
 50
269.9999974955231
 51
90.00000250447683
  0
ARC
  5
8C7
330
18
100
AcDbEntity
  8
1
  6
Continuous
100
AcDbCircle
 10
19.74291564131542
 20
106.3858430285137
 30
0.0
 40
0.4000000059604645
100
AcDbArc
 50
90.00000250447683
 51
270.0000006832462
  0
ARC
  5
8C8
330
18
100
AcDbEntity
  8
1
  6
Continuous
100
AcDbCircle
 10
159.08338927596
 20
99.03584300467192
 30
0.0
 40
0.25
100
AcDbArc
 50
36.86989730957819
 51
143.1300974540931
  0
ARC
  5
8C9
330
18
100
AcDbEntity
  8
1
  6
Continuous
100
AcDbCircle
 10
152.6833890613833
 20
99.03584300467192
 30
0.0
 40
0.25
100
AcDbArc
 50
36.86989730957819
 51
143.1300974540931
  0
ARC
  5
8CA
330
18
100
AcDbEntity
  8
1
  6
Continuous
100
AcDbCircle
 10
161.8333893951693
 20
98.48584305235556
 30
0.0
 40
0.5
100
AcDbArc
 50
269.9999974955231
 51
0.0
  0
ARC
  5
8CB
330
18
100
AcDbEntity
  8
1
  6
Continuous
100
AcDbCircle
 10
149.9333890613833
 20
98.48584305235556
 30
0.0
 40
0.5
100
AcDbArc
 50
179.9999913485769
 51
270.0000006832462
  0
ARC
  5
8CC
330
18
100
AcDbEntity
  8
1
  6
Continuous
100
AcDbCircle
 10
161.8833893474855
 20
95.38584302851377
 30
0.0
 40
2.0
100
AcDbArc
 50
270.0000179860906
 51
0.0
  0
ARC
  5
8CD
330
18
100
AcDbEntity
  8
1
  6
Continuous
100
AcDbCircle
 10
149.8833893474856
 20
95.38584302851377
 30
0.0
 40
2.0
100
AcDbArc
 50
179.9999776881986
 51
270.0000280040029
  0
ARC
  5
8CE
330
18
100
AcDbEntity
  8
1
  6
Continuous
100
AcDbCircle
 10
161.8833893474855
 20
108.9858434099834
 30
0.0
 40
2.0
100
AcDbArc
 50
0.0
 51
89.99998201391097
  0
ARC
  5
8CF
330
18
100
AcDbEntity
  8
1
  6
Continuous
100
AcDbCircle
 10
149.8833893474856
 20
108.9858434099834
 30
0.0
 40
2.0
100
AcDbArc
 50
89.99998201391097
 51
179.9999640278202
  0
ARC
  5
8D0
330
18
100
AcDbEntity
  8
1
  6
Continuous
100
AcDbCircle
 10
161.8833893474855
 20
97.98584311196028
 30
0.0
 40
2.0
100
AcDbArc
 50
269.9999633445772
 51
0.0
  0
ARC
  5
8D1
330
18
100
AcDbEntity
  8
1
  6
Continuous
100
AcDbCircle
 10
161.8833893474855
 20
109.4858434099834
 30
0.0
 40
2.0
100
AcDbArc
 50
0.0
 51
89.99998201391097
  0
ARC
  5
8D2
330
18
100
AcDbEntity
  8
1
  6
Continuous
100
AcDbCircle
 10
149.8833893474856
 20
97.98584311196028
 30
0.0
 40
2.0
100
AcDbArc
 50
179.9999776881986
 51
270.0000280040029
  0
ARC
  5
8D3
330
18
100
AcDbEntity
  8
1
  6
Continuous
100
AcDbCircle
 10
149.8833893474856
 20
109.4858434099834
 30
0.0
 40
2.0
100
AcDbArc
 50
89.99998201391097
 51
179.9999640278202
  0
ARC
  5
8D4
330
18
100
AcDbEntity
  8
1
  6
Continuous
100
AcDbCircle
 10
18.24291564131542
 20
95.38584302851377
 30
0.0
 40
2.0
100
AcDbArc
 50
179.9999776881986
 51
270.0000280040029
  0
ARC
  5
8D5
330
18
100
AcDbEntity
  8
1
  6
Continuous
100
AcDbCircle
 10
30.24291564131542
 20
95.38584302851377
 30
0.0
 40
2.0
100
AcDbArc
 50
270.0000179860906
 51
0.0
  0
ARC
  5
8D6
330
18
100
AcDbEntity
  8
1
  6
Continuous
100
AcDbCircle
 10
19.74291564131542
 20
103.6858427424114
 30
0.0
 40
0.5
100
AcDbArc
 50
179.9999640278202
 51
269.9999460417312
  0
ARC
  5
8D7
330
18
100
AcDbEntity
  8
1
  6
Continuous
100
AcDbCircle
 10
19.74291564131542
 20
104.1858427424114
 30
0.0
 40
0.5
100
AcDbArc
 50
179.9999640278202
 51
269.9999460417312
  0
ARC
  5
8D8
330
18
100
AcDbEntity
  8
1
  6
Continuous
100
AcDbCircle
 10
19.74291564131542
 20
107.4858434099834
 30
0.0
 40
0.5
100
AcDbArc
 50
89.99998201391097
 51
179.9999640278202
  0
ARC
  5
8DB
330
18
100
AcDbEntity
  8
1
  6
Continuous
100
AcDbCircle
 10
19.44291258955757
 20
99.08584283777884
 30
0.0
 40
1.199999928474426
100
AcDbArc
 50
179.9999640278202
 51
269.9999460417328
  0
ARC
  5
8DC
330
18
100
AcDbEntity
  8
1
  6
Continuous
100
AcDbCircle
 10
19.44291258955757
 20
108.6858422655743
 30
0.0
 40
1.199999928474426
100
AcDbArc
 50
89.99998201391097
 51
179.9999640278202
  0
ARC
  5
8DD
330
18
100
AcDbEntity
  8
1
  6
Continuous
100
AcDbCircle
 10
18.24291564131542
 20
109.4858434099834
 30
0.0
 40
2.0
100
AcDbArc
 50
89.99998201391097
 51
179.9999640278202
  0
ARC
  5
8DE
330
18
100
AcDbEntity
  8
1
  6
Continuous
100
AcDbCircle
 10
28.74291564131542
 20
103.6858427424114
 30
0.0
 40
0.5
100
AcDbArc
 50
270.000017986089
 51
0.0
  0
ARC
  5
8DF
330
18
100
AcDbEntity
  8
1
  6
Continuous
100
AcDbCircle
 10
28.74291564131542
 20
104.1858427424114
 30
0.0
 40
0.5
100
AcDbArc
 50
270.000017986089
 51
0.0
  0
ARC
  5
8E0
330
18
100
AcDbEntity
  8
1
  6
Continuous
100
AcDbCircle
 10
28.74291564131542
 20
107.4858434099834
 30
0.0
 40
0.5
100
AcDbArc
 50
0.0
 51
89.99998201391097
  0
ARC
  5
8E3
330
18
100
AcDbEntity
  8
1
  6
Continuous
100
AcDbCircle
 10
29.04291869307323
 20
99.08584283777884
 30
0.0
 40
1.199999928474426
100
AcDbArc
 50
270.000017986089
 51
0.0
  0
ARC
  5
8E5
330
18
100
AcDbEntity
  8
1
  6
Continuous
100
AcDbCircle
 10
30.24291564131542
 20
109.4858434099834
 30
0.0
 40
2.0
100
AcDbArc
 50
0.0
 51
89.99998201391097
  0
ARC
  5
8E6
330
18
100
AcDbEntity
  8
1
  6
Continuous
100
AcDbCircle
 10
101.6475249097042
 20
96.28584234902081
 30
0.0
 40
0.2999999821186066
100
AcDbArc
 50
269.9999974955231
 51
0.0
  0
ARC
  5
8E7
330
18
100
AcDbEntity
  8
1
  6
Continuous
100
AcDbCircle
 10
101.6475249097042
 20
110.6858441729228
 30
0.0
 40
0.2999999821186066
100
AcDbArc
 50
0.0
 51
90.00000250447845
  0
ARC
  5
8E8
330
18
100
AcDbEntity
  8
1
  6
Continuous
100
AcDbCircle
 10
97.74752719852257
 20
95.4858443636578
 30
0.0
 40
0.5
100
AcDbArc
 50
89.99998201391097
 51
179.9999640278202
  0
ARC
  5
8E9
330
18
100
AcDbEntity
  8
1
  6
Continuous
100
AcDbCircle
 10
96.24752338382528
 20
94.38584326693229
 30
0.0
 40
1.0
100
AcDbArc
 50
270.0000179860906
 51
0.0
  0
ARC
  5
8EA
330
18
100
AcDbEntity
  8
1
  6
Continuous
100
AcDbCircle
 10
79.44752414676475
 20
98.84141992518118
 30
0.0
 40
1.0
100
AcDbArc
 50
179.9999776881986
 51
267.3974527226614
  0
ARC
  5
8EB
330
18
100
AcDbEntity
  8
1
  6
Continuous
100
AcDbCircle
 10
101.4475241467647
 20
154.8530520461883
 30
0.0
 40
0.5
100
AcDbArc
 50
270.000017986089
 51
0.0
  0
ARC
  5
8EC
330
18
100
AcDbEntity
  8
1
  6
Continuous
100
AcDbCircle
 10
101.4475241467647
 20
169.8530520461883
 30
0.0
 40
0.5
100
AcDbArc
 50
0.0
 51
89.99998201391097
  0
ARC
  5
8ED
330
18
100
AcDbEntity
  8
1
  6
Continuous
100
AcDbCircle
 10
79.44752414676475
 20
157.3129824661101
 30
0.0
 40
1.0
100
AcDbArc
 50
179.9999776881986
 51
267.6573550809586
  0
ARC
  5
8EE
330
18
100
AcDbEntity
  8
1
  6
Continuous
100
AcDbCircle
 10
79.44752414676475
 20
167.3931254409636
 30
0.0
 40
1.0
100
AcDbArc
 50
92.34264810676602
 51
179.9999640278202
  0
ARC
  5
8EF
330
18
100
AcDbEntity
  8
1
  6
Continuous
100
AcDbCircle
 10
95.94752414676477
 20
154.8530520461883
 30
0.0
 40
0.5
100
AcDbArc
 50
270.000017986089
 51
0.0
  0
ARC
  5
8F0
330
18
100
AcDbEntity
  8
1
  6
Continuous
100
AcDbCircle
 10
95.94752414676477
 20
169.8530520461883
 30
0.0
 40
0.5
100
AcDbArc
 50
0.0
 51
89.99998201391097
  0
LINE
  5
8F1
330
18
100
AcDbEntity
  8
1
  6
Continuous
100
AcDbLine
 10
91.94752414676477
 20
104.9858429331462
 30
0.0
 11
91.94752414676477
 21
99.98584317156492
 31
0.0
  0
LINE
  5
8F2
330
18
100
AcDbEntity
  8
1
  6
Continuous
100
AcDbLine
 10
87.19752414676475
 20
105.4858429331462
 30
0.0
 11
94.44752414676477
 21
105.4858429331462
 31
0.0
  0
LINE
  5
8F3
330
18
100
AcDbEntity
  8
1
  6
Continuous
100
AcDbLine
 10
87.19752414676475
 20
99.48584317156493
 30
0.0
 11
94.44752414676477
 21
99.48584317156493
 31
0.0
  0
LINE
  5
8F4
330
18
100
AcDbEntity
  8
4
  6
CENTER
 48
0.2
100
AcDbLine
 10
87.54752262088585
 20
112.8822056732449
 30
0.0
 11
87.54752262088585
 21
94.97220568636658
 31
0.0
  0
LINE
  5
8F6
330
18
100
AcDbEntity
  8
1
  6
Continuous
100
AcDbLine
 10
87.19752414676475
 20
104.9858429331462
 30
0.0
 11
91.94752414676477
 21
104.9858429331462
 31
0.0
  0
LINE
  5
8F7
330
18
100
AcDbEntity
  8
1
  6
Continuous
100
AcDbLine
 10
87.19752414676475
 20
99.98584317156492
 30
0.0
 11
91.94752414676477
 21
99.98584317156492
 31
0.0
  0
LINE
  5
8F8
330
18
100
AcDbEntity
  8
1
  6
Continuous
100
AcDbLine
 10
91.44754722934886
 20
104.9858429331462
 30
0.0
 11
91.44754722934886
 21
99.98584317156492
 31
0.0
  0
LINE
  5
8F9
330
18
100
AcDbEntity
  8
1
  6
Continuous
100
AcDbLine
 10
90.9475220859157
 20
104.9858429331462
 30
0.0
 11
90.9475220859157
 21
99.98584317156492
 31
0.0
  0
LINE
  5
8FA
330
18
100
AcDbEntity
  8
1
  6
Continuous
100
AcDbLine
 10
90.44752414676478
 20
104.9858429331462
 30
0.0
 11
90.44752414676478
 21
99.98584317156492
 31
0.0
  0
LINE
  5
8FB
330
18
100
AcDbEntity
  8
1
  6
Continuous
100
AcDbLine
 10
87.44757219121936
 20
104.9858429331462
 30
0.0
 11
87.44757219121936
 21
99.98584317156492
 31
0.0
  0
LINE
  5
8FC
330
18
100
AcDbEntity
  8
1
  6
Continuous
100
AcDbLine
 10
94.44752414676477
 20
154.3530520461883
 30
0.0
 11
94.44752414676477
 21
170.3530520461883
 31
0.0
  0
LINE
  5
8FD
330
18
100
AcDbEntity
  8
1
  6
Continuous
100
AcDbLine
 10
149.8833893474856
 20
93.38584302851378
 30
0.0
 11
161.8833893474855
 21
93.38584302851378
 31
0.0
  0
LINE
  5
8FE
330
18
100
AcDbEntity
  8
1
  6
Continuous
100
AcDbLine
 10
32.24291564131542
 20
109.4858434099834
 30
0.0
 11
32.24291564131542
 21
95.38584302851377
 31
0.0
  0
LINE
  5
8FF
330
18
100
AcDbEntity
  8
1
  6
Continuous
100
AcDbLine
 10
151.8833893474855
 20
99.28584288546257
 30
0.0
 11
159.8833893474855
 21
99.28584288546257
 31
0.0
  0
LINE
  5
900
330
18
100
AcDbEntity
  8
1
  6
Continuous
100
AcDbLine
 10
151.8833893474855
 20
101.6374003786725
 30
0.0
 11
159.8833893474855
 21
101.6374003786725
 31
0.0
  0
LINE
  5
901
330
18
100
AcDbEntity
  8
1
  6
Continuous
100
AcDbLine
 10
159.7203988966264
 20
101.9460699457806
 30
0.0
 11
158.5064074334421
 21
101.9460699457806
 31
0.0
  0
LINE
  5
902
330
18
100
AcDbEntity
  8
1
  6
Continuous
100
AcDbLine
 10
152.0463799175539
 20
101.9460699457806
 30
0.0
 11
153.2603715595522
 21
101.9460699457806
 31
0.0
  0
LINE
  5
903
330
18
100
AcDbEntity
  8
1
  6
Continuous
100
AcDbLine
 10
151.283389442853
 20
103.985841979472
 30
0.0
 11
160.4833878216066
 21
103.985841979472
 31
0.0
  0
LINE
  5
904
330
18
100
AcDbEntity
  8
1
  6
Continuous
100
AcDbLine
 10
151.0833896335878
 20
106.6858413118999
 30
0.0
 11
151.0833896335878
 21
100.6858432192485
 31
0.0
  0
LINE
  5
905
330
18
100
AcDbEntity
  8
1
  6
Continuous
100
AcDbLine
 10
160.6833878692904
 20
106.6858413118999
 30
0.0
 11
160.6833878692904
 21
100.6858432192485
 31
0.0
  0
LINE
  5
906
330
18
100
AcDbEntity
  8
1
  6
Continuous
100
AcDbLine
 10
160.4833878216066
 20
102.9858429331462
 30
0.0
 11
151.283389442853
 21
102.9858429331462
 31
0.0
  0
LINE
  5
907
330
18
100
AcDbEntity
  8
1
  6
Continuous
100
AcDbLine
 10
158.3833893474855
 20
102.9858429331462
 30
0.0
 11
158.3833893474855
 21
101.6952421564739
 31
0.0
  0
LINE
  5
908
330
18
100
AcDbEntity
  8
1
  6
Continuous
100
AcDbLine
 10
153.3833893474855
 20
102.9858429331462
 30
0.0
 11
153.3833893474855
 21
101.7224681276958
 31
0.0
  0
LINE
  5
909
330
18
100
AcDbEntity
  8
1
  6
Continuous
100
AcDbLine
 10
159.8833893474855
 20
102.505292167155
 30
0.0
 11
159.8833893474855
 21
99.28584288546257
 31
0.0
  0
LINE
  5
90A
330
18
100
AcDbEntity
  8
1
  6
Continuous
100
AcDbLine
 10
151.8833893474855
 20
102.505292167155
 30
0.0
 11
151.8833893474855
 21
99.28584288546257
 31
0.0
  0
LINE
  5
90B
330
18
100
AcDbEntity
  8
1
  6
Continuous
100
AcDbLine
 10
161.2833892044344
 20
108.9858415026348
 30
0.0
 11
150.4833892521181
 21
108.9858415026348
 31
0.0
  0
LINE
  5
90C
330
18
100
AcDbEntity
  8
1
  6
Continuous
100
AcDbLine
 10
151.0833896335878
 20
106.6858413118999
 30
0.0
 11
150.4833892521181
 21
106.6858413118999
 31
0.0
  0
LINE
  5
90D
330
18
100
AcDbEntity
  8
1
  6
Continuous
100
AcDbLine
 10
161.2833892044344
 20
106.6858413118999
 30
0.0
 11
160.6833878692904
 21
106.6858413118999
 31
0.0
  0
LINE
  5
90E
330
18
100
AcDbEntity
  8
1
  6
Continuous
100
AcDbLine
 10
161.5833908256808
 20
108.6858413118999
 30
0.0
 11
161.5833908256808
 21
106.9858415026348
 31
0.0
  0
LINE
  5
90F
330
18
100
AcDbEntity
  8
1
  6
Continuous
100
AcDbLine
 10
150.1833890613833
 20
108.6858413118999
 30
0.0
 11
150.1833890613833
 21
106.9858415026348
 31
0.0
  0
LINE
  5
910
330
18
100
AcDbEntity
  8
1
  6
Continuous
100
AcDbLine
 10
161.4358812507906
 20
108.9858434099834
 30
0.0
 11
161.6333893474855
 21
108.9858434099834
 31
0.0
  0
LINE
  5
911
330
18
100
AcDbEntity
  8
1
  6
Continuous
100
AcDbLine
 10
28.04291869307323
 20
105.9274451632183
 30
0.0
 11
28.04291869307323
 21
104.6858427424114
 31
0.0
  0
LINE
  5
912
330
18
100
AcDbEntity
  8
1
  6
Continuous
100
AcDbLine
 10
28.74291564131542
 20
106.7858436007182
 30
0.0
 11
25.80864287520211
 21
106.7858436007182
 31
0.0
  0
LINE
  5
913
330
18
100
AcDbEntity
  8
1
  6
Continuous
100
AcDbLine
 10
22.74291564131542
 20
106.7858436007182
 30
0.0
 11
25.74291564131542
 21
106.7858436007182
 31
0.0
  0
LINE
  5
914
330
18
100
AcDbEntity
  8
1
  6
Continuous
100
AcDbLine
 10
25.79192687178417
 20
105.9858434099834
 30
0.0
 11
28.74291564131542
 21
105.9858434099834
 31
0.0
  0
LINE
  5
915
330
18
100
AcDbEntity
  8
1
  6
Continuous
100
AcDbLine
 10
20.44291258955758
 20
105.8973510164897
 30
0.0
 11
20.44291258955758
 21
104.6858427424114
 31
0.0
  0
LINE
  5
916
330
18
100
AcDbEntity
  8
1
  6
Continuous
100
AcDbLine
 10
19.74291564131542
 20
105.9858434099834
 30
0.0
 11
22.67217589522167
 21
105.9858434099834
 31
0.0
  0
LINE
  5
917
330
18
100
AcDbEntity
  8
1
  6
Continuous
100
AcDbLine
 10
158.8616943296709
 20
99.18584321924857
 30
0.0
 11
152.8833893474855
 21
99.18584321924857
 31
0.0
  0
LINE
  5
918
330
18
100
AcDbEntity
  8
1
  6
Continuous
100
AcDbLine
 10
158.8833893474855
 20
99.18584321924857
 30
0.0
 11
158.8833893474855
 21
97.06887538285366
 31
0.0
  0
LINE
  5
919
330
18
100
AcDbEntity
  8
1
  6
Continuous
100
AcDbLine
 10
159.2833893236437
 20
99.18584321924857
 30
0.0
 11
159.2833893236437
 21
97.06887538285366
 31
0.0
  0
LINE
  5
91A
330
18
100
AcDbEntity
  8
1
  6
Continuous
100
AcDbLine
 10
152.4833892521181
 20
99.18584321924857
 30
0.0
 11
149.4333895382204
 21
99.18584321924857
 31
0.0
  0
LINE
  5
91B
330
18
100
AcDbEntity
  8
1
  6
Continuous
100
AcDbLine
 10
152.8833893474855
 20
99.18584321924857
 30
0.0
 11
152.8833893474855
 21
97.06887538285366
 31
0.0
  0
LINE
  5
91C
330
18
100
AcDbEntity
  8
1
  6
Continuous
100
AcDbLine
 10
152.4833892521181
 20
99.18584321924857
 30
0.0
 11
152.4833892521181
 21
97.06887538285366
 31
0.0
  0
LINE
  5
91D
330
18
100
AcDbEntity
  8
1
  6
Continuous
100
AcDbLine
 10
150.1333893474856
 20
108.9858434099834
 30
0.0
 11
150.3949903187075
 21
108.9858434099834
 31
0.0
  0
LINE
  5
91E
330
18
100
AcDbEntity
  8
1
  6
Continuous
100
AcDbLine
 10
162.1283906635561
 20
99.68584321924858
 30
0.0
 11
162.1283906635561
 21
99.18584321924857
 31
0.0
  0
LINE
  5
91F
330
18
100
AcDbEntity
  8
1
  6
Continuous
100
AcDbLine
 10
162.1283906635561
 20
105.4858434099834
 30
0.0
 11
162.1283906635561
 21
104.9858429331462
 31
0.0
  0
LINE
  5
920
330
18
100
AcDbEntity
  8
1
  6
Continuous
100
AcDbLine
 10
149.6383875545778
 20
99.68584321924858
 30
0.0
 11
149.6383875545778
 21
99.18584321924857
 31
0.0
  0
LINE
  5
921
330
18
100
AcDbEntity
  8
1
  6
Continuous
100
AcDbLine
 10
149.6383875545778
 20
105.4858434099834
 30
0.0
 11
149.6383875545778
 21
104.9858429331462
 31
0.0
  0
LINE
  5
922
330
18
100
AcDbEntity
  8
1
  6
Continuous
100
AcDbLine
 10
161.6333893474855
 20
108.9858434099834
 30
0.0
 11
161.6333893474855
 21
105.9858434099834
 31
0.0
  0
LINE
  5
923
330
18
100
AcDbEntity
  8
1
  6
Continuous
100
AcDbLine
 10
150.1333893474856
 20
108.9858434099834
 30
0.0
 11
150.1333893474856
 21
105.9858434099834
 31
0.0
  0
LINE
  5
924
330
18
100
AcDbEntity
  8
1
  6
Continuous
100
AcDbLine
 10
162.3333896335878
 20
105.4858434099834
 30
0.0
 11
162.3333896335878
 21
98.48584305235556
 31
0.0
  0
LINE
  5
925
330
18
100
AcDbEntity
  8
1
  6
Continuous
100
AcDbLine
 10
149.4333895382204
 20
105.4858434099834
 30
0.0
 11
149.4333895382204
 21
98.48584305235556
 31
0.0
  0
LINE
  5
926
330
18
100
AcDbEntity
  8
1
  6
Continuous
100
AcDbLine
 10
161.8333893951693
 20
97.98584311196028
 30
0.0
 11
160.8833893474855
 21
97.98584311196028
 31
0.0
  0
LINE
  5
927
330
18
100
AcDbEntity
  8
1
  6
Continuous
100
AcDbLine
 10
156.6833894190111
 20
109.9514024157207
 30
0.0
 11
156.6833894190111
 21
108.9858434099834
 31
0.0
  0
LINE
  5
928
330
18
100
AcDbEntity
  8
1
  6
Continuous
100
AcDbLine
 10
155.0833893951693
 20
109.9514024157207
 30
0.0
 11
155.0833893951693
 21
108.9858434099834
 31
0.0
  0
LINE
  5
929
330
18
100
AcDbEntity
  8
1
  6
Continuous
100
AcDbLine
 10
155.0833893951693
 20
109.4858434099834
 30
0.0
 11
156.6833894190111
 21
109.4858434099834
 31
0.0
  0
LINE
  5
92A
330
18
100
AcDbEntity
  8
1
  6
Continuous
100
AcDbLine
 10
162.3333896335878
 20
99.68584321924858
 30
0.0
 11
160.8833893474855
 21
99.68584321924858
 31
0.0
  0
LINE
  5
92B
330
18
100
AcDbEntity
  8
1
  6
Continuous
100
AcDbLine
 10
149.4333895382204
 20
99.68584321924858
 30
0.0
 11
150.8833893474855
 21
99.68584321924858
 31
0.0
  0
LINE
  5
92C
330
18
100
AcDbEntity
  8
1
  6
Continuous
100
AcDbLine
 10
162.3333896335878
 20
105.4858434099834
 30
0.0
 11
160.8833893474855
 21
105.4858434099834
 31
0.0
  0
LINE
  5
92D
330
18
100
AcDbEntity
  8
1
  6
Continuous
100
AcDbLine
 10
161.6333893474855
 20
105.9858434099834
 30
0.0
 11
160.8833893474855
 21
105.9858434099834
 31
0.0
  0
LINE
  5
92E
330
18
100
AcDbEntity
  8
1
  6
Continuous
100
AcDbLine
 10
149.4333895382204
 20
105.4858434099834
 30
0.0
 11
150.8833893474855
 21
105.4858434099834
 31
0.0
  0
LINE
  5
92F
330
18
100
AcDbEntity
  8
1
  6
Continuous
100
AcDbLine
 10
150.1333893474856
 20
105.9858434099834
 30
0.0
 11
150.8833893474855
 21
105.9858434099834
 31
0.0
  0
LINE
  5
930
330
18
100
AcDbEntity
  8
1
  6
Continuous
100
AcDbLine
 10
161.8833893474855
 20
110.9858434099834
 30
0.0
 11
149.8833893474856
 21
110.9858434099834
 31
0.0
  0
LINE
  5
931
330
18
100
AcDbEntity
  8
1
  6
Continuous
100
AcDbLine
 10
161.6333893474855
 20
106.5858428377788
 30
0.0
 11
160.8833893474855
 21
106.5858428377788
 31
0.0
  0
LINE
  5
932
330
18
100
AcDbEntity
  8
1
  6
Continuous
100
AcDbLine
 10
162.3333896335878
 20
104.9858429331462
 30
0.0
 11
160.8833893474855
 21
104.9858429331462
 31
0.0
  0
LINE
  5
933
330
18
100
AcDbEntity
  8
1
  6
Continuous
100
AcDbLine
 10
162.3333896335878
 20
99.18584321924857
 30
0.0
 11
159.2933014568605
 21
99.18584321924857
 31
0.0
  0
LINE
  5
934
330
18
100
AcDbEntity
  8
1
  6
Continuous
100
AcDbLine
 10
160.8833893474855
 20
106.5858428377788
 30
0.0
 11
160.8833893474855
 21
99.18584321924857
 31
0.0
  0
LINE
  5
935
330
18
100
AcDbEntity
  8
1
  6
Continuous
100
AcDbLine
 10
160.6272126373568
 20
99.98584317156492
 30
0.0
 11
159.942942970685
 21
99.98584317156492
 31
0.0
  0
LINE
  5
936
330
18
100
AcDbEntity
  8
1
  6
Continuous
100
AcDbLine
 10
160.8833893474855
 20
100.4858431715649
 30
0.0
 11
159.9157172378816
 21
100.4858431715649
 31
0.0
  0
LINE
  5
937
330
18
100
AcDbEntity
  8
1
  6
Continuous
100
AcDbLine
 10
160.8833893474855
 20
97.98584311196028
 30
0.0
 11
160.8833893474855
 21
96.78584297486953
 31
0.0
  0
LINE
  5
938
330
18
100
AcDbEntity
  8
1
  6
Continuous
100
AcDbLine
 10
163.8833893474855
 20
109.4858434099834
 30
0.0
 11
163.8833893474855
 21
95.38584302851377
 31
0.0
  0
LINE
  5
939
330
18
100
AcDbEntity
  8
1
  6
Continuous
100
AcDbLine
 10
150.1333893474856
 20
106.5858428377788
 30
0.0
 11
150.8833893474855
 21
106.5858428377788
 31
0.0
  0
LINE
  5
93A
330
18
100
AcDbEntity
  8
1
  6
Continuous
100
AcDbLine
 10
149.4333895382204
 20
104.9858429331462
 30
0.0
 11
150.8833893474855
 21
104.9858429331462
 31
0.0
  0
LINE
  5
93B
330
18
100
AcDbEntity
  8
1
  6
Continuous
100
AcDbLine
 10
150.8833893474855
 20
106.5652062792461
 30
0.0
 11
150.8833893474855
 21
99.18584321924857
 31
0.0
  0
LINE
  5
93C
330
18
100
AcDbEntity
  8
1
  6
Continuous
100
AcDbLine
 10
151.0557831463136
 20
99.98584317156492
 30
0.0
 11
151.7888072666444
 21
99.98584317156492
 31
0.0
  0
LINE
  5
93D
330
18
100
AcDbEntity
  8
1
  6
Continuous
100
AcDbLine
 10
150.8833893474855
 20
100.4858431715649
 30
0.0
 11
151.7888072666444
 21
100.4858431715649
 31
0.0
  0
LINE
  5
93E
330
18
100
AcDbEntity
  8
1
  6
Continuous
100
AcDbLine
 10
149.9333890613833
 20
97.98584311196028
 30
0.0
 11
150.8833893474855
 21
97.98584311196028
 31
0.0
  0
LINE
  5
93F
330
18
100
AcDbEntity
  8
1
  6
Continuous
100
AcDbLine
 10
150.8833893474855
 20
97.98584311196028
 30
0.0
 11
150.8833893474855
 21
96.78584297486953
 31
0.0
  0
LINE
  5
940
330
18
100
AcDbEntity
  8
1
  6
Continuous
100
AcDbLine
 10
150.8833893474855
 20
96.78584297486953
 30
0.0
 11
160.8833893474855
 21
96.78584297486953
 31
0.0
  0
LINE
  5
941
330
18
100
AcDbEntity
  8
1
  6
Continuous
100
AcDbLine
 10
147.8833893474856
 20
109.4858434099834
 30
0.0
 11
147.8833893474856
 21
95.38584302851377
 31
0.0
  0
LINE
  5
942
330
18
100
AcDbEntity
  8
1
  6
Continuous
100
AcDbLine
 10
149.8833893474856
 20
95.98584305235556
 30
0.0
 11
161.8833893474855
 21
95.98584305235556
 31
0.0
  0
LINE
  5
943
330
18
100
AcDbEntity
  8
1
  6
Continuous
100
AcDbLine
 10
149.8833893474856
 20
111.4858434099834
 30
0.0
 11
161.8833893474855
 21
111.4858434099834
 31
0.0
  0
LINE
  5
944
330
18
100
AcDbEntity
  8
4
  6
CENTER
 48
0.2
100
AcDbLine
 10
155.8833893474855
 20
113.9858434099834
 30
0.0
 11
155.8833893474855
 21
90.88584302851378
 31
0.0
  0
LINE
  5
945
330
18
100
AcDbEntity
  8
1
  6
Continuous
100
AcDbLine
 10
27.74291564131542
 20
105.9858434099834
 30
0.0
 11
28.04291869307323
 21
105.9858434099834
 31
0.0
  0
LINE
  5
946
330
18
100
AcDbEntity
  8
1
  6
Continuous
100
AcDbLine
 10
27.74291564131542
 20
107.9210250277202
 30
0.0
 11
27.74291564131542
 21
106.8603608507793
 31
0.0
  0
LINE
  5
947
330
18
100
AcDbEntity
  8
1
  6
Continuous
100
AcDbLine
 10
20.74291564131542
 20
105.9858434099834
 30
0.0
 11
20.44291258955758
 21
105.9858434099834
 31
0.0
  0
LINE
  5
948
330
18
100
AcDbEntity
  8
1
  6
Continuous
100
AcDbLine
 10
20.74291564131542
 20
107.9210250277202
 30
0.0
 11
20.74291564131542
 21
106.8503301043194
 31
0.0
  0
LINE
  5
949
330
18
100
AcDbEntity
  8
1
  6
Continuous
100
AcDbLine
 10
25.74291564131542
 20
108.7858436007183
 30
0.0
 11
25.74291564131542
 21
106.7858436007182
 31
0.0
  0
LINE
  5
94A
330
18
100
AcDbEntity
  8
1
  6
Continuous
100
AcDbLine
 10
26.24291564131542
 20
105.9456603426617
 30
0.0
 11
25.82000304365917
 21
105.9456603426617
 31
0.0
  0
LINE
  5
94B
330
18
100
AcDbEntity
  8
1
  6
Continuous
100
AcDbLine
 10
25.74291564131542
 20
106.5858428377788
 30
0.0
 11
25.74291564131542
 21
105.5675856966655
 31
0.0
  0
LINE
  5
94C
330
18
100
AcDbEntity
  8
1
  6
Continuous
100
AcDbLine
 10
25.54291869307323
 20
105.4103143114726
 30
0.0
 11
25.54291869307323
 21
103.1858427424114
 31
0.0
  0
LINE
  5
94D
330
18
100
AcDbEntity
  8
1
  6
Continuous
100
AcDbLine
 10
25.74291589258232
 20
104.6858411299865
 30
0.0
 11
25.54291483426846
 21
105.1858453726634
 31
0.0
  0
LINE
  5
94E
330
18
100
AcDbEntity
  8
1
  6
Continuous
100
AcDbLine
 10
25.74291564131542
 20
104.6858427424114
 30
0.0
 11
28.04291869307323
 21
104.6858427424114
 31
0.0
  0
LINE
  5
94F
330
18
100
AcDbEntity
  8
1
  6
Continuous
100
AcDbLine
 10
28.04291869307323
 20
107.9067666430157
 30
0.0
 11
28.04291869307323
 21
106.840298404185
 31
0.0
  0
LINE
  5
950
330
18
100
AcDbEntity
  8
1
  6
Continuous
100
AcDbLine
 10
27.88772154951852
 20
105.1858451265972
 30
0.0
 11
25.74777556563182
 21
105.1858451265972
 31
0.0
  0
LINE
  5
951
330
18
100
AcDbEntity
  8
1
  6
Continuous
100
AcDbLine
 10
27.93868590498727
 20
105.8401992220561
 30
0.0
 11
25.84408141279976
 21
105.8401992220561
 31
0.0
  0
LINE
  5
952
330
18
100
AcDbEntity
  8
1
  6
Continuous
100
AcDbLine
 10
27.66158629561227
 20
107.4191748995464
 30
0.0
 11
26.37353087569042
 21
107.4191748995464
 31
0.0
  0
LINE
  5
953
330
18
100
AcDbEntity
  8
1
  6
Continuous
100
AcDbLine
 10
26.24291564131542
 20
107.8925101656597
 30
0.0
 11
26.24291564131542
 21
106.8703925509136
 31
0.0
  0
LINE
  5
954
330
18
100
AcDbEntity
  8
1
  6
Continuous
100
AcDbLine
 10
26.24291564131542
 20
108.7858436007183
 30
0.0
 11
26.24291564131542
 21
107.9858434099834
 31
0.0
  0
LINE
  5
955
330
18
100
AcDbEntity
  8
1
  6
Continuous
100
AcDbLine
 10
22.74291885965951
 20
104.6858433619126
 30
0.0
 11
22.94291920960358
 21
105.1858458336599
 31
0.0
  0
LINE
  5
956
330
18
100
AcDbEntity
  8
1
  6
Continuous
100
AcDbLine
 10
22.24291564131541
 20
105.9456603426617
 30
0.0
 11
22.66582823897167
 21
105.9456603426617
 31
0.0
  0
LINE
  5
957
330
18
100
AcDbEntity
  8
1
  6
Continuous
100
AcDbLine
 10
20.53085662031929
 20
105.1858451265972
 30
0.0
 11
22.73806334639351
 21
105.1858451265972
 31
0.0
  0
LINE
  5
958
330
18
100
AcDbEntity
  8
1
  6
Continuous
100
AcDbLine
 10
22.24291564131541
 20
107.8436362642925
 30
0.0
 11
22.24291564131541
 21
106.840298404185
 31
0.0
  0
LINE
  5
959
330
18
100
AcDbEntity
  8
1
  6
Continuous
100
AcDbLine
 10
20.54714537764351
 20
105.8401992220561
 30
0.0
 11
22.64175749922554
 21
105.8401992220561
 31
0.0
  0
LINE
  5
95A
330
18
100
AcDbEntity
  8
1
  6
Continuous
100
AcDbLine
 10
22.24291564131541
 20
108.7858436007183
 30
0.0
 11
26.24291564131542
 21
108.7858436007183
 31
0.0
  0
LINE
  5
95B
330
18
100
AcDbEntity
  8
1
  6
Continuous
100
AcDbLine
 10
20.82506896162791
 20
107.4191748995464
 30
0.0
 11
22.05766631270205
 21
107.4191748995464
 31
0.0
  0
LINE
  5
95C
330
18
100
AcDbEntity
  8
1
  6
Continuous
100
AcDbLine
 10
22.74291564131542
 20
106.5858428377788
 30
0.0
 11
22.74291564131542
 21
105.5675856966655
 31
0.0
  0
LINE
  5
95D
330
18
100
AcDbEntity
  8
1
  6
Continuous
100
AcDbLine
 10
22.74291564131542
 20
106.5858428377788
 30
0.0
 11
25.74291564131542
 21
106.5858428377788
 31
0.0
  0
LINE
  5
95E
330
18
100
AcDbEntity
  8
1
  6
Continuous
100
AcDbLine
 10
19.74291564131542
 20
106.7858436007182
 30
0.0
 11
22.6771960368232
 21
106.7858436007182
 31
0.0
  0
LINE
  5
95F
330
18
100
AcDbEntity
  8
1
  6
Continuous
100
AcDbLine
 10
30.69591857100292
 20
104.9858429331462
 30
0.0
 11
31.74291564131542
 21
104.9858429331462
 31
0.0
  0
LINE
  5
960
330
18
100
AcDbEntity
  8
1
  6
Continuous
100
AcDbLine
 10
31.74291564131542
 20
104.9858429331462
 30
0.0
 11
31.74291564131542
 21
99.98584317156492
 31
0.0
  0
LINE
  5
961
330
18
100
AcDbEntity
  8
1
  6
Continuous
100
AcDbLine
 10
30.69591857100292
 20
99.98584317156492
 30
0.0
 11
31.74291564131542
 21
99.98584317156492
 31
0.0
  0
LINE
  5
962
330
18
100
AcDbEntity
  8
1
  6
Continuous
100
AcDbLine
 10
16.74291564131542
 20
104.9858429331462
 30
0.0
 11
16.74291564131542
 21
99.98584317156492
 31
0.0
  0
LINE
  5
963
330
18
100
AcDbEntity
  8
1
  6
Continuous
100
AcDbLine
 10
25.74291564131542
 20
104.6858427424114
 30
0.0
 11
25.74291564131542
 21
103.6858427424114
 31
0.0
  0
LINE
  5
964
330
18
100
AcDbEntity
  8
1
  6
Continuous
100
AcDbLine
 10
25.74291807276637
 20
103.6858452270793
 30
0.0
 11
25.54291717493842
 21
103.185842974485
 31
0.0
  0
LINE
  5
965
330
18
100
AcDbEntity
  8
1
  6
Continuous
100
AcDbLine
 10
22.74291172099822
 20
103.6858424339927
 30
0.0
 11
22.94291191045459
 21
103.1858419523271
 31
0.0
  0
LINE
  5
966
330
18
100
AcDbEntity
  8
1
  6
Continuous
100
AcDbLine
 10
22.74291564131542
 20
104.6858427424114
 30
0.0
 11
22.74291564131542
 21
103.6858427424114
 31
0.0
  0
LINE
  5
967
330
18
100
AcDbEntity
  8
1
  6
Continuous
100
AcDbLine
 10
18.24291564131542
 20
93.38584302851378
 30
0.0
 11
30.24291564131542
 21
93.38584302851378
 31
0.0
  0
LINE
  5
968
330
18
100
AcDbEntity
  8
1
  6
Continuous
100
AcDbLine
 10
17.78992034102242
 20
99.98584317156492
 30
0.0
 11
16.74291564131542
 21
99.98584317156492
 31
0.0
  0
LINE
  5
969
330
18
100
AcDbEntity
  8
1
  6
Continuous
100
AcDbLine
 10
17.78992034102242
 20
104.9858429331462
 30
0.0
 11
16.74291564131542
 21
104.9858429331462
 31
0.0
  0
LINE
  5
96A
330
18
100
AcDbEntity
  8
1
  6
Continuous
100
AcDbLine
 10
29.49291564131545
 20
110.4858434099834
 30
0.0
 11
18.99291564131542
 21
110.4858434099834
 31
0.0
  0
LINE
  5
96B
330
18
100
AcDbEntity
  8
1
  6
Continuous
100
AcDbLine
 10
22.94291258955758
 20
103.1858427424114
 30
0.0
 11
19.74291564131542
 21
103.1858427424114
 31
0.0
  0
LINE
  5
96C
330
18
100
AcDbEntity
  8
1
  6
Continuous
100
AcDbLine
 10
22.74291564131542
 20
103.6858427424114
 30
0.0
 11
19.74291564131542
 21
103.6858427424114
 31
0.0
  0
LINE
  5
96D
330
18
100
AcDbEntity
  8
1
  6
Continuous
100
AcDbLine
 10
22.74291564131542
 20
104.6858427424114
 30
0.0
 11
20.44291258955758
 21
104.6858427424114
 31
0.0
  0
LINE
  5
96E
330
18
100
AcDbEntity
  8
1
  6
Continuous
100
AcDbLine
 10
22.94291258955758
 20
105.4103143114726
 30
0.0
 11
22.94291258955758
 21
103.1858427424114
 31
0.0
  0
LINE
  5
96F
330
18
100
AcDbEntity
  8
1
  6
Continuous
100
AcDbLine
 10
19.24291564131542
 20
107.4858434099834
 30
0.0
 11
19.24291564131542
 21
103.6858427424114
 31
0.0
  0
LINE
  5
970
330
18
100
AcDbEntity
  8
1
  6
Continuous
100
AcDbLine
 10
20.44291258955758
 20
107.9210250277202
 30
0.0
 11
20.44291258955758
 21
106.8503301043194
 31
0.0
  0
LINE
  5
971
330
18
100
AcDbEntity
  8
1
  6
Continuous
100
AcDbLine
 10
22.24291564131541
 20
107.9858434099834
 30
0.0
 11
19.74291564131542
 21
107.9858434099834
 31
0.0
  0
LINE
  5
972
330
18
100
AcDbEntity
  8
1
  6
Continuous
100
AcDbLine
 10
22.24291564131541
 20
108.7858436007183
 30
0.0
 11
22.24291564131541
 21
107.9858434099834
 31
0.0
  0
LINE
  5
973
330
18
100
AcDbEntity
  8
1
  6
Continuous
100
AcDbLine
 10
22.74291564131542
 20
108.7858436007183
 30
0.0
 11
22.74291564131542
 21
106.7858436007182
 31
0.0
  0
LINE
  5
975
330
18
100
AcDbEntity
  8
1
  6
Continuous
100
AcDbLine
 10
29.04391937178309
 20
97.88584332653693
 30
0.0
 11
19.44291258955757
 21
97.88584332653693
 31
0.0
  0
LINE
  5
976
330
18
100
AcDbEntity
  8
1
  6
Continuous
100
AcDbLine
 10
29.04291564131543
 20
109.8858430285136
 30
0.0
 11
19.44291258955757
 21
109.8858430285137
 31
0.0
  0
LINE
  5
977
330
18
100
AcDbEntity
  8
1
  6
Continuous
100
AcDbLine
 10
18.24291564131542
 20
108.6858422655743
 30
0.0
 11
18.24291564131542
 21
99.08584283777884
 31
0.0
  0
LINE
  5
978
330
18
100
AcDbEntity
  8
1
  6
Continuous
100
AcDbLine
 10
16.24291564131542
 20
109.4858434099834
 30
0.0
 11
16.24291564131542
 21
95.38584302851377
 31
0.0
  0
LINE
  5
979
330
18
100
AcDbEntity
  8
1
  6
Continuous
100
AcDbLine
 10
18.24291564131542
 20
111.4858434099834
 30
0.0
 11
30.24291564131542
 21
111.4858434099834
 31
0.0
  0
LINE
  5
97B
330
18
100
AcDbEntity
  8
1
  6
Continuous
100
AcDbLine
 10
18.99291564131542
 20
97.38584335633923
 30
0.0
 11
29.49291564131542
 21
97.3858433563393
 31
0.0
  0
LINE
  5
97C
330
18
100
AcDbEntity
  8
1
  6
Continuous
100
AcDbLine
 10
25.54291869307323
 20
103.1858427424114
 30
0.0
 11
28.74291564131542
 21
103.1858427424114
 31
0.0
  0
LINE
  5
97D
330
18
100
AcDbEntity
  8
1
  6
Continuous
100
AcDbLine
 10
25.74291564131542
 20
103.6858427424114
 30
0.0
 11
28.74291564131542
 21
103.6858427424114
 31
0.0
  0
LINE
  5
97E
330
18
100
AcDbEntity
  8
1
  6
Continuous
100
AcDbLine
 10
29.24291564131542
 20
107.4858434099834
 30
0.0
 11
29.24291564131542
 21
103.6858427424114
 31
0.0
  0
LINE
  5
97F
330
18
100
AcDbEntity
  8
1
  6
Continuous
100
AcDbLine
 10
26.24291564131542
 20
107.9858434099834
 30
0.0
 11
28.74291564131542
 21
107.9858434099834
 31
0.0
  0
LINE
  5
983
330
18
100
AcDbEntity
  8
1
  6
Continuous
100
AcDbLine
 10
30.24291564131542
 20
108.6858430285137
 30
0.0
 11
30.24291564131542
 21
99.08584283777884
 31
0.0
  0
LINE
  5
984
330
18
100
AcDbEntity
  8
4
  6
CENTER
 48
0.2
100
AcDbLine
 10
24.24291564131542
 20
113.9858434099834
 30
0.0
 11
24.24291564131542
 21
90.88584302851371
 31
0.0
  0
LINE
  5
98A
330
18
100
AcDbEntity
  8
1
  6
Continuous
100
AcDbLine
 10
78.44752414676475
 20
108.938901085593
 30
0.0
 11
78.44752414676475
 21
98.84141992518118
 31
0.0
  0
LINE
  5
98B
330
18
100
AcDbEntity
  8
1
  6
Continuous
100
AcDbLine
 10
97.24752719852256
 20
97.98584311196028
 30
0.0
 11
97.24752719852256
 21
94.38584326693229
 31
0.0
  0
LINE
  5
98C
330
18
100
AcDbEntity
  8
1
  6
Continuous
100
AcDbLine
 10
94.44752414676477
 20
93.38584326693228
 30
0.0
 11
96.24752338382528
 21
93.38584326693228
 31
0.0
  0
LINE
  5
98D
330
18
100
AcDbEntity
  8
1
  6
Continuous
100
AcDbLine
 10
96.44752414676474
 20
110.9858434099834
 30
0.0
 11
101.6475249097042
 21
110.9858434099834
 31
0.0
  0
LINE
  5
98E
330
18
100
AcDbEntity
  8
1
  6
Continuous
100
AcDbLine
 10
79.40212432473156
 20
97.84245105794171
 30
0.0
 11
89.44752688651552
 21
97.38584185739894
 31
0.0
  0
LINE
  5
98F
330
18
100
AcDbEntity
  8
1
  6
Continuous
100
AcDbLine
 10
94.44752414676477
 20
111.4858434099834
 30
0.0
 11
94.44752414676477
 21
93.38584326693228
 31
0.0
  0
LINE
  5
990
330
18
100
AcDbEntity
  8
1
  6
Continuous
100
AcDbLine
 10
89.44752658769278
 20
110.4858422510615
 30
0.0
 11
79.39305965475302
 21
109.9374167935865
 31
0.0
  0
LINE
  5
991
330
18
100
AcDbEntity
  8
1
  6
Continuous
100
AcDbLine
 10
89.44752414676475
 20
110.4858434099834
 30
0.0
 11
94.44752414676477
 21
110.4858434099834
 31
0.0
  0
LINE
  5
992
330
18
100
AcDbEntity
  8
1
  6
Continuous
100
AcDbLine
 10
96.44752414676474
 20
111.4858434099834
 30
0.0
 11
96.44752414676474
 21
108.9858434099834
 31
0.0
  0
LINE
  5
993
330
18
100
AcDbEntity
  8
1
  6
Continuous
100
AcDbLine
 10
89.44752414676475
 20
97.3858433563393
 30
0.0
 11
94.44752414676477
 21
97.3858433563393
 31
0.0
  0
LINE
  5
994
330
18
100
AcDbEntity
  8
1
  6
Continuous
100
AcDbLine
 10
94.44752414676477
 20
111.4858434099834
 30
0.0
 11
96.44752414676474
 21
111.4858434099834
 31
0.0
  0
LINE
  5
995
330
18
100
AcDbEntity
  8
1
  6
Continuous
100
AcDbLine
 10
97.74752719852257
 20
95.98584436365781
 30
0.0
 11
101.6475249097042
 21
95.98584436365781
 31
0.0
  0
LINE
  5
996
330
18
100
AcDbEntity
  8
1
  6
Continuous
100
AcDbLine
 10
101.9475241467647
 20
110.6858441729228
 30
0.0
 11
101.9475241467647
 21
96.28584234902081
 31
0.0
  0
LINE
  5
997
330
18
100
AcDbEntity
  8
1
  6
Continuous
100
AcDbLine
 10
90.44752414676478
 20
169.8530520461883
 30
0.0
 11
90.94752414676477
 21
169.8530520461883
 31
0.0
  0
LINE
  5
998
330
18
100
AcDbEntity
  8
1
  6
Continuous
100
AcDbLine
 10
90.94752609324393
 20
169.8530496800315
 30
0.0
 11
91.44755041661017
 21
168.8030515259859
 31
0.0
  0
LINE
  5
999
330
18
100
AcDbEntity
  8
1
  6
Continuous
100
AcDbLine
 10
90.44752614342263
 20
169.8530498372276
 30
0.0
 11
87.44757385942838
 21
168.7212617617684
 31
0.0
  0
LINE
  5
99A
330
18
100
AcDbEntity
  8
1
  6
Continuous
100
AcDbLine
 10
90.44752982892829
 20
154.8530500818569
 30
0.0
 11
87.44757219121931
 21
155.984840177105
 31
0.0
  0
LINE
  5
99B
330
18
100
AcDbEntity
  8
1
  6
Continuous
100
AcDbLine
 10
90.9475220859157
 20
154.8530548685412
 30
0.0
 11
91.44754722934893
 21
155.9030547446406
 31
0.0
  0
LINE
  5
99C
330
18
100
AcDbEntity
  8
1
  6
Continuous
100
AcDbLine
 10
90.44752414676478
 20
154.8530520461883
 30
0.0
 11
90.94752414676477
 21
154.8530520461883
 31
0.0
  0
LINE
  5
9A1
330
18
100
AcDbEntity
  8
1
  6
Continuous
100
AcDbLine
 10
91.44752033206748
 20
161.6530512832488
 30
0.0
 11
94.44752414676477
 21
161.6530512832488
 31
0.0
  0
LINE
  5
9A2
330
18
100
AcDbEntity
  8
1
  6
Continuous
100
AcDbLine
 10
91.44752033206748
 20
163.0530528091277
 30
0.0
 11
94.44752414676477
 21
163.0530528091277
 31
0.0
  0
LINE
  5
9A3
330
18
100
AcDbEntity
  8
1
  6
Continuous
100
AcDbLine
 10
91.44752033206748
 20
163.0530528091277
 30
0.0
 11
91.44752033206748
 21
161.6530512832488
 31
0.0
  0
LINE
  5
9A6
330
18
100
AcDbEntity
  8
1
  6
Continuous
100
AcDbLine
 10
78.44752414676475
 20
167.3931254409636
 30
0.0
 11
78.44752414676475
 21
157.3129824661101
 31
0.0
  0
LINE
  5
9A7
330
18
100
AcDbEntity
  8
1
  6
Continuous
100
AcDbLine
 10
79.40665067238454
 20
168.3922424075416
 30
0.0
 11
89.42426043641097
 21
168.8020537500244
 31
0.0
  0
LINE
  5
9A8
330
18
100
AcDbEntity
  8
1
  6
Continuous
100
AcDbLine
 10
79.40665593320966
 20
156.3137864528006
 30
0.0
 11
89.44722318383037
 21
155.9030359403341
 31
0.0
  0
LINE
  5
9A9
330
18
100
AcDbEntity
  8
1
  6
Continuous
100
AcDbLine
 10
89.44752414676475
 20
155.9030512832488
 30
0.0
 11
94.44752414676477
 21
155.9030512832488
 31
0.0
  0
LINE
  5
9AA
330
18
100
AcDbEntity
  8
1
  6
Continuous
100
AcDbLine
 10
89.44752414676475
 20
160.5530528091277
 30
0.0
 11
89.44752414676475
 21
156.9030512832488
 31
0.0
  0
LINE
  5
9AB
330
18
100
AcDbEntity
  8
1
  6
Continuous
100
AcDbLine
 10
82.44752414676474
 20
163.1530512832488
 30
0.0
 11
82.44752414676474
 21
161.5530528091277
 31
0.0
  0
LINE
  5
9AC
330
18
100
AcDbEntity
  8
1
  6
Continuous
100
AcDbLine
 10
82.44752033206749
 20
161.5530528091277
 30
0.0
 11
94.44752414676477
 21
161.5530528091277
 31
0.0
  0
LINE
  5
9AD
330
18
100
AcDbEntity
  8
1
  6
Continuous
100
AcDbLine
 10
82.44752033206749
 20
163.1530512832488
 30
0.0
 11
94.44752414676477
 21
163.1530512832488
 31
0.0
  0
LINE
  5
9AE
330
18
100
AcDbEntity
  8
1
  6
Continuous
100
AcDbLine
 10
89.44752414676475
 20
167.8030566238249
 30
0.0
 11
89.44752414676475
 21
164.1530512832488
 31
0.0
  0
LINE
  5
9AF
330
18
100
AcDbEntity
  8
1
  6
Continuous
100
AcDbLine
 10
89.47331032291037
 20
168.8030566238249
 30
0.0
 11
94.44752414676477
 21
168.8030566238249
 31
0.0
  0
LINE
  5
9B0
330
18
100
AcDbEntity
  8
1
  6
Continuous
100
AcDbLine
 10
94.44752414676477
 20
154.3530520461883
 30
0.0
 11
101.4475241467647
 21
154.3530520461883
 31
0.0
  0
LINE
  5
9B1
330
18
100
AcDbEntity
  8
1
  6
Continuous
100
AcDbLine
 10
94.44752414676477
 20
170.3530520461883
 30
0.0
 11
101.4475241467647
 21
170.3530520461883
 31
0.0
  0
LINE
  5
9B2
330
18
100
AcDbEntity
  8
1
  6
Continuous
100
AcDbLine
 10
96.44752414676474
 20
169.8530520461883
 30
0.0
 11
96.44752414676474
 21
154.8530520461883
 31
0.0
  0
LINE
  5
9B3
330
18
100
AcDbEntity
  8
1
  6
Continuous
100
AcDbLine
 10
101.9475241467647
 20
169.8530520461883
 30
0.0
 11
101.9475241467647
 21
154.8530520461883
 31
0.0
  0
LINE
  5
9B4
330
18
100
AcDbEntity
  8
4
  6
CENTER
 48
0.2
100
AcDbLine
 10
75.94752414676475
 20
162.3530520461883
 30
0.0
 11
104.4475241467647
 21
162.3530520461882
 31
0.0
  0
LINE
  5
B0E
330
18
100
AcDbEntity
  8
4
  6
CENTER
 48
0.2
100
AcDbLine
 10
145.3833893474856
 20
103.9858443636578
 30
0.0
 11
166.3833893474855
 21
103.9858443636578
 31
0.0
  0
ARC
  5
B0F
330
18
100
AcDbEntity
  8
1
  6
Continuous
100
AcDbCircle
 10
29.04291564131543
 20
108.6858430285137
 30
0.0
 40
1.199999999999999
100
AcDbArc
 50
0.0
 51
90.0
  0
ARC
  5
B17
330
18
100
AcDbEntity
  8
1
  6
Continuous
100
AcDbCircle
 10
159.1545325712785
 20
97.06887538285366
 30
0.0
 40
0.2711432237929756
100
AcDbArc
 50
180.0
 51
220.0415489208978
  0
ARC
  5
B18
330
18
100
AcDbEntity
  8
1
  6
Continuous
100
AcDbCircle
 10
159.0833893355646
 20
97.00909115149947
 30
0.0
 40
0.1782157558060931
100
AcDbArc
 50
220.0415489208927
 51
319.9584510791032
  0
ARC
  5
B19
330
18
100
AcDbEntity
  8
1
  6
Continuous
100
AcDbCircle
 10
159.0122460998507
 20
97.06887538285366
 30
0.0
 40
0.2711432237929756
100
AcDbArc
 50
319.9584510791022
 51
0.0
  0
ARC
  5
B1A
330
18
100
AcDbEntity
  8
1
  6
Continuous
100
AcDbCircle
 10
152.7545325951203
 20
97.06887538285366
 30
0.0
 40
0.2711432237929756
100
AcDbArc
 50
180.0
 51
220.0415489208978
  0
ARC
  5
B1B
330
18
100
AcDbEntity
  8
1
  6
Continuous
100
AcDbCircle
 10
152.6833893594064
 20
97.00909115149947
 30
0.0
 40
0.1782157558060931
100
AcDbArc
 50
220.0415489208927
 51
319.9584510791032
  0
ARC
  5
B1C
330
18
100
AcDbEntity
  8
1
  6
Continuous
100
AcDbCircle
 10
152.6122461236926
 20
97.06887538285366
 30
0.0
 40
0.2711432237929756
100
AcDbArc
 50
319.9584510791022
 51
0.0
  0
ARC
  5
1A9F
330
18
100
AcDbEntity
  8
1
  6
Continuous
100
AcDbCircle
 10
101.8475256726436
 20
104.9851786184781
 30
0.0
 40
1.0
100
AcDbArc
 50
275.7390826104139
 51
0.0
  0
ARC
  5
1AA0
330
18
100
AcDbEntity
  8
1
  6
Continuous
100
AcDbCircle
 10
102.5475264355831
 20
106.9851786184781
 30
0.0
 40
0.2999999821186066
100
AcDbArc
 50
270.000017986089
 51
0.0
  0
ARC
  5
1AA1
330
18
100
AcDbEntity
  8
1
  6
Continuous
100
AcDbCircle
 10
102.5475264355831
 20
108.6851755667203
 30
0.0
 40
0.2999999821186066
100
AcDbArc
 50
0.0
 51
89.99998201391097
  0
LINE
  5
1AA4
330
18
100
AcDbEntity
  8
1
  6
Continuous
100
AcDbLine
 10
101.9475241467647
 20
106.6851786363595
 30
0.0
 11
102.5475264355831
 21
106.6851786363595
 31
0.0
  0
LINE
  5
1AA5
330
18
100
AcDbEntity
  8
1
  6
Continuous
100
AcDbLine
 10
101.9475241467647
 20
108.9851786184782
 30
0.0
 11
102.5475264355831
 21
108.9851786184782
 31
0.0
  0
LINE
  5
1AA6
330
18
100
AcDbEntity
  8
1
  6
Continuous
100
AcDbLine
 10
102.8475256726436
 20
108.6851755667203
 30
0.0
 11
102.8475256726436
 21
104.9851786184781
 31
0.0
  0
LINE
  5
1AAA
330
18
100
AcDbEntity
  8
1
  6
Continuous
100
AcDbLine
 10
102.8475256726435
 20
156.9530520461882
 30
0.0
 11
102.8475256726436
 21
167.7530520461882
 31
0.0
  0
LINE
  5
1AAB
330
18
100
AcDbEntity
  8
1
  6
Continuous
100
AcDbLine
 10
101.9475241467647
 20
168.0530520461882
 30
0.0
 11
102.5475256726436
 21
168.0530520461882
 31
0.0
  0
LINE
  5
1AAC
330
18
100
AcDbEntity
  8
1
  6
Continuous
100
AcDbLine
 10
101.9475241467647
 20
156.6530520461883
 30
0.0
 11
102.5475256726435
 21
156.6530520461881
 31
0.0
  0
ARC
  5
1AAD
330
18
100
AcDbEntity
  8
1
  6
Continuous
100
AcDbCircle
 10
102.5475256726436
 20
167.7530520461882
 30
0.0
 40
0.3
100
AcDbArc
 50
0.0
 51
90.0
  0
ARC
  5
1AAE
330
18
100
AcDbEntity
  8
1
  6
Continuous
100
AcDbCircle
 10
102.5475256726435
 20
156.9530520461882
 30
0.0
 40
0.3
100
AcDbArc
 50
269.9999999999986
 51
0.0
  0
LINE
  5
1AAF
330
18
100
AcDbEntity
  8
1
  6
Continuous
100
AcDbLine
 10
89.44752414676475
 20
163.1530512832488
 30
0.0
 11
89.44752414676475
 21
161.5530528091277
 31
0.0
  0
LINE
  5
1B74
330
18
100
AcDbEntity
  8
1
  6
Continuous
100
AcDbLine
 10
17.79291564131543
 20
109.2858434099835
 30
0.0
 11
17.79291564131543
 21
98.58584335633922
 31
0.0
  0
LINE
  5
1B75
330
18
100
AcDbEntity
  8
1
  6
Continuous
100
AcDbLine
 10
30.69291564131543
 20
109.2858434099834
 30
0.0
 11
30.69291564131541
 21
98.58584335633928
 31
0.0
  0
ARC
  5
1B76
330
18
100
AcDbEntity
  8
1
  6
Continuous
100
AcDbCircle
 10
18.99291564131542
 20
109.2858434099835
 30
0.0
 40
1.199999999999999
100
AcDbArc
 50
90.0
 51
180.0
  0
ARC
  5
1B77
330
18
100
AcDbEntity
  8
1
  6
Continuous
100
AcDbCircle
 10
29.49291564131545
 20
109.2858434099834
 30
0.0
 40
1.199999999999999
100
AcDbArc
 50
0.0
 51
89.99999999999969
  0
ARC
  5
1B78
330
18
100
AcDbEntity
  8
1
  6
Continuous
100
AcDbCircle
 10
29.49291564131542
 20
98.58584335633928
 30
0.0
 40
1.199999999999999
100
AcDbArc
 50
270.0
 51
359.9999999999998
  0
ARC
  5
1B79
330
18
100
AcDbEntity
  8
1
  6
Continuous
100
AcDbCircle
 10
18.99291564131542
 20
98.58584335633922
 30
0.0
 40
1.199999999999999
100
AcDbArc
 50
180.0
 51
270.0
  0
ARC
  5
1C12
330
18
100
AcDbEntity
  8
1
  6
Continuous
100
AcDbCircle
 10
89.47331032291037
 20
167.603056623825
 30
0.0
 40
1.199999999999999
100
AcDbArc
 50
90.0
 51
92.342612200376
  0
LINE
  5
1C85
330
18
100
AcDbEntity
  8
4
  6
CENTER
 48
0.2
100
AcDbLine
 10
224.2192560740852
 20
112.8822056732449
 30
0.0
 11
224.2192560740852
 21
94.97220568636658
 31
0.0
  0
ARC
  5
1C89
330
18
100
AcDbEntity
  8
1
  6
Continuous
100
AcDbCircle
 10
209.2192522593879
 20
108.6851755667203
 30
0.0
 40
0.2999999821186066
100
AcDbArc
 50
90.00001798608904
 51
180.0
  0
LINE
  5
1C8A
330
18
100
AcDbEntity
  8
1
  6
Continuous
100
AcDbLine
 10
209.8192545482063
 20
110.6858441729228
 30
0.0
 11
209.8192545482063
 21
96.28584234902081
 31
0.0
  0
LINE
  5
1C8B
330
18
100
AcDbEntity
  8
1
  6
Continuous
100
AcDbLine
 10
217.3192545482063
 20
111.4858434099834
 30
0.0
 11
217.3192545482063
 21
93.38584326693228
 31
0.0
  0
LINE
  5
1C8C
330
18
100
AcDbEntity
  8
1
  6
Continuous
100
AcDbLine
 10
233.3192545482063
 20
108.938901085593
 30
0.0
 11
233.3192545482063
 21
98.84141992518118
 31
0.0
  0
LINE
  5
1C8D
330
18
100
AcDbEntity
  8
4
  6
CENTER
 48
0.2
100
AcDbLine
 10
235.8192545482063
 20
103.9858443636578
 30
0.0
 11
207.3192545482063
 21
103.9858443636578
 31
0.0
  0
LINE
  5
1C8E
330
18
100
AcDbEntity
  8
1
  6
Continuous
100
AcDbLine
 10
224.5692545482063
 20
104.9858429331462
 30
0.0
 11
219.8192545482063
 21
104.9858429331462
 31
0.0
  0
LINE
  5
1C8F
330
18
100
AcDbEntity
  8
1
  6
Continuous
100
AcDbLine
 10
224.5692545482063
 20
105.4858429331462
 30
0.0
 11
217.3192545482063
 21
105.4858429331462
 31
0.0
  0
LINE
  5
1C90
330
18
100
AcDbEntity
  8
1
  6
Continuous
100
AcDbLine
 10
224.5692545482063
 20
99.98584317156492
 30
0.0
 11
219.8192545482063
 21
99.98584317156492
 31
0.0
  0
LINE
  5
1C91
330
18
100
AcDbEntity
  8
1
  6
Continuous
100
AcDbLine
 10
224.5692545482063
 20
99.48584317156493
 30
0.0
 11
217.3192545482063
 21
99.48584317156493
 31
0.0
  0
LINE
  5
1C92
330
18
100
AcDbEntity
  8
1
  6
Continuous
100
AcDbLine
 10
222.3192545482063
 20
97.3858433563393
 30
0.0
 11
217.3192545482063
 21
97.3858433563393
 31
0.0
  0
LINE
  5
1C93
330
18
100
AcDbEntity
  8
1
  6
Continuous
100
AcDbLine
 10
232.3646543702395
 20
97.84245105794171
 30
0.0
 11
222.3192518084555
 21
97.38584185739894
 31
0.0
  0
ARC
  5
1C94
330
18
100
AcDbEntity
  8
1
  6
Continuous
100
AcDbCircle
 10
232.3192545482063
 20
98.84141992518118
 30
0.0
 40
1.0
100
AcDbArc
 50
272.6025472773385
 51
0.0000223118013703
  0
ARC
  5
1C95
330
18
100
AcDbEntity
  8
1
  6
Continuous
100
AcDbCircle
 10
224.5692545482063
 20
105.2358429331462
 30
0.0
 40
0.25
100
AcDbArc
 50
270.0
 51
90.0
  0
ARC
  5
1C96
330
18
100
AcDbEntity
  8
1
  6
Continuous
100
AcDbCircle
 10
224.5692545482063
 20
99.73584317156493
 30
0.0
 40
0.25
100
AcDbArc
 50
270.0
 51
90.0
  0
LINE
  5
1C97
330
18
100
AcDbEntity
  8
1
  6
Continuous
100
AcDbLine
 10
220.8192566090553
 20
104.9858429331462
 30
0.0
 11
220.8192566090553
 21
99.98584317156492
 31
0.0
  0
LINE
  5
1C98
330
18
100
AcDbEntity
  8
1
  6
Continuous
100
AcDbLine
 10
221.3192545482063
 20
104.9858429331462
 30
0.0
 11
221.3192545482063
 21
99.98584317156492
 31
0.0
  0
LINE
  5
1C99
330
18
100
AcDbEntity
  8
1
  6
Continuous
100
AcDbLine
 10
224.3192065037517
 20
104.9858429331462
 30
0.0
 11
224.3192065037517
 21
99.98584317156492
 31
0.0
  0
LINE
  5
1C9B
330
18
100
AcDbEntity
  8
1
  6
Continuous
100
AcDbLine
 10
214.5192514964485
 20
97.98584311196028
 30
0.0
 11
214.5192514964485
 21
94.38584326693229
 31
0.0
  0
LINE
  5
1C9C
330
18
100
AcDbEntity
  8
1
  6
Continuous
100
AcDbLine
 10
214.0192514964485
 20
95.98584436365781
 30
0.0
 11
210.1192537852668
 21
95.98584436365781
 31
0.0
  0
LINE
  5
1C9D
330
18
100
AcDbEntity
  8
1
  6
Continuous
100
AcDbLine
 10
217.3192545482063
 20
93.38584326693228
 30
0.0
 11
215.5192553111457
 21
93.38584326693228
 31
0.0
  0
ARC
  5
1C9E
330
18
100
AcDbEntity
  8
1
  6
Continuous
100
AcDbCircle
 10
215.5192553111457
 20
94.38584326693229
 30
0.0
 40
1.0
100
AcDbArc
 50
180.0
 51
269.9999820139093
  0
ARC
  5
1C9F
330
18
100
AcDbEntity
  8
1
  6
Continuous
100
AcDbCircle
 10
214.0192514964485
 20
95.4858443636578
 30
0.0
 40
0.5
100
AcDbArc
 50
0.0000359721797103
 51
90.00001798608904
  0
ARC
  5
1CA0
330
18
100
AcDbEntity
  8
1
  6
Continuous
100
AcDbCircle
 10
210.1192537852668
 20
96.28584234902081
 30
0.0
 40
0.2999999821186066
100
AcDbArc
 50
180.0
 51
270.0000025044768
  0
LINE
  5
1CA1
330
18
100
AcDbEntity
  8
1
  6
Continuous
100
AcDbLine
 10
219.8192545482063
 20
104.9858429331462
 30
0.0
 11
219.8192545482063
 21
99.98584317156492
 31
0.0
  0
LINE
  5
1CA2
330
18
100
AcDbEntity
  8
1
  6
Continuous
100
AcDbLine
 10
220.3192314656222
 20
104.9858429331462
 30
0.0
 11
220.3192314656222
 21
99.98584317156492
 31
0.0
  0
ARC
  5
1CA3
330
18
100
AcDbEntity
  8
1
  6
Continuous
100
AcDbCircle
 10
209.9192530223274
 20
104.9851786184781
 30
0.0
 40
1.0
100
AcDbArc
 50
180.0
 51
264.260917389586
  0
ARC
  5
1CA4
330
18
100
AcDbEntity
  8
1
  6
Continuous
100
AcDbCircle
 10
209.2192522593879
 20
106.9851786184781
 30
0.0
 40
0.2999999821186066
100
AcDbArc
 50
180.0
 51
269.9999820139109
  0
LINE
  5
1CA5
330
18
100
AcDbEntity
  8
1
  6
Continuous
100
AcDbLine
 10
209.8192545482063
 20
106.6851786363595
 30
0.0
 11
209.2192522593879
 21
106.6851786363595
 31
0.0
  0
LINE
  5
1CA6
330
18
100
AcDbEntity
  8
1
  6
Continuous
100
AcDbLine
 10
208.9192530223274
 20
108.6851755667203
 30
0.0
 11
208.9192530223274
 21
104.9851786184781
 31
0.0
  0
LINE
  5
1CA9
330
18
100
AcDbEntity
  8
1
  6
Continuous
100
AcDbLine
 10
222.3192545482063
 20
110.4858434099834
 30
0.0
 11
217.3192545482063
 21
110.4858434099834
 31
0.0
  0
LINE
  5
1CAA
330
18
100
AcDbEntity
  8
1
  6
Continuous
100
AcDbLine
 10
222.3192521072783
 20
110.4858422510615
 30
0.0
 11
232.373719040218
 21
109.9374167935865
 31
0.0
  0
ARC
  5
1CAB
330
18
100
AcDbEntity
  8
1
  6
Continuous
100
AcDbCircle
 10
232.3192545482063
 20
108.938901085593
 30
0.0
 40
1.0
100
AcDbArc
 50
0.000000000000007
 51
86.877869603759
  0
LINE
  5
1CAC
330
18
100
AcDbEntity
  8
1
  6
Continuous
100
AcDbLine
 10
215.3192545482063
 20
110.9858434099834
 30
0.0
 11
210.1192537852668
 21
110.9858434099834
 31
0.0
  0
LINE
  5
1CAD
330
18
100
AcDbEntity
  8
1
  6
Continuous
100
AcDbLine
 10
215.3192545482063
 20
111.4858434099834
 30
0.0
 11
215.3192545482063
 21
108.9858434099834
 31
0.0
  0
LINE
  5
1CAE
330
18
100
AcDbEntity
  8
1
  6
Continuous
100
AcDbLine
 10
217.3192545482063
 20
111.4858434099834
 30
0.0
 11
215.3192545482063
 21
111.4858434099834
 31
0.0
  0
LINE
  5
1CAF
330
18
100
AcDbEntity
  8
1
  6
Continuous
100
AcDbLine
 10
209.8192545482063
 20
108.9851786184782
 30
0.0
 11
209.2192522593879
 21
108.9851786184782
 31
0.0
  0
ARC
  5
1CB0
330
18
100
AcDbEntity
  8
1
  6
Continuous
100
AcDbCircle
 10
210.1192537852668
 20
110.6858441729228
 30
0.0
 40
0.2999999821186066
100
AcDbArc
 50
89.99999749552157
 51
180.0
  0
LINE
  5
1D37
330
18
100
AcDbEntity
  8
1
  6
Continuous
100
AcDbLine
 10
89.47331032291037
 20
39.16863210349061
 30
0.0
 11
94.44752414676477
 21
39.16863210349061
 31
0.0
  0
LINE
  5
1D3A
330
18
100
AcDbEntity
  8
4
  6
CENTER
 48
0.2
100
AcDbLine
 10
75.94752414676475
 20
45.61863668112727
 30
0.0
 11
104.4475241467647
 21
45.61863668112732
 31
0.0
  0
LINE
  5
1D3B
330
18
100
AcDbEntity
  8
1
  6
Continuous
100
AcDbLine
 10
90.94752609324393
 20
38.11863904728409
 30
0.0
 11
91.44755041661017
 21
39.16863720132965
 31
0.0
  0
LINE
  5
1D3C
330
18
100
AcDbEntity
  8
1
  6
Continuous
100
AcDbLine
 10
90.9475220859157
 20
53.1186338587744
 30
0.0
 11
91.44754722934893
 21
52.068633982675
 31
0.0
  0
LINE
  5
1D3F
330
18
100
AcDbEntity
  8
1
  6
Continuous
100
AcDbLine
 10
89.44752414676475
 20
52.06863744406678
 30
0.0
 11
94.44752414676477
 21
52.06863744406678
 31
0.0
  0
LINE
  5
1D42
330
18
100
AcDbEntity
  8
1
  6
Continuous
100
AcDbLine
 10
78.44752414676475
 20
40.57856328635192
 30
0.0
 11
78.44752414676475
 21
50.65870626120545
 31
0.0
  0
LINE
  5
1D43
330
18
100
AcDbEntity
  8
1
  6
Continuous
100
AcDbLine
 10
89.44752414676475
 20
40.1686321034906
 30
0.0
 11
89.44752414676475
 21
51.0686374440668
 31
0.0
  0
LINE
  5
1D44
330
18
100
AcDbEntity
  8
1
  6
Continuous
100
AcDbLine
 10
79.40665593320966
 20
51.65790227451492
 30
0.0
 11
89.44722318383037
 21
52.06865278698149
 31
0.0
  0
ARC
  5
1D46
330
18
100
AcDbEntity
  8
1
  6
Continuous
100
AcDbCircle
 10
79.44752414676475
 20
50.65870626120545
 30
0.0
 40
1.0
100
AcDbArc
 50
92.34264491904136
 51
180.0000223118013
  0
LINE
  5
1D49
330
18
100
AcDbEntity
  8
1
  6
Continuous
100
AcDbLine
 10
90.44752982892829
 20
53.11863864545864
 30
0.0
 11
87.44757219121931
 21
51.98684855021054
 31
0.0
  0
LINE
  5
1D4A
330
18
100
AcDbEntity
  8
1
  6
Continuous
100
AcDbLine
 10
90.44752414676478
 20
53.11863668112727
 30
0.0
 11
90.94752414676477
 21
53.11863668112727
 31
0.0
  0
LINE
  5
1D4B
330
18
100
AcDbEntity
  8
1
  6
Continuous
100
AcDbLine
 10
79.40665067238454
 20
39.57944631977392
 30
0.0
 11
89.42426043641097
 21
39.16963497729119
 31
0.0
  0
ARC
  5
1D4C
330
18
100
AcDbEntity
  8
1
  6
Continuous
100
AcDbCircle
 10
79.44752414676475
 20
40.57856328635192
 30
0.0
 40
1.0
100
AcDbArc
 50
180.0000359721797
 51
267.6573518932339
  0
ARC
  5
1D4D
330
18
100
AcDbEntity
  8
1
  6
Continuous
100
AcDbCircle
 10
89.47331032291037
 20
40.3686321034906
 30
0.0
 40
1.199999999999999
100
AcDbArc
 50
267.657387799624
 51
270.0
  0
LINE
  5
1D4E
330
18
100
AcDbEntity
  8
1
  6
Continuous
100
AcDbLine
 10
90.44752614342263
 20
38.118638890088
 30
0.0
 11
87.44757385942838
 21
39.25042696554715
 31
0.0
  0
LINE
  5
1D4F
330
18
100
AcDbEntity
  8
1
  6
Continuous
100
AcDbLine
 10
90.44752414676478
 20
38.11863668112727
 30
0.0
 11
90.94752414676477
 21
38.11863668112727
 31
0.0
  0
ARC
  5
1D51
330
18
100
AcDbEntity
  8
1
  6
Continuous
100
AcDbCircle
 10
101.4475241467647
 20
53.11863668112727
 30
0.0
 40
0.5
100
AcDbArc
 50
0.0
 51
89.99998201391099
  0
ARC
  5
1D52
330
18
100
AcDbEntity
  8
1
  6
Continuous
100
AcDbCircle
 10
96.74752719852257
 20
53.1186366811273
 30
0.0
 40
0.5
100
AcDbArc
 50
0.0
 51
89.99998201391099
  0
LINE
  5
1D53
330
18
100
AcDbEntity
  8
1
  6
Continuous
100
AcDbLine
 10
94.44752414676477
 20
53.61863668112727
 30
0.0
 11
94.44752414676477
 21
37.61863668112727
 31
0.0
  0
LINE
  5
1D54
330
18
100
AcDbEntity
  8
1
  6
Continuous
100
AcDbLine
 10
94.44752414676477
 20
53.61863668112727
 30
0.0
 11
101.4475241467647
 21
53.61863668112727
 31
0.0
  0
LINE
  5
1D56
330
18
100
AcDbEntity
  8
1
  6
Continuous
100
AcDbLine
 10
102.8475256726435
 20
51.01863668112731
 30
0.0
 11
102.8475256726436
 21
40.21863668112735
 31
0.0
  0
LINE
  5
1D57
330
18
100
AcDbEntity
  8
1
  6
Continuous
100
AcDbLine
 10
97.24752719852256
 20
38.1186366811273
 30
0.0
 11
97.24752719852256
 21
53.1186366811273
 31
0.0
  0
LINE
  5
1D58
330
18
100
AcDbEntity
  8
1
  6
Continuous
100
AcDbLine
 10
101.9475241467647
 20
38.11863668112727
 30
0.0
 11
101.9475241467647
 21
53.11863668112727
 31
0.0
  0
LINE
  5
1D5C
330
18
100
AcDbEntity
  8
1
  6
Continuous
100
AcDbLine
 10
101.9475241467647
 20
51.31863668112726
 30
0.0
 11
102.5475256726435
 21
51.31863668112732
 31
0.0
  0
ARC
  5
1D5D
330
18
100
AcDbEntity
  8
1
  6
Continuous
100
AcDbCircle
 10
102.5475256726435
 20
51.01863668112731
 30
0.0
 40
0.3
100
AcDbArc
 50
0.0
 51
90.00000000000133
  0
LINE
  5
1D5E
330
18
100
AcDbEntity
  8
1
  6
Continuous
100
AcDbLine
 10
94.44752414676477
 20
37.61863668112727
 30
0.0
 11
101.4475241467647
 21
37.61863668112727
 31
0.0
  0
ARC
  5
1D5F
330
18
100
AcDbEntity
  8
1
  6
Continuous
100
AcDbCircle
 10
96.74752719852257
 20
38.1186366811273
 30
0.0
 40
0.5
100
AcDbArc
 50
270.000017986089
 51
0.0
  0
LINE
  5
1D60
330
18
100
AcDbEntity
  8
1
  6
Continuous
100
AcDbLine
 10
101.9475241467647
 20
39.91863668112733
 30
0.0
 11
102.5475256726436
 21
39.91863668112733
 31
0.0
  0
ARC
  5
1D61
330
18
100
AcDbEntity
  8
1
  6
Continuous
100
AcDbCircle
 10
102.5475256726436
 20
40.21863668112735
 30
0.0
 40
0.3
100
AcDbArc
 50
270.0
 51
0.0
  0
ARC
  5
1D62
330
18
100
AcDbEntity
  8
1
  6
Continuous
100
AcDbCircle
 10
101.4475241467647
 20
38.11863668112727
 30
0.0
 40
0.5
100
AcDbArc
 50
270.000017986089
 51
0.0
  0
LINE
  5
1DE7
330
18
100
AcDbEntity
  8
1
  6
Continuous
100
AcDbLine
 10
101.9475241467646
 20
50.41863668112728
 30
0.0
 11
102.8475256726435
 21
50.41863668112731
 31
0.0
  0
LINE
  5
1DE8
330
18
100
AcDbEntity
  8
1
  6
Continuous
100
AcDbLine
 10
101.9475241467647
 20
40.81863668112731
 30
0.0
 11
102.8475256726435
 21
40.81863668112731
 31
0.0
  0
LINE
  5
2F11
330
18
100
AcDbEntity
  8
4
  6
CENTER
 48
0.2
100
AcDbLine
 10
368.0799507899075
 20
156.1596628908571
 30
0.0
 11
339.5799507899075
 21
156.1596628908571
 31
0.0
  0
LINE
  5
2F1E
330
18
100
AcDbEntity
  8
4
  6
CENTER
 48
0.2
100
AcDbLine
 10
297.7685067919217
 20
95.98584436365781
 30
0.0
 11
297.7685067919216
 21
111.9858443636578
 31
0.0
  0
LINE
  5
2F1F
330
18
100
AcDbEntity
  8
4
  6
CENTER
 48
0.2
100
AcDbLine
 10
306.2685067919216
 20
103.9858443636577
 30
0.0
 11
289.2685067919216
 21
103.9858443636578
 31
0.0
  0
LINE
  5
2F29
330
18
100
AcDbEntity
  8
4
  6
CENTER
 48
0.2
100
AcDbLine
 10
421.1517215463316
 20
103.9858443636578
 30
0.0
 11
404.1517215463316
 21
103.9858443636578
 31
0.0
  0
LINE
  5
2F2A
330
18
100
AcDbEntity
  8
4
  6
CENTER
 48
0.2
100
AcDbLine
 10
412.6517215463316
 20
95.98584436365781
 30
0.0
 11
412.6517215463316
 21
111.9858443636577
 31
0.0
  0
LINE
  5
2F3F
330
18
100
AcDbEntity
  8
1
  6
Continuous
100
AcDbLine
 10
301.1706247919217
 20
100.8641503636578
 30
0.0
 11
300.2685067919217
 21
101.5858453636578
 31
0.0
  0
LINE
  5
2F40
330
18
100
AcDbEntity
  8
1
  6
Continuous
100
AcDbLine
 10
295.2685057919217
 20
101.5858453636577
 30
0.0
 11
294.3663887919216
 21
100.8641503636577
 31
0.0
  0
LINE
  5
2F41
330
18
100
AcDbEntity
  8
1
  6
Continuous
100
AcDbLine
 10
294.3563747919217
 20
103.8979763636578
 30
0.0
 11
295.2685067919217
 21
102.9858443636577
 31
0.0
  0
LINE
  5
2F42
330
18
100
AcDbEntity
  8
1
  6
Continuous
100
AcDbLine
 10
301.1806387919216
 20
103.8979763636578
 30
0.0
 11
300.2685067919216
 21
102.9858443636578
 31
0.0
  0
ARC
  5
2F43
330
18
100
AcDbEntity
  8
1
  6
Continuous
100
AcDbCircle
 10
299.9685067919216
 20
101.8858453636578
 30
0.0
 40
0.3
100
AcDbArc
 50
270.0
 51
0.000000000000007
  0
LINE
  5
2F44
330
18
100
AcDbEntity
  8
1
  6
Continuous
100
AcDbLine
 10
299.9685067919216
 20
101.5858453636578
 30
0.0
 11
295.5685067919217
 21
101.5858453636578
 31
0.0
  0
LINE
  5
2F45
330
18
100
AcDbEntity
  8
1
  6
Continuous
100
AcDbLine
 10
300.2685067919216
 20
102.6858443636578
 30
0.0
 11
300.2685067919216
 21
101.8858453636578
 31
0.0
  0
ARC
  5
2F46
330
18
100
AcDbEntity
  8
1
  6
Continuous
100
AcDbCircle
 10
299.9685067919216
 20
102.6858443636578
 30
0.0
 40
0.3
100
AcDbArc
 50
0.000000000000007
 51
90.0
  0
LINE
  5
2F47
330
18
100
AcDbEntity
  8
1
  6
Continuous
100
AcDbLine
 10
295.5685067919217
 20
102.9858443636578
 30
0.0
 11
299.9685067919216
 21
102.9858443636578
 31
0.0
  0
ARC
  5
2F48
330
18
100
AcDbEntity
  8
1
  6
Continuous
100
AcDbCircle
 10
295.5685067919217
 20
101.8858453636578
 30
0.0
 40
0.3
100
AcDbArc
 50
180.0
 51
270.0
  0
LINE
  5
2F49
330
18
100
AcDbEntity
  8
1
  6
Continuous
100
AcDbLine
 10
295.2685067919216
 20
101.8858453636578
 30
0.0
 11
295.2685067919216
 21
102.6858443636578
 31
0.0
  0
ARC
  5
2F4A
330
18
100
AcDbEntity
  8
1
  6
Continuous
100
AcDbCircle
 10
295.5685067919217
 20
102.6858443636578
 30
0.0
 40
0.3
100
AcDbArc
 50
90.0
 51
180.0
  0
ARC
  5
2F4B
330
18
100
AcDbEntity
  8
1
  6
Continuous
100
AcDbCircle
 10
294.5685067919217
 20
101.0858443636578
 30
0.0
 40
0.3
100
AcDbArc
 50
180.0
 51
270.0
  0
LINE
  5
2F4C
330
18
100
AcDbEntity
  8
1
  6
Continuous
100
AcDbLine
 10
294.5685067919217
 20
100.7858443636578
 30
0.0
 11
300.9685067919217
 21
100.7858443636578
 31
0.0
  0
ARC
  5
2F4D
330
18
100
AcDbEntity
  8
1
  6
Continuous
100
AcDbCircle
 10
300.9685067919217
 20
101.0858443636578
 30
0.0
 40
0.3
100
AcDbArc
 50
270.0
 51
0.000000000000007
  0
ARC
  5
2F4E
330
18
100
AcDbEntity
  8
1
  6
Continuous
100
AcDbCircle
 10
300.9685067919217
 20
103.6858443636578
 30
0.0
 40
0.3
100
AcDbArc
 50
0.000000000000007
 51
90.0
  0
LINE
  5
2F4F
330
18
100
AcDbEntity
  8
1
  6
Continuous
100
AcDbLine
 10
294.5685067919217
 20
103.9858443636578
 30
0.0
 11
300.9685067919217
 21
103.9858443636578
 31
0.0
  0
LINE
  5
2F50
330
18
100
AcDbEntity
  8
1
  6
Continuous
100
AcDbLine
 10
301.2685067919216
 20
99.28584436365781
 30
0.0
 11
301.2685067919216
 21
103.6858443636578
 31
0.0
  0
ARC
  5
2F51
330
18
100
AcDbEntity
  8
1
  6
Continuous
100
AcDbCircle
 10
294.5685067919217
 20
103.6858443636578
 30
0.0
 40
0.3
100
AcDbArc
 50
90.0
 51
180.0
  0
LINE
  5
2F52
330
18
100
AcDbEntity
  8
1
  6
Continuous
100
AcDbLine
 10
294.2685067919216
 20
99.28584436365783
 30
0.0
 11
294.2685067919216
 21
103.6858443636578
 31
0.0
  0
LINE
  5
2F53
330
18
100
AcDbEntity
  8
1
  6
Continuous
100
AcDbLine
 10
295.7685067919216
 20
105.7358443636578
 30
0.0
 11
291.7685067919216
 21
105.7358443636578
 31
0.0
  0
LINE
  5
2F54
330
18
100
AcDbEntity
  8
1
  6
Continuous
100
AcDbLine
 10
299.7685067919216
 20
105.7358443636578
 30
0.0
 11
303.7685067919216
 21
105.7358443636578
 31
0.0
  0
LINE
  5
2F55
330
18
100
AcDbEntity
  8
1
  6
Continuous
100
AcDbLine
 10
291.2685067919216
 20
108.9858443636578
 30
0.0
 11
291.2685067919216
 21
98.98584436365782
 31
0.0
  0
LINE
  5
2F56
330
18
100
AcDbEntity
  8
1
  6
Continuous
100
AcDbLine
 10
304.2685067919216
 20
108.9858443636578
 30
0.0
 11
304.2685067919216
 21
98.98584436365782
 31
0.0
  0
LINE
  5
2F57
330
18
100
AcDbEntity
  8
1
  6
Continuous
100
AcDbLine
 10
303.2685067919216
 20
97.98584436365782
 30
0.0
 11
292.2685067919216
 21
97.98584436365782
 31
0.0
  0
LINE
  5
2F58
330
18
100
AcDbEntity
  8
1
  6
Continuous
100
AcDbLine
 10
303.2685067919216
 20
109.9858443636578
 30
0.0
 11
292.2685067919216
 21
109.9858443636578
 31
0.0
  0
ARC
  5
2F59
330
18
100
AcDbEntity
  8
1
  6
Continuous
100
AcDbCircle
 10
292.2685067919216
 20
98.98584436365782
 30
0.0
 40
1.0
100
AcDbArc
 50
180.0
 51
270.0
  0
ARC
  5
2F5A
330
18
100
AcDbEntity
  8
1
  6
Continuous
100
AcDbCircle
 10
292.2685067919216
 20
108.9858443636578
 30
0.0
 40
1.0
100
AcDbArc
 50
90.0
 51
180.0
  0
ARC
  5
2F5B
330
18
100
AcDbEntity
  8
1
  6
Continuous
100
AcDbCircle
 10
303.2685067919216
 20
98.98584436365782
 30
0.0
 40
1.0
100
AcDbArc
 50
270.0
 51
0.000000000000007
  0
ARC
  5
2F5C
330
18
100
AcDbEntity
  8
1
  6
Continuous
100
AcDbCircle
 10
303.2685067919216
 20
108.9858443636578
 30
0.0
 40
1.0
100
AcDbArc
 50
0.000000000000007
 51
90.0
  0
LINE
  5
2F5D
330
18
100
AcDbEntity
  8
1
  6
Continuous
100
AcDbLine
 10
295.7685067919216
 20
108.6858443636578
 30
0.0
 11
295.7685067919216
 21
103.9858443636578
 31
0.0
  0
LINE
  5
2F5E
330
18
100
AcDbEntity
  8
1
  6
Continuous
100
AcDbLine
 10
294.5685067919217
 20
108.9858443636578
 30
0.0
 11
295.4685067919216
 21
108.9858443636578
 31
0.0
  0
LINE
  5
2F5F
330
18
100
AcDbEntity
  8
1
  6
Continuous
100
AcDbLine
 10
294.2685067919217
 20
105.7358443636577
 30
0.0
 11
294.2685067919217
 21
108.6858443636578
 31
0.0
  0
LINE
  5
2F70
330
18
100
AcDbEntity
  8
1
  6
Continuous
100
AcDbLine
 10
300.0685067919216
 20
108.9858443636578
 30
0.0
 11
300.9685067919217
 21
108.9858443636578
 31
0.0
  0
LINE
  5
2F71
330
18
100
AcDbEntity
  8
1
  6
Continuous
100
AcDbLine
 10
299.7685067919216
 20
108.6858443636578
 30
0.0
 11
299.7685067919216
 21
103.9858443636578
 31
0.0
  0
LINE
  5
2F72
330
18
100
AcDbEntity
  8
1
  6
Continuous
100
AcDbLine
 10
301.2685067919217
 20
105.7358443636577
 30
0.0
 11
301.2685067919217
 21
108.6858443636578
 31
0.0
  0
LINE
  5
2F83
330
18
100
AcDbEntity
  8
1
  6
Continuous
100
AcDbLine
 10
295.7685067919216
 20
100.7858443636578
 30
0.0
 11
295.7685067919216
 21
99.28584436365781
 31
0.0
  0
LINE
  5
2F84
330
18
100
AcDbEntity
  8
1
  6
Continuous
100
AcDbLine
 10
294.5685067919216
 20
98.98584436365784
 30
0.0
 11
295.4685067919216
 21
98.98584436365782
 31
0.0
  0
LINE
  5
2F85
330
18
100
AcDbEntity
  8
1
  6
Continuous
100
AcDbLine
 10
299.7685067919216
 20
100.7858443636578
 30
0.0
 11
299.7685067919216
 21
99.28584436365783
 31
0.0
  0
LINE
  5
2F86
330
18
100
AcDbEntity
  8
1
  6
Continuous
100
AcDbLine
 10
300.0685067919216
 20
98.98584436365784
 30
0.0
 11
300.9685067919217
 21
98.98584436365782
 31
0.0
  0
LINE
  5
2FA7
330
18
100
AcDbEntity
  8
1
  6
Continuous
100
AcDbLine
 10
301.2685067919216
 20
102.2358443636578
 30
0.0
 11
303.7685067919216
 21
102.2358443636578
 31
0.0
  0
LINE
  5
2FA8
330
18
100
AcDbEntity
  8
1
  6
Continuous
100
AcDbLine
 10
304.0685067919217
 20
105.4358443636578
 30
0.0
 11
304.0685067919217
 21
102.5358443636577
 31
0.0
  0
ARC
  5
2FA9
330
18
100
AcDbEntity
  8
1
  6
Continuous
100
AcDbCircle
 10
303.7685067919216
 20
102.5358443636578
 30
0.0
 40
0.3
100
AcDbArc
 50
270.0
 51
0.000000000000007
  0
ARC
  5
2FAA
330
18
100
AcDbEntity
  8
1
  6
Continuous
100
AcDbCircle
 10
303.7685067919216
 20
105.4358443636578
 30
0.0
 40
0.3
100
AcDbArc
 50
0.000000000000007
 51
90.0
  0
LINE
  5
2FAB
330
18
100
AcDbEntity
  8
1
  6
Continuous
100
AcDbLine
 10
291.4685067919217
 20
102.5358443636577
 30
0.0
 11
291.4685067919217
 21
105.4358443636578
 31
0.0
  0
ARC
  5
2FAC
330
18
100
AcDbEntity
  8
1
  6
Continuous
100
AcDbCircle
 10
291.7685067919216
 20
102.5358443636578
 30
0.0
 40
0.3
100
AcDbArc
 50
180.0
 51
270.0
  0
ARC
  5
2FAD
330
18
100
AcDbEntity
  8
1
  6
Continuous
100
AcDbCircle
 10
291.7685067919216
 20
105.4358443636578
 30
0.0
 40
0.3
100
AcDbArc
 50
90.0
 51
180.0
  0
LINE
  5
2FAE
330
18
100
AcDbEntity
  8
1
  6
Continuous
100
AcDbLine
 10
294.2685067919216
 20
102.2358443636578
 30
0.0
 11
291.7685067919216
 21
102.2358443636578
 31
0.0
  0
ARC
  5
2FAF
330
18
100
AcDbEntity
  8
1
  6
Continuous
100
AcDbCircle
 10
343.5799507899075
 20
157.4235948908571
 30
0.0
 40
2.0
100
AcDbArc
 50
116.5650509999995
 51
180.0
  0
LINE
  5
2FB0
330
18
100
AcDbEntity
  8
1
  6
Continuous
100
AcDbLine
 10
342.6855237899075
 20
159.2124488908572
 30
0.0
 11
343.5166069753608
 21
159.627990983584
 31
0.0
  0
LINE
  5
2FB1
330
18
100
AcDbEntity
  8
1
  6
Continuous
100
AcDbLine
 10
341.5799507899075
 20
154.8957308908571
 30
0.0
 11
341.5799507899075
 21
157.4235948908571
 31
0.0
  0
ARC
  5
2FB2
330
18
100
AcDbEntity
  8
1
  6
Continuous
100
AcDbCircle
 10
343.5799507899075
 20
154.8957308908571
 30
0.0
 40
2.0
100
AcDbArc
 50
180.0
 51
243.4349490000005
  0
LINE
  5
2FB3
330
18
100
AcDbEntity
  8
1
  6
Continuous
100
AcDbLine
 10
342.6855237899075
 20
153.1068768908572
 30
0.0
 11
343.5166069753608
 21
152.6913347981303
 31
0.0
  0
LINE
  5
2FB4
330
18
100
AcDbEntity
  8
1
  6
Continuous
100
AcDbLine
 10
357.6799507899075
 20
152.6596628908571
 30
0.0
 11
343.6507711831571
 21
152.6596628908571
 31
0.0
  0
LINE
  5
2FB5
330
18
100
AcDbEntity
  8
1
  6
Continuous
100
AcDbLine
 10
364.5799507899075
 20
152.6596628908571
 30
0.0
 11
359.5799497899075
 21
152.6596628908571
 31
0.0
  0
ARC
  5
2FB6
330
18
100
AcDbEntity
  8
1
  6
Continuous
100
AcDbCircle
 10
357.9799507899076
 20
153.8596628908571
 30
0.0
 40
0.3
100
AcDbArc
 50
90.0
 51
180.0
  0
LINE
  5
2FB7
330
18
100
AcDbEntity
  8
1
  6
Continuous
100
AcDbLine
 10
364.5799507899075
 20
154.159662890857
 30
0.0
 11
357.9799507899076
 21
154.159662890857
 31
0.0
  0
LINE
  5
2FB8
330
18
100
AcDbEntity
  8
1
  6
Continuous
100
AcDbLine
 10
366.0799507899075
 20
150.5596628908571
 30
0.0
 11
366.0799507899075
 21
161.7596628908571
 31
0.0
  0
LINE
  5
2FB9
330
18
100
AcDbEntity
  8
1
  6
Continuous
100
AcDbLine
 10
364.5799507899075
 20
149.659662890857
 30
0.0
 11
364.5799507899075
 21
162.6596628908572
 31
0.0
  0
LINE
  5
2FBA
330
18
100
AcDbEntity
  8
1
  6
Continuous
100
AcDbLine
 10
364.5799507899075
 20
149.659662890857
 30
0.0
 11
365.5799507899075
 21
149.659662890857
 31
0.0
  0
LINE
  5
2FBB
330
18
100
AcDbEntity
  8
1
  6
Continuous
100
AcDbLine
 10
364.5799507899075
 20
150.7096628908572
 30
0.0
 11
364.3799507899075
 21
150.7096628908572
 31
0.0
  0
LINE
  5
2FBC
330
18
100
AcDbEntity
  8
1
  6
Continuous
100
AcDbLine
 10
364.0799507899075
 20
152.6596628908571
 30
0.0
 11
364.0799507899075
 21
151.0096628908572
 31
0.0
  0
ARC
  5
2FBD
330
18
100
AcDbEntity
  8
1
  6
Continuous
100
AcDbCircle
 10
364.3799507899075
 20
151.0096628908572
 30
0.0
 40
0.3
100
AcDbArc
 50
180.0
 51
270.0
  0
ARC
  5
2FE6
330
18
100
AcDbEntity
  8
1
  6
Continuous
100
AcDbCircle
 10
342.5799497899075
 20
102.2628773636578
 30
0.0
 40
1.0
100
AcDbArc
 50
180.0
 51
248.1985750000002
  0
LINE
  5
2FE7
330
18
100
AcDbEntity
  8
1
  6
Continuous
100
AcDbLine
 10
343.5799497899076
 20
100.7858443636578
 30
0.0
 11
342.2085587899075
 21
101.3344013636578
 31
0.0
  0
LINE
  5
2FE8
330
18
100
AcDbEntity
  8
1
  6
Continuous
100
AcDbLine
 10
341.5799497899075
 20
102.6254647536298
 30
0.0
 11
341.5799497899075
 21
102.2628773636578
 31
0.0
  0
ARC
  5
2FE9
330
18
100
AcDbEntity
  8
1
  6
Continuous
100
AcDbCircle
 10
344.0940087899075
 20
101.0858443636578
 30
0.0
 40
0.3
100
AcDbArc
 50
270.0
 51
348.6900840000003
  0
LINE
  5
2FEA
330
18
100
AcDbEntity
  8
1
  6
Continuous
100
AcDbLine
 10
344.0940087899075
 20
100.7858443636578
 30
0.0
 11
343.5799497899076
 21
100.7858443636578
 31
0.0
  0
LINE
  5
2FEB
330
18
100
AcDbEntity
  8
1
  6
Continuous
100
AcDbLine
 10
344.5317167899075
 20
101.7446793636578
 30
0.0
 11
344.3881827899074
 21
101.0270093636578
 31
0.0
  0
ARC
  5
2FEC
330
18
100
AcDbEntity
  8
1
  6
Continuous
100
AcDbCircle
 10
344.8258907899075
 20
101.6858443636578
 30
0.0
 40
0.3
100
AcDbArc
 50
90.0
 51
168.6900840000003
  0
LINE
  5
2FED
330
18
100
AcDbEntity
  8
1
  6
Continuous
100
AcDbLine
 10
359.5799497899075
 20
101.9858443636578
 30
0.0
 11
344.8258907899075
 21
101.9858443636578
 31
0.0
  0
ARC
  5
2FEE
330
18
100
AcDbEntity
  8
1
  6
Continuous
100
AcDbCircle
 10
360.0799497899075
 20
106.4858443636578
 30
0.0
 40
0.5
100
AcDbArc
 50
126.8698979999996
 51
180.0
  0
LINE
  5
2FEF
330
18
100
AcDbEntity
  8
1
  6
Continuous
100
AcDbLine
 10
362.4999497899074
 20
108.9258443636578
 30
0.0
 11
359.7799497899075
 21
106.8858443636578
 31
0.0
  0
ARC
  5
2FF0
330
18
100
AcDbEntity
  8
1
  6
Continuous
100
AcDbCircle
 10
362.6799497899075
 20
108.6858443636578
 30
0.0
 40
0.3
100
AcDbArc
 50
90.0
 51
126.8698979999996
  0
LINE
  5
2FF1
330
18
100
AcDbEntity
  8
1
  6
Continuous
100
AcDbLine
 10
364.5799497899075
 20
108.9858443636578
 30
0.0
 11
362.6799497899075
 21
108.9858443636578
 31
0.0
  0
ARC
  5
2FF2
330
18
100
AcDbEntity
  8
1
  6
Continuous
100
AcDbCircle
 10
357.9799507899076
 20
105.4358443636578
 30
0.0
 40
0.3
100
AcDbArc
 50
90.0
 51
180.0
  0
LINE
  5
2FF3
330
18
100
AcDbEntity
  8
1
  6
Continuous
100
AcDbLine
 10
357.6799507899075
 20
105.4358443636578
 30
0.0
 11
357.6799507899075
 21
102.5358443636577
 31
0.0
  0
LINE
  5
2FF4
330
18
100
AcDbEntity
  8
1
  6
Continuous
100
AcDbLine
 10
357.9799507899076
 20
105.7358443636578
 30
0.0
 11
363.1799507899075
 21
105.7358443636578
 31
0.0
  0
ARC
  5
2FF5
330
18
100
AcDbEntity
  8
1
  6
Continuous
100
AcDbCircle
 10
363.1799507899075
 20
102.5358443636578
 30
0.0
 40
0.3
100
AcDbArc
 50
270.0
 51
0.000000000000007
  0
LINE
  5
2FF6
330
18
100
AcDbEntity
  8
1
  6
Continuous
100
AcDbLine
 10
363.1799507899075
 20
102.2358443636578
 30
0.0
 11
357.9799507899076
 21
102.2358443636578
 31
0.0
  0
LINE
  5
2FF7
330
18
100
AcDbEntity
  8
1
  6
Continuous
100
AcDbLine
 10
366.0799507899075
 20
109.0858443636578
 30
0.0
 11
366.0799507899075
 21
98.88584436365784
 31
0.0
  0
LINE
  5
2FF8
330
18
100
AcDbEntity
  8
1
  6
Continuous
100
AcDbLine
 10
364.5799497899075
 20
97.98584436365782
 30
0.0
 11
365.5799507899075
 21
97.98584436365782
 31
0.0
  0
LINE
  5
2FF9
330
18
100
AcDbEntity
  8
1
  6
Continuous
100
AcDbLine
 10
364.5799497899075
 20
109.9858443636578
 30
0.0
 11
365.5799507899075
 21
109.9858443636578
 31
0.0
  0
LINE
  5
2FFA
330
18
100
AcDbEntity
  8
1
  6
Continuous
100
AcDbLine
 10
364.5799497899075
 20
109.9858443636578
 30
0.0
 11
364.5799497899075
 21
97.98584436365782
 31
0.0
  0
LINE
  5
2FFB
330
18
100
AcDbEntity
  8
1
  6
Continuous
100
AcDbLine
 10
364.5799497899075
 20
105.7358443636578
 30
0.0
 11
364.3799497899075
 21
105.7358443636578
 31
0.0
  0
LINE
  5
2FFC
330
18
100
AcDbEntity
  8
1
  6
Continuous
100
AcDbLine
 10
364.5799507899075
 20
102.2358443636578
 30
0.0
 11
364.3799507899075
 21
102.2358443636578
 31
0.0
  0
LINE
  5
2FFD
330
18
100
AcDbEntity
  8
1
  6
Continuous
100
AcDbLine
 10
364.0799507899075
 20
105.4358443636578
 30
0.0
 11
364.0799507899075
 21
102.5358443636577
 31
0.0
  0
ARC
  5
2FFE
330
18
100
AcDbEntity
  8
1
  6
Continuous
100
AcDbCircle
 10
364.3799497899075
 20
105.4358443636578
 30
0.0
 40
0.3
100
AcDbArc
 50
90.0
 51
180.0
  0
ARC
  5
2FFF
330
18
100
AcDbEntity
  8
1
  6
Continuous
100
AcDbCircle
 10
364.3799507899075
 20
102.5358443636578
 30
0.0
 40
0.3
100
AcDbArc
 50
180.0
 51
270.0
  0
ARC
  5
3000
330
18
100
AcDbEntity
  8
1
  6
Continuous
100
AcDbCircle
 10
357.9799507899076
 20
102.5358443636578
 30
0.0
 40
0.3
100
AcDbArc
 50
180.0
 51
270.0
  0
LINE
  5
3001
330
18
100
AcDbEntity
  8
1
  6
Continuous
100
AcDbLine
 10
363.4799507899076
 20
105.4358443636578
 30
0.0
 11
363.4799507899076
 21
102.5358443636577
 31
0.0
  0
ARC
  5
3002
330
18
100
AcDbEntity
  8
1
  6
Continuous
100
AcDbCircle
 10
363.1799507899075
 20
105.4358443636578
 30
0.0
 40
0.3
100
AcDbArc
 50
0.000000000000007
 51
90.0
  0
LINE
  5
3003
330
18
100
AcDbEntity
  8
1
  6
Continuous
100
AcDbLine
 10
357.6799507899075
 20
103.9858443636577
 30
0.0
 11
344.5799497899076
 21
103.9858443636577
 31
0.0
  0
LINE
  5
3004
330
18
100
AcDbEntity
  8
1
  6
Continuous
100
AcDbLine
 10
344.5799497899075
 20
103.9858443636578
 30
0.0
 11
341.9218359068991
 21
103.0998064026551
 31
0.0
  0
LINE
  5
300D
330
18
100
AcDbEntity
  8
1
  6
Continuous
100
AcDbLine
 10
343.5799507899076
 20
103.3525113636577
 30
0.0
 11
343.5799507899076
 21
101.0858443636577
 31
0.0
  0
LINE
  5
300E
330
18
100
AcDbEntity
  8
1
  6
Continuous
100
AcDbLine
 10
293.7685067919216
 20
105.7358443636578
 30
0.0
 11
293.7685067919216
 21
102.2358443636578
 31
0.0
  0
LINE
  5
300F
330
18
100
AcDbEntity
  8
1
  6
Continuous
100
AcDbLine
 10
301.7685067919216
 20
105.7358443636578
 30
0.0
 11
301.7685067919216
 21
102.2358443636578
 31
0.0
  0
LINE
  5
3010
330
18
100
AcDbEntity
  8
1
  6
Continuous
100
AcDbLine
 10
357.6799507899075
 20
159.6596628908572
 30
0.0
 11
343.6507711831571
 21
159.6596628908572
 31
0.0
  0
LINE
  5
3011
330
18
100
AcDbEntity
  8
1
  6
Continuous
100
AcDbLine
 10
364.5799507899075
 20
159.6596628908572
 30
0.0
 11
359.5799497899075
 21
159.6596628908572
 31
0.0
  0
ARC
  5
3012
330
18
100
AcDbEntity
  8
1
  6
Continuous
100
AcDbCircle
 10
357.9799507899076
 20
158.4596628908571
 30
0.0
 40
0.3
100
AcDbArc
 50
180.0
 51
270.0
  0
LINE
  5
3013
330
18
100
AcDbEntity
  8
1
  6
Continuous
100
AcDbLine
 10
364.5799507899075
 20
158.159662890857
 30
0.0
 11
357.9799507899076
 21
158.159662890857
 31
0.0
  0
LINE
  5
3014
330
18
100
AcDbEntity
  8
1
  6
Continuous
100
AcDbLine
 10
364.5799507899075
 20
162.6596628908572
 30
0.0
 11
365.5799507899075
 21
162.6596628908572
 31
0.0
  0
LINE
  5
3015
330
18
100
AcDbEntity
  8
1
  6
Continuous
100
AcDbLine
 10
364.5799507899075
 20
161.6096628908571
 30
0.0
 11
364.3799507899075
 21
161.6096628908571
 31
0.0
  0
LINE
  5
3016
330
18
100
AcDbEntity
  8
1
  6
Continuous
100
AcDbLine
 10
364.0799507899075
 20
159.6596628908572
 30
0.0
 11
364.0799507899075
 21
161.3096628908571
 31
0.0
  0
ARC
  5
3017
330
18
100
AcDbEntity
  8
1
  6
Continuous
100
AcDbCircle
 10
364.3799507899075
 20
161.3096628908571
 30
0.0
 40
0.3
100
AcDbArc
 50
90.0
 51
180.0
  0
LINE
  5
3018
330
18
100
AcDbEntity
  8
1
  6
Continuous
100
AcDbLine
 10
357.6799507899075
 20
152.4452648908571
 30
0.0
 11
357.6799507899075
 21
153.8596628908571
 31
0.0
  0
LINE
  5
3019
330
18
100
AcDbEntity
  8
1
  6
Continuous
100
AcDbLine
 10
357.6799507899075
 20
159.8740608908572
 30
0.0
 11
357.6799507899075
 21
158.4596628908571
 31
0.0
  0
ARC
  5
301A
330
18
100
AcDbEntity
  8
1
  6
Continuous
100
AcDbCircle
 10
408.0517215463316
 20
108.0858443636578
 30
0.0
 40
1.0
100
AcDbArc
 50
90.0
 51
180.0
  0
LINE
  5
301B
330
18
100
AcDbEntity
  8
1
  6
Continuous
100
AcDbLine
 10
407.0517215463316
 20
108.0858443636578
 30
0.0
 11
407.0517215463316
 21
99.88584436365783
 31
0.0
  0
ARC
  5
301C
330
18
100
AcDbEntity
  8
1
  6
Continuous
100
AcDbCircle
 10
408.0517215463316
 20
99.88584436365783
 30
0.0
 40
1.0
100
AcDbArc
 50
180.0
 51
270.0
  0
LINE
  5
301D
330
18
100
AcDbEntity
  8
1
  6
Continuous
100
AcDbLine
 10
408.0517215463316
 20
109.0858443636578
 30
0.0
 11
417.2517215463314
 21
109.0858443636578
 31
0.0
  0
ARC
  5
301E
330
18
100
AcDbEntity
  8
1
  6
Continuous
100
AcDbCircle
 10
417.2517215463314
 20
108.0858443636578
 30
0.0
 40
1.0
100
AcDbArc
 50
0.000000000000007
 51
90.0
  0
LINE
  5
301F
330
18
100
AcDbEntity
  8
1
  6
Continuous
100
AcDbLine
 10
418.2517215463315
 20
99.88584436365783
 30
0.0
 11
418.2517215463315
 21
108.0858443636578
 31
0.0
  0
ARC
  5
3020
330
18
100
AcDbEntity
  8
1
  6
Continuous
100
AcDbCircle
 10
417.2517215463314
 20
99.88584436365783
 30
0.0
 40
1.0
100
AcDbArc
 50
270.0
 51
0.000000000000007
  0
LINE
  5
3021
330
18
100
AcDbEntity
  8
1
  6
Continuous
100
AcDbLine
 10
417.2517215463314
 20
98.88584436365784
 30
0.0
 11
408.0517215463316
 21
98.88584436365784
 31
0.0
  0
LINE
  5
3022
330
18
100
AcDbEntity
  8
1
  6
Continuous
100
AcDbLine
 10
419.1517215463314
 20
108.9858443636578
 30
0.0
 11
419.1517215463314
 21
98.98584436365782
 31
0.0
  0
LINE
  5
3023
330
18
100
AcDbEntity
  8
1
  6
Continuous
100
AcDbLine
 10
406.1517215463315
 20
108.9858443636578
 30
0.0
 11
406.1517215463315
 21
98.98584436365782
 31
0.0
  0
LINE
  5
3024
330
18
100
AcDbEntity
  8
1
  6
Continuous
100
AcDbLine
 10
407.1517215463314
 20
97.98584436365782
 30
0.0
 11
418.1517215463316
 21
97.98584436365782
 31
0.0
  0
LINE
  5
3025
330
18
100
AcDbEntity
  8
1
  6
Continuous
100
AcDbLine
 10
407.1517215463314
 20
109.9858443636578
 30
0.0
 11
418.1517215463316
 21
109.9858443636578
 31
0.0
  0
ARC
  5
3026
330
18
100
AcDbEntity
  8
1
  6
Continuous
100
AcDbCircle
 10
418.1517215463316
 20
98.98584436365782
 30
0.0
 40
1.0
100
AcDbArc
 50
270.0
 51
0.000000000000007
  0
ARC
  5
3027
330
18
100
AcDbEntity
  8
1
  6
Continuous
100
AcDbCircle
 10
418.1517215463316
 20
108.9858443636578
 30
0.0
 40
1.0
100
AcDbArc
 50
0.000000000000007
 51
90.0
  0
ARC
  5
3028
330
18
100
AcDbEntity
  8
1
  6
Continuous
100
AcDbCircle
 10
407.1517215463314
 20
98.98584436365782
 30
0.0
 40
1.0
100
AcDbArc
 50
180.0
 51
270.0
  0
ARC
  5
3029
330
18
100
AcDbEntity
  8
1
  6
Continuous
100
AcDbCircle
 10
407.1517215463314
 20
108.9858443636578
 30
0.0
 40
1.0
100
AcDbArc
 50
90.0
 51
180.0
  0
LINE
  5
302A
330
18
100
AcDbEntity
  8
1
  6
Continuous
100
AcDbLine
 10
344.5799497899075
 20
159.1596628908571
 30
0.0
 11
344.5799497899075
 21
153.159662890857
 31
0.0
  0
LINE
  5
302B
330
18
100
AcDbEntity
  8
1
  6
Continuous
100
AcDbLine
 10
362.0799507899075
 20
150.1596628908572
 30
0.0
 11
362.0799507899075
 21
149.8596628908571
 31
0.0
  0
ARC
  5
302C
330
18
100
AcDbEntity
  8
1
  6
Continuous
100
AcDbCircle
 10
363.1829647899075
 20
150.7626768908572
 30
0.0
 40
0.296986
100
AcDbArc
 50
284.9999989999993
 51
90.0
  0
LINE
  5
302D
330
18
100
AcDbEntity
  8
1
  6
Continuous
100
AcDbLine
 10
363.1829647899075
 20
151.0596628908571
 30
0.0
 11
361.5137297899075
 21
151.0596628908571
 31
0.0
  0
LINE
  5
302E
330
18
100
AcDbEntity
  8
1
  6
Continuous
100
AcDbLine
 10
363.2598307899075
 20
150.4758108908571
 30
0.0
 11
362.0799507899075
 21
150.1596628908572
 31
0.0
  0
LINE
  5
302F
330
18
100
AcDbEntity
  8
1
  6
Continuous
100
AcDbLine
 10
363.4799507899076
 20
150.7596628908572
 30
0.0
 11
363.4799507899076
 21
150.7649898908572
 31
0.0
  0
ARC
  5
3030
330
18
100
AcDbEntity
  8
1
  6
Continuous
100
AcDbCircle
 10
363.1829647899075
 20
161.5566488908573
 30
0.0
 40
0.296986
100
AcDbArc
 50
270.0
 51
75.00000100000064
  0
LINE
  5
3031
330
18
100
AcDbEntity
  8
1
  6
Continuous
100
AcDbLine
 10
363.1829647899075
 20
161.2596628908572
 30
0.0
 11
361.5137297899075
 21
161.2596628908572
 31
0.0
  0
LINE
  5
3032
330
18
100
AcDbEntity
  8
1
  6
Continuous
100
AcDbLine
 10
363.2598307899075
 20
161.8435148908571
 30
0.0
 11
362.0799507899075
 21
162.159662890857
 31
0.0
  0
LINE
  5
3033
330
18
100
AcDbEntity
  8
1
  6
Continuous
100
AcDbLine
 10
363.4799507899076
 20
161.5596628908571
 30
0.0
 11
363.4799507899076
 21
161.5543358908571
 31
0.0
  0
LINE
  5
3034
330
18
100
AcDbEntity
  8
1
  6
Continuous
100
AcDbLine
 10
362.0799507899075
 20
162.159662890857
 30
0.0
 11
362.0799507899075
 21
162.4596628908571
 31
0.0
  0
LINE
  5
3035
330
18
100
AcDbEntity
  8
1
  6
Continuous
100
AcDbLine
 10
362.0799507899075
 20
149.8596628908571
 30
0.0
 11
361.5799507899075
 21
149.8596628908571
 31
0.0
  0
ARC
  5
3036
330
18
100
AcDbEntity
  8
1
  6
Continuous
100
AcDbCircle
 10
360.1799507899075
 20
159.9596628908571
 30
0.0
 40
0.3
100
AcDbArc
 50
180.0
 51
270.0
  0
LINE
  5
3037
330
18
100
AcDbEntity
  8
1
  6
Continuous
100
AcDbLine
 10
359.8799507899075
 20
160.1247908908571
 30
0.0
 11
359.8799507899075
 21
159.9596628908571
 31
0.0
  0
ARC
  5
3038
330
18
100
AcDbEntity
  8
1
  6
Continuous
100
AcDbCircle
 10
360.1799507899075
 20
160.1247908908571
 30
0.0
 40
0.3
100
AcDbArc
 50
120.5297060000001
 51
180.0
  0
LINE
  5
3039
330
18
100
AcDbEntity
  8
1
  6
Continuous
100
AcDbLine
 10
361.5137297899075
 20
161.2596628908572
 30
0.0
 11
360.0275547899075
 21
160.3832008908573
 31
0.0
  0
ARC
  5
303A
330
18
100
AcDbEntity
  8
1
  6
Continuous
100
AcDbCircle
 10
360.1799507899075
 20
152.3596628908571
 30
0.0
 40
0.3
100
AcDbArc
 50
90.0
 51
180.0
  0
LINE
  5
303B
330
18
100
AcDbEntity
  8
1
  6
Continuous
100
AcDbLine
 10
359.8799507899075
 20
152.1945348908571
 30
0.0
 11
359.8799507899075
 21
152.3596628908571
 31
0.0
  0
ARC
  5
303C
330
18
100
AcDbEntity
  8
1
  6
Continuous
100
AcDbCircle
 10
360.1799507899075
 20
152.1945348908571
 30
0.0
 40
0.3
100
AcDbArc
 50
180.0
 51
239.4702939999999
  0
LINE
  5
303D
330
18
100
AcDbEntity
  8
1
  6
Continuous
100
AcDbLine
 10
361.5137297899075
 20
151.0596628908571
 30
0.0
 11
360.0275547899075
 21
151.9361248908571
 31
0.0
  0
LINE
  5
303E
330
18
100
AcDbEntity
  8
1
  6
Continuous
100
AcDbLine
 10
363.1799507899075
 20
151.0596628908571
 30
0.0
 11
361.5137297899075
 21
151.0596628908571
 31
0.0
  0
ARC
  5
303F
330
18
100
AcDbEntity
  8
1
  6
Continuous
100
AcDbCircle
 10
358.1799507899075
 20
159.8740608908572
 30
0.0
 40
0.5
100
AcDbArc
 50
120.5297060000001
 51
180.0
  0
LINE
  5
3040
330
18
100
AcDbEntity
  8
1
  6
Continuous
100
AcDbLine
 10
361.5799507899075
 20
162.4596628908571
 30
0.0
 11
357.9259577899076
 21
160.3047438908571
 31
0.0
  0
ARC
  5
3041
330
18
100
AcDbEntity
  8
1
  6
Continuous
100
AcDbCircle
 10
358.1799507899075
 20
152.4452648908571
 30
0.0
 40
0.5
100
AcDbArc
 50
180.0
 51
239.4702939999999
  0
LINE
  5
3042
330
18
100
AcDbEntity
  8
1
  6
Continuous
100
AcDbLine
 10
361.5799507899075
 20
149.8596628908571
 30
0.0
 11
357.9259577899076
 21
152.0145818908571
 31
0.0
  0
LINE
  5
3043
330
18
100
AcDbEntity
  8
1
  6
Continuous
100
AcDbLine
 10
359.5799497899075
 20
101.4858443636578
 30
0.0
 11
359.5799497899075
 21
102.2358443636578
 31
0.0
  0
ARC
  5
3044
330
18
100
AcDbEntity
  8
1
  6
Continuous
100
AcDbCircle
 10
360.0799497899075
 20
101.4858443636578
 30
0.0
 40
0.5
100
AcDbArc
 50
180.0
 51
233.1301020000003
  0
LINE
  5
3045
330
18
100
AcDbEntity
  8
1
  6
Continuous
100
AcDbLine
 10
362.4999497899074
 20
99.04584436365787
 30
0.0
 11
359.7799497899075
 21
101.0858443636578
 31
0.0
  0
ARC
  5
3046
330
18
100
AcDbEntity
  8
1
  6
Continuous
100
AcDbCircle
 10
362.6799497899075
 20
99.28584436365783
 30
0.0
 40
0.3
100
AcDbArc
 50
233.1301020000003
 51
270.0
  0
LINE
  5
3047
330
18
100
AcDbEntity
  8
1
  6
Continuous
100
AcDbLine
 10
364.5799497899075
 20
98.98584436365782
 30
0.0
 11
362.6799497899075
 21
98.98584436365782
 31
0.0
  0
LINE
  5
3048
330
18
100
AcDbEntity
  8
1
  6
Continuous
100
AcDbLine
 10
359.5799497899075
 20
106.4858443636578
 30
0.0
 11
359.5799497899075
 21
105.7358443636578
 31
0.0
  0
LINE
  5
3049
330
18
100
AcDbEntity
  8
1
  6
Continuous
100
AcDbLine
 10
362.0799507899075
 20
162.4596628908571
 30
0.0
 11
361.5799507899075
 21
162.4596628908571
 31
0.0
  0
LINE
  5
304A
330
18
100
AcDbEntity
  8
1
  6
Continuous
100
AcDbLine
 10
359.5799497899075
 20
159.6596628908572
 30
0.0
 11
359.5799497899075
 21
158.159662890857
 31
0.0
  0
LINE
  5
304B
330
18
100
AcDbEntity
  8
1
  6
Continuous
100
AcDbLine
 10
359.5799497899075
 20
152.6596628908571
 30
0.0
 11
359.5799497899075
 21
154.159662890857
 31
0.0
  0
LINE
  5
304C
330
18
100
AcDbEntity
  8
1
  6
Continuous
100
AcDbLine
 10
362.5799497899075
 20
152.6596628908571
 30
0.0
 11
362.5799497899075
 21
154.159662890857
 31
0.0
  0
LINE
  5
304D
330
18
100
AcDbEntity
  8
1
  6
Continuous
100
AcDbLine
 10
362.5799497899075
 20
159.6596628908572
 30
0.0
 11
362.5799497899075
 21
158.159662890857
 31
0.0
  0
LINE
  5
304E
330
18
100
AcDbEntity
  8
1
  6
Continuous
100
AcDbLine
 10
361.5799507899075
 20
105.4358443636578
 30
0.0
 11
361.5799507899075
 21
102.5358443636577
 31
0.0
  0
LINE
  5
304F
330
18
100
AcDbEntity
  8
1
  6
Continuous
100
AcDbLine
 10
362.0799507899075
 20
105.4358443636578
 30
0.0
 11
362.0799507899075
 21
102.5358443636577
 31
0.0
  0
LINE
  5
3050
330
18
100
AcDbEntity
  8
1
  6
Continuous
100
AcDbLine
 10
365.5799507899075
 20
97.98584436365782
 30
0.0
 11
366.0799507899075
 21
98.88584436365784
 31
0.0
  0
LINE
  5
3051
330
18
100
AcDbEntity
  8
1
  6
Continuous
100
AcDbLine
 10
365.5799507899075
 20
109.9858443636578
 30
0.0
 11
366.0799507899075
 21
109.0858443636578
 31
0.0
  0
LINE
  5
3052
330
18
100
AcDbEntity
  8
1
  6
Continuous
100
AcDbLine
 10
365.5799507899075
 20
109.9858443636578
 30
0.0
 11
365.5799507899075
 21
97.98584436365782
 31
0.0
  0
LINE
  5
3053
330
18
100
AcDbEntity
  8
1
  6
Continuous
100
AcDbLine
 10
365.5799507899075
 20
162.659662890857
 30
0.0
 11
366.0799507899075
 21
161.7596628908571
 31
0.0
  0
LINE
  5
3054
330
18
100
AcDbEntity
  8
1
  6
Continuous
100
AcDbLine
 10
365.5799507899075
 20
149.659662890857
 30
0.0
 11
365.5799507899075
 21
162.6596628908572
 31
0.0
  0
LINE
  5
3055
330
18
100
AcDbEntity
  8
1
  6
Continuous
100
AcDbLine
 10
365.5799507899075
 20
149.659662890857
 30
0.0
 11
366.0799507899075
 21
150.5596628908571
 31
0.0
  0
LINE
  5
3056
330
18
100
AcDbEntity
  8
4
  6
CENTER
 48
0.2
100
AcDbLine
 10
368.0799507899075
 20
103.9858443636577
 30
0.0
 11
341.5799507899078
 21
103.9858443636577
 31
0.0
  0
LINE
  5
3057
330
18
100
AcDbEntity
  8
1
  6
Continuous
100
AcDbLine
 10
294.2685067919216
 20
106.7358443636578
 30
0.0
 11
295.7685067919216
 21
106.7358443636578
 31
0.0
  0
LINE
  5
3058
330
18
100
AcDbEntity
  8
1
  6
Continuous
100
AcDbLine
 10
301.2685067919216
 20
106.7358443636578
 30
0.0
 11
299.7685067919216
 21
106.7358443636578
 31
0.0
  0
LINE
  5
32B3
330
18
100
AcDbEntity
  8
1
  6
Continuous
100
AcDbLine
 10
362.7431021024478
 20
157.0346628789362
 30
0.0
 11
363.0507627445537
 21
157.0346628789362
 31
0.0
  0
LINE
  5
32B5
330
18
100
AcDbEntity
  8
1
  6
Continuous
100
AcDbLine
 10
359.0780570461447
 20
157.3846628789361
 30
0.0
 11
359.0780570461447
 21
156.6846628789363
 31
0.0
  0
LINE
  5
32B6
330
18
100
AcDbEntity
  8
1
  6
Continuous
100
AcDbLine
 10
359.5587872961447
 20
157.3898971289362
 30
0.0
 11
359.5587872961447
 21
156.6898953789362
 31
0.0
  0
LINE
  5
32B7
330
18
100
AcDbEntity
  8
1
  6
Continuous
100
AcDbLine
 10
358.8036552961447
 20
157.3846628789361
 30
0.0
 11
359.3548965461447
 21
157.3846628789361
 31
0.0
  0
ARC
  5
32B8
330
18
100
AcDbEntity
  8
1
  6
Continuous
100
AcDbCircle
 10
362.2874389334567
 20
156.9041303789362
 30
0.0
 40
0.219219
100
AcDbArc
 50
315.9270000000021
 51
44.07249999999947
  0
ARC
  5
32B9
330
18
100
AcDbEntity
  8
1
  6
Continuous
100
AcDbCircle
 10
361.6419733800489
 20
156.9041303789362
 30
0.0
 40
0.219219
100
AcDbArc
 50
315.9270000000021
 51
44.07249999999947
  0
ARC
  5
32BA
330
18
100
AcDbEntity
  8
1
  6
Continuous
100
AcDbCircle
 10
361.0287173526387
 20
156.8823953789362
 30
0.0
 40
0.1828855
100
AcDbArc
 50
312.8699999999998
 51
47.13039999999988
  0
LINE
  5
32BB
330
18
100
AcDbEntity
  8
1
  6
Continuous
100
AcDbLine
 10
361.4639283800487
 20
157.3898953789362
 30
0.0
 11
361.8114943624941
 21
157.3898953789362
 31
0.0
  0
LINE
  5
32BC
330
18
100
AcDbEntity
  8
1
  6
Continuous
100
AcDbLine
 10
362.1093939334567
 20
157.3898953789362
 30
0.0
 11
362.4569599159018
 21
157.3898953789362
 31
0.0
  0
ARC
  5
32BD
330
18
100
AcDbEntity
  8
1
  6
Continuous
100
AcDbCircle
 10
361.0042278526386
 20
157.1710141289362
 30
0.0
 40
0.21888125
100
AcDbArc
 50
47.13039999999988
 51
132.8699999999997
  0
LINE
  5
32BE
330
18
100
AcDbEntity
  8
1
  6
Continuous
100
AcDbLine
 10
360.2643325202372
 20
157.0346628789362
 30
0.0
 11
360.5719931623431
 21
157.0346628789362
 31
0.0
  0
ARC
  5
32BF
330
18
100
AcDbEntity
  8
1
  6
Continuous
100
AcDbCircle
 10
361.6538033800488
 20
156.9155963789363
 30
0.0
 40
0.202734
100
AcDbArc
 50
44.07249999999947
 51
135.9280000000004
  0
ARC
  5
32C0
330
18
100
AcDbEntity
  8
1
  6
Continuous
100
AcDbCircle
 10
361.665650880049
 20
156.9041303789362
 30
0.0
 40
0.219219
100
AcDbArc
 50
135.9280000000004
 51
156.9510000000007
  0
ARC
  5
32C1
330
18
100
AcDbEntity
  8
1
  6
Continuous
100
AcDbCircle
 10
362.3111164334567
 20
156.9041303789362
 30
0.0
 40
0.219219
100
AcDbArc
 50
135.9280000000004
 51
156.9510000000007
  0
ARC
  5
32C2
330
18
100
AcDbEntity
  8
1
  6
Continuous
100
AcDbCircle
 10
362.2992689334566
 20
156.9155963789363
 30
0.0
 40
0.202734
100
AcDbArc
 50
44.07249999999947
 51
135.9280000000004
  0
ARC
  5
32C3
330
18
100
AcDbEntity
  8
1
  6
Continuous
100
AcDbCircle
 10
361.0042278526386
 20
156.8560134289362
 30
0.0
 40
0.21888125
100
AcDbArc
 50
47.13039999999988
 51
57.15030000000146
  0
ARC
  5
32C4
330
18
100
AcDbEntity
  8
1
  6
Continuous
100
AcDbCircle
 10
361.0042278526386
 20
157.2237766289362
 30
0.0
 40
0.21888125
100
AcDbArc
 50
302.8499999999983
 51
312.8699999999998
  0
LINE
  5
32C5
330
18
100
AcDbEntity
  8
1
  6
Continuous
100
AcDbLine
 10
361.0205098526386
 20
157.0398953789362
 30
0.0
 11
361.1229583526384
 21
157.0398953789362
 31
0.0
  0
LINE
  5
32C6
330
18
100
AcDbEntity
  8
1
  6
Continuous
100
AcDbLine
 10
361.4639283800487
 20
157.3898953789362
 30
0.0
 11
361.4639283800487
 21
156.9899591289362
 31
0.0
  0
LINE
  5
32C7
330
18
100
AcDbEntity
  8
1
  6
Continuous
100
AcDbLine
 10
362.1093939334567
 20
157.3898953789362
 30
0.0
 11
362.1093939334567
 21
156.9899591289362
 31
0.0
  0
ARC
  5
32C8
330
18
100
AcDbEntity
  8
1
  6
Continuous
100
AcDbCircle
 10
361.0287173526387
 20
157.1973953789362
 30
0.0
 40
0.1828855
100
AcDbArc
 50
312.8699999999998
 51
47.13039999999988
  0
ARC
  5
32C9
330
18
100
AcDbEntity
  8
1
  6
Continuous
100
AcDbCircle
 10
360.9797383526385
 20
157.1973953789362
 30
0.0
 40
0.1828855
100
AcDbArc
 50
132.8699999999997
 51
198.2080000000007
  0
ARC
  5
32CA
330
18
100
AcDbEntity
  8
1
  6
Continuous
100
AcDbCircle
 10
361.6538033800488
 20
156.8926643789362
 30
0.0
 40
0.202734
100
AcDbArc
 50
205.5969999999992
 51
315.9270000000021
  0
ARC
  5
32CB
330
18
100
AcDbEntity
  8
1
  6
Continuous
100
AcDbCircle
 10
362.2992689334566
 20
156.8926643789362
 30
0.0
 40
0.202734
100
AcDbArc
 50
205.5969999999992
 51
315.9270000000021
  0
ARC
  5
32CC
330
18
100
AcDbEntity
  8
1
  6
Continuous
100
AcDbCircle
 10
360.9797383526385
 20
156.8823953789362
 30
0.0
 40
0.1828855
100
AcDbArc
 50
193.013999999999
 51
227.1300000000001
  0
ARC
  5
32CD
330
18
100
AcDbEntity
  8
1
  6
Continuous
100
AcDbCircle
 10
361.0042278526386
 20
156.9087766289363
 30
0.0
 40
0.21888125
100
AcDbArc
 50
227.1300000000001
 51
312.8699999999998
  0
LINE
  5
32CE
330
18
100
AcDbEntity
  8
1
  6
Continuous
100
AcDbLine
 10
359.5587872961447
 20
156.6898953789362
 30
0.0
 11
359.9973302961447
 21
156.6898953789362
 31
0.0
  0
LINE
  5
32DE
330
18
100
AcDbEntity
  8
1
  6
Continuous
100
AcDbLine
 10
363.6359597374593
 20
157.1051353789362
 30
0.0
 11
363.3209597374594
 21
156.6851353789363
 31
0.0
  0
LINE
  5
32E2
330
18
100
AcDbEntity
  8
1
  6
Continuous
100
AcDbLine
 10
363.6709597374593
 20
156.6851353789363
 30
0.0
 11
363.3209597374594
 21
156.6851353789363
 31
0.0
  0
ARC
  5
32E6
330
18
100
AcDbEntity
  8
1
  6
Continuous
100
AcDbCircle
 10
363.4959597374593
 20
157.2101353789362
 30
0.0
 40
0.1750000000000001
100
AcDbArc
 50
323.1301023541566
 51
180.0
  0
LINE
  5
3680
330
18
100
AcDbEntity
  8
4
  6
CENTER
 48
0.2
100
AcDbLine
 10
368.0799507899075
 20
51.81202583645833
 30
0.0
 11
339.5799507899075
 21
51.81202583645833
 31
0.0
  0
LINE
  5
3681
330
18
100
AcDbEntity
  8
1
  6
Continuous
100
AcDbLine
 10
364.5799507899075
 20
48.31202583645834
 30
0.0
 11
343.6507711831571
 21
48.31202583645833
 31
0.0
  0
LINE
  5
3682
330
18
100
AcDbEntity
  8
1
  6
Continuous
100
AcDbLine
 10
364.5799507899075
 20
55.31202583645833
 30
0.0
 11
343.6507711831571
 21
55.31202583645833
 31
0.0
  0
LINE
  5
3686
330
18
100
AcDbEntity
  8
1
  6
Continuous
100
AcDbLine
 10
341.5799507899075
 20
53.07595783645833
 30
0.0
 11
341.5799507899075
 21
50.54809383645832
 31
0.0
  0
LINE
  5
368F
330
18
100
AcDbEntity
  8
1
  6
Continuous
100
AcDbLine
 10
342.6855237899075
 20
54.8648118364583
 30
0.0
 11
343.5166069753608
 21
55.28035392918515
 31
0.0
  0
ARC
  5
3690
330
18
100
AcDbEntity
  8
1
  6
Continuous
100
AcDbCircle
 10
343.5799507899075
 20
53.07595783645833
 30
0.0
 40
2.0
100
AcDbArc
 50
116.5650509999995
 51
180.0
  0
ARC
  5
3691
330
18
100
AcDbEntity
  8
1
  6
Continuous
100
AcDbCircle
 10
343.5799507899075
 20
50.54809383645832
 30
0.0
 40
2.0
100
AcDbArc
 50
180.0
 51
243.4349490000005
  0
LINE
  5
36B2
330
18
100
AcDbEntity
  8
1
  6
Continuous
100
AcDbLine
 10
342.6855237899075
 20
48.75923983645829
 30
0.0
 11
343.5166069753608
 21
48.34369774373151
 31
0.0
  0
LINE
  5
36B5
330
18
100
AcDbEntity
  8
1
  6
Continuous
100
AcDbLine
 10
366.0799507899075
 20
57.41202583645836
 30
0.0
 11
366.0799507899075
 21
46.21202583645835
 31
0.0
  0
LINE
  5
36B6
330
18
100
AcDbEntity
  8
1
  6
Continuous
100
AcDbLine
 10
365.5799507899075
 20
58.31202583645833
 30
0.0
 11
365.5799507899075
 21
45.31202583645833
 31
0.0
  0
LINE
  5
36B7
330
18
100
AcDbEntity
  8
1
  6
Continuous
100
AcDbLine
 10
364.5799507899075
 20
58.31202583645833
 30
0.0
 11
364.5799507899075
 21
45.31202583645833
 31
0.0
  0
LINE
  5
36B8
330
18
100
AcDbEntity
  8
1
  6
Continuous
100
AcDbLine
 10
364.5799507899075
 20
53.81202583645833
 30
0.0
 11
359.5799497899076
 21
53.81202583645833
 31
0.0
  0
LINE
  5
36BA
330
18
100
AcDbEntity
  8
1
  6
Continuous
100
AcDbLine
 10
361.5799507899075
 20
58.11202583645833
 30
0.0
 11
357.9259577899076
 21
55.95710683645833
 31
0.0
  0
LINE
  5
36BB
330
18
100
AcDbEntity
  8
1
  6
Continuous
100
AcDbLine
 10
363.2598307899075
 20
57.49587783645832
 30
0.0
 11
362.0799507899075
 21
57.81202583645833
 31
0.0
  0
LINE
  5
36BC
330
18
100
AcDbEntity
  8
1
  6
Continuous
100
AcDbLine
 10
362.0799507899075
 20
58.11202583645833
 30
0.0
 11
361.5799507899075
 21
58.11202583645833
 31
0.0
  0
LINE
  5
36BD
330
18
100
AcDbEntity
  8
1
  6
Continuous
100
AcDbLine
 10
362.0799507899075
 20
57.81202583645833
 30
0.0
 11
362.0799507899075
 21
58.11202583645833
 31
0.0
  0
LINE
  5
36BE
330
18
100
AcDbEntity
  8
1
  6
Continuous
100
AcDbLine
 10
359.5799497899075
 20
55.31202583645833
 30
0.0
 11
359.5799497899076
 21
53.81202583645833
 31
0.0
  0
LINE
  5
36BF
330
18
100
AcDbEntity
  8
1
  6
Continuous
100
AcDbLine
 10
357.6799507899075
 20
55.52642383645835
 30
0.0
 11
357.6799507899075
 21
55.31202583645832
 31
0.0
  0
LINE
  5
36C1
330
18
100
AcDbEntity
  8
1
  6
Continuous
100
AcDbLine
 10
362.5799497899075
 20
55.31202583645833
 30
0.0
 11
362.5799497899075
 21
53.81202583645833
 31
0.0
  0
ARC
  5
36C2
330
18
100
AcDbEntity
  8
1
  6
Continuous
100
AcDbCircle
 10
360.1799507899075
 20
55.77715383645831
 30
0.0
 40
0.3
100
AcDbArc
 50
120.5297060000001
 51
180.0
  0
LINE
  5
36C3
330
18
100
AcDbEntity
  8
1
  6
Continuous
100
AcDbLine
 10
359.8799507899075
 20
55.77715383645831
 30
0.0
 11
359.8799507899075
 21
55.61202583645833
 31
0.0
  0
LINE
  5
36C4
330
18
100
AcDbEntity
  8
1
  6
Continuous
100
AcDbLine
 10
363.1799507899075
 20
56.91202583645829
 30
0.0
 11
361.5137297899075
 21
56.91202583645829
 31
0.0
  0
LINE
  5
36C5
330
18
100
AcDbEntity
  8
1
  6
Continuous
100
AcDbLine
 10
361.5137297899075
 20
56.91202583645824
 30
0.0
 11
360.0275547899075
 21
56.03556383645829
 31
0.0
  0
LINE
  5
36C6
330
18
100
AcDbEntity
  8
1
  6
Continuous
100
AcDbLine
 10
363.4799507899076
 20
57.21202583645831
 30
0.0
 11
363.4799507899076
 21
57.20669883645829
 31
0.0
  0
LINE
  5
36C7
330
18
100
AcDbEntity
  8
1
  6
Continuous
100
AcDbLine
 10
363.1829647899075
 20
56.91202583645829
 30
0.0
 11
361.5137297899075
 21
56.91202583645829
 31
0.0
  0
ARC
  5
36C8
330
18
100
AcDbEntity
  8
1
  6
Continuous
100
AcDbCircle
 10
363.1829647899075
 20
57.2090118364583
 30
0.0
 40
0.296986
100
AcDbArc
 50
270.0
 51
75.00000100000062
  0
ARC
  5
36C9
330
18
100
AcDbEntity
  8
1
  6
Continuous
100
AcDbCircle
 10
360.1799507899075
 20
55.61202583645833
 30
0.0
 40
0.3
100
AcDbArc
 50
180.0
 51
270.0
  0
ARC
  5
36CA
330
18
100
AcDbEntity
  8
1
  6
Continuous
100
AcDbCircle
 10
358.1799507899075
 20
55.52642383645835
 30
0.0
 40
0.5
100
AcDbArc
 50
120.5297060000001
 51
180.0
  0
ARC
  5
36CB
330
18
100
AcDbEntity
  8
1
  6
Continuous
100
AcDbCircle
 10
364.3799507899075
 20
56.96202583645831
 30
0.0
 40
0.3
100
AcDbArc
 50
90.00000000000005
 51
180.0
  0
LINE
  5
36CC
330
18
100
AcDbEntity
  8
1
  6
Continuous
100
AcDbLine
 10
364.5799507899075
 20
57.26202583645832
 30
0.0
 11
364.3799507899075
 21
57.26202583645832
 31
0.0
  0
LINE
  5
36CD
330
18
100
AcDbEntity
  8
1
  6
Continuous
100
AcDbLine
 10
364.0799507899075
 20
55.31202583645833
 30
0.0
 11
364.0799507899075
 21
56.96202583645831
 31
0.0
  0
LINE
  5
36CE
330
18
100
AcDbEntity
  8
1
  6
Continuous
100
AcDbLine
 10
364.5799507899075
 20
58.31202583645833
 30
0.0
 11
365.5799507899075
 21
58.31202583645833
 31
0.0
  0
LINE
  5
36CF
330
18
100
AcDbEntity
  8
1
  6
Continuous
100
AcDbLine
 10
365.5799507899075
 20
58.31202583645833
 30
0.0
 11
366.0799507899075
 21
57.41202583645836
 31
0.0
  0
LINE
  5
36D0
330
18
100
AcDbEntity
  8
1
  6
Continuous
100
AcDbLine
 10
364.5799507899075
 20
49.81202583645833
 30
0.0
 11
359.5799497899076
 21
49.81202583645833
 31
0.0
  0
LINE
  5
36D2
330
18
100
AcDbEntity
  8
1
  6
Continuous
100
AcDbLine
 10
362.0799507899075
 20
45.51202583645832
 30
0.0
 11
361.5799507899075
 21
45.51202583645832
 31
0.0
  0
LINE
  5
36D3
330
18
100
AcDbEntity
  8
1
  6
Continuous
100
AcDbLine
 10
362.0799507899075
 20
45.81202583645833
 30
0.0
 11
362.0799507899075
 21
45.51202583645832
 31
0.0
  0
LINE
  5
36D4
330
18
100
AcDbEntity
  8
1
  6
Continuous
100
AcDbLine
 10
363.4799507899076
 20
46.41202583645823
 30
0.0
 11
363.4799507899076
 21
46.41735283645831
 31
0.0
  0
LINE
  5
36D5
330
18
100
AcDbEntity
  8
1
  6
Continuous
100
AcDbLine
 10
363.2598307899075
 20
46.12817383645833
 30
0.0
 11
362.0799507899075
 21
45.81202583645833
 31
0.0
  0
LINE
  5
36D6
330
18
100
AcDbEntity
  8
1
  6
Continuous
100
AcDbLine
 10
363.1829647899075
 20
46.71202583645825
 30
0.0
 11
361.5137297899075
 21
46.71202583645825
 31
0.0
  0
ARC
  5
36D7
330
18
100
AcDbEntity
  8
1
  6
Continuous
100
AcDbCircle
 10
363.1829647899075
 20
46.41503983645818
 30
0.0
 40
0.296986
100
AcDbArc
 50
284.9999989999993
 51
90.00000000000005
  0
ARC
  5
36F6
330
18
100
AcDbEntity
  8
1
  6
Continuous
100
AcDbCircle
 10
360.1799507899075
 20
47.84689783645833
 30
0.0
 40
0.3
100
AcDbArc
 50
180.0
 51
239.4702939999999
  0
ARC
  5
36F7
330
18
100
AcDbEntity
  8
1
  6
Continuous
100
AcDbCircle
 10
360.1799507899075
 20
48.01202583645832
 30
0.0
 40
0.3
100
AcDbArc
 50
90.00000000000005
 51
180.0
  0
LINE
  5
36F8
330
18
100
AcDbEntity
  8
1
  6
Continuous
100
AcDbLine
 10
359.5799497899075
 20
48.31202583645833
 30
0.0
 11
359.5799497899076
 21
49.81202583645833
 31
0.0
  0
ARC
  5
36F9
330
18
100
AcDbEntity
  8
1
  6
Continuous
100
AcDbCircle
 10
358.1799507899075
 20
48.0976278364583
 30
0.0
 40
0.5
100
AcDbArc
 50
180.0
 51
239.4702939999999
  0
LINE
  5
36FA
330
18
100
AcDbEntity
  8
1
  6
Continuous
100
AcDbLine
 10
359.8799507899075
 20
47.84689783645833
 30
0.0
 11
359.8799507899075
 21
48.01202583645832
 31
0.0
  0
LINE
  5
36FB
330
18
100
AcDbEntity
  8
1
  6
Continuous
100
AcDbLine
 10
357.6799507899075
 20
48.0976278364583
 30
0.0
 11
357.6799507899075
 21
48.31202583645834
 31
0.0
  0
LINE
  5
36FD
330
18
100
AcDbEntity
  8
1
  6
Continuous
100
AcDbLine
 10
362.5799497899075
 20
48.31202583645833
 30
0.0
 11
362.5799497899075
 21
49.81202583645833
 31
0.0
  0
LINE
  5
36FE
330
18
100
AcDbEntity
  8
1
  6
Continuous
100
AcDbLine
 10
361.5799507899075
 20
45.51202583645832
 30
0.0
 11
357.9259577899076
 21
47.66694483645838
 31
0.0
  0
LINE
  5
36FF
330
18
100
AcDbEntity
  8
1
  6
Continuous
100
AcDbLine
 10
361.5137297899075
 20
46.71202583645825
 30
0.0
 11
360.0275547899075
 21
47.58848783645818
 31
0.0
  0
LINE
  5
3700
330
18
100
AcDbEntity
  8
1
  6
Continuous
100
AcDbLine
 10
365.5799507899075
 20
45.31202583645838
 30
0.0
 11
366.0799507899075
 21
46.21202583645835
 31
0.0
  0
ARC
  5
3701
330
18
100
AcDbEntity
  8
1
  6
Continuous
100
AcDbCircle
 10
364.3799507899075
 20
46.66202583645824
 30
0.0
 40
0.3
100
AcDbArc
 50
180.0
 51
270.0
  0
LINE
  5
3702
330
18
100
AcDbEntity
  8
1
  6
Continuous
100
AcDbLine
 10
364.5799507899075
 20
46.36202583645833
 30
0.0
 11
364.3799507899075
 21
46.36202583645833
 31
0.0
  0
LINE
  5
3703
330
18
100
AcDbEntity
  8
1
  6
Continuous
100
AcDbLine
 10
364.5799507899075
 20
45.31202583645833
 30
0.0
 11
365.5799507899075
 21
45.31202583645833
 31
0.0
  0
LINE
  5
3704
330
18
100
AcDbEntity
  8
1
  6
Continuous
100
AcDbLine
 10
364.0799507899075
 20
48.31202583645833
 30
0.0
 11
364.0799507899075
 21
46.66202583645824
 31
0.0
  0
LINE
  5
3833
330
18
100
AcDbEntity
  8
1
  6
Continuous
100
AcDbLine
 10
344.5799497899075
 20
55.31202583645833
 30
0.0
 11
344.5799497899075
 21
48.31202583645833
 31
0.0
  0
ARC
  5
3836
330
18
100
AcDbEntity
  8
1
  6
Continuous
100
AcDbCircle
 10
343.6507711831571
 20
55.01202583645834
 30
0.0
 40
0.3
100
AcDbArc
 50
90.0
 51
116.5650787535169
  0
ARC
  5
3837
330
18
100
AcDbEntity
  8
1
  6
Continuous
100
AcDbCircle
 10
343.6507711831571
 20
48.61202583645833
 30
0.0
 40
0.3
100
AcDbArc
 50
243.4349212464871
 51
270.0
  0
ARC
  5
3847
330
18
100
AcDbEntity
  8
1
  6
Continuous
100
AcDbCircle
 10
343.6507711831571
 20
152.9596628908572
 30
0.0
 40
0.3
100
AcDbArc
 50
243.434921246484
 51
270.0
  0
ARC
  5
3848
330
18
100
AcDbEntity
  8
1
  6
Continuous
100
AcDbCircle
 10
343.6507711831571
 20
159.3596628908571
 30
0.0
 40
0.3
100
AcDbArc
 50
90.0
 51
116.5650787535128
  0
ARC
  5
384A
330
18
100
AcDbEntity
  8
1
  6
Continuous
100
AcDbCircle
 10
342.0799497899075
 20
102.6254647536298
 30
0.0
 40
0.5
100
AcDbArc
 50
108.434948822921
 51
180.0
  0
ARC
  5
384B
330
18
100
AcDbEntity
  8
1
  6
Continuous
100
AcDbCircle
 10
294.5685067919216
 20
99.28584436365783
 30
0.0
 40
0.3
100
AcDbArc
 50
180.0
 51
270.0
  0
ARC
  5
384C
330
18
100
AcDbEntity
  8
1
  6
Continuous
100
AcDbCircle
 10
295.4685067919216
 20
99.28584436365781
 30
0.0
 40
0.3
100
AcDbArc
 50
269.999999999999
 51
0.0
  0
ARC
  5
384D
330
18
100
AcDbEntity
  8
1
  6
Continuous
100
AcDbCircle
 10
300.0685067919216
 20
99.28584436365783
 30
0.0
 40
0.3
100
AcDbArc
 50
180.0
 51
270.0
  0
ARC
  5
384E
330
18
100
AcDbEntity
  8
1
  6
Continuous
100
AcDbCircle
 10
300.9685067919217
 20
99.28584436365781
 30
0.0
 40
0.3
100
AcDbArc
 50
269.999999999999
 51
0.0
  0
ARC
  5
384F
330
18
100
AcDbEntity
  8
1
  6
Continuous
100
AcDbCircle
 10
300.9685067919217
 20
108.6858443636578
 30
0.0
 40
0.3
100
AcDbArc
 50
0.0
 51
90.0
  0
ARC
  5
3850
330
18
100
AcDbEntity
  8
1
  6
Continuous
100
AcDbCircle
 10
300.0685067919216
 20
108.6858443636578
 30
0.0
 40
0.3
100
AcDbArc
 50
90.0
 51
180.0
  0
ARC
  5
3851
330
18
100
AcDbEntity
  8
1
  6
Continuous
100
AcDbCircle
 10
294.5685067919217
 20
108.6858443636578
 30
0.0
 40
0.3
100
AcDbArc
 50
90.0
 51
180.0
  0
ARC
  5
3852
330
18
100
AcDbEntity
  8
1
  6
Continuous
100
AcDbCircle
 10
295.4685067919216
 20
108.6858443636578
 30
0.0
 40
0.3
100
AcDbArc
 50
0.0
 51
90.0
  0
LINE
  5
3A01
330
18
100
AcDbEntity
  8
1
  6
Continuous
100
AcDbLine
 10
483.7234933027557
 20
102.6254647536298
 30
0.0
 11
483.7234933027557
 21
102.2628773636578
 31
0.0
  0
ARC
  5
3A06
330
18
100
AcDbEntity
  8
1
  6
Continuous
100
AcDbCircle
 10
460.9234923027556
 20
102.5358443636578
 30
0.0
 40
0.3
100
AcDbArc
 50
270.0
 51
0.000000000000007
  0
ARC
  5
3A07
330
18
100
AcDbEntity
  8
1
  6
Continuous
100
AcDbCircle
 10
467.3234923027556
 20
102.5358443636578
 30
0.0
 40
0.3
100
AcDbArc
 50
270.0
 51
0.000000000000007
  0
ARC
  5
3A08
330
18
100
AcDbEntity
  8
1
  6
Continuous
100
AcDbCircle
 10
462.1234923027556
 20
102.5358443636578
 30
0.0
 40
0.3
100
AcDbArc
 50
180.0
 51
270.0
  0
LINE
  5
3A09
330
18
100
AcDbEntity
  8
1
  6
Continuous
100
AcDbLine
 10
459.7234923027555
 20
109.9858443636578
 30
0.0
 11
459.7234923027555
 21
97.98584436365782
 31
0.0
  0
LINE
  5
3A0A
330
18
100
AcDbEntity
  8
1
  6
Continuous
100
AcDbLine
 10
460.7234933027556
 20
109.9858443636578
 30
0.0
 11
460.7234933027556
 21
97.98584436365782
 31
0.0
  0
LINE
  5
3A0B
330
18
100
AcDbEntity
  8
1
  6
Continuous
100
AcDbLine
 10
459.2234923027556
 20
109.0858443636578
 30
0.0
 11
459.2234923027556
 21
98.88584436365784
 31
0.0
  0
LINE
  5
3A0E
330
18
100
AcDbEntity
  8
1
  6
Continuous
100
AcDbLine
 10
481.7234923027554
 20
103.3525113636577
 30
0.0
 11
481.7234923027554
 21
101.0858443636577
 31
0.0
  0
LINE
  5
3A11
330
18
100
AcDbEntity
  8
1
  6
Continuous
100
AcDbLine
 10
465.7234933027557
 20
101.9858443636578
 30
0.0
 11
480.4775523027556
 21
101.9858443636578
 31
0.0
  0
LINE
  5
3A12
330
18
100
AcDbEntity
  8
1
  6
Continuous
100
AcDbLine
 10
480.7717263027556
 20
101.7446793636578
 30
0.0
 11
480.9152603027556
 21
101.0270093636578
 31
0.0
  0
LINE
  5
3A13
330
18
100
AcDbEntity
  8
1
  6
Continuous
100
AcDbLine
 10
481.2094343027556
 20
100.7858443636578
 30
0.0
 11
481.7234933027556
 21
100.7858443636578
 31
0.0
  0
ARC
  5
3A14
330
18
100
AcDbEntity
  8
1
  6
Continuous
100
AcDbCircle
 10
481.2094343027556
 20
101.0858443636578
 30
0.0
 40
0.3
100
AcDbArc
 50
191.3099159999997
 51
270.0
  0
LINE
  5
3A15
330
18
100
AcDbEntity
  8
1
  6
Continuous
100
AcDbLine
 10
481.7234933027556
 20
100.7858443636578
 30
0.0
 11
483.0948843027556
 21
101.3344013636578
 31
0.0
  0
ARC
  5
3A16
330
18
100
AcDbEntity
  8
1
  6
Continuous
100
AcDbCircle
 10
482.7234933027557
 20
102.2628773636578
 30
0.0
 40
1.0
100
AcDbArc
 50
291.8014249999997
 51
0.000000000000007
  0
ARC
  5
3A17
330
18
100
AcDbEntity
  8
1
  6
Continuous
100
AcDbCircle
 10
480.4775523027556
 20
101.6858443636578
 30
0.0
 40
0.3
100
AcDbArc
 50
11.30991599999965
 51
90.0
  0
LINE
  5
3A19
330
18
100
AcDbEntity
  8
1
  6
Continuous
100
AcDbLine
 10
460.7234933027556
 20
98.98584436365782
 30
0.0
 11
462.6234933027556
 21
98.98584436365782
 31
0.0
  0
LINE
  5
3A1A
330
18
100
AcDbEntity
  8
1
  6
Continuous
100
AcDbLine
 10
462.8034933027556
 20
99.04584436365787
 30
0.0
 11
465.5234933027556
 21
101.0858443636578
 31
0.0
  0
LINE
  5
3A1B
330
18
100
AcDbEntity
  8
1
  6
Continuous
100
AcDbLine
 10
462.1234923027556
 20
102.2358443636578
 30
0.0
 11
467.3234923027556
 21
102.2358443636578
 31
0.0
  0
ARC
  5
3A1C
330
18
100
AcDbEntity
  8
1
  6
Continuous
100
AcDbCircle
 10
465.2234933027556
 20
101.4858443636578
 30
0.0
 40
0.5
100
AcDbArc
 50
306.8698979999997
 51
0.000000000000007
  0
LINE
  5
3A1D
330
18
100
AcDbEntity
  8
1
  6
Continuous
100
AcDbLine
 10
465.7234933027557
 20
101.4858443636578
 30
0.0
 11
465.7234933027557
 21
102.2358443636578
 31
0.0
  0
ARC
  5
3A1E
330
18
100
AcDbEntity
  8
1
  6
Continuous
100
AcDbCircle
 10
462.6234933027556
 20
99.28584436365783
 30
0.0
 40
0.3
100
AcDbArc
 50
270.0
 51
306.8698979999997
  0
LINE
  5
3A1F
330
18
100
AcDbEntity
  8
1
  6
Continuous
100
AcDbLine
 10
459.7234923027555
 20
97.98584436365782
 30
0.0
 11
459.2234923027556
 21
98.88584436365784
 31
0.0
  0
LINE
  5
3A20
330
18
100
AcDbEntity
  8
1
  6
Continuous
100
AcDbLine
 10
460.7234923027556
 20
102.2358443636578
 30
0.0
 11
460.9234923027556
 21
102.2358443636578
 31
0.0
  0
LINE
  5
3A21
330
18
100
AcDbEntity
  8
1
  6
Continuous
100
AcDbLine
 10
460.7234933027556
 20
97.98584436365782
 30
0.0
 11
459.7234923027555
 21
97.98584436365782
 31
0.0
  0
LINE
  5
3A22
330
18
100
AcDbEntity
  8
4
  6
CENTER
 48
0.2
100
AcDbLine
 10
457.2234923027557
 20
103.9858443636577
 30
0.0
 11
483.7234923027553
 21
103.9858443636577
 31
0.0
  0
LINE
  5
3A23
330
18
100
AcDbEntity
  8
1
  6
Continuous
100
AcDbLine
 10
467.6234923027556
 20
103.9858443636577
 30
0.0
 11
480.7234933027555
 21
103.9858443636577
 31
0.0
  0
LINE
  5
3A24
330
18
100
AcDbEntity
  8
1
  6
Continuous
100
AcDbLine
 10
480.7234933027556
 20
103.9858443636578
 30
0.0
 11
483.3816071857639
 21
103.0998064026551
 31
0.0
  0
ARC
  5
3A25
330
18
100
AcDbEntity
  8
1
  6
Continuous
100
AcDbCircle
 10
483.2234933027557
 20
102.6254647536298
 30
0.0
 40
0.5
100
AcDbArc
 50
0.000000000000007
 51
71.5650511770789
  0
LINE
  5
3A26
330
18
100
AcDbEntity
  8
1
  6
Continuous
100
AcDbLine
 10
460.7234933027556
 20
108.9858443636578
 30
0.0
 11
462.6234933027556
 21
108.9858443636578
 31
0.0
  0
LINE
  5
3A27
330
18
100
AcDbEntity
  8
1
  6
Continuous
100
AcDbLine
 10
467.3234923027556
 20
105.7358443636578
 30
0.0
 11
462.1234923027556
 21
105.7358443636578
 31
0.0
  0
LINE
  5
3A28
330
18
100
AcDbEntity
  8
1
  6
Continuous
100
AcDbLine
 10
462.8034933027556
 20
108.9258443636578
 30
0.0
 11
465.5234933027556
 21
106.8858443636578
 31
0.0
  0
LINE
  5
3A29
330
18
100
AcDbEntity
  8
1
  6
Continuous
100
AcDbLine
 10
465.7234933027557
 20
106.4858443636578
 30
0.0
 11
465.7234933027557
 21
105.7358443636578
 31
0.0
  0
ARC
  5
3A2A
330
18
100
AcDbEntity
  8
1
  6
Continuous
100
AcDbCircle
 10
467.3234923027556
 20
105.4358443636578
 30
0.0
 40
0.3
100
AcDbArc
 50
0.000000000000007
 51
90.0
  0
ARC
  5
3A2B
330
18
100
AcDbEntity
  8
1
  6
Continuous
100
AcDbCircle
 10
465.2234933027556
 20
106.4858443636578
 30
0.0
 40
0.5
100
AcDbArc
 50
0.000000000000007
 51
53.13010200000036
  0
ARC
  5
3A2C
330
18
100
AcDbEntity
  8
1
  6
Continuous
100
AcDbCircle
 10
462.1234923027556
 20
105.4358443636578
 30
0.0
 40
0.3
100
AcDbArc
 50
90.0
 51
180.0
  0
ARC
  5
3A2D
330
18
100
AcDbEntity
  8
1
  6
Continuous
100
AcDbCircle
 10
462.6234933027556
 20
108.6858443636578
 30
0.0
 40
0.3
100
AcDbArc
 50
53.13010200000036
 51
90.0
  0
LINE
  5
3A2E
330
18
100
AcDbEntity
  8
1
  6
Continuous
100
AcDbLine
 10
467.6234923027556
 20
105.4358443636578
 30
0.0
 11
467.6234923027556
 21
102.5358443636577
 31
0.0
  0
LINE
  5
3A2F
330
18
100
AcDbEntity
  8
1
  6
Continuous
100
AcDbLine
 10
463.2234923027557
 20
105.4358443636578
 30
0.0
 11
463.2234923027557
 21
102.5358443636577
 31
0.0
  0
LINE
  5
3A30
330
18
100
AcDbEntity
  8
1
  6
Continuous
100
AcDbLine
 10
463.7234923027556
 20
105.4358443636578
 30
0.0
 11
463.7234923027556
 21
102.5358443636577
 31
0.0
  0
LINE
  5
3A31
330
18
100
AcDbEntity
  8
1
  6
Continuous
100
AcDbLine
 10
461.8234923027555
 20
105.4358443636578
 30
0.0
 11
461.8234923027555
 21
102.5358443636577
 31
0.0
  0
ARC
  5
3A32
330
18
100
AcDbEntity
  8
1
  6
Continuous
100
AcDbCircle
 10
460.9234933027557
 20
105.4358443636578
 30
0.0
 40
0.3
100
AcDbArc
 50
0.000000000000007
 51
90.0
  0
LINE
  5
3A33
330
18
100
AcDbEntity
  8
1
  6
Continuous
100
AcDbLine
 10
460.7234933027556
 20
105.7358443636578
 30
0.0
 11
460.9234933027557
 21
105.7358443636578
 31
0.0
  0
LINE
  5
3A34
330
18
100
AcDbEntity
  8
1
  6
Continuous
100
AcDbLine
 10
459.7234923027555
 20
109.9858443636578
 30
0.0
 11
459.2234923027556
 21
109.0858443636578
 31
0.0
  0
LINE
  5
3A35
330
18
100
AcDbEntity
  8
1
  6
Continuous
100
AcDbLine
 10
460.7234933027556
 20
109.9858443636578
 30
0.0
 11
459.7234923027555
 21
109.9858443636578
 31
0.0
  0
LINE
  5
3A36
330
18
100
AcDbEntity
  8
1
  6
Continuous
100
AcDbLine
 10
461.2234923027556
 20
105.4358443636578
 30
0.0
 11
461.2234923027556
 21
102.5358443636577
 31
0.0
  0
ENDSEC
  0
SECTION
  2
OBJECTS
  0
DICTIONARY
  5
C
330
0
100
AcDbDictionary
281
     1
  3
ACAD_CIP_PREVIOUS_PRODUCT_INFO
350
3DD8
  3
ACAD_COLOR
350
3DBB
  3
ACAD_DETAILVIEWSTYLE
350
3DD4
  3
ACAD_GROUP
350
D
  3
ACAD_LAYOUT
350
94
  3
ACAD_MATERIAL
350
3D89
  3
ACAD_MLEADERSTYLE
350
3DD0
  3
ACAD_MLINESTYLE
350
1B
  3
ACAD_PLOTSETTINGS
350
95
  3
ACAD_PLOTSTYLENAME
350
3D87
  3
ACAD_SCALELIST
350
3DBE
  3
ACAD_SECTIONVIEWSTYLE
350
3DD2
  3
ACAD_TABLESTYLE
350
3DBC
  3
ACAD_VISUALSTYLE
350
3DA2
  3
ACDB_RECOMPOSE_DATA
350
3DF6
  3
AcDbVariableDictionary
350
3DE9
  3
CONTENTDICTIONARY
350
3D
  3
DWGPROPS
350
3DF7
  0
DICTIONARY
  5
3DD9
330
E
100
AcDbDictionary
280
     1
281
     1
  3
ADSK_XREC_LAYER_RECONCILED
360
3DDA
  0
DICTIONARY
  5
3DDB
330
4E
100
AcDbDictionary
280
     1
281
     1
  3
ADSK_XREC_LAYER_RECONCILED
360
3DDC
  0
DICTIONARY
  5
3DDD
330
4F
100
AcDbDictionary
280
     1
281
     1
  3
ADSK_XREC_LAYER_RECONCILED
360
3DDE
  0
DICTIONARY
  5
3DDF
330
50
100
AcDbDictionary
280
     1
281
     1
  3
ADSK_XREC_LAYER_RECONCILED
360
3DE0
  0
DICTIONARY
  5
3DE1
330
51
100
AcDbDictionary
280
     1
281
     1
  3
ADSK_XREC_LAYER_RECONCILED
360
3DE2
  0
DICTIONARY
  5
3DE3
330
52
100
AcDbDictionary
280
     1
281
     1
  3
ADSK_XREC_LAYER_RECONCILED
360
3DE4
  0
DICTIONARY
  5
3DE5
330
53
100
AcDbDictionary
280
     1
281
     1
  3
ADSK_XREC_LAYER_RECONCILED
360
3DE6
  0
DICTIONARY
  5
3DE7
330
54
100
AcDbDictionary
280
     1
281
     1
  3
ADSK_XREC_LAYER_RECONCILED
360
3DE8
  0
DICTIONARY
  5
3D82
330
18
100
AcDbDictionary
281
     1
  3
ACAD_LAYOUTSELFREF
350
3D83
  0
DICTIONARY
  5
3D80
330
15
100
AcDbDictionary
281
     1
  3
ACAD_LAYOUTSELFREF
350
3D81
  0
XRECORD
  5
3DD8
102
{ACAD_REACTORS
330
C
102
}
330
C
100
AcDbXrecord
280
     1
300
ACDLT
300
2014
300
ACDLT_F_S
  0
DICTIONARY
  5
3DBB
102
{ACAD_REACTORS
330
C
102
}
330
C
100
AcDbDictionary
281
     1
  0
DICTIONARY
  5
3DD4
102
{ACAD_REACTORS
330
C
102
}
330
C
100
AcDbDictionary
281
     1
  3
Imperial24
350
3DD5
  0
DICTIONARY
  5
D
102
{ACAD_REACTORS
330
C
102
}
330
C
100
AcDbDictionary
281
     1
  0
DICTIONARY
  5
94
102
{ACAD_REACTORS
330
C
102
}
330
C
100
AcDbDictionary
281
     1
  3
Model
350
3DD6
  3
レイアウト1
350
3DD7
  0
DICTIONARY
  5
3D89
102
{ACAD_REACTORS
330
C
102
}
330
C
100
AcDbDictionary
281
     1
  3
ByBlock
350
3D92
  3
ByLayer
350
3D8A
  3
Global
350
3D9A
  0
DICTIONARY
  5
3DD0
102
{ACAD_REACTORS
330
C
102
}
330
C
100
AcDbDictionary
281
     1
  3
Standard
350
3DD1
  0
DICTIONARY
  5
1B
102
{ACAD_REACTORS
330
C
102
}
330
C
100
AcDbDictionary
281
     1
  3
STANDARD
350
1C
  0
DICTIONARY
  5
95
102
{ACAD_REACTORS
330
C
102
}
330
C
100
AcDbDictionary
281
     1
  0
ACDBDICTIONARYWDFLT
  5
3D87
102
{ACAD_REACTORS
330
C
102
}
330
C
100
AcDbDictionary
281
     1
  3
Normal
350
3D88
100
AcDbDictionaryWithDefault
340
3D88
  0
DICTIONARY
  5
3DBE
102
{ACAD_REACTORS
330
C
102
}
330
C
100
AcDbDictionary
281
     1
  3
A0
350
3DBF
  3
A1
350
3DC0
  3
A2
350
3DC1
  3
A3
350
3DC2
  3
A4
350
3DC3
  3
A5
350
3DC4
  3
A6
350
3DC5
  3
A7
350
3DC6
  3
A8
350
3DC7
  3
A9
350
3DC8
  3
B0
350
3DC9
  3
B1
350
3DCA
  3
B2
350
3DCB
  3
B3
350
3DCC
  3
B4
350
3DCD
  3
B5
350
3DCE
  3
B6
350
3DCF
  0
DICTIONARY
  5
3DD2
102
{ACAD_REACTORS
330
C
102
}
330
C
100
AcDbDictionary
281
     1
  3
Imperial24
350
3DD3
  0
DICTIONARY
  5
3DBC
102
{ACAD_REACTORS
330
C
102
}
330
C
100
AcDbDictionary
281
     1
  3
Standard
350
3DBD
  0
DICTIONARY
  5
3DA2
102
{ACAD_REACTORS
330
C
102
}
330
C
100
AcDbDictionary
281
     1
  3
2dWireframe
350
3DA8
  3
Basic
350
3DA7
  3
Brighten
350
3DAE
  3
ColorChange
350
3DB2
  3
Conceptual
350
3DAB
  3
Dim
350
3DAD
  3
EdgeColorOff
350
3DBA
  3
Facepattern
350
3DB1
  3
Flat
350
3DA3
  3
FlatWithEdges
350
3DA4
  3
Gouraud
350
3DA5
  3
GouraudWithEdges
350
3DA6
  3
Hidden
350
3DAA
  3
JitterOff
350
3DB8
  3
Linepattern
350
3DB0
  3
OverhangOff
350
3DB9
  3
Realistic
350
3DAC
  3
Shaded
350
3DB7
  3
Shaded with edges
350
3DB6
  3
Shades of Gray
350
3DB3
  3
Sketchy
350
3DB4
  3
Thicken
350
3DAF
  3
Wireframe
350
3DA9
  3
X-Ray
350
3DB5
  0
XRECORD
  5
3DF6
102
{ACAD_REACTORS
330
C
102
}
330
C
100
AcDbXrecord
280
     1
 90
        1
330
3DBD
  0
DICTIONARY
  5
3DE9
102
{ACAD_REACTORS
330
C
102
}
330
C
100
AcDbDictionary
281
     1
  3
CANNOSCALE
350
3DEE
  3
CMLEADERSTYLE
350
3DEB
  3
CTABLESTYLE
350
3DEA
  3
CVIEWDETAILSTYLE
350
3DEC
  3
CVIEWSECTIONSTYLE
350
3DED
  3
DIMASSOC
350
3DF1
  3
INDEXCTL
350
3DF0
  3
SORTENTS
350
3DEF
  3
XCLIPFRAME
350
3DF2
  0
DICTIONARY
  5
3D
102
{ACAD_REACTORS
330
C
102
}
330
C
100
AcDbDictionary
281
     1
  0
XRECORD
  5
3DF7
102
{ACAD_REACTORS
330
C
102
}
330
C
100
AcDbXrecord
280
     1
  1
DWGPROPS COOKIE
  2

  3

  4

  6

  7

  8
Yoshitsune
  9

300
=
301
=
302
=
303
=
304
=
305
=
306
=
307
=
308
=
309
=
 40
0.1091696990740741
 41
2454153.648918542
 42
2457192.602223033
  1

 90
        0
  0
XRECORD
  5
3DDA
102
{ACAD_REACTORS
330
3DD9
102
}
330
3DD9
100
AcDbXrecord
280
     1
290
     1
  0
XRECORD
  5
3DDC
102
{ACAD_REACTORS
330
3DDB
102
}
330
3DDB
100
AcDbXrecord
280
     1
290
     1
  0
XRECORD
  5
3DDE
102
{ACAD_REACTORS
330
3DDD
102
}
330
3DDD
100
AcDbXrecord
280
     1
290
     1
  0
XRECORD
  5
3DE0
102
{ACAD_REACTORS
330
3DDF
102
}
330
3DDF
100
AcDbXrecord
280
     1
290
     1
  0
XRECORD
  5
3DE2
102
{ACAD_REACTORS
330
3DE1
102
}
330
3DE1
100
AcDbXrecord
280
     1
290
     1
  0
XRECORD
  5
3DE4
102
{ACAD_REACTORS
330
3DE3
102
}
330
3DE3
100
AcDbXrecord
280
     1
290
     1
  0
XRECORD
  5
3DE6
102
{ACAD_REACTORS
330
3DE5
102
}
330
3DE5
100
AcDbXrecord
280
     1
290
     1
  0
XRECORD
  5
3DE8
102
{ACAD_REACTORS
330
3DE7
102
}
330
3DE7
100
AcDbXrecord
280
     1
290
     1
  0
XRECORD
  5
3D83
102
{ACAD_REACTORS
330
3D82
102
}
330
3D82
100
AcDbXrecord
280
     1
340
18
  0
XRECORD
  5
3D81
102
{ACAD_REACTORS
330
3D80
102
}
330
3D80
100
AcDbXrecord
280
     1
340
15
  0
ACDBDETAILVIEWSTYLE
  5
3DD5
102
{ACAD_XDICTIONARY
360
3E2F
102
}
102
{ACAD_REACTORS
330
3DD4
102
}
330
3DD4
100
AcDbModelDocViewStyle
 70
     0
  3
Imperial24
290
     0
100
AcDbDetailViewStyle
 70
     0
 71
     0
 90
        3
 71
     1
340
F
 40
0.24
340
0
 40
0.24
300

 40
0.36
280
     3
 71
     2
340
14
 90
       25
 71
     3
340
F
 40
0.24
 90
        1
 40
0.75
 90
        1
300
%<\AcVar ViewType \f "%tc1">% %<\AcVar ViewDetailId>%\PSCALE %<\AcVar ViewScale \f "%sn">%
 71
     4
340
14
 90
       25
340
14
 90
       25
280
     0
  0
LAYOUT
  5
3DD6
102
{ACAD_XDICTIONARY
360
3E31
102
}
102
{ACAD_REACTORS
330
94
102
}
330
94
100
AcDbPlotSettings
  1

  2
Canon LBP9100C
  4

  6

 40
0.0
 41
0.0
 42
0.0
 43
0.0
 44
0.0
 45
0.0
 46
0.0
 47
0.0
 48
0.0
 49
0.0
140
0.0
141
0.0
142
1.0
143
1.0
 70
  1712
 72
     0
 73
     0
 74
     0
  7

 75
     0
147
1.0
148
0.0
149
0.0
100
AcDbLayout
  1
Model
 70
     1
 71
     0
 10
0.0
 20
0.0
 11
12.0
 21
9.0
 12
0.0
 22
0.0
 32
0.0
 14
0.0
 24
0.0
 34
0.0
 15
0.0
 25
0.0
 35
0.0
146
0.0
 13
0.0
 23
0.0
 33
0.0
 16
1.0
 26
0.0
 36
0.0
 17
0.0
 27
1.0
 37
0.0
 76
     0
330
18
331
3D7F
  0
LAYOUT
  5
3DD7
102
{ACAD_XDICTIONARY
360
3E33
102
}
102
{ACAD_REACTORS
330
94
102
}
330
94
100
AcDbPlotSettings
  1

  2
Canon LBP9100C
  4

  6

 40
0.0
 41
0.0
 42
0.0
 43
0.0
 44
0.0
 45
0.0
 46
0.0
 47
0.0
 48
0.0
 49
0.0
140
0.0
141
0.0
142
1.0
143
1.0
 70
   688
 72
     0
 73
     0
 74
     5
  7

 75
    16
147
1.0
148
0.0
149
0.0
100
AcDbLayout
  1
レイアウト1
 70
     1
 71
     1
 10
0.0
 20
0.0
 11
420.0
 21
297.0
 12
0.0
 22
0.0
 32
0.0
 14
1.000000000000000E+20
 24
1.000000000000000E+20
 34
1.000000000000000E+20
 15
-1.000000000000000E+20
 25
-1.000000000000000E+20
 35
-1.000000000000000E+20
146
0.0
 13
0.0
 23
0.0
 33
0.0
 16
1.0
 26
0.0
 36
0.0
 17
0.0
 27
1.0
 37
0.0
 76
     0
330
15
  0
MATERIAL
  5
3D92
102
{ACAD_XDICTIONARY
360
3D93
102
}
102
{ACAD_REACTORS
330
3D89
102
}
330
3D89
100
AcDbMaterial
  1
ByBlock
 72
     0
 43
0.0208333333333333
 43
0.0
 43
0.0
 43
0.0
 43
0.0
 43
0.0208333333333333
 43
0.0
 43
0.0
 43
0.0
 43
0.0
 43
1.0
 43
0.0
 43
0.0
 43
0.0
 43
0.0
 43
1.0
 77
     0
 47
0.0208333333333333
 47
0.0
 47
0.0
 47
0.0
 47
0.0
 47
0.0208333333333333
 47
0.0
 47
0.0
 47
0.0
 47
0.0
 47
1.0
 47
0.0
 47
0.0
 47
0.0
 47
0.0
 47
1.0
171
     0
 49
0.0208333333333333
 49
0.0
 49
0.0
 49
0.0
 49
0.0
 49
0.0208333333333333
 49
0.0
 49
0.0
 49
0.0
 49
0.0
 49
1.0
 49
0.0
 49
0.0
 49
0.0
 49
0.0
 49
1.0
175
     0
142
0.0208333333333333
142
0.0
142
0.0
142
0.0
142
0.0
142
0.0208333333333333
142
0.0
142
0.0
142
0.0
142
0.0
142
1.0
142
0.0
142
0.0
142
0.0
142
0.0
142
1.0
179
     0
144
0.0208333333333333
144
0.0
144
0.0
144
0.0
144
0.0
144
0.0208333333333333
144
0.0
144
0.0
144
0.0
144
0.0
144
1.0
144
0.0
144
0.0
144
0.0
144
0.0
144
1.0
147
0.0208333333333333
147
0.0
147
0.0
147
0.0
147
0.0
147
0.0208333333333333
147
0.0
147
0.0
147
0.0
147
0.0
147
1.0
147
0.0
147
0.0
147
0.0
147
0.0
147
1.0
  0
MATERIAL
  5
3D8A
102
{ACAD_XDICTIONARY
360
3D8B
102
}
102
{ACAD_REACTORS
330
3D89
102
}
330
3D89
100
AcDbMaterial
  1
ByLayer
 72
     0
 43
0.0208333333333333
 43
0.0
 43
0.0
 43
0.0
 43
0.0
 43
0.0208333333333333
 43
0.0
 43
0.0
 43
0.0
 43
0.0
 43
1.0
 43
0.0
 43
0.0
 43
0.0
 43
0.0
 43
1.0
 77
     0
 47
0.0208333333333333
 47
0.0
 47
0.0
 47
0.0
 47
0.0
 47
0.0208333333333333
 47
0.0
 47
0.0
 47
0.0
 47
0.0
 47
1.0
 47
0.0
 47
0.0
 47
0.0
 47
0.0
 47
1.0
171
     0
 49
0.0208333333333333
 49
0.0
 49
0.0
 49
0.0
 49
0.0
 49
0.0208333333333333
 49
0.0
 49
0.0
 49
0.0
 49
0.0
 49
1.0
 49
0.0
 49
0.0
 49
0.0
 49
0.0
 49
1.0
175
     0
142
0.0208333333333333
142
0.0
142
0.0
142
0.0
142
0.0
142
0.0208333333333333
142
0.0
142
0.0
142
0.0
142
0.0
142
1.0
142
0.0
142
0.0
142
0.0
142
0.0
142
1.0
179
     0
144
0.0208333333333333
144
0.0
144
0.0
144
0.0
144
0.0
144
0.0208333333333333
144
0.0
144
0.0
144
0.0
144
0.0
144
1.0
144
0.0
144
0.0
144
0.0
144
0.0
144
1.0
147
0.0208333333333333
147
0.0
147
0.0
147
0.0
147
0.0
147
0.0208333333333333
147
0.0
147
0.0
147
0.0
147
0.0
147
1.0
147
0.0
147
0.0
147
0.0
147
0.0
147
1.0
  0
MATERIAL
  5
3D9A
102
{ACAD_XDICTIONARY
360
3D9B
102
}
102
{ACAD_REACTORS
330
3D89
102
}
330
3D89
100
AcDbMaterial
  1
Global
 72
     0
 43
0.0208333333333333
 43
0.0
 43
0.0
 43
0.0
 43
0.0
 43
0.0208333333333333
 43
0.0
 43
0.0
 43
0.0
 43
0.0
 43
1.0
 43
0.0
 43
0.0
 43
0.0
 43
0.0
 43
1.0
 77
     0
 47
0.0208333333333333
 47
0.0
 47
0.0
 47
0.0
 47
0.0
 47
0.0208333333333333
 47
0.0
 47
0.0
 47
0.0
 47
0.0
 47
1.0
 47
0.0
 47
0.0
 47
0.0
 47
0.0
 47
1.0
171
     0
 49
0.0208333333333333
 49
0.0
 49
0.0
 49
0.0
 49
0.0
 49
0.0208333333333333
 49
0.0
 49
0.0
 49
0.0
 49
0.0
 49
1.0
 49
0.0
 49
0.0
 49
0.0
 49
0.0
 49
1.0
175
     0
142
0.0208333333333333
142
0.0
142
0.0
142
0.0
142
0.0
142
0.0208333333333333
142
0.0
142
0.0
142
0.0
142
0.0
142
1.0
142
0.0
142
0.0
142
0.0
142
0.0
142
1.0
179
     0
144
0.0208333333333333
144
0.0
144
0.0
144
0.0
144
0.0
144
0.0208333333333333
144
0.0
144
0.0
144
0.0
144
0.0
144
1.0
144
0.0
144
0.0
144
0.0
144
0.0
144
1.0
147
0.0208333333333333
147
0.0
147
0.0
147
0.0
147
0.0
147
0.0208333333333333
147
0.0
147
0.0
147
0.0
147
0.0
147
1.0
147
0.0
147
0.0
147
0.0
147
0.0
147
1.0
  0
MLEADERSTYLE
  5
3DD1
102
{ACAD_REACTORS
330
3DD0
102
}
330
3DD0
100
AcDbMLeaderStyle
170
     2
171
     1
172
     0
 90
        2
 40
0.0
 41
0.0
173
     1
 91
-1056964608
340
12
 92
       -2
290
     1
 42
0.09
291
     1
 43
0.36
  3
Standard
 44
0.18
300

342
F
174
     1
178
     6
175
     1
176
     0
 93
-1056964608
 45
0.18
292
     0
297
     0
 46
0.18
 94
-1056964608
 47
1.0
 49
1.0
140
1.0
293
     1
141
0.0
294
     1
177
     0
142
1.0
295
     0
296
     0
143
0.125
1001
ACAD_MLEADERVER
1070
     2
  0
MLINESTYLE
  5
1C
102
{ACAD_REACTORS
330
1B
102
}
330
1B
100
AcDbMlineStyle
  2
STANDARD
 70
     0
  3

 62
   256
 51
90.0
 52
90.0
 71
     2
 49
0.5
 62
   256
  6
BYLAYER
 49
-0.5
 62
   256
  6
BYLAYER
  0
ACDBPLACEHOLDER
  5
3D88
102
{ACAD_REACTORS
330
3D87
102
}
330
3D87
  0
SCALE
  5
3DBF
102
{ACAD_REACTORS
330
3DBE
102
}
330
3DBE
100
AcDbScale
 70
     0
300
1:1
140
1.0
141
1.0
290
     1
  0
SCALE
  5
3DC0
102
{ACAD_REACTORS
330
3DBE
102
}
330
3DBE
100
AcDbScale
 70
     0
300
1/128" = 1'-0"
140
0.0078125
141
12.0
290
     0
  0
SCALE
  5
3DC1
102
{ACAD_REACTORS
330
3DBE
102
}
330
3DBE
100
AcDbScale
 70
     0
300
1/64" = 1'-0"
140
0.015625
141
12.0
290
     0
  0
SCALE
  5
3DC2
102
{ACAD_REACTORS
330
3DBE
102
}
330
3DBE
100
AcDbScale
 70
     0
300
1/32" = 1'-0"
140
0.03125
141
12.0
290
     0
  0
SCALE
  5
3DC3
102
{ACAD_REACTORS
330
3DBE
102
}
330
3DBE
100
AcDbScale
 70
     0
300
1/16" = 1'-0"
140
0.0625
141
12.0
290
     0
  0
SCALE
  5
3DC4
102
{ACAD_REACTORS
330
3DBE
102
}
330
3DBE
100
AcDbScale
 70
     0
300
3/32" = 1'-0"
140
0.09375
141
12.0
290
     0
  0
SCALE
  5
3DC5
102
{ACAD_REACTORS
330
3DBE
102
}
330
3DBE
100
AcDbScale
 70
     0
300
1/8" = 1'-0"
140
0.125
141
12.0
290
     0
  0
SCALE
  5
3DC6
102
{ACAD_REACTORS
330
3DBE
102
}
330
3DBE
100
AcDbScale
 70
     0
300
3/16" = 1'-0"
140
0.1875
141
12.0
290
     0
  0
SCALE
  5
3DC7
102
{ACAD_REACTORS
330
3DBE
102
}
330
3DBE
100
AcDbScale
 70
     0
300
1/4" = 1'-0"
140
0.25
141
12.0
290
     0
  0
SCALE
  5
3DC8
102
{ACAD_REACTORS
330
3DBE
102
}
330
3DBE
100
AcDbScale
 70
     0
300
3/8" = 1'-0"
140
0.375
141
12.0
290
     0
  0
SCALE
  5
3DC9
102
{ACAD_REACTORS
330
3DBE
102
}
330
3DBE
100
AcDbScale
 70
     0
300
1/2" = 1'-0"
140
0.5
141
12.0
290
     0
  0
SCALE
  5
3DCA
102
{ACAD_REACTORS
330
3DBE
102
}
330
3DBE
100
AcDbScale
 70
     0
300
3/4" = 1'-0"
140
0.75
141
12.0
290
     0
  0
SCALE
  5
3DCB
102
{ACAD_REACTORS
330
3DBE
102
}
330
3DBE
100
AcDbScale
 70
     0
300
1" = 1'-0"
140
1.0
141
12.0
290
     0
  0
SCALE
  5
3DCC
102
{ACAD_REACTORS
330
3DBE
102
}
330
3DBE
100
AcDbScale
 70
     0
300
1-1/2" = 1'-0"
140
1.5
141
12.0
290
     0
  0
SCALE
  5
3DCD
102
{ACAD_REACTORS
330
3DBE
102
}
330
3DBE
100
AcDbScale
 70
     0
300
3" = 1'-0"
140
3.0
141
12.0
290
     0
  0
SCALE
  5
3DCE
102
{ACAD_REACTORS
330
3DBE
102
}
330
3DBE
100
AcDbScale
 70
     0
300
6" = 1'-0"
140
6.0
141
12.0
290
     0
  0
SCALE
  5
3DCF
102
{ACAD_REACTORS
330
3DBE
102
}
330
3DBE
100
AcDbScale
 70
     0
300
1'-0" = 1'-0"
140
12.0
141
12.0
290
     0
  0
ACDBSECTIONVIEWSTYLE
  5
3DD3
102
{ACAD_XDICTIONARY
360
3E2D
102
}
102
{ACAD_REACTORS
330
3DD2
102
}
330
3DD2
100
AcDbModelDocViewStyle
 70
     0
  3
Imperial24
290
     0
100
AcDbSectionViewStyle
 70
     0
 71
     0
 90
       78
 71
     1
340
F
 40
0.24
340
0
340
0
 40
0.24
300
I, O, Q, S, X, Z
 40
0.48
 90
        3
 40
0.18
 90
        1
 71
     2
340
14
 90
       25
340
14
 90
       50
 40
0.24
 40
0.0
 40
0.24
 71
     3
340
F
 40
0.24
 90
        1
 40
0.75
 90
        1
300
%<\AcVar ViewType \f "%tc1">% %<\AcVar ViewSectionStartId>%-%<\AcVar ViewSectionEndId>%\PSCALE %<\AcVar ViewScale \f "%sn">%
 71
     4
300
ANSI31
 40
1.0
 90
        0
290
     0
290
     0
 90
        6
 40
0.0
 40
1.570796326794896
 40
0.2617993877991494
 40
1.308996938995747
 40
-0.2617993877991494
 40
1.832595714594046
  0
TABLESTYLE
  5
3DBD
102
{ACAD_XDICTIONARY
360
3DF4
102
}
102
{ACAD_REACTORS
330
3DBC
102
}
330
3DBC
100
AcDbTableStyle
  3
Standard
 70
     0
 71
     0
 40
0.06
 41
0.06
280
     0
281
     0
  7
STANDARD
140
0.18
170
     2
 62
     0
 63
     7
283
     0
274
    -2
284
     1
 64
     0
275
    -2
285
     1
 65
     0
276
    -2
286
     1
 66
     0
277
    -2
287
     1
 67
     0
278
    -2
288
     1
 68
     0
279
    -2
289
     1
 69
     0
  7
STANDARD
140
0.25
170
     5
 62
     0
 63
     7
283
     0
274
    -2
284
     1
 64
     0
275
    -2
285
     1
 65
     0
276
    -2
286
     1
 66
     0
277
    -2
287
     1
 67
     0
278
    -2
288
     1
 68
     0
279
    -2
289
     1
 69
     0
  7
STANDARD
140
0.18
170
     5
 62
     0
 63
     7
283
     0
274
    -2
284
     1
 64
     0
275
    -2
285
     1
 65
     0
276
    -2
286
     1
 66
     0
277
    -2
287
     1
 67
     0
278
    -2
288
     1
 68
     0
279
    -2
289
     1
 69
     0
  0
VISUALSTYLE
  5
3DA8
102
{ACAD_XDICTIONARY
360
3E05
102
}
102
{ACAD_REACTORS
330
3DA2
102
}
330
3DA2
100
AcDbVisualStyle
  2
2dWireframe
 70
     4
 71
     0
 72
     2
 73
     0
 90
        0
 40
-0.6
 41
-30.0
 62
     5
 63
     7
 74
     1
 91
        4
 64
     7
 65
   257
 75
     1
175
     1
 42
1.0
 92
        0
 66
   257
 43
1.0
 76
     1
 77
     6
 78
     2
 67
     7
 79
     5
170
     0
171
     0
290
     0
174
     0
 93
        1
 44
0.0
173
     0
291
     0
 45
0.0
1001
ACAD
1000
AcDbSavedByObjectVersion
1070
     0
  0
VISUALSTYLE
  5
3DA7
102
{ACAD_XDICTIONARY
360
3E03
102
}
102
{ACAD_REACTORS
330
3DA2
102
}
330
3DA2
100
AcDbVisualStyle
  2
Basic
 70
     7
 71
     1
 72
     0
 73
     1
 90
        0
 40
-0.6
 41
-30.0
 62
     5
 63
     7
 74
     0
 91
        4
 64
     7
 65
   257
 75
     1
175
     1
 42
1.0
 92
        8
 66
     7
 43
1.0
 76
     1
 77
     6
 78
     2
 67
     7
 79
     5
170
     0
171
     0
290
     0
174
     0
 93
        1
 44
0.0
173
     0
291
     1
 45
0.0
1001
ACAD
1000
AcDbSavedByObjectVersion
1070
     0
  0
VISUALSTYLE
  5
3DAE
102
{ACAD_XDICTIONARY
360
3E11
102
}
102
{ACAD_REACTORS
330
3DA2
102
}
330
3DA2
100
AcDbVisualStyle
  2
Brighten
 70
    12
 71
     2
 72
     2
 73
     0
 90
        0
 40
-0.6
 41
-30.0
 62
     5
 63
     7
 74
     1
 91
        4
 64
     7
 65
   257
 75
     1
175
     1
 42
1.0
 92
        8
 66
     7
 43
1.0
 76
     1
 77
     6
 78
     2
 67
     7
 79
     5
170
     0
171
     0
290
     0
174
     0
 93
        1
 44
50.0
173
     0
291
     1
 45
0.0
1001
ACAD
1000
AcDbSavedByObjectVersion
1070
     0
  0
VISUALSTYLE
  5
3DB2
102
{ACAD_XDICTIONARY
360
3E19
102
}
102
{ACAD_REACTORS
330
3DA2
102
}
330
3DA2
100
AcDbVisualStyle
  2
ColorChange
 70
    16
 71
     2
 72
     2
 73
     3
 90
        0
 40
-0.6
 41
-30.0
 62
     5
 63
     8
 74
     1
 91
        4
 64
     7
 65
   257
 75
     1
175
     1
 42
1.0
 92
        8
 66
     8
 43
1.0
 76
     1
 77
     6
 78
     2
 67
     7
 79
     5
170
     0
171
     0
290
     0
174
     0
 93
        1
 44
0.0
173
     0
291
     1
 45
0.0
1001
ACAD
1000
AcDbSavedByObjectVersion
1070
     0
  0
VISUALSTYLE
  5
3DAB
102
{ACAD_XDICTIONARY
360
3E0B
102
}
102
{ACAD_REACTORS
330
3DA2
102
}
330
3DA2
100
AcDbVisualStyle
  2
Conceptual
 70
     9
 71
     3
 72
     2
 73
     0
 90
        0
 40
-0.6
 41
-30.0
 62
     5
 63
     7
 74
     2
 91
        2
 64
     7
 65
   257
 75
     1
175
     1
 42
179.0
 92
        8
 66
     7
 43
1.0
 76
     1
 77
     6
 78
     2
 67
     7
 79
     3
170
     0
171
     0
290
     0
174
     0
 93
        1
 44
0.0
173
     0
291
     0
 45
0.0
1001
ACAD
1000
AcDbSavedByObjectVersion
1070
     0
  0
VISUALSTYLE
  5
3DAD
102
{ACAD_XDICTIONARY
360
3E0F
102
}
102
{ACAD_REACTORS
330
3DA2
102
}
330
3DA2
100
AcDbVisualStyle
  2
Dim
 70
    11
 71
     2
 72
     2
 73
     0
 90
        0
 40
-0.6
 41
-30.0
 62
     5
 63
     7
 74
     1
 91
        4
 64
     7
 65
   257
 75
     1
175
     1
 42
1.0
 92
        8
 66
     7
 43
1.0
 76
     1
 77
     6
 78
     2
 67
     7
 79
     5
170
     0
171
     0
290
     0
174
     0
 93
        1
 44
-50.0
173
     0
291
     1
 45
0.0
1001
ACAD
1000
AcDbSavedByObjectVersion
1070
     0
  0
VISUALSTYLE
  5
3DBA
102
{ACAD_XDICTIONARY
360
3E29
102
}
102
{ACAD_REACTORS
330
3DA2
102
}
330
3DA2
100
AcDbVisualStyle
  2
EdgeColorOff
 70
    22
 71
     2
 72
     2
 73
     0
 90
        0
 40
-0.6
 41
-30.0
 62
     5
 63
     7
 74
     1
 91
        4
 64
     7
 65
   257
 75
     1
175
     1
 42
1.0
 92
        8
 66
     7
 43
1.0
 76
     1
 77
     6
 78
     2
 67
     7
 79
     5
170
     0
171
     0
290
     0
174
     0
 93
        1
 44
0.0
173
     0
291
     1
 45
0.0
1001
ACAD
1000
AcDbSavedByObjectVersion
1070
     0
  0
VISUALSTYLE
  5
3DB1
102
{ACAD_XDICTIONARY
360
3E17
102
}
102
{ACAD_REACTORS
330
3DA2
102
}
330
3DA2
100
AcDbVisualStyle
  2
Facepattern
 70
    15
 71
     2
 72
     2
 73
     0
 90
        0
 40
-0.6
 41
-30.0
 62
     5
 63
     7
 74
     1
 91
        4
 64
     7
 65
   257
 75
     1
175
     1
 42
1.0
 92
        8
 66
     7
 43
1.0
 76
     1
 77
     6
 78
     2
 67
     7
 79
     5
170
     0
171
     0
290
     0
174
     0
 93
        1
 44
0.0
173
     0
291
     1
 45
0.0
1001
ACAD
1000
AcDbSavedByObjectVersion
1070
     0
  0
VISUALSTYLE
  5
3DA3
102
{ACAD_XDICTIONARY
360
3DFB
102
}
102
{ACAD_REACTORS
330
3DA2
102
}
330
3DA2
100
AcDbVisualStyle
  2
Flat
 70
     0
 71
     2
 72
     1
 73
     1
 90
        2
 40
-0.6
 41
30.0
 62
     5
 63
     7
 74
     0
 91
        0
 64
     7
 65
   257
 75
     1
175
     1
 42
1.0
 92
        8
 66
     7
 43
1.0
 76
     1
 77
     6
 78
     2
 67
     7
 79
     5
170
     0
171
     0
290
     0
174
     0
 93
       13
 44
0.0
173
     0
291
     1
 45
0.0
1001
ACAD
1000
AcDbSavedByObjectVersion
1070
     0
  0
VISUALSTYLE
  5
3DA4
102
{ACAD_XDICTIONARY
360
3DFD
102
}
102
{ACAD_REACTORS
330
3DA2
102
}
330
3DA2
100
AcDbVisualStyle
  2
FlatWithEdges
 70
     1
 71
     2
 72
     1
 73
     1
 90
        2
 40
-0.6
 41
30.0
 62
     5
 63
     7
 74
     1
 91
        0
 64
     7
 65
   257
 75
     1
175
     1
 42
1.0
 92
        0
 66
   257
 43
1.0
 76
     1
 77
     6
 78
     2
 67
     7
 79
     5
170
     0
171
     0
290
     0
174
     0
 93
       13
 44
0.0
173
     0
291
     1
 45
0.0
1001
ACAD
1000
AcDbSavedByObjectVersion
1070
     0
  0
VISUALSTYLE
  5
3DA5
102
{ACAD_XDICTIONARY
360
3DFF
102
}
102
{ACAD_REACTORS
330
3DA2
102
}
330
3DA2
100
AcDbVisualStyle
  2
Gouraud
 70
     2
 71
     2
 72
     2
 73
     1
 90
        2
 40
-0.6
 41
30.0
 62
     5
 63
     7
 74
     0
 91
        0
 64
     7
 65
   257
 75
     1
175
     1
 42
1.0
 92
        0
 66
     7
 43
1.0
 76
     1
 77
     6
 78
     2
 67
     7
 79
     5
170
     0
171
     0
290
     0
174
     0
 93
       13
 44
0.0
173
     0
291
     1
 45
0.0
1001
ACAD
1000
AcDbSavedByObjectVersion
1070
     0
  0
VISUALSTYLE
  5
3DA6
102
{ACAD_XDICTIONARY
360
3E01
102
}
102
{ACAD_REACTORS
330
3DA2
102
}
330
3DA2
100
AcDbVisualStyle
  2
GouraudWithEdges
 70
     3
 71
     2
 72
     2
 73
     1
 90
        2
 40
-0.6
 41
30.0
 62
     5
 63
     7
 74
     1
 91
        0
 64
     7
 65
   257
 75
     1
175
     1
 42
1.0
 92
        0
 66
   257
 43
1.0
 76
     1
 77
     6
 78
     2
 67
     7
 79
     5
170
     0
171
     0
290
     0
174
     0
 93
       13
 44
0.0
173
     0
291
     1
 45
0.0
1001
ACAD
1000
AcDbSavedByObjectVersion
1070
     0
  0
VISUALSTYLE
  5
3DAA
102
{ACAD_XDICTIONARY
360
3E09
102
}
102
{ACAD_REACTORS
330
3DA2
102
}
330
3DA2
100
AcDbVisualStyle
  2
Hidden
 70
     6
 71
     1
 72
     2
 73
     2
 90
        0
 40
-0.6
 41
-30.0
 62
     5
 63
     7
 74
     2
 91
        2
 64
     7
 65
   257
 75
     2
175
     1
 42
40.0
 92
        0
 66
   257
 43
1.0
 76
     1
 77
     6
 78
     2
 67
     7
 79
     3
170
     0
171
     0
290
     0
174
     0
 93
        1
 44
0.0
173
     0
291
     0
 45
0.0
1001
ACAD
1000
AcDbSavedByObjectVersion
1070
     0
  0
VISUALSTYLE
  5
3DB8
102
{ACAD_XDICTIONARY
360
3E25
102
}
102
{ACAD_REACTORS
330
3DA2
102
}
330
3DA2
100
AcDbVisualStyle
  2
JitterOff
 70
    20
 71
     2
 72
     2
 73
     0
 90
        0
 40
-0.6
 41
-30.0
 62
     5
 63
     7
 74
     1
 91
        4
 64
     7
 65
   257
 75
     1
175
     1
 42
1.0
 92
       10
 66
     7
 43
1.0
 76
     1
 77
     6
 78
     2
 67
     7
 79
     5
170
     0
171
     0
290
     0
174
     0
 93
        1
 44
0.0
173
     0
291
     1
 45
0.0
1001
ACAD
1000
AcDbSavedByObjectVersion
1070
     0
  0
VISUALSTYLE
  5
3DB0
102
{ACAD_XDICTIONARY
360
3E15
102
}
102
{ACAD_REACTORS
330
3DA2
102
}
330
3DA2
100
AcDbVisualStyle
  2
Linepattern
 70
    14
 71
     2
 72
     2
 73
     0
 90
        0
 40
-0.6
 41
-30.0
 62
     5
 63
     7
 74
     1
 91
        4
 64
     7
 65
   257
 75
     7
175
     7
 42
1.0
 92
        8
 66
     7
 43
1.0
 76
     1
 77
     6
 78
     2
 67
     7
 79
     5
170
     0
171
     0
290
     0
174
     0
 93
        1
 44
0.0
173
     0
291
     1
 45
0.0
1001
ACAD
1000
AcDbSavedByObjectVersion
1070
     0
  0
VISUALSTYLE
  5
3DB9
102
{ACAD_XDICTIONARY
360
3E27
102
}
102
{ACAD_REACTORS
330
3DA2
102
}
330
3DA2
100
AcDbVisualStyle
  2
OverhangOff
 70
    21
 71
     2
 72
     2
 73
     0
 90
        0
 40
-0.6
 41
-30.0
 62
     5
 63
     7
 74
     1
 91
        4
 64
     7
 65
   257
 75
     1
175
     1
 42
1.0
 92
        9
 66
     7
 43
1.0
 76
     1
 77
     6
 78
     2
 67
     7
 79
     5
170
     0
171
     0
290
     0
174
     0
 93
        1
 44
0.0
173
     0
291
     1
 45
0.0
1001
ACAD
1000
AcDbSavedByObjectVersion
1070
     0
  0
VISUALSTYLE
  5
3DAC
102
{ACAD_XDICTIONARY
360
3E0D
102
}
102
{ACAD_REACTORS
330
3DA2
102
}
330
3DA2
100
AcDbVisualStyle
  2
Realistic
 70
     8
 71
     2
 72
     3
 73
     0
 90
        2
 40
-0.6
 41
30.0
 62
     5
 63
     7
 74
     0
 91
        0
 64
     7
 65
   257
 75
     1
175
     1
 42
1.0
 92
        8
 66
   257
 43
1.0
 76
     1
 77
     6
 78
     2
 67
     7
 79
     3
170
     0
171
     0
290
     0
174
     0
 93
       13
 44
0.0
173
     0
291
     0
 45
0.0
1001
ACAD
1000
AcDbSavedByObjectVersion
1070
     0
  0
VISUALSTYLE
  5
3DB7
102
{ACAD_XDICTIONARY
360
3E23
102
}
102
{ACAD_REACTORS
330
3DA2
102
}
330
3DA2
100
AcDbVisualStyle
  2
Shaded
 70
    27
 71
     2
 72
     2
 73
     1
 90
        2
 40
-0.6
 41
30.0
 62
     5
 63
     7
 74
     0
 91
        4
 64
     7
 65
   257
 75
     1
175
     1
 42
1.0
 92
        8
 66
   257
 43
1.0
 76
     1
 77
     6
 78
     2
 67
     8
 79
     3
170
     0
171
     0
290
     0
174
     0
 93
        5
 44
0.0
173
     0
291
     0
 45
0.0
1001
ACAD
1000
AcDbSavedByObjectVersion
1070
     0
  0
VISUALSTYLE
  5
3DB6
102
{ACAD_XDICTIONARY
360
3E21
102
}
102
{ACAD_REACTORS
330
3DA2
102
}
330
3DA2
100
AcDbVisualStyle
  2
Shaded with edges
 70
    26
 71
     2
 72
     2
 73
     1
 90
        2
 40
-0.6
 41
30.0
 62
     5
 63
     7
 74
     1
 91
       10
 64
     7
 65
   257
 75
     2
175
     1
 42
1.0
 92
        8
 66
   257
 43
1.0
 76
     1
 77
     6
 78
     2
 67
     7
 79
     3
170
     0
171
     0
290
     0
174
     0
 93
        5
 44
0.0
173
     0
291
     0
 45
0.0
1001
ACAD
1000
AcDbSavedByObjectVersion
1070
     0
  0
VISUALSTYLE
  5
3DB3
102
{ACAD_XDICTIONARY
360
3E1B
102
}
102
{ACAD_REACTORS
330
3DA2
102
}
330
3DA2
100
AcDbVisualStyle
  2
Shades of Gray
 70
    23
 71
     2
 72
     2
 73
     3
 90
        0
 40
-0.6
 41
-30.0
 62
     5
 63
     7
 74
     2
 91
        2
 64
     7
 65
     7
 75
     1
175
     1
 42
40.0
 92
        8
 66
     7
 43
1.0
 76
     1
 77
     6
 78
     2
 67
     7
 79
     3
170
     0
171
     0
290
     0
174
     0
 93
        1
 44
0.0
173
     0
291
     0
 45
0.0
1001
ACAD
1000
AcDbSavedByObjectVersion
1070
     0
  0
VISUALSTYLE
  5
3DB4
102
{ACAD_XDICTIONARY
360
3E1D
102
}
102
{ACAD_REACTORS
330
3DA2
102
}
330
3DA2
100
AcDbVisualStyle
  2
Sketchy
 70
    24
 71
     1
 72
     2
 73
     2
 90
        0
 40
-0.6
 41
-30.0
 62
     5
 63
     7
 74
     2
 91
        2
 64
     7
 65
     7
 75
     1
175
     1
 42
40.0
 92
       11
 66
     7
 43
1.0
 76
     1
 77
     6
 78
     2
 67
     7
 79
     6
170
     0
171
     0
290
     0
174
     0
 93
        1
 44
0.0
173
     0
291
     0
 45
0.0
1001
ACAD
1000
AcDbSavedByObjectVersion
1070
     0
  0
VISUALSTYLE
  5
3DAF
102
{ACAD_XDICTIONARY
360
3E13
102
}
102
{ACAD_REACTORS
330
3DA2
102
}
330
3DA2
100
AcDbVisualStyle
  2
Thicken
 70
    13
 71
     2
 72
     2
 73
     0
 90
        0
 40
-0.6
 41
-30.0
 62
     5
 63
     7
 74
     1
 91
        4
 64
     7
 65
   257
 75
     1
175
     1
 42
1.0
 92
       12
 66
     7
 43
1.0
 76
     1
 77
     6
 78
     2
 67
     7
 79
     5
170
     0
171
     0
290
     0
174
     0
 93
        1
 44
0.0
173
     0
291
     1
 45
0.0
1001
ACAD
1000
AcDbSavedByObjectVersion
1070
     0
  0
VISUALSTYLE
  5
3DA9
102
{ACAD_XDICTIONARY
360
3E07
102
}
102
{ACAD_REACTORS
330
3DA2
102
}
330
3DA2
100
AcDbVisualStyle
  2
Wireframe
 70
     5
 71
     0
 72
     2
 73
     0
 90
        0
 40
-0.6
 41
-30.0
 62
     5
 63
     7
 74
     1
 91
        4
 64
     7
 65
   257
 75
     1
175
     1
 42
1.0
 92
        0
 66
   257
 43
1.0
 76
     1
 77
     6
 78
     2
 67
     7
 79
     3
170
     0
171
     0
290
     0
174
     0
 93
        1
 44
0.0
173
     0
291
     0
 45
0.0
1001
ACAD
1000
AcDbSavedByObjectVersion
1070
     0
  0
VISUALSTYLE
  5
3DB5
102
{ACAD_XDICTIONARY
360
3E1F
102
}
102
{ACAD_REACTORS
330
3DA2
102
}
330
3DA2
100
AcDbVisualStyle
  2
X-Ray
 70
    25
 71
     2
 72
     2
 73
     1
 90
        1
 40
0.5
 41
-30.0
 62
     5
 63
     7
 74
     1
 91
        0
 64
     7
 65
   257
 75
     1
175
     1
 42
1.0
 92
        8
 66
     7
 43
1.0
 76
     1
 77
     6
 78
     2
 67
     7
 79
     3
170
     0
171
     0
290
     0
174
     0
 93
       13
 44
0.0
173
     0
291
     0
 45
0.0
1001
ACAD
1000
AcDbSavedByObjectVersion
1070
     0
  0
DICTIONARYVAR
  5
3DEE
102
{ACAD_REACTORS
330
3DE9
102
}
330
3DE9
100
DictionaryVariables
280
     0
  1
1:1
  0
DICTIONARYVAR
  5
3DEB
102
{ACAD_REACTORS
330
3DE9
102
}
330
3DE9
100
DictionaryVariables
280
     0
  1
STANDARD
  0
DICTIONARYVAR
  5
3DEA
102
{ACAD_REACTORS
330
3DE9
102
}
330
3DE9
100
DictionaryVariables
280
     0
  1
STANDARD
  0
DICTIONARYVAR
  5
3DEC
102
{ACAD_REACTORS
330
3DE9
102
}
330
3DE9
100
DictionaryVariables
280
     0
  1
Imperial24
  0
DICTIONARYVAR
  5
3DED
102
{ACAD_REACTORS
330
3DE9
102
}
330
3DE9
100
DictionaryVariables
280
     0
  1
Imperial24
  0
DICTIONARYVAR
  5
3DF1
102
{ACAD_REACTORS
330
3DE9
102
}
330
3DE9
100
DictionaryVariables
280
     0
  1
1
  0
DICTIONARYVAR
  5
3DF0
102
{ACAD_REACTORS
330
3DE9
102
}
330
3DE9
100
DictionaryVariables
280
     0
  1
0
  0
DICTIONARYVAR
  5
3DEF
102
{ACAD_REACTORS
330
3DE9
102
}
330
3DE9
100
DictionaryVariables
280
     0
  1
127
  0
DICTIONARYVAR
  5
3DF2
102
{ACAD_REACTORS
330
3DE9
102
}
330
3DE9
100
DictionaryVariables
280
     0
  1
2
  0
DICTIONARY
  5
3E2F
330
3DD5
100
AcDbDictionary
280
     1
281
     1
  3
ACAD_XREC_ROUNDTRIP
360
3E30
  0
DICTIONARY
  5
3E31
330
3DD6
100
AcDbDictionary
280
     1
281
     1
  3
ACAD_XREC_ROUNDTRIP
360
3E32
  0
DICTIONARY
  5
3E33
330
3DD7
100
AcDbDictionary
280
     1
281
     1
  3
ACAD_XREC_ROUNDTRIP
360
3E34
  0
DICTIONARY
  5
3D93
330
3D92
100
AcDbDictionary
280
     1
281
     1
  3
ACAD_XREC_ROUNDTRIP
360
3DF9
  3
BUMPTILE
360
3D95
  3
DIFFUSETILE
360
3D94
  3
OPACITYTILE
360
3D98
  3
REFLECTIONTILE
360
3D97
  3
REFRACTIONTILE
360
3D99
  3
SPECULARTILE
360
3D96
  0
DICTIONARY
  5
3D8B
330
3D8A
100
AcDbDictionary
280
     1
281
     1
  3
ACAD_XREC_ROUNDTRIP
360
3DF8
  3
BUMPTILE
360
3D8D
  3
DIFFUSETILE
360
3D8C
  3
OPACITYTILE
360
3D90
  3
REFLECTIONTILE
360
3D8F
  3
REFRACTIONTILE
360
3D91
  3
SPECULARTILE
360
3D8E
  0
DICTIONARY
  5
3D9B
330
3D9A
100
AcDbDictionary
280
     1
281
     1
  3
ACAD_XREC_ROUNDTRIP
360
3DFA
  3
BUMPTILE
360
3D9D
  3
DIFFUSETILE
360
3D9C
  3
OPACITYTILE
360
3DA0
  3
REFLECTIONTILE
360
3D9F
  3
REFRACTIONTILE
360
3DA1
  3
SPECULARTILE
360
3D9E
  0
DICTIONARY
  5
3E2D
330
3DD3
100
AcDbDictionary
280
     1
281
     1
  3
ACAD_XREC_ROUNDTRIP
360
3E2E
  0
DICTIONARY
  5
3DF4
330
3DBD
100
AcDbDictionary
280
     1
281
     1
  3
ACAD_ROUNDTRIP_2008_TABLESTYLE_CELLSTYLEMAP
360
3DF5
  3
ACAD_XREC_ROUNDTRIP
360
3E2B
  0
DICTIONARY
  5
3E05
330
3DA8
100
AcDbDictionary
280
     1
281
     1
  3
ACAD_XREC_ROUNDTRIP
360
3E06
  0
DICTIONARY
  5
3E03
330
3DA7
100
AcDbDictionary
280
     1
281
     1
  3
ACAD_XREC_ROUNDTRIP
360
3E04
  0
DICTIONARY
  5
3E11
330
3DAE
100
AcDbDictionary
280
     1
281
     1
  3
ACAD_XREC_ROUNDTRIP
360
3E12
  0
DICTIONARY
  5
3E19
330
3DB2
100
AcDbDictionary
280
     1
281
     1
  3
ACAD_XREC_ROUNDTRIP
360
3E1A
  0
DICTIONARY
  5
3E0B
330
3DAB
100
AcDbDictionary
280
     1
281
     1
  3
ACAD_XREC_ROUNDTRIP
360
3E0C
  0
DICTIONARY
  5
3E0F
330
3DAD
100
AcDbDictionary
280
     1
281
     1
  3
ACAD_XREC_ROUNDTRIP
360
3E10
  0
DICTIONARY
  5
3E29
330
3DBA
100
AcDbDictionary
280
     1
281
     1
  3
ACAD_XREC_ROUNDTRIP
360
3E2A
  0
DICTIONARY
  5
3E17
330
3DB1
100
AcDbDictionary
280
     1
281
     1
  3
ACAD_XREC_ROUNDTRIP
360
3E18
  0
DICTIONARY
  5
3DFB
330
3DA3
100
AcDbDictionary
280
     1
281
     1
  3
ACAD_XREC_ROUNDTRIP
360
3DFC
  0
DICTIONARY
  5
3DFD
330
3DA4
100
AcDbDictionary
280
     1
281
     1
  3
ACAD_XREC_ROUNDTRIP
360
3DFE
  0
DICTIONARY
  5
3DFF
330
3DA5
100
AcDbDictionary
280
     1
281
     1
  3
ACAD_XREC_ROUNDTRIP
360
3E00
  0
DICTIONARY
  5
3E01
330
3DA6
100
AcDbDictionary
280
     1
281
     1
  3
ACAD_XREC_ROUNDTRIP
360
3E02
  0
DICTIONARY
  5
3E09
330
3DAA
100
AcDbDictionary
280
     1
281
     1
  3
ACAD_XREC_ROUNDTRIP
360
3E0A
  0
DICTIONARY
  5
3E25
330
3DB8
100
AcDbDictionary
280
     1
281
     1
  3
ACAD_XREC_ROUNDTRIP
360
3E26
  0
DICTIONARY
  5
3E15
330
3DB0
100
AcDbDictionary
280
     1
281
     1
  3
ACAD_XREC_ROUNDTRIP
360
3E16
  0
DICTIONARY
  5
3E27
330
3DB9
100
AcDbDictionary
280
     1
281
     1
  3
ACAD_XREC_ROUNDTRIP
360
3E28
  0
DICTIONARY
  5
3E0D
330
3DAC
100
AcDbDictionary
280
     1
281
     1
  3
ACAD_XREC_ROUNDTRIP
360
3E0E
  0
DICTIONARY
  5
3E23
330
3DB7
100
AcDbDictionary
280
     1
281
     1
  3
ACAD_XREC_ROUNDTRIP
360
3E24
  0
DICTIONARY
  5
3E21
330
3DB6
100
AcDbDictionary
280
     1
281
     1
  3
ACAD_XREC_ROUNDTRIP
360
3E22
  0
DICTIONARY
  5
3E1B
330
3DB3
100
AcDbDictionary
280
     1
281
     1
  3
ACAD_XREC_ROUNDTRIP
360
3E1C
  0
DICTIONARY
  5
3E1D
330
3DB4
100
AcDbDictionary
280
     1
281
     1
  3
ACAD_XREC_ROUNDTRIP
360
3E1E
  0
DICTIONARY
  5
3E13
330
3DAF
100
AcDbDictionary
280
     1
281
     1
  3
ACAD_XREC_ROUNDTRIP
360
3E14
  0
DICTIONARY
  5
3E07
330
3DA9
100
AcDbDictionary
280
     1
281
     1
  3
ACAD_XREC_ROUNDTRIP
360
3E08
  0
DICTIONARY
  5
3E1F
330
3DB5
100
AcDbDictionary
280
     1
281
     1
  3
ACAD_XREC_ROUNDTRIP
360
3E20
  0
XRECORD
  5
3E30
102
{ACAD_REACTORS
330
3E2F
102
}
330
3E2F
100
AcDbXrecord
280
     1
102
DISPLAYNAME
  1
Imperial24
102
FLAGS
 90
        0
  0
XRECORD
  5
3E32
102
{ACAD_REACTORS
330
3E31
102
}
330
3E31
100
AcDbXrecord
280
     1
102
SHADEPLOT
 70
     0
102
SHADEPLOTRESLEVEL
 70
     2
102
SHADEPLOTCUSTOMDPI
 70
   300
  0
XRECORD
  5
3E34
102
{ACAD_REACTORS
330
3E33
102
}
330
3E33
100
AcDbXrecord
280
     1
102
SHADEPLOT
 70
     0
102
SHADEPLOTRESLEVEL
 70
     2
102
SHADEPLOTCUSTOMDPI
 70
   300
  0
XRECORD
  5
3DF9
102
{ACAD_REACTORS
330
3D93
102
}
330
3D93
100
AcDbXrecord
280
     1
102
MATERIAL
148
0.0
149
0.0
149
0.0
 93
        0
 94
      127
282
     0
 72
     0
 77
     0
171
     0
175
     0
179
     0
273
     0
  0
XRECORD
  5
3D95
102
{ACAD_REACTORS
330
3D93
102
}
330
3D93
100
AcDbXrecord
280
     1
270
     1
271
     1
  0
XRECORD
  5
3D94
102
{ACAD_REACTORS
330
3D93
102
}
330
3D93
100
AcDbXrecord
280
     1
270
     1
271
     1
  0
XRECORD
  5
3D98
102
{ACAD_REACTORS
330
3D93
102
}
330
3D93
100
AcDbXrecord
280
     1
270
     1
271
     1
  0
XRECORD
  5
3D97
102
{ACAD_REACTORS
330
3D93
102
}
330
3D93
100
AcDbXrecord
280
     1
270
     1
271
     1
  0
XRECORD
  5
3D99
102
{ACAD_REACTORS
330
3D93
102
}
330
3D93
100
AcDbXrecord
280
     1
270
     1
271
     1
  0
XRECORD
  5
3D96
102
{ACAD_REACTORS
330
3D93
102
}
330
3D93
100
AcDbXrecord
280
     1
270
     1
271
     1
  0
XRECORD
  5
3DF8
102
{ACAD_REACTORS
330
3D8B
102
}
330
3D8B
100
AcDbXrecord
280
     1
102
MATERIAL
148
0.0
149
0.0
149
0.0
 93
        0
 94
      127
282
     0
 72
     0
 77
     0
171
     0
175
     0
179
     0
273
     0
  0
XRECORD
  5
3D8D
102
{ACAD_REACTORS
330
3D8B
102
}
330
3D8B
100
AcDbXrecord
280
     1
270
     1
271
     1
  0
XRECORD
  5
3D8C
102
{ACAD_REACTORS
330
3D8B
102
}
330
3D8B
100
AcDbXrecord
280
     1
270
     1
271
     1
  0
XRECORD
  5
3D90
102
{ACAD_REACTORS
330
3D8B
102
}
330
3D8B
100
AcDbXrecord
280
     1
270
     1
271
     1
  0
XRECORD
  5
3D8F
102
{ACAD_REACTORS
330
3D8B
102
}
330
3D8B
100
AcDbXrecord
280
     1
270
     1
271
     1
  0
XRECORD
  5
3D91
102
{ACAD_REACTORS
330
3D8B
102
}
330
3D8B
100
AcDbXrecord
280
     1
270
     1
271
     1
  0
XRECORD
  5
3D8E
102
{ACAD_REACTORS
330
3D8B
102
}
330
3D8B
100
AcDbXrecord
280
     1
270
     1
271
     1
  0
XRECORD
  5
3DFA
102
{ACAD_REACTORS
330
3D9B
102
}
330
3D9B
100
AcDbXrecord
280
     1
102
MATERIAL
148
0.0
149
0.0
149
0.0
 93
        0
 94
      127
282
     0
 72
     0
 77
     0
171
     0
175
     0
179
     0
273
     0
  0
XRECORD
  5
3D9D
102
{ACAD_REACTORS
330
3D9B
102
}
330
3D9B
100
AcDbXrecord
280
     1
270
     1
271
     1
  0
XRECORD
  5
3D9C
102
{ACAD_REACTORS
330
3D9B
102
}
330
3D9B
100
AcDbXrecord
280
     1
270
     1
271
     1
  0
XRECORD
  5
3DA0
102
{ACAD_REACTORS
330
3D9B
102
}
330
3D9B
100
AcDbXrecord
280
     1
270
     1
271
     1
  0
XRECORD
  5
3D9F
102
{ACAD_REACTORS
330
3D9B
102
}
330
3D9B
100
AcDbXrecord
280
     1
270
     1
271
     1
  0
XRECORD
  5
3DA1
102
{ACAD_REACTORS
330
3D9B
102
}
330
3D9B
100
AcDbXrecord
280
     1
270
     1
271
     1
  0
XRECORD
  5
3D9E
102
{ACAD_REACTORS
330
3D9B
102
}
330
3D9B
100
AcDbXrecord
280
     1
270
     1
271
     1
  0
XRECORD
  5
3E2E
102
{ACAD_REACTORS
330
3E2D
102
}
330
3E2D
100
AcDbXrecord
280
     1
102
DISPLAYNAME
  1
Imperial24
102
FLAGS
 90
        0
  0
CELLSTYLEMAP
  5
3DF5
102
{ACAD_REACTORS
330
3DF4
102
}
330
3DF4
100
AcDbCellStyleMap
 90
        3
300
CELLSTYLE
  1
TABLEFORMAT_BEGIN
 90
        5
170
     1
 91
        0
 92
    32768
 62
   257
 93
        1
300
CONTENTFORMAT
  1
CONTENTFORMAT_BEGIN
 90
        0
 91
        0
 92
      512
 93
        0
300

 40
0.0
140
1.0
 94
        5
 62
     0
340
F
144
0.25
309
CONTENTFORMAT_END
171
     0
 94
        0
309
TABLEFORMAT_END
  1
CELLSTYLE_BEGIN
 90
        1
 91
        1
300
_TITLE
309
CELLSTYLE_END
300
CELLSTYLE
  1
TABLEFORMAT_BEGIN
 90
        5
170
     1
 91
        0
 92
        0
 62
   257
 93
        1
300
CONTENTFORMAT
  1
CONTENTFORMAT_BEGIN
 90
        0
 91
        0
 92
      512
 93
        0
300

 40
0.0
140
1.0
 94
        5
 62
     0
340
F
144
0.18
309
CONTENTFORMAT_END
171
     0
 94
        0
309
TABLEFORMAT_END
  1
CELLSTYLE_BEGIN
 90
        2
 91
        1
300
_HEADER
309
CELLSTYLE_END
300
CELLSTYLE
  1
TABLEFORMAT_BEGIN
 90
        5
170
     1
 91
        0
 92
        0
 62
   257
 93
        1
300
CONTENTFORMAT
  1
CONTENTFORMAT_BEGIN
 90
        0
 91
        0
 92
      512
 93
        0
300

 40
0.0
140
1.0
 94
        2
 62
     0
340
F
144
0.18
309
CONTENTFORMAT_END
171
     0
 94
        0
309
TABLEFORMAT_END
  1
CELLSTYLE_BEGIN
 90
        3
 91
        2
300
_DATA
309
CELLSTYLE_END
  0
XRECORD
  5
3E2B
102
{ACAD_REACTORS
330
3DF4
102
}
330
3DF4
100
AcDbXrecord
280
     1
102
ACAD_ROUNDTRIP_PRE2007_TABLESTYLE
 90
      512
 91
        0
  1

 92
      512
 93
        0
  2

 94
      512
 95
        0
  3

  0
XRECORD
  5
3E06
102
{ACAD_REACTORS
330
3E05
102
}
330
3E05
100
AcDbXrecord
280
     1
102
RTVSPost2010Prop28
280
     1
102
RTVSPost2010PropOp28
 70
     1
102
RTVSPost2010Prop29
280
     1
102
RTVSPost2010PropOp29
 70
     1
102
RTVSPost2010Prop30
280
     0
102
RTVSPost2010PropOp30
 70
     1
102
RTVSPost2010Prop31
280
     0
102
RTVSPost2010PropOp31
 70
     1
102
RTVSPost2010Prop32
280
     0
102
RTVSPost2010PropOp32
 70
     1
102
RTVSPost2010Prop33
280
     0
102
RTVSPost2010PropOp33
 70
     1
102
RTVSPost2010Prop34
280
     0
102
RTVSPost2010PropOp34
 70
     1
102
RTVSPost2010Prop35
280
     0
102
RTVSPost2010PropOp35
 70
     1
102
RTVSPost2010Prop36
280
     0
102
RTVSPost2010PropOp36
 70
     1
102
RTVSPost2010Prop37
 90
       50
102
RTVSPost2010PropOp37
 70
     1
102
RTVSPost2010Prop38
140
0.0
102
RTVSPost2010PropOp38
 70
     1
102
RTVSPost2010Prop39
140
1.0
102
RTVSPost2010PropOp39
 70
     1
102
RTVSPost2010Prop40
 90
        0
102
RTVSPost2010PropOp40
 70
     1
102
RTVSPost2010Prop41ColorIndex
 90
       18
102
RTVSPost2010Prop41ColorRGB
 90
        0
102
RTVSPost2010PropOp41
 70
     1
102
RTVSPost2010Prop42
 90
       50
102
RTVSPost2010PropOp42
 70
     1
102
RTVSPost2010Prop43
 90
        3
102
RTVSPost2010PropOp43
 70
     1
102
RTVSPost2010Prop44ColorIndex
 90
        5
102
RTVSPost2010Prop44ColorRGB
 90
      255
102
RTVSPost2010PropOp44
 70
     1
102
RTVSPost2010Prop45
280
     0
102
RTVSPost2010PropOp45
 70
     1
102
RTVSPost2010Prop46
 90
       50
102
RTVSPost2010PropOp46
 70
     1
102
RTVSPost2010Prop47
 90
       50
102
RTVSPost2010PropOp47
 70
     1
102
RTVSPost2010Prop48
 90
       50
102
RTVSPost2010PropOp48
 70
     1
102
RTVSPost2010Prop49
280
     0
102
RTVSPost2010PropOp49
 70
     1
102
RTVSPost2010Prop50
 90
       50
102
RTVSPost2010PropOp50
 70
     1
102
RTVSPost2010Prop51ColorIndex
 90
      256
102
RTVSPost2010Prop51ColorRGB
 90
-16777216
102
RTVSPost2010PropOp51
 70
     0
102
RTVSPost2010Prop52
140
1.0
102
RTVSPost2010PropOp52
 70
     0
102
RTVSPost2010Prop53
 90
        2
102
RTVSPost2010PropOp53
 70
     1
102
RTVSPost2010Prop54
  1
strokes_ogs.tif
102
RTVSPost2010PropOp54
 70
     1
102
RTVSPost2010Prop55
280
     0
102
RTVSPost2010PropOp55
 70
     1
102
RTVSPost2010Prop56
140
1.0
102
RTVSPost2010PropOp56
 70
     1
102
RTVSPost2010Prop57
140
1.0
102
RTVSPost2010PropOp57
 70
     1
102
RTVSPropertyOp0
 70
     1
102
RTVSPropertyOp1
 70
     1
102
RTVSPropertyOp2
 70
     1
102
RTVSPropertyOp3
 70
     1
102
RTVSPropertyOp4
 70
     1
102
RTVSPropertyOp5
 70
     1
102
RTVSPropertyOp6
 70
     1
102
RTVSPropertyOp7
 70
     1
102
RTVSPropertyOp8
 70
     1
102
RTVSPropertyOp9
 70
     1
102
RTVSPropertyOp10
 70
     1
102
RTVSPropertyOp11
 70
     1
102
RTVSPropertyOp12
 70
     1
102
RTVSPropertyOp13
 70
     1
102
RTVSPropertyOp14
 70
     1
102
RTVSPropertyOp15
 70
     1
102
RTVSPropertyOp16
 70
     1
102
RTVSPropertyOp17
 70
     1
102
RTVSPropertyOp18
 70
     1
102
RTVSPropertyOp19
 70
     1
102
RTVSPropertyOp20
 70
     1
102
RTVSPropertyOp21
 70
     1
102
RTVSPropertyOp22
 70
     1
102
RTVSPropertyOp23
 70
     1
102
RTVSPropertyOp24
 70
     1
102
RTVSPropertyOp25
 70
     1
102
RTVSPropertyOp26
 70
     1
102
RTVSPropertyOp27
 70
     1
102
RTVSPropertyOp28
 70
     1
102
RTVSPropertyOp29
 70
     1
102
RTVSPropertyOp30
 70
     1
102
RTVSPropertyOp31
 70
     1
102
RTVSPropertyOp32
 70
     1
102
RTVSPropertyOp33
 70
     1
102
RTVSPropertyOp34
 70
     1
102
RTVSPropertyOp35
 70
     1
102
RTVSPropertyOp36
 70
     1
102
RTVSPropertyOp37
 70
     1
102
RTVSPropertyOp38
 70
     1
102
RTVSPropertyOp39
 70
     1
102
RTVSPropertyOp40
 70
     1
102
RTVSPropertyOp41
 70
     1
102
RTVSPropertyOp42
 70
     1
102
RTVSPropertyOp43
 70
     1
102
RTVSPropertyOp44
 70
     1
102
RTVSPropertyOp45
 70
     1
102
RTVSPropertyOp46
 70
     1
102
RTVSPropertyOp47
 70
     1
102
RTVSPropertyOp48
 70
     1
102
RTVSPropertyOp49
 70
     1
102
RTVSPropertyOp50
 70
     1
102
RTVSPropertyOp51
 70
     0
102
RTVSPropertyOp52
 70
     0
102
RTVSPropertyOp53
 70
     1
102
RTVSPropertyOp54
 70
     1
102
RTVSPropertyOp55
 70
     1
102
RTVSPropertyOp56
 70
     1
102
RTVSPropertyOp57
 70
     1
102
RTVSPropertyOp58
 70
     1
102
RTVSPropertyOp59
 70
     1
102
RTVSPropertyOp60
 70
     1
102
RTVSPropertyOp61
 70
     1
102
RTVSPropertyOp62
 70
     1
  0
XRECORD
  5
3E04
102
{ACAD_REACTORS
330
3E03
102
}
330
3E03
100
AcDbXrecord
280
     1
102
RTVSPost2010Prop28
280
     0
102
RTVSPost2010PropOp28
 70
     1
102
RTVSPost2010Prop29
280
     1
102
RTVSPost2010PropOp29
 70
     1
102
RTVSPost2010Prop30
280
     1
102
RTVSPost2010PropOp30
 70
     1
102
RTVSPost2010Prop31
280
     0
102
RTVSPost2010PropOp31
 70
     1
102
RTVSPost2010Prop32
280
     0
102
RTVSPost2010PropOp32
 70
     1
102
RTVSPost2010Prop33
280
     0
102
RTVSPost2010PropOp33
 70
     1
102
RTVSPost2010Prop34
280
     0
102
RTVSPost2010PropOp34
 70
     1
102
RTVSPost2010Prop35
280
     0
102
RTVSPost2010PropOp35
 70
     1
102
RTVSPost2010Prop36
280
     0
102
RTVSPost2010PropOp36
 70
     1
102
RTVSPost2010Prop37
 90
       50
102
RTVSPost2010PropOp37
 70
     1
102
RTVSPost2010Prop38
140
0.0
102
RTVSPost2010PropOp38
 70
     1
102
RTVSPost2010Prop39
140
1.0
102
RTVSPost2010PropOp39
 70
     1
102
RTVSPost2010Prop40
 90
        0
102
RTVSPost2010PropOp40
 70
     1
102
RTVSPost2010Prop41ColorIndex
 90
       18
102
RTVSPost2010Prop41ColorRGB
 90
        0
102
RTVSPost2010PropOp41
 70
     1
102
RTVSPost2010Prop42
 90
       50
102
RTVSPost2010PropOp42
 70
     1
102
RTVSPost2010Prop43
 90
        3
102
RTVSPost2010PropOp43
 70
     1
102
RTVSPost2010Prop44ColorIndex
 90
        5
102
RTVSPost2010Prop44ColorRGB
 90
      255
102
RTVSPost2010PropOp44
 70
     1
102
RTVSPost2010Prop45
280
     0
102
RTVSPost2010PropOp45
 70
     1
102
RTVSPost2010Prop46
 90
       50
102
RTVSPost2010PropOp46
 70
     1
102
RTVSPost2010Prop47
 90
       50
102
RTVSPost2010PropOp47
 70
     1
102
RTVSPost2010Prop48
 90
       50
102
RTVSPost2010PropOp48
 70
     1
102
RTVSPost2010Prop49
280
     0
102
RTVSPost2010PropOp49
 70
     1
102
RTVSPost2010Prop50
 90
       50
102
RTVSPost2010PropOp50
 70
     1
102
RTVSPost2010Prop51ColorIndex
 90
      256
102
RTVSPost2010Prop51ColorRGB
 90
-16777216
102
RTVSPost2010PropOp51
 70
     0
102
RTVSPost2010Prop52
140
1.0
102
RTVSPost2010PropOp52
 70
     0
102
RTVSPost2010Prop53
 90
        2
102
RTVSPost2010PropOp53
 70
     1
102
RTVSPost2010Prop54
  1
strokes_ogs.tif
102
RTVSPost2010PropOp54
 70
     1
102
RTVSPost2010Prop55
280
     0
102
RTVSPost2010PropOp55
 70
     1
102
RTVSPost2010Prop56
140
1.0
102
RTVSPost2010PropOp56
 70
     1
102
RTVSPost2010Prop57
140
1.0
102
RTVSPost2010PropOp57
 70
     1
102
RTVSPropertyOp0
 70
     1
102
RTVSPropertyOp1
 70
     1
102
RTVSPropertyOp2
 70
     1
102
RTVSPropertyOp3
 70
     1
102
RTVSPropertyOp4
 70
     1
102
RTVSPropertyOp5
 70
     1
102
RTVSPropertyOp6
 70
     1
102
RTVSPropertyOp7
 70
     1
102
RTVSPropertyOp8
 70
     1
102
RTVSPropertyOp9
 70
     1
102
RTVSPropertyOp10
 70
     1
102
RTVSPropertyOp11
 70
     1
102
RTVSPropertyOp12
 70
     1
102
RTVSPropertyOp13
 70
     1
102
RTVSPropertyOp14
 70
     1
102
RTVSPropertyOp15
 70
     1
102
RTVSPropertyOp16
 70
     1
102
RTVSPropertyOp17
 70
     1
102
RTVSPropertyOp18
 70
     1
102
RTVSPropertyOp19
 70
     1
102
RTVSPropertyOp20
 70
     1
102
RTVSPropertyOp21
 70
     1
102
RTVSPropertyOp22
 70
     1
102
RTVSPropertyOp23
 70
     1
102
RTVSPropertyOp24
 70
     1
102
RTVSPropertyOp25
 70
     1
102
RTVSPropertyOp26
 70
     1
102
RTVSPropertyOp27
 70
     1
102
RTVSPropertyOp28
 70
     1
102
RTVSPropertyOp29
 70
     1
102
RTVSPropertyOp30
 70
     1
102
RTVSPropertyOp31
 70
     1
102
RTVSPropertyOp32
 70
     1
102
RTVSPropertyOp33
 70
     1
102
RTVSPropertyOp34
 70
     1
102
RTVSPropertyOp35
 70
     1
102
RTVSPropertyOp36
 70
     1
102
RTVSPropertyOp37
 70
     1
102
RTVSPropertyOp38
 70
     1
102
RTVSPropertyOp39
 70
     1
102
RTVSPropertyOp40
 70
     1
102
RTVSPropertyOp41
 70
     1
102
RTVSPropertyOp42
 70
     1
102
RTVSPropertyOp43
 70
     1
102
RTVSPropertyOp44
 70
     1
102
RTVSPropertyOp45
 70
     1
102
RTVSPropertyOp46
 70
     1
102
RTVSPropertyOp47
 70
     1
102
RTVSPropertyOp48
 70
     1
102
RTVSPropertyOp49
 70
     1
102
RTVSPropertyOp50
 70
     1
102
RTVSPropertyOp51
 70
     0
102
RTVSPropertyOp52
 70
     0
102
RTVSPropertyOp53
 70
     1
102
RTVSPropertyOp54
 70
     1
102
RTVSPropertyOp55
 70
     1
102
RTVSPropertyOp56
 70
     1
102
RTVSPropertyOp57
 70
     1
102
RTVSPropertyOp58
 70
     1
102
RTVSPropertyOp59
 70
     1
102
RTVSPropertyOp60
 70
     1
102
RTVSPropertyOp61
 70
     1
102
RTVSPropertyOp62
 70
     1
  0
XRECORD
  5
3E12
102
{ACAD_REACTORS
330
3E11
102
}
330
3E11
100
AcDbXrecord
280
     1
102
RTVSPost2010Prop28
280
     0
102
RTVSPost2010PropOp28
 70
     1
102
RTVSPost2010Prop29
280
     1
102
RTVSPost2010PropOp29
 70
     1
102
RTVSPost2010Prop30
280
     1
102
RTVSPost2010PropOp30
 70
     1
102
RTVSPost2010Prop31
280
     0
102
RTVSPost2010PropOp31
 70
     1
102
RTVSPost2010Prop32
280
     0
102
RTVSPost2010PropOp32
 70
     1
102
RTVSPost2010Prop33
280
     0
102
RTVSPost2010PropOp33
 70
     1
102
RTVSPost2010Prop34
280
     0
102
RTVSPost2010PropOp34
 70
     1
102
RTVSPost2010Prop35
280
     0
102
RTVSPost2010PropOp35
 70
     1
102
RTVSPost2010Prop36
280
     0
102
RTVSPost2010PropOp36
 70
     1
102
RTVSPost2010Prop37
 90
       50
102
RTVSPost2010PropOp37
 70
     1
102
RTVSPost2010Prop38
140
0.0
102
RTVSPost2010PropOp38
 70
     1
102
RTVSPost2010Prop39
140
1.0
102
RTVSPost2010PropOp39
 70
     1
102
RTVSPost2010Prop40
 90
        0
102
RTVSPost2010PropOp40
 70
     1
102
RTVSPost2010Prop41ColorIndex
 90
       18
102
RTVSPost2010Prop41ColorRGB
 90
        0
102
RTVSPost2010PropOp41
 70
     1
102
RTVSPost2010Prop42
 90
       50
102
RTVSPost2010PropOp42
 70
     1
102
RTVSPost2010Prop43
 90
        3
102
RTVSPost2010PropOp43
 70
     1
102
RTVSPost2010Prop44ColorIndex
 90
        5
102
RTVSPost2010Prop44ColorRGB
 90
      255
102
RTVSPost2010PropOp44
 70
     1
102
RTVSPost2010Prop45
280
     0
102
RTVSPost2010PropOp45
 70
     1
102
RTVSPost2010Prop46
 90
       50
102
RTVSPost2010PropOp46
 70
     1
102
RTVSPost2010Prop47
 90
       50
102
RTVSPost2010PropOp47
 70
     1
102
RTVSPost2010Prop48
 90
       50
102
RTVSPost2010PropOp48
 70
     1
102
RTVSPost2010Prop49
280
     0
102
RTVSPost2010PropOp49
 70
     1
102
RTVSPost2010Prop50
 90
       50
102
RTVSPost2010PropOp50
 70
     1
102
RTVSPost2010Prop51ColorIndex
 90
      256
102
RTVSPost2010Prop51ColorRGB
 90
-16777216
102
RTVSPost2010PropOp51
 70
     0
102
RTVSPost2010Prop52
140
1.0
102
RTVSPost2010PropOp52
 70
     0
102
RTVSPost2010Prop53
 90
        2
102
RTVSPost2010PropOp53
 70
     1
102
RTVSPost2010Prop54
  1
strokes_ogs.tif
102
RTVSPost2010PropOp54
 70
     1
102
RTVSPost2010Prop55
280
     0
102
RTVSPost2010PropOp55
 70
     1
102
RTVSPost2010Prop56
140
1.0
102
RTVSPost2010PropOp56
 70
     1
102
RTVSPost2010Prop57
140
1.0
102
RTVSPost2010PropOp57
 70
     1
102
RTVSPropertyOp0
 70
     1
102
RTVSPropertyOp1
 70
     1
102
RTVSPropertyOp2
 70
     1
102
RTVSPropertyOp3
 70
     1
102
RTVSPropertyOp4
 70
     1
102
RTVSPropertyOp5
 70
     1
102
RTVSPropertyOp6
 70
     1
102
RTVSPropertyOp7
 70
     1
102
RTVSPropertyOp8
 70
     1
102
RTVSPropertyOp9
 70
     1
102
RTVSPropertyOp10
 70
     1
102
RTVSPropertyOp11
 70
     1
102
RTVSPropertyOp12
 70
     1
102
RTVSPropertyOp13
 70
     1
102
RTVSPropertyOp14
 70
     1
102
RTVSPropertyOp15
 70
     1
102
RTVSPropertyOp16
 70
     1
102
RTVSPropertyOp17
 70
     1
102
RTVSPropertyOp18
 70
     1
102
RTVSPropertyOp19
 70
     1
102
RTVSPropertyOp20
 70
     1
102
RTVSPropertyOp21
 70
     1
102
RTVSPropertyOp22
 70
     1
102
RTVSPropertyOp23
 70
     1
102
RTVSPropertyOp24
 70
     1
102
RTVSPropertyOp25
 70
     1
102
RTVSPropertyOp26
 70
     1
102
RTVSPropertyOp27
 70
     1
102
RTVSPropertyOp28
 70
     1
102
RTVSPropertyOp29
 70
     1
102
RTVSPropertyOp30
 70
     1
102
RTVSPropertyOp31
 70
     1
102
RTVSPropertyOp32
 70
     1
102
RTVSPropertyOp33
 70
     1
102
RTVSPropertyOp34
 70
     1
102
RTVSPropertyOp35
 70
     1
102
RTVSPropertyOp36
 70
     1
102
RTVSPropertyOp37
 70
     1
102
RTVSPropertyOp38
 70
     1
102
RTVSPropertyOp39
 70
     1
102
RTVSPropertyOp40
 70
     1
102
RTVSPropertyOp41
 70
     1
102
RTVSPropertyOp42
 70
     1
102
RTVSPropertyOp43
 70
     1
102
RTVSPropertyOp44
 70
     1
102
RTVSPropertyOp45
 70
     1
102
RTVSPropertyOp46
 70
     1
102
RTVSPropertyOp47
 70
     1
102
RTVSPropertyOp48
 70
     1
102
RTVSPropertyOp49
 70
     1
102
RTVSPropertyOp50
 70
     1
102
RTVSPropertyOp51
 70
     0
102
RTVSPropertyOp52
 70
     0
102
RTVSPropertyOp53
 70
     1
102
RTVSPropertyOp54
 70
     1
102
RTVSPropertyOp55
 70
     1
102
RTVSPropertyOp56
 70
     1
102
RTVSPropertyOp57
 70
     1
102
RTVSPropertyOp58
 70
     1
102
RTVSPropertyOp59
 70
     1
102
RTVSPropertyOp60
 70
     1
102
RTVSPropertyOp61
 70
     1
102
RTVSPropertyOp62
 70
     1
  0
XRECORD
  5
3E1A
102
{ACAD_REACTORS
330
3E19
102
}
330
3E19
100
AcDbXrecord
280
     1
102
RTVSPost2010Prop28
280
     0
102
RTVSPost2010PropOp28
 70
     1
102
RTVSPost2010Prop29
280
     1
102
RTVSPost2010PropOp29
 70
     1
102
RTVSPost2010Prop30
280
     1
102
RTVSPost2010PropOp30
 70
     1
102
RTVSPost2010Prop31
280
     0
102
RTVSPost2010PropOp31
 70
     1
102
RTVSPost2010Prop32
280
     0
102
RTVSPost2010PropOp32
 70
     1
102
RTVSPost2010Prop33
280
     0
102
RTVSPost2010PropOp33
 70
     1
102
RTVSPost2010Prop34
280
     0
102
RTVSPost2010PropOp34
 70
     1
102
RTVSPost2010Prop35
280
     0
102
RTVSPost2010PropOp35
 70
     1
102
RTVSPost2010Prop36
280
     0
102
RTVSPost2010PropOp36
 70
     1
102
RTVSPost2010Prop37
 90
       50
102
RTVSPost2010PropOp37
 70
     1
102
RTVSPost2010Prop38
140
0.0
102
RTVSPost2010PropOp38
 70
     1
102
RTVSPost2010Prop39
140
1.0
102
RTVSPost2010PropOp39
 70
     1
102
RTVSPost2010Prop40
 90
        0
102
RTVSPost2010PropOp40
 70
     1
102
RTVSPost2010Prop41ColorIndex
 90
       18
102
RTVSPost2010Prop41ColorRGB
 90
        0
102
RTVSPost2010PropOp41
 70
     1
102
RTVSPost2010Prop42
 90
       50
102
RTVSPost2010PropOp42
 70
     1
102
RTVSPost2010Prop43
 90
        3
102
RTVSPost2010PropOp43
 70
     1
102
RTVSPost2010Prop44ColorIndex
 90
        5
102
RTVSPost2010Prop44ColorRGB
 90
      255
102
RTVSPost2010PropOp44
 70
     1
102
RTVSPost2010Prop45
280
     0
102
RTVSPost2010PropOp45
 70
     1
102
RTVSPost2010Prop46
 90
       50
102
RTVSPost2010PropOp46
 70
     1
102
RTVSPost2010Prop47
 90
       50
102
RTVSPost2010PropOp47
 70
     1
102
RTVSPost2010Prop48
 90
       50
102
RTVSPost2010PropOp48
 70
     1
102
RTVSPost2010Prop49
280
     0
102
RTVSPost2010PropOp49
 70
     1
102
RTVSPost2010Prop50
 90
       50
102
RTVSPost2010PropOp50
 70
     1
102
RTVSPost2010Prop51ColorIndex
 90
      256
102
RTVSPost2010Prop51ColorRGB
 90
-16777216
102
RTVSPost2010PropOp51
 70
     0
102
RTVSPost2010Prop52
140
1.0
102
RTVSPost2010PropOp52
 70
     0
102
RTVSPost2010Prop53
 90
        2
102
RTVSPost2010PropOp53
 70
     1
102
RTVSPost2010Prop54
  1
strokes_ogs.tif
102
RTVSPost2010PropOp54
 70
     1
102
RTVSPost2010Prop55
280
     0
102
RTVSPost2010PropOp55
 70
     1
102
RTVSPost2010Prop56
140
1.0
102
RTVSPost2010PropOp56
 70
     1
102
RTVSPost2010Prop57
140
1.0
102
RTVSPost2010PropOp57
 70
     1
102
RTVSPropertyOp0
 70
     1
102
RTVSPropertyOp1
 70
     1
102
RTVSPropertyOp2
 70
     1
102
RTVSPropertyOp3
 70
     1
102
RTVSPropertyOp4
 70
     1
102
RTVSPropertyOp5
 70
     1
102
RTVSPropertyOp6
 70
     1
102
RTVSPropertyOp7
 70
     1
102
RTVSPropertyOp8
 70
     1
102
RTVSPropertyOp9
 70
     1
102
RTVSPropertyOp10
 70
     1
102
RTVSPropertyOp11
 70
     1
102
RTVSPropertyOp12
 70
     1
102
RTVSPropertyOp13
 70
     1
102
RTVSPropertyOp14
 70
     1
102
RTVSPropertyOp15
 70
     1
102
RTVSPropertyOp16
 70
     1
102
RTVSPropertyOp17
 70
     1
102
RTVSPropertyOp18
 70
     1
102
RTVSPropertyOp19
 70
     1
102
RTVSPropertyOp20
 70
     1
102
RTVSPropertyOp21
 70
     1
102
RTVSPropertyOp22
 70
     1
102
RTVSPropertyOp23
 70
     1
102
RTVSPropertyOp24
 70
     1
102
RTVSPropertyOp25
 70
     1
102
RTVSPropertyOp26
 70
     1
102
RTVSPropertyOp27
 70
     1
102
RTVSPropertyOp28
 70
     1
102
RTVSPropertyOp29
 70
     1
102
RTVSPropertyOp30
 70
     1
102
RTVSPropertyOp31
 70
     1
102
RTVSPropertyOp32
 70
     1
102
RTVSPropertyOp33
 70
     1
102
RTVSPropertyOp34
 70
     1
102
RTVSPropertyOp35
 70
     1
102
RTVSPropertyOp36
 70
     1
102
RTVSPropertyOp37
 70
     1
102
RTVSPropertyOp38
 70
     1
102
RTVSPropertyOp39
 70
     1
102
RTVSPropertyOp40
 70
     1
102
RTVSPropertyOp41
 70
     1
102
RTVSPropertyOp42
 70
     1
102
RTVSPropertyOp43
 70
     1
102
RTVSPropertyOp44
 70
     1
102
RTVSPropertyOp45
 70
     1
102
RTVSPropertyOp46
 70
     1
102
RTVSPropertyOp47
 70
     1
102
RTVSPropertyOp48
 70
     1
102
RTVSPropertyOp49
 70
     1
102
RTVSPropertyOp50
 70
     1
102
RTVSPropertyOp51
 70
     0
102
RTVSPropertyOp52
 70
     0
102
RTVSPropertyOp53
 70
     1
102
RTVSPropertyOp54
 70
     1
102
RTVSPropertyOp55
 70
     1
102
RTVSPropertyOp56
 70
     1
102
RTVSPropertyOp57
 70
     1
102
RTVSPropertyOp58
 70
     1
102
RTVSPropertyOp59
 70
     1
102
RTVSPropertyOp60
 70
     1
102
RTVSPropertyOp61
 70
     1
102
RTVSPropertyOp62
 70
     1
  0
XRECORD
  5
3E0C
102
{ACAD_REACTORS
330
3E0B
102
}
330
3E0B
100
AcDbXrecord
280
     1
102
RTVSPost2010Prop28
280
     0
102
RTVSPost2010PropOp28
 70
     1
102
RTVSPost2010Prop29
280
     1
102
RTVSPost2010PropOp29
 70
     1
102
RTVSPost2010Prop30
280
     1
102
RTVSPost2010PropOp30
 70
     1
102
RTVSPost2010Prop31
280
     0
102
RTVSPost2010PropOp31
 70
     1
102
RTVSPost2010Prop32
280
     0
102
RTVSPost2010PropOp32
 70
     1
102
RTVSPost2010Prop33
280
     0
102
RTVSPost2010PropOp33
 70
     1
102
RTVSPost2010Prop34
280
     0
102
RTVSPost2010PropOp34
 70
     1
102
RTVSPost2010Prop35
280
     0
102
RTVSPost2010PropOp35
 70
     1
102
RTVSPost2010Prop36
280
     0
102
RTVSPost2010PropOp36
 70
     1
102
RTVSPost2010Prop37
 90
       50
102
RTVSPost2010PropOp37
 70
     1
102
RTVSPost2010Prop38
140
0.0
102
RTVSPost2010PropOp38
 70
     1
102
RTVSPost2010Prop39
140
1.0
102
RTVSPost2010PropOp39
 70
     1
102
RTVSPost2010Prop40
 90
        0
102
RTVSPost2010PropOp40
 70
     1
102
RTVSPost2010Prop41ColorIndex
 90
       18
102
RTVSPost2010Prop41ColorRGB
 90
        0
102
RTVSPost2010PropOp41
 70
     1
102
RTVSPost2010Prop42
 90
       50
102
RTVSPost2010PropOp42
 70
     1
102
RTVSPost2010Prop43
 90
        3
102
RTVSPost2010PropOp43
 70
     1
102
RTVSPost2010Prop44ColorIndex
 90
        5
102
RTVSPost2010Prop44ColorRGB
 90
      255
102
RTVSPost2010PropOp44
 70
     1
102
RTVSPost2010Prop45
280
     0
102
RTVSPost2010PropOp45
 70
     1
102
RTVSPost2010Prop46
 90
       50
102
RTVSPost2010PropOp46
 70
     1
102
RTVSPost2010Prop47
 90
       50
102
RTVSPost2010PropOp47
 70
     1
102
RTVSPost2010Prop48
 90
       50
102
RTVSPost2010PropOp48
 70
     1
102
RTVSPost2010Prop49
280
     0
102
RTVSPost2010PropOp49
 70
     1
102
RTVSPost2010Prop50
 90
       50
102
RTVSPost2010PropOp50
 70
     1
102
RTVSPost2010Prop51ColorIndex
 90
      256
102
RTVSPost2010Prop51ColorRGB
 90
-16777216
102
RTVSPost2010PropOp51
 70
     0
102
RTVSPost2010Prop52
140
1.0
102
RTVSPost2010PropOp52
 70
     0
102
RTVSPost2010Prop53
 90
        2
102
RTVSPost2010PropOp53
 70
     1
102
RTVSPost2010Prop54
  1
strokes_ogs.tif
102
RTVSPost2010PropOp54
 70
     1
102
RTVSPost2010Prop55
280
     0
102
RTVSPost2010PropOp55
 70
     1
102
RTVSPost2010Prop56
140
1.0
102
RTVSPost2010PropOp56
 70
     1
102
RTVSPost2010Prop57
140
1.0
102
RTVSPost2010PropOp57
 70
     1
102
RTVSPropertyOp0
 70
     1
102
RTVSPropertyOp1
 70
     1
102
RTVSPropertyOp2
 70
     1
102
RTVSPropertyOp3
 70
     1
102
RTVSPropertyOp4
 70
     1
102
RTVSPropertyOp5
 70
     1
102
RTVSPropertyOp6
 70
     1
102
RTVSPropertyOp7
 70
     1
102
RTVSPropertyOp8
 70
     1
102
RTVSPropertyOp9
 70
     1
102
RTVSPropertyOp10
 70
     1
102
RTVSPropertyOp11
 70
     1
102
RTVSPropertyOp12
 70
     1
102
RTVSPropertyOp13
 70
     1
102
RTVSPropertyOp14
 70
     1
102
RTVSPropertyOp15
 70
     1
102
RTVSPropertyOp16
 70
     1
102
RTVSPropertyOp17
 70
     1
102
RTVSPropertyOp18
 70
     1
102
RTVSPropertyOp19
 70
     1
102
RTVSPropertyOp20
 70
     1
102
RTVSPropertyOp21
 70
     1
102
RTVSPropertyOp22
 70
     1
102
RTVSPropertyOp23
 70
     1
102
RTVSPropertyOp24
 70
     1
102
RTVSPropertyOp25
 70
     1
102
RTVSPropertyOp26
 70
     1
102
RTVSPropertyOp27
 70
     1
102
RTVSPropertyOp28
 70
     1
102
RTVSPropertyOp29
 70
     1
102
RTVSPropertyOp30
 70
     1
102
RTVSPropertyOp31
 70
     1
102
RTVSPropertyOp32
 70
     1
102
RTVSPropertyOp33
 70
     1
102
RTVSPropertyOp34
 70
     1
102
RTVSPropertyOp35
 70
     1
102
RTVSPropertyOp36
 70
     1
102
RTVSPropertyOp37
 70
     1
102
RTVSPropertyOp38
 70
     1
102
RTVSPropertyOp39
 70
     1
102
RTVSPropertyOp40
 70
     1
102
RTVSPropertyOp41
 70
     1
102
RTVSPropertyOp42
 70
     1
102
RTVSPropertyOp43
 70
     1
102
RTVSPropertyOp44
 70
     1
102
RTVSPropertyOp45
 70
     1
102
RTVSPropertyOp46
 70
     1
102
RTVSPropertyOp47
 70
     1
102
RTVSPropertyOp48
 70
     1
102
RTVSPropertyOp49
 70
     1
102
RTVSPropertyOp50
 70
     1
102
RTVSPropertyOp51
 70
     0
102
RTVSPropertyOp52
 70
     0
102
RTVSPropertyOp53
 70
     1
102
RTVSPropertyOp54
 70
     1
102
RTVSPropertyOp55
 70
     1
102
RTVSPropertyOp56
 70
     1
102
RTVSPropertyOp57
 70
     1
102
RTVSPropertyOp58
 70
     1
102
RTVSPropertyOp59
 70
     1
102
RTVSPropertyOp60
 70
     1
102
RTVSPropertyOp61
 70
     1
102
RTVSPropertyOp62
 70
     1
  0
XRECORD
  5
3E10
102
{ACAD_REACTORS
330
3E0F
102
}
330
3E0F
100
AcDbXrecord
280
     1
102
RTVSPost2010Prop28
280
     0
102
RTVSPost2010PropOp28
 70
     1
102
RTVSPost2010Prop29
280
     1
102
RTVSPost2010PropOp29
 70
     1
102
RTVSPost2010Prop30
280
     1
102
RTVSPost2010PropOp30
 70
     1
102
RTVSPost2010Prop31
280
     0
102
RTVSPost2010PropOp31
 70
     1
102
RTVSPost2010Prop32
280
     0
102
RTVSPost2010PropOp32
 70
     1
102
RTVSPost2010Prop33
280
     0
102
RTVSPost2010PropOp33
 70
     1
102
RTVSPost2010Prop34
280
     0
102
RTVSPost2010PropOp34
 70
     1
102
RTVSPost2010Prop35
280
     0
102
RTVSPost2010PropOp35
 70
     1
102
RTVSPost2010Prop36
280
     0
102
RTVSPost2010PropOp36
 70
     1
102
RTVSPost2010Prop37
 90
       50
102
RTVSPost2010PropOp37
 70
     1
102
RTVSPost2010Prop38
140
0.0
102
RTVSPost2010PropOp38
 70
     1
102
RTVSPost2010Prop39
140
1.0
102
RTVSPost2010PropOp39
 70
     1
102
RTVSPost2010Prop40
 90
        0
102
RTVSPost2010PropOp40
 70
     1
102
RTVSPost2010Prop41ColorIndex
 90
       18
102
RTVSPost2010Prop41ColorRGB
 90
        0
102
RTVSPost2010PropOp41
 70
     1
102
RTVSPost2010Prop42
 90
       50
102
RTVSPost2010PropOp42
 70
     1
102
RTVSPost2010Prop43
 90
        3
102
RTVSPost2010PropOp43
 70
     1
102
RTVSPost2010Prop44ColorIndex
 90
        5
102
RTVSPost2010Prop44ColorRGB
 90
      255
102
RTVSPost2010PropOp44
 70
     1
102
RTVSPost2010Prop45
280
     0
102
RTVSPost2010PropOp45
 70
     1
102
RTVSPost2010Prop46
 90
       50
102
RTVSPost2010PropOp46
 70
     1
102
RTVSPost2010Prop47
 90
       50
102
RTVSPost2010PropOp47
 70
     1
102
RTVSPost2010Prop48
 90
       50
102
RTVSPost2010PropOp48
 70
     1
102
RTVSPost2010Prop49
280
     0
102
RTVSPost2010PropOp49
 70
     1
102
RTVSPost2010Prop50
 90
       50
102
RTVSPost2010PropOp50
 70
     1
102
RTVSPost2010Prop51ColorIndex
 90
      256
102
RTVSPost2010Prop51ColorRGB
 90
-16777216
102
RTVSPost2010PropOp51
 70
     0
102
RTVSPost2010Prop52
140
1.0
102
RTVSPost2010PropOp52
 70
     0
102
RTVSPost2010Prop53
 90
        2
102
RTVSPost2010PropOp53
 70
     1
102
RTVSPost2010Prop54
  1
strokes_ogs.tif
102
RTVSPost2010PropOp54
 70
     1
102
RTVSPost2010Prop55
280
     0
102
RTVSPost2010PropOp55
 70
     1
102
RTVSPost2010Prop56
140
1.0
102
RTVSPost2010PropOp56
 70
     1
102
RTVSPost2010Prop57
140
1.0
102
RTVSPost2010PropOp57
 70
     1
102
RTVSPropertyOp0
 70
     1
102
RTVSPropertyOp1
 70
     1
102
RTVSPropertyOp2
 70
     1
102
RTVSPropertyOp3
 70
     1
102
RTVSPropertyOp4
 70
     1
102
RTVSPropertyOp5
 70
     1
102
RTVSPropertyOp6
 70
     1
102
RTVSPropertyOp7
 70
     1
102
RTVSPropertyOp8
 70
     1
102
RTVSPropertyOp9
 70
     1
102
RTVSPropertyOp10
 70
     1
102
RTVSPropertyOp11
 70
     1
102
RTVSPropertyOp12
 70
     1
102
RTVSPropertyOp13
 70
     1
102
RTVSPropertyOp14
 70
     1
102
RTVSPropertyOp15
 70
     1
102
RTVSPropertyOp16
 70
     1
102
RTVSPropertyOp17
 70
     1
102
RTVSPropertyOp18
 70
     1
102
RTVSPropertyOp19
 70
     1
102
RTVSPropertyOp20
 70
     1
102
RTVSPropertyOp21
 70
     1
102
RTVSPropertyOp22
 70
     1
102
RTVSPropertyOp23
 70
     1
102
RTVSPropertyOp24
 70
     1
102
RTVSPropertyOp25
 70
     1
102
RTVSPropertyOp26
 70
     1
102
RTVSPropertyOp27
 70
     1
102
RTVSPropertyOp28
 70
     1
102
RTVSPropertyOp29
 70
     1
102
RTVSPropertyOp30
 70
     1
102
RTVSPropertyOp31
 70
     1
102
RTVSPropertyOp32
 70
     1
102
RTVSPropertyOp33
 70
     1
102
RTVSPropertyOp34
 70
     1
102
RTVSPropertyOp35
 70
     1
102
RTVSPropertyOp36
 70
     1
102
RTVSPropertyOp37
 70
     1
102
RTVSPropertyOp38
 70
     1
102
RTVSPropertyOp39
 70
     1
102
RTVSPropertyOp40
 70
     1
102
RTVSPropertyOp41
 70
     1
102
RTVSPropertyOp42
 70
     1
102
RTVSPropertyOp43
 70
     1
102
RTVSPropertyOp44
 70
     1
102
RTVSPropertyOp45
 70
     1
102
RTVSPropertyOp46
 70
     1
102
RTVSPropertyOp47
 70
     1
102
RTVSPropertyOp48
 70
     1
102
RTVSPropertyOp49
 70
     1
102
RTVSPropertyOp50
 70
     1
102
RTVSPropertyOp51
 70
     0
102
RTVSPropertyOp52
 70
     0
102
RTVSPropertyOp53
 70
     1
102
RTVSPropertyOp54
 70
     1
102
RTVSPropertyOp55
 70
     1
102
RTVSPropertyOp56
 70
     1
102
RTVSPropertyOp57
 70
     1
102
RTVSPropertyOp58
 70
     1
102
RTVSPropertyOp59
 70
     1
102
RTVSPropertyOp60
 70
     1
102
RTVSPropertyOp61
 70
     1
102
RTVSPropertyOp62
 70
     1
  0
XRECORD
  5
3E2A
102
{ACAD_REACTORS
330
3E29
102
}
330
3E29
100
AcDbXrecord
280
     1
102
RTVSPost2010Prop28
280
     0
102
RTVSPost2010PropOp28
 70
     1
102
RTVSPost2010Prop29
280
     1
102
RTVSPost2010PropOp29
 70
     1
102
RTVSPost2010Prop30
280
     1
102
RTVSPost2010PropOp30
 70
     1
102
RTVSPost2010Prop31
280
     0
102
RTVSPost2010PropOp31
 70
     1
102
RTVSPost2010Prop32
280
     0
102
RTVSPost2010PropOp32
 70
     1
102
RTVSPost2010Prop33
280
     0
102
RTVSPost2010PropOp33
 70
     1
102
RTVSPost2010Prop34
280
     0
102
RTVSPost2010PropOp34
 70
     1
102
RTVSPost2010Prop35
280
     0
102
RTVSPost2010PropOp35
 70
     1
102
RTVSPost2010Prop36
280
     0
102
RTVSPost2010PropOp36
 70
     1
102
RTVSPost2010Prop37
 90
       50
102
RTVSPost2010PropOp37
 70
     0
102
RTVSPost2010Prop38
140
0.0
102
RTVSPost2010PropOp38
 70
     0
102
RTVSPost2010Prop39
140
1.0
102
RTVSPost2010PropOp39
 70
     0
102
RTVSPost2010Prop40
 90
        0
102
RTVSPost2010PropOp40
 70
     0
102
RTVSPost2010Prop41ColorIndex
 90
       18
102
RTVSPost2010Prop41ColorRGB
 90
        0
102
RTVSPost2010PropOp41
 70
     0
102
RTVSPost2010Prop42
 90
       50
102
RTVSPost2010PropOp42
 70
     0
102
RTVSPost2010Prop43
 90
        3
102
RTVSPost2010PropOp43
 70
     0
102
RTVSPost2010Prop44ColorIndex
 90
        5
102
RTVSPost2010Prop44ColorRGB
 90
      255
102
RTVSPost2010PropOp44
 70
     0
102
RTVSPost2010Prop45
280
     0
102
RTVSPost2010PropOp45
 70
     1
102
RTVSPost2010Prop46
 90
       50
102
RTVSPost2010PropOp46
 70
     0
102
RTVSPost2010Prop47
 90
       50
102
RTVSPost2010PropOp47
 70
     0
102
RTVSPost2010Prop48
 90
       50
102
RTVSPost2010PropOp48
 70
     0
102
RTVSPost2010Prop49
280
     0
102
RTVSPost2010PropOp49
 70
     1
102
RTVSPost2010Prop50
 90
       50
102
RTVSPost2010PropOp50
 70
     0
102
RTVSPost2010Prop51ColorIndex
 90
      256
102
RTVSPost2010Prop51ColorRGB
 90
-16777216
102
RTVSPost2010PropOp51
 70
     0
102
RTVSPost2010Prop52
140
1.0
102
RTVSPost2010PropOp52
 70
     0
102
RTVSPost2010Prop53
 90
        2
102
RTVSPost2010PropOp53
 70
     0
102
RTVSPost2010Prop54
  1
strokes_ogs.tif
102
RTVSPost2010PropOp54
 70
     0
102
RTVSPost2010Prop55
280
     0
102
RTVSPost2010PropOp55
 70
     1
102
RTVSPost2010Prop56
140
1.0
102
RTVSPost2010PropOp56
 70
     0
102
RTVSPost2010Prop57
140
1.0
102
RTVSPost2010PropOp57
 70
     0
102
RTVSPropertyOp0
 70
     0
102
RTVSPropertyOp1
 70
     0
102
RTVSPropertyOp2
 70
     0
102
RTVSPropertyOp3
 70
     0
102
RTVSPropertyOp4
 70
     0
102
RTVSPropertyOp5
 70
     0
102
RTVSPropertyOp6
 70
     0
102
RTVSPropertyOp7
 70
     0
102
RTVSPropertyOp8
 70
     0
102
RTVSPropertyOp9
 70
     0
102
RTVSPropertyOp10
 70
     0
102
RTVSPropertyOp11
 70
     0
102
RTVSPropertyOp12
 70
     0
102
RTVSPropertyOp13
 70
     0
102
RTVSPropertyOp14
 70
     2
102
RTVSPropertyOp15
 70
     0
102
RTVSPropertyOp16
 70
     0
102
RTVSPropertyOp17
 70
     0
102
RTVSPropertyOp18
 70
     0
102
RTVSPropertyOp19
 70
     0
102
RTVSPropertyOp20
 70
     0
102
RTVSPropertyOp21
 70
     0
102
RTVSPropertyOp22
 70
     0
102
RTVSPropertyOp23
 70
     0
102
RTVSPropertyOp24
 70
     0
102
RTVSPropertyOp25
 70
     0
102
RTVSPropertyOp26
 70
     0
102
RTVSPropertyOp27
 70
     0
102
RTVSPropertyOp28
 70
     1
102
RTVSPropertyOp29
 70
     1
102
RTVSPropertyOp30
 70
     1
102
RTVSPropertyOp31
 70
     1
102
RTVSPropertyOp32
 70
     1
102
RTVSPropertyOp33
 70
     1
102
RTVSPropertyOp34
 70
     1
102
RTVSPropertyOp35
 70
     1
102
RTVSPropertyOp36
 70
     1
102
RTVSPropertyOp37
 70
     0
102
RTVSPropertyOp38
 70
     0
102
RTVSPropertyOp39
 70
     0
102
RTVSPropertyOp40
 70
     0
102
RTVSPropertyOp41
 70
     0
102
RTVSPropertyOp42
 70
     0
102
RTVSPropertyOp43
 70
     0
102
RTVSPropertyOp44
 70
     0
102
RTVSPropertyOp45
 70
     1
102
RTVSPropertyOp46
 70
     0
102
RTVSPropertyOp47
 70
     0
102
RTVSPropertyOp48
 70
     0
102
RTVSPropertyOp49
 70
     1
102
RTVSPropertyOp50
 70
     0
102
RTVSPropertyOp51
 70
     0
102
RTVSPropertyOp52
 70
     0
102
RTVSPropertyOp53
 70
     0
102
RTVSPropertyOp54
 70
     0
102
RTVSPropertyOp55
 70
     1
102
RTVSPropertyOp56
 70
     0
102
RTVSPropertyOp57
 70
     0
102
RTVSPropertyOp58
 70
     0
102
RTVSPropertyOp59
 70
     0
102
RTVSPropertyOp60
 70
     0
102
RTVSPropertyOp61
 70
     0
102
RTVSPropertyOp62
 70
     0
  0
XRECORD
  5
3E18
102
{ACAD_REACTORS
330
3E17
102
}
330
3E17
100
AcDbXrecord
280
     1
102
RTVSPost2010Prop28
280
     0
102
RTVSPost2010PropOp28
 70
     1
102
RTVSPost2010Prop29
280
     1
102
RTVSPost2010PropOp29
 70
     1
102
RTVSPost2010Prop30
280
     1
102
RTVSPost2010PropOp30
 70
     1
102
RTVSPost2010Prop31
280
     0
102
RTVSPost2010PropOp31
 70
     1
102
RTVSPost2010Prop32
280
     0
102
RTVSPost2010PropOp32
 70
     1
102
RTVSPost2010Prop33
280
     0
102
RTVSPost2010PropOp33
 70
     1
102
RTVSPost2010Prop34
280
     0
102
RTVSPost2010PropOp34
 70
     1
102
RTVSPost2010Prop35
280
     0
102
RTVSPost2010PropOp35
 70
     1
102
RTVSPost2010Prop36
280
     0
102
RTVSPost2010PropOp36
 70
     1
102
RTVSPost2010Prop37
 90
       50
102
RTVSPost2010PropOp37
 70
     1
102
RTVSPost2010Prop38
140
0.0
102
RTVSPost2010PropOp38
 70
     1
102
RTVSPost2010Prop39
140
1.0
102
RTVSPost2010PropOp39
 70
     1
102
RTVSPost2010Prop40
 90
        0
102
RTVSPost2010PropOp40
 70
     1
102
RTVSPost2010Prop41ColorIndex
 90
       18
102
RTVSPost2010Prop41ColorRGB
 90
        0
102
RTVSPost2010PropOp41
 70
     1
102
RTVSPost2010Prop42
 90
       50
102
RTVSPost2010PropOp42
 70
     1
102
RTVSPost2010Prop43
 90
        3
102
RTVSPost2010PropOp43
 70
     1
102
RTVSPost2010Prop44ColorIndex
 90
        5
102
RTVSPost2010Prop44ColorRGB
 90
      255
102
RTVSPost2010PropOp44
 70
     1
102
RTVSPost2010Prop45
280
     0
102
RTVSPost2010PropOp45
 70
     1
102
RTVSPost2010Prop46
 90
       50
102
RTVSPost2010PropOp46
 70
     1
102
RTVSPost2010Prop47
 90
       50
102
RTVSPost2010PropOp47
 70
     1
102
RTVSPost2010Prop48
 90
       50
102
RTVSPost2010PropOp48
 70
     1
102
RTVSPost2010Prop49
280
     0
102
RTVSPost2010PropOp49
 70
     1
102
RTVSPost2010Prop50
 90
       50
102
RTVSPost2010PropOp50
 70
     1
102
RTVSPost2010Prop51ColorIndex
 90
      256
102
RTVSPost2010Prop51ColorRGB
 90
-16777216
102
RTVSPost2010PropOp51
 70
     0
102
RTVSPost2010Prop52
140
1.0
102
RTVSPost2010PropOp52
 70
     0
102
RTVSPost2010Prop53
 90
        2
102
RTVSPost2010PropOp53
 70
     1
102
RTVSPost2010Prop54
  1
strokes_ogs.tif
102
RTVSPost2010PropOp54
 70
     1
102
RTVSPost2010Prop55
280
     0
102
RTVSPost2010PropOp55
 70
     1
102
RTVSPost2010Prop56
140
1.0
102
RTVSPost2010PropOp56
 70
     1
102
RTVSPost2010Prop57
140
1.0
102
RTVSPost2010PropOp57
 70
     1
102
RTVSPropertyOp0
 70
     1
102
RTVSPropertyOp1
 70
     1
102
RTVSPropertyOp2
 70
     1
102
RTVSPropertyOp3
 70
     1
102
RTVSPropertyOp4
 70
     1
102
RTVSPropertyOp5
 70
     1
102
RTVSPropertyOp6
 70
     1
102
RTVSPropertyOp7
 70
     1
102
RTVSPropertyOp8
 70
     1
102
RTVSPropertyOp9
 70
     1
102
RTVSPropertyOp10
 70
     1
102
RTVSPropertyOp11
 70
     1
102
RTVSPropertyOp12
 70
     1
102
RTVSPropertyOp13
 70
     1
102
RTVSPropertyOp14
 70
     1
102
RTVSPropertyOp15
 70
     1
102
RTVSPropertyOp16
 70
     1
102
RTVSPropertyOp17
 70
     1
102
RTVSPropertyOp18
 70
     1
102
RTVSPropertyOp19
 70
     1
102
RTVSPropertyOp20
 70
     1
102
RTVSPropertyOp21
 70
     1
102
RTVSPropertyOp22
 70
     1
102
RTVSPropertyOp23
 70
     1
102
RTVSPropertyOp24
 70
     1
102
RTVSPropertyOp25
 70
     1
102
RTVSPropertyOp26
 70
     1
102
RTVSPropertyOp27
 70
     1
102
RTVSPropertyOp28
 70
     1
102
RTVSPropertyOp29
 70
     1
102
RTVSPropertyOp30
 70
     1
102
RTVSPropertyOp31
 70
     1
102
RTVSPropertyOp32
 70
     1
102
RTVSPropertyOp33
 70
     1
102
RTVSPropertyOp34
 70
     1
102
RTVSPropertyOp35
 70
     1
102
RTVSPropertyOp36
 70
     1
102
RTVSPropertyOp37
 70
     1
102
RTVSPropertyOp38
 70
     1
102
RTVSPropertyOp39
 70
     1
102
RTVSPropertyOp40
 70
     1
102
RTVSPropertyOp41
 70
     1
102
RTVSPropertyOp42
 70
     1
102
RTVSPropertyOp43
 70
     1
102
RTVSPropertyOp44
 70
     1
102
RTVSPropertyOp45
 70
     1
102
RTVSPropertyOp46
 70
     1
102
RTVSPropertyOp47
 70
     1
102
RTVSPropertyOp48
 70
     1
102
RTVSPropertyOp49
 70
     1
102
RTVSPropertyOp50
 70
     1
102
RTVSPropertyOp51
 70
     0
102
RTVSPropertyOp52
 70
     0
102
RTVSPropertyOp53
 70
     1
102
RTVSPropertyOp54
 70
     1
102
RTVSPropertyOp55
 70
     1
102
RTVSPropertyOp56
 70
     1
102
RTVSPropertyOp57
 70
     1
102
RTVSPropertyOp58
 70
     1
102
RTVSPropertyOp59
 70
     1
102
RTVSPropertyOp60
 70
     1
102
RTVSPropertyOp61
 70
     1
102
RTVSPropertyOp62
 70
     1
  0
XRECORD
  5
3DFC
102
{ACAD_REACTORS
330
3DFB
102
}
330
3DFB
100
AcDbXrecord
280
     1
102
RTVSPost2010Prop28
280
     0
102
RTVSPost2010PropOp28
 70
     1
102
RTVSPost2010Prop29
280
     1
102
RTVSPost2010PropOp29
 70
     1
102
RTVSPost2010Prop30
280
     1
102
RTVSPost2010PropOp30
 70
     1
102
RTVSPost2010Prop31
280
     0
102
RTVSPost2010PropOp31
 70
     1
102
RTVSPost2010Prop32
280
     0
102
RTVSPost2010PropOp32
 70
     1
102
RTVSPost2010Prop33
280
     0
102
RTVSPost2010PropOp33
 70
     1
102
RTVSPost2010Prop34
280
     0
102
RTVSPost2010PropOp34
 70
     1
102
RTVSPost2010Prop35
280
     0
102
RTVSPost2010PropOp35
 70
     1
102
RTVSPost2010Prop36
280
     0
102
RTVSPost2010PropOp36
 70
     1
102
RTVSPost2010Prop37
 90
       50
102
RTVSPost2010PropOp37
 70
     1
102
RTVSPost2010Prop38
140
0.0
102
RTVSPost2010PropOp38
 70
     1
102
RTVSPost2010Prop39
140
1.0
102
RTVSPost2010PropOp39
 70
     1
102
RTVSPost2010Prop40
 90
        0
102
RTVSPost2010PropOp40
 70
     1
102
RTVSPost2010Prop41ColorIndex
 90
       18
102
RTVSPost2010Prop41ColorRGB
 90
        0
102
RTVSPost2010PropOp41
 70
     1
102
RTVSPost2010Prop42
 90
       50
102
RTVSPost2010PropOp42
 70
     1
102
RTVSPost2010Prop43
 90
        3
102
RTVSPost2010PropOp43
 70
     1
102
RTVSPost2010Prop44ColorIndex
 90
        5
102
RTVSPost2010Prop44ColorRGB
 90
      255
102
RTVSPost2010PropOp44
 70
     1
102
RTVSPost2010Prop45
280
     0
102
RTVSPost2010PropOp45
 70
     1
102
RTVSPost2010Prop46
 90
       50
102
RTVSPost2010PropOp46
 70
     1
102
RTVSPost2010Prop47
 90
       50
102
RTVSPost2010PropOp47
 70
     1
102
RTVSPost2010Prop48
 90
       50
102
RTVSPost2010PropOp48
 70
     1
102
RTVSPost2010Prop49
280
     0
102
RTVSPost2010PropOp49
 70
     1
102
RTVSPost2010Prop50
 90
       50
102
RTVSPost2010PropOp50
 70
     1
102
RTVSPost2010Prop51ColorIndex
 90
      256
102
RTVSPost2010Prop51ColorRGB
 90
-16777216
102
RTVSPost2010PropOp51
 70
     0
102
RTVSPost2010Prop52
140
1.0
102
RTVSPost2010PropOp52
 70
     0
102
RTVSPost2010Prop53
 90
        2
102
RTVSPost2010PropOp53
 70
     1
102
RTVSPost2010Prop54
  1
strokes_ogs.tif
102
RTVSPost2010PropOp54
 70
     1
102
RTVSPost2010Prop55
280
     0
102
RTVSPost2010PropOp55
 70
     1
102
RTVSPost2010Prop56
140
1.0
102
RTVSPost2010PropOp56
 70
     1
102
RTVSPost2010Prop57
140
1.0
102
RTVSPost2010PropOp57
 70
     1
102
RTVSPropertyOp0
 70
     1
102
RTVSPropertyOp1
 70
     1
102
RTVSPropertyOp2
 70
     1
102
RTVSPropertyOp3
 70
     1
102
RTVSPropertyOp4
 70
     1
102
RTVSPropertyOp5
 70
     1
102
RTVSPropertyOp6
 70
     1
102
RTVSPropertyOp7
 70
     1
102
RTVSPropertyOp8
 70
     1
102
RTVSPropertyOp9
 70
     1
102
RTVSPropertyOp10
 70
     1
102
RTVSPropertyOp11
 70
     1
102
RTVSPropertyOp12
 70
     1
102
RTVSPropertyOp13
 70
     1
102
RTVSPropertyOp14
 70
     1
102
RTVSPropertyOp15
 70
     1
102
RTVSPropertyOp16
 70
     1
102
RTVSPropertyOp17
 70
     1
102
RTVSPropertyOp18
 70
     1
102
RTVSPropertyOp19
 70
     1
102
RTVSPropertyOp20
 70
     1
102
RTVSPropertyOp21
 70
     1
102
RTVSPropertyOp22
 70
     1
102
RTVSPropertyOp23
 70
     1
102
RTVSPropertyOp24
 70
     1
102
RTVSPropertyOp25
 70
     1
102
RTVSPropertyOp26
 70
     1
102
RTVSPropertyOp27
 70
     1
102
RTVSPropertyOp28
 70
     1
102
RTVSPropertyOp29
 70
     1
102
RTVSPropertyOp30
 70
     1
102
RTVSPropertyOp31
 70
     1
102
RTVSPropertyOp32
 70
     1
102
RTVSPropertyOp33
 70
     1
102
RTVSPropertyOp34
 70
     1
102
RTVSPropertyOp35
 70
     1
102
RTVSPropertyOp36
 70
     1
102
RTVSPropertyOp37
 70
     1
102
RTVSPropertyOp38
 70
     1
102
RTVSPropertyOp39
 70
     1
102
RTVSPropertyOp40
 70
     1
102
RTVSPropertyOp41
 70
     1
102
RTVSPropertyOp42
 70
     1
102
RTVSPropertyOp43
 70
     1
102
RTVSPropertyOp44
 70
     1
102
RTVSPropertyOp45
 70
     1
102
RTVSPropertyOp46
 70
     1
102
RTVSPropertyOp47
 70
     1
102
RTVSPropertyOp48
 70
     1
102
RTVSPropertyOp49
 70
     1
102
RTVSPropertyOp50
 70
     1
102
RTVSPropertyOp51
 70
     0
102
RTVSPropertyOp52
 70
     0
102
RTVSPropertyOp53
 70
     1
102
RTVSPropertyOp54
 70
     1
102
RTVSPropertyOp55
 70
     1
102
RTVSPropertyOp56
 70
     1
102
RTVSPropertyOp57
 70
     1
102
RTVSPropertyOp58
 70
     1
102
RTVSPropertyOp59
 70
     1
102
RTVSPropertyOp60
 70
     1
102
RTVSPropertyOp61
 70
     1
102
RTVSPropertyOp62
 70
     1
  0
XRECORD
  5
3DFE
102
{ACAD_REACTORS
330
3DFD
102
}
330
3DFD
100
AcDbXrecord
280
     1
102
RTVSPost2010Prop28
280
     0
102
RTVSPost2010PropOp28
 70
     1
102
RTVSPost2010Prop29
280
     1
102
RTVSPost2010PropOp29
 70
     1
102
RTVSPost2010Prop30
280
     1
102
RTVSPost2010PropOp30
 70
     1
102
RTVSPost2010Prop31
280
     0
102
RTVSPost2010PropOp31
 70
     1
102
RTVSPost2010Prop32
280
     0
102
RTVSPost2010PropOp32
 70
     1
102
RTVSPost2010Prop33
280
     0
102
RTVSPost2010PropOp33
 70
     1
102
RTVSPost2010Prop34
280
     0
102
RTVSPost2010PropOp34
 70
     1
102
RTVSPost2010Prop35
280
     0
102
RTVSPost2010PropOp35
 70
     1
102
RTVSPost2010Prop36
280
     0
102
RTVSPost2010PropOp36
 70
     1
102
RTVSPost2010Prop37
 90
       50
102
RTVSPost2010PropOp37
 70
     1
102
RTVSPost2010Prop38
140
0.0
102
RTVSPost2010PropOp38
 70
     1
102
RTVSPost2010Prop39
140
1.0
102
RTVSPost2010PropOp39
 70
     1
102
RTVSPost2010Prop40
 90
        0
102
RTVSPost2010PropOp40
 70
     1
102
RTVSPost2010Prop41ColorIndex
 90
       18
102
RTVSPost2010Prop41ColorRGB
 90
        0
102
RTVSPost2010PropOp41
 70
     1
102
RTVSPost2010Prop42
 90
       50
102
RTVSPost2010PropOp42
 70
     1
102
RTVSPost2010Prop43
 90
        3
102
RTVSPost2010PropOp43
 70
     1
102
RTVSPost2010Prop44ColorIndex
 90
        5
102
RTVSPost2010Prop44ColorRGB
 90
      255
102
RTVSPost2010PropOp44
 70
     1
102
RTVSPost2010Prop45
280
     0
102
RTVSPost2010PropOp45
 70
     1
102
RTVSPost2010Prop46
 90
       50
102
RTVSPost2010PropOp46
 70
     1
102
RTVSPost2010Prop47
 90
       50
102
RTVSPost2010PropOp47
 70
     1
102
RTVSPost2010Prop48
 90
       50
102
RTVSPost2010PropOp48
 70
     1
102
RTVSPost2010Prop49
280
     0
102
RTVSPost2010PropOp49
 70
     1
102
RTVSPost2010Prop50
 90
       50
102
RTVSPost2010PropOp50
 70
     1
102
RTVSPost2010Prop51ColorIndex
 90
      256
102
RTVSPost2010Prop51ColorRGB
 90
-16777216
102
RTVSPost2010PropOp51
 70
     0
102
RTVSPost2010Prop52
140
1.0
102
RTVSPost2010PropOp52
 70
     0
102
RTVSPost2010Prop53
 90
        2
102
RTVSPost2010PropOp53
 70
     1
102
RTVSPost2010Prop54
  1
strokes_ogs.tif
102
RTVSPost2010PropOp54
 70
     1
102
RTVSPost2010Prop55
280
     0
102
RTVSPost2010PropOp55
 70
     1
102
RTVSPost2010Prop56
140
1.0
102
RTVSPost2010PropOp56
 70
     1
102
RTVSPost2010Prop57
140
1.0
102
RTVSPost2010PropOp57
 70
     1
102
RTVSPropertyOp0
 70
     1
102
RTVSPropertyOp1
 70
     1
102
RTVSPropertyOp2
 70
     1
102
RTVSPropertyOp3
 70
     1
102
RTVSPropertyOp4
 70
     1
102
RTVSPropertyOp5
 70
     1
102
RTVSPropertyOp6
 70
     1
102
RTVSPropertyOp7
 70
     1
102
RTVSPropertyOp8
 70
     1
102
RTVSPropertyOp9
 70
     1
102
RTVSPropertyOp10
 70
     1
102
RTVSPropertyOp11
 70
     1
102
RTVSPropertyOp12
 70
     1
102
RTVSPropertyOp13
 70
     1
102
RTVSPropertyOp14
 70
     1
102
RTVSPropertyOp15
 70
     1
102
RTVSPropertyOp16
 70
     1
102
RTVSPropertyOp17
 70
     1
102
RTVSPropertyOp18
 70
     1
102
RTVSPropertyOp19
 70
     1
102
RTVSPropertyOp20
 70
     1
102
RTVSPropertyOp21
 70
     1
102
RTVSPropertyOp22
 70
     1
102
RTVSPropertyOp23
 70
     1
102
RTVSPropertyOp24
 70
     1
102
RTVSPropertyOp25
 70
     1
102
RTVSPropertyOp26
 70
     1
102
RTVSPropertyOp27
 70
     1
102
RTVSPropertyOp28
 70
     1
102
RTVSPropertyOp29
 70
     1
102
RTVSPropertyOp30
 70
     1
102
RTVSPropertyOp31
 70
     1
102
RTVSPropertyOp32
 70
     1
102
RTVSPropertyOp33
 70
     1
102
RTVSPropertyOp34
 70
     1
102
RTVSPropertyOp35
 70
     1
102
RTVSPropertyOp36
 70
     1
102
RTVSPropertyOp37
 70
     1
102
RTVSPropertyOp38
 70
     1
102
RTVSPropertyOp39
 70
     1
102
RTVSPropertyOp40
 70
     1
102
RTVSPropertyOp41
 70
     1
102
RTVSPropertyOp42
 70
     1
102
RTVSPropertyOp43
 70
     1
102
RTVSPropertyOp44
 70
     1
102
RTVSPropertyOp45
 70
     1
102
RTVSPropertyOp46
 70
     1
102
RTVSPropertyOp47
 70
     1
102
RTVSPropertyOp48
 70
     1
102
RTVSPropertyOp49
 70
     1
102
RTVSPropertyOp50
 70
     1
102
RTVSPropertyOp51
 70
     0
102
RTVSPropertyOp52
 70
     0
102
RTVSPropertyOp53
 70
     1
102
RTVSPropertyOp54
 70
     1
102
RTVSPropertyOp55
 70
     1
102
RTVSPropertyOp56
 70
     1
102
RTVSPropertyOp57
 70
     1
102
RTVSPropertyOp58
 70
     1
102
RTVSPropertyOp59
 70
     1
102
RTVSPropertyOp60
 70
     1
102
RTVSPropertyOp61
 70
     1
102
RTVSPropertyOp62
 70
     1
  0
XRECORD
  5
3E00
102
{ACAD_REACTORS
330
3DFF
102
}
330
3DFF
100
AcDbXrecord
280
     1
102
RTVSPost2010Prop28
280
     0
102
RTVSPost2010PropOp28
 70
     1
102
RTVSPost2010Prop29
280
     1
102
RTVSPost2010PropOp29
 70
     1
102
RTVSPost2010Prop30
280
     1
102
RTVSPost2010PropOp30
 70
     1
102
RTVSPost2010Prop31
280
     0
102
RTVSPost2010PropOp31
 70
     1
102
RTVSPost2010Prop32
280
     0
102
RTVSPost2010PropOp32
 70
     1
102
RTVSPost2010Prop33
280
     0
102
RTVSPost2010PropOp33
 70
     1
102
RTVSPost2010Prop34
280
     0
102
RTVSPost2010PropOp34
 70
     1
102
RTVSPost2010Prop35
280
     0
102
RTVSPost2010PropOp35
 70
     1
102
RTVSPost2010Prop36
280
     0
102
RTVSPost2010PropOp36
 70
     1
102
RTVSPost2010Prop37
 90
       50
102
RTVSPost2010PropOp37
 70
     1
102
RTVSPost2010Prop38
140
0.0
102
RTVSPost2010PropOp38
 70
     1
102
RTVSPost2010Prop39
140
1.0
102
RTVSPost2010PropOp39
 70
     1
102
RTVSPost2010Prop40
 90
        0
102
RTVSPost2010PropOp40
 70
     1
102
RTVSPost2010Prop41ColorIndex
 90
       18
102
RTVSPost2010Prop41ColorRGB
 90
        0
102
RTVSPost2010PropOp41
 70
     1
102
RTVSPost2010Prop42
 90
       50
102
RTVSPost2010PropOp42
 70
     1
102
RTVSPost2010Prop43
 90
        3
102
RTVSPost2010PropOp43
 70
     1
102
RTVSPost2010Prop44ColorIndex
 90
        5
102
RTVSPost2010Prop44ColorRGB
 90
      255
102
RTVSPost2010PropOp44
 70
     1
102
RTVSPost2010Prop45
280
     0
102
RTVSPost2010PropOp45
 70
     1
102
RTVSPost2010Prop46
 90
       50
102
RTVSPost2010PropOp46
 70
     1
102
RTVSPost2010Prop47
 90
       50
102
RTVSPost2010PropOp47
 70
     1
102
RTVSPost2010Prop48
 90
       50
102
RTVSPost2010PropOp48
 70
     1
102
RTVSPost2010Prop49
280
     0
102
RTVSPost2010PropOp49
 70
     1
102
RTVSPost2010Prop50
 90
       50
102
RTVSPost2010PropOp50
 70
     1
102
RTVSPost2010Prop51ColorIndex
 90
      256
102
RTVSPost2010Prop51ColorRGB
 90
-16777216
102
RTVSPost2010PropOp51
 70
     0
102
RTVSPost2010Prop52
140
1.0
102
RTVSPost2010PropOp52
 70
     0
102
RTVSPost2010Prop53
 90
        2
102
RTVSPost2010PropOp53
 70
     1
102
RTVSPost2010Prop54
  1
strokes_ogs.tif
102
RTVSPost2010PropOp54
 70
     1
102
RTVSPost2010Prop55
280
     0
102
RTVSPost2010PropOp55
 70
     1
102
RTVSPost2010Prop56
140
1.0
102
RTVSPost2010PropOp56
 70
     1
102
RTVSPost2010Prop57
140
1.0
102
RTVSPost2010PropOp57
 70
     1
102
RTVSPropertyOp0
 70
     1
102
RTVSPropertyOp1
 70
     1
102
RTVSPropertyOp2
 70
     1
102
RTVSPropertyOp3
 70
     1
102
RTVSPropertyOp4
 70
     1
102
RTVSPropertyOp5
 70
     1
102
RTVSPropertyOp6
 70
     1
102
RTVSPropertyOp7
 70
     1
102
RTVSPropertyOp8
 70
     1
102
RTVSPropertyOp9
 70
     1
102
RTVSPropertyOp10
 70
     1
102
RTVSPropertyOp11
 70
     1
102
RTVSPropertyOp12
 70
     1
102
RTVSPropertyOp13
 70
     1
102
RTVSPropertyOp14
 70
     1
102
RTVSPropertyOp15
 70
     1
102
RTVSPropertyOp16
 70
     1
102
RTVSPropertyOp17
 70
     1
102
RTVSPropertyOp18
 70
     1
102
RTVSPropertyOp19
 70
     1
102
RTVSPropertyOp20
 70
     1
102
RTVSPropertyOp21
 70
     1
102
RTVSPropertyOp22
 70
     1
102
RTVSPropertyOp23
 70
     1
102
RTVSPropertyOp24
 70
     1
102
RTVSPropertyOp25
 70
     1
102
RTVSPropertyOp26
 70
     1
102
RTVSPropertyOp27
 70
     1
102
RTVSPropertyOp28
 70
     1
102
RTVSPropertyOp29
 70
     1
102
RTVSPropertyOp30
 70
     1
102
RTVSPropertyOp31
 70
     1
102
RTVSPropertyOp32
 70
     1
102
RTVSPropertyOp33
 70
     1
102
RTVSPropertyOp34
 70
     1
102
RTVSPropertyOp35
 70
     1
102
RTVSPropertyOp36
 70
     1
102
RTVSPropertyOp37
 70
     1
102
RTVSPropertyOp38
 70
     1
102
RTVSPropertyOp39
 70
     1
102
RTVSPropertyOp40
 70
     1
102
RTVSPropertyOp41
 70
     1
102
RTVSPropertyOp42
 70
     1
102
RTVSPropertyOp43
 70
     1
102
RTVSPropertyOp44
 70
     1
102
RTVSPropertyOp45
 70
     1
102
RTVSPropertyOp46
 70
     1
102
RTVSPropertyOp47
 70
     1
102
RTVSPropertyOp48
 70
     1
102
RTVSPropertyOp49
 70
     1
102
RTVSPropertyOp50
 70
     1
102
RTVSPropertyOp51
 70
     0
102
RTVSPropertyOp52
 70
     0
102
RTVSPropertyOp53
 70
     1
102
RTVSPropertyOp54
 70
     1
102
RTVSPropertyOp55
 70
     1
102
RTVSPropertyOp56
 70
     1
102
RTVSPropertyOp57
 70
     1
102
RTVSPropertyOp58
 70
     1
102
RTVSPropertyOp59
 70
     1
102
RTVSPropertyOp60
 70
     1
102
RTVSPropertyOp61
 70
     1
102
RTVSPropertyOp62
 70
     1
  0
XRECORD
  5
3E02
102
{ACAD_REACTORS
330
3E01
102
}
330
3E01
100
AcDbXrecord
280
     1
102
RTVSPost2010Prop28
280
     0
102
RTVSPost2010PropOp28
 70
     1
102
RTVSPost2010Prop29
280
     1
102
RTVSPost2010PropOp29
 70
     1
102
RTVSPost2010Prop30
280
     1
102
RTVSPost2010PropOp30
 70
     1
102
RTVSPost2010Prop31
280
     0
102
RTVSPost2010PropOp31
 70
     1
102
RTVSPost2010Prop32
280
     0
102
RTVSPost2010PropOp32
 70
     1
102
RTVSPost2010Prop33
280
     0
102
RTVSPost2010PropOp33
 70
     1
102
RTVSPost2010Prop34
280
     0
102
RTVSPost2010PropOp34
 70
     1
102
RTVSPost2010Prop35
280
     0
102
RTVSPost2010PropOp35
 70
     1
102
RTVSPost2010Prop36
280
     0
102
RTVSPost2010PropOp36
 70
     1
102
RTVSPost2010Prop37
 90
       50
102
RTVSPost2010PropOp37
 70
     1
102
RTVSPost2010Prop38
140
0.0
102
RTVSPost2010PropOp38
 70
     1
102
RTVSPost2010Prop39
140
1.0
102
RTVSPost2010PropOp39
 70
     1
102
RTVSPost2010Prop40
 90
        0
102
RTVSPost2010PropOp40
 70
     1
102
RTVSPost2010Prop41ColorIndex
 90
       18
102
RTVSPost2010Prop41ColorRGB
 90
        0
102
RTVSPost2010PropOp41
 70
     1
102
RTVSPost2010Prop42
 90
       50
102
RTVSPost2010PropOp42
 70
     1
102
RTVSPost2010Prop43
 90
        3
102
RTVSPost2010PropOp43
 70
     1
102
RTVSPost2010Prop44ColorIndex
 90
        5
102
RTVSPost2010Prop44ColorRGB
 90
      255
102
RTVSPost2010PropOp44
 70
     1
102
RTVSPost2010Prop45
280
     0
102
RTVSPost2010PropOp45
 70
     1
102
RTVSPost2010Prop46
 90
       50
102
RTVSPost2010PropOp46
 70
     1
102
RTVSPost2010Prop47
 90
       50
102
RTVSPost2010PropOp47
 70
     1
102
RTVSPost2010Prop48
 90
       50
102
RTVSPost2010PropOp48
 70
     1
102
RTVSPost2010Prop49
280
     0
102
RTVSPost2010PropOp49
 70
     1
102
RTVSPost2010Prop50
 90
       50
102
RTVSPost2010PropOp50
 70
     1
102
RTVSPost2010Prop51ColorIndex
 90
      256
102
RTVSPost2010Prop51ColorRGB
 90
-16777216
102
RTVSPost2010PropOp51
 70
     0
102
RTVSPost2010Prop52
140
1.0
102
RTVSPost2010PropOp52
 70
     0
102
RTVSPost2010Prop53
 90
        2
102
RTVSPost2010PropOp53
 70
     1
102
RTVSPost2010Prop54
  1
strokes_ogs.tif
102
RTVSPost2010PropOp54
 70
     1
102
RTVSPost2010Prop55
280
     0
102
RTVSPost2010PropOp55
 70
     1
102
RTVSPost2010Prop56
140
1.0
102
RTVSPost2010PropOp56
 70
     1
102
RTVSPost2010Prop57
140
1.0
102
RTVSPost2010PropOp57
 70
     1
102
RTVSPropertyOp0
 70
     1
102
RTVSPropertyOp1
 70
     1
102
RTVSPropertyOp2
 70
     1
102
RTVSPropertyOp3
 70
     1
102
RTVSPropertyOp4
 70
     1
102
RTVSPropertyOp5
 70
     1
102
RTVSPropertyOp6
 70
     1
102
RTVSPropertyOp7
 70
     1
102
RTVSPropertyOp8
 70
     1
102
RTVSPropertyOp9
 70
     1
102
RTVSPropertyOp10
 70
     1
102
RTVSPropertyOp11
 70
     1
102
RTVSPropertyOp12
 70
     1
102
RTVSPropertyOp13
 70
     1
102
RTVSPropertyOp14
 70
     1
102
RTVSPropertyOp15
 70
     1
102
RTVSPropertyOp16
 70
     1
102
RTVSPropertyOp17
 70
     1
102
RTVSPropertyOp18
 70
     1
102
RTVSPropertyOp19
 70
     1
102
RTVSPropertyOp20
 70
     1
102
RTVSPropertyOp21
 70
     1
102
RTVSPropertyOp22
 70
     1
102
RTVSPropertyOp23
 70
     1
102
RTVSPropertyOp24
 70
     1
102
RTVSPropertyOp25
 70
     1
102
RTVSPropertyOp26
 70
     1
102
RTVSPropertyOp27
 70
     1
102
RTVSPropertyOp28
 70
     1
102
RTVSPropertyOp29
 70
     1
102
RTVSPropertyOp30
 70
     1
102
RTVSPropertyOp31
 70
     1
102
RTVSPropertyOp32
 70
     1
102
RTVSPropertyOp33
 70
     1
102
RTVSPropertyOp34
 70
     1
102
RTVSPropertyOp35
 70
     1
102
RTVSPropertyOp36
 70
     1
102
RTVSPropertyOp37
 70
     1
102
RTVSPropertyOp38
 70
     1
102
RTVSPropertyOp39
 70
     1
102
RTVSPropertyOp40
 70
     1
102
RTVSPropertyOp41
 70
     1
102
RTVSPropertyOp42
 70
     1
102
RTVSPropertyOp43
 70
     1
102
RTVSPropertyOp44
 70
     1
102
RTVSPropertyOp45
 70
     1
102
RTVSPropertyOp46
 70
     1
102
RTVSPropertyOp47
 70
     1
102
RTVSPropertyOp48
 70
     1
102
RTVSPropertyOp49
 70
     1
102
RTVSPropertyOp50
 70
     1
102
RTVSPropertyOp51
 70
     0
102
RTVSPropertyOp52
 70
     0
102
RTVSPropertyOp53
 70
     1
102
RTVSPropertyOp54
 70
     1
102
RTVSPropertyOp55
 70
     1
102
RTVSPropertyOp56
 70
     1
102
RTVSPropertyOp57
 70
     1
102
RTVSPropertyOp58
 70
     1
102
RTVSPropertyOp59
 70
     1
102
RTVSPropertyOp60
 70
     1
102
RTVSPropertyOp61
 70
     1
102
RTVSPropertyOp62
 70
     1
  0
XRECORD
  5
3E0A
102
{ACAD_REACTORS
330
3E09
102
}
330
3E09
100
AcDbXrecord
280
     1
102
RTVSPost2010Prop28
280
     0
102
RTVSPost2010PropOp28
 70
     1
102
RTVSPost2010Prop29
280
     1
102
RTVSPost2010PropOp29
 70
     1
102
RTVSPost2010Prop30
280
     1
102
RTVSPost2010PropOp30
 70
     1
102
RTVSPost2010Prop31
280
     0
102
RTVSPost2010PropOp31
 70
     1
102
RTVSPost2010Prop32
280
     0
102
RTVSPost2010PropOp32
 70
     1
102
RTVSPost2010Prop33
280
     0
102
RTVSPost2010PropOp33
 70
     1
102
RTVSPost2010Prop34
280
     0
102
RTVSPost2010PropOp34
 70
     1
102
RTVSPost2010Prop35
280
     0
102
RTVSPost2010PropOp35
 70
     1
102
RTVSPost2010Prop36
280
     0
102
RTVSPost2010PropOp36
 70
     1
102
RTVSPost2010Prop37
 90
       50
102
RTVSPost2010PropOp37
 70
     1
102
RTVSPost2010Prop38
140
0.0
102
RTVSPost2010PropOp38
 70
     1
102
RTVSPost2010Prop39
140
1.0
102
RTVSPost2010PropOp39
 70
     1
102
RTVSPost2010Prop40
 90
        0
102
RTVSPost2010PropOp40
 70
     1
102
RTVSPost2010Prop41ColorIndex
 90
       18
102
RTVSPost2010Prop41ColorRGB
 90
        0
102
RTVSPost2010PropOp41
 70
     1
102
RTVSPost2010Prop42
 90
       50
102
RTVSPost2010PropOp42
 70
     1
102
RTVSPost2010Prop43
 90
        3
102
RTVSPost2010PropOp43
 70
     1
102
RTVSPost2010Prop44ColorIndex
 90
        5
102
RTVSPost2010Prop44ColorRGB
 90
      255
102
RTVSPost2010PropOp44
 70
     1
102
RTVSPost2010Prop45
280
     0
102
RTVSPost2010PropOp45
 70
     1
102
RTVSPost2010Prop46
 90
       50
102
RTVSPost2010PropOp46
 70
     1
102
RTVSPost2010Prop47
 90
       50
102
RTVSPost2010PropOp47
 70
     1
102
RTVSPost2010Prop48
 90
       50
102
RTVSPost2010PropOp48
 70
     1
102
RTVSPost2010Prop49
280
     0
102
RTVSPost2010PropOp49
 70
     1
102
RTVSPost2010Prop50
 90
       50
102
RTVSPost2010PropOp50
 70
     1
102
RTVSPost2010Prop51ColorIndex
 90
      256
102
RTVSPost2010Prop51ColorRGB
 90
-16777216
102
RTVSPost2010PropOp51
 70
     0
102
RTVSPost2010Prop52
140
1.0
102
RTVSPost2010PropOp52
 70
     0
102
RTVSPost2010Prop53
 90
        2
102
RTVSPost2010PropOp53
 70
     1
102
RTVSPost2010Prop54
  1
strokes_ogs.tif
102
RTVSPost2010PropOp54
 70
     1
102
RTVSPost2010Prop55
280
     0
102
RTVSPost2010PropOp55
 70
     1
102
RTVSPost2010Prop56
140
1.0
102
RTVSPost2010PropOp56
 70
     1
102
RTVSPost2010Prop57
140
1.0
102
RTVSPost2010PropOp57
 70
     1
102
RTVSPropertyOp0
 70
     1
102
RTVSPropertyOp1
 70
     1
102
RTVSPropertyOp2
 70
     1
102
RTVSPropertyOp3
 70
     1
102
RTVSPropertyOp4
 70
     1
102
RTVSPropertyOp5
 70
     1
102
RTVSPropertyOp6
 70
     1
102
RTVSPropertyOp7
 70
     1
102
RTVSPropertyOp8
 70
     1
102
RTVSPropertyOp9
 70
     1
102
RTVSPropertyOp10
 70
     1
102
RTVSPropertyOp11
 70
     1
102
RTVSPropertyOp12
 70
     1
102
RTVSPropertyOp13
 70
     1
102
RTVSPropertyOp14
 70
     1
102
RTVSPropertyOp15
 70
     1
102
RTVSPropertyOp16
 70
     1
102
RTVSPropertyOp17
 70
     1
102
RTVSPropertyOp18
 70
     1
102
RTVSPropertyOp19
 70
     1
102
RTVSPropertyOp20
 70
     1
102
RTVSPropertyOp21
 70
     1
102
RTVSPropertyOp22
 70
     1
102
RTVSPropertyOp23
 70
     1
102
RTVSPropertyOp24
 70
     1
102
RTVSPropertyOp25
 70
     1
102
RTVSPropertyOp26
 70
     1
102
RTVSPropertyOp27
 70
     1
102
RTVSPropertyOp28
 70
     1
102
RTVSPropertyOp29
 70
     1
102
RTVSPropertyOp30
 70
     1
102
RTVSPropertyOp31
 70
     1
102
RTVSPropertyOp32
 70
     1
102
RTVSPropertyOp33
 70
     1
102
RTVSPropertyOp34
 70
     1
102
RTVSPropertyOp35
 70
     1
102
RTVSPropertyOp36
 70
     1
102
RTVSPropertyOp37
 70
     1
102
RTVSPropertyOp38
 70
     1
102
RTVSPropertyOp39
 70
     1
102
RTVSPropertyOp40
 70
     1
102
RTVSPropertyOp41
 70
     1
102
RTVSPropertyOp42
 70
     1
102
RTVSPropertyOp43
 70
     1
102
RTVSPropertyOp44
 70
     1
102
RTVSPropertyOp45
 70
     1
102
RTVSPropertyOp46
 70
     1
102
RTVSPropertyOp47
 70
     1
102
RTVSPropertyOp48
 70
     1
102
RTVSPropertyOp49
 70
     1
102
RTVSPropertyOp50
 70
     1
102
RTVSPropertyOp51
 70
     0
102
RTVSPropertyOp52
 70
     0
102
RTVSPropertyOp53
 70
     1
102
RTVSPropertyOp54
 70
     1
102
RTVSPropertyOp55
 70
     1
102
RTVSPropertyOp56
 70
     1
102
RTVSPropertyOp57
 70
     1
102
RTVSPropertyOp58
 70
     1
102
RTVSPropertyOp59
 70
     1
102
RTVSPropertyOp60
 70
     1
102
RTVSPropertyOp61
 70
     1
102
RTVSPropertyOp62
 70
     1
  0
XRECORD
  5
3E26
102
{ACAD_REACTORS
330
3E25
102
}
330
3E25
100
AcDbXrecord
280
     1
102
RTVSPost2010Prop28
280
     0
102
RTVSPost2010PropOp28
 70
     1
102
RTVSPost2010Prop29
280
     1
102
RTVSPost2010PropOp29
 70
     1
102
RTVSPost2010Prop30
280
     1
102
RTVSPost2010PropOp30
 70
     1
102
RTVSPost2010Prop31
280
     0
102
RTVSPost2010PropOp31
 70
     1
102
RTVSPost2010Prop32
280
     0
102
RTVSPost2010PropOp32
 70
     1
102
RTVSPost2010Prop33
280
     0
102
RTVSPost2010PropOp33
 70
     1
102
RTVSPost2010Prop34
280
     0
102
RTVSPost2010PropOp34
 70
     1
102
RTVSPost2010Prop35
280
     0
102
RTVSPost2010PropOp35
 70
     1
102
RTVSPost2010Prop36
280
     0
102
RTVSPost2010PropOp36
 70
     1
102
RTVSPost2010Prop37
 90
       50
102
RTVSPost2010PropOp37
 70
     0
102
RTVSPost2010Prop38
140
0.0
102
RTVSPost2010PropOp38
 70
     0
102
RTVSPost2010Prop39
140
1.0
102
RTVSPost2010PropOp39
 70
     0
102
RTVSPost2010Prop40
 90
        0
102
RTVSPost2010PropOp40
 70
     0
102
RTVSPost2010Prop41ColorIndex
 90
       18
102
RTVSPost2010Prop41ColorRGB
 90
        0
102
RTVSPost2010PropOp41
 70
     0
102
RTVSPost2010Prop42
 90
       50
102
RTVSPost2010PropOp42
 70
     0
102
RTVSPost2010Prop43
 90
        3
102
RTVSPost2010PropOp43
 70
     0
102
RTVSPost2010Prop44ColorIndex
 90
        5
102
RTVSPost2010Prop44ColorRGB
 90
      255
102
RTVSPost2010PropOp44
 70
     0
102
RTVSPost2010Prop45
280
     0
102
RTVSPost2010PropOp45
 70
     1
102
RTVSPost2010Prop46
 90
       50
102
RTVSPost2010PropOp46
 70
     0
102
RTVSPost2010Prop47
 90
       50
102
RTVSPost2010PropOp47
 70
     0
102
RTVSPost2010Prop48
 90
       50
102
RTVSPost2010PropOp48
 70
     0
102
RTVSPost2010Prop49
280
     0
102
RTVSPost2010PropOp49
 70
     1
102
RTVSPost2010Prop50
 90
       50
102
RTVSPost2010PropOp50
 70
     0
102
RTVSPost2010Prop51ColorIndex
 90
      256
102
RTVSPost2010Prop51ColorRGB
 90
-16777216
102
RTVSPost2010PropOp51
 70
     0
102
RTVSPost2010Prop52
140
1.0
102
RTVSPost2010PropOp52
 70
     0
102
RTVSPost2010Prop53
 90
        2
102
RTVSPost2010PropOp53
 70
     0
102
RTVSPost2010Prop54
  1
strokes_ogs.tif
102
RTVSPost2010PropOp54
 70
     0
102
RTVSPost2010Prop55
280
     0
102
RTVSPost2010PropOp55
 70
     1
102
RTVSPost2010Prop56
140
1.0
102
RTVSPost2010PropOp56
 70
     0
102
RTVSPost2010Prop57
140
1.0
102
RTVSPost2010PropOp57
 70
     0
102
RTVSPropertyOp0
 70
     0
102
RTVSPropertyOp1
 70
     0
102
RTVSPropertyOp2
 70
     0
102
RTVSPropertyOp3
 70
     0
102
RTVSPropertyOp4
 70
     0
102
RTVSPropertyOp5
 70
     0
102
RTVSPropertyOp6
 70
     0
102
RTVSPropertyOp7
 70
     0
102
RTVSPropertyOp8
 70
     0
102
RTVSPropertyOp9
 70
     0
102
RTVSPropertyOp10
 70
     0
102
RTVSPropertyOp11
 70
     0
102
RTVSPropertyOp12
 70
     0
102
RTVSPropertyOp13
 70
     0
102
RTVSPropertyOp14
 70
     2
102
RTVSPropertyOp15
 70
     0
102
RTVSPropertyOp16
 70
     0
102
RTVSPropertyOp17
 70
     0
102
RTVSPropertyOp18
 70
     0
102
RTVSPropertyOp19
 70
     0
102
RTVSPropertyOp20
 70
     0
102
RTVSPropertyOp21
 70
     0
102
RTVSPropertyOp22
 70
     0
102
RTVSPropertyOp23
 70
     0
102
RTVSPropertyOp24
 70
     0
102
RTVSPropertyOp25
 70
     0
102
RTVSPropertyOp26
 70
     0
102
RTVSPropertyOp27
 70
     0
102
RTVSPropertyOp28
 70
     1
102
RTVSPropertyOp29
 70
     1
102
RTVSPropertyOp30
 70
     1
102
RTVSPropertyOp31
 70
     1
102
RTVSPropertyOp32
 70
     1
102
RTVSPropertyOp33
 70
     1
102
RTVSPropertyOp34
 70
     1
102
RTVSPropertyOp35
 70
     1
102
RTVSPropertyOp36
 70
     1
102
RTVSPropertyOp37
 70
     0
102
RTVSPropertyOp38
 70
     0
102
RTVSPropertyOp39
 70
     0
102
RTVSPropertyOp40
 70
     0
102
RTVSPropertyOp41
 70
     0
102
RTVSPropertyOp42
 70
     0
102
RTVSPropertyOp43
 70
     0
102
RTVSPropertyOp44
 70
     0
102
RTVSPropertyOp45
 70
     1
102
RTVSPropertyOp46
 70
     0
102
RTVSPropertyOp47
 70
     0
102
RTVSPropertyOp48
 70
     0
102
RTVSPropertyOp49
 70
     1
102
RTVSPropertyOp50
 70
     0
102
RTVSPropertyOp51
 70
     0
102
RTVSPropertyOp52
 70
     0
102
RTVSPropertyOp53
 70
     0
102
RTVSPropertyOp54
 70
     0
102
RTVSPropertyOp55
 70
     1
102
RTVSPropertyOp56
 70
     0
102
RTVSPropertyOp57
 70
     0
102
RTVSPropertyOp58
 70
     0
102
RTVSPropertyOp59
 70
     0
102
RTVSPropertyOp60
 70
     0
102
RTVSPropertyOp61
 70
     0
102
RTVSPropertyOp62
 70
     0
  0
XRECORD
  5
3E16
102
{ACAD_REACTORS
330
3E15
102
}
330
3E15
100
AcDbXrecord
280
     1
102
RTVSPost2010Prop28
280
     0
102
RTVSPost2010PropOp28
 70
     1
102
RTVSPost2010Prop29
280
     1
102
RTVSPost2010PropOp29
 70
     1
102
RTVSPost2010Prop30
280
     1
102
RTVSPost2010PropOp30
 70
     1
102
RTVSPost2010Prop31
280
     0
102
RTVSPost2010PropOp31
 70
     1
102
RTVSPost2010Prop32
280
     0
102
RTVSPost2010PropOp32
 70
     1
102
RTVSPost2010Prop33
280
     0
102
RTVSPost2010PropOp33
 70
     1
102
RTVSPost2010Prop34
280
     0
102
RTVSPost2010PropOp34
 70
     1
102
RTVSPost2010Prop35
280
     0
102
RTVSPost2010PropOp35
 70
     1
102
RTVSPost2010Prop36
280
     0
102
RTVSPost2010PropOp36
 70
     1
102
RTVSPost2010Prop37
 90
       50
102
RTVSPost2010PropOp37
 70
     1
102
RTVSPost2010Prop38
140
0.0
102
RTVSPost2010PropOp38
 70
     1
102
RTVSPost2010Prop39
140
1.0
102
RTVSPost2010PropOp39
 70
     1
102
RTVSPost2010Prop40
 90
        0
102
RTVSPost2010PropOp40
 70
     1
102
RTVSPost2010Prop41ColorIndex
 90
       18
102
RTVSPost2010Prop41ColorRGB
 90
        0
102
RTVSPost2010PropOp41
 70
     1
102
RTVSPost2010Prop42
 90
       50
102
RTVSPost2010PropOp42
 70
     1
102
RTVSPost2010Prop43
 90
        3
102
RTVSPost2010PropOp43
 70
     1
102
RTVSPost2010Prop44ColorIndex
 90
        5
102
RTVSPost2010Prop44ColorRGB
 90
      255
102
RTVSPost2010PropOp44
 70
     1
102
RTVSPost2010Prop45
280
     0
102
RTVSPost2010PropOp45
 70
     1
102
RTVSPost2010Prop46
 90
       50
102
RTVSPost2010PropOp46
 70
     1
102
RTVSPost2010Prop47
 90
       50
102
RTVSPost2010PropOp47
 70
     1
102
RTVSPost2010Prop48
 90
       50
102
RTVSPost2010PropOp48
 70
     1
102
RTVSPost2010Prop49
280
     0
102
RTVSPost2010PropOp49
 70
     1
102
RTVSPost2010Prop50
 90
       50
102
RTVSPost2010PropOp50
 70
     1
102
RTVSPost2010Prop51ColorIndex
 90
      256
102
RTVSPost2010Prop51ColorRGB
 90
-16777216
102
RTVSPost2010PropOp51
 70
     0
102
RTVSPost2010Prop52
140
1.0
102
RTVSPost2010PropOp52
 70
     0
102
RTVSPost2010Prop53
 90
        2
102
RTVSPost2010PropOp53
 70
     1
102
RTVSPost2010Prop54
  1
strokes_ogs.tif
102
RTVSPost2010PropOp54
 70
     1
102
RTVSPost2010Prop55
280
     0
102
RTVSPost2010PropOp55
 70
     1
102
RTVSPost2010Prop56
140
1.0
102
RTVSPost2010PropOp56
 70
     1
102
RTVSPost2010Prop57
140
1.0
102
RTVSPost2010PropOp57
 70
     1
102
RTVSPropertyOp0
 70
     1
102
RTVSPropertyOp1
 70
     1
102
RTVSPropertyOp2
 70
     1
102
RTVSPropertyOp3
 70
     1
102
RTVSPropertyOp4
 70
     1
102
RTVSPropertyOp5
 70
     1
102
RTVSPropertyOp6
 70
     1
102
RTVSPropertyOp7
 70
     1
102
RTVSPropertyOp8
 70
     1
102
RTVSPropertyOp9
 70
     1
102
RTVSPropertyOp10
 70
     1
102
RTVSPropertyOp11
 70
     1
102
RTVSPropertyOp12
 70
     1
102
RTVSPropertyOp13
 70
     1
102
RTVSPropertyOp14
 70
     1
102
RTVSPropertyOp15
 70
     1
102
RTVSPropertyOp16
 70
     1
102
RTVSPropertyOp17
 70
     1
102
RTVSPropertyOp18
 70
     1
102
RTVSPropertyOp19
 70
     1
102
RTVSPropertyOp20
 70
     1
102
RTVSPropertyOp21
 70
     1
102
RTVSPropertyOp22
 70
     1
102
RTVSPropertyOp23
 70
     1
102
RTVSPropertyOp24
 70
     1
102
RTVSPropertyOp25
 70
     1
102
RTVSPropertyOp26
 70
     1
102
RTVSPropertyOp27
 70
     1
102
RTVSPropertyOp28
 70
     1
102
RTVSPropertyOp29
 70
     1
102
RTVSPropertyOp30
 70
     1
102
RTVSPropertyOp31
 70
     1
102
RTVSPropertyOp32
 70
     1
102
RTVSPropertyOp33
 70
     1
102
RTVSPropertyOp34
 70
     1
102
RTVSPropertyOp35
 70
     1
102
RTVSPropertyOp36
 70
     1
102
RTVSPropertyOp37
 70
     1
102
RTVSPropertyOp38
 70
     1
102
RTVSPropertyOp39
 70
     1
102
RTVSPropertyOp40
 70
     1
102
RTVSPropertyOp41
 70
     1
102
RTVSPropertyOp42
 70
     1
102
RTVSPropertyOp43
 70
     1
102
RTVSPropertyOp44
 70
     1
102
RTVSPropertyOp45
 70
     1
102
RTVSPropertyOp46
 70
     1
102
RTVSPropertyOp47
 70
     1
102
RTVSPropertyOp48
 70
     1
102
RTVSPropertyOp49
 70
     1
102
RTVSPropertyOp50
 70
     1
102
RTVSPropertyOp51
 70
     0
102
RTVSPropertyOp52
 70
     0
102
RTVSPropertyOp53
 70
     1
102
RTVSPropertyOp54
 70
     1
102
RTVSPropertyOp55
 70
     1
102
RTVSPropertyOp56
 70
     1
102
RTVSPropertyOp57
 70
     1
102
RTVSPropertyOp58
 70
     1
102
RTVSPropertyOp59
 70
     1
102
RTVSPropertyOp60
 70
     1
102
RTVSPropertyOp61
 70
     1
102
RTVSPropertyOp62
 70
     1
  0
XRECORD
  5
3E28
102
{ACAD_REACTORS
330
3E27
102
}
330
3E27
100
AcDbXrecord
280
     1
102
RTVSPost2010Prop28
280
     0
102
RTVSPost2010PropOp28
 70
     1
102
RTVSPost2010Prop29
280
     1
102
RTVSPost2010PropOp29
 70
     1
102
RTVSPost2010Prop30
280
     1
102
RTVSPost2010PropOp30
 70
     1
102
RTVSPost2010Prop31
280
     0
102
RTVSPost2010PropOp31
 70
     1
102
RTVSPost2010Prop32
280
     0
102
RTVSPost2010PropOp32
 70
     1
102
RTVSPost2010Prop33
280
     0
102
RTVSPost2010PropOp33
 70
     1
102
RTVSPost2010Prop34
280
     0
102
RTVSPost2010PropOp34
 70
     1
102
RTVSPost2010Prop35
280
     0
102
RTVSPost2010PropOp35
 70
     1
102
RTVSPost2010Prop36
280
     0
102
RTVSPost2010PropOp36
 70
     1
102
RTVSPost2010Prop37
 90
       50
102
RTVSPost2010PropOp37
 70
     0
102
RTVSPost2010Prop38
140
0.0
102
RTVSPost2010PropOp38
 70
     0
102
RTVSPost2010Prop39
140
1.0
102
RTVSPost2010PropOp39
 70
     0
102
RTVSPost2010Prop40
 90
        0
102
RTVSPost2010PropOp40
 70
     0
102
RTVSPost2010Prop41ColorIndex
 90
       18
102
RTVSPost2010Prop41ColorRGB
 90
        0
102
RTVSPost2010PropOp41
 70
     0
102
RTVSPost2010Prop42
 90
       50
102
RTVSPost2010PropOp42
 70
     0
102
RTVSPost2010Prop43
 90
        3
102
RTVSPost2010PropOp43
 70
     0
102
RTVSPost2010Prop44ColorIndex
 90
        5
102
RTVSPost2010Prop44ColorRGB
 90
      255
102
RTVSPost2010PropOp44
 70
     0
102
RTVSPost2010Prop45
280
     0
102
RTVSPost2010PropOp45
 70
     1
102
RTVSPost2010Prop46
 90
       50
102
RTVSPost2010PropOp46
 70
     0
102
RTVSPost2010Prop47
 90
       50
102
RTVSPost2010PropOp47
 70
     0
102
RTVSPost2010Prop48
 90
       50
102
RTVSPost2010PropOp48
 70
     0
102
RTVSPost2010Prop49
280
     0
102
RTVSPost2010PropOp49
 70
     1
102
RTVSPost2010Prop50
 90
       50
102
RTVSPost2010PropOp50
 70
     0
102
RTVSPost2010Prop51ColorIndex
 90
      256
102
RTVSPost2010Prop51ColorRGB
 90
-16777216
102
RTVSPost2010PropOp51
 70
     0
102
RTVSPost2010Prop52
140
1.0
102
RTVSPost2010PropOp52
 70
     0
102
RTVSPost2010Prop53
 90
        2
102
RTVSPost2010PropOp53
 70
     0
102
RTVSPost2010Prop54
  1
strokes_ogs.tif
102
RTVSPost2010PropOp54
 70
     0
102
RTVSPost2010Prop55
280
     0
102
RTVSPost2010PropOp55
 70
     1
102
RTVSPost2010Prop56
140
1.0
102
RTVSPost2010PropOp56
 70
     0
102
RTVSPost2010Prop57
140
1.0
102
RTVSPost2010PropOp57
 70
     0
102
RTVSPropertyOp0
 70
     0
102
RTVSPropertyOp1
 70
     0
102
RTVSPropertyOp2
 70
     0
102
RTVSPropertyOp3
 70
     0
102
RTVSPropertyOp4
 70
     0
102
RTVSPropertyOp5
 70
     0
102
RTVSPropertyOp6
 70
     0
102
RTVSPropertyOp7
 70
     0
102
RTVSPropertyOp8
 70
     0
102
RTVSPropertyOp9
 70
     0
102
RTVSPropertyOp10
 70
     0
102
RTVSPropertyOp11
 70
     0
102
RTVSPropertyOp12
 70
     0
102
RTVSPropertyOp13
 70
     0
102
RTVSPropertyOp14
 70
     2
102
RTVSPropertyOp15
 70
     0
102
RTVSPropertyOp16
 70
     0
102
RTVSPropertyOp17
 70
     0
102
RTVSPropertyOp18
 70
     0
102
RTVSPropertyOp19
 70
     0
102
RTVSPropertyOp20
 70
     0
102
RTVSPropertyOp21
 70
     0
102
RTVSPropertyOp22
 70
     0
102
RTVSPropertyOp23
 70
     0
102
RTVSPropertyOp24
 70
     0
102
RTVSPropertyOp25
 70
     0
102
RTVSPropertyOp26
 70
     0
102
RTVSPropertyOp27
 70
     0
102
RTVSPropertyOp28
 70
     1
102
RTVSPropertyOp29
 70
     1
102
RTVSPropertyOp30
 70
     1
102
RTVSPropertyOp31
 70
     1
102
RTVSPropertyOp32
 70
     1
102
RTVSPropertyOp33
 70
     1
102
RTVSPropertyOp34
 70
     1
102
RTVSPropertyOp35
 70
     1
102
RTVSPropertyOp36
 70
     1
102
RTVSPropertyOp37
 70
     0
102
RTVSPropertyOp38
 70
     0
102
RTVSPropertyOp39
 70
     0
102
RTVSPropertyOp40
 70
     0
102
RTVSPropertyOp41
 70
     0
102
RTVSPropertyOp42
 70
     0
102
RTVSPropertyOp43
 70
     0
102
RTVSPropertyOp44
 70
     0
102
RTVSPropertyOp45
 70
     1
102
RTVSPropertyOp46
 70
     0
102
RTVSPropertyOp47
 70
     0
102
RTVSPropertyOp48
 70
     0
102
RTVSPropertyOp49
 70
     1
102
RTVSPropertyOp50
 70
     0
102
RTVSPropertyOp51
 70
     0
102
RTVSPropertyOp52
 70
     0
102
RTVSPropertyOp53
 70
     0
102
RTVSPropertyOp54
 70
     0
102
RTVSPropertyOp55
 70
     1
102
RTVSPropertyOp56
 70
     0
102
RTVSPropertyOp57
 70
     0
102
RTVSPropertyOp58
 70
     0
102
RTVSPropertyOp59
 70
     0
102
RTVSPropertyOp60
 70
     0
102
RTVSPropertyOp61
 70
     0
102
RTVSPropertyOp62
 70
     0
  0
XRECORD
  5
3E0E
102
{ACAD_REACTORS
330
3E0D
102
}
330
3E0D
100
AcDbXrecord
280
     1
102
RTVSPost2010Prop28
280
     0
102
RTVSPost2010PropOp28
 70
     1
102
RTVSPost2010Prop29
280
     1
102
RTVSPost2010PropOp29
 70
     1
102
RTVSPost2010Prop30
280
     1
102
RTVSPost2010PropOp30
 70
     1
102
RTVSPost2010Prop31
280
     0
102
RTVSPost2010PropOp31
 70
     1
102
RTVSPost2010Prop32
280
     0
102
RTVSPost2010PropOp32
 70
     1
102
RTVSPost2010Prop33
280
     0
102
RTVSPost2010PropOp33
 70
     1
102
RTVSPost2010Prop34
280
     0
102
RTVSPost2010PropOp34
 70
     1
102
RTVSPost2010Prop35
280
     0
102
RTVSPost2010PropOp35
 70
     1
102
RTVSPost2010Prop36
280
     0
102
RTVSPost2010PropOp36
 70
     1
102
RTVSPost2010Prop37
 90
       50
102
RTVSPost2010PropOp37
 70
     1
102
RTVSPost2010Prop38
140
0.0
102
RTVSPost2010PropOp38
 70
     1
102
RTVSPost2010Prop39
140
1.0
102
RTVSPost2010PropOp39
 70
     1
102
RTVSPost2010Prop40
 90
        0
102
RTVSPost2010PropOp40
 70
     1
102
RTVSPost2010Prop41ColorIndex
 90
       18
102
RTVSPost2010Prop41ColorRGB
 90
        0
102
RTVSPost2010PropOp41
 70
     1
102
RTVSPost2010Prop42
 90
       50
102
RTVSPost2010PropOp42
 70
     1
102
RTVSPost2010Prop43
 90
        3
102
RTVSPost2010PropOp43
 70
     1
102
RTVSPost2010Prop44ColorIndex
 90
        5
102
RTVSPost2010Prop44ColorRGB
 90
      255
102
RTVSPost2010PropOp44
 70
     1
102
RTVSPost2010Prop45
280
     0
102
RTVSPost2010PropOp45
 70
     1
102
RTVSPost2010Prop46
 90
       50
102
RTVSPost2010PropOp46
 70
     1
102
RTVSPost2010Prop47
 90
       50
102
RTVSPost2010PropOp47
 70
     1
102
RTVSPost2010Prop48
 90
       50
102
RTVSPost2010PropOp48
 70
     1
102
RTVSPost2010Prop49
280
     0
102
RTVSPost2010PropOp49
 70
     1
102
RTVSPost2010Prop50
 90
       50
102
RTVSPost2010PropOp50
 70
     1
102
RTVSPost2010Prop51ColorIndex
 90
      256
102
RTVSPost2010Prop51ColorRGB
 90
-16777216
102
RTVSPost2010PropOp51
 70
     0
102
RTVSPost2010Prop52
140
1.0
102
RTVSPost2010PropOp52
 70
     0
102
RTVSPost2010Prop53
 90
        2
102
RTVSPost2010PropOp53
 70
     1
102
RTVSPost2010Prop54
  1
strokes_ogs.tif
102
RTVSPost2010PropOp54
 70
     1
102
RTVSPost2010Prop55
280
     0
102
RTVSPost2010PropOp55
 70
     1
102
RTVSPost2010Prop56
140
1.0
102
RTVSPost2010PropOp56
 70
     1
102
RTVSPost2010Prop57
140
1.0
102
RTVSPost2010PropOp57
 70
     1
102
RTVSPropertyOp0
 70
     1
102
RTVSPropertyOp1
 70
     1
102
RTVSPropertyOp2
 70
     1
102
RTVSPropertyOp3
 70
     1
102
RTVSPropertyOp4
 70
     1
102
RTVSPropertyOp5
 70
     1
102
RTVSPropertyOp6
 70
     1
102
RTVSPropertyOp7
 70
     1
102
RTVSPropertyOp8
 70
     1
102
RTVSPropertyOp9
 70
     1
102
RTVSPropertyOp10
 70
     1
102
RTVSPropertyOp11
 70
     1
102
RTVSPropertyOp12
 70
     1
102
RTVSPropertyOp13
 70
     1
102
RTVSPropertyOp14
 70
     1
102
RTVSPropertyOp15
 70
     1
102
RTVSPropertyOp16
 70
     1
102
RTVSPropertyOp17
 70
     1
102
RTVSPropertyOp18
 70
     1
102
RTVSPropertyOp19
 70
     1
102
RTVSPropertyOp20
 70
     1
102
RTVSPropertyOp21
 70
     1
102
RTVSPropertyOp22
 70
     1
102
RTVSPropertyOp23
 70
     1
102
RTVSPropertyOp24
 70
     1
102
RTVSPropertyOp25
 70
     1
102
RTVSPropertyOp26
 70
     1
102
RTVSPropertyOp27
 70
     1
102
RTVSPropertyOp28
 70
     1
102
RTVSPropertyOp29
 70
     1
102
RTVSPropertyOp30
 70
     1
102
RTVSPropertyOp31
 70
     1
102
RTVSPropertyOp32
 70
     1
102
RTVSPropertyOp33
 70
     1
102
RTVSPropertyOp34
 70
     1
102
RTVSPropertyOp35
 70
     1
102
RTVSPropertyOp36
 70
     1
102
RTVSPropertyOp37
 70
     1
102
RTVSPropertyOp38
 70
     1
102
RTVSPropertyOp39
 70
     1
102
RTVSPropertyOp40
 70
     1
102
RTVSPropertyOp41
 70
     1
102
RTVSPropertyOp42
 70
     1
102
RTVSPropertyOp43
 70
     1
102
RTVSPropertyOp44
 70
     1
102
RTVSPropertyOp45
 70
     1
102
RTVSPropertyOp46
 70
     1
102
RTVSPropertyOp47
 70
     1
102
RTVSPropertyOp48
 70
     1
102
RTVSPropertyOp49
 70
     1
102
RTVSPropertyOp50
 70
     1
102
RTVSPropertyOp51
 70
     0
102
RTVSPropertyOp52
 70
     0
102
RTVSPropertyOp53
 70
     1
102
RTVSPropertyOp54
 70
     1
102
RTVSPropertyOp55
 70
     1
102
RTVSPropertyOp56
 70
     1
102
RTVSPropertyOp57
 70
     1
102
RTVSPropertyOp58
 70
     1
102
RTVSPropertyOp59
 70
     1
102
RTVSPropertyOp60
 70
     1
102
RTVSPropertyOp61
 70
     1
102
RTVSPropertyOp62
 70
     1
  0
XRECORD
  5
3E24
102
{ACAD_REACTORS
330
3E23
102
}
330
3E23
100
AcDbXrecord
280
     1
102
RTVSPost2010Prop28
280
     0
102
RTVSPost2010PropOp28
 70
     1
102
RTVSPost2010Prop29
280
     1
102
RTVSPost2010PropOp29
 70
     1
102
RTVSPost2010Prop30
280
     1
102
RTVSPost2010PropOp30
 70
     1
102
RTVSPost2010Prop31
280
     0
102
RTVSPost2010PropOp31
 70
     1
102
RTVSPost2010Prop32
280
     0
102
RTVSPost2010PropOp32
 70
     1
102
RTVSPost2010Prop33
280
     0
102
RTVSPost2010PropOp33
 70
     1
102
RTVSPost2010Prop34
280
     0
102
RTVSPost2010PropOp34
 70
     1
102
RTVSPost2010Prop35
280
     0
102
RTVSPost2010PropOp35
 70
     1
102
RTVSPost2010Prop36
280
     0
102
RTVSPost2010PropOp36
 70
     1
102
RTVSPost2010Prop37
 90
       50
102
RTVSPost2010PropOp37
 70
     1
102
RTVSPost2010Prop38
140
0.0
102
RTVSPost2010PropOp38
 70
     1
102
RTVSPost2010Prop39
140
1.0
102
RTVSPost2010PropOp39
 70
     1
102
RTVSPost2010Prop40
 90
        0
102
RTVSPost2010PropOp40
 70
     1
102
RTVSPost2010Prop41ColorIndex
 90
       18
102
RTVSPost2010Prop41ColorRGB
 90
        0
102
RTVSPost2010PropOp41
 70
     1
102
RTVSPost2010Prop42
 90
       50
102
RTVSPost2010PropOp42
 70
     1
102
RTVSPost2010Prop43
 90
        3
102
RTVSPost2010PropOp43
 70
     1
102
RTVSPost2010Prop44ColorIndex
 90
        5
102
RTVSPost2010Prop44ColorRGB
 90
      255
102
RTVSPost2010PropOp44
 70
     1
102
RTVSPost2010Prop45
280
     0
102
RTVSPost2010PropOp45
 70
     1
102
RTVSPost2010Prop46
 90
       50
102
RTVSPost2010PropOp46
 70
     1
102
RTVSPost2010Prop47
 90
       50
102
RTVSPost2010PropOp47
 70
     1
102
RTVSPost2010Prop48
 90
       50
102
RTVSPost2010PropOp48
 70
     1
102
RTVSPost2010Prop49
280
     0
102
RTVSPost2010PropOp49
 70
     1
102
RTVSPost2010Prop50
 90
       50
102
RTVSPost2010PropOp50
 70
     1
102
RTVSPost2010Prop51ColorIndex
 90
      256
102
RTVSPost2010Prop51ColorRGB
 90
-16777216
102
RTVSPost2010PropOp51
 70
     0
102
RTVSPost2010Prop52
140
1.0
102
RTVSPost2010PropOp52
 70
     0
102
RTVSPost2010Prop53
 90
        2
102
RTVSPost2010PropOp53
 70
     1
102
RTVSPost2010Prop54
  1
strokes_ogs.tif
102
RTVSPost2010PropOp54
 70
     1
102
RTVSPost2010Prop55
280
     0
102
RTVSPost2010PropOp55
 70
     1
102
RTVSPost2010Prop56
140
1.0
102
RTVSPost2010PropOp56
 70
     1
102
RTVSPost2010Prop57
140
1.0
102
RTVSPost2010PropOp57
 70
     1
102
RTVSPropertyOp0
 70
     1
102
RTVSPropertyOp1
 70
     1
102
RTVSPropertyOp2
 70
     1
102
RTVSPropertyOp3
 70
     1
102
RTVSPropertyOp4
 70
     1
102
RTVSPropertyOp5
 70
     1
102
RTVSPropertyOp6
 70
     1
102
RTVSPropertyOp7
 70
     1
102
RTVSPropertyOp8
 70
     1
102
RTVSPropertyOp9
 70
     1
102
RTVSPropertyOp10
 70
     1
102
RTVSPropertyOp11
 70
     1
102
RTVSPropertyOp12
 70
     1
102
RTVSPropertyOp13
 70
     1
102
RTVSPropertyOp14
 70
     1
102
RTVSPropertyOp15
 70
     1
102
RTVSPropertyOp16
 70
     1
102
RTVSPropertyOp17
 70
     1
102
RTVSPropertyOp18
 70
     1
102
RTVSPropertyOp19
 70
     1
102
RTVSPropertyOp20
 70
     1
102
RTVSPropertyOp21
 70
     1
102
RTVSPropertyOp22
 70
     1
102
RTVSPropertyOp23
 70
     1
102
RTVSPropertyOp24
 70
     1
102
RTVSPropertyOp25
 70
     1
102
RTVSPropertyOp26
 70
     1
102
RTVSPropertyOp27
 70
     1
102
RTVSPropertyOp28
 70
     1
102
RTVSPropertyOp29
 70
     1
102
RTVSPropertyOp30
 70
     1
102
RTVSPropertyOp31
 70
     1
102
RTVSPropertyOp32
 70
     1
102
RTVSPropertyOp33
 70
     1
102
RTVSPropertyOp34
 70
     1
102
RTVSPropertyOp35
 70
     1
102
RTVSPropertyOp36
 70
     1
102
RTVSPropertyOp37
 70
     1
102
RTVSPropertyOp38
 70
     1
102
RTVSPropertyOp39
 70
     1
102
RTVSPropertyOp40
 70
     1
102
RTVSPropertyOp41
 70
     1
102
RTVSPropertyOp42
 70
     1
102
RTVSPropertyOp43
 70
     1
102
RTVSPropertyOp44
 70
     1
102
RTVSPropertyOp45
 70
     1
102
RTVSPropertyOp46
 70
     1
102
RTVSPropertyOp47
 70
     1
102
RTVSPropertyOp48
 70
     1
102
RTVSPropertyOp49
 70
     1
102
RTVSPropertyOp50
 70
     1
102
RTVSPropertyOp51
 70
     0
102
RTVSPropertyOp52
 70
     0
102
RTVSPropertyOp53
 70
     1
102
RTVSPropertyOp54
 70
     1
102
RTVSPropertyOp55
 70
     1
102
RTVSPropertyOp56
 70
     1
102
RTVSPropertyOp57
 70
     1
102
RTVSPropertyOp58
 70
     1
102
RTVSPropertyOp59
 70
     1
102
RTVSPropertyOp60
 70
     1
102
RTVSPropertyOp61
 70
     1
102
RTVSPropertyOp62
 70
     1
  0
XRECORD
  5
3E22
102
{ACAD_REACTORS
330
3E21
102
}
330
3E21
100
AcDbXrecord
280
     1
102
RTVSPost2010Prop28
280
     0
102
RTVSPost2010PropOp28
 70
     1
102
RTVSPost2010Prop29
280
     1
102
RTVSPost2010PropOp29
 70
     1
102
RTVSPost2010Prop30
280
     1
102
RTVSPost2010PropOp30
 70
     1
102
RTVSPost2010Prop31
280
     0
102
RTVSPost2010PropOp31
 70
     1
102
RTVSPost2010Prop32
280
     0
102
RTVSPost2010PropOp32
 70
     1
102
RTVSPost2010Prop33
280
     0
102
RTVSPost2010PropOp33
 70
     1
102
RTVSPost2010Prop34
280
     0
102
RTVSPost2010PropOp34
 70
     1
102
RTVSPost2010Prop35
280
     0
102
RTVSPost2010PropOp35
 70
     1
102
RTVSPost2010Prop36
280
     0
102
RTVSPost2010PropOp36
 70
     1
102
RTVSPost2010Prop37
 90
       50
102
RTVSPost2010PropOp37
 70
     1
102
RTVSPost2010Prop38
140
0.0
102
RTVSPost2010PropOp38
 70
     1
102
RTVSPost2010Prop39
140
1.0
102
RTVSPost2010PropOp39
 70
     1
102
RTVSPost2010Prop40
 90
        0
102
RTVSPost2010PropOp40
 70
     1
102
RTVSPost2010Prop41ColorIndex
 90
       18
102
RTVSPost2010Prop41ColorRGB
 90
        0
102
RTVSPost2010PropOp41
 70
     1
102
RTVSPost2010Prop42
 90
       50
102
RTVSPost2010PropOp42
 70
     1
102
RTVSPost2010Prop43
 90
        3
102
RTVSPost2010PropOp43
 70
     1
102
RTVSPost2010Prop44ColorIndex
 90
        5
102
RTVSPost2010Prop44ColorRGB
 90
      255
102
RTVSPost2010PropOp44
 70
     1
102
RTVSPost2010Prop45
280
     0
102
RTVSPost2010PropOp45
 70
     1
102
RTVSPost2010Prop46
 90
       50
102
RTVSPost2010PropOp46
 70
     1
102
RTVSPost2010Prop47
 90
       50
102
RTVSPost2010PropOp47
 70
     1
102
RTVSPost2010Prop48
 90
       50
102
RTVSPost2010PropOp48
 70
     1
102
RTVSPost2010Prop49
280
     0
102
RTVSPost2010PropOp49
 70
     1
102
RTVSPost2010Prop50
 90
       50
102
RTVSPost2010PropOp50
 70
     1
102
RTVSPost2010Prop51ColorIndex
 90
      256
102
RTVSPost2010Prop51ColorRGB
 90
-16777216
102
RTVSPost2010PropOp51
 70
     0
102
RTVSPost2010Prop52
140
1.0
102
RTVSPost2010PropOp52
 70
     0
102
RTVSPost2010Prop53
 90
        2
102
RTVSPost2010PropOp53
 70
     1
102
RTVSPost2010Prop54
  1
strokes_ogs.tif
102
RTVSPost2010PropOp54
 70
     1
102
RTVSPost2010Prop55
280
     0
102
RTVSPost2010PropOp55
 70
     1
102
RTVSPost2010Prop56
140
1.0
102
RTVSPost2010PropOp56
 70
     1
102
RTVSPost2010Prop57
140
1.0
102
RTVSPost2010PropOp57
 70
     1
102
RTVSPropertyOp0
 70
     1
102
RTVSPropertyOp1
 70
     1
102
RTVSPropertyOp2
 70
     1
102
RTVSPropertyOp3
 70
     1
102
RTVSPropertyOp4
 70
     1
102
RTVSPropertyOp5
 70
     1
102
RTVSPropertyOp6
 70
     1
102
RTVSPropertyOp7
 70
     1
102
RTVSPropertyOp8
 70
     1
102
RTVSPropertyOp9
 70
     1
102
RTVSPropertyOp10
 70
     1
102
RTVSPropertyOp11
 70
     1
102
RTVSPropertyOp12
 70
     1
102
RTVSPropertyOp13
 70
     1
102
RTVSPropertyOp14
 70
     1
102
RTVSPropertyOp15
 70
     1
102
RTVSPropertyOp16
 70
     1
102
RTVSPropertyOp17
 70
     1
102
RTVSPropertyOp18
 70
     1
102
RTVSPropertyOp19
 70
     1
102
RTVSPropertyOp20
 70
     1
102
RTVSPropertyOp21
 70
     1
102
RTVSPropertyOp22
 70
     1
102
RTVSPropertyOp23
 70
     1
102
RTVSPropertyOp24
 70
     1
102
RTVSPropertyOp25
 70
     1
102
RTVSPropertyOp26
 70
     1
102
RTVSPropertyOp27
 70
     1
102
RTVSPropertyOp28
 70
     1
102
RTVSPropertyOp29
 70
     1
102
RTVSPropertyOp30
 70
     1
102
RTVSPropertyOp31
 70
     1
102
RTVSPropertyOp32
 70
     1
102
RTVSPropertyOp33
 70
     1
102
RTVSPropertyOp34
 70
     1
102
RTVSPropertyOp35
 70
     1
102
RTVSPropertyOp36
 70
     1
102
RTVSPropertyOp37
 70
     1
102
RTVSPropertyOp38
 70
     1
102
RTVSPropertyOp39
 70
     1
102
RTVSPropertyOp40
 70
     1
102
RTVSPropertyOp41
 70
     1
102
RTVSPropertyOp42
 70
     1
102
RTVSPropertyOp43
 70
     1
102
RTVSPropertyOp44
 70
     1
102
RTVSPropertyOp45
 70
     1
102
RTVSPropertyOp46
 70
     1
102
RTVSPropertyOp47
 70
     1
102
RTVSPropertyOp48
 70
     1
102
RTVSPropertyOp49
 70
     1
102
RTVSPropertyOp50
 70
     1
102
RTVSPropertyOp51
 70
     0
102
RTVSPropertyOp52
 70
     0
102
RTVSPropertyOp53
 70
     1
102
RTVSPropertyOp54
 70
     1
102
RTVSPropertyOp55
 70
     1
102
RTVSPropertyOp56
 70
     1
102
RTVSPropertyOp57
 70
     1
102
RTVSPropertyOp58
 70
     1
102
RTVSPropertyOp59
 70
     1
102
RTVSPropertyOp60
 70
     1
102
RTVSPropertyOp61
 70
     1
102
RTVSPropertyOp62
 70
     1
  0
XRECORD
  5
3E1C
102
{ACAD_REACTORS
330
3E1B
102
}
330
3E1B
100
AcDbXrecord
280
     1
102
RTVSPost2010Prop28
280
     0
102
RTVSPost2010PropOp28
 70
     1
102
RTVSPost2010Prop29
280
     1
102
RTVSPost2010PropOp29
 70
     1
102
RTVSPost2010Prop30
280
     1
102
RTVSPost2010PropOp30
 70
     1
102
RTVSPost2010Prop31
280
     0
102
RTVSPost2010PropOp31
 70
     1
102
RTVSPost2010Prop32
280
     0
102
RTVSPost2010PropOp32
 70
     1
102
RTVSPost2010Prop33
280
     0
102
RTVSPost2010PropOp33
 70
     1
102
RTVSPost2010Prop34
280
     0
102
RTVSPost2010PropOp34
 70
     1
102
RTVSPost2010Prop35
280
     0
102
RTVSPost2010PropOp35
 70
     1
102
RTVSPost2010Prop36
280
     0
102
RTVSPost2010PropOp36
 70
     1
102
RTVSPost2010Prop37
 90
       50
102
RTVSPost2010PropOp37
 70
     1
102
RTVSPost2010Prop38
140
0.0
102
RTVSPost2010PropOp38
 70
     1
102
RTVSPost2010Prop39
140
1.0
102
RTVSPost2010PropOp39
 70
     1
102
RTVSPost2010Prop40
 90
        0
102
RTVSPost2010PropOp40
 70
     1
102
RTVSPost2010Prop41ColorIndex
 90
       18
102
RTVSPost2010Prop41ColorRGB
 90
        0
102
RTVSPost2010PropOp41
 70
     1
102
RTVSPost2010Prop42
 90
       50
102
RTVSPost2010PropOp42
 70
     1
102
RTVSPost2010Prop43
 90
        3
102
RTVSPost2010PropOp43
 70
     1
102
RTVSPost2010Prop44ColorIndex
 90
        5
102
RTVSPost2010Prop44ColorRGB
 90
      255
102
RTVSPost2010PropOp44
 70
     1
102
RTVSPost2010Prop45
280
     0
102
RTVSPost2010PropOp45
 70
     1
102
RTVSPost2010Prop46
 90
       50
102
RTVSPost2010PropOp46
 70
     1
102
RTVSPost2010Prop47
 90
       50
102
RTVSPost2010PropOp47
 70
     1
102
RTVSPost2010Prop48
 90
       50
102
RTVSPost2010PropOp48
 70
     1
102
RTVSPost2010Prop49
280
     0
102
RTVSPost2010PropOp49
 70
     1
102
RTVSPost2010Prop50
 90
       50
102
RTVSPost2010PropOp50
 70
     1
102
RTVSPost2010Prop51ColorIndex
 90
      256
102
RTVSPost2010Prop51ColorRGB
 90
-16777216
102
RTVSPost2010PropOp51
 70
     0
102
RTVSPost2010Prop52
140
1.0
102
RTVSPost2010PropOp52
 70
     0
102
RTVSPost2010Prop53
 90
        2
102
RTVSPost2010PropOp53
 70
     1
102
RTVSPost2010Prop54
  1
strokes_ogs.tif
102
RTVSPost2010PropOp54
 70
     1
102
RTVSPost2010Prop55
280
     0
102
RTVSPost2010PropOp55
 70
     1
102
RTVSPost2010Prop56
140
1.0
102
RTVSPost2010PropOp56
 70
     1
102
RTVSPost2010Prop57
140
1.0
102
RTVSPost2010PropOp57
 70
     1
102
RTVSPropertyOp0
 70
     1
102
RTVSPropertyOp1
 70
     1
102
RTVSPropertyOp2
 70
     1
102
RTVSPropertyOp3
 70
     1
102
RTVSPropertyOp4
 70
     1
102
RTVSPropertyOp5
 70
     1
102
RTVSPropertyOp6
 70
     1
102
RTVSPropertyOp7
 70
     1
102
RTVSPropertyOp8
 70
     1
102
RTVSPropertyOp9
 70
     1
102
RTVSPropertyOp10
 70
     1
102
RTVSPropertyOp11
 70
     1
102
RTVSPropertyOp12
 70
     1
102
RTVSPropertyOp13
 70
     1
102
RTVSPropertyOp14
 70
     1
102
RTVSPropertyOp15
 70
     1
102
RTVSPropertyOp16
 70
     1
102
RTVSPropertyOp17
 70
     1
102
RTVSPropertyOp18
 70
     1
102
RTVSPropertyOp19
 70
     1
102
RTVSPropertyOp20
 70
     1
102
RTVSPropertyOp21
 70
     1
102
RTVSPropertyOp22
 70
     1
102
RTVSPropertyOp23
 70
     1
102
RTVSPropertyOp24
 70
     1
102
RTVSPropertyOp25
 70
     1
102
RTVSPropertyOp26
 70
     1
102
RTVSPropertyOp27
 70
     1
102
RTVSPropertyOp28
 70
     1
102
RTVSPropertyOp29
 70
     1
102
RTVSPropertyOp30
 70
     1
102
RTVSPropertyOp31
 70
     1
102
RTVSPropertyOp32
 70
     1
102
RTVSPropertyOp33
 70
     1
102
RTVSPropertyOp34
 70
     1
102
RTVSPropertyOp35
 70
     1
102
RTVSPropertyOp36
 70
     1
102
RTVSPropertyOp37
 70
     1
102
RTVSPropertyOp38
 70
     1
102
RTVSPropertyOp39
 70
     1
102
RTVSPropertyOp40
 70
     1
102
RTVSPropertyOp41
 70
     1
102
RTVSPropertyOp42
 70
     1
102
RTVSPropertyOp43
 70
     1
102
RTVSPropertyOp44
 70
     1
102
RTVSPropertyOp45
 70
     1
102
RTVSPropertyOp46
 70
     1
102
RTVSPropertyOp47
 70
     1
102
RTVSPropertyOp48
 70
     1
102
RTVSPropertyOp49
 70
     1
102
RTVSPropertyOp50
 70
     1
102
RTVSPropertyOp51
 70
     0
102
RTVSPropertyOp52
 70
     0
102
RTVSPropertyOp53
 70
     1
102
RTVSPropertyOp54
 70
     1
102
RTVSPropertyOp55
 70
     1
102
RTVSPropertyOp56
 70
     1
102
RTVSPropertyOp57
 70
     1
102
RTVSPropertyOp58
 70
     1
102
RTVSPropertyOp59
 70
     1
102
RTVSPropertyOp60
 70
     1
102
RTVSPropertyOp61
 70
     1
102
RTVSPropertyOp62
 70
     1
  0
XRECORD
  5
3E1E
102
{ACAD_REACTORS
330
3E1D
102
}
330
3E1D
100
AcDbXrecord
280
     1
102
RTVSPost2010Prop28
280
     0
102
RTVSPost2010PropOp28
 70
     1
102
RTVSPost2010Prop29
280
     1
102
RTVSPost2010PropOp29
 70
     1
102
RTVSPost2010Prop30
280
     1
102
RTVSPost2010PropOp30
 70
     1
102
RTVSPost2010Prop31
280
     0
102
RTVSPost2010PropOp31
 70
     1
102
RTVSPost2010Prop32
280
     0
102
RTVSPost2010PropOp32
 70
     1
102
RTVSPost2010Prop33
280
     0
102
RTVSPost2010PropOp33
 70
     1
102
RTVSPost2010Prop34
280
     0
102
RTVSPost2010PropOp34
 70
     1
102
RTVSPost2010Prop35
280
     0
102
RTVSPost2010PropOp35
 70
     1
102
RTVSPost2010Prop36
280
     0
102
RTVSPost2010PropOp36
 70
     1
102
RTVSPost2010Prop37
 90
       50
102
RTVSPost2010PropOp37
 70
     1
102
RTVSPost2010Prop38
140
0.0
102
RTVSPost2010PropOp38
 70
     1
102
RTVSPost2010Prop39
140
1.0
102
RTVSPost2010PropOp39
 70
     1
102
RTVSPost2010Prop40
 90
        0
102
RTVSPost2010PropOp40
 70
     1
102
RTVSPost2010Prop41ColorIndex
 90
       18
102
RTVSPost2010Prop41ColorRGB
 90
        0
102
RTVSPost2010PropOp41
 70
     1
102
RTVSPost2010Prop42
 90
       50
102
RTVSPost2010PropOp42
 70
     1
102
RTVSPost2010Prop43
 90
        3
102
RTVSPost2010PropOp43
 70
     1
102
RTVSPost2010Prop44ColorIndex
 90
        5
102
RTVSPost2010Prop44ColorRGB
 90
      255
102
RTVSPost2010PropOp44
 70
     1
102
RTVSPost2010Prop45
280
     0
102
RTVSPost2010PropOp45
 70
     1
102
RTVSPost2010Prop46
 90
       50
102
RTVSPost2010PropOp46
 70
     1
102
RTVSPost2010Prop47
 90
       50
102
RTVSPost2010PropOp47
 70
     1
102
RTVSPost2010Prop48
 90
       50
102
RTVSPost2010PropOp48
 70
     1
102
RTVSPost2010Prop49
280
     0
102
RTVSPost2010PropOp49
 70
     1
102
RTVSPost2010Prop50
 90
       50
102
RTVSPost2010PropOp50
 70
     1
102
RTVSPost2010Prop51ColorIndex
 90
      256
102
RTVSPost2010Prop51ColorRGB
 90
-16777216
102
RTVSPost2010PropOp51
 70
     0
102
RTVSPost2010Prop52
140
1.0
102
RTVSPost2010PropOp52
 70
     0
102
RTVSPost2010Prop53
 90
        2
102
RTVSPost2010PropOp53
 70
     1
102
RTVSPost2010Prop54
  1
strokes_ogs.tif
102
RTVSPost2010PropOp54
 70
     1
102
RTVSPost2010Prop55
280
     0
102
RTVSPost2010PropOp55
 70
     1
102
RTVSPost2010Prop56
140
1.0
102
RTVSPost2010PropOp56
 70
     1
102
RTVSPost2010Prop57
140
1.0
102
RTVSPost2010PropOp57
 70
     1
102
RTVSPropertyOp0
 70
     1
102
RTVSPropertyOp1
 70
     1
102
RTVSPropertyOp2
 70
     1
102
RTVSPropertyOp3
 70
     1
102
RTVSPropertyOp4
 70
     1
102
RTVSPropertyOp5
 70
     1
102
RTVSPropertyOp6
 70
     1
102
RTVSPropertyOp7
 70
     1
102
RTVSPropertyOp8
 70
     1
102
RTVSPropertyOp9
 70
     1
102
RTVSPropertyOp10
 70
     1
102
RTVSPropertyOp11
 70
     1
102
RTVSPropertyOp12
 70
     1
102
RTVSPropertyOp13
 70
     1
102
RTVSPropertyOp14
 70
     1
102
RTVSPropertyOp15
 70
     1
102
RTVSPropertyOp16
 70
     1
102
RTVSPropertyOp17
 70
     1
102
RTVSPropertyOp18
 70
     1
102
RTVSPropertyOp19
 70
     1
102
RTVSPropertyOp20
 70
     1
102
RTVSPropertyOp21
 70
     1
102
RTVSPropertyOp22
 70
     1
102
RTVSPropertyOp23
 70
     1
102
RTVSPropertyOp24
 70
     1
102
RTVSPropertyOp25
 70
     1
102
RTVSPropertyOp26
 70
     1
102
RTVSPropertyOp27
 70
     1
102
RTVSPropertyOp28
 70
     1
102
RTVSPropertyOp29
 70
     1
102
RTVSPropertyOp30
 70
     1
102
RTVSPropertyOp31
 70
     1
102
RTVSPropertyOp32
 70
     1
102
RTVSPropertyOp33
 70
     1
102
RTVSPropertyOp34
 70
     1
102
RTVSPropertyOp35
 70
     1
102
RTVSPropertyOp36
 70
     1
102
RTVSPropertyOp37
 70
     1
102
RTVSPropertyOp38
 70
     1
102
RTVSPropertyOp39
 70
     1
102
RTVSPropertyOp40
 70
     1
102
RTVSPropertyOp41
 70
     1
102
RTVSPropertyOp42
 70
     1
102
RTVSPropertyOp43
 70
     1
102
RTVSPropertyOp44
 70
     1
102
RTVSPropertyOp45
 70
     1
102
RTVSPropertyOp46
 70
     1
102
RTVSPropertyOp47
 70
     1
102
RTVSPropertyOp48
 70
     1
102
RTVSPropertyOp49
 70
     1
102
RTVSPropertyOp50
 70
     1
102
RTVSPropertyOp51
 70
     0
102
RTVSPropertyOp52
 70
     0
102
RTVSPropertyOp53
 70
     1
102
RTVSPropertyOp54
 70
     1
102
RTVSPropertyOp55
 70
     1
102
RTVSPropertyOp56
 70
     1
102
RTVSPropertyOp57
 70
     1
102
RTVSPropertyOp58
 70
     1
102
RTVSPropertyOp59
 70
     1
102
RTVSPropertyOp60
 70
     1
102
RTVSPropertyOp61
 70
     1
102
RTVSPropertyOp62
 70
     1
  0
XRECORD
  5
3E14
102
{ACAD_REACTORS
330
3E13
102
}
330
3E13
100
AcDbXrecord
280
     1
102
RTVSPost2010Prop28
280
     0
102
RTVSPost2010PropOp28
 70
     1
102
RTVSPost2010Prop29
280
     1
102
RTVSPost2010PropOp29
 70
     1
102
RTVSPost2010Prop30
280
     1
102
RTVSPost2010PropOp30
 70
     1
102
RTVSPost2010Prop31
280
     0
102
RTVSPost2010PropOp31
 70
     1
102
RTVSPost2010Prop32
280
     0
102
RTVSPost2010PropOp32
 70
     1
102
RTVSPost2010Prop33
280
     0
102
RTVSPost2010PropOp33
 70
     1
102
RTVSPost2010Prop34
280
     0
102
RTVSPost2010PropOp34
 70
     1
102
RTVSPost2010Prop35
280
     0
102
RTVSPost2010PropOp35
 70
     1
102
RTVSPost2010Prop36
280
     0
102
RTVSPost2010PropOp36
 70
     1
102
RTVSPost2010Prop37
 90
       50
102
RTVSPost2010PropOp37
 70
     1
102
RTVSPost2010Prop38
140
0.0
102
RTVSPost2010PropOp38
 70
     1
102
RTVSPost2010Prop39
140
1.0
102
RTVSPost2010PropOp39
 70
     1
102
RTVSPost2010Prop40
 90
        0
102
RTVSPost2010PropOp40
 70
     1
102
RTVSPost2010Prop41ColorIndex
 90
       18
102
RTVSPost2010Prop41ColorRGB
 90
        0
102
RTVSPost2010PropOp41
 70
     1
102
RTVSPost2010Prop42
 90
       50
102
RTVSPost2010PropOp42
 70
     1
102
RTVSPost2010Prop43
 90
        3
102
RTVSPost2010PropOp43
 70
     1
102
RTVSPost2010Prop44ColorIndex
 90
        5
102
RTVSPost2010Prop44ColorRGB
 90
      255
102
RTVSPost2010PropOp44
 70
     1
102
RTVSPost2010Prop45
280
     0
102
RTVSPost2010PropOp45
 70
     1
102
RTVSPost2010Prop46
 90
       50
102
RTVSPost2010PropOp46
 70
     1
102
RTVSPost2010Prop47
 90
       50
102
RTVSPost2010PropOp47
 70
     1
102
RTVSPost2010Prop48
 90
       50
102
RTVSPost2010PropOp48
 70
     1
102
RTVSPost2010Prop49
280
     0
102
RTVSPost2010PropOp49
 70
     1
102
RTVSPost2010Prop50
 90
       50
102
RTVSPost2010PropOp50
 70
     1
102
RTVSPost2010Prop51ColorIndex
 90
      256
102
RTVSPost2010Prop51ColorRGB
 90
-16777216
102
RTVSPost2010PropOp51
 70
     0
102
RTVSPost2010Prop52
140
1.0
102
RTVSPost2010PropOp52
 70
     0
102
RTVSPost2010Prop53
 90
        2
102
RTVSPost2010PropOp53
 70
     1
102
RTVSPost2010Prop54
  1
strokes_ogs.tif
102
RTVSPost2010PropOp54
 70
     1
102
RTVSPost2010Prop55
280
     0
102
RTVSPost2010PropOp55
 70
     1
102
RTVSPost2010Prop56
140
1.0
102
RTVSPost2010PropOp56
 70
     1
102
RTVSPost2010Prop57
140
1.0
102
RTVSPost2010PropOp57
 70
     1
102
RTVSPropertyOp0
 70
     1
102
RTVSPropertyOp1
 70
     1
102
RTVSPropertyOp2
 70
     1
102
RTVSPropertyOp3
 70
     1
102
RTVSPropertyOp4
 70
     1
102
RTVSPropertyOp5
 70
     1
102
RTVSPropertyOp6
 70
     1
102
RTVSPropertyOp7
 70
     1
102
RTVSPropertyOp8
 70
     1
102
RTVSPropertyOp9
 70
     1
102
RTVSPropertyOp10
 70
     1
102
RTVSPropertyOp11
 70
     1
102
RTVSPropertyOp12
 70
     1
102
RTVSPropertyOp13
 70
     1
102
RTVSPropertyOp14
 70
     1
102
RTVSPropertyOp15
 70
     1
102
RTVSPropertyOp16
 70
     1
102
RTVSPropertyOp17
 70
     1
102
RTVSPropertyOp18
 70
     1
102
RTVSPropertyOp19
 70
     1
102
RTVSPropertyOp20
 70
     1
102
RTVSPropertyOp21
 70
     1
102
RTVSPropertyOp22
 70
     1
102
RTVSPropertyOp23
 70
     1
102
RTVSPropertyOp24
 70
     1
102
RTVSPropertyOp25
 70
     1
102
RTVSPropertyOp26
 70
     1
102
RTVSPropertyOp27
 70
     1
102
RTVSPropertyOp28
 70
     1
102
RTVSPropertyOp29
 70
     1
102
RTVSPropertyOp30
 70
     1
102
RTVSPropertyOp31
 70
     1
102
RTVSPropertyOp32
 70
     1
102
RTVSPropertyOp33
 70
     1
102
RTVSPropertyOp34
 70
     1
102
RTVSPropertyOp35
 70
     1
102
RTVSPropertyOp36
 70
     1
102
RTVSPropertyOp37
 70
     1
102
RTVSPropertyOp38
 70
     1
102
RTVSPropertyOp39
 70
     1
102
RTVSPropertyOp40
 70
     1
102
RTVSPropertyOp41
 70
     1
102
RTVSPropertyOp42
 70
     1
102
RTVSPropertyOp43
 70
     1
102
RTVSPropertyOp44
 70
     1
102
RTVSPropertyOp45
 70
     1
102
RTVSPropertyOp46
 70
     1
102
RTVSPropertyOp47
 70
     1
102
RTVSPropertyOp48
 70
     1
102
RTVSPropertyOp49
 70
     1
102
RTVSPropertyOp50
 70
     1
102
RTVSPropertyOp51
 70
     0
102
RTVSPropertyOp52
 70
     0
102
RTVSPropertyOp53
 70
     1
102
RTVSPropertyOp54
 70
     1
102
RTVSPropertyOp55
 70
     1
102
RTVSPropertyOp56
 70
     1
102
RTVSPropertyOp57
 70
     1
102
RTVSPropertyOp58
 70
     1
102
RTVSPropertyOp59
 70
     1
102
RTVSPropertyOp60
 70
     1
102
RTVSPropertyOp61
 70
     1
102
RTVSPropertyOp62
 70
     1
  0
XRECORD
  5
3E08
102
{ACAD_REACTORS
330
3E07
102
}
330
3E07
100
AcDbXrecord
280
     1
102
RTVSPost2010Prop28
280
     0
102
RTVSPost2010PropOp28
 70
     1
102
RTVSPost2010Prop29
280
     1
102
RTVSPost2010PropOp29
 70
     1
102
RTVSPost2010Prop30
280
     1
102
RTVSPost2010PropOp30
 70
     1
102
RTVSPost2010Prop31
280
     0
102
RTVSPost2010PropOp31
 70
     1
102
RTVSPost2010Prop32
280
     0
102
RTVSPost2010PropOp32
 70
     1
102
RTVSPost2010Prop33
280
     0
102
RTVSPost2010PropOp33
 70
     1
102
RTVSPost2010Prop34
280
     0
102
RTVSPost2010PropOp34
 70
     1
102
RTVSPost2010Prop35
280
     0
102
RTVSPost2010PropOp35
 70
     1
102
RTVSPost2010Prop36
280
     0
102
RTVSPost2010PropOp36
 70
     1
102
RTVSPost2010Prop37
 90
       50
102
RTVSPost2010PropOp37
 70
     1
102
RTVSPost2010Prop38
140
0.0
102
RTVSPost2010PropOp38
 70
     1
102
RTVSPost2010Prop39
140
1.0
102
RTVSPost2010PropOp39
 70
     1
102
RTVSPost2010Prop40
 90
        0
102
RTVSPost2010PropOp40
 70
     1
102
RTVSPost2010Prop41ColorIndex
 90
       18
102
RTVSPost2010Prop41ColorRGB
 90
        0
102
RTVSPost2010PropOp41
 70
     1
102
RTVSPost2010Prop42
 90
       50
102
RTVSPost2010PropOp42
 70
     1
102
RTVSPost2010Prop43
 90
        3
102
RTVSPost2010PropOp43
 70
     1
102
RTVSPost2010Prop44ColorIndex
 90
        5
102
RTVSPost2010Prop44ColorRGB
 90
      255
102
RTVSPost2010PropOp44
 70
     1
102
RTVSPost2010Prop45
280
     0
102
RTVSPost2010PropOp45
 70
     1
102
RTVSPost2010Prop46
 90
       50
102
RTVSPost2010PropOp46
 70
     1
102
RTVSPost2010Prop47
 90
       50
102
RTVSPost2010PropOp47
 70
     1
102
RTVSPost2010Prop48
 90
       50
102
RTVSPost2010PropOp48
 70
     1
102
RTVSPost2010Prop49
280
     0
102
RTVSPost2010PropOp49
 70
     1
102
RTVSPost2010Prop50
 90
       50
102
RTVSPost2010PropOp50
 70
     1
102
RTVSPost2010Prop51ColorIndex
 90
      256
102
RTVSPost2010Prop51ColorRGB
 90
-16777216
102
RTVSPost2010PropOp51
 70
     0
102
RTVSPost2010Prop52
140
1.0
102
RTVSPost2010PropOp52
 70
     0
102
RTVSPost2010Prop53
 90
        2
102
RTVSPost2010PropOp53
 70
     1
102
RTVSPost2010Prop54
  1
strokes_ogs.tif
102
RTVSPost2010PropOp54
 70
     1
102
RTVSPost2010Prop55
280
     0
102
RTVSPost2010PropOp55
 70
     1
102
RTVSPost2010Prop56
140
1.0
102
RTVSPost2010PropOp56
 70
     1
102
RTVSPost2010Prop57
140
1.0
102
RTVSPost2010PropOp57
 70
     1
102
RTVSPropertyOp0
 70
     1
102
RTVSPropertyOp1
 70
     1
102
RTVSPropertyOp2
 70
     1
102
RTVSPropertyOp3
 70
     1
102
RTVSPropertyOp4
 70
     1
102
RTVSPropertyOp5
 70
     1
102
RTVSPropertyOp6
 70
     1
102
RTVSPropertyOp7
 70
     1
102
RTVSPropertyOp8
 70
     1
102
RTVSPropertyOp9
 70
     1
102
RTVSPropertyOp10
 70
     1
102
RTVSPropertyOp11
 70
     1
102
RTVSPropertyOp12
 70
     1
102
RTVSPropertyOp13
 70
     1
102
RTVSPropertyOp14
 70
     1
102
RTVSPropertyOp15
 70
     1
102
RTVSPropertyOp16
 70
     1
102
RTVSPropertyOp17
 70
     1
102
RTVSPropertyOp18
 70
     1
102
RTVSPropertyOp19
 70
     1
102
RTVSPropertyOp20
 70
     1
102
RTVSPropertyOp21
 70
     1
102
RTVSPropertyOp22
 70
     1
102
RTVSPropertyOp23
 70
     1
102
RTVSPropertyOp24
 70
     1
102
RTVSPropertyOp25
 70
     1
102
RTVSPropertyOp26
 70
     1
102
RTVSPropertyOp27
 70
     1
102
RTVSPropertyOp28
 70
     1
102
RTVSPropertyOp29
 70
     1
102
RTVSPropertyOp30
 70
     1
102
RTVSPropertyOp31
 70
     1
102
RTVSPropertyOp32
 70
     1
102
RTVSPropertyOp33
 70
     1
102
RTVSPropertyOp34
 70
     1
102
RTVSPropertyOp35
 70
     1
102
RTVSPropertyOp36
 70
     1
102
RTVSPropertyOp37
 70
     1
102
RTVSPropertyOp38
 70
     1
102
RTVSPropertyOp39
 70
     1
102
RTVSPropertyOp40
 70
     1
102
RTVSPropertyOp41
 70
     1
102
RTVSPropertyOp42
 70
     1
102
RTVSPropertyOp43
 70
     1
102
RTVSPropertyOp44
 70
     1
102
RTVSPropertyOp45
 70
     1
102
RTVSPropertyOp46
 70
     1
102
RTVSPropertyOp47
 70
     1
102
RTVSPropertyOp48
 70
     1
102
RTVSPropertyOp49
 70
     1
102
RTVSPropertyOp50
 70
     1
102
RTVSPropertyOp51
 70
     0
102
RTVSPropertyOp52
 70
     0
102
RTVSPropertyOp53
 70
     1
102
RTVSPropertyOp54
 70
     1
102
RTVSPropertyOp55
 70
     1
102
RTVSPropertyOp56
 70
     1
102
RTVSPropertyOp57
 70
     1
102
RTVSPropertyOp58
 70
     1
102
RTVSPropertyOp59
 70
     1
102
RTVSPropertyOp60
 70
     1
102
RTVSPropertyOp61
 70
     1
102
RTVSPropertyOp62
 70
     1
  0
XRECORD
  5
3E20
102
{ACAD_REACTORS
330
3E1F
102
}
330
3E1F
100
AcDbXrecord
280
     1
102
RTVSPost2010Prop28
280
     0
102
RTVSPost2010PropOp28
 70
     1
102
RTVSPost2010Prop29
280
     1
102
RTVSPost2010PropOp29
 70
     1
102
RTVSPost2010Prop30
280
     1
102
RTVSPost2010PropOp30
 70
     1
102
RTVSPost2010Prop31
280
     0
102
RTVSPost2010PropOp31
 70
     1
102
RTVSPost2010Prop32
280
     0
102
RTVSPost2010PropOp32
 70
     1
102
RTVSPost2010Prop33
280
     0
102
RTVSPost2010PropOp33
 70
     1
102
RTVSPost2010Prop34
280
     0
102
RTVSPost2010PropOp34
 70
     1
102
RTVSPost2010Prop35
280
     0
102
RTVSPost2010PropOp35
 70
     1
102
RTVSPost2010Prop36
280
     0
102
RTVSPost2010PropOp36
 70
     1
102
RTVSPost2010Prop37
 90
       50
102
RTVSPost2010PropOp37
 70
     1
102
RTVSPost2010Prop38
140
0.0
102
RTVSPost2010PropOp38
 70
     1
102
RTVSPost2010Prop39
140
1.0
102
RTVSPost2010PropOp39
 70
     1
102
RTVSPost2010Prop40
 90
        0
102
RTVSPost2010PropOp40
 70
     1
102
RTVSPost2010Prop41ColorIndex
 90
       18
102
RTVSPost2010Prop41ColorRGB
 90
        0
102
RTVSPost2010PropOp41
 70
     1
102
RTVSPost2010Prop42
 90
       50
102
RTVSPost2010PropOp42
 70
     1
102
RTVSPost2010Prop43
 90
        3
102
RTVSPost2010PropOp43
 70
     1
102
RTVSPost2010Prop44ColorIndex
 90
        5
102
RTVSPost2010Prop44ColorRGB
 90
      255
102
RTVSPost2010PropOp44
 70
     1
102
RTVSPost2010Prop45
280
     0
102
RTVSPost2010PropOp45
 70
     1
102
RTVSPost2010Prop46
 90
       50
102
RTVSPost2010PropOp46
 70
     1
102
RTVSPost2010Prop47
 90
       50
102
RTVSPost2010PropOp47
 70
     1
102
RTVSPost2010Prop48
 90
       50
102
RTVSPost2010PropOp48
 70
     1
102
RTVSPost2010Prop49
280
     0
102
RTVSPost2010PropOp49
 70
     1
102
RTVSPost2010Prop50
 90
       50
102
RTVSPost2010PropOp50
 70
     1
102
RTVSPost2010Prop51ColorIndex
 90
      256
102
RTVSPost2010Prop51ColorRGB
 90
-16777216
102
RTVSPost2010PropOp51
 70
     0
102
RTVSPost2010Prop52
140
1.0
102
RTVSPost2010PropOp52
 70
     0
102
RTVSPost2010Prop53
 90
        2
102
RTVSPost2010PropOp53
 70
     1
102
RTVSPost2010Prop54
  1
strokes_ogs.tif
102
RTVSPost2010PropOp54
 70
     1
102
RTVSPost2010Prop55
280
     0
102
RTVSPost2010PropOp55
 70
     1
102
RTVSPost2010Prop56
140
1.0
102
RTVSPost2010PropOp56
 70
     1
102
RTVSPost2010Prop57
140
1.0
102
RTVSPost2010PropOp57
 70
     1
102
RTVSPropertyOp0
 70
     1
102
RTVSPropertyOp1
 70
     1
102
RTVSPropertyOp2
 70
     1
102
RTVSPropertyOp3
 70
     1
102
RTVSPropertyOp4
 70
     1
102
RTVSPropertyOp5
 70
     1
102
RTVSPropertyOp6
 70
     1
102
RTVSPropertyOp7
 70
     1
102
RTVSPropertyOp8
 70
     1
102
RTVSPropertyOp9
 70
     1
102
RTVSPropertyOp10
 70
     1
102
RTVSPropertyOp11
 70
     1
102
RTVSPropertyOp12
 70
     1
102
RTVSPropertyOp13
 70
     1
102
RTVSPropertyOp14
 70
     1
102
RTVSPropertyOp15
 70
     1
102
RTVSPropertyOp16
 70
     1
102
RTVSPropertyOp17
 70
     1
102
RTVSPropertyOp18
 70
     1
102
RTVSPropertyOp19
 70
     1
102
RTVSPropertyOp20
 70
     1
102
RTVSPropertyOp21
 70
     1
102
RTVSPropertyOp22
 70
     1
102
RTVSPropertyOp23
 70
     1
102
RTVSPropertyOp24
 70
     1
102
RTVSPropertyOp25
 70
     1
102
RTVSPropertyOp26
 70
     1
102
RTVSPropertyOp27
 70
     1
102
RTVSPropertyOp28
 70
     1
102
RTVSPropertyOp29
 70
     1
102
RTVSPropertyOp30
 70
     1
102
RTVSPropertyOp31
 70
     1
102
RTVSPropertyOp32
 70
     1
102
RTVSPropertyOp33
 70
     1
102
RTVSPropertyOp34
 70
     1
102
RTVSPropertyOp35
 70
     1
102
RTVSPropertyOp36
 70
     1
102
RTVSPropertyOp37
 70
     1
102
RTVSPropertyOp38
 70
     1
102
RTVSPropertyOp39
 70
     1
102
RTVSPropertyOp40
 70
     1
102
RTVSPropertyOp41
 70
     1
102
RTVSPropertyOp42
 70
     1
102
RTVSPropertyOp43
 70
     1
102
RTVSPropertyOp44
 70
     1
102
RTVSPropertyOp45
 70
     1
102
RTVSPropertyOp46
 70
     1
102
RTVSPropertyOp47
 70
     1
102
RTVSPropertyOp48
 70
     1
102
RTVSPropertyOp49
 70
     1
102
RTVSPropertyOp50
 70
     1
102
RTVSPropertyOp51
 70
     0
102
RTVSPropertyOp52
 70
     0
102
RTVSPropertyOp53
 70
     1
102
RTVSPropertyOp54
 70
     1
102
RTVSPropertyOp55
 70
     1
102
RTVSPropertyOp56
 70
     1
102
RTVSPropertyOp57
 70
     1
102
RTVSPropertyOp58
 70
     1
102
RTVSPropertyOp59
 70
     1
102
RTVSPropertyOp60
 70
     1
102
RTVSPropertyOp61
 70
     1
102
RTVSPropertyOp62
 70
     1
  0
ENDSEC
  0
EOF
