  0
SECTION
  2
HEADER
  9
$ACADVER
  1
AC1015
  9
$ACADMAINTVER
 70
    20
  9
$DWGCODEPAGE
  3
ANSI_932
  9
$INSBASE
 10
0.0
 20
0.0
 30
0.0
  9
$EXTMIN
 10
9.9999975266385
 20
10.0
 30
0.0
  9
$EXTMAX
 10
423.0380573353786
 20
292.8383758880747
 30
0.0
  9
$LIMMIN
 10
0.0000015376081137
 20
-0.0000001931532552
  9
$LIMMAX
 10
495.0000015376081
 20
341.2499998068465
  9
$ORTHOMODE
 70
     1
  9
$REGENMODE
 70
     1
  9
$FILLMODE
 70
     1
  9
$QTEXTMODE
 70
     0
  9
$MIRRTEXT
 70
     1
  9
$LTSCALE
 40
1.0
  9
$ATTMODE
 70
     1
  9
$TEXTSIZE
 40
2.5
  9
$TRACEWID
 40
1.0
  9
$TEXTSTYLE
  7
STANDARD
  9
$CLAYER
  8
0
  9
$CELTYPE
  6
BYLAYER
  9
$CECOLOR
 62
   256
  9
$CELTSCALE
 40
1.0
  9
$DISPSILH
 70
     0
  9
$DIMSCALE
 40
1.0
  9
$DIMASZ
 40
3.0
  9
$DIMEXO
 40
1.0
  9
$DIMDLI
 40
10.0
  9
$DIMRND
 40
0.0
  9
$DIMDLE
 40
0.0
  9
$DIMEXE
 40
1.0
  9
$DIMTP
 40
0.0
  9
$DIMTM
 40
0.0
  9
$DIMTXT
 40
2.5
  9
$DIMCEN
 40
0.0
  9
$DIMTSZ
 40
0.0
  9
$DIMTOL
 70
     0
  9
$DIMLIM
 70
     0
  9
$DIMTIH
 70
     0
  9
$DIMTOH
 70
     0
  9
$DIMSE1
 70
     0
  9
$DIMSE2
 70
     0
  9
$DIMTAD
 70
     3
  9
$DIMZIN
 70
     8
  9
$DIMBLK
  1

  9
$DIMASO
 70
     1
  9
$DIMSHO
 70
     1
  9
$DIMPOST
  1

  9
$DIMAPOST
  1

  9
$DIMALT
 70
     0
  9
$DIMALTD
 70
     2
  9
$DIMALTF
 40
25.4
  9
$DIMLFAC
 40
1.0
  9
$DIMTOFL
 70
     1
  9
$DIMTVP
 40
0.0
  9
$DIMTIX
 70
     0
  9
$DIMSOXD
 70
     0
  9
$DIMSAH
 70
     1
  9
$DIMBLK1
  1
OPEN
  9
$DIMBLK2
  1
OPEN
  9
$DIMSTYLE
  2
STANDARD
  9
$DIMCLRD
 70
     0
  9
$DIMCLRE
 70
     0
  9
$DIMCLRT
 70
     0
  9
$DIMTFAC
 40
1.0
  9
$DIMGAP
 40
1.0
  9
$DIMJUST
 70
     0
  9
$DIMSD1
 70
     0
  9
$DIMSD2
 70
     0
  9
$DIMTOLJ
 70
     1
  9
$DIMTZIN
 70
     0
  9
$DIMALTZ
 70
     0
  9
$DIMALTTZ
 70
     0
  9
$DIMUPT
 70
     0
  9
$DIMDEC
 70
     4
  9
$DIMTDEC
 70
     4
  9
$DIMALTU
 70
     2
  9
$DIMALTTD
 70
     2
  9
$DIMTXSTY
  7
STANDARD
  9
$DIMAUNIT
 70
     0
  9
$DIMADEC
 70
     0
  9
$DIMALTRND
 40
0.0
  9
$DIMAZIN
 70
     0
  9
$DIMDSEP
 70
    46
  9
$DIMATFIT
 70
     3
  9
$DIMFRAC
 70
     0
  9
$DIMLDRBLK
  1
OPEN
  9
$DIMLUNIT
 70
     2
  9
$DIMLWD
 70
    -2
  9
$DIMLWE
 70
    -2
  9
$DIMTMOVE
 70
     0
  9
$LUNITS
 70
     2
  9
$LUPREC
 70
     4
  9
$SKETCHINC
 40
1.0
  9
$FILLETRAD
 40
0.0
  9
$AUNITS
 70
     0
  9
$AUPREC
 70
     0
  9
$MENU
  1
.
  9
$ELEVATION
 40
0.0
  9
$PELEVATION
 40
0.0
  9
$THICKNESS
 40
0.0
  9
$LIMCHECK
 70
     0
  9
$CHAMFERA
 40
10.0
  9
$CHAMFERB
 40
10.0
  9
$CHAMFERC
 40
20.0
  9
$CHAMFERD
 40
0.0
  9
$SKPOLY
 70
     0
  9
$TDCREATE
 40
2454509.604124340
  9
$TDUCREATE
 40
2454509.229124340
  9
$TDUPDATE
 40
2457192.602324676
  9
$TDUUPDATE
 40
2457192.227324676
  9
$TDINDWG
 40
0.2611227083
  9
$TDUSRTIMER
 40
0.2611225231
  9
$USRTIMER
 70
     1
  9
$ANGBASE
 50
0.0
  9
$ANGDIR
 70
     0
  9
$PDMODE
 70
     0
  9
$PDSIZE
 40
0.0
  9
$PLINEWID
 40
0.0
  9
$SPLFRAME
 70
     0
  9
$SPLINETYPE
 70
     6
  9
$SPLINESEGS
 70
     8
  9
$HANDSEED
  5
2A37
  9
$SURFTAB1
 70
     6
  9
$SURFTAB2
 70
     6
  9
$SURFTYPE
 70
     6
  9
$SURFU
 70
     6
  9
$SURFV
 70
     6
  9
$UCSBASE
  2

  9
$UCSNAME
  2

  9
$UCSORG
 10
0.0
 20
0.0
 30
0.0
  9
$UCSXDIR
 10
1.0
 20
0.0
 30
0.0
  9
$UCSYDIR
 10
0.0
 20
1.0
 30
0.0
  9
$UCSORTHOREF
  2

  9
$UCSORTHOVIEW
 70
     0
  9
$UCSORGTOP
 10
0.0
 20
0.0
 30
0.0
  9
$UCSORGBOTTOM
 10
0.0
 20
0.0
 30
0.0
  9
$UCSORGLEFT
 10
0.0
 20
0.0
 30
0.0
  9
$UCSORGRIGHT
 10
0.0
 20
0.0
 30
0.0
  9
$UCSORGFRONT
 10
0.0
 20
0.0
 30
0.0
  9
$UCSORGBACK
 10
0.0
 20
0.0
 30
0.0
  9
$PUCSBASE
  2

  9
$PUCSNAME
  2

  9
$PUCSORG
 10
0.0
 20
0.0
 30
0.0
  9
$PUCSXDIR
 10
1.0
 20
0.0
 30
0.0
  9
$PUCSYDIR
 10
0.0
 20
1.0
 30
0.0
  9
$PUCSORTHOREF
  2

  9
$PUCSORTHOVIEW
 70
     0
  9
$PUCSORGTOP
 10
0.0
 20
0.0
 30
0.0
  9
$PUCSORGBOTTOM
 10
0.0
 20
0.0
 30
0.0
  9
$PUCSORGLEFT
 10
0.0
 20
0.0
 30
0.0
  9
$PUCSORGRIGHT
 10
0.0
 20
0.0
 30
0.0
  9
$PUCSORGFRONT
 10
0.0
 20
0.0
 30
0.0
  9
$PUCSORGBACK
 10
0.0
 20
0.0
 30
0.0
  9
$USERI1
 70
     0
  9
$USERI2
 70
     0
  9
$USERI3
 70
     0
  9
$USERI4
 70
     0
  9
$USERI5
 70
     0
  9
$USERR1
 40
0.0
  9
$USERR2
 40
0.0
  9
$USERR3
 40
0.0
  9
$USERR4
 40
0.0
  9
$USERR5
 40
0.0
  9
$WORLDVIEW
 70
     1
  9
$SHADEDGE
 70
     3
  9
$SHADEDIF
 70
    70
  9
$TILEMODE
 70
     1
  9
$MAXACTVP
 70
    48
  9
$PINSBASE
 10
0.0
 20
0.0
 30
0.0
  9
$PLIMCHECK
 70
     0
  9
$PEXTMIN
 10
1.000000000000000E+20
 20
1.000000000000000E+20
 30
1.000000000000000E+20
  9
$PEXTMAX
 10
-1.000000000000000E+20
 20
-1.000000000000000E+20
 30
-1.000000000000000E+20
  9
$PLIMMIN
 10
0.0
 20
0.0
  9
$PLIMMAX
 10
420.0
 20
297.0
  9
$UNITMODE
 70
     0
  9
$VISRETAIN
 70
     1
  9
$PLINEGEN
 70
     0
  9
$PSLTSCALE
 70
     1
  9
$TREEDEPTH
 70
  3020
  9
$CMLSTYLE
  2
STANDARD
  9
$CMLJUST
 70
     0
  9
$CMLSCALE
 40
20.0
  9
$PROXYGRAPHICS
 70
     1
  9
$MEASUREMENT
 70
     0
  9
$CELWEIGHT
370
    -1
  9
$ENDCAPS
280
     0
  9
$JOINSTYLE
280
     0
  9
$LWDISPLAY
290
     0
  9
$INSUNITS
 70
     0
  9
$HYPERLINKBASE
  1

  9
$STYLESHEET
  1

  9
$XEDIT
290
     1
  9
$CEPSNTYPE
380
     0
  9
$PSTYLEMODE
290
     1
  9
$FINGERPRINTGUID
  2
{71CFFC42-742F-4347-AA9D-D361E139C37B}
  9
$VERSIONGUID
  2
{B4270D59-6DC0-498A-AB5E-9DD06A46EDB2}
  9
$EXTNAMES
290
     1
  9
$PSVPSCALE
 40
0.0
  9
$OLESTARTUP
290
     0
  0
ENDSEC
  0
SECTION
  2
CLASSES
  0
CLASS
  1
ACDBDICTIONARYWDFLT
  2
AcDbDictionaryWithDefault
  3
ObjectDBX Classes
 90
        0
280
     0
281
     0
  0
CLASS
  1
ACDBPLACEHOLDER
  2
AcDbPlaceHolder
  3
ObjectDBX Classes
 90
        0
280
     0
281
     0
  0
CLASS
  1
LAYOUT
  2
AcDbLayout
  3
ObjectDBX Classes
 90
        0
280
     0
281
     0
  0
CLASS
  1
DICTIONARYVAR
  2
AcDbDictionaryVar
  3
ObjectDBX Classes
 90
        0
280
     0
281
     0
  0
CLASS
  1
MATERIAL
  2
AcDbMaterial
  3
ObjectDBX Classes
 90
     1153
280
     0
281
     0
  0
CLASS
  1
VISUALSTYLE
  2
AcDbVisualStyle
  3
ObjectDBX Classes
 90
     4095
280
     0
281
     0
  0
CLASS
  1
TABLESTYLE
  2
AcDbTableStyle
  3
ObjectDBX Classes
 90
     4095
280
     0
281
     0
  0
CLASS
  1
SCALE
  2
AcDbScale
  3
ObjectDBX Classes
 90
     1153
280
     0
281
     0
  0
CLASS
  1
MLEADERSTYLE
  2
AcDbMLeaderStyle
  3
ACDB_MLEADERSTYLE_CLASS
 90
     4095
280
     0
281
     0
  0
CLASS
  1
ACDBSECTIONVIEWSTYLE
  2
AcDbSectionViewStyle
  3
ObjectDBX Classes
 90
     1025
280
     0
281
     0
  0
CLASS
  1
ACDBDETAILVIEWSTYLE
  2
AcDbDetailViewStyle
  3
ObjectDBX Classes
 90
     1025
280
     0
281
     0
  0
CLASS
  1
CELLSTYLEMAP
  2
AcDbCellStyleMap
  3
ObjectDBX Classes
 90
     1152
280
     0
281
     0
  0
ENDSEC
  0
SECTION
  2
TABLES
  0
TABLE
  2
VPORT
  5
8
330
0
100
AcDbSymbolTable
 70
     1
  0
VPORT
  5
2981
330
8
100
AcDbSymbolTableRecord
100
AcDbViewportTableRecord
  2
*ACTIVE
 70
     0
 10
0.0
 20
0.0
 11
1.0
 21
1.0
 12
325.4100733477847
 22
151.4239603110839
 13
0.0
 23
0.0
 14
10.0
 24
10.0
 15
10.0
 25
10.0
 16
0.0
 26
0.0
 36
1.0
 17
0.0
 27
0.0
 37
0.0
 40
285.1448257915153
 41
1.899603698811096
 42
50.0
 43
0.0
 44
0.0
 50
0.0
 51
0.0
 71
     0
 72
   100
 73
     1
 74
     0
 75
     0
 76
     0
 77
     0
 78
     0
281
     0
 65
     1
110
0.0
120
0.0
130
0.0
111
1.0
121
0.0
131
0.0
112
0.0
122
1.0
132
0.0
 79
     0
146
0.0
1001
ACAD_NAV_VCDISPLAY
1070
     3
  0
ENDTAB
  0
TABLE
  2
LTYPE
  5
5
330
0
100
AcDbSymbolTable
 70
     4
  0
LTYPE
  5
12
330
5
100
AcDbSymbolTableRecord
100
AcDbLinetypeTableRecord
  2
BYBLOCK
 70
     0
  3

 72
    65
 73
     0
 40
0.0
  0
LTYPE
  5
13
330
5
100
AcDbSymbolTableRecord
100
AcDbLinetypeTableRecord
  2
BYLAYER
 70
     0
  3

 72
    65
 73
     0
 40
0.0
  0
LTYPE
  5
14
330
5
100
AcDbSymbolTableRecord
100
AcDbLinetypeTableRecord
  2
CONTINUOUS
 70
     0
  3
Solid line
 72
    65
 73
     0
 40
0.0
  0
LTYPE
  5
4B
330
5
100
AcDbSymbolTableRecord
100
AcDbLinetypeTableRecord
  2
DASHED
 70
     0
  3
Dashed __ __ __ __ __ __ __ __ __ __ __ __ __ _
 72
    65
 73
     2
 40
19.04999999999999
 49
12.7
 74
     0
 49
-6.349999999999998
 74
     0
  0
LTYPE
  5
4C
330
5
100
AcDbSymbolTableRecord
100
AcDbLinetypeTableRecord
  2
CENTER
 70
     0
  3
Center ____ _ ____ _ ____ _ ____ _ ____ _ ____
 72
    65
 73
     4
 40
50.8
 49
31.75
 74
     0
 49
-6.349999999999998
 74
     0
 49
6.349999999999998
 74
     0
 49
-6.349999999999998
 74
     0
  0
LTYPE
  5
4D
330
5
100
AcDbSymbolTableRecord
100
AcDbLinetypeTableRecord
  2
PHANTOM
 70
     0
  3
Phantom ______  __  __  ______  __  __  ______
 72
    65
 73
     6
 40
63.5
 49
31.75
 74
     0
 49
-6.349999999999998
 74
     0
 49
6.349999999999998
 74
     0
 49
-6.349999999999998
 74
     0
 49
6.349999999999998
 74
     0
 49
-6.349999999999998
 74
     0
  0
ENDTAB
  0
TABLE
  2
LAYER
  5
2
330
0
100
AcDbSymbolTable
 70
     8
  0
LAYER
  5
E
102
{ACAD_XDICTIONARY
360
29DB
102
}
330
2
100
AcDbSymbolTableRecord
100
AcDbLayerTableRecord
  2
0
 70
     0
 62
     7
  6
CONTINUOUS
370
    -3
390
298A
  0
LAYER
  5
4E
102
{ACAD_XDICTIONARY
360
29DD
102
}
330
2
100
AcDbSymbolTableRecord
100
AcDbLayerTableRecord
  2
4
 70
     0
 62
     1
  6
CENTER
370
    -3
390
298A
  0
LAYER
  5
4F
102
{ACAD_XDICTIONARY
360
29DF
102
}
330
2
100
AcDbSymbolTableRecord
100
AcDbLayerTableRecord
  2
5
 70
     0
 62
     6
  6
PHANTOM
370
    -3
390
298A
  0
LAYER
  5
50
102
{ACAD_XDICTIONARY
360
29E1
102
}
330
2
100
AcDbSymbolTableRecord
100
AcDbLayerTableRecord
  2
1
 70
     0
 62
     7
  6
CONTINUOUS
370
    -3
390
298A
  0
LAYER
  5
51
102
{ACAD_XDICTIONARY
360
29E3
102
}
330
2
100
AcDbSymbolTableRecord
100
AcDbLayerTableRecord
  2
2
 70
     0
 62
     4
  6
CONTINUOUS
370
    -3
390
298A
  0
LAYER
  5
52
102
{ACAD_XDICTIONARY
360
29E5
102
}
330
2
100
AcDbSymbolTableRecord
100
AcDbLayerTableRecord
  2
3
 70
     0
 62
     2
  6
DASHED
370
    -3
390
298A
  0
LAYER
  5
53
102
{ACAD_XDICTIONARY
360
29E7
102
}
330
2
100
AcDbSymbolTableRecord
100
AcDbLayerTableRecord
  2
6
 70
     0
 62
     5
  6
CONTINUOUS
370
    -3
390
298A
  0
LAYER
  5
54
102
{ACAD_XDICTIONARY
360
29E9
102
}
330
2
100
AcDbSymbolTableRecord
100
AcDbLayerTableRecord
  2
7
 70
     0
 62
     3
  6
CONTINUOUS
370
    -3
390
298A
  0
ENDTAB
  0
TABLE
  2
STYLE
  5
3
330
0
100
AcDbSymbolTable
 70
     1
  0
STYLE
  5
F
330
3
100
AcDbSymbolTableRecord
100
AcDbTextStyleTableRecord
  2
STANDARD
 70
     0
 40
0.0
 41
1.0
 50
0.0
 71
     0
 42
2.5
  3
simplex.shx
  4

  0
ENDTAB
  0
TABLE
  2
VIEW
  5
6
330
0
100
AcDbSymbolTable
 70
     0
  0
ENDTAB
  0
TABLE
  2
UCS
  5
7
330
0
100
AcDbSymbolTable
 70
     0
  0
ENDTAB
  0
TABLE
  2
APPID
  5
9
330
0
100
AcDbSymbolTable
 70
     5
  0
APPID
  5
10
330
9
100
AcDbSymbolTableRecord
100
AcDbRegAppTableRecord
  2
ACAD
 70
     0
  0
APPID
  5
3E
330
9
100
AcDbSymbolTableRecord
100
AcDbRegAppTableRecord
  2
CONTENTTABDATA
 70
     0
  0
APPID
  5
3F
330
9
100
AcDbSymbolTableRecord
100
AcDbRegAppTableRecord
  2
CONTENTCURRENTTAB
 70
     0
  0
APPID
  5
29F5
330
9
100
AcDbSymbolTableRecord
100
AcDbRegAppTableRecord
  2
ACAD_NAV_VCDISPLAY
 70
     0
  0
APPID
  5
2A2E
330
9
100
AcDbSymbolTableRecord
100
AcDbRegAppTableRecord
  2
ACAD_MLEADERVER
 70
     0
  0
ENDTAB
  0
TABLE
  2
DIMSTYLE
  5
A
330
0
100
AcDbSymbolTable
 70
     1
100
AcDbDimStyleTable
 71
     0
  0
DIMSTYLE
105
1D
330
A
100
AcDbSymbolTableRecord
100
AcDbDimStyleTableRecord
  2
STANDARD
 70
     0
 41
3.0
 42
1.0
 43
10.0
 44
1.0
 73
     0
 74
     0
 77
     3
 78
     8
140
2.5
141
0.0
147
1.0
172
     1
173
     1
340
F
341
2E
343
2E
344
2E
  0
ENDTAB
  0
TABLE
  2
BLOCK_RECORD
  5
1
330
0
100
AcDbSymbolTable
 70
     1
  0
BLOCK_RECORD
  5
18
102
{ACAD_XDICTIONARY
360
2984
102
}
330
1
100
AcDbSymbolTableRecord
100
AcDbBlockTableRecord
  2
*MODEL_SPACE
340
29D8
  0
BLOCK_RECORD
  5
15
102
{ACAD_XDICTIONARY
360
2982
102
}
330
1
100
AcDbSymbolTableRecord
100
AcDbBlockTableRecord
  2
*PAPER_SPACE
340
29D9
  0
BLOCK_RECORD
  5
2E
330
1
100
AcDbSymbolTableRecord
100
AcDbBlockTableRecord
  2
_OPEN
340
0
  0
ENDTAB
  0
ENDSEC
  0
SECTION
  2
BLOCKS
  0
BLOCK
  5
19
330
18
100
AcDbEntity
  8
0
100
AcDbBlockBegin
  2
*MODEL_SPACE
 70
     0
 10
0.0
 20
0.0
 30
0.0
  3
*MODEL_SPACE
  1

  0
ENDBLK
  5
1A
330
18
100
AcDbEntity
  8
0
100
AcDbBlockEnd
  0
BLOCK
  5
16
330
15
100
AcDbEntity
 67
     1
  8
0
100
AcDbBlockBegin
  2
*PAPER_SPACE
 70
     0
 10
0.0
 20
0.0
 30
0.0
  3
*PAPER_SPACE
  1

  0
ENDBLK
  5
17
330
15
100
AcDbEntity
 67
     1
  8
0
100
AcDbBlockEnd
  0
BLOCK
  5
2F
330
2E
100
AcDbEntity
  8
0
100
AcDbBlockBegin
  2
_OPEN
 70
     0
 10
0.0
 20
0.0
 30
0.0
  3
_OPEN
  1

  0
LINE
  5
30
330
2E
100
AcDbEntity
  8
0
  6
ByBlock
 62
     0
100
AcDbLine
 10
-1.0
 20
0.1666666666666666
 30
0.0
 11
0.0
 21
0.0
 31
0.0
  0
LINE
  5
31
330
2E
100
AcDbEntity
  8
0
  6
ByBlock
 62
     0
100
AcDbLine
 10
0.0
 20
0.0
 30
0.0
 11
-1.0
 21
-0.1666666666666666
 31
0.0
  0
LINE
  5
32
330
2E
100
AcDbEntity
  8
0
  6
ByBlock
 62
     0
100
AcDbLine
 10
0.0
 20
0.0
 30
0.0
 11
-1.0
 21
0.0
 31
0.0
  0
ENDBLK
  5
33
330
2E
100
AcDbEntity
  8
0
100
AcDbBlockEnd
  0
ENDSEC
  0
SECTION
  2
ENTITIES
  0
TEXT
  5
63
330
18
100
AcDbEntity
  8
4
  6
CENTER
 48
0.25
100
AcDbText
 10
23.97950852663849
 20
10.0
 30
0.0
 40
1.399999999999999
  1
4
100
AcDbText
  0
TEXT
  5
64
330
18
100
AcDbEntity
  8
7
  6
Continuous
 48
0.25
100
AcDbText
 10
9.999997526638502
 20
26.0000007607689
 30
0.0
 40
3.0
  1
CODE No.11026
100
AcDbText
  0
TEXT
  5
65
330
18
100
AcDbEntity
  8
7
  6
Continuous
 48
0.25
100
AcDbText
 10
9.999997526638502
 20
18.00000076076889
 30
0.0
 40
3.0
  1
TYPE No.TL-362
100
AcDbText
  0
TEXT
  5
66
330
18
100
AcDbEntity
  8
1
  6
Continuous
 48
0.25
100
AcDbText
 10
9.999997526638502
 20
10.00000076076889
 30
0.0
 40
1.399999999999999
  1
LAYER
100
AcDbText
  0
TEXT
  5
67
330
18
100
AcDbEntity
  8
2
  6
Continuous
 48
0.25
100
AcDbText
 10
19.9795085266385
 20
10.0
 30
0.0
 40
1.399999999999999
  1
2
100
AcDbText
  0
TEXT
  5
68
330
18
100
AcDbEntity
  8
3
  6
DASHED
 48
0.25
100
AcDbText
 10
21.9795085266385
 20
10.0
 30
0.0
 40
1.399999999999999
  1
3
100
AcDbText
  0
TEXT
  5
69
330
18
100
AcDbEntity
  8
1
  6
Continuous
 48
0.25
100
AcDbText
 10
17.9795085266385
 20
10.0
 30
0.0
 40
1.399999999999999
  1
1
100
AcDbText
  0
TEXT
  5
6A
330
18
100
AcDbEntity
  8
5
  6
PHANTOM
 48
0.25
100
AcDbText
 10
25.9795085266385
 20
10.0
 30
0.0
 40
1.399999999999999
  1
5
100
AcDbText
  0
TEXT
  5
6B
330
18
100
AcDbEntity
  8
6
  6
Continuous
 48
0.25
100
AcDbText
 10
27.9795085266385
 20
10.0
 30
0.0
 40
1.399999999999999
  1
6
100
AcDbText
  0
TEXT
  5
6C
330
18
100
AcDbEntity
  8
7
  6
Continuous
 48
0.25
100
AcDbText
 10
29.9795085266385
 20
10.0
 30
0.0
 40
1.399999999999999
  1
7
100
AcDbText
  0
LINE
  5
431
330
18
100
AcDbEntity
  8
4
  6
CENTER
 48
0.3
100
AcDbLine
 10
132.034765556962
 20
172.8378906459622
 30
0.0
 11
168.7574333371389
 21
172.8378906459623
 31
0.0
  0
LINE
  5
432
330
18
100
AcDbEntity
  8
1
  6
Continuous
100
AcDbLine
 10
136.334765556962
 20
161.8378906459623
 30
0.0
 11
141.8347655569619
 21
161.8378906459623
 31
0.0
  0
LINE
  5
433
330
18
100
AcDbEntity
  8
1
  6
Continuous
100
AcDbLine
 10
136.334765556962
 20
183.8378906459623
 30
0.0
 11
141.8347655569619
 21
183.8378906459623
 31
0.0
  0
LINE
  5
448
330
18
100
AcDbEntity
  8
1
  6
Continuous
100
AcDbLine
 10
135.8347655569619
 20
162.3378906459623
 30
0.0
 11
135.8347655569619
 21
183.3378906459623
 31
0.0
  0
LINE
  5
449
330
18
100
AcDbEntity
  8
1
  6
Continuous
100
AcDbLine
 10
135.734765556962
 20
167.3378906459623
 30
0.0
 11
135.734765556962
 21
178.3378906459623
 31
0.0
  0
LINE
  5
44A
330
18
100
AcDbEntity
  8
1
  6
Continuous
100
AcDbLine
 10
136.334765556962
 20
183.8378906459623
 30
0.0
 11
136.334765556962
 21
161.8378906459623
 31
0.0
  0
LINE
  5
44B
330
18
100
AcDbEntity
  8
1
  6
Continuous
100
AcDbLine
 10
135.034765556962
 20
177.6378906459624
 30
0.0
 11
135.034765556962
 21
168.0378906459624
 31
0.0
  0
LINE
  5
451
330
18
100
AcDbEntity
  8
1
  6
Continuous
100
AcDbLine
 10
135.8347655569619
 20
162.3378906459623
 30
0.0
 11
136.334765556962
 21
161.8378906459623
 31
0.0
  0
LINE
  5
452
330
18
100
AcDbEntity
  8
1
  6
Continuous
100
AcDbLine
 10
135.0347655569616
 20
168.0378906459623
 30
0.0
 11
135.7347655569617
 21
167.3378906459622
 31
0.0
  0
LINE
  5
453
330
18
100
AcDbEntity
  8
1
  6
Continuous
100
AcDbLine
 10
135.734765556962
 20
167.3378906459623
 30
0.0
 11
135.8347655569619
 21
167.3378906459623
 31
0.0
  0
LINE
  5
457
330
18
100
AcDbEntity
  8
1
  6
Continuous
100
AcDbLine
 10
135.0347655569621
 20
177.6378906459623
 30
0.0
 11
135.734765556962
 21
178.3378906459621
 31
0.0
  0
LINE
  5
458
330
18
100
AcDbEntity
  8
1
  6
Continuous
100
AcDbLine
 10
135.734765556962
 20
178.3378906459623
 30
0.0
 11
135.8347655569619
 21
178.3378906459623
 31
0.0
  0
LINE
  5
459
330
18
100
AcDbEntity
  8
1
  6
Continuous
100
AcDbLine
 10
136.334765556962
 20
183.8378906459621
 30
0.0
 11
135.8347655569619
 21
183.3378906459621
 31
0.0
  0
LINE
  5
45A
330
18
100
AcDbEntity
  8
1
  6
Continuous
100
AcDbLine
 10
268.7864114461357
 20
148.2688706887286
 30
0.0
 11
268.7864114461353
 21
148.8134183490808
 31
0.0
  0
LINE
  5
45B
330
18
100
AcDbEntity
  8
1
  6
Continuous
100
AcDbLine
 10
272.1596416664867
 20
148.6159294596357
 30
0.0
 11
268.3896416664109
 21
148.2280485618383
 31
0.0
  0
ARC
  5
45C
330
18
100
AcDbEntity
  8
1
  6
Continuous
100
AcDbCircle
 10
272.1714114462529
 20
148.5015333396911
 30
0.0
 40
0.1149999998875728
100
AcDbArc
 50
264.1257254464868
 51
95.87427455265617
  0
LINE
  5
45D
330
18
100
AcDbEntity
  8
4
  6
CENTER
 48
0.3
100
AcDbLine
 10
270.2864114461433
 20
126.8378906459815
 30
0.0
 11
270.2864114461714
 21
204.8378906459814
 31
0.0
  0
LINE
  5
45E
330
18
100
AcDbEntity
  8
1
  6
Continuous
100
AcDbLine
 10
277.536411446158
 20
158.3378906458045
 30
0.0
 11
277.536411446158
 21
142.8378906458041
 31
0.0
  0
LINE
  5
45F
330
18
100
AcDbEntity
  8
1
  6
Continuous
100
AcDbLine
 10
275.536411446158
 20
158.3378906458154
 30
0.0
 11
275.536411446158
 21
142.8378906462618
 31
0.0
  0
LINE
  5
460
330
18
100
AcDbEntity
  8
1
  6
Continuous
100
AcDbLine
 10
265.0364114461576
 20
158.3378906458154
 30
0.0
 11
265.0364114461576
 21
142.8378906462618
 31
0.0
  0
LINE
  5
461
330
18
100
AcDbEntity
  8
1
  6
Continuous
100
AcDbLine
 10
263.036411446158
 20
158.3378906458045
 30
0.0
 11
263.036411446158
 21
142.8378906458041
 31
0.0
  0
LINE
  5
462
330
18
100
AcDbEntity
  8
1
  6
Continuous
100
AcDbLine
 10
257.786411446158
 20
159.8378906459811
 30
0.0
 11
257.786411446158
 21
132.3378906459815
 31
0.0
  0
LINE
  5
463
330
18
100
AcDbEntity
  8
1
  6
Continuous
100
AcDbLine
 10
286.7864114461562
 20
132.3378906459811
 30
0.0
 11
286.7864114461607
 21
199.3378906459813
 31
0.0
  0
LINE
  5
464
330
18
100
AcDbEntity
  8
4
  6
CENTER
 48
0.3
100
AcDbLine
 10
175.1347645570537
 20
136.8378906459634
 30
0.0
 11
175.1347645570695
 21
166.8378906459439
 31
0.0
  0
LINE
  5
465
330
18
100
AcDbEntity
  8
1
  6
Continuous
100
AcDbLine
 10
178.1347645570616
 20
140.8378906458265
 30
0.0
 11
178.1347645570615
 21
160.3378906458251
 31
0.0
  0
LINE
  5
466
330
18
100
AcDbEntity
  8
1
  6
Continuous
100
AcDbLine
 10
172.1347645570626
 20
132.3378906459856
 30
0.0
 11
172.1347645570626
 21
199.3378906459854
 31
0.0
  0
LINE
  5
467
330
18
100
AcDbEntity
  8
1
  6
Continuous
100
AcDbLine
 10
148.1347645570628
 20
129.8378906459858
 30
0.0
 11
148.1347645570627
 21
201.8378906459854
 31
0.0
  0
LINE
  5
468
330
18
100
AcDbEntity
  8
1
  6
Continuous
100
AcDbLine
 10
169.6347645570626
 20
129.8378906459856
 30
0.0
 11
148.1347645570626
 21
129.8378906459856
 31
0.0
  0
LINE
  5
46A
330
18
100
AcDbEntity
  8
1
  6
Continuous
100
AcDbLine
 10
158.6847545569528
 20
119.1890682185062
 30
0.0
 11
158.6847545569512
 21
129.8378906459855
 31
0.0
  0
LINE
  5
46B
330
18
100
AcDbEntity
  8
1
  6
Continuous
100
AcDbLine
 10
160.884754556954
 20
118.1987577970197
 30
0.0
 11
160.884754556951
 21
129.8378906459855
 31
0.0
  0
LINE
  5
46C
330
18
100
AcDbEntity
  8
1
  6
Continuous
100
AcDbLine
 10
159.7847545569532
 20
119.0398078301736
 30
0.0
 11
159.7847545569514
 21
129.8378906459854
 31
0.0
  0
LINE
  5
46D
330
18
100
AcDbEntity
  8
1
  6
Continuous
100
AcDbLine
 10
161.9847545569543
 20
118.0494974089909
 30
0.0
 11
161.9847545569512
 21
129.8378906459857
 31
0.0
  0
ARC
  5
46E
330
18
100
AcDbEntity
  8
1
  6
Continuous
100
AcDbCircle
 10
177.6347645570622
 20
140.8378906458267
 30
0.0
 40
0.5
100
AcDbArc
 50
270.0
 51
0.0
  0
ARC
  5
46F
330
18
100
AcDbEntity
  8
1
  6
Continuous
100
AcDbCircle
 10
169.6347645570626
 20
132.3378906459856
 30
0.0
 40
2.5
100
AcDbArc
 50
270.0
 51
0.0
  0
LINE
  5
470
330
18
100
AcDbEntity
  8
1
  6
Continuous
100
AcDbLine
 10
172.6347645570609
 20
140.3378906458087
 30
0.0
 11
177.6347645570631
 21
140.3378906458268
 31
0.0
  0
ARC
  5
471
330
18
100
AcDbEntity
  8
1
  6
Continuous
100
AcDbCircle
 10
172.6347645570626
 20
139.8378906458087
 30
0.0
 40
0.5
100
AcDbArc
 50
90.0
 51
180.0
  0
LINE
  5
472
330
18
100
AcDbEntity
  8
1
  6
Continuous
100
AcDbLine
 10
176.134764557075
 20
139.8378906459676
 30
0.0
 11
176.6347645570744
 21
140.3378906459701
 31
0.0
  0
LINE
  5
473
330
18
100
AcDbEntity
  8
1
  6
Continuous
100
AcDbLine
 10
176.1347645570753
 20
139.8378906459684
 30
0.0
 11
174.1347645570751
 21
139.8378906459582
 31
0.0
  0
LINE
  5
474
330
18
100
AcDbEntity
  8
1
  6
Continuous
100
AcDbLine
 10
173.6347645570745
 20
140.3378906459549
 30
0.0
 11
174.1347645570751
 21
139.8378906459572
 31
0.0
  0
LINE
  5
478
330
18
100
AcDbEntity
  8
1
  6
Continuous
100
AcDbLine
 10
260.2864114461576
 20
129.8378906459815
 30
0.0
 11
284.286411446156
 21
129.8378906459815
 31
0.0
  0
ARC
  5
479
330
18
100
AcDbEntity
  8
1
  6
Continuous
100
AcDbCircle
 10
265.536411446158
 20
142.8378906458041
 30
0.0
 40
2.5
100
AcDbArc
 50
180.0
 51
270.0
  0
ARC
  5
47A
330
18
100
AcDbEntity
  8
1
  6
Continuous
100
AcDbCircle
 10
260.286411446158
 20
132.3378906459815
 30
0.0
 40
2.5
100
AcDbArc
 50
180.0
 51
270.0
  0
LINE
  5
47B
330
18
100
AcDbEntity
  8
1
  6
Continuous
100
AcDbLine
 10
274.7803104312203
 20
129.8378906459815
 30
0.0
 11
274.7679554462577
 21
124.7752146459584
 31
0.0
  0
LINE
  5
47C
330
18
100
AcDbEntity
  8
1
  6
Continuous
100
AcDbLine
 10
272.1831812260187
 20
142.9568046493763
 30
0.0
 11
268.4131812260296
 21
142.5689237513314
 31
0.0
  0
LINE
  5
47D
330
18
100
AcDbEntity
  8
1
  6
Continuous
100
AcDbLine
 10
268.3896416664653
 20
142.7977159915279
 30
0.0
 11
272.1596416664866
 21
143.1855968892658
 31
0.0
  0
LINE
  5
47E
330
18
100
AcDbEntity
  8
1
  6
Continuous
100
AcDbLine
 10
271.7864114461403
 20
143.2264190161899
 30
0.0
 11
272.1831812260187
 21
143.1855968892658
 31
0.0
  0
LINE
  5
47F
330
18
100
AcDbEntity
  8
1
  6
Continuous
100
AcDbLine
 10
268.4131812259621
 20
143.3446855471592
 30
0.0
 11
272.1831812260183
 21
143.732566445124
 31
0.0
  0
LINE
  5
480
330
18
100
AcDbEntity
  8
1
  6
Continuous
100
AcDbLine
 10
272.1596416664877
 20
143.9613586850134
 30
0.0
 11
268.3896416664122
 21
143.5734777872348
 31
0.0
  0
LINE
  5
481
330
18
100
AcDbEntity
  8
1
  6
Continuous
100
AcDbLine
 10
271.7864114461389
 20
144.0021808119398
 30
0.0
 11
272.1831812260193
 21
143.9613586850134
 31
0.0
  0
LINE
  5
482
330
18
100
AcDbEntity
  8
1
  6
Continuous
100
AcDbLine
 10
272.1831812260183
 20
144.5083282409002
 30
0.0
 11
268.4131812259619
 21
144.1204473429263
 31
0.0
  0
LINE
  5
483
330
18
100
AcDbEntity
  8
1
  6
Continuous
100
AcDbLine
 10
268.3896416664114
 20
144.3492395830021
 30
0.0
 11
272.1596416664872
 21
144.7371204807897
 31
0.0
  0
LINE
  5
484
330
18
100
AcDbEntity
  8
1
  6
Continuous
100
AcDbLine
 10
271.7864114461382
 20
144.7779426077149
 30
0.0
 11
272.1831812260185
 21
144.7371204807894
 31
0.0
  0
LINE
  5
485
330
18
100
AcDbEntity
  8
1
  6
Continuous
100
AcDbLine
 10
272.1831812260182
 20
145.2840900366648
 30
0.0
 11
268.4131812259616
 21
144.8962091386937
 31
0.0
  0
LINE
  5
486
330
18
100
AcDbEntity
  8
1
  6
Continuous
100
AcDbLine
 10
268.3896416664111
 20
145.1250013787695
 30
0.0
 11
272.1596416664867
 21
145.512882276554
 31
0.0
  0
LINE
  5
487
330
18
100
AcDbEntity
  8
1
  6
Continuous
100
AcDbLine
 10
271.7864114461382
 20
145.5537044034796
 30
0.0
 11
272.1831812260187
 21
145.5128822765539
 31
0.0
  0
LINE
  5
488
330
18
100
AcDbEntity
  8
1
  6
Continuous
100
AcDbLine
 10
268.4131812259625
 20
145.6719709344606
 30
0.0
 11
272.1831812260186
 21
146.0598518324411
 31
0.0
  0
LINE
  5
489
330
18
100
AcDbEntity
  8
1
  6
Continuous
100
AcDbLine
 10
272.159641666487
 20
146.2886440723307
 30
0.0
 11
268.3896416664113
 21
145.9007631745366
 31
0.0
  0
LINE
  5
48A
330
18
100
AcDbEntity
  8
1
  6
Continuous
100
AcDbLine
 10
271.7864114461374
 20
146.3294661992555
 30
0.0
 11
272.1831812260183
 21
146.2886440723307
 31
0.0
  0
LINE
  5
48B
330
18
100
AcDbEntity
  8
1
  6
Continuous
100
AcDbLine
 10
268.4131812259625
 20
146.4477327302281
 30
0.0
 11
272.183181226019
 21
146.8356136282179
 31
0.0
  0
LINE
  5
48C
330
18
100
AcDbEntity
  8
1
  6
Continuous
100
AcDbLine
 10
272.1596416664862
 20
147.0644058681067
 30
0.0
 11
268.3896416664105
 21
146.6765249703034
 31
0.0
  0
LINE
  5
48D
330
18
100
AcDbEntity
  8
1
  6
Continuous
100
AcDbLine
 10
271.7864114461375
 20
147.1052279950305
 30
0.0
 11
272.1831812260189
 21
147.0644058681066
 31
0.0
  0
LINE
  5
48E
330
18
100
AcDbEntity
  8
1
  6
Continuous
100
AcDbLine
 10
268.4131812259624
 20
147.2234945259953
 30
0.0
 11
272.1831812260189
 21
147.6113754239819
 31
0.0
  0
LINE
  5
48F
330
18
100
AcDbEntity
  8
1
  6
Continuous
100
AcDbLine
 10
272.1596416664865
 20
147.8401676638715
 30
0.0
 11
268.3896416664105
 21
147.4522867660712
 31
0.0
  0
LINE
  5
490
330
18
100
AcDbEntity
  8
1
  6
Continuous
100
AcDbLine
 10
271.7864114461364
 20
147.8809897907957
 30
0.0
 11
272.1831812260183
 21
147.8401676638715
 31
0.0
  0
LINE
  5
491
330
18
100
AcDbEntity
  8
1
  6
Continuous
100
AcDbLine
 10
268.4132543960756
 20
147.9992638736056
 30
0.0
 11
272.1596416664877
 21
148.3871372197462
 31
0.0
  0
LINE
  5
492
330
18
100
AcDbEntity
  8
1
  6
Continuous
100
AcDbLine
 10
272.1784273612849
 20
142.5676764334717
 30
0.0
 11
271.7864114461403
 21
142.5916371559071
 31
0.0
  0
LINE
  5
493
330
18
100
AcDbEntity
  8
1
  6
Continuous
100
AcDbLine
 10
268.4014114461402
 20
142.5678906462616
 30
0.0
 11
272.171411446163
 21
142.5678906462616
 31
0.0
  0
LINE
  5
494
330
18
100
AcDbEntity
  8
1
  6
Continuous
100
AcDbLine
 10
265.536411446158
 20
140.3378906458041
 30
0.0
 11
275.036411446158
 21
140.3378906458041
 31
0.0
  0
LINE
  5
495
330
18
100
AcDbEntity
  8
1
  6
Continuous
100
AcDbLine
 10
265.536411446158
 20
142.3378906462618
 30
0.0
 11
275.036411446158
 21
142.3378906462618
 31
0.0
  0
ARC
  5
496
330
18
100
AcDbEntity
  8
1
  6
Continuous
100
AcDbCircle
 10
265.536411446158
 20
142.8378906462618
 30
0.0
 40
0.5
100
AcDbArc
 50
180.0
 51
270.0
  0
LINE
  5
497
330
18
100
AcDbEntity
  8
1
  6
Continuous
100
AcDbLine
 10
271.7864114461394
 20
143.9229584534634
 30
0.0
 11
271.7864114461389
 21
144.4675061139757
 31
0.0
  0
LINE
  5
498
330
18
100
AcDbEntity
  8
1
  6
Continuous
100
AcDbLine
 10
271.7864114461395
 20
143.1471966577195
 30
0.0
 11
271.7864114461392
 21
143.6917443182004
 31
0.0
  0
LINE
  5
499
330
18
100
AcDbEntity
  8
1
  6
Continuous
100
AcDbLine
 10
271.78641144614
 20
142.5678906462617
 30
0.0
 11
271.7864114461398
 21
142.9159825224435
 31
0.0
  0
LINE
  5
49A
330
18
100
AcDbEntity
  8
1
  6
Continuous
100
AcDbLine
 10
268.7864114461399
 20
142.5678906462617
 30
0.0
 11
268.7864114461399
 21
142.6073239828841
 31
0.0
  0
LINE
  5
49B
330
18
100
AcDbEntity
  8
1
  6
Continuous
100
AcDbLine
 10
268.7864114461394
 20
142.8385381184073
 30
0.0
 11
268.7864114461389
 21
143.3830857787105
 31
0.0
  0
LINE
  5
49C
330
18
100
AcDbEntity
  8
1
  6
Continuous
100
AcDbLine
 10
268.7864114461392
 20
143.6142999141233
 30
0.0
 11
268.7864114461388
 21
144.1588475744785
 31
0.0
  0
LINE
  5
49D
330
18
100
AcDbEntity
  8
1
  6
Continuous
100
AcDbLine
 10
268.7864114461385
 20
144.3900617098916
 30
0.0
 11
268.7864114461381
 21
144.9346093702455
 31
0.0
  0
LINE
  5
49E
330
18
100
AcDbEntity
  8
1
  6
Continuous
100
AcDbLine
 10
268.786411446138
 20
145.1658235056585
 30
0.0
 11
268.7864114461375
 21
145.7103711660131
 31
0.0
  0
LINE
  5
49F
330
18
100
AcDbEntity
  8
1
  6
Continuous
100
AcDbLine
 10
268.7864114461372
 20
145.9415853014265
 30
0.0
 11
268.7864114461368
 21
146.4861329617816
 31
0.0
  0
LINE
  5
4A0
330
18
100
AcDbEntity
  8
1
  6
Continuous
100
AcDbLine
 10
268.786411446137
 20
146.7173470971947
 30
0.0
 11
268.7864114461365
 21
147.2618947575485
 31
0.0
  0
LINE
  5
4A1
330
18
100
AcDbEntity
  8
1
  6
Continuous
100
AcDbLine
 10
268.7864114461362
 20
147.4931088929616
 30
0.0
 11
268.7864114461357
 21
148.0378978062977
 31
0.0
  0
LINE
  5
4A2
330
18
100
AcDbEntity
  8
1
  6
Continuous
100
AcDbLine
 10
271.7864114461387
 20
144.6987202492389
 30
0.0
 11
271.7864114461383
 21
145.2432679097404
 31
0.0
  0
LINE
  5
4A3
330
18
100
AcDbEntity
  8
1
  6
Continuous
100
AcDbLine
 10
271.7864114461381
 20
145.4744820450034
 30
0.0
 11
271.7864114461377
 21
146.0190297055156
 31
0.0
  0
LINE
  5
4A4
330
18
100
AcDbEntity
  8
1
  6
Continuous
100
AcDbLine
 10
271.7864114461379
 20
146.250243840779
 30
0.0
 11
271.7864114461375
 21
146.7947915012914
 31
0.0
  0
LINE
  5
4A5
330
18
100
AcDbEntity
  8
1
  6
Continuous
100
AcDbLine
 10
271.7864114461372
 20
147.0260056365545
 30
0.0
 11
271.7864114461367
 21
147.5705532970558
 31
0.0
  0
LINE
  5
4A6
330
18
100
AcDbEntity
  8
1
  6
Continuous
100
AcDbLine
 10
271.7864114461362
 20
147.8017674323189
 30
0.0
 11
271.7864114461357
 21
148.3484957115413
 31
0.0
  0
LINE
  5
4A7
330
18
100
AcDbEntity
  8
1
  6
Continuous
100
AcDbLine
 10
268.7864114461397
 20
143.30386342027
 30
0.0
 11
268.3896416664109
 21
143.3446855471589
 31
0.0
  0
LINE
  5
4A8
330
18
100
AcDbEntity
  8
1
  6
Continuous
100
AcDbLine
 10
268.7864114461384
 20
144.0796252160353
 30
0.0
 11
268.3896416664102
 21
144.1204473429262
 31
0.0
  0
LINE
  5
4A9
330
18
100
AcDbEntity
  8
1
  6
Continuous
100
AcDbLine
 10
268.786411446138
 20
144.8553870118036
 30
0.0
 11
268.3896416664105
 21
144.8962091386935
 31
0.0
  0
LINE
  5
4AA
330
18
100
AcDbEntity
  8
1
  6
Continuous
100
AcDbLine
 10
268.786411446138
 20
145.6311488075701
 30
0.0
 11
268.3896416664113
 21
145.6719709344603
 31
0.0
  0
LINE
  5
4AB
330
18
100
AcDbEntity
  8
1
  6
Continuous
100
AcDbLine
 10
268.7864114461372
 20
146.4069106033389
 30
0.0
 11
268.3896416664113
 21
146.4477327302279
 31
0.0
  0
LINE
  5
4AC
330
18
100
AcDbEntity
  8
1
  6
Continuous
100
AcDbLine
 10
268.7864114461365
 20
147.1826723991073
 30
0.0
 11
268.3896416664115
 21
147.2234945259953
 31
0.0
  0
LINE
  5
4AD
330
18
100
AcDbEntity
  8
1
  6
Continuous
100
AcDbLine
 10
268.7864114461357
 20
147.9584341948745
 30
0.0
 11
268.3896416664111
 21
147.9992563217628
 31
0.0
  0
ARC
  5
4AE
330
18
100
AcDbEntity
  8
1
  6
Continuous
100
AcDbCircle
 10
268.4014114461869
 20
143.4590816671971
 30
0.0
 40
0.1149999999812508
100
AcDbArc
 50
95.87427455240975
 51
275.8742745552558
  0
ARC
  5
4AF
330
18
100
AcDbEntity
  8
1
  6
Continuous
100
AcDbCircle
 10
268.4014114461869
 20
144.2348434629643
 30
0.0
 40
0.1149999999812508
100
AcDbArc
 50
95.87427455252267
 51
275.8742745553752
  0
ARC
  5
4B0
330
18
100
AcDbEntity
  8
1
  6
Continuous
100
AcDbCircle
 10
268.4014114461869
 20
145.0106052587316
 30
0.0
 40
0.1149999999812508
100
AcDbArc
 50
95.87427455246624
 51
275.8742745553131
  0
ARC
  5
4B1
330
18
100
AcDbEntity
  8
1
  6
Continuous
100
AcDbCircle
 10
268.4014114461869
 20
145.7863670544986
 30
0.0
 40
0.1149999999812508
100
AcDbArc
 50
95.87427455264057
 51
275.8742745554874
  0
ARC
  5
4B2
330
18
100
AcDbEntity
  8
1
  6
Continuous
100
AcDbCircle
 10
268.4014114461869
 20
146.5621288502659
 30
0.0
 40
0.1149999999812508
100
AcDbArc
 50
95.87427455281
 51
275.8742745555995
  0
ARC
  5
4B3
330
18
100
AcDbEntity
  8
1
  6
Continuous
100
AcDbCircle
 10
268.4014114461869
 20
147.3378906460333
 30
0.0
 40
0.1149999999812508
100
AcDbArc
 50
95.87427455275351
 51
275.874274555543
  0
ARC
  5
4B4
330
18
100
AcDbEntity
  8
1
  6
Continuous
100
AcDbCircle
 10
268.4014114461869
 20
148.1136524418004
 30
0.0
 40
0.1149999999812508
100
AcDbArc
 50
95.87427455269788
 51
275.9109233222551
  0
ARC
  5
4B5
330
18
100
AcDbEntity
  8
1
  6
Continuous
100
AcDbCircle
 10
268.4014114462478
 20
142.6833198714298
 30
0.0
 40
0.1150000000419883
100
AcDbArc
 50
97.12448110350289
 51
277.1244811055617
  0
ARC
  5
4B6
330
18
100
AcDbEntity
  8
1
  6
Continuous
100
AcDbCircle
 10
268.4014114461405
 20
142.4528906462626
 30
0.0
 40
0.1149999999347529
100
AcDbArc
 50
90.0
 51
270.0
  0
LINE
  5
4B7
330
18
100
AcDbEntity
  8
1
  6
Continuous
100
AcDbLine
 10
271.2864114461447
 20
139.8378906458391
 30
0.0
 11
271.7864114461455
 21
140.3378906458429
 31
0.0
  0
LINE
  5
4B8
330
18
100
AcDbEntity
  8
1
  6
Continuous
100
AcDbLine
 10
268.7864114461457
 20
140.3378906458204
 30
0.0
 11
269.286411446145
 21
139.8378906458243
 31
0.0
  0
LINE
  5
4B9
330
18
100
AcDbEntity
  8
1
  6
Continuous
100
AcDbLine
 10
269.2864114461452
 20
139.8378906458239
 30
0.0
 11
271.2864114461452
 21
139.8378906458385
 31
0.0
  0
LINE
  5
4BA
330
18
100
AcDbEntity
  8
1
  6
Continuous
100
AcDbLine
 10
275.9798580465206
 20
129.8378906459815
 30
0.0
 11
275.9679554462575
 21
125.3001286459588
 31
0.0
  0
ARC
  5
4BB
330
18
100
AcDbEntity
  8
1
  6
Continuous
100
AcDbCircle
 10
275.036411446158
 20
142.8378906458041
 30
0.0
 40
2.5
100
AcDbArc
 50
270.0
 51
0.0
  0
ARC
  5
4BC
330
18
100
AcDbEntity
  8
1
  6
Continuous
100
AcDbCircle
 10
272.1714114462529
 20
143.0712007693213
 30
0.0
 40
0.1149999998875728
100
AcDbArc
 50
275.8742745565277
 51
95.87427455186135
  0
ARC
  5
4BD
330
18
100
AcDbEntity
  8
1
  6
Continuous
100
AcDbCircle
 10
272.1714114462529
 20
143.8469625650686
 30
0.0
 40
0.1149999998875728
100
AcDbArc
 50
275.8742745552205
 51
95.87427455237373
  0
ARC
  5
4BE
330
18
100
AcDbEntity
  8
1
  6
Continuous
100
AcDbCircle
 10
272.1714114462529
 20
144.622724360845
 30
0.0
 40
0.1149999998875728
100
AcDbArc
 50
275.87427455539
 51
95.87427455254319
  0
ARC
  5
4BF
330
18
100
AcDbEntity
  8
1
  6
Continuous
100
AcDbCircle
 10
272.1714114462529
 20
145.3984861566093
 30
0.0
 40
0.1149999998875728
100
AcDbArc
 50
275.8742745553326
 51
95.87427455248672
  0
ARC
  5
4C0
330
18
100
AcDbEntity
  8
1
  6
Continuous
100
AcDbCircle
 10
272.1714114462529
 20
146.1742479523859
 30
0.0
 40
0.1149999998875728
100
AcDbArc
 50
275.8742745555021
 51
95.87427455265617
  0
ARC
  5
4C1
330
18
100
AcDbEntity
  8
1
  6
Continuous
100
AcDbCircle
 10
272.1714114462529
 20
146.9500097481625
 30
0.0
 40
0.1149999998875728
100
AcDbArc
 50
275.8742745556208
 51
95.87427455277405
  0
ARC
  5
4C2
330
18
100
AcDbEntity
  8
1
  6
Continuous
100
AcDbCircle
 10
272.1714114462529
 20
147.7257715439266
 30
0.0
 40
0.1149999998875728
100
AcDbArc
 50
275.8742745555642
 51
95.8742745527118
  0
ARC
  5
4C3
330
18
100
AcDbEntity
  8
1
  6
Continuous
100
AcDbCircle
 10
272.1714114461633
 20
142.4528906462644
 30
0.0
 40
0.1150000000420732
100
AcDbArc
 50
270.0
 51
90.0
  0
ARC
  5
4C4
330
18
100
AcDbEntity
  8
1
  6
Continuous
100
AcDbCircle
 10
275.036411446158
 20
142.8378906462618
 30
0.0
 40
0.5
100
AcDbArc
 50
270.0
 51
0.0
  0
LINE
  5
4C5
330
18
100
AcDbEntity
  8
1
  6
Continuous
100
AcDbLine
 10
295.2578524462579
 20
102.3251116459586
 30
0.0
 11
294.1725024462577
 21
101.6360266459586
 31
0.0
  0
LINE
  5
4C6
330
18
100
AcDbEntity
  8
1
  6
Continuous
100
AcDbLine
 10
294.9975224462572
 20
102.1598296459583
 30
0.0
 11
296.1644624462572
 21
100.3967716459583
 31
0.0
  0
LINE
  5
4C7
330
18
100
AcDbEntity
  8
1
  6
Continuous
100
AcDbLine
 10
295.636284446258
 20
100.0712966459588
 30
0.0
 11
296.1644624462578
 21
100.3967716459589
 31
0.0
  0
LINE
  5
4C8
330
18
100
AcDbEntity
  8
1
  6
Continuous
100
AcDbLine
 10
294.4660784462577
 20
101.8224176459587
 30
0.0
 11
295.6362844462576
 21
100.0712966459587
 31
0.0
  0
ARC
  5
4CA
330
18
100
AcDbEntity
  8
1
  6
Continuous
100
AcDbCircle
 10
284.286411446156
 20
132.3378906459815
 30
0.0
 40
2.5
100
AcDbArc
 50
270.0
 51
0.0
  0
LINE
  5
4CB
330
18
100
AcDbEntity
  8
1
  6
Continuous
100
AcDbLine
 10
300.070481446258
 20
105.4285296459586
 30
0.0
 11
300.501170446258
 21
105.8750866459585
 31
0.0
  0
LINE
  5
4CC
330
18
100
AcDbEntity
  8
1
  6
Continuous
100
AcDbLine
 10
299.1438764462577
 20
107.5177566459586
 30
0.0
 11
298.2634564462582
 21
106.5800306459584
 31
0.0
  0
LINE
  5
4CD
330
18
100
AcDbEntity
  8
1
  6
Continuous
100
AcDbLine
 10
298.9325864462577
 20
107.2927136459583
 30
0.0
 11
300.5011704462579
 21
105.8750866459583
 31
0.0
  0
LINE
  5
4CE
330
18
100
AcDbEntity
  8
1
  6
Continuous
100
AcDbLine
 10
300.0704814462578
 20
105.4285296459586
 30
0.0
 11
298.5017024462578
 21
106.8337826459586
 31
0.0
  0
LINE
  5
4D1
330
18
100
AcDbEntity
  8
1
  6
Continuous
100
AcDbLine
 10
169.6347645570626
 20
160.3378906459189
 30
0.0
 11
148.1347645570628
 21
160.3378906459189
 31
0.0
  0
LINE
  5
4D2
330
18
100
AcDbEntity
  8
1
  6
Continuous
100
AcDbLine
 10
169.6347645570626
 20
185.337890645919
 30
0.0
 11
148.1347645570628
 21
185.337890645919
 31
0.0
  0
LINE
  5
4D3
330
18
100
AcDbEntity
  8
1
  6
Continuous
100
AcDbLine
 10
169.6347645570626
 20
201.8378906459854
 30
0.0
 11
148.1347645570626
 21
201.8378906459854
 31
0.0
  0
LINE
  5
4D5
330
18
100
AcDbEntity
  8
1
  6
Continuous
100
AcDbLine
 10
141.8347655569619
 20
183.8378906459623
 30
0.0
 11
141.8347655569619
 21
161.8378906459623
 31
0.0
  0
LINE
  5
4D7
330
18
100
AcDbEntity
  8
1
  6
Continuous
100
AcDbLine
 10
141.8347655569619
 20
164.9378906459625
 30
0.0
 11
146.134765556962
 21
164.9378906459625
 31
0.0
  0
LINE
  5
4DC
330
18
100
AcDbEntity
  8
1
  6
Continuous
100
AcDbLine
 10
141.8347655569619
 20
180.7378906459624
 30
0.0
 11
146.134765556962
 21
180.7378906459624
 31
0.0
  0
ARC
  5
4E2
330
18
100
AcDbEntity
  8
1
  6
Continuous
100
AcDbCircle
 10
177.6347645570622
 20
160.3378906458249
 30
0.0
 40
0.5
100
AcDbArc
 50
0.0
 51
90.0
  0
ARC
  5
4E3
330
18
100
AcDbEntity
  8
1
  6
Continuous
100
AcDbCircle
 10
169.6347645570626
 20
162.8378906459189
 30
0.0
 40
2.5
100
AcDbArc
 50
270.0
 51
0.0
  0
LINE
  5
4E4
330
18
100
AcDbEntity
  8
1
  6
Continuous
100
AcDbLine
 10
172.634764557064
 20
160.8378906458098
 30
0.0
 11
177.6347645570631
 21
160.8378906458256
 31
0.0
  0
ARC
  5
4E5
330
18
100
AcDbEntity
  8
1
  6
Continuous
100
AcDbCircle
 10
172.6347645570626
 20
161.3378906458093
 30
0.0
 40
0.5
100
AcDbArc
 50
180.0
 51
270.0
  0
LINE
  5
4E6
330
18
100
AcDbEntity
  8
1
  6
Continuous
100
AcDbLine
 10
176.1347645570594
 20
163.8378906459349
 30
0.0
 11
176.6347645570595
 21
163.3378906459303
 31
0.0
  0
LINE
  5
4E7
330
18
100
AcDbEntity
  8
1
  6
Continuous
100
AcDbLine
 10
176.6347645570595
 20
160.8378906458224
 30
0.0
 11
176.6347645570595
 21
163.3378906459297
 31
0.0
  0
LINE
  5
4E8
330
18
100
AcDbEntity
  8
1
  6
Continuous
100
AcDbLine
 10
174.1347645570598
 20
163.8378906459528
 30
0.0
 11
176.13476455706
 21
163.837890645935
 31
0.0
  0
LINE
  5
4E9
330
18
100
AcDbEntity
  8
1
  6
Continuous
100
AcDbLine
 10
173.6347645570599
 20
163.3378906459572
 30
0.0
 11
176.6347645570599
 21
163.3378906459572
 31
0.0
  0
LINE
  5
4EA
330
18
100
AcDbEntity
  8
1
  6
Continuous
100
AcDbLine
 10
173.6347645570595
 20
163.3378906459575
 30
0.0
 11
174.1347645570594
 21
163.8378906459531
 31
0.0
  0
LINE
  5
4EB
330
18
100
AcDbEntity
  8
1
  6
Continuous
100
AcDbLine
 10
173.6347645570596
 20
160.8378906458128
 30
0.0
 11
173.6347645570596
 21
163.3378906459571
 31
0.0
  0
ARC
  5
4EC
330
18
100
AcDbEntity
  8
1
  6
Continuous
100
AcDbCircle
 10
177.6347645570562
 20
153.3378906459685
 30
0.0
 40
1.0
100
AcDbArc
 50
300.0000000003637
 51
0.0
  0
ARC
  5
4ED
330
18
100
AcDbEntity
  8
1
  6
Continuous
100
AcDbCircle
 10
177.6347645570644
 20
156.3378906459685
 30
0.0
 40
1.0
100
AcDbArc
 50
0.0
 51
60.00000000017933
  0
LINE
  5
4EE
330
18
100
AcDbEntity
  8
1
  6
Continuous
100
AcDbLine
 10
178.6347645570639
 20
156.3378906459667
 30
0.0
 11
178.6347645570558
 21
153.3378906459663
 31
0.0
  0
ARC
  5
4EF
330
18
100
AcDbEntity
  8
1
  6
Continuous
100
AcDbCircle
 10
169.6347645570626
 20
182.8378906459188
 30
0.0
 40
2.5
100
AcDbArc
 50
0.0
 51
90.0
  0
ARC
  5
4F0
330
18
100
AcDbEntity
  8
1
  6
Continuous
100
AcDbCircle
 10
169.6347645570626
 20
199.3378906459854
 30
0.0
 40
2.5
100
AcDbArc
 50
0.0
 51
90.0
  0
LINE
  5
4F1
330
18
100
AcDbEntity
  8
1
  6
Continuous
100
AcDbLine
 10
260.2864114461576
 20
201.8378906459814
 30
0.0
 11
284.2864114461605
 21
201.8378906459814
 31
0.0
  0
ARC
  5
4F2
330
18
100
AcDbEntity
  8
1
  6
Continuous
100
AcDbCircle
 10
270.2864114461732
 20
188.1712801834263
 30
0.0
 40
7.166580352953972
100
AcDbArc
 50
54.46232220799902
 51
125.5376777920009
  0
LINE
  5
4F3
330
18
100
AcDbEntity
  8
1
  6
Continuous
100
AcDbLine
 10
257.7864114461576
 20
199.3378906459814
 30
0.0
 11
257.7864114461576
 21
185.8378906459811
 31
0.0
  0
ARC
  5
4F6
330
18
100
AcDbEntity
  8
1
  6
Continuous
100
AcDbCircle
 10
265.536411446158
 20
158.3378906458045
 30
0.0
 40
2.5
100
AcDbArc
 50
90.0
 51
180.0
  0
LINE
  5
4F7
330
18
100
AcDbEntity
  8
1
  6
Continuous
100
AcDbLine
 10
253.786411446158
 20
162.8378906459813
 30
0.0
 11
253.7864114461594
 21
182.8378906459814
 31
0.0
  0
ARC
  5
4F8
330
18
100
AcDbEntity
  8
1
  6
Continuous
100
AcDbCircle
 10
256.2864114461576
 20
162.8378906459811
 30
0.0
 40
2.5
100
AcDbArc
 50
180.0
 51
270.0
  0
ARC
  5
4F9
330
18
100
AcDbEntity
  8
1
  6
Continuous
100
AcDbCircle
 10
257.286411446158
 20
159.8378906459811
 30
0.0
 40
0.5
100
AcDbArc
 50
0.0
 51
90.0
  0
LINE
  5
4FA
330
18
100
AcDbEntity
  8
1
  6
Continuous
100
AcDbLine
 10
256.2864114461576
 20
160.3378906459811
 30
0.0
 11
257.286411446158
 21
160.3378906459811
 31
0.0
  0
ARC
  5
4FB
330
18
100
AcDbEntity
  8
1
  6
Continuous
100
AcDbCircle
 10
256.2864114461591
 20
182.8378906459814
 30
0.0
 40
2.5
100
AcDbArc
 50
90.0
 51
180.0
  0
ARC
  5
4FC
330
18
100
AcDbEntity
  8
1
  6
Continuous
100
AcDbCircle
 10
257.2864114461576
 20
185.8378906459811
 30
0.0
 40
0.5
100
AcDbArc
 50
270.0
 51
0.0
  0
LINE
  5
4FD
330
18
100
AcDbEntity
  8
1
  6
Continuous
100
AcDbLine
 10
256.2864114461591
 20
185.3378906459814
 30
0.0
 11
257.2864114461576
 21
185.3378906459814
 31
0.0
  0
LINE
  5
4FE
330
18
100
AcDbEntity
  8
1
  6
Continuous
100
AcDbLine
 10
270.2864114473843
 20
166.8378906459815
 30
0.0
 11
275.2864114473842
 21
171.8378906459814
 31
0.0
  0
LINE
  5
4FF
330
18
100
AcDbEntity
  8
1
  6
Continuous
100
AcDbLine
 10
270.2864114473842
 20
166.8378906459812
 30
0.0
 11
265.2864114473842
 21
171.8378906459811
 31
0.0
  0
LINE
  5
500
330
18
100
AcDbEntity
  8
1
  6
Continuous
100
AcDbLine
 10
265.536411446158
 20
152.3378906458048
 30
0.0
 11
275.036411446158
 21
152.3378906458048
 31
0.0
  0
LINE
  5
501
330
18
100
AcDbEntity
  8
1
  6
Continuous
100
AcDbLine
 10
271.7864114461357
 20
148.6567515865604
 30
0.0
 11
272.1831812260187
 21
148.6159294596357
 31
0.0
  0
LINE
  5
502
330
18
100
AcDbEntity
  8
1
  6
Continuous
100
AcDbLine
 10
268.413181225962
 20
148.77501811753
 30
0.0
 11
272.1831812260183
 21
149.1628990154939
 31
0.0
  0
LINE
  5
503
330
18
100
AcDbEntity
  8
1
  6
Continuous
100
AcDbLine
 10
272.1596416664877
 20
149.3916912553834
 30
0.0
 11
268.3896416664121
 21
149.0038103576057
 31
0.0
  0
LINE
  5
504
330
18
100
AcDbEntity
  8
1
  6
Continuous
100
AcDbLine
 10
271.7864114461355
 20
149.4325133823099
 30
0.0
 11
272.1831812260195
 21
149.391691255383
 31
0.0
  0
LINE
  5
505
330
18
100
AcDbEntity
  8
1
  6
Continuous
100
AcDbLine
 10
268.4131812259622
 20
149.5507799132971
 30
0.0
 11
272.1831812260187
 21
149.9386608112705
 31
0.0
  0
LINE
  5
506
330
18
100
AcDbEntity
  8
1
  6
Continuous
100
AcDbLine
 10
272.1596416664866
 20
150.1674530511595
 30
0.0
 11
268.3896416664109
 21
149.7795721533727
 31
0.0
  0
LINE
  5
507
330
18
100
AcDbEntity
  8
1
  6
Continuous
100
AcDbLine
 10
271.7864114461345
 20
150.2082751780854
 30
0.0
 11
272.183181226019
 21
150.1674530511595
 31
0.0
  0
LINE
  5
508
330
18
100
AcDbEntity
  8
1
  6
Continuous
100
AcDbLine
 10
268.4131812259618
 20
150.3265417090644
 30
0.0
 11
272.1831812260183
 21
150.7144226070348
 31
0.0
  0
LINE
  5
509
330
18
100
AcDbEntity
  8
1
  6
Continuous
100
AcDbLine
 10
272.1596416664874
 20
150.9432148469238
 30
0.0
 11
268.3896416664118
 21
150.55533394914
 31
0.0
  0
LINE
  5
50A
330
18
100
AcDbEntity
  8
1
  6
Continuous
100
AcDbLine
 10
271.7864114461345
 20
150.9840369738505
 30
0.0
 11
272.183181226019
 21
150.9432148469242
 31
0.0
  0
LINE
  5
50B
330
18
100
AcDbEntity
  8
1
  6
Continuous
100
AcDbLine
 10
272.1831812260179
 20
151.7189766427003
 30
0.0
 11
271.786411446133
 21
151.7597987696252
 31
0.0
  0
LINE
  5
50C
330
18
100
AcDbEntity
  8
1
  6
Continuous
100
AcDbLine
 10
268.4131812259624
 20
151.1023035048316
 30
0.0
 11
272.1831812260186
 21
151.4901844028112
 31
0.0
  0
LINE
  5
50D
330
18
100
AcDbEntity
  8
1
  6
Continuous
100
AcDbLine
 10
272.1596416664865
 20
151.7189766427006
 30
0.0
 11
268.3896416664111
 21
151.3310957449074
 31
0.0
  0
LINE
  5
50E
330
18
100
AcDbEntity
  8
1
  6
Continuous
100
AcDbLine
 10
272.1784273613702
 20
152.1081048586781
 30
0.0
 11
268.4084273613045
 21
151.8776756334947
 31
0.0
  0
LINE
  5
50F
330
18
100
AcDbEntity
  8
1
  6
Continuous
100
AcDbLine
 10
268.3943955310697
 20
152.1072472077785
 30
0.0
 11
272.1643955311359
 21
152.337676432962
 31
0.0
  0
LINE
  5
510
330
18
100
AcDbEntity
  8
1
  6
Continuous
100
AcDbLine
 10
267.2864114461732
 20
157.3878906459343
 30
0.0
 11
273.2864114461732
 21
157.3878906459343
 31
0.0
  0
LINE
  5
511
330
18
100
AcDbEntity
  8
1
  6
Continuous
100
AcDbLine
 10
267.2864114461732
 20
157.7878906459341
 30
0.0
 11
273.2864114461732
 21
157.7878906459341
 31
0.0
  0
LINE
  5
512
330
18
100
AcDbEntity
  8
1
  6
Continuous
100
AcDbLine
 10
266.2864114461695
 20
157.3378906459347
 30
0.0
 11
274.28641144617
 21
157.3378906459347
 31
0.0
  0
LINE
  5
513
330
18
100
AcDbEntity
  8
1
  6
Continuous
100
AcDbLine
 10
265.536411446158
 20
160.8378906458045
 30
0.0
 11
275.036411446158
 21
160.8378906458045
 31
0.0
  0
LINE
  5
514
330
18
100
AcDbEntity
  8
1
  6
Continuous
100
AcDbLine
 10
265.5364114461576
 20
158.8378906458155
 30
0.0
 11
275.036411446158
 21
158.8378906458155
 31
0.0
  0
LINE
  5
515
330
18
100
AcDbEntity
  8
1
  6
Continuous
100
AcDbLine
 10
267.2864114461732
 20
157.3878906459342
 30
0.0
 11
267.2864114461732
 21
157.7878906459341
 31
0.0
  0
LINE
  5
516
330
18
100
AcDbEntity
  8
1
  6
Continuous
100
AcDbLine
 10
266.2864114461695
 20
156.8378906459347
 30
0.0
 11
266.78641144617
 21
156.8378906459347
 31
0.0
  0
ARC
  5
517
330
18
100
AcDbEntity
  8
1
  6
Continuous
100
AcDbCircle
 10
266.2864114461695
 20
156.3378906459347
 30
0.0
 40
1.0
100
AcDbArc
 50
90.0
 51
180.0
  0
ARC
  5
518
330
18
100
AcDbEntity
  8
1
  6
Continuous
100
AcDbCircle
 10
266.2864114461695
 20
156.3378906459347
 30
0.0
 40
0.5
100
AcDbArc
 50
90.0
 51
180.0
  0
LINE
  5
519
330
18
100
AcDbEntity
  8
1
  6
Continuous
100
AcDbLine
 10
265.2864114461695
 20
154.8378906459347
 30
0.0
 11
265.7864114461695
 21
154.8378906459347
 31
0.0
  0
LINE
  5
51A
330
18
100
AcDbEntity
  8
1
  6
Continuous
100
AcDbLine
 10
266.78641144617
 20
157.3378906459347
 30
0.0
 11
266.78641144617
 21
152.3378906459353
 31
0.0
  0
LINE
  5
51B
330
18
100
AcDbEntity
  8
1
  6
Continuous
100
AcDbLine
 10
265.7864114461695
 20
156.3378906459347
 30
0.0
 11
265.7864114461695
 21
154.8378906459347
 31
0.0
  0
LINE
  5
51C
330
18
100
AcDbEntity
  8
1
  6
Continuous
100
AcDbLine
 10
265.2864114461695
 20
156.3378906459347
 30
0.0
 11
265.2864114461695
 21
154.8378906459347
 31
0.0
  0
ARC
  5
51D
330
18
100
AcDbEntity
  8
1
  6
Continuous
100
AcDbCircle
 10
265.536411446158
 20
152.8378906458048
 30
0.0
 40
0.5
100
AcDbArc
 50
180.0
 51
270.0
  0
ARC
  5
51E
330
18
100
AcDbEntity
  8
1
  6
Continuous
100
AcDbCircle
 10
265.536411446158
 20
158.3378906458154
 30
0.0
 40
0.5
100
AcDbArc
 50
90.0
 51
180.0
  0
LINE
  5
51F
330
18
100
AcDbEntity
  8
1
  6
Continuous
100
AcDbLine
 10
268.786411446164
 20
157.8378906459349
 30
0.0
 11
268.786411446164
 21
158.8378906458155
 31
0.0
  0
LINE
  5
520
330
18
100
AcDbEntity
  8
1
  6
Continuous
100
AcDbLine
 10
271.7864114461643
 20
157.8378906459349
 30
0.0
 11
271.7864114461642
 21
158.8378906458155
 31
0.0
  0
LINE
  5
521
330
18
100
AcDbEntity
  8
1
  6
Continuous
100
AcDbLine
 10
268.786411446164
 20
157.8378906459349
 30
0.0
 11
271.7864114461643
 21
157.8378906459349
 31
0.0
  0
LINE
  5
522
330
18
100
AcDbEntity
  8
1
  6
Continuous
100
AcDbLine
 10
268.7864114461642
 20
152.1312079302117
 30
0.0
 11
268.7864114461642
 21
152.3378906458048
 31
0.0
  0
LINE
  5
523
330
18
100
AcDbEntity
  8
1
  6
Continuous
100
AcDbLine
 10
271.786411446136
 20
148.5775292280836
 30
0.0
 11
271.7864114461355
 21
149.12207688857
 31
0.0
  0
LINE
  5
524
330
18
100
AcDbEntity
  8
1
  6
Continuous
100
AcDbLine
 10
271.7864114461354
 20
149.3532910238332
 30
0.0
 11
271.7864114461349
 21
149.8978386843454
 31
0.0
  0
LINE
  5
525
330
18
100
AcDbEntity
  8
1
  6
Continuous
100
AcDbLine
 10
271.7864114461351
 20
150.1290528196085
 30
0.0
 11
271.7864114461347
 21
150.6736004801099
 31
0.0
  0
LINE
  5
526
330
18
100
AcDbEntity
  8
1
  6
Continuous
100
AcDbLine
 10
271.7864114461345
 20
150.9048146153729
 30
0.0
 11
271.7864114461341
 21
151.4493622758853
 31
0.0
  0
LINE
  5
527
330
18
100
AcDbEntity
  8
1
  6
Continuous
100
AcDbLine
 10
268.7864114461351
 20
149.0446324844937
 30
0.0
 11
268.7864114461347
 21
149.5891801448486
 31
0.0
  0
LINE
  5
528
330
18
100
AcDbEntity
  8
1
  6
Continuous
100
AcDbLine
 10
268.7864114461345
 20
149.8203942802616
 30
0.0
 11
268.7864114461341
 21
150.3649419406154
 31
0.0
  0
LINE
  5
529
330
18
100
AcDbEntity
  8
1
  6
Continuous
100
AcDbLine
 10
268.7864114461343
 20
150.5961560760284
 30
0.0
 11
268.7864114461337
 21
151.1407037363836
 31
0.0
  0
LINE
  5
52A
330
18
100
AcDbEntity
  8
1
  6
Continuous
100
AcDbLine
 10
268.7864114461333
 20
151.3719178717969
 30
0.0
 11
268.786411446133
 21
151.900778705059
 31
0.0
  0
LINE
  5
52B
330
18
100
AcDbEntity
  8
1
  6
Continuous
100
AcDbLine
 10
271.7864114461334
 20
151.6805764111486
 30
0.0
 11
271.786411446133
 21
152.0841441362362
 31
0.0
  0
LINE
  5
52C
330
18
100
AcDbEntity
  8
1
  6
Continuous
100
AcDbLine
 10
268.786411446136
 20
148.7341959906411
 30
0.0
 11
268.3896416664122
 21
148.7750181175296
 31
0.0
  0
LINE
  5
52D
330
18
100
AcDbEntity
  8
1
  6
Continuous
100
AcDbLine
 10
268.7864114461345
 20
149.5099577864063
 30
0.0
 11
268.3896416664107
 21
149.5507799132968
 31
0.0
  0
LINE
  5
52E
330
18
100
AcDbEntity
  8
1
  6
Continuous
100
AcDbLine
 10
268.7864114461341
 20
150.285719582175
 30
0.0
 11
268.3896416664105
 21
150.3265417090645
 31
0.0
  0
LINE
  5
52F
330
18
100
AcDbEntity
  8
1
  6
Continuous
100
AcDbLine
 10
268.7864114461333
 20
151.061481377942
 30
0.0
 11
268.3896416664105
 21
151.1023035048318
 31
0.0
  0
LINE
  5
530
330
18
100
AcDbEntity
  8
1
  6
Continuous
100
AcDbLine
 10
268.389641666412
 20
151.8780653006027
 30
0.0
 11
268.7864114461332
 21
151.8372431737136
 31
0.0
  0
ARC
  5
531
330
18
100
AcDbEntity
  8
1
  6
Continuous
100
AcDbCircle
 10
268.4014114461869
 20
148.8894142375676
 30
0.0
 40
0.1149999999812508
100
AcDbArc
 50
95.87427455240975
 51
275.8742745552
  0
ARC
  5
532
330
18
100
AcDbEntity
  8
1
  6
Continuous
100
AcDbCircle
 10
268.4014114461869
 20
149.665176033335
 30
0.0
 40
0.1149999999812508
100
AcDbArc
 50
95.87427455252267
 51
275.8742745553752
  0
ARC
  5
533
330
18
100
AcDbEntity
  8
1
  6
Continuous
100
AcDbCircle
 10
268.4014114461869
 20
150.4409378291022
 30
0.0
 40
0.1149999999812508
100
AcDbArc
 50
95.87427455246624
 51
275.8742745553131
  0
ARC
  5
534
330
18
100
AcDbEntity
  8
1
  6
Continuous
100
AcDbCircle
 10
268.4014114461869
 20
151.2166996248695
 30
0.0
 40
0.1149999999812508
100
AcDbArc
 50
95.87427455264057
 51
275.8742745554874
  0
ARC
  5
535
330
18
100
AcDbEntity
  8
1
  6
Continuous
100
AcDbCircle
 10
268.4014114461869
 20
151.9924614206368
 30
0.0
 40
0.11499999997699
100
AcDbArc
 50
93.497670481657
 51
273.497670481657
  0
CIRCLE
  5
536
330
18
100
AcDbEntity
  8
1
  6
Continuous
100
AcDbCircle
 10
268.4014114462824
 20
152.2228906458067
 30
0.0
 40
0.1149999999903457
  0
LINE
  5
537
330
18
100
AcDbEntity
  8
1
  6
Continuous
100
AcDbLine
 10
269.0364114461725
 20
157.8378906459349
 30
0.0
 11
269.0364114461725
 21
157.7878906459343
 31
0.0
  0
LINE
  5
538
330
18
100
AcDbEntity
  8
1
  6
Continuous
100
AcDbLine
 10
269.0364114461721
 20
157.3878906459344
 30
0.0
 11
269.0364114461721
 21
157.3378906459349
 31
0.0
  0
LINE
  5
539
330
18
100
AcDbEntity
  8
1
  6
Continuous
100
AcDbLine
 10
271.5364114461725
 20
157.8378906459349
 30
0.0
 11
271.5364114461725
 21
157.7878906459341
 31
0.0
  0
LINE
  5
53A
330
18
100
AcDbEntity
  8
1
  6
Continuous
100
AcDbLine
 10
271.5364114461721
 20
157.3878906459344
 30
0.0
 11
271.5364114461721
 21
157.3378906459349
 31
0.0
  0
LINE
  5
53B
330
18
100
AcDbEntity
  8
1
  6
Continuous
100
AcDbLine
 10
268.786411446164
 20
160.8378906458045
 30
0.0
 11
268.7864114461639
 21
163.3378906459236
 31
0.0
  0
LINE
  5
53C
330
18
100
AcDbEntity
  8
1
  6
Continuous
100
AcDbLine
 10
271.7864114461642
 20
160.8378906458045
 30
0.0
 11
271.7864114461641
 21
163.3378906458966
 31
0.0
  0
LINE
  5
53D
330
18
100
AcDbEntity
  8
1
  6
Continuous
100
AcDbLine
 10
268.7864114461638
 20
163.3378906459235
 30
0.0
 11
271.7864114461638
 21
163.3378906459235
 31
0.0
  0
LINE
  5
53E
330
18
100
AcDbEntity
  8
1
  6
Continuous
100
AcDbLine
 10
271.2864114461635
 20
163.8378906459009
 30
0.0
 11
271.7864114461637
 21
163.3378906458963
 31
0.0
  0
LINE
  5
53F
330
18
100
AcDbEntity
  8
1
  6
Continuous
100
AcDbLine
 10
268.7864114461638
 20
163.3378906459236
 30
0.0
 11
269.2864114461638
 21
163.837890645919
 31
0.0
  0
LINE
  5
540
330
18
100
AcDbEntity
  8
1
  6
Continuous
100
AcDbLine
 10
269.2864114461641
 20
163.8378906459193
 30
0.0
 11
271.2864114461641
 21
163.8378906459015
 31
0.0
  0
ARC
  5
541
330
18
100
AcDbEntity
  8
1
  6
Continuous
100
AcDbCircle
 10
275.036411446158
 20
158.3378906458045
 30
0.0
 40
2.5
100
AcDbArc
 50
0.0
 51
90.0
  0
ARC
  5
542
330
18
100
AcDbEntity
  8
1
  6
Continuous
100
AcDbCircle
 10
272.1714114462529
 20
149.2772951354386
 30
0.0
 40
0.1149999998875728
100
AcDbArc
 50
275.8742745552205
 51
95.87427455237373
  0
ARC
  5
543
330
18
100
AcDbEntity
  8
1
  6
Continuous
100
AcDbCircle
 10
272.1714114462529
 20
150.0530569312149
 30
0.0
 40
0.1149999998875728
100
AcDbArc
 50
275.87427455539
 51
95.87427455254319
  0
ARC
  5
544
330
18
100
AcDbEntity
  8
1
  6
Continuous
100
AcDbCircle
 10
272.1714114462529
 20
150.8288187269793
 30
0.0
 40
0.1149999998875728
100
AcDbArc
 50
275.8742745553326
 51
95.87427455248672
  0
ARC
  5
545
330
18
100
AcDbEntity
  8
1
  6
Continuous
100
AcDbCircle
 10
272.1714114462529
 20
151.6045805227559
 30
0.0
 40
0.1149999998875728
100
AcDbArc
 50
275.8742745554457
 51
95.87427455259968
  0
ARC
  5
546
330
18
100
AcDbEntity
  8
1
  6
Continuous
100
AcDbCircle
 10
272.1714114462529
 20
152.2228906458199
 30
0.0
 40
0.1149999999770444
100
AcDbArc
 50
273.4976704816529
 51
93.49767048165295
  0
LINE
  5
547
330
18
100
AcDbEntity
  8
1
  6
Continuous
100
AcDbLine
 10
273.2864114461732
 20
157.3878906459342
 30
0.0
 11
273.2864114461732
 21
157.7878906459341
 31
0.0
  0
LINE
  5
548
330
18
100
AcDbEntity
  8
1
  6
Continuous
100
AcDbLine
 10
273.7864114461695
 20
156.8378906459347
 30
0.0
 11
274.28641144617
 21
156.8378906459347
 31
0.0
  0
ARC
  5
549
330
18
100
AcDbEntity
  8
1
  6
Continuous
100
AcDbCircle
 10
274.28641144617
 20
156.3378906459347
 30
0.0
 40
1.0
100
AcDbArc
 50
0.0
 51
90.0
  0
ARC
  5
54A
330
18
100
AcDbEntity
  8
1
  6
Continuous
100
AcDbCircle
 10
274.28641144617
 20
156.3378906459347
 30
0.0
 40
0.5
100
AcDbArc
 50
0.0
 51
90.0
  0
LINE
  5
54B
330
18
100
AcDbEntity
  8
1
  6
Continuous
100
AcDbLine
 10
274.78641144617
 20
154.8378906459353
 30
0.0
 11
275.28641144617
 21
154.8378906459353
 31
0.0
  0
LINE
  5
54C
330
18
100
AcDbEntity
  8
1
  6
Continuous
100
AcDbLine
 10
273.7864114461695
 20
157.3378906459347
 30
0.0
 11
273.7864114461695
 21
152.3378906459347
 31
0.0
  0
LINE
  5
54D
330
18
100
AcDbEntity
  8
1
  6
Continuous
100
AcDbLine
 10
275.28641144617
 20
156.3378906459347
 30
0.0
 11
275.28641144617
 21
154.8378906459353
 31
0.0
  0
LINE
  5
54E
330
18
100
AcDbEntity
  8
1
  6
Continuous
100
AcDbLine
 10
274.78641144617
 20
156.3378906459347
 30
0.0
 11
274.78641144617
 21
154.8378906459353
 31
0.0
  0
ARC
  5
54F
330
18
100
AcDbEntity
  8
1
  6
Continuous
100
AcDbCircle
 10
275.036411446158
 20
152.8378906458048
 30
0.0
 40
0.5
100
AcDbArc
 50
270.0
 51
0.0
  0
ARC
  5
550
330
18
100
AcDbEntity
  8
1
  6
Continuous
100
AcDbCircle
 10
275.036411446158
 20
158.3378906458154
 30
0.0
 40
0.5
100
AcDbArc
 50
0.0
 51
90.0
  0
ARC
  5
551
330
18
100
AcDbEntity
  8
1
  6
Continuous
100
AcDbCircle
 10
270.2864114461732
 20
197.5045011082034
 30
0.0
 40
7.166580352953972
100
AcDbArc
 50
234.4623222080521
 51
305.5376777919478
  0
LINE
  5
552
330
18
100
AcDbEntity
  8
1
  6
Continuous
100
AcDbLine
 10
267.7864114473838
 20
176.8378906459814
 30
0.0
 11
272.7864114473838
 21
176.8378906459814
 31
0.0
  0
LINE
  5
553
330
18
100
AcDbEntity
  8
1
  6
Continuous
100
AcDbLine
 10
265.2864114473835
 20
171.8378906459816
 30
0.0
 11
267.7864114473838
 21
171.8378906459816
 31
0.0
  0
LINE
  5
554
330
18
100
AcDbEntity
  8
1
  6
Continuous
100
AcDbLine
 10
267.7864114473838
 20
176.8378906459814
 30
0.0
 11
267.7864114473838
 21
171.8378906459816
 31
0.0
  0
ARC
  5
555
330
18
100
AcDbEntity
  8
1
  6
Continuous
100
AcDbCircle
 10
267.5086671233229
 20
191.8129036685124
 30
0.0
 40
0.2777744322850376
100
AcDbArc
 50
180.0
 51
243.9856340003635
  0
ARC
  5
556
330
18
100
AcDbEntity
  8
1
  6
Continuous
100
AcDbCircle
 10
270.2864114461732
 20
197.5045011082034
 30
0.0
 40
6.611031488383896
100
AcDbArc
 50
243.9856340003635
 51
247.0560464434622
  0
ARC
  5
557
330
18
100
AcDbEntity
  8
1
  6
Continuous
100
AcDbCircle
 10
267.730886669151
 20
191.4676503901189
 30
0.0
 40
0.0555548864570075
100
AcDbArc
 50
247.0560464434622
 51
0.0
  0
LINE
  5
558
330
18
100
AcDbEntity
  8
1
  6
Continuous
100
AcDbLine
 10
267.7864415556079
 20
194.2081309015105
 30
0.0
 11
267.7864415556079
 21
191.4676503901189
 31
0.0
  0
ARC
  5
559
330
18
100
AcDbEntity
  8
1
  6
Continuous
100
AcDbCircle
 10
267.730886669151
 20
194.2081309015105
 30
0.0
 40
0.0555548864570075
100
AcDbArc
 50
0.0
 51
112.9439535565377
  0
ARC
  5
55A
330
18
100
AcDbEntity
  8
1
  6
Continuous
100
AcDbCircle
 10
270.2864114461732
 20
188.1712801834263
 30
0.0
 40
6.611031488383896
100
AcDbArc
 50
112.9439535565377
 51
116.0143659996364
  0
ARC
  5
55B
330
18
100
AcDbEntity
  8
1
  6
Continuous
100
AcDbCircle
 10
267.5086671233229
 20
193.8628776231173
 30
0.0
 40
0.2777744322850376
100
AcDbArc
 50
116.0143659996364
 51
180.0
  0
LINE
  5
55C
330
18
100
AcDbEntity
  8
1
  6
Continuous
100
AcDbLine
 10
267.2308926910379
 20
191.8129036685124
 30
0.0
 11
267.2308926910379
 21
193.8628776231173
 31
0.0
  0
LINE
  5
55D
330
18
100
AcDbEntity
  8
1
  6
Continuous
100
AcDbLine
 10
266.6753438264676
 20
194.3616004175708
 30
0.0
 11
266.6753438264676
 21
191.9668185616576
 31
0.0
  0
ARC
  5
55E
330
18
100
AcDbEntity
  8
1
  6
Continuous
100
AcDbCircle
 10
266.9531182587529
 20
192.8378906458102
 30
0.0
 40
1.431765911236078
100
AcDbArc
 50
180.0
 51
234.4623222080521
  0
ARC
  5
55F
330
18
100
AcDbEntity
  8
1
  6
Continuous
100
AcDbCircle
 10
266.9531182587529
 20
192.8378906458102
 30
0.0
 40
1.431765911236078
100
AcDbArc
 50
125.5376777920009
 51
166.5374393917324
  0
LINE
  5
560
330
18
100
AcDbEntity
  8
1
  6
Continuous
100
AcDbLine
 10
271.6752836075983
 20
192.8378906458102
 30
0.0
 11
271.3975091753133
 21
192.8378906458102
 31
0.0
  0
LINE
  5
561
330
18
100
AcDbEntity
  8
1
  6
Continuous
100
AcDbLine
 10
271.6752836075985
 20
191.2694704928073
 30
0.0
 11
271.6752836075985
 21
192.8378906458101
 31
0.0
  0
ARC
  5
562
330
18
100
AcDbEntity
  8
1
  6
Continuous
100
AcDbCircle
 10
271.3975091753133
 20
191.2694704928074
 30
0.0
 40
0.2777744322850376
100
AcDbArc
 50
280.1041827161252
 51
0.0
  0
ARC
  5
563
330
18
100
AcDbEntity
  8
1
  6
Continuous
100
AcDbCircle
 10
270.2864114461732
 20
197.5045011082034
 30
0.0
 40
6.611031488383896
100
AcDbArc
 50
277.7929243354226
 51
280.1041827161252
  0
ARC
  5
564
330
18
100
AcDbEntity
  8
1
  6
Continuous
100
AcDbCircle
 10
271.1752896294854
 20
191.0095670012519
 30
0.0
 40
0.0555548864570075
100
AcDbArc
 50
180.0
 51
277.7929243354226
  0
LINE
  5
565
330
18
100
AcDbEntity
  8
1
  6
Continuous
100
AcDbLine
 10
271.1197347430283
 20
194.6662142903775
 30
0.0
 11
271.1197347430283
 21
191.0095670012518
 31
0.0
  0
ARC
  5
566
330
18
100
AcDbEntity
  8
1
  6
Continuous
100
AcDbCircle
 10
271.1752896294854
 20
194.6662142903777
 30
0.0
 40
0.0555548864570075
100
AcDbArc
 50
82.20707566457726
 51
180.0
  0
ARC
  5
567
330
18
100
AcDbEntity
  8
1
  6
Continuous
100
AcDbCircle
 10
270.2864114461732
 20
188.1712801834263
 30
0.0
 40
6.611031488383896
100
AcDbArc
 50
79.8958172838747
 51
82.20707566457726
  0
ARC
  5
568
330
18
100
AcDbEntity
  8
1
  6
Continuous
100
AcDbCircle
 10
271.3975091753133
 20
194.4063107988221
 30
0.0
 40
0.2777744322850376
100
AcDbArc
 50
0.0
 51
79.8958172838747
  0
LINE
  5
569
330
18
100
AcDbEntity
  8
1
  6
Continuous
100
AcDbLine
 10
271.6752836075985
 20
193.5045492832941
 30
0.0
 11
271.6752836075985
 21
194.4063107988221
 31
0.0
  0
LINE
  5
56A
330
18
100
AcDbEntity
  8
1
  6
Continuous
100
AcDbLine
 10
270.5641858784583
 20
194.7764734966588
 30
0.0
 11
270.5641858784583
 21
190.8993077949708
 31
0.0
  0
LINE
  5
56B
330
18
100
AcDbEntity
  8
1
  6
Continuous
100
AcDbLine
 10
270.0086370138882
 20
192.8378906458102
 30
0.0
 11
269.453088149318
 21
192.8378906458102
 31
0.0
  0
LINE
  5
56C
330
18
100
AcDbEntity
  8
1
  6
Continuous
100
AcDbLine
 10
270.0086370138882
 20
194.7764734966588
 30
0.0
 11
270.0086370138882
 21
190.8993077949708
 31
0.0
  0
LINE
  5
56D
330
18
100
AcDbEntity
  8
1
  6
Continuous
100
AcDbLine
 10
269.453088149318
 20
194.7295810017267
 30
0.0
 11
269.453088149318
 21
190.9462002899029
 31
0.0
  0
LINE
  5
56E
330
18
100
AcDbEntity
  8
1
  6
Continuous
100
AcDbLine
 10
268.897539284748
 20
191.1101360903335
 30
0.0
 11
268.897539284748
 21
192.1712320083261
 31
0.0
  0
ARC
  5
56F
330
18
100
AcDbEntity
  8
1
  6
Continuous
100
AcDbCircle
 10
268.841984398291
 20
191.1101360903335
 30
0.0
 40
0.0555548864570075
100
AcDbArc
 50
257.2710561268771
 51
0.0
  0
ARC
  5
570
330
18
100
AcDbEntity
  8
1
  6
Continuous
100
AcDbCircle
 10
270.2864114461732
 20
197.5045011082034
 30
0.0
 40
6.611031488383896
100
AcDbArc
 50
254.7937121239413
 51
257.2710561268771
  0
ARC
  5
571
330
18
100
AcDbEntity
  8
1
  6
Continuous
100
AcDbCircle
 10
270.2864114461732
 20
197.5045011082034
 30
0.0
 40
6.611031488383896
100
AcDbArc
 50
254.7424767095439
 51
254.7937121239413
  0
ARC
  5
572
330
18
100
AcDbEntity
  8
1
  6
Continuous
100
AcDbCircle
 10
268.619764852463
 20
191.3944737702694
 30
0.0
 40
0.2777744322850376
100
AcDbArc
 50
180.0
 51
254.7424767095439
  0
LINE
  5
573
330
18
100
AcDbEntity
  8
1
  6
Continuous
100
AcDbLine
 10
268.341990420178
 20
194.2813075213601
 30
0.0
 11
268.341990420178
 21
191.3944737702694
 31
0.0
  0
ARC
  5
574
330
18
100
AcDbEntity
  8
1
  6
Continuous
100
AcDbCircle
 10
268.619764852463
 20
194.2813075213601
 30
0.0
 40
0.2777744322850376
100
AcDbArc
 50
105.257523290456
 51
180.0
  0
ARC
  5
575
330
18
100
AcDbEntity
  8
1
  6
Continuous
100
AcDbCircle
 10
270.2864114461732
 20
188.1712801834263
 30
0.0
 40
6.611031488383896
100
AcDbArc
 50
103.2681189705562
 51
105.257523290456
  0
ARC
  5
576
330
18
100
AcDbEntity
  8
1
  6
Continuous
100
AcDbCircle
 10
270.2864114461732
 20
188.1712801834263
 30
0.0
 40
6.611031488383896
100
AcDbArc
 50
102.7289438731228
 51
103.2681189705562
  0
ARC
  5
577
330
18
100
AcDbEntity
  8
1
  6
Continuous
100
AcDbCircle
 10
268.841984398291
 20
194.5656452012959
 30
0.0
 40
0.0555548864570075
100
AcDbArc
 50
0.0
 51
102.7289438731228
  0
LINE
  5
578
330
18
100
AcDbEntity
  8
1
  6
Continuous
100
AcDbLine
 10
268.897539284748
 20
193.5045492832942
 30
0.0
 11
268.897539284748
 21
194.5656452012959
 31
0.0
  0
LINE
  5
579
330
18
100
AcDbEntity
  8
1
  6
Continuous
100
AcDbLine
 10
272.7864114473838
 20
176.8378906459814
 30
0.0
 11
272.7864114473838
 21
171.8378906459816
 31
0.0
  0
LINE
  5
57A
330
18
100
AcDbEntity
  8
1
  6
Continuous
100
AcDbLine
 10
272.7864114473836
 20
171.8378906459816
 30
0.0
 11
275.2864114473835
 21
171.8378906459816
 31
0.0
  0
LINE
  5
57B
330
18
100
AcDbEntity
  8
1
  6
Continuous
100
AcDbLine
 10
275.0514705448296
 20
192.8378906458102
 30
0.0
 11
273.9033583584677
 21
192.8378906458102
 31
0.0
  0
LINE
  5
57C
330
18
100
AcDbEntity
  8
1
  6
Continuous
100
AcDbLine
 10
273.6247963679194
 20
191.7982831440294
 30
0.0
 11
274.252377976382
 21
194.1404495926999
 31
0.0
  0
LINE
  5
57D
330
18
100
AcDbEntity
  8
1
  6
Continuous
100
AcDbLine
 10
273.0641557690236
 20
192.8378906458102
 30
0.0
 11
273.0641557690236
 21
191.5053450161122
 31
0.0
  0
LINE
  5
57E
330
18
100
AcDbEntity
  8
1
  6
Continuous
100
AcDbLine
 10
273.3419302013087
 20
193.1156650780953
 30
0.0
 11
273.3419302013087
 21
194.3024861891544
 31
0.0
  0
ARC
  5
57F
330
18
100
AcDbEntity
  8
1
  6
Continuous
100
AcDbCircle
 10
273.0641557690236
 20
193.1156650780953
 30
0.0
 40
0.2777744322850389
100
AcDbArc
 50
180.0
 51
0.0
  0
LINE
  5
580
330
18
100
AcDbEntity
  8
1
  6
Continuous
100
AcDbLine
 10
272.7863813367385
 20
194.4023495337365
 30
0.0
 11
272.7863813367385
 21
193.1156650780951
 31
0.0
  0
LINE
  5
581
330
18
100
AcDbEntity
  8
1
  6
Continuous
100
AcDbLine
 10
272.2308324721685
 20
194.6640755710044
 30
0.0
 11
272.2308324721685
 21
191.1858806722164
 31
0.0
  0
ARC
  5
582
330
18
100
AcDbEntity
  8
1
  6
Continuous
100
AcDbCircle
 10
273.6197046335937
 20
192.8378906458102
 30
0.0
 40
1.431765911236078
100
AcDbArc
 50
305.5376777919478
 51
315.6988392796165
  0
ARC
  5
583
330
18
100
AcDbEntity
  8
1
  6
Continuous
100
AcDbCircle
 10
273.6197046335937
 20
192.8378906458102
 30
0.0
 40
1.431765911236078
100
AcDbArc
 50
332.2496545546283
 51
54.46232220799902
  0
ARC
  5
584
330
18
100
AcDbEntity
  8
1
  6
Continuous
100
AcDbCircle
 10
260.2864114461576
 20
199.3378906459814
 30
0.0
 40
2.5
100
AcDbArc
 50
90.0
 51
180.0
  0
ARC
  5
586
330
18
100
AcDbEntity
  8
1
  6
Continuous
100
AcDbCircle
 10
284.2864114461605
 20
199.3378906459814
 30
0.0
 40
2.5
100
AcDbArc
 50
0.0
 51
90.0
  0
LINE
  5
58B
330
18
100
AcDbEntity
  8
1
  6
Continuous
100
AcDbLine
 10
49.13373228574716
 20
279.4133758880832
 30
0.0
 11
63.58585528574727
 21
279.4133758880832
 31
0.0
  0
LINE
  5
58C
330
18
100
AcDbEntity
  8
1
  6
Continuous
100
AcDbLine
 10
49.13373228574716
 20
273.2633758880832
 30
0.0
 11
63.58585528574727
 21
273.2633758880832
 31
0.0
  0
LINE
  5
597
330
18
100
AcDbEntity
  8
1
  6
Continuous
100
AcDbLine
 10
33.42613328574728
 20
286.3383758880832
 30
0.0
 11
36.15674828574717
 21
286.3383758880832
 31
0.0
  0
LINE
  5
598
330
18
100
AcDbEntity
  8
1
  6
Continuous
100
AcDbLine
 10
33.42613328574728
 20
266.3383758880832
 30
0.0
 11
36.15674828574717
 21
266.3383758880832
 31
0.0
  0
LINE
  5
599
330
18
100
AcDbEntity
  8
1
  6
Continuous
100
AcDbLine
 10
28.93381097752416
 20
279.4987639391304
 30
0.0
 11
33.42591247046508
 21
285.3383758879273
 31
0.0
  0
LINE
  5
59A
330
18
100
AcDbEntity
  8
1
  6
Continuous
100
AcDbLine
 10
28.14110828574709
 20
280.1079648880831
 30
0.0
 11
32.63350928574709
 21
285.9480858880832
 31
0.0
  0
LINE
  5
5A1
330
18
100
AcDbEntity
  8
1
  6
Continuous
100
AcDbLine
 10
28.93381097752401
 20
273.1789878367243
 30
0.0
 11
33.42668171704051
 21
267.3383758879273
 31
0.0
  0
LINE
  5
5A2
330
18
100
AcDbEntity
  8
1
  6
Continuous
100
AcDbLine
 10
28.14110828574709
 20
272.5687868880831
 30
0.0
 11
32.63350928574709
 21
266.7286648880832
 31
0.0
  0
ARC
  5
5A7
330
18
100
AcDbEntity
  8
1
  6
Continuous
100
AcDbCircle
 10
33.42613328574728
 20
267.3383758880831
 30
0.0
 40
1.0
100
AcDbArc
 50
217.5685919999999
 51
270.0
  0
ARC
  5
5AC
330
18
100
AcDbEntity
  8
1
  6
Continuous
100
AcDbCircle
 10
30.43381097752416
 20
273.8383758876878
 30
0.0
 40
0.5
100
AcDbArc
 50
180.0
 51
270.0
  0
ARC
  5
5AE
330
18
100
AcDbEntity
  8
1
  6
Continuous
100
AcDbCircle
 10
30.43381097752416
 20
278.8383758879273
 30
0.0
 40
0.5
100
AcDbArc
 50
90.0
 51
180.0
  0
LINE
  5
5B0
330
18
100
AcDbEntity
  8
1
  6
Continuous
100
AcDbLine
 10
27.93373228574717
 20
279.4982538880832
 30
0.0
 11
27.93373228574717
 21
273.1784978880832
 31
0.0
  0
LINE
  5
5B2
330
18
100
AcDbEntity
  8
1
  6
Continuous
100
AcDbLine
 10
28.93381097752401
 20
273.1789878367243
 30
0.0
 11
28.93381097752407
 21
279.4987639391304
 31
0.0
  0
LINE
  5
5B4
330
18
100
AcDbEntity
  8
1
  6
Continuous
100
AcDbLine
 10
29.93381097752416
 20
278.8383758879273
 30
0.0
 11
29.93381097752416
 21
273.8383758876878
 31
0.0
  0
LINE
  5
5B9
330
18
100
AcDbEntity
  8
1
  6
Continuous
100
AcDbLine
 10
31.93381097752439
 20
279.3383758879273
 30
0.0
 11
30.4338109775241
 21
279.338375887927
 31
0.0
  0
LINE
  5
5BA
330
18
100
AcDbEntity
  8
1
  6
Continuous
100
AcDbLine
 10
31.93381097752416
 20
273.3383758879273
 30
0.0
 11
30.43379529526922
 21
273.3383758879338
 31
0.0
  0
ARC
  5
5BB
330
18
100
AcDbEntity
  8
1
  6
Continuous
100
AcDbCircle
 10
28.93373228574716
 20
279.4982538880832
 30
0.0
 40
1.0
100
AcDbArc
 50
142.431408
 51
180.0
  0
ARC
  5
5BC
330
18
100
AcDbEntity
  8
1
  6
Continuous
100
AcDbCircle
 10
28.93373228574716
 20
273.1784978880832
 30
0.0
 40
1.0
100
AcDbArc
 50
180.0
 51
217.5685919999999
  0
ARC
  5
5C2
330
18
100
AcDbEntity
  8
1
  6
Continuous
100
AcDbCircle
 10
31.93381097752416
 20
273.8383758879273
 30
0.0
 40
0.5
100
AcDbArc
 50
270.0
 51
0.0
  0
ARC
  5
5C3
330
18
100
AcDbEntity
  8
1
  6
Continuous
100
AcDbCircle
 10
31.93381097752416
 20
278.8383758879273
 30
0.0
 40
0.5
100
AcDbArc
 50
0.0
 51
90.0
  0
LINE
  5
5C6
330
18
100
AcDbEntity
  8
1
  6
Continuous
100
AcDbLine
 10
32.43381097752416
 20
278.8383758879273
 30
0.0
 11
32.43381097752416
 21
273.8383758879273
 31
0.0
  0
ARC
  5
5C7
330
18
100
AcDbEntity
  8
1
  6
Continuous
100
AcDbCircle
 10
33.42613328574728
 20
285.3383758880831
 30
0.0
 40
1.0
100
AcDbArc
 50
90.0
 51
142.431408
  0
LINE
  5
5C8
330
18
100
AcDbEntity
  8
1
  6
Continuous
100
AcDbLine
 10
36.15766024645657
 20
285.3383758879271
 30
0.0
 11
43.41927181550267
 21
280.9809090076651
 31
0.0
  0
LINE
  5
5C9
330
18
100
AcDbEntity
  8
1
  6
Continuous
100
AcDbLine
 10
43.93373228574708
 20
281.8383758880831
 30
0.0
 11
36.67124428574709
 21
286.1958688880831
 31
0.0
  0
LINE
  5
5D8
330
18
100
AcDbEntity
  8
1
  6
Continuous
100
AcDbLine
 10
36.15599359434847
 20
267.3383758879273
 30
0.0
 11
43.41925342369757
 21
271.6958917334431
 31
0.0
  0
LINE
  5
5D9
330
18
100
AcDbEntity
  8
1
  6
Continuous
100
AcDbLine
 10
43.93373228574728
 20
270.8383758880833
 30
0.0
 11
36.67124428574709
 21
266.4808828880832
 31
0.0
  0
ARC
  5
5DA
330
18
100
AcDbEntity
  8
1
  6
Continuous
100
AcDbCircle
 10
37.93377484620816
 20
272.3384240630021
 30
0.0
 40
1.718119093483293
100
AcDbArc
 50
270.0
 51
324.4623222080521
  0
ARC
  5
5DB
330
18
100
AcDbEntity
  8
1
  6
Continuous
100
AcDbCircle
 10
37.93377484620816
 20
272.3384240630021
 30
0.0
 40
1.718119093483293
100
AcDbArc
 50
215.5376777920016
 51
256.5374393917332
  0
ARC
  5
5DC
330
18
100
AcDbEntity
  8
1
  6
Continuous
100
AcDbCircle
 10
36.15674828574717
 20
267.3383758880831
 30
0.0
 40
1.0
100
AcDbArc
 50
270.0
 51
300.9637570000005
  0
LINE
  5
5DE
330
18
100
AcDbEntity
  8
1
  6
Continuous
100
AcDbLine
 10
39.18130384834489
 20
280.3444377940019
 30
0.0
 11
36.37070410994008
 21
281.097535724157
 31
0.0
  0
LINE
  5
5DF
330
18
100
AcDbEntity
  8
1
  6
Continuous
100
AcDbLine
 10
37.93377484620816
 20
279.6716690753271
 30
0.0
 11
39.53282960184569
 21
279.6716690753271
 31
0.0
  0
LINE
  5
5E0
330
18
100
AcDbEntity
  8
1
  6
Continuous
100
AcDbLine
 10
35.74235293597491
 20
278.6716811191011
 30
0.0
 11
39.91618681452058
 21
278.6716811191011
 31
0.0
  0
LINE
  5
5E1
330
18
100
AcDbEntity
  8
1
  6
Continuous
100
AcDbLine
 10
39.81587902981138
 20
278.0050224816169
 30
0.0
 11
37.93377484620816
 21
278.0050224816169
 31
0.0
  0
LINE
  5
5E2
330
18
100
AcDbEntity
  8
1
  6
Continuous
100
AcDbLine
 10
35.73978647272719
 20
277.3383638441329
 30
0.0
 11
40.12776321967817
 21
277.3383638441329
 31
0.0
  0
LINE
  5
5E3
330
18
100
AcDbEntity
  8
1
  6
Continuous
100
AcDbLine
 10
35.60747542518999
 20
276.6717052066486
 30
0.0
 11
40.2600742672154
 21
276.6717052066486
 31
0.0
  0
LINE
  5
5E4
330
18
100
AcDbEntity
  8
1
  6
Continuous
100
AcDbLine
 10
35.60747542518999
 20
276.0050465691647
 30
0.0
 11
40.2600742672154
 21
276.0050465691647
 31
0.0
  0
LINE
  5
5E5
330
18
100
AcDbEntity
  8
1
  6
Continuous
100
AcDbLine
 10
35.66374641910829
 20
275.3383879316804
 30
0.0
 11
40.20380327329686
 21
275.3383879316804
 31
0.0
  0
LINE
  5
5E6
330
18
100
AcDbEntity
  8
1
  6
Continuous
100
AcDbLine
 10
36.2016745955483
 20
274.0050706567123
 30
0.0
 11
39.66587509685698
 21
274.0050706567123
 31
0.0
  0
LINE
  5
5E7
330
18
100
AcDbEntity
  8
1
  6
Continuous
100
AcDbLine
 10
36.28948653936765
 20
273.3384120192281
 30
0.0
 11
39.57806315303765
 21
273.3384120192281
 31
0.0
  0
LINE
  5
5E8
330
18
100
AcDbEntity
  8
1
  6
Continuous
100
AcDbLine
 10
39.16375921896559
 20
272.6717533817442
 30
0.0
 11
36.70379047343966
 21
272.6717533817442
 31
0.0
  0
LINE
  5
5E9
330
18
100
AcDbEntity
  8
1
  6
Continuous
100
AcDbLine
 10
36.10532312009539
 20
272.00509474426
 30
0.0
 11
38.97906134719118
 21
272.00509474426
 31
0.0
  0
ARC
  5
5EA
330
18
100
AcDbEntity
  8
1
  6
Continuous
100
AcDbCircle
 10
37.93377484620816
 20
280.3383277128111
 30
0.0
 40
1.718119093483294
100
AcDbArc
 50
62.24965455462839
 51
144.4623222079983
  0
LINE
  5
5EB
330
18
100
AcDbEntity
  8
1
  6
Continuous
100
AcDbLine
 10
37.93377484620816
 20
282.0564468062944
 30
0.0
 11
37.93377484620816
 21
280.6787121826599
 31
0.0
  0
LINE
  5
5EC
330
18
100
AcDbEntity
  8
1
  6
Continuous
100
AcDbLine
 10
37.60044552746606
 20
280.0049983940692
 30
0.0
 11
36.17626019419514
 21
280.0049983940692
 31
0.0
  0
ARC
  5
5ED
330
18
100
AcDbEntity
  8
1
  6
Continuous
100
AcDbCircle
 10
37.60044552746606
 20
279.6716690753271
 30
0.0
 40
0.3333293187420467
100
AcDbArc
 50
270.0
 51
90.0
  0
LINE
  5
5EE
330
18
100
AcDbEntity
  8
1
  6
Continuous
100
AcDbLine
 10
36.05642418069646
 20
279.3383397565851
 30
0.0
 11
37.60044552746606
 21
279.3383397565851
 31
0.0
  0
LINE
  5
5EF
330
18
100
AcDbEntity
  8
1
  6
Continuous
100
AcDbLine
 10
37.93377484620816
 20
278.0050224816169
 30
0.0
 11
37.93377484620816
 21
277.6716931628749
 31
0.0
  0
ARC
  5
5F0
330
18
100
AcDbEntity
  8
1
  6
Continuous
100
AcDbCircle
 10
35.73978647272719
 20
277.4050297078812
 30
0.0
 40
0.066665863748409
100
AcDbArc
 50
172.2070756645772
 51
270.0
  0
ARC
  5
5F1
330
18
100
AcDbEntity
  8
1
  6
Continuous
100
AcDbCircle
 10
43.53370740106891
 20
276.3383758879067
 30
0.0
 40
7.933237786060675
100
AcDbArc
 50
169.8958172838747
 51
172.2070756645772
  0
ARC
  5
5F2
330
18
100
AcDbEntity
  8
1
  6
Continuous
100
AcDbCircle
 10
36.05167066259366
 20
277.6716931628749
 30
0.0
 40
0.3333293187420452
100
AcDbArc
 50
90.0
 51
169.8958172838747
  0
LINE
  5
5F3
330
18
100
AcDbEntity
  8
1
  6
Continuous
100
AcDbLine
 10
37.13378448122728
 20
278.0050224816169
 30
0.0
 11
36.05167066259366
 21
278.0050224816169
 31
0.0
  0
LINE
  5
5F4
330
18
100
AcDbEntity
  8
1
  6
Continuous
100
AcDbLine
 10
37.93377484620816
 20
276.0050465691647
 30
0.0
 11
37.93377484620816
 21
275.3383879316804
 31
0.0
  0
ARC
  5
5F5
330
18
100
AcDbEntity
  8
1
  6
Continuous
100
AcDbCircle
 10
36.2016745955483
 20
274.3383999754544
 30
0.0
 40
0.3333293187420452
100
AcDbArc
 50
195.2575232904568
 51
270.0
  0
ARC
  5
5F6
330
18
100
AcDbEntity
  8
1
  6
Continuous
100
AcDbCircle
 10
43.53370740106891
 20
276.3383758879067
 30
0.0
 40
7.933237786060675
100
AcDbArc
 50
193.2681189705571
 51
195.2575232904568
  0
ARC
  5
5F7
330
18
100
AcDbEntity
  8
1
  6
Continuous
100
AcDbCircle
 10
43.53370740106891
 20
276.3383758879067
 30
0.0
 40
7.933237786060675
100
AcDbArc
 50
192.7289438731228
 51
193.2681189705554
  0
ARC
  5
5F8
330
18
100
AcDbEntity
  8
1
  6
Continuous
100
AcDbCircle
 10
35.86046937962518
 20
274.6050634304481
 30
0.0
 40
0.066665863748409
100
AcDbArc
 50
90.0
 51
192.7289438731228
  0
LINE
  5
5F9
330
18
100
AcDbEntity
  8
1
  6
Continuous
100
AcDbLine
 10
37.13378448122728
 20
274.6717292941964
 30
0.0
 11
35.86046937962518
 21
274.6717292941964
 31
0.0
  0
ARC
  5
5FA
330
18
100
AcDbEntity
  8
1
  6
Continuous
100
AcDbCircle
 10
36.28948653936765
 20
273.2717461554798
 30
0.0
 40
0.066665863748409
100
AcDbArc
 50
90.0
 51
202.9439535565377
  0
ARC
  5
5FB
330
18
100
AcDbEntity
  8
1
  6
Continuous
100
AcDbCircle
 10
43.53370740106891
 20
276.3383758879067
 30
0.0
 40
7.933237786060675
100
AcDbArc
 50
202.9439535565377
 51
206.0143659996371
  0
ARC
  5
5FC
330
18
100
AcDbEntity
  8
1
  6
Continuous
100
AcDbCircle
 10
36.70379047343966
 20
273.0050827004862
 30
0.0
 40
0.3333293187420452
100
AcDbArc
 50
206.0143659996371
 51
270.0
  0
ARC
  5
5FD
330
18
100
AcDbEntity
  8
1
  6
Continuous
100
AcDbCircle
 10
43.53370740106891
 20
276.3383758879067
 30
0.0
 40
8.599896423544768
100
AcDbArc
 50
144.4623222079983
 51
215.5376777920016
  0
ARC
  5
5FE
330
18
100
AcDbEntity
  8
1
  6
Continuous
100
AcDbCircle
 10
39.81587902981138
 20
277.6716931628749
 30
0.0
 40
0.3333293187420452
100
AcDbArc
 50
10.1041827161253
 51
90.0
  0
ARC
  5
5FF
330
18
100
AcDbEntity
  8
1
  6
Continuous
100
AcDbCircle
 10
32.33384229133631
 20
276.3383758879067
 30
0.0
 40
7.933237786060675
100
AcDbArc
 50
7.792924335422747
 51
10.1041827161253
  0
ARC
  5
600
330
18
100
AcDbEntity
  8
1
  6
Continuous
100
AcDbCircle
 10
40.12776321967817
 20
277.4050297078812
 30
0.0
 40
0.066665863748409
100
AcDbArc
 50
270.0
 51
7.792924335422747
  0
LINE
  5
601
330
18
100
AcDbEntity
  8
1
  6
Continuous
100
AcDbLine
 10
40.00708031278009
 20
274.6717292941964
 30
0.0
 11
38.73376521118899
 21
274.6717292941964
 31
0.0
  0
ARC
  5
602
330
18
100
AcDbEntity
  8
1
  6
Continuous
100
AcDbCircle
 10
40.00708031278009
 20
274.6050634304481
 30
0.0
 40
0.066665863748409
100
AcDbArc
 50
347.2710561268771
 51
90.0
  0
ARC
  5
603
330
18
100
AcDbEntity
  8
1
  6
Continuous
100
AcDbCircle
 10
32.33384229133631
 20
276.3383758879067
 30
0.0
 40
7.933237786060675
100
AcDbArc
 50
344.7937121239422
 51
347.2710561268771
  0
ARC
  5
604
330
18
100
AcDbEntity
  8
1
  6
Continuous
100
AcDbCircle
 10
32.33384229133631
 20
276.3383758879067
 30
0.0
 40
7.933237786060675
100
AcDbArc
 50
344.7424767095431
 51
344.7937121239422
  0
ARC
  5
605
330
18
100
AcDbEntity
  8
1
  6
Continuous
100
AcDbCircle
 10
39.66587509685698
 20
274.3383999754544
 30
0.0
 40
0.3333293187420452
100
AcDbArc
 50
270.0
 51
344.7424767095431
  0
ARC
  5
606
330
18
100
AcDbEntity
  8
1
  6
Continuous
100
AcDbCircle
 10
39.16375921896559
 20
273.0050827004862
 30
0.0
 40
0.3333293187420452
100
AcDbArc
 50
270.0
 51
333.9856340003628
  0
ARC
  5
607
330
18
100
AcDbEntity
  8
1
  6
Continuous
100
AcDbCircle
 10
32.33384229133631
 20
276.3383758879067
 30
0.0
 40
7.933237786060675
100
AcDbArc
 50
333.9856340003628
 51
337.0560464434622
  0
ARC
  5
608
330
18
100
AcDbEntity
  8
1
  6
Continuous
100
AcDbCircle
 10
39.57806315303765
 20
273.2717461554798
 30
0.0
 40
0.066665863748409
100
AcDbArc
 50
337.0560464434622
 51
90.0
  0
ARC
  5
609
330
18
100
AcDbEntity
  8
1
  6
Continuous
100
AcDbCircle
 10
37.93377484620816
 20
280.3383277128111
 30
0.0
 40
1.718119093483294
100
AcDbArc
 50
35.53767779194789
 51
45.69883927961764
  0
ARC
  5
60A
330
18
100
AcDbEntity
  8
1
  6
Continuous
100
AcDbCircle
 10
32.33384229133631
 20
276.3383758879067
 30
0.0
 40
8.599896423544768
100
AcDbArc
 50
324.4623222080521
 51
35.53767779194789
  0
ARC
  5
60D
330
18
100
AcDbEntity
  8
1
  6
Continuous
100
AcDbCircle
 10
48.93373228574716
 20
271.3383758880831
 30
0.0
 40
0.5
100
AcDbArc
 50
270.0
 51
0.0
  0
LINE
  5
617
330
18
100
AcDbEntity
  8
1
  6
Continuous
100
AcDbLine
 10
43.93373228574716
 20
281.8383758880831
 30
0.0
 11
48.93373228574716
 21
281.8383758880831
 31
0.0
  0
LINE
  5
618
330
18
100
AcDbEntity
  8
1
  6
Continuous
100
AcDbLine
 10
43.93373228574716
 20
270.8383758880831
 30
0.0
 11
48.93373228574716
 21
270.8383758880831
 31
0.0
  0
LINE
  5
619
330
18
100
AcDbEntity
  8
1
  6
Continuous
100
AcDbLine
 10
43.41927181550286
 20
280.9809090076653
 30
0.0
 11
43.41925342369768
 21
271.6958917334429
 31
0.0
  0
ARC
  5
61D
330
18
100
AcDbEntity
  8
1
  6
Continuous
100
AcDbCircle
 10
48.93373228574716
 20
281.3383758880831
 30
0.0
 40
0.5
100
AcDbArc
 50
0.0
 51
90.0
  0
LINE
  5
61E
330
18
100
AcDbEntity
  8
1
  6
Continuous
100
AcDbLine
 10
49.13373228574716
 20
280.2133758880833
 30
0.0
 11
49.43373228574717
 21
280.5133758880833
 31
0.0
  0
LINE
  5
61F
330
18
100
AcDbEntity
  8
1
  6
Continuous
100
AcDbLine
 10
49.13373228574716
 20
279.4133758880832
 30
0.0
 11
49.13373228574716
 21
280.2133758880831
 31
0.0
  0
LINE
  5
620
330
18
100
AcDbEntity
  8
1
  6
Continuous
100
AcDbLine
 10
49.43373228574717
 20
280.5133758880831
 30
0.0
 11
49.43373228574717
 21
281.3383758880831
 31
0.0
  0
LINE
  5
621
330
18
100
AcDbEntity
  8
1
  6
Continuous
100
AcDbLine
 10
49.13373228574716
 20
272.4633758880831
 30
0.0
 11
49.43373228574717
 21
272.1633758880832
 31
0.0
  0
LINE
  5
622
330
18
100
AcDbEntity
  8
1
  6
Continuous
100
AcDbLine
 10
49.13373228574716
 20
273.2633758880832
 30
0.0
 11
49.13373228574716
 21
272.4633758880831
 31
0.0
  0
LINE
  5
623
330
18
100
AcDbEntity
  8
1
  6
Continuous
100
AcDbLine
 10
49.43373228574717
 20
272.1633758880832
 30
0.0
 11
49.43373228574717
 21
271.3383758880831
 31
0.0
  0
ARC
  5
624
330
18
100
AcDbEntity
  8
1
  6
Continuous
100
AcDbCircle
 10
36.15674828574717
 20
285.3383758880831
 30
0.0
 40
1.0
100
AcDbArc
 50
59.03624299999952
 51
90.0
  0
ARC
  5
62C
330
18
100
AcDbEntity
  8
1
  6
Continuous
100
AcDbCircle
 10
65.29158028574716
 20
275.1546058880832
 30
0.0
 40
1.0
100
AcDbArc
 50
294.832943
 51
346.3049679999999
  0
ARC
  5
62D
330
18
100
AcDbEntity
  8
1
  6
Continuous
100
AcDbCircle
 10
65.29158028574716
 20
277.5221448880831
 30
0.0
 40
1.0
100
AcDbArc
 50
13.69503200000015
 51
65.16705700000001
  0
LINE
  5
62E
330
18
100
AcDbEntity
  8
1
  6
Continuous
100
AcDbLine
 10
65.71155428574716
 20
274.2470698880834
 30
0.0
 11
63.58585528574716
 21
273.2633758880833
 31
0.0
  0
LINE
  5
62F
330
18
100
AcDbEntity
  8
1
  6
Continuous
100
AcDbLine
 10
65.71155428574716
 20
278.4296808880833
 30
0.0
 11
63.58585528574716
 21
279.4133758880833
 31
0.0
  0
ARC
  5
630
330
18
100
AcDbEntity
  8
1
  6
Continuous
100
AcDbCircle
 10
58.43373228574717
 20
276.3383758880832
 30
0.0
 40
6.0
100
AcDbArc
 50
329.1695030000004
 51
30.83049699999957
  0
ARC
  5
631
330
18
100
AcDbEntity
  8
1
  6
Continuous
100
AcDbCircle
 10
60.43373228574718
 20
276.3383758880832
 30
0.0
 40
6.0
100
AcDbArc
 50
346.3049679999999
 51
13.69503200000015
  0
LINE
  5
635
330
18
100
AcDbEntity
  8
4
  6
CENTER
 48
0.3
100
AcDbLine
 10
37.13476555698696
 20
126.8378906459807
 30
0.0
 11
37.13476555690169
 21
204.8378906459808
 31
0.0
  0
LINE
  5
636
330
18
100
AcDbEntity
  8
1
  6
Continuous
100
AcDbLine
 10
46.63476555670903
 20
149.8378906460172
 30
0.0
 11
46.6347655567247
 21
144.8378906460172
 31
0.0
  0
LINE
  5
637
330
18
100
AcDbEntity
  8
1
  6
Continuous
100
AcDbLine
 10
23.63476555711343
 20
149.8378906459811
 30
0.0
 11
23.63476555711343
 21
144.837890645981
 31
0.0
  0
LINE
  5
638
330
18
100
AcDbEntity
  8
1
  6
Continuous
100
AcDbLine
 10
49.63476555696828
 20
159.8378906459805
 30
0.0
 11
49.63476555696828
 21
132.3378906459807
 31
0.0
  0
LINE
  5
639
330
18
100
AcDbEntity
  8
1
  6
Continuous
100
AcDbLine
 10
20.6347655569707
 20
132.3378906459804
 30
0.0
 11
20.63476555696615
 21
199.3378906459805
 31
0.0
  0
LINE
  5
63A
330
18
100
AcDbEntity
  8
1
  6
Continuous
100
AcDbLine
 10
47.63476555696827
 20
159.8378906459805
 30
0.0
 11
47.63476555696827
 21
132.3378906459807
 31
0.0
  0
LINE
  5
63B
330
18
100
AcDbEntity
  8
1
  6
Continuous
100
AcDbLine
 10
22.6347655569707
 20
132.3378906459804
 30
0.0
 11
22.63476555696616
 21
199.3378906459808
 31
0.0
  0
LINE
  5
63C
330
18
100
AcDbEntity
  8
1
  6
Continuous
100
AcDbLine
 10
38.5347655569368
 20
148.6378906459736
 30
0.0
 11
38.5347655569368
 21
148.0378906459737
 31
0.0
  0
LINE
  5
63D
330
18
100
AcDbEntity
  8
1
  6
Continuous
100
AcDbLine
 10
40.73476555693682
 20
148.6378906459736
 30
0.0
 11
40.73476555693682
 21
148.0378906459737
 31
0.0
  0
CIRCLE
  5
63E
330
18
100
AcDbEntity
  8
1
  6
Continuous
100
AcDbCircle
 10
39.63476555693672
 20
148.3378906459738
 30
0.0
 40
1.75
  0
LINE
  5
641
330
18
100
AcDbEntity
  8
1
  6
Continuous
100
AcDbLine
 10
47.13476555696828
 20
131.8378906459807
 30
0.0
 11
32.58761885183218
 21
131.8378906459807
 31
0.0
  0
LINE
  5
642
330
18
100
AcDbEntity
  8
1
  6
Continuous
100
AcDbLine
 10
47.13476555696828
 20
129.8378906459807
 30
0.0
 11
32.35427065678493
 21
129.8378906459807
 31
0.0
  0
ARC
  5
643
330
18
100
AcDbEntity
  8
1
  6
Continuous
100
AcDbCircle
 10
35.73476555693685
 20
135.2378906459737
 30
0.0
 40
0.8
100
AcDbArc
 50
90.0
 51
180.0
  0
ARC
  5
644
330
18
100
AcDbEntity
  8
1
  6
Continuous
100
AcDbCircle
 10
35.73476555693685
 20
137.4378906459736
 30
0.0
 40
0.8
100
AcDbArc
 50
180.0
 51
270.0
  0
CIRCLE
  5
645
330
18
100
AcDbEntity
  8
1
  6
Continuous
100
AcDbCircle
 10
34.63476555693671
 20
136.3378906459738
 30
0.0
 40
1.75
  0
LINE
  5
646
330
18
100
AcDbEntity
  8
1
  6
Continuous
100
AcDbLine
 10
24.13476555693899
 20
132.3378906459737
 30
0.0
 11
46.13476555693668
 21
132.3378906459737
 31
0.0
  0
ARC
  5
648
330
18
100
AcDbEntity
  8
1
  6
Continuous
100
AcDbCircle
 10
21.98546764458853
 20
131.7885927335104
 30
0.0
 40
10.55070208754017
100
AcDbArc
 50
247.9666842362447
 51
354.6133126713284
  0
ARC
  5
649
330
18
100
AcDbEntity
  8
1
  6
Continuous
100
AcDbCircle
 10
21.98546764458853
 20
131.7885927335104
 30
0.0
 40
9.450702087540172
100
AcDbArc
 50
249.6968718751428
 51
0.1502871230983781
  0
ARC
  5
64A
330
18
100
AcDbEntity
  8
1
  6
Continuous
100
AcDbCircle
 10
21.23586109552423
 20
131.9889861845541
 30
0.0
 40
11.30109553859083
100
AcDbArc
 50
251.5288483473006
 51
330.8017874682092
  0
LINE
  5
64C
330
18
100
AcDbEntity
  8
1
  6
Continuous
100
AcDbLine
 10
31.43604115434233
 20
131.8378906459806
 30
0.0
 11
23.13476555697002
 21
131.8378906459806
 31
0.0
  0
LINE
  5
64D
330
18
100
AcDbEntity
  8
1
  6
Continuous
100
AcDbLine
 10
31.23265809970201
 20
129.8378906459807
 30
0.0
 11
23.13476555697013
 21
129.8378906459807
 31
0.0
  0
LINE
  5
64E
330
18
100
AcDbEntity
  8
1
  6
Continuous
100
AcDbLine
 10
23.13476555693887
 20
133.3378906459686
 30
0.0
 11
23.13476555693813
 21
144.8378906459806
 31
0.0
  0
ARC
  5
64F
330
18
100
AcDbEntity
  8
1
  6
Continuous
100
AcDbCircle
 10
23.13476555697013
 20
132.3378906459807
 30
0.0
 40
2.5
100
AcDbArc
 50
180.0
 51
270.0
  0
ARC
  5
650
330
18
100
AcDbEntity
  8
1
  6
Continuous
100
AcDbCircle
 10
23.13476555697013
 20
132.3378906459807
 30
0.0
 40
0.5
100
AcDbArc
 50
180.0
 51
270.0
  0
ARC
  5
651
330
18
100
AcDbEntity
  8
1
  6
Continuous
100
AcDbCircle
 10
24.13476555693899
 20
133.3378906459689
 30
0.0
 40
1.0
100
AcDbArc
 50
180.0000000000032
 51
270.0000000000032
  0
ARC
  5
652
330
18
100
AcDbEntity
  8
1
  6
Continuous
100
AcDbCircle
 10
23.13476555663908
 20
137.3378906463082
 30
0.0
 40
0.5
100
AcDbArc
 50
90.0
 51
180.0
  0
ARC
  5
653
330
18
100
AcDbEntity
  8
1
  6
Continuous
100
AcDbCircle
 10
23.13476555664408
 20
140.3378906463082
 30
0.0
 40
0.5
100
AcDbArc
 50
180.0
 51
270.0
  0
LINE
  5
654
330
18
100
AcDbEntity
  8
1
  6
Continuous
100
AcDbLine
 10
22.63476555711343
 20
144.8378906459809
 30
0.0
 11
23.63476555711343
 21
144.8378906459809
 31
0.0
  0
ARC
  5
655
330
18
100
AcDbEntity
  8
1
  6
Continuous
100
AcDbCircle
 10
33.5347655569368
 20
137.4378906459736
 30
0.0
 40
0.8
100
AcDbArc
 50
270.0
 51
0.0
  0
LINE
  5
656
330
18
100
AcDbEntity
  8
1
  6
Continuous
100
AcDbLine
 10
28.63476555635401
 20
131.8378906459815
 30
0.0
 11
28.63476555635429
 21
129.8378906459815
 31
0.0
  0
LINE
  5
657
330
18
100
AcDbEntity
  8
1
  6
Continuous
100
AcDbLine
 10
33.63476555635401
 20
131.8378906459822
 30
0.0
 11
33.63476555635429
 21
129.8378906459822
 31
0.0
  0
LINE
  5
658
330
18
100
AcDbEntity
  8
1
  6
Continuous
100
AcDbLine
 10
32.63476555693688
 20
132.3378906459702
 30
0.0
 11
32.48957576156783
 21
130.7981245579311
 31
0.0
  0
LINE
  5
659
330
18
100
AcDbEntity
  8
1
  6
Continuous
100
AcDbLine
 10
31.4347696850279
 20
132.3347430434336
 30
0.0
 11
31.43613722099531
 21
131.8133819450614
 31
0.0
  0
ARC
  5
65A
330
18
100
AcDbEntity
  8
1
  6
Continuous
100
AcDbCircle
 10
33.5347655569368
 20
135.2378906459737
 30
0.0
 40
0.8
100
AcDbArc
 50
0.0
 51
90.0
  0
LINE
  5
65B
330
18
100
AcDbEntity
  8
1
  6
Continuous
100
AcDbLine
 10
33.5347655569368
 20
136.6378906459737
 30
0.0
 11
33.5347655569368
 21
136.0378906459738
 31
0.0
  0
LINE
  5
65C
330
18
100
AcDbEntity
  8
1
  6
Continuous
100
AcDbLine
 10
34.33476555693669
 20
135.2378906459737
 30
0.0
 11
34.93476555693689
 21
135.2378906459737
 31
0.0
  0
LINE
  5
65D
330
18
100
AcDbEntity
  8
1
  6
Continuous
100
AcDbLine
 10
34.33476555693669
 20
137.4378906459736
 30
0.0
 11
34.93476555693689
 21
137.4378906459736
 31
0.0
  0
LINE
  5
662
330
18
100
AcDbEntity
  8
1
  6
Continuous
100
AcDbLine
 10
35.73476555693685
 20
136.6378906459737
 30
0.0
 11
35.73476555693685
 21
136.0378906459738
 31
0.0
  0
ARC
  5
663
330
18
100
AcDbEntity
  8
1
  6
Continuous
100
AcDbCircle
 10
38.5347655569368
 20
147.2378906459737
 30
0.0
 40
0.8
100
AcDbArc
 50
0.0
 51
90.0
  0
LINE
  5
664
330
18
100
AcDbEntity
  8
1
  6
Continuous
100
AcDbLine
 10
39.3347655569367
 20
147.2378906459737
 30
0.0
 11
39.93476555693689
 21
147.2378906459737
 31
0.0
  0
ARC
  5
665
330
18
100
AcDbEntity
  8
1
  6
Continuous
100
AcDbCircle
 10
40.73476555693682
 20
147.2378906459737
 30
0.0
 40
0.8
100
AcDbArc
 50
90.0
 51
180.0
  0
LINE
  5
666
330
18
100
AcDbEntity
  8
1
  6
Continuous
100
AcDbLine
 10
47.13476555693671
 20
133.3378906459737
 30
0.0
 11
47.13476555693671
 21
144.837890646018
 31
0.0
  0
ARC
  5
667
330
18
100
AcDbEntity
  8
1
  6
Continuous
100
AcDbCircle
 10
47.13476555696828
 20
132.3378906459807
 30
0.0
 40
2.5
100
AcDbArc
 50
270.0
 51
0.0
  0
ARC
  5
668
330
18
100
AcDbEntity
  8
1
  6
Continuous
100
AcDbCircle
 10
47.13476555696828
 20
132.3378906459807
 30
0.0
 40
0.5
100
AcDbArc
 50
270.0
 51
0.0
  0
ARC
  5
669
330
18
100
AcDbEntity
  8
1
  6
Continuous
100
AcDbCircle
 10
46.13476555693668
 20
133.3378906459738
 30
0.0
 40
1.0
100
AcDbArc
 50
270.0
 51
0.0
  0
LINE
  5
66A
330
18
100
AcDbEntity
  8
1
  6
Continuous
100
AcDbLine
 10
47.63476555672467
 20
144.8378906460196
 30
0.0
 11
46.63476555672469
 21
144.8378906460164
 31
0.0
  0
LINE
  5
66D
330
18
100
AcDbEntity
  8
4
  6
CENTER
 48
0.3
100
AcDbLine
 10
17.63476555696792
 20
172.8378906459911
 30
0.0
 11
56.63476555696792
 21
172.8378906459563
 31
0.0
  0
LINE
  5
66E
330
18
100
AcDbEntity
  8
1
  6
Continuous
100
AcDbLine
 10
47.13476555696828
 20
201.8378906459807
 30
0.0
 11
23.13476555696559
 21
201.8378906459807
 31
0.0
  0
LINE
  5
66F
330
18
100
AcDbEntity
  8
1
  6
Continuous
100
AcDbLine
 10
47.13476555696828
 20
199.8378906459807
 30
0.0
 11
23.13476555696581
 21
199.8378906459807
 31
0.0
  0
LINE
  5
670
330
18
100
AcDbEntity
  8
1
  6
Continuous
100
AcDbLine
 10
44.23476555693681
 20
199.2378906459736
 30
0.0
 11
24.43477955693686
 21
199.2378906459736
 31
0.0
  0
CIRCLE
  5
672
330
18
100
AcDbEntity
  8
1
  6
Continuous
100
AcDbCircle
 10
37.13476555693671
 20
172.8378906459738
 30
0.0
 40
5.599999999999998
  0
CIRCLE
  5
673
330
18
100
AcDbEntity
  8
1
  6
Continuous
100
AcDbCircle
 10
37.13476555693671
 20
172.8378906459738
 30
0.0
 40
7.799999999999998
  0
ARC
  5
674
330
18
100
AcDbEntity
  8
1
  6
Continuous
100
AcDbCircle
 10
37.13476555693671
 20
172.8378906459738
 30
0.0
 40
4.799999999999998
100
AcDbArc
 50
104.4775119999997
 51
252.4175509999997
  0
LINE
  5
675
330
18
100
AcDbEntity
  8
1
  6
Continuous
100
AcDbLine
 10
36.08476555693675
 20
168.6621046459733
 30
0.0
 11
35.13642755693672
 21
167.7137666459733
 31
0.0
  0
ARC
  5
676
330
18
100
AcDbEntity
  8
1
  6
Continuous
100
AcDbCircle
 10
37.13476555693671
 20
172.8378906459738
 30
0.0
 40
5.5
100
AcDbArc
 50
291.305103
 51
248.6948969999999
  0
CIRCLE
  5
677
330
18
100
AcDbEntity
  8
1
  6
Continuous
100
AcDbCircle
 10
37.13476555693671
 20
172.8378906459738
 30
0.0
 40
10.5
  0
CIRCLE
  5
678
330
18
100
AcDbEntity
  8
1
  6
Continuous
100
AcDbCircle
 10
37.13476555693671
 20
172.8378906459738
 30
0.0
 40
11.0
  0
LINE
  5
679
330
18
100
AcDbEntity
  8
1
  6
Continuous
100
AcDbLine
 10
47.13476555693668
 20
188.8378906459738
 30
0.0
 11
23.13476555693512
 21
188.8378906459738
 31
0.0
  0
LINE
  5
67A
330
18
100
AcDbEntity
  8
1
  6
Continuous
100
AcDbLine
 10
46.13476555693668
 20
198.8378906459738
 30
0.0
 11
24.13476555693444
 21
198.8378906459738
 31
0.0
  0
LINE
  5
67C
330
18
100
AcDbEntity
  8
1
  6
Continuous
100
AcDbLine
 10
23.63476555711315
 20
192.3378906459818
 30
0.0
 11
23.63476555711315
 21
197.3378906459818
 31
0.0
  0
LINE
  5
67D
330
18
100
AcDbEntity
  8
1
  6
Continuous
100
AcDbLine
 10
23.13476555693785
 20
149.8378906459806
 30
0.0
 11
23.13476555693489
 21
192.3378906459821
 31
0.0
  0
ARC
  5
67E
330
18
100
AcDbEntity
  8
1
  6
Continuous
100
AcDbCircle
 10
23.13476555663885
 20
154.3378906458327
 30
0.0
 40
0.5
100
AcDbArc
 50
90.0
 51
180.0
  0
ARC
  5
67F
330
18
100
AcDbEntity
  8
1
  6
Continuous
100
AcDbCircle
 10
23.13476555663885
 20
157.3378906458341
 30
0.0
 40
0.5
100
AcDbArc
 50
180.0
 51
270.0
  0
LINE
  5
680
330
18
100
AcDbEntity
  8
1
  6
Continuous
100
AcDbLine
 10
22.63476555711338
 20
149.8378906459806
 30
0.0
 11
23.63476555711338
 21
149.8378906459806
 31
0.0
  0
ARC
  5
681
330
18
100
AcDbEntity
  8
1
  6
Continuous
100
AcDbCircle
 10
23.13476555663863
 20
181.3378906459796
 30
0.0
 40
0.5
100
AcDbArc
 50
90.0
 51
180.0
  0
ARC
  5
682
330
18
100
AcDbEntity
  8
1
  6
Continuous
100
AcDbCircle
 10
23.13476555663863
 20
184.337890645981
 30
0.0
 40
0.5
100
AcDbArc
 50
180.0
 51
270.0
  0
LINE
  5
683
330
18
100
AcDbEntity
  8
1
  6
Continuous
100
AcDbLine
 10
22.63476555711315
 20
192.3378906459826
 30
0.0
 11
23.63476555711315
 21
192.3378906459826
 31
0.0
  0
CIRCLE
  5
684
330
18
100
AcDbEntity
  8
2
  6
Continuous
100
AcDbCircle
 10
29.63476755693671
 20
192.7378906459735
 30
0.0
 40
0.9334999999999523
  0
CIRCLE
  5
685
330
18
100
AcDbEntity
  8
1
  6
Continuous
100
AcDbCircle
 10
29.63476755693671
 20
192.7378906459735
 30
0.0
 40
1.149999999999999
  0
LINE
  5
686
330
18
100
AcDbEntity
  8
1
  6
Continuous
100
AcDbLine
 10
22.63476555711315
 20
197.3378906459826
 30
0.0
 11
23.63476555711315
 21
197.3378906459826
 31
0.0
  0
ARC
  5
687
330
18
100
AcDbEntity
  8
1
  6
Continuous
100
AcDbCircle
 10
23.13476555696559
 20
199.3378906459808
 30
0.0
 40
2.5
100
AcDbArc
 50
90.0
 51
180.0
  0
ARC
  5
688
330
18
100
AcDbEntity
  8
1
  6
Continuous
100
AcDbCircle
 10
23.13476555696559
 20
199.3378906459808
 30
0.0
 40
0.5
100
AcDbArc
 50
90.0
 51
180.0
  0
ARC
  5
689
330
18
100
AcDbEntity
  8
1
  6
Continuous
100
AcDbCircle
 10
24.13476555693466
 20
197.8378906459689
 30
0.0
 40
1.0
100
AcDbArc
 50
90.00000000000406
 51
180.0000000000032
  0
LINE
  5
68A
330
18
100
AcDbEntity
  8
1
  6
Continuous
100
AcDbLine
 10
23.13476555693455
 20
197.3378906459825
 30
0.0
 11
23.13476555693455
 21
197.8378906459687
 31
0.0
  0
LINE
  5
68B
330
18
100
AcDbEntity
  8
1
  6
Continuous
100
AcDbLine
 10
23.63476555696359
 20
199.8378906459804
 30
0.0
 11
23.63476555696331
 21
201.8378906459806
 31
0.0
  0
LINE
  5
68C
330
18
100
AcDbEntity
  8
1
  6
Continuous
100
AcDbLine
 10
24.43477955693686
 20
199.2378906459736
 30
0.0
 11
24.43477955693686
 21
198.8378906459738
 31
0.0
  0
LINE
  5
690
330
18
100
AcDbEntity
  8
1
  6
Continuous
100
AcDbLine
 10
46.63476555755693
 20
192.3378906454676
 30
0.0
 11
46.63476555778067
 21
197.3378906454676
 31
0.0
  0
LINE
  5
691
330
18
100
AcDbEntity
  8
1
  6
Continuous
100
AcDbLine
 10
49.63476555696828
 20
199.3378906459808
 30
0.0
 11
49.63476555696828
 21
185.8378906459805
 31
0.0
  0
LINE
  5
692
330
18
100
AcDbEntity
  8
1
  6
Continuous
100
AcDbLine
 10
47.63476555696796
 20
199.3378906459805
 30
0.0
 11
47.63476555696796
 21
185.8378906459805
 31
0.0
  0
ARC
  5
693
330
18
100
AcDbEntity
  8
1
  6
Continuous
100
AcDbCircle
 10
51.13476555696696
 20
182.8378906459807
 30
0.0
 40
2.5
100
AcDbArc
 50
0.0
 51
90.0
  0
ARC
  5
694
330
18
100
AcDbEntity
  8
1
  6
Continuous
100
AcDbCircle
 10
51.13476555696829
 20
162.8378906459805
 30
0.0
 40
2.5
100
AcDbArc
 50
270.0
 51
0.0
  0
LINE
  5
695
330
18
100
AcDbEntity
  8
1
  6
Continuous
100
AcDbLine
 10
51.63476555696831
 20
162.8378906459807
 30
0.0
 11
51.63476555696701
 21
182.8378906459805
 31
0.0
  0
LINE
  5
696
330
18
100
AcDbEntity
  8
1
  6
Continuous
100
AcDbLine
 10
51.13476555693671
 20
163.8378906459713
 30
0.0
 11
51.13476555693551
 21
181.8378906459714
 31
0.0
  0
LINE
  5
697
330
18
100
AcDbEntity
  8
1
  6
Continuous
100
AcDbLine
 10
38.3347655569367
 20
178.0002546459737
 30
0.0
 11
38.3347655569367
 21
168.5121046459737
 31
0.0
  0
LINE
  5
698
330
18
100
AcDbEntity
  8
1
  6
Continuous
100
AcDbLine
 10
35.93476555693689
 20
178.0002546459737
 30
0.0
 11
35.93476555693689
 21
168.5121046459737
 31
0.0
  0
ARC
  5
699
330
18
100
AcDbEntity
  8
1
  6
Continuous
100
AcDbCircle
 10
37.13476555693671
 20
172.8378906459738
 30
0.0
 40
4.799999999999998
100
AcDbArc
 50
287.5824490000002
 51
75.52248800000025
  0
LINE
  5
69A
330
18
100
AcDbEntity
  8
1
  6
Continuous
100
AcDbLine
 10
38.18476555693689
 20
174.6878906459736
 30
0.0
 11
38.18476555693689
 21
168.6621046459736
 31
0.0
  0
LINE
  5
69B
330
18
100
AcDbEntity
  8
1
  6
Continuous
100
AcDbLine
 10
36.0847655569367
 20
174.6878906459736
 30
0.0
 11
36.0847655569367
 21
168.6621046459736
 31
0.0
  0
ARC
  5
69C
330
18
100
AcDbEntity
  8
1
  6
Continuous
100
AcDbCircle
 10
38.5347655569368
 20
149.4378906459736
 30
0.0
 40
0.8
100
AcDbArc
 50
270.0
 51
0.0
  0
LINE
  5
69D
330
18
100
AcDbEntity
  8
1
  6
Continuous
100
AcDbLine
 10
39.3347655569367
 20
149.4378906459736
 30
0.0
 11
39.93476555693689
 21
149.4378906459736
 31
0.0
  0
ARC
  5
69E
330
18
100
AcDbEntity
  8
1
  6
Continuous
100
AcDbCircle
 10
40.73476555693682
 20
149.4378906459736
 30
0.0
 40
0.8
100
AcDbArc
 50
180.0
 51
270.0
  0
LINE
  5
69F
330
18
100
AcDbEntity
  8
1
  6
Continuous
100
AcDbLine
 10
38.18476555693655
 20
168.6621046459736
 30
0.0
 11
39.13310455693658
 21
167.7137666459737
 31
0.0
  0
ARC
  5
6A0
330
18
100
AcDbEntity
  8
1
  6
Continuous
100
AcDbCircle
 10
37.13476555693671
 20
172.8378906459738
 30
0.0
 40
4.5
100
AcDbArc
 50
254.4175
 51
285.5824999999999
  0
LINE
  5
6A1
330
18
100
AcDbEntity
  8
1
  6
Continuous
100
AcDbLine
 10
47.13476555693666
 20
149.8378906460181
 30
0.0
 11
47.13476555693666
 21
161.8378906459736
 31
0.0
  0
ARC
  5
6A2
330
18
100
AcDbEntity
  8
1
  6
Continuous
100
AcDbCircle
 10
50.13476555696829
 20
159.8378906459805
 30
0.0
 40
0.5
100
AcDbArc
 50
90.0
 51
180.0
  0
ARC
  5
6A3
330
18
100
AcDbEntity
  8
1
  6
Continuous
100
AcDbCircle
 10
50.13476555696829
 20
159.8378906459805
 30
0.0
 40
2.5
100
AcDbArc
 50
90.0
 51
180.0
  0
ARC
  5
6A4
330
18
100
AcDbEntity
  8
1
  6
Continuous
100
AcDbCircle
 10
47.13476555663882
 20
154.3378906459807
 30
0.0
 40
0.5
100
AcDbArc
 50
0.0
 51
90.0
  0
ARC
  5
6A5
330
18
100
AcDbEntity
  8
1
  6
Continuous
100
AcDbCircle
 10
47.13476555663882
 20
157.3378906458793
 30
0.0
 40
0.5
100
AcDbArc
 50
270.0
 51
0.0
  0
LINE
  5
6A6
330
18
100
AcDbEntity
  8
1
  6
Continuous
100
AcDbLine
 10
47.63476555670901
 20
149.8378906460198
 30
0.0
 11
46.63476555670899
 21
149.8378906460166
 31
0.0
  0
ARC
  5
6A7
330
18
100
AcDbEntity
  8
1
  6
Continuous
100
AcDbCircle
 10
48.13476555693668
 20
161.8378906459738
 30
0.0
 40
1.0
100
AcDbArc
 50
90.0
 51
180.0
  0
LINE
  5
6A8
330
18
100
AcDbEntity
  8
1
  6
Continuous
100
AcDbLine
 10
51.13476555696829
 20
160.3378906459805
 30
0.0
 11
50.13476555696829
 21
160.3378906459805
 31
0.0
  0
ARC
  5
6A9
330
18
100
AcDbEntity
  8
1
  6
Continuous
100
AcDbCircle
 10
51.13476555696829
 20
162.8378906459805
 30
0.0
 40
0.5
100
AcDbArc
 50
270.0
 51
0.0
  0
LINE
  5
6AA
330
18
100
AcDbEntity
  8
1
  6
Continuous
100
AcDbLine
 10
51.13476555696829
 20
162.3378906459804
 30
0.0
 11
50.13476555696829
 21
162.3378906459804
 31
0.0
  0
ARC
  5
6AB
330
18
100
AcDbEntity
  8
1
  6
Continuous
100
AcDbCircle
 10
50.1347655569369
 20
163.8378906459712
 30
0.0
 40
1.0
100
AcDbArc
 50
270.0000000000032
 51
0.0000000000032569
  0
LINE
  5
6AC
330
18
100
AcDbEntity
  8
1
  6
Continuous
100
AcDbLine
 10
50.1347655569369
 20
162.8378906459738
 30
0.0
 11
48.13476555693668
 21
162.8378906459738
 31
0.0
  0
ARC
  5
6AD
330
18
100
AcDbEntity
  8
1
  6
Continuous
100
AcDbCircle
 10
37.13476555693671
 20
172.8378906459738
 30
0.0
 40
5.299999999999998
100
AcDbArc
 50
76.91389499999996
 51
103.086105
  0
LINE
  5
6AE
330
18
100
AcDbEntity
  8
1
  6
Continuous
100
AcDbLine
 10
38.18476555693689
 20
174.6878906459736
 30
0.0
 11
36.0847655569367
 21
174.6878906459736
 31
0.0
  0
CIRCLE
  5
6B0
330
18
100
AcDbEntity
  8
1
  6
Continuous
100
AcDbCircle
 10
39.1347675569367
 20
192.7378906459735
 30
0.0
 40
1.149999999999999
  0
ARC
  5
6B1
330
18
100
AcDbEntity
  8
1
  6
Continuous
100
AcDbCircle
 10
51.13476555696696
 20
182.8378906459805
 30
0.0
 40
0.5
100
AcDbArc
 50
0.0
 51
90.0
  0
ARC
  5
6B2
330
18
100
AcDbEntity
  8
1
  6
Continuous
100
AcDbCircle
 10
50.13476555696829
 20
185.8378906459805
 30
0.0
 40
2.5
100
AcDbArc
 50
180.0
 51
270.0
  0
ARC
  5
6B3
330
18
100
AcDbEntity
  8
1
  6
Continuous
100
AcDbCircle
 10
48.13476555693668
 20
183.8378906459735
 30
0.0
 40
1.0
100
AcDbArc
 50
180.0
 51
270.0
  0
LINE
  5
6B4
330
18
100
AcDbEntity
  8
1
  6
Continuous
100
AcDbLine
 10
50.13476555693535
 20
182.8378906459713
 30
0.0
 11
48.13476555708071
 21
182.8378906459711
 31
0.0
  0
ARC
  5
6B5
330
18
100
AcDbEntity
  8
1
  6
Continuous
100
AcDbCircle
 10
50.13476555693557
 20
181.8378906459711
 30
0.0
 40
1.0
100
AcDbArc
 50
0.0000000000032569
 51
90.00000000000406
  0
ARC
  5
6B6
330
18
100
AcDbEntity
  8
1
  6
Continuous
100
AcDbCircle
 10
47.13476555678365
 20
191.8378906460556
 30
0.0
 40
0.5
100
AcDbArc
 50
270.0
 51
0.0
  0
ARC
  5
6B7
330
18
100
AcDbEntity
  8
1
  6
Continuous
100
AcDbCircle
 10
47.13476555678365
 20
188.8378906460592
 30
0.0
 40
0.5
100
AcDbArc
 50
0.0
 51
90.0
  0
LINE
  5
6B8
330
18
100
AcDbEntity
  8
1
  6
Continuous
100
AcDbLine
 10
47.13476555693691
 20
192.3378906454459
 30
0.0
 11
47.13476555693691
 21
183.8378906459734
 31
0.0
  0
LINE
  5
6B9
330
18
100
AcDbEntity
  8
1
  6
Continuous
100
AcDbLine
 10
47.63476555755686
 20
192.3378906454234
 30
0.0
 11
46.63476555755686
 21
192.3378906454681
 31
0.0
  0
ARC
  5
6BA
330
18
100
AcDbEntity
  8
1
  6
Continuous
100
AcDbCircle
 10
50.13476555696829
 20
185.8378906459805
 30
0.0
 40
0.5
100
AcDbArc
 50
180.0
 51
270.0
  0
LINE
  5
6BB
330
18
100
AcDbEntity
  8
1
  6
Continuous
100
AcDbLine
 10
51.13476555696696
 20
185.3378906459806
 30
0.0
 11
50.13476555696829
 21
185.3378906459806
 31
0.0
  0
LINE
  5
6BC
330
18
100
AcDbEntity
  8
1
  6
Continuous
100
AcDbLine
 10
51.13476555696696
 20
183.3378906459804
 30
0.0
 11
50.13476555696829
 21
183.3378906459804
 31
0.0
  0
LINE
  5
6BE
330
18
100
AcDbEntity
  8
1
  6
Continuous
100
AcDbLine
 10
53.63476555696855
 20
162.8378906459809
 30
0.0
 11
53.63476555696724
 21
182.8378906459806
 31
0.0
  0
ARC
  5
6C3
330
18
100
AcDbEntity
  8
1
  6
Continuous
100
AcDbCircle
 10
47.13476555696828
 20
199.3378906459808
 30
0.0
 40
2.5
100
AcDbArc
 50
0.0
 51
90.0
  0
ARC
  5
6C4
330
18
100
AcDbEntity
  8
1
  6
Continuous
100
AcDbCircle
 10
47.13476555696828
 20
199.3378906459808
 30
0.0
 40
0.5
100
AcDbArc
 50
0.0
 51
90.0
  0
LINE
  5
6C5
330
18
100
AcDbEntity
  8
1
  6
Continuous
100
AcDbLine
 10
47.13476555693691
 20
197.8378906459735
 30
0.0
 11
47.13476555693691
 21
197.3378906454459
 31
0.0
  0
LINE
  5
6C6
330
18
100
AcDbEntity
  8
1
  6
Continuous
100
AcDbLine
 10
44.63476555710879
 20
199.8378906459836
 30
0.0
 11
44.63476555710848
 21
201.8378906459836
 31
0.0
  0
LINE
  5
6C7
330
18
100
AcDbEntity
  8
1
  6
Continuous
100
AcDbLine
 10
47.63476555778061
 20
197.3378906454235
 30
0.0
 11
46.63476555778067
 21
197.3378906454682
 31
0.0
  0
ARC
  5
6C8
330
18
100
AcDbEntity
  8
1
  6
Continuous
100
AcDbCircle
 10
46.13476555693668
 20
197.8378906459738
 30
0.0
 40
1.0
100
AcDbArc
 50
0.0
 51
90.0
  0
LINE
  5
6C9
330
18
100
AcDbEntity
  8
1
  6
Continuous
100
AcDbLine
 10
44.23476555693681
 20
199.2378906459736
 30
0.0
 11
44.23476555693681
 21
198.8378906459738
 31
0.0
  0
LINE
  5
8A3
330
18
100
AcDbEntity
  8
1
  6
Continuous
100
AcDbLine
 10
33.42591247046508
 20
285.3383758879273
 30
0.0
 11
36.15766024645657
 21
285.3383758879271
 31
0.0
  0
LINE
  5
8A4
330
18
100
AcDbEntity
  8
1
  6
Continuous
100
AcDbLine
 10
36.15599359434847
 20
267.3383758879273
 30
0.0
 11
33.42668171704051
 21
267.3383758879273
 31
0.0
  0
LINE
  5
8AC
330
18
100
AcDbEntity
  8
4
  6
CENTER
 48
0.3
100
AcDbLine
 10
24.9337322857472
 20
276.3383758880832
 30
0.0
 11
69.43373228574717
 21
276.3383758880832
 31
0.0
  0
CIRCLE
  5
9B6
330
18
100
AcDbEntity
  8
1
  6
Continuous
100
AcDbCircle
 10
274.5528004584428
 20
183.4628906459814
 30
0.0
 40
0.625
  0
LINE
  5
9B7
330
18
100
AcDbEntity
  8
1
  6
Continuous
100
AcDbLine
 10
274.5528004584428
 20
185.3378906459814
 30
0.0
 11
273.963544807454
 21
183.6712239793147
 31
0.0
  0
LINE
  5
9B8
330
18
100
AcDbEntity
  8
1
  6
Continuous
100
AcDbLine
 10
278.0364114461703
 20
182.8378906459814
 30
0.0
 11
276.7864114461703
 21
182.8378906459814
 31
0.0
  0
LINE
  5
9B9
330
18
100
AcDbEntity
  8
1
  6
Continuous
100
AcDbLine
 10
277.9114114461703
 20
184.3378906459814
 30
0.0
 11
276.7864114461703
 21
182.8378906459814
 31
0.0
  0
ARC
  5
9BA
330
18
100
AcDbEntity
  8
1
  6
Continuous
100
AcDbCircle
 10
277.4114114461703
 20
184.7128906459814
 30
0.0
 40
0.6250000000000006
100
AcDbArc
 50
323.1301023541553
 51
180.0
  0
LINE
  5
9C0
330
18
100
AcDbEntity
  8
1
  6
Continuous
100
AcDbLine
 10
271.5967803767518
 20
184.0878906459814
 30
0.0
 11
271.4090762280981
 21
184.0878906459814
 31
0.0
  0
ARC
  5
9C1
330
18
100
AcDbEntity
  8
1
  6
Continuous
100
AcDbCircle
 10
271.5967803767518
 20
184.7128906459814
 30
0.0
 40
0.625
100
AcDbArc
 50
270.0
 51
180.0
  0
ARC
  5
9C2
330
18
100
AcDbEntity
  8
1
  6
Continuous
100
AcDbCircle
 10
271.5967803767518
 20
183.4628906459814
 30
0.0
 40
0.6250000000000006
100
AcDbArc
 50
180.0
 51
90.0
  0
ARC
  5
9C8
330
18
100
AcDbEntity
  8
1
  6
Continuous
100
AcDbCircle
 10
263.8555416190325
 20
187.1806451050032
 30
0.0
 40
0.5927544590217826
100
AcDbArc
 50
212.0053832080824
 51
327.9946167919175
  0
ARC
  5
9C9
330
18
100
AcDbEntity
  8
1
  6
Continuous
100
AcDbCircle
 10
263.8555416190325
 20
188.4951361869596
 30
0.0
 40
0.5927544590217826
100
AcDbArc
 50
32.00538320808246
 51
147.9946167919175
  0
ARC
  5
9D4
330
18
100
AcDbEntity
  8
1
  6
Continuous
100
AcDbCircle
 10
264.9071344845976
 20
187.8378906459814
 30
0.0
 40
1.832842865565158
100
AcDbArc
 50
147.9946167919175
 51
212.0053832080824
  0
LINE
  5
9D5
330
18
100
AcDbEntity
  8
1
  6
Continuous
100
AcDbLine
 10
261.4114114461703
 20
189.0878906459814
 30
0.0
 11
261.4114114461703
 21
186.5878906459814
 31
0.0
  0
LINE
  5
9D6
330
18
100
AcDbEntity
  8
1
  6
Continuous
100
AcDbLine
 10
262.1614114461703
 20
189.0878906459814
 30
0.0
 11
260.6614114461703
 21
189.0878906459814
 31
0.0
  0
ARC
  5
9D7
330
18
100
AcDbEntity
  8
1
  6
Continuous
100
AcDbCircle
 10
273.1930946947518
 20
187.2387804985762
 30
0.0
 40
0.6508898525948183
100
AcDbArc
 50
214.8882680994094
 51
325.1117319005905
  0
ARC
  5
9D8
330
18
100
AcDbEntity
  8
1
  6
Continuous
100
AcDbCircle
 10
273.1930946947518
 20
188.4370007933867
 30
0.0
 40
0.6508898525948183
100
AcDbArc
 50
34.88826809940941
 51
145.1117319005905
  0
LINE
  5
9D9
330
18
100
AcDbEntity
  8
1
  6
Continuous
100
AcDbLine
 10
268.1684486277581
 20
187.8378906459814
 30
0.0
 11
269.6059486277582
 21
187.8378906459814
 31
0.0
  0
LINE
  5
9DA
330
18
100
AcDbEntity
  8
1
  6
Continuous
100
AcDbLine
 10
268.1684486277581
 20
189.0878906459814
 30
0.0
 11
268.1684486277581
 21
186.5878906459814
 31
0.0
  0
ARC
  5
9DB
330
18
100
AcDbEntity
  8
1
  6
Continuous
100
AcDbCircle
 10
266.4122502875299
 20
187.1806451050032
 30
0.0
 40
0.5927544590217826
100
AcDbArc
 50
212.0053832080824
 51
327.9946167919175
  0
ARC
  5
9DC
330
18
100
AcDbEntity
  8
1
  6
Continuous
100
AcDbCircle
 10
267.4638431530952
 20
187.8378906459814
 30
0.0
 40
1.832842865565158
100
AcDbArc
 50
147.9946167919175
 51
212.0053832080824
  0
ARC
  5
9DD
330
18
100
AcDbEntity
  8
1
  6
Continuous
100
AcDbCircle
 10
262.8039487534674
 20
187.8378906459814
 30
0.0
 40
1.832842865565158
100
AcDbArc
 50
327.9946167919175
 51
32.00538320808246
  0
ARC
  5
9DE
330
18
100
AcDbEntity
  8
1
  6
Continuous
100
AcDbCircle
 10
266.4122502875299
 20
188.4951361869596
 30
0.0
 40
0.5927544590217826
100
AcDbArc
 50
32.00538320808246
 51
147.9946167919175
  0
ARC
  5
9DF
330
18
100
AcDbEntity
  8
1
  6
Continuous
100
AcDbCircle
 10
274.213437560317
 20
187.8378906459814
 30
0.0
 40
1.832842865565158
100
AcDbArc
 50
147.9946167919175
 51
212.0053832080824
  0
LINE
  5
9E0
330
18
100
AcDbEntity
  8
1
  6
Continuous
100
AcDbLine
 10
269.6059486277582
 20
189.0878906459814
 30
0.0
 11
269.6059486277582
 21
186.5878906459814
 31
0.0
  0
LINE
  5
9E1
330
18
100
AcDbEntity
  8
1
  6
Continuous
100
AcDbLine
 10
271.1890850804807
 20
189.0878906459814
 30
0.0
 11
271.1890850804807
 21
186.5878906459814
 31
0.0
  0
LINE
  5
9E2
330
18
100
AcDbEntity
  8
1
  6
Continuous
100
AcDbLine
 10
277.0902464360187
 20
187.8378906459814
 30
0.0
 11
277.8402464360187
 21
189.0878906459814
 31
0.0
  0
LINE
  5
9E3
330
18
100
AcDbEntity
  8
1
  6
Continuous
100
AcDbLine
 10
277.0902464360187
 20
187.8378906459814
 30
0.0
 11
277.0902464360187
 21
186.5878906459814
 31
0.0
  0
ARC
  5
9E4
330
18
100
AcDbEntity
  8
1
  6
Continuous
100
AcDbCircle
 10
272.1709160433598
 20
187.7173106521656
 30
0.0
 40
1.901006672846339
100
AcDbArc
 50
25.72010630391699
 51
35.05933814365163
  0
LINE
  5
9E5
330
18
100
AcDbEntity
  8
1
  6
Continuous
100
AcDbLine
 10
274.0680946947518
 20
187.8378906459814
 30
0.0
 11
273.2066965141701
 21
187.8378906459814
 31
0.0
  0
LINE
  5
9E6
330
18
100
AcDbEntity
  8
1
  6
Continuous
100
AcDbLine
 10
274.0680946947518
 20
187.8378906459814
 30
0.0
 11
274.0680946947518
 21
186.7090258369328
 31
0.0
  0
ARC
  5
9E7
330
18
100
AcDbEntity
  8
1
  6
Continuous
100
AcDbCircle
 10
272.1709160433598
 20
187.9584706397973
 30
0.0
 40
1.901006672846339
100
AcDbArc
 50
324.9406618563483
 51
356.3633132383594
  0
LINE
  5
9E8
330
18
100
AcDbEntity
  8
1
  6
Continuous
100
AcDbLine
 10
276.3402464360187
 20
189.0878906459814
 30
0.0
 11
277.0902464360187
 21
187.8378906459814
 31
0.0
  0
LINE
  5
9E9
330
18
100
AcDbEntity
  8
1
  6
Continuous
100
AcDbLine
 10
275.2443699239904
 20
189.0878906459814
 30
0.0
 11
275.2443699239904
 21
186.5878906459814
 31
0.0
  0
LINE
  5
9EA
330
18
100
AcDbEntity
  8
1
  6
Continuous
100
AcDbLine
 10
278.6926614461703
 20
187.5253906459814
 30
0.0
 11
279.6301614461703
 21
187.5253906459814
 31
0.0
  0
LINE
  5
9EB
330
18
100
AcDbEntity
  8
1
  6
Continuous
100
AcDbLine
 10
279.1614114461703
 20
189.0878906459814
 30
0.0
 11
279.9114114461703
 21
186.5878906459814
 31
0.0
  0
LINE
  5
9EC
330
18
100
AcDbEntity
  8
1
  6
Continuous
100
AcDbLine
 10
278.4114114461703
 20
186.5878906459814
 30
0.0
 11
279.1614114461703
 21
189.0878906459814
 31
0.0
  0
LINE
  5
9ED
330
18
100
AcDbEntity
  8
1
  6
Continuous
100
AcDbLine
 10
269.1580761398943
 20
184.0878906459814
 30
0.0
 11
267.9841779593126
 21
184.0878906459814
 31
0.0
  0
LINE
  5
9EE
330
18
100
AcDbEntity
  8
1
  6
Continuous
100
AcDbLine
 10
264.0364114461703
 20
185.3378906459814
 30
0.0
 11
262.5364114461703
 21
185.3378906459814
 31
0.0
  0
LINE
  5
9EF
330
18
100
AcDbEntity
  8
1
  6
Continuous
100
AcDbLine
 10
263.2864114461703
 20
185.3378906459814
 30
0.0
 11
263.2864114461703
 21
182.8378906459814
 31
0.0
  0
LINE
  5
9F0
330
18
100
AcDbEntity
  8
1
  6
Continuous
100
AcDbLine
 10
265.668366622437
 20
185.3378906459814
 30
0.0
 11
265.668366622437
 21
182.8378906459814
 31
0.0
  0
LINE
  5
9F1
330
18
100
AcDbEntity
  8
1
  6
Continuous
100
AcDbLine
 10
266.918366622437
 20
182.8378906459814
 30
0.0
 11
265.668366622437
 21
182.8378906459814
 31
0.0
  0
ARC
  5
A16
330
18
100
AcDbEntity
  8
1
  6
Continuous
100
AcDbCircle
 10
159.0097545567827
 20
117.4562619807676
 30
0.0
 40
1.763020832955557
100
AcDbArc
 50
41.27509396381404
 51
138.7249060361839
  0
ARC
  5
A17
330
18
100
AcDbEntity
  8
1
  6
Continuous
100
AcDbCircle
 10
161.6597545567826
 20
119.7823036474341
 30
0.0
 40
1.763020833711061
100
AcDbArc
 50
221.2750939749324
 51
318.7249060250675
  0
ARC
  5
A18
330
18
100
AcDbEntity
  8
1
  6
Continuous
100
AcDbCircle
 10
19.3719372672171
 20
120.8680532358715
 30
0.0
 40
1.763020833711061
100
AcDbArc
 50
131.2750939749324
 51
228.7249060250675
  0
ARC
  5
A19
330
18
100
AcDbEntity
  8
1
  6
Continuous
100
AcDbCircle
 10
17.04589560055057
 20
123.5180532358716
 30
0.0
 40
1.763020832955557
100
AcDbArc
 50
311.275093963814
 51
48.72490603618391
  0
ARC
  5
A1C
330
18
100
AcDbEntity
  8
1
  6
Continuous
100
AcDbCircle
 10
285.9406305138975
 20
124.8937446477299
 30
0.0
 40
9.980951655966563
100
AcDbArc
 50
177.6665024620474
 51
237.94719598476
  0
ARC
  5
A1D
330
18
100
AcDbEntity
  8
1
  6
Continuous
100
AcDbCircle
 10
288.6681232737142
 20
135.2125086292074
 30
0.0
 40
19.20457202671282
100
AcDbArc
 50
234.3482938326312
 51
260.1180532614228
  0
ARC
  5
A1E
330
18
100
AcDbEntity
  8
1
  6
Continuous
100
AcDbCircle
 10
281.9144285506038
 20
98.90837350122101
 30
0.0
 40
17.72504392912466
100
AcDbArc
 50
47.35314256366677
 51
78.75050554245629
  0
LINE
  5
A1F
330
18
100
AcDbEntity
  8
1
  6
Continuous
100
AcDbLine
 10
293.9227511757433
 20
111.9459104626244
 30
0.0
 11
299.1438764462577
 21
107.5177566459587
 31
0.0
  0
LINE
  5
A20
330
18
100
AcDbEntity
  8
1
  6
Continuous
100
AcDbLine
 10
298.2634564462577
 20
106.5800306459583
 30
0.0
 11
293.0617201923503
 21
110.9741373677621
 31
0.0
  0
ARC
  5
A22
330
18
100
AcDbEntity
  8
1
  6
Continuous
100
AcDbCircle
 10
267.6166280515456
 20
55.81516259415257
 30
0.0
 40
62.00310288136793
100
AcDbArc
 50
71.84028095055023
 51
77.87154785474291
  0
ARC
  5
A23
330
18
100
AcDbEntity
  8
1
  6
Continuous
100
AcDbCircle
 10
280.5609039860939
 20
97.46729163188945
 30
0.0
 40
18.40394760792549
100
AcDbArc
 50
47.21521344291865
 51
69.71640301338959
  0
ARC
  5
A24
330
18
100
AcDbEntity
  8
1
  6
Continuous
100
AcDbCircle
 10
284.8724898114882
 20
124.4291293795491
 30
0.0
 40
10.11045942327795
100
AcDbArc
 50
178.0383582270163
 51
234.6519160803425
  0
ARC
  5
A25
330
18
100
AcDbEntity
  8
1
  6
Continuous
100
AcDbCircle
 10
193.1802495038558
 20
-36.39594302810576
 30
0.0
 40
175.0690994481625
100
AcDbArc
 50
58.22835604639213
 51
60.63724555279982
  0
ARC
  5
A26
330
18
100
AcDbEntity
  8
1
  6
Continuous
100
AcDbCircle
 10
265.1060059872657
 20
83.42713177787553
 30
0.0
 40
36.48141775211597
100
AcDbArc
 50
50.60838093371135
 51
64.79184997571924
  0
LINE
  5
A29
330
18
100
AcDbEntity
  8
1
  6
Continuous
100
AcDbLine
 10
295.2578524462579
 20
102.3251116459586
 30
0.0
 11
291.6508043573299
 21
107.5008668547264
 31
0.0
  0
LINE
  5
A2A
330
18
100
AcDbEntity
  8
1
  6
Continuous
100
AcDbLine
 10
294.1725024462577
 20
101.6360266459586
 30
0.0
 11
290.7258762823321
 21
106.6160436345952
 31
0.0
  0
ARC
  5
A2B
330
18
100
AcDbEntity
  8
1
  6
Continuous
100
AcDbCircle
 10
272.4040949447321
 20
95.10757085358783
 30
0.0
 40
22.89169301263713
100
AcDbArc
 50
32.77820021997478
 51
46.16764654358256
  0
ARC
  5
A2C
330
18
100
AcDbEntity
  8
1
  6
Continuous
100
AcDbCircle
 10
273.6809902512941
 20
96.29527521624416
 30
0.0
 40
19.92602319973322
100
AcDbArc
 50
31.19512646187662
 51
54.11697208812228
  0
LINE
  5
110C
330
18
100
AcDbEntity
  8
1
  6
Continuous
100
AcDbLine
 10
150.1347655569619
 20
268.8383758878757
 30
0.0
 11
150.1347655569619
 21
289.8383758880208
 31
0.0
  0
LINE
  5
13C2
330
18
100
AcDbEntity
  8
1
  6
Continuous
100
AcDbLine
 10
141.8347655569619
 20
287.3383758880832
 30
0.0
 11
141.8347655569619
 21
265.3383758880832
 31
0.0
  0
LINE
  5
13C3
330
18
100
AcDbEntity
  8
1
  6
Continuous
100
AcDbLine
 10
136.334765556962
 20
287.3383758880832
 30
0.0
 11
136.334765556962
 21
265.3383758880832
 31
0.0
  0
LINE
  5
13C4
330
18
100
AcDbEntity
  8
1
  6
Continuous
100
AcDbLine
 10
135.8347655569619
 20
265.8383758880832
 30
0.0
 11
135.8347655569619
 21
286.8383758880832
 31
0.0
  0
LINE
  5
13C5
330
18
100
AcDbEntity
  8
1
  6
Continuous
100
AcDbLine
 10
136.334765556962
 20
265.3383758880832
 30
0.0
 11
141.8347655569619
 21
265.3383758880832
 31
0.0
  0
LINE
  5
13C6
330
18
100
AcDbEntity
  8
1
  6
Continuous
100
AcDbLine
 10
135.8347655569619
 20
265.8383758880832
 30
0.0
 11
136.334765556962
 21
265.3383758880832
 31
0.0
  0
LINE
  5
13C7
330
18
100
AcDbEntity
  8
1
  6
Continuous
100
AcDbLine
 10
135.034765556962
 20
281.1383758880834
 30
0.0
 11
135.034765556962
 21
271.5383758880834
 31
0.0
  0
LINE
  5
13C8
330
18
100
AcDbEntity
  8
1
  6
Continuous
100
AcDbLine
 10
135.734765556962
 20
270.8383758880832
 30
0.0
 11
135.734765556962
 21
281.8383758880832
 31
0.0
  0
LINE
  5
13C9
330
18
100
AcDbEntity
  8
1
  6
Continuous
100
AcDbLine
 10
135.734765556962
 20
270.8383758880832
 30
0.0
 11
135.8347655569619
 21
270.8383758880832
 31
0.0
  0
LINE
  5
13CA
330
18
100
AcDbEntity
  8
1
  6
Continuous
100
AcDbLine
 10
135.0347655569616
 20
271.5383758880832
 30
0.0
 11
135.7347655569617
 21
270.8383758880831
 31
0.0
  0
LINE
  5
13CB
330
18
100
AcDbEntity
  8
1
  6
Continuous
100
AcDbLine
 10
136.334765556962
 20
287.3383758880832
 30
0.0
 11
141.8347655569619
 21
287.3383758880832
 31
0.0
  0
LINE
  5
13CC
330
18
100
AcDbEntity
  8
1
  6
Continuous
100
AcDbLine
 10
136.334765556962
 20
287.338375888083
 30
0.0
 11
135.8347655569619
 21
286.8383758880831
 31
0.0
  0
LINE
  5
13CD
330
18
100
AcDbEntity
  8
1
  6
Continuous
100
AcDbLine
 10
135.734765556962
 20
281.8383758880832
 30
0.0
 11
135.8347655569619
 21
281.8383758880832
 31
0.0
  0
LINE
  5
13CE
330
18
100
AcDbEntity
  8
1
  6
Continuous
100
AcDbLine
 10
135.0347655569621
 20
281.1383758880832
 30
0.0
 11
135.734765556962
 21
281.8383758880831
 31
0.0
  0
LINE
  5
13D2
330
18
100
AcDbEntity
  8
4
  6
CENTER
 48
0.3
100
AcDbLine
 10
132.034765556962
 20
276.3383758880832
 30
0.0
 11
181.1347645570615
 21
276.3383758880832
 31
0.0
  0
LINE
  5
13D3
330
18
100
AcDbEntity
  8
1
  6
Continuous
100
AcDbLine
 10
146.134765556962
 20
281.6147382713923
 30
0.0
 11
146.134765556962
 21
271.062013504774
 31
0.0
  0
LINE
  5
13D4
330
18
100
AcDbEntity
  8
1
  6
Continuous
100
AcDbLine
 10
148.134764557063
 20
259.8383758880746
 30
0.0
 11
148.1347645570629
 21
268.8383758878754
 31
0.0
  0
LINE
  5
13EF
330
18
100
AcDbEntity
  8
1
  6
Continuous
100
AcDbLine
 10
172.1347645570626
 20
262.3383758880731
 30
0.0
 11
172.1347645570626
 21
290.3383758880734
 31
0.0
  0
LINE
  5
1411
330
18
100
AcDbEntity
  8
1
  6
Continuous
100
AcDbLine
 10
178.1347645570616
 20
269.0883758880699
 30
0.0
 11
178.1347645570616
 21
283.5883758880698
 31
0.0
  0
LINE
  5
141E
330
18
100
AcDbEntity
  8
1
  6
Continuous
100
AcDbLine
 10
169.6347645570628
 20
292.8383758880734
 30
0.0
 11
148.1347645570626
 21
292.8383758880747
 31
0.0
  0
LINE
  5
1420
330
18
100
AcDbEntity
  8
1
  6
Continuous
100
AcDbLine
 10
148.1347645570629
 20
263.8383758880694
 30
0.0
 11
169.6347645570626
 21
263.8383758880694
 31
0.0
  0
LINE
  5
1421
330
18
100
AcDbEntity
  8
1
  6
Continuous
100
AcDbLine
 10
169.6347645570624
 20
259.8383758880731
 30
0.0
 11
148.134764557063
 21
259.8383758880746
 31
0.0
  0
LINE
  5
1422
330
18
100
AcDbEntity
  8
1
  6
Continuous
100
AcDbLine
 10
172.6347645570626
 20
269.0883758880699
 30
0.0
 11
178.1347645570616
 21
269.0883758880699
 31
0.0
  0
LINE
  5
1423
330
18
100
AcDbEntity
  8
1
  6
Continuous
100
AcDbLine
 10
172.6347645570626
 20
283.5883758880699
 30
0.0
 11
178.1347645570616
 21
283.5883758880698
 31
0.0
  0
ARC
  5
1424
330
18
100
AcDbEntity
  8
1
  6
Continuous
100
AcDbCircle
 10
169.6347645570626
 20
290.3383758880734
 30
0.0
 40
2.5
100
AcDbArc
 50
0.0
 51
89.99999999999614
  0
ARC
  5
1425
330
18
100
AcDbEntity
  8
1
  6
Continuous
100
AcDbCircle
 10
169.6347645570626
 20
266.3383758880694
 30
0.0
 40
2.5
100
AcDbArc
 50
270.0
 51
0.0
  0
ARC
  5
1426
330
18
100
AcDbEntity
  8
1
  6
Continuous
100
AcDbCircle
 10
169.6347645570626
 20
262.3383758880731
 30
0.0
 40
2.5
100
AcDbArc
 50
269.999999999996
 51
0.0
  0
LINE
  5
14C9
330
18
100
AcDbEntity
  8
1
  6
Continuous
100
AcDbLine
 10
148.1347645570626
 20
289.8383758880206
 30
0.0
 11
163.6347645570626
 21
289.8383758880214
 31
0.0
  0
LINE
  5
14CA
330
18
100
AcDbEntity
  8
1
  6
Continuous
100
AcDbLine
 10
148.1347645570629
 20
268.8383758878754
 30
0.0
 11
163.6347645570627
 21
268.8383758878763
 31
0.0
  0
LINE
  5
14CB
330
18
100
AcDbEntity
  8
1
  6
Continuous
100
AcDbLine
 10
148.1347645570628
 20
285.8383758880831
 30
0.0
 11
148.1347645570626
 21
292.8383758880747
 31
0.0
  0
LINE
  5
14CD
330
18
100
AcDbEntity
  8
1
  6
Continuous
100
AcDbLine
 10
166.1347645570626
 20
271.3383758878763
 30
0.0
 11
166.1347645570627
 21
287.3383758880214
 31
0.0
  0
ARC
  5
14CE
330
18
100
AcDbEntity
  8
1
  6
Continuous
100
AcDbCircle
 10
163.6347645570626
 20
271.3383758878763
 30
0.0
 40
2.5
100
AcDbArc
 50
270.0000000000031
 51
0.0
  0
ARC
  5
14CF
330
18
100
AcDbEntity
  8
1
  6
Continuous
100
AcDbCircle
 10
163.6347645570627
 20
287.3383758880214
 30
0.0
 40
2.5
100
AcDbArc
 50
359.9999999999998
 51
90.00000000000325
  0
LINE
  5
14D3
330
18
100
AcDbEntity
  8
4
  6
CENTER
 48
0.3
100
AcDbLine
 10
175.1347645570639
 20
273.8383758880884
 30
0.0
 11
175.1347645570655
 21
278.8383758880779
 31
0.0
  0
CIRCLE
  5
14D4
330
18
100
AcDbEntity
  8
1
  6
Continuous
100
AcDbCircle
 10
175.1347645570647
 20
276.3383758880832
 30
0.0
 40
1.499999999994769
  0
CIRCLE
  5
14D6
330
18
100
AcDbEntity
  8
1
  6
Continuous
100
AcDbCircle
 10
175.1347645570647
 20
276.3383758880832
 30
0.0
 40
1.000000000005228
  0
LINE
  5
14F6
330
18
100
AcDbEntity
  8
1
  6
Continuous
100
AcDbLine
 10
154.9347655569619
 20
284.988373888048
 30
0.0
 11
154.1347655569619
 21
284.988373888048
 31
0.0
  0
LINE
  5
14F7
330
18
100
AcDbEntity
  8
2
  6
Continuous
100
AcDbLine
 10
154.9347655569619
 20
284.7718738880481
 30
0.0
 11
154.1347655569619
 21
284.7718738880481
 31
0.0
  0
LINE
  5
14FA
330
18
100
AcDbEntity
  8
1
  6
Continuous
100
AcDbLine
 10
154.9347655569619
 20
282.6883738880482
 30
0.0
 11
154.1347655569619
 21
282.6883738880482
 31
0.0
  0
LINE
  5
14FF
330
18
100
AcDbEntity
  8
1
  6
Continuous
100
AcDbLine
 10
154.1347655569619
 20
284.988373888048
 30
0.0
 11
154.1347655569619
 21
282.6883738880482
 31
0.0
  0
LINE
  5
1501
330
18
100
AcDbEntity
  8
1
  6
Continuous
100
AcDbLine
 10
163.5347315569618
 20
286.0383738880481
 30
0.0
 11
164.1347655569619
 21
286.0383738880481
 31
0.0
  0
LINE
  5
1502
330
18
100
AcDbEntity
  8
1
  6
Continuous
100
AcDbLine
 10
164.1347655569618
 20
285.838373888048
 30
0.0
 11
164.7804645569618
 21
285.8045338880479
 31
0.0
  0
ARC
  5
1503
330
18
100
AcDbEntity
  8
1
  6
Continuous
100
AcDbCircle
 10
164.7438295569618
 20
285.105493888048
 30
0.0
 40
0.7
100
AcDbArc
 50
17.13828900000033
 51
86.9999999999993
  0
LINE
  5
1507
330
18
100
AcDbEntity
  8
1
  6
Continuous
100
AcDbLine
 10
163.5347655569618
 20
281.638373888048
 30
0.0
 11
164.1347655569619
 21
281.638373888048
 31
0.0
  0
LINE
  5
1508
330
18
100
AcDbEntity
  8
1
  6
Continuous
100
AcDbLine
 10
164.1347655569618
 20
281.838373888048
 30
0.0
 11
164.7804645569618
 21
281.872213888048
 31
0.0
  0
ARC
  5
1509
330
18
100
AcDbEntity
  8
1
  6
Continuous
100
AcDbCircle
 10
164.7438295569618
 20
282.5712538880481
 30
0.0
 40
0.7
100
AcDbArc
 50
273.0000000000007
 51
342.8617109999996
  0
LINE
  5
150B
330
18
100
AcDbEntity
  8
1
  6
Continuous
100
AcDbLine
 10
164.1347655569619
 20
281.638373888048
 30
0.0
 11
164.1347655569619
 21
286.0383738880481
 31
0.0
  0
ARC
  5
150C
330
18
100
AcDbEntity
  8
1
  6
Continuous
100
AcDbCircle
 10
160.6347655569619
 20
283.838373888048
 30
0.0
 40
5.0
100
AcDbArc
 50
342.8617109999996
 51
17.13828900000033
  0
LINE
  5
150D
330
18
100
AcDbEntity
  8
1
  6
Continuous
100
AcDbLine
 10
163.5347315569618
 20
286.0383738880481
 30
0.0
 11
163.5347315569618
 21
281.638373888048
 31
0.0
  0
LINE
  5
1515
330
18
100
AcDbEntity
  8
1
  6
Continuous
100
AcDbLine
 10
154.9347655569619
 20
268.8383758878758
 30
0.0
 11
154.9347655569619
 21
289.838375888021
 31
0.0
  0
LINE
  5
1518
330
18
100
AcDbEntity
  8
1
  6
Continuous
100
AcDbLine
 10
156.9347655569618
 20
268.838375887876
 30
0.0
 11
156.9347655569619
 21
289.8383758880211
 31
0.0
  0
LINE
  5
151A
330
18
100
AcDbEntity
  8
1
  6
Continuous
100
AcDbLine
 10
157.1347655569619
 20
289.0383618880831
 30
0.0
 11
157.1347655569619
 21
269.2383758880832
 31
0.0
  0
LINE
  5
151C
330
18
100
AcDbEntity
  8
1
  6
Continuous
100
AcDbLine
 10
163.3347345569618
 20
289.8383758880214
 30
0.0
 11
163.3347345569618
 21
268.8383758878763
 31
0.0
  0
LINE
  5
151E
330
18
100
AcDbEntity
  8
1
  6
Continuous
100
AcDbLine
 10
154.9347655569618
 20
275.4883738880481
 30
0.0
 11
154.1347655569619
 21
275.4883738880481
 31
0.0
  0
LINE
  5
1520
330
18
100
AcDbEntity
  8
1
  6
Continuous
100
AcDbLine
 10
154.9347655569618
 20
273.1883738880481
 30
0.0
 11
154.1347655569619
 21
273.1883738880481
 31
0.0
  0
LINE
  5
1521
330
18
100
AcDbEntity
  8
1
  6
Continuous
100
AcDbLine
 10
154.1347655569619
 20
275.4883738880481
 30
0.0
 11
154.1347655569619
 21
273.1883738880481
 31
0.0
  0
LINE
  5
1523
330
18
100
AcDbEntity
  8
2
  6
Continuous
100
AcDbLine
 10
154.9347655569619
 20
282.9048738880482
 30
0.0
 11
154.1347655569619
 21
282.9048738880482
 31
0.0
  0
LINE
  5
1524
330
18
100
AcDbEntity
  8
2
  6
Continuous
100
AcDbLine
 10
154.9347655569618
 20
273.4048738880481
 30
0.0
 11
154.1347655569619
 21
273.4048738880481
 31
0.0
  0
LINE
  5
1525
330
18
100
AcDbEntity
  8
2
  6
Continuous
100
AcDbLine
 10
154.9347655569618
 20
275.2718738880481
 30
0.0
 11
154.1347655569619
 21
275.2718738880481
 31
0.0
  0
LINE
  5
1526
330
18
100
AcDbEntity
  8
1
  6
Continuous
100
AcDbLine
 10
161.9347755569618
 20
287.4083738880521
 30
0.0
 11
161.9347755569618
 21
286.9083738880521
 31
0.0
  0
LINE
  5
1527
330
18
100
AcDbEntity
  8
1
  6
Continuous
100
AcDbLine
 10
158.7347555569618
 20
287.4083738880521
 30
0.0
 11
158.7347555569618
 21
286.9083738880521
 31
0.0
  0
LINE
  5
153B
330
18
100
AcDbEntity
  8
1
  6
Continuous
100
AcDbLine
 10
156.9347655569618
 20
289.0383618880831
 30
0.0
 11
157.1347655569618
 21
289.0383618880832
 31
0.0
  0
LINE
  5
153C
330
18
100
AcDbEntity
  8
1
  6
Continuous
100
AcDbLine
 10
156.9347655569618
 20
269.2383758880831
 30
0.0
 11
157.1347655569619
 21
269.2383758880831
 31
0.0
  0
LINE
  5
1617
330
18
100
AcDbEntity
  8
1
  6
Continuous
100
AcDbLine
 10
161.9347755569618
 20
286.9083738880521
 30
0.0
 11
158.7347555569618
 21
286.9083738880521
 31
0.0
  0
LINE
  5
1618
330
18
100
AcDbEntity
  8
1
  6
Continuous
100
AcDbLine
 10
161.9347755569618
 20
287.4083738880521
 30
0.0
 11
158.7347555569618
 21
287.4083738880521
 31
0.0
  0
LINE
  5
161C
330
18
100
AcDbEntity
  8
1
  6
Continuous
100
AcDbLine
 10
161.9347755569618
 20
279.6083738880521
 30
0.0
 11
158.7347555569618
 21
279.6083738880521
 31
0.0
  0
LINE
  5
161D
330
18
100
AcDbEntity
  8
1
  6
Continuous
100
AcDbLine
 10
158.7347555569618
 20
280.1083738880521
 30
0.0
 11
158.7347555569618
 21
279.6083738880521
 31
0.0
  0
LINE
  5
161E
330
18
100
AcDbEntity
  8
1
  6
Continuous
100
AcDbLine
 10
161.9347755569618
 20
280.1083738880521
 30
0.0
 11
161.9347755569618
 21
279.6083738880521
 31
0.0
  0
LINE
  5
161F
330
18
100
AcDbEntity
  8
1
  6
Continuous
100
AcDbLine
 10
161.9347755569618
 20
280.1083738880521
 30
0.0
 11
158.7347555569618
 21
280.1083738880521
 31
0.0
  0
LINE
  5
1620
330
18
100
AcDbEntity
  8
1
  6
Continuous
100
AcDbLine
 10
161.9347755569619
 20
270.8083738880521
 30
0.0
 11
158.7347555569619
 21
270.8083738880521
 31
0.0
  0
LINE
  5
1621
330
18
100
AcDbEntity
  8
1
  6
Continuous
100
AcDbLine
 10
158.7347555569619
 20
271.3083738880521
 30
0.0
 11
158.7347555569619
 21
270.8083738880521
 31
0.0
  0
LINE
  5
1622
330
18
100
AcDbEntity
  8
1
  6
Continuous
100
AcDbLine
 10
161.9347755569619
 20
271.3083738880521
 30
0.0
 11
161.9347755569619
 21
270.8083738880521
 31
0.0
  0
LINE
  5
1623
330
18
100
AcDbEntity
  8
1
  6
Continuous
100
AcDbLine
 10
161.9347755569619
 20
271.3083738880521
 30
0.0
 11
158.7347555569619
 21
271.3083738880521
 31
0.0
  0
LINE
  5
1624
330
18
100
AcDbEntity
  8
1
  6
Continuous
100
AcDbLine
 10
163.5347315569619
 20
282.0383748880522
 30
0.0
 11
163.3347345569618
 21
282.0383748880522
 31
0.0
  0
LINE
  5
1625
330
18
100
AcDbEntity
  8
1
  6
Continuous
100
AcDbLine
 10
163.5347315569618
 20
285.6383728880524
 30
0.0
 11
163.3347345569618
 21
285.6383728880524
 31
0.0
  0
LINE
  5
1628
330
18
100
AcDbEntity
  8
1
  6
Continuous
100
AcDbLine
 10
163.5347315569618
 20
276.1383768880522
 30
0.0
 11
163.3347345569618
 21
276.1383768880522
 31
0.0
  0
LINE
  5
1629
330
18
100
AcDbEntity
  8
1
  6
Continuous
100
AcDbLine
 10
163.5347315569619
 20
272.538378888052
 30
0.0
 11
163.3347345569618
 21
272.5383788880521
 31
0.0
  0
LINE
  5
162A
330
18
100
AcDbEntity
  8
1
  6
Continuous
100
AcDbLine
 10
163.5347315569618
 20
276.538377888048
 30
0.0
 11
163.5347315569618
 21
272.1383778880479
 31
0.0
  0
LINE
  5
162B
330
18
100
AcDbEntity
  8
1
  6
Continuous
100
AcDbLine
 10
163.5347315569618
 20
276.538377888048
 30
0.0
 11
164.1347655569619
 21
276.538377888048
 31
0.0
  0
ARC
  5
162C
330
18
100
AcDbEntity
  8
1
  6
Continuous
100
AcDbCircle
 10
160.6347655569619
 20
274.3383778880479
 30
0.0
 40
5.0
100
AcDbArc
 50
342.8617109999996
 51
17.13828900000033
  0
LINE
  5
162D
330
18
100
AcDbEntity
  8
1
  6
Continuous
100
AcDbLine
 10
164.1347655569619
 20
272.1383778880479
 30
0.0
 11
164.1347655569619
 21
276.538377888048
 31
0.0
  0
ARC
  5
162E
330
18
100
AcDbEntity
  8
1
  6
Continuous
100
AcDbCircle
 10
164.7438295569618
 20
273.071257888048
 30
0.0
 40
0.7
100
AcDbArc
 50
273.0000000000007
 51
342.8617109999996
  0
LINE
  5
162F
330
18
100
AcDbEntity
  8
1
  6
Continuous
100
AcDbLine
 10
164.1347655569618
 20
272.3383778880479
 30
0.0
 11
164.7804645569618
 21
272.372217888048
 31
0.0
  0
LINE
  5
1630
330
18
100
AcDbEntity
  8
1
  6
Continuous
100
AcDbLine
 10
163.5347655569618
 20
272.1383778880479
 30
0.0
 11
164.1347655569619
 21
272.1383778880479
 31
0.0
  0
ARC
  5
1631
330
18
100
AcDbEntity
  8
1
  6
Continuous
100
AcDbCircle
 10
164.7438295569618
 20
275.605497888048
 30
0.0
 40
0.7
100
AcDbArc
 50
17.13828900000033
 51
86.9999999999993
  0
LINE
  5
1632
330
18
100
AcDbEntity
  8
1
  6
Continuous
100
AcDbLine
 10
164.1347655569618
 20
276.3383778880479
 30
0.0
 11
164.7804645569618
 21
276.304537888048
 31
0.0
  0
ARC
  5
1727
330
18
100
AcDbEntity
  8
1
  6
Continuous
100
AcDbCircle
 10
172.6347645570626
 20
284.0883758880698
 30
0.0
 40
0.5
100
AcDbArc
 50
180.0
 51
269.9999999999994
  0
ARC
  5
1728
330
18
100
AcDbEntity
  8
1
  6
Continuous
100
AcDbCircle
 10
172.6347645570626
 20
268.5883758880698
 30
0.0
 40
0.5
100
AcDbArc
 50
90.0
 51
180.0
  0
LINE
  5
1729
330
18
100
AcDbEntity
  8
1
  6
Continuous
100
AcDbLine
 10
178.6347645570683
 20
279.8383758880984
 30
0.0
 11
178.6347645570494
 21
272.8383758880989
 31
0.0
  0
LINE
  5
172A
330
18
100
AcDbEntity
  8
1
  6
Continuous
100
AcDbLine
 10
178.1347645570616
 20
279.8383758880984
 30
0.0
 11
178.6347645570683
 21
279.8383758880984
 31
0.0
  0
LINE
  5
172B
330
18
100
AcDbEntity
  8
1
  6
Continuous
100
AcDbLine
 10
178.1347645570616
 20
272.8383758880989
 30
0.0
 11
178.6347645570494
 21
272.8383758880989
 31
0.0
  0
LINE
  5
17CF
330
18
100
AcDbEntity
  8
1
  6
Continuous
100
AcDbLine
 10
367.9380583352767
 20
160.8378906458098
 30
0.0
 11
362.9380583352775
 21
160.8378906458256
 31
0.0
  0
LINE
  5
17D0
330
18
100
AcDbEntity
  8
1
  6
Continuous
100
AcDbLine
 10
367.9380583352797
 20
140.3378906458087
 30
0.0
 11
362.9380583352775
 21
140.3378906458268
 31
0.0
  0
LINE
  5
17D2
330
18
100
AcDbEntity
  8
1
  6
Continuous
100
AcDbLine
 10
379.6880683353867
 20
118.1987577970197
 30
0.0
 11
379.6880683353896
 21
129.8378906459855
 31
0.0
  0
LINE
  5
17D3
330
18
100
AcDbEntity
  8
1
  6
Continuous
100
AcDbLine
 10
378.5880683353862
 20
118.0494974089909
 30
0.0
 11
378.5880683353894
 21
129.8378906459857
 31
0.0
  0
LINE
  5
17D4
330
18
100
AcDbEntity
  8
1
  6
Continuous
100
AcDbLine
 10
380.7880683353873
 20
119.0398078301736
 30
0.0
 11
380.7880683353892
 21
129.8378906459854
 31
0.0
  0
LINE
  5
17D5
330
18
100
AcDbEntity
  8
1
  6
Continuous
100
AcDbLine
 10
381.8880683353878
 20
119.1890682185062
 30
0.0
 11
381.8880683353894
 21
129.8378906459855
 31
0.0
  0
ARC
  5
17D6
330
18
100
AcDbEntity
  8
1
  6
Continuous
100
AcDbCircle
 10
378.9130683355578
 20
119.7823036474341
 30
0.0
 40
1.763020833711061
100
AcDbArc
 50
221.2750939749324
 51
318.7249060250676
  0
ARC
  5
17D7
330
18
100
AcDbEntity
  8
1
  6
Continuous
100
AcDbCircle
 10
381.563068335558
 20
117.4562619807676
 30
0.0
 40
1.763020832955557
100
AcDbArc
 50
41.27509396381607
 51
138.7249060361859
  0
LINE
  5
17DC
330
18
100
AcDbEntity
  8
1
  6
Continuous
100
AcDbLine
 10
398.7380573353787
 20
183.8378906459623
 30
0.0
 11
398.7380573353787
 21
161.8378906459623
 31
0.0
  0
LINE
  5
17DD
330
18
100
AcDbEntity
  8
1
  6
Continuous
100
AcDbLine
 10
392.4380583352778
 20
129.8378906459858
 30
0.0
 11
392.4380583352779
 21
201.8378906459854
 31
0.0
  0
LINE
  5
17DE
330
18
100
AcDbEntity
  8
1
  6
Continuous
100
AcDbLine
 10
368.438058335278
 20
132.3378906459856
 30
0.0
 11
368.438058335278
 21
199.3378906459854
 31
0.0
  0
LINE
  5
17DF
330
18
100
AcDbEntity
  8
4
  6
CENTER
 48
0.3
100
AcDbLine
 10
365.4380583352869
 20
136.8378906459634
 30
0.0
 11
365.4380583352712
 21
166.8378906459439
 31
0.0
  0
LINE
  5
17E0
330
18
100
AcDbEntity
  8
1
  6
Continuous
100
AcDbLine
 10
404.2380573353787
 20
183.8378906459623
 30
0.0
 11
404.2380573353787
 21
161.8378906459623
 31
0.0
  0
LINE
  5
17E1
330
18
100
AcDbEntity
  8
1
  6
Continuous
100
AcDbLine
 10
404.7380573353787
 20
162.3378906459623
 30
0.0
 11
404.7380573353787
 21
183.3378906459623
 31
0.0
  0
LINE
  5
17E3
330
18
100
AcDbEntity
  8
1
  6
Continuous
100
AcDbLine
 10
404.2380573353787
 20
161.8378906459623
 30
0.0
 11
398.7380573353787
 21
161.8378906459623
 31
0.0
  0
LINE
  5
17E4
330
18
100
AcDbEntity
  8
1
  6
Continuous
100
AcDbLine
 10
404.7380573353787
 20
162.3378906459623
 30
0.0
 11
404.2380573353787
 21
161.8378906459623
 31
0.0
  0
LINE
  5
17E5
330
18
100
AcDbEntity
  8
1
  6
Continuous
100
AcDbLine
 10
370.938058335278
 20
129.8378906459856
 30
0.0
 11
392.438058335278
 21
129.8378906459856
 31
0.0
  0
ARC
  5
17E6
330
18
100
AcDbEntity
  8
1
  6
Continuous
100
AcDbCircle
 10
370.938058335278
 20
132.3378906459856
 30
0.0
 40
2.5
100
AcDbArc
 50
180.0
 51
270.0
  0
LINE
  5
17E7
330
18
100
AcDbEntity
  8
1
  6
Continuous
100
AcDbLine
 10
366.9380583352662
 20
140.3378906459549
 30
0.0
 11
366.4380583352655
 21
139.8378906459572
 31
0.0
  0
LINE
  5
17E8
330
18
100
AcDbEntity
  8
1
  6
Continuous
100
AcDbLine
 10
364.4380583352653
 20
139.8378906459684
 30
0.0
 11
366.4380583352655
 21
139.8378906459582
 31
0.0
  0
LINE
  5
17E9
330
18
100
AcDbEntity
  8
1
  6
Continuous
100
AcDbLine
 10
364.4380583352657
 20
139.8378906459676
 30
0.0
 11
363.9380583352661
 21
140.3378906459701
 31
0.0
  0
ARC
  5
17EA
330
18
100
AcDbEntity
  8
1
  6
Continuous
100
AcDbCircle
 10
367.938058335278
 20
139.8378906458087
 30
0.0
 40
0.5
100
AcDbArc
 50
0.000000000000007
 51
90.0
  0
LINE
  5
17EC
330
18
100
AcDbEntity
  8
1
  6
Continuous
100
AcDbLine
 10
366.9380583352809
 20
160.8378906458128
 30
0.0
 11
366.9380583352809
 21
163.3378906459571
 31
0.0
  0
LINE
  5
17ED
330
18
100
AcDbEntity
  8
1
  6
Continuous
100
AcDbLine
 10
366.9380583352812
 20
163.3378906459575
 30
0.0
 11
366.4380583352812
 21
163.8378906459531
 31
0.0
  0
LINE
  5
17EE
330
18
100
AcDbEntity
  8
1
  6
Continuous
100
AcDbLine
 10
366.9380583352807
 20
163.3378906459572
 30
0.0
 11
363.9380583352807
 21
163.3378906459572
 31
0.0
  0
LINE
  5
17EF
330
18
100
AcDbEntity
  8
1
  6
Continuous
100
AcDbLine
 10
366.4380583352809
 20
163.8378906459528
 30
0.0
 11
364.4380583352806
 21
163.837890645935
 31
0.0
  0
LINE
  5
17F0
330
18
100
AcDbEntity
  8
1
  6
Continuous
100
AcDbLine
 10
363.9380583352811
 20
160.8378906458224
 30
0.0
 11
363.9380583352811
 21
163.3378906459297
 31
0.0
  0
LINE
  5
17F1
330
18
100
AcDbEntity
  8
1
  6
Continuous
100
AcDbLine
 10
364.4380583352812
 20
163.8378906459349
 30
0.0
 11
363.9380583352811
 21
163.3378906459303
 31
0.0
  0
ARC
  5
17F2
330
18
100
AcDbEntity
  8
1
  6
Continuous
100
AcDbCircle
 10
367.938058335278
 20
161.3378906458093
 30
0.0
 40
0.5
100
AcDbArc
 50
270.0
 51
0.000000000000007
  0
LINE
  5
17F7
330
18
100
AcDbEntity
  8
4
  6
CENTER
 48
0.3
100
AcDbLine
 10
408.5380573353787
 20
172.8378906459622
 30
0.0
 11
371.8153895552017
 21
172.8378906459623
 31
0.0
  0
LINE
  5
17F8
330
18
100
AcDbEntity
  8
1
  6
Continuous
100
AcDbLine
 10
405.5380573353786
 20
177.6378906459624
 30
0.0
 11
405.5380573353786
 21
168.0378906459624
 31
0.0
  0
LINE
  5
17F9
330
18
100
AcDbEntity
  8
1
  6
Continuous
100
AcDbLine
 10
404.8380573353787
 20
167.3378906459623
 30
0.0
 11
404.8380573353787
 21
178.3378906459623
 31
0.0
  0
LINE
  5
17FA
330
18
100
AcDbEntity
  8
1
  6
Continuous
100
AcDbLine
 10
404.8380573353787
 20
167.3378906459623
 30
0.0
 11
404.7380573353787
 21
167.3378906459623
 31
0.0
  0
LINE
  5
17FB
330
18
100
AcDbEntity
  8
1
  6
Continuous
100
AcDbLine
 10
405.5380573353791
 20
168.0378906459623
 30
0.0
 11
404.8380573353789
 21
167.3378906459622
 31
0.0
  0
LINE
  5
17FF
330
18
100
AcDbEntity
  8
1
  6
Continuous
100
AcDbLine
 10
404.2380573353787
 20
183.8378906459623
 30
0.0
 11
398.7380573353787
 21
183.8378906459623
 31
0.0
  0
LINE
  5
1800
330
18
100
AcDbEntity
  8
1
  6
Continuous
100
AcDbLine
 10
404.2380573353787
 20
183.8378906459621
 30
0.0
 11
404.7380573353787
 21
183.3378906459621
 31
0.0
  0
LINE
  5
1801
330
18
100
AcDbEntity
  8
1
  6
Continuous
100
AcDbLine
 10
404.8380573353787
 20
178.3378906459623
 30
0.0
 11
404.7380573353787
 21
178.3378906459623
 31
0.0
  0
LINE
  5
1802
330
18
100
AcDbEntity
  8
1
  6
Continuous
100
AcDbLine
 10
405.5380573353785
 20
177.6378906459623
 30
0.0
 11
404.8380573353787
 21
178.3378906459621
 31
0.0
  0
LINE
  5
1805
330
18
100
AcDbEntity
  8
1
  6
Continuous
100
AcDbLine
 10
370.938058335278
 20
201.8378906459854
 30
0.0
 11
392.438058335278
 21
201.8378906459854
 31
0.0
  0
ARC
  5
1806
330
18
100
AcDbEntity
  8
1
  6
Continuous
100
AcDbCircle
 10
370.938058335278
 20
199.3378906459854
 30
0.0
 40
2.5
100
AcDbArc
 50
90.0
 51
180.0
  0
LINE
  5
1808
330
18
100
AcDbEntity
  8
1
  6
Continuous
100
AcDbLine
 10
362.438058335279
 20
140.8378906458265
 30
0.0
 11
362.4380583352792
 21
160.3378906458251
 31
0.0
  0
ARC
  5
1809
330
18
100
AcDbEntity
  8
1
  6
Continuous
100
AcDbCircle
 10
362.9380583352784
 20
140.8378906458267
 30
0.0
 40
0.5
100
AcDbArc
 50
180.0
 51
270.0
  0
ARC
  5
180A
330
18
100
AcDbEntity
  8
1
  6
Continuous
100
AcDbCircle
 10
362.9380583352843
 20
153.3378906459685
 30
0.0
 40
1.0
100
AcDbArc
 50
180.0
 51
239.9999999996361
  0
LINE
  5
180B
330
18
100
AcDbEntity
  8
1
  6
Continuous
100
AcDbLine
 10
361.9380583352767
 20
156.3378906459667
 30
0.0
 11
361.9380583352848
 21
153.3378906459663
 31
0.0
  0
ARC
  5
180C
330
18
100
AcDbEntity
  8
1
  6
Continuous
100
AcDbCircle
 10
362.9380583352762
 20
156.3378906459685
 30
0.0
 40
1.0
100
AcDbArc
 50
119.9999999998206
 51
180.0
  0
ARC
  5
180D
330
18
100
AcDbEntity
  8
1
  6
Continuous
100
AcDbCircle
 10
362.9380583352784
 20
160.3378906458249
 30
0.0
 40
0.5
100
AcDbArc
 50
90.0
 51
180.0
  0
LINE
  5
1A1B
330
18
100
AcDbEntity
  8
2
  6
Continuous
100
AcDbLine
 10
141.8347655569619
 20
284.4853758880832
 30
0.0
 11
150.1347655569619
 21
284.4853758880832
 31
0.0
  0
LINE
  5
1A1C
330
18
100
AcDbEntity
  8
1
  6
Continuous
100
AcDbLine
 10
141.8347655569619
 20
285.8383758880831
 30
0.0
 11
150.1347655569619
 21
285.8383758880831
 31
0.0
  0
LINE
  5
1A1E
330
18
100
AcDbEntity
  8
1
  6
Continuous
100
AcDbLine
 10
141.8347655569619
 20
266.8383758880831
 30
0.0
 11
148.1347645570629
 21
266.8383758880831
 31
0.0
  0
LINE
  5
1A28
330
18
100
AcDbEntity
  8
1
  6
Continuous
100
AcDbLine
 10
48.13476555693664
 20
166.4870376848879
 30
0.0
 11
48.13476555693664
 21
179.1887436070944
 31
0.0
  0
LINE
  5
1A29
330
18
100
AcDbEntity
  8
1
  6
Continuous
100
AcDbLine
 10
26.13476555696684
 20
166.4870376849053
 30
0.0
 11
37.13476555693659
 21
160.1361847238368
 31
0.0
  0
LINE
  5
1A2C
330
18
100
AcDbEntity
  8
1
  6
Continuous
100
AcDbLine
 10
48.13476555690653
 20
166.4870376849053
 30
0.0
 11
37.13476555693678
 21
160.1361847238368
 31
0.0
  0
LINE
  5
1A2D
330
18
100
AcDbEntity
  8
1
  6
Continuous
100
AcDbLine
 10
26.13476555693665
 20
166.4870376848879
 30
0.0
 11
26.13476555693671
 21
179.1887436070944
 31
0.0
  0
LINE
  5
1A2E
330
18
100
AcDbEntity
  8
1
  6
Continuous
100
AcDbLine
 10
48.13476555690653
 20
179.1887436071119
 30
0.0
 11
37.13476555693678
 21
185.5395965681803
 31
0.0
  0
LINE
  5
1A2F
330
18
100
AcDbEntity
  8
1
  6
Continuous
100
AcDbLine
 10
26.13476555696684
 20
179.1887436071119
 30
0.0
 11
37.13476555693659
 21
185.5395965681803
 31
0.0
  0
LINE
  5
1A5F
330
18
100
AcDbEntity
  8
1
  6
Continuous
100
AcDbLine
 10
148.1347645570629
 20
55.33740540387833
 30
0.0
 11
146.134765556962
 21
55.33740540387833
 31
0.0
  0
LINE
  5
1A60
330
18
100
AcDbEntity
  8
4
  6
CENTER
 48
0.3
100
AcDbLine
 10
132.034765556962
 20
55.33740540387833
 30
0.0
 11
181.1347645570615
 21
55.33740540387833
 31
0.0
  0
LINE
  5
1A64
330
18
100
AcDbEntity
  8
1
  6
Continuous
100
AcDbLine
 10
135.8347655569619
 20
65.83740540387828
 30
0.0
 11
135.8347655569619
 21
44.83740540387826
 31
0.0
  0
LINE
  5
1A65
330
18
100
AcDbEntity
  8
1
  6
Continuous
100
AcDbLine
 10
136.334765556962
 20
44.33740540387828
 30
0.0
 11
136.334765556962
 21
66.33740540387828
 31
0.0
  0
LINE
  5
1A66
330
18
100
AcDbEntity
  8
1
  6
Continuous
100
AcDbLine
 10
141.8347655569619
 20
44.33740540387828
 30
0.0
 11
141.8347655569619
 21
66.33740540387828
 31
0.0
  0
LINE
  5
1A67
330
18
100
AcDbEntity
  8
1
  6
Continuous
100
AcDbLine
 10
135.734765556962
 20
60.83740540387828
 30
0.0
 11
135.734765556962
 21
49.83740540387827
 31
0.0
  0
LINE
  5
1A68
330
18
100
AcDbEntity
  8
1
  6
Continuous
100
AcDbLine
 10
135.034765556962
 20
50.5374054038781
 30
0.0
 11
135.034765556962
 21
60.13740540387812
 31
0.0
  0
LINE
  5
1A69
330
18
100
AcDbEntity
  8
1
  6
Continuous
100
AcDbLine
 10
136.334765556962
 20
66.33740540387828
 30
0.0
 11
141.8347655569619
 21
66.33740540387828
 31
0.0
  0
LINE
  5
1A6A
330
18
100
AcDbEntity
  8
1
  6
Continuous
100
AcDbLine
 10
135.0347655569616
 20
60.13740540387823
 30
0.0
 11
135.7347655569617
 21
60.83740540387832
 31
0.0
  0
LINE
  5
1A6B
330
18
100
AcDbEntity
  8
1
  6
Continuous
100
AcDbLine
 10
135.734765556962
 20
60.83740540387828
 30
0.0
 11
135.8347655569619
 21
60.83740540387828
 31
0.0
  0
LINE
  5
1A6C
330
18
100
AcDbEntity
  8
1
  6
Continuous
100
AcDbLine
 10
135.8347655569619
 20
65.83740540387828
 30
0.0
 11
136.334765556962
 21
66.33740540387828
 31
0.0
  0
LINE
  5
1A6D
330
18
100
AcDbEntity
  8
1
  6
Continuous
100
AcDbLine
 10
141.8347655569619
 20
64.83740540387834
 30
0.0
 11
148.1347645570631
 21
64.83740540387834
 31
0.0
  0
LINE
  5
1A6F
330
18
100
AcDbEntity
  8
1
  6
Continuous
100
AcDbLine
 10
135.0347655569621
 20
50.53740540387827
 30
0.0
 11
135.734765556962
 21
49.83740540387834
 31
0.0
  0
LINE
  5
1A70
330
18
100
AcDbEntity
  8
1
  6
Continuous
100
AcDbLine
 10
135.734765556962
 20
49.83740540387827
 30
0.0
 11
135.8347655569619
 21
49.83740540387827
 31
0.0
  0
LINE
  5
1A73
330
18
100
AcDbEntity
  8
1
  6
Continuous
100
AcDbLine
 10
136.334765556962
 20
44.33740540387828
 30
0.0
 11
141.8347655569619
 21
44.33740540387828
 31
0.0
  0
LINE
  5
1A74
330
18
100
AcDbEntity
  8
1
  6
Continuous
100
AcDbLine
 10
136.334765556962
 20
44.33740540387844
 30
0.0
 11
135.8347655569619
 21
44.83740540387834
 31
0.0
  0
LINE
  5
1A75
330
18
100
AcDbEntity
  8
1
  6
Continuous
100
AcDbLine
 10
141.8347655569619
 20
45.83740540387832
 30
0.0
 11
148.1347645570628
 21
45.83740540387832
 31
0.0
  0
LINE
  5
1A81
330
18
100
AcDbEntity
  8
1
  6
Continuous
100
AcDbLine
 10
172.1347645570626
 20
69.33740540388838
 30
0.0
 11
172.1347645570626
 21
41.33740540388811
 31
0.0
  0
ARC
  5
1A87
330
18
100
AcDbEntity
  8
1
  6
Continuous
100
AcDbCircle
 10
169.6347645570626
 20
65.33740540389209
 30
0.0
 40
2.5
100
AcDbArc
 50
0.0
 51
90.00000000000005
  0
LINE
  5
1A89
330
18
100
AcDbEntity
  8
1
  6
Continuous
100
AcDbLine
 10
169.6347645570624
 20
71.83740540388838
 30
0.0
 11
148.134764557063
 21
71.83740540388692
 31
0.0
  0
ARC
  5
1A8A
330
18
100
AcDbEntity
  8
1
  6
Continuous
100
AcDbCircle
 10
169.6347645570626
 20
69.33740540388838
 30
0.0
 40
2.5
100
AcDbArc
 50
0.0
 51
90.00000000000392
  0
LINE
  5
1A8C
330
18
100
AcDbEntity
  8
1
  6
Continuous
100
AcDbLine
 10
148.1347645570629
 20
67.83740540389209
 30
0.0
 11
169.6347645570626
 21
67.83740540389209
 31
0.0
  0
LINE
  5
1AB4
330
18
100
AcDbEntity
  8
1
  6
Continuous
100
AcDbLine
 10
178.6347645570683
 20
51.83740540386311
 30
0.0
 11
178.6347645570494
 21
58.83740540386259
 31
0.0
  0
LINE
  5
1AB5
330
18
100
AcDbEntity
  8
4
  6
CENTER
 48
0.3
100
AcDbLine
 10
175.1347645570639
 20
57.83740540387309
 30
0.0
 11
175.1347645570655
 21
52.83740540388357
 31
0.0
  0
LINE
  5
1AB6
330
18
100
AcDbEntity
  8
1
  6
Continuous
100
AcDbLine
 10
178.1347645570616
 20
62.58740540389164
 30
0.0
 11
178.1347645570616
 21
48.0874054038917
 31
0.0
  0
LINE
  5
1AB7
330
18
100
AcDbEntity
  8
1
  6
Continuous
100
AcDbLine
 10
178.1347645570616
 20
58.83740540386259
 30
0.0
 11
178.6347645570494
 21
58.83740540386259
 31
0.0
  0
ARC
  5
1AB8
330
18
100
AcDbEntity
  8
1
  6
Continuous
100
AcDbCircle
 10
172.6347645570626
 20
63.08740540389162
 30
0.0
 40
0.5
100
AcDbArc
 50
180.0
 51
270.0
  0
LINE
  5
1AB9
330
18
100
AcDbEntity
  8
1
  6
Continuous
100
AcDbLine
 10
172.6347645570626
 20
62.58740540389164
 30
0.0
 11
178.1347645570616
 21
62.58740540389164
 31
0.0
  0
LINE
  5
1ABA
330
18
100
AcDbEntity
  8
1
  6
Continuous
100
AcDbLine
 10
178.1347645570616
 20
51.83740540386311
 30
0.0
 11
178.6347645570683
 21
51.83740540386311
 31
0.0
  0
ARC
  5
1ABB
330
18
100
AcDbEntity
  8
1
  6
Continuous
100
AcDbCircle
 10
172.6347645570626
 20
47.58740540389164
 30
0.0
 40
0.5
100
AcDbArc
 50
90.00000000000056
 51
180.0
  0
CIRCLE
  5
1ABC
330
18
100
AcDbEntity
  8
1
  6
Continuous
100
AcDbCircle
 10
175.1347645570647
 20
55.33740540387833
 30
0.0
 40
1.000000000005228
  0
CIRCLE
  5
1ABD
330
18
100
AcDbEntity
  8
1
  6
Continuous
100
AcDbCircle
 10
175.1347645570647
 20
55.33740540387833
 30
0.0
 40
1.499999999994769
  0
LINE
  5
1ABE
330
18
100
AcDbEntity
  8
1
  6
Continuous
100
AcDbLine
 10
172.6347645570626
 20
48.08740540389162
 30
0.0
 11
178.1347645570616
 21
48.0874054038917
 31
0.0
  0
LINE
  5
1ABF
330
18
100
AcDbEntity
  8
1
  6
Continuous
100
AcDbLine
 10
169.6347645570628
 20
38.83740540388811
 30
0.0
 11
148.1347645570626
 21
38.83740540388675
 31
0.0
  0
LINE
  5
1AC6
330
18
100
AcDbEntity
  8
1
  6
Continuous
100
AcDbLine
 10
148.1347645570632
 20
71.83740540388694
 30
0.0
 11
148.1347645570629
 21
51.83740540387834
 31
0.0
  0
ARC
  5
1ACC
330
18
100
AcDbEntity
  8
1
  6
Continuous
100
AcDbCircle
 10
169.6347645570626
 20
41.33740540388811
 30
0.0
 40
2.5
100
AcDbArc
 50
270.0000000000038
 51
0.0
  0
LINE
  5
1BF4
330
18
100
AcDbEntity
  8
1
  6
Continuous
100
AcDbLine
 10
148.1347645570629
 20
51.83740540387834
 30
0.0
 11
163.6347645570627
 21
51.83740540387834
 31
0.0
  0
LINE
  5
1BF5
330
18
100
AcDbEntity
  8
1
  6
Continuous
100
AcDbLine
 10
148.1347645570628
 20
46.83740540387833
 30
0.0
 11
163.6347645570627
 21
46.83740540387833
 31
0.0
  0
LINE
  5
1BF6
330
18
100
AcDbEntity
  8
1
  6
Continuous
100
AcDbLine
 10
148.1347645570628
 20
46.83740540387833
 30
0.0
 11
148.1347645570626
 21
38.83740540388675
 31
0.0
  0
ARC
  5
1BF8
330
18
100
AcDbEntity
  8
1
  6
Continuous
100
AcDbCircle
 10
163.6347645570627
 20
49.33740540387834
 30
0.0
 40
2.500000000000023
100
AcDbArc
 50
270.0
 51
90.0
  0
LINE
  5
1BF9
330
18
100
AcDbEntity
  8
1
  6
Continuous
100
AcDbLine
 10
150.1347655569619
 20
46.83740540387833
 30
0.0
 11
150.1347655569619
 21
51.83740540387834
 31
0.0
  0
LINE
  5
1BFB
330
18
100
AcDbEntity
  8
1
  6
Continuous
100
AcDbLine
 10
152.1347655569619
 20
46.83740540387833
 30
0.0
 11
152.1347655569619
 21
51.83740540387834
 31
0.0
  0
LINE
  5
1BFC
330
18
100
AcDbEntity
  8
1
  6
Continuous
100
AcDbLine
 10
153.6347655569619
 20
46.83740540387833
 30
0.0
 11
153.6347655569619
 21
51.83740540387834
 31
0.0
  0
LINE
  5
1BFD
330
18
100
AcDbEntity
  8
1
  6
Continuous
100
AcDbLine
 10
161.9847545569536
 20
50.18877706788697
 30
0.0
 11
161.9847545569531
 21
51.8374054038783
 31
0.0
  0
LINE
  5
1BFE
330
18
100
AcDbEntity
  8
1
  6
Continuous
100
AcDbLine
 10
159.7847545569529
 20
50.18877706788697
 30
0.0
 11
159.7847545569527
 21
51.8374054038783
 31
0.0
  0
LINE
  5
1BFF
330
18
100
AcDbEntity
  8
1
  6
Continuous
100
AcDbLine
 10
160.8847545569534
 20
50.18877706788668
 30
0.0
 11
160.8847545569529
 21
51.83740540387828
 31
0.0
  0
LINE
  5
1C00
330
18
100
AcDbEntity
  8
1
  6
Continuous
100
AcDbLine
 10
158.6847545569526
 20
50.1887770678868
 30
0.0
 11
158.6847545569523
 21
51.83740540387834
 31
0.0
  0
CIRCLE
  5
1C05
330
18
100
AcDbEntity
  8
1
  6
Continuous
100
AcDbCircle
 10
159.2347545569527
 20
50.18877706788686
 30
0.0
 40
0.5500000000001747
  0
CIRCLE
  5
1C06
330
18
100
AcDbEntity
  8
1
  6
Continuous
100
AcDbCircle
 10
161.4347545569535
 20
50.18877706788683
 30
0.0
 40
0.5500000000001452
  0
LINE
  5
22E2
330
18
100
AcDbEntity
  8
1
  6
Continuous
100
AcDbLine
 10
141.8347655569619
 20
271.062013504774
 30
0.0
 11
146.134765556962
 21
271.062013504774
 31
0.0
  0
LINE
  5
22E3
330
18
100
AcDbEntity
  8
1
  6
Continuous
100
AcDbLine
 10
141.8347655569619
 20
281.6147382713923
 30
0.0
 11
146.134765556962
 21
281.6147382713923
 31
0.0
  0
LINE
  5
22E4
330
18
100
AcDbEntity
  8
2
  6
Continuous
100
AcDbLine
 10
141.8347655569619
 20
275.9245435442942
 30
0.0
 11
146.134765556962
 21
271.062013504774
 31
0.0
  0
LINE
  5
22E5
330
18
100
AcDbEntity
  8
2
  6
Continuous
100
AcDbLine
 10
141.8347655569619
 20
276.752208231872
 30
0.0
 11
146.134765556962
 21
281.6147382713923
 31
0.0
  0
LINE
  5
22E6
330
18
100
AcDbEntity
  8
2
  6
Continuous
100
AcDbLine
 10
141.8347655569619
 20
54.92357306008938
 30
0.0
 11
146.134765556962
 21
50.06104302056917
 31
0.0
  0
LINE
  5
22E7
330
18
100
AcDbEntity
  8
1
  6
Continuous
100
AcDbLine
 10
141.8347655569619
 20
50.06104302056917
 30
0.0
 11
146.134765556962
 21
50.06104302056917
 31
0.0
  0
LINE
  5
22E8
330
18
100
AcDbEntity
  8
2
  6
Continuous
100
AcDbLine
 10
141.8347655569619
 20
55.75123774766723
 30
0.0
 11
146.134765556962
 21
60.6137677871875
 31
0.0
  0
LINE
  5
22E9
330
18
100
AcDbEntity
  8
1
  6
Continuous
100
AcDbLine
 10
141.8347655569619
 20
60.6137677871875
 30
0.0
 11
146.134765556962
 21
60.6137677871875
 31
0.0
  0
LINE
  5
26B1
330
18
100
AcDbEntity
  8
2
  6
Continuous
100
AcDbLine
 10
141.8347655569619
 20
268.1913758880832
 30
0.0
 11
148.1347645570629
 21
268.1913758880832
 31
0.0
  0
CIRCLE
  5
26CB
330
18
100
AcDbEntity
  8
2
  6
Continuous
100
AcDbCircle
 10
39.1347675569367
 20
192.7378906459735
 30
0.0
 40
0.9334999999999523
  0
LINE
  5
26CC
330
18
100
AcDbEntity
  8
2
  6
Continuous
100
AcDbLine
 10
141.8347655569619
 20
63.48440540387833
 30
0.0
 11
148.1347645570631
 21
63.48440540387833
 31
0.0
  0
LINE
  5
26CD
330
18
100
AcDbEntity
  8
2
  6
Continuous
100
AcDbLine
 10
141.8347655569619
 20
47.19040540387834
 30
0.0
 11
150.1347655569619
 21
47.19040540387834
 31
0.0
  0
LINE
  5
2745
330
18
100
AcDbEntity
  8
4
  6
CENTER
 48
0.2
100
AcDbLine
 10
117.534765556962
 20
276.3383758880832
 30
0.0
 11
127.034765556962
 21
276.3383758880832
 31
0.0
  0
LINE
  5
2746
330
18
100
AcDbEntity
  8
1
  6
Continuous
100
AcDbLine
 10
124.034765556962
 20
287.3383758880832
 30
0.0
 11
120.534765556962
 21
287.3383758880832
 31
0.0
  0
LINE
  5
2747
330
18
100
AcDbEntity
  8
1
  6
Continuous
100
AcDbLine
 10
123.0297425569619
 20
276.3383758880832
 30
0.0
 11
120.534765556962
 21
276.3383758880832
 31
0.0
  0
LINE
  5
2748
330
18
100
AcDbEntity
  8
1
  6
Continuous
100
AcDbLine
 10
124.0347655569618
 20
265.3383758880831
 30
0.0
 11
120.5347655569619
 21
265.3383758880831
 31
0.0
  0
LINE
  5
2749
330
18
100
AcDbEntity
  8
1
  6
Continuous
100
AcDbLine
 10
123.0297425569619
 20
185.3378906459622
 30
0.0
 11
120.5347655569619
 21
185.3378906459622
 31
0.0
  0
LINE
  5
274A
330
18
100
AcDbEntity
  8
1
  6
Continuous
100
AcDbLine
 10
123.0297425569619
 20
179.0878906459622
 30
0.0
 11
120.5347655569619
 21
179.0878906459622
 31
0.0
  0
LINE
  5
274B
330
18
100
AcDbEntity
  8
1
  6
Continuous
100
AcDbLine
 10
123.0297425569619
 20
166.5878906459622
 30
0.0
 11
120.5347655569619
 21
166.5878906459622
 31
0.0
  0
LINE
  5
274C
330
18
100
AcDbEntity
  8
1
  6
Continuous
100
AcDbLine
 10
123.0297425569619
 20
160.3378906459622
 30
0.0
 11
120.5347655569619
 21
160.3378906459622
 31
0.0
  0
LINE
  5
274D
330
18
100
AcDbEntity
  8
4
  6
CENTER
 48
0.2
100
AcDbLine
 10
117.5347655569619
 20
172.8378906459622
 30
0.0
 11
127.034765556962
 21
172.8378906459622
 31
0.0
  0
LINE
  5
274E
330
18
100
AcDbEntity
  8
1
  6
Continuous
100
AcDbLine
 10
120.5347655569619
 20
185.3378906459622
 30
0.0
 11
120.5347655569619
 21
160.3378906459622
 31
0.0
  0
LINE
  5
274F
330
18
100
AcDbEntity
  8
1
  6
Continuous
100
AcDbLine
 10
120.534765556962
 20
287.3383758880832
 30
0.0
 11
120.5347655569619
 21
265.3383758880831
 31
0.0
  0
ARC
  5
2750
330
18
100
AcDbEntity
  8
1
  6
Continuous
100
AcDbCircle
 10
118.6738425569619
 20
163.4628906459622
 30
0.0
 40
5.360922
100
AcDbArc
 50
324.3436700000005
 51
35.6563299999994
  0
LINE
  5
2751
330
18
100
AcDbEntity
  8
1
  6
Continuous
100
AcDbLine
 10
124.0347655569619
 20
182.2128906459622
 30
0.0
 11
124.0347655569619
 21
163.4628906459622
 31
0.0
  0
ARC
  5
2752
330
18
100
AcDbEntity
  8
1
  6
Continuous
100
AcDbCircle
 10
104.0986095569619
 20
172.8378906459622
 30
0.0
 40
19.936156
100
AcDbArc
 50
341.7296700000006
 51
18.27032999999936
  0
ARC
  5
2753
330
18
100
AcDbEntity
  8
1
  6
Continuous
100
AcDbCircle
 10
118.6738425569619
 20
182.2128906459622
 30
0.0
 40
5.360922
100
AcDbArc
 50
324.3436700000005
 51
35.6563299999994
  0
ARC
  5
2754
330
18
100
AcDbEntity
  8
1
  6
Continuous
100
AcDbCircle
 10
108.4828472274672
 20
281.8383758880831
 30
0.0
 40
15.55191832949472
100
AcDbArc
 50
339.289018930925
 51
20.71098106907502
  0
LINE
  5
2755
330
18
100
AcDbEntity
  8
1
  6
Continuous
100
AcDbLine
 10
124.034765556962
 20
287.3383758880832
 30
0.0
 11
124.0347655569618
 21
265.3383758880831
 31
0.0
  0
ARC
  5
2756
330
18
100
AcDbEntity
  8
1
  6
Continuous
100
AcDbCircle
 10
108.4828472274672
 20
270.8383758880831
 30
0.0
 40
15.55191832949472
100
AcDbArc
 50
339.289018930925
 51
20.71098106907502
  0
LINE
  5
2757
330
18
100
AcDbEntity
  8
1
  6
Continuous
100
AcDbLine
 10
120.534765556962
 20
66.33740540387832
 30
0.0
 11
120.5347655569619
 21
44.33740540387833
 31
0.0
  0
LINE
  5
2758
330
18
100
AcDbEntity
  8
1
  6
Continuous
100
AcDbLine
 10
124.034765556962
 20
66.33740540387832
 30
0.0
 11
124.0347655569618
 21
44.33740540387833
 31
0.0
  0
ARC
  5
2759
330
18
100
AcDbEntity
  8
1
  6
Continuous
100
AcDbCircle
 10
108.4828472274672
 20
49.83740540387834
 30
0.0
 40
15.55191832949472
100
AcDbArc
 50
339.289018930925
 51
20.71098106907502
  0
LINE
  5
275A
330
18
100
AcDbEntity
  8
1
  6
Continuous
100
AcDbLine
 10
124.0347655569618
 20
44.33740540387833
 30
0.0
 11
120.5347655569619
 21
44.33740540387833
 31
0.0
  0
LINE
  5
275B
330
18
100
AcDbEntity
  8
4
  6
CENTER
 48
0.2
100
AcDbLine
 10
117.534765556962
 20
55.33740540387833
 30
0.0
 11
127.034765556962
 21
55.33740540387833
 31
0.0
  0
ARC
  5
275C
330
18
100
AcDbEntity
  8
1
  6
Continuous
100
AcDbCircle
 10
108.4828472274672
 20
60.83740540387832
 30
0.0
 40
15.55191832949472
100
AcDbArc
 50
339.289018930925
 51
20.71098106907502
  0
LINE
  5
275D
330
18
100
AcDbEntity
  8
1
  6
Continuous
100
AcDbLine
 10
123.0297425569619
 20
55.33740540387839
 30
0.0
 11
120.534765556962
 21
55.33740540387833
 31
0.0
  0
LINE
  5
275E
330
18
100
AcDbEntity
  8
1
  6
Continuous
100
AcDbLine
 10
124.034765556962
 20
66.33740540387832
 30
0.0
 11
120.534765556962
 21
66.33740540387832
 31
0.0
  0
LINE
  5
275F
330
18
100
AcDbEntity
  8
1
  6
Continuous
100
AcDbLine
 10
146.134765556962
 20
182.3378906459621
 30
0.0
 11
148.1347645570628
 21
182.3378906459621
 31
0.0
  0
LINE
  5
2760
330
18
100
AcDbEntity
  8
2
  6
Continuous
100
AcDbLine
 10
146.134765556962
 20
180.9848906459621
 30
0.0
 11
148.1347645570628
 21
180.9848906459621
 31
0.0
  0
LINE
  5
2761
330
18
100
AcDbEntity
  8
2
  6
Continuous
100
AcDbLine
 10
146.134765556962
 20
164.6908906459622
 30
0.0
 11
148.1347645570629
 21
164.6908906459622
 31
0.0
  0
LINE
  5
2762
330
18
100
AcDbEntity
  8
1
  6
Continuous
100
AcDbLine
 10
146.134765556962
 20
163.3378906459622
 30
0.0
 11
148.1347645570629
 21
163.3378906459622
 31
0.0
  0
LINE
  5
2763
330
18
100
AcDbEntity
  8
1
  6
Continuous
100
AcDbLine
 10
146.134765556962
 20
180.7378906459624
 30
0.0
 11
146.134765556962
 21
182.3378906459621
 31
0.0
  0
LINE
  5
2764
330
18
100
AcDbEntity
  8
1
  6
Continuous
100
AcDbLine
 10
146.134765556962
 20
164.9378906459625
 30
0.0
 11
146.134765556962
 21
163.3378906459622
 31
0.0
  0
LINE
  5
2765
330
18
100
AcDbEntity
  8
4
  6
CENTER
 48
0.2
100
AcDbLine
 10
423.0380573353786
 20
172.8378906459622
 30
0.0
 11
413.5380573353786
 21
172.8378906459622
 31
0.0
  0
LINE
  5
277D
330
18
100
AcDbEntity
  8
1
  6
Continuous
100
AcDbLine
 10
416.5380573353787
 20
182.2128906459622
 30
0.0
 11
416.5380573353787
 21
163.4628906459622
 31
0.0
  0
LINE
  5
277E
330
18
100
AcDbEntity
  8
1
  6
Continuous
100
AcDbLine
 10
420.0380573353787
 20
185.3378906459622
 30
0.0
 11
420.0380573353787
 21
160.3378906459622
 31
0.0
  0
ARC
  5
277F
330
18
100
AcDbEntity
  8
1
  6
Continuous
100
AcDbCircle
 10
421.8989803353787
 20
163.4628906459622
 30
0.0
 40
5.360922
100
AcDbArc
 50
144.3436700000006
 51
215.6563299999994
  0
LINE
  5
2783
330
18
100
AcDbEntity
  8
1
  6
Continuous
100
AcDbLine
 10
417.5430803353788
 20
160.3378906459622
 30
0.0
 11
420.0380573353787
 21
160.3378906459622
 31
0.0
  0
LINE
  5
2784
330
18
100
AcDbEntity
  8
1
  6
Continuous
100
AcDbLine
 10
398.7380573353787
 20
164.9378906459625
 30
0.0
 11
394.4380573353786
 21
164.9378906459625
 31
0.0
  0
LINE
  5
2787
330
18
100
AcDbEntity
  8
1
  6
Continuous
100
AcDbLine
 10
394.4380573353786
 20
164.9378906459625
 30
0.0
 11
394.4380573353786
 21
163.3378906459622
 31
0.0
  0
LINE
  5
2788
330
18
100
AcDbEntity
  8
2
  6
Continuous
100
AcDbLine
 10
394.4380573353786
 20
164.6908906459622
 30
0.0
 11
392.4380583352777
 21
164.6908906459622
 31
0.0
  0
LINE
  5
2789
330
18
100
AcDbEntity
  8
1
  6
Continuous
100
AcDbLine
 10
394.4380573353786
 20
163.3378906459622
 30
0.0
 11
392.4380583352777
 21
163.3378906459622
 31
0.0
  0
ARC
  5
278A
330
18
100
AcDbEntity
  8
1
  6
Continuous
100
AcDbCircle
 10
436.4742133353787
 20
172.8378906459622
 30
0.0
 40
19.936156
100
AcDbArc
 50
161.7296700000006
 51
198.2703299999993
  0
LINE
  5
278B
330
18
100
AcDbEntity
  8
1
  6
Continuous
100
AcDbLine
 10
417.5430803353788
 20
166.5878906459622
 30
0.0
 11
420.0380573353787
 21
166.5878906459622
 31
0.0
  0
ARC
  5
278C
330
18
100
AcDbEntity
  8
1
  6
Continuous
100
AcDbCircle
 10
421.8989803353787
 20
182.2128906459622
 30
0.0
 40
5.360922
100
AcDbArc
 50
144.3436700000006
 51
215.6563299999994
  0
LINE
  5
278D
330
18
100
AcDbEntity
  8
1
  6
Continuous
100
AcDbLine
 10
417.5430803353788
 20
179.0878906459622
 30
0.0
 11
420.0380573353787
 21
179.0878906459622
 31
0.0
  0
LINE
  5
278E
330
18
100
AcDbEntity
  8
1
  6
Continuous
100
AcDbLine
 10
417.5430803353788
 20
185.3378906459622
 30
0.0
 11
420.0380573353787
 21
185.3378906459622
 31
0.0
  0
LINE
  5
2793
330
18
100
AcDbEntity
  8
1
  6
Continuous
100
AcDbLine
 10
398.7380573353787
 20
180.7378906459624
 30
0.0
 11
394.4380573353786
 21
180.7378906459624
 31
0.0
  0
LINE
  5
2798
330
18
100
AcDbEntity
  8
1
  6
Continuous
100
AcDbLine
 10
394.4380573353786
 20
180.7378906459624
 30
0.0
 11
394.4380573353786
 21
182.3378906459621
 31
0.0
  0
LINE
  5
2799
330
18
100
AcDbEntity
  8
2
  6
Continuous
100
AcDbLine
 10
394.4380573353786
 20
180.9848906459621
 30
0.0
 11
392.4380583352779
 21
180.9848906459621
 31
0.0
  0
LINE
  5
279A
330
18
100
AcDbEntity
  8
1
  6
Continuous
100
AcDbLine
 10
394.4380573353786
 20
182.3378906459621
 30
0.0
 11
392.4380583352779
 21
182.3378906459621
 31
0.0
  0
LINE
  5
2801
330
18
100
AcDbEntity
  8
1
  6
Continuous
100
AcDbLine
 10
146.134765556962
 20
60.6137677871875
 30
0.0
 11
146.134765556962
 21
50.06104302056917
 31
0.0
  0
ENDSEC
  0
SECTION
  2
OBJECTS
  0
DICTIONARY
  5
C
330
0
100
AcDbDictionary
281
     1
  3
ACAD_CIP_PREVIOUS_PRODUCT_INFO
350
29DA
  3
ACAD_COLOR
350
29BD
  3
ACAD_DETAILVIEWSTYLE
350
29D6
  3
ACAD_GROUP
350
D
  3
ACAD_LAYOUT
350
94
  3
ACAD_MATERIAL
350
298B
  3
ACAD_MLEADERSTYLE
350
29D2
  3
ACAD_MLINESTYLE
350
1B
  3
ACAD_PLOTSETTINGS
350
95
  3
ACAD_PLOTSTYLENAME
350
2989
  3
ACAD_SCALELIST
350
29C0
  3
ACAD_SECTIONVIEWSTYLE
350
29D4
  3
ACAD_TABLESTYLE
350
29BE
  3
ACAD_VISUALSTYLE
350
29A4
  3
ACDB_RECOMPOSE_DATA
350
29F8
  3
AcDbVariableDictionary
350
29EB
  3
CONTENTDICTIONARY
350
3D
  3
DWGPROPS
350
29F9
  0
DICTIONARY
  5
29DB
330
E
100
AcDbDictionary
280
     1
281
     1
  3
ADSK_XREC_LAYER_RECONCILED
360
29DC
  0
DICTIONARY
  5
29DD
330
4E
100
AcDbDictionary
280
     1
281
     1
  3
ADSK_XREC_LAYER_RECONCILED
360
29DE
  0
DICTIONARY
  5
29DF
330
4F
100
AcDbDictionary
280
     1
281
     1
  3
ADSK_XREC_LAYER_RECONCILED
360
29E0
  0
DICTIONARY
  5
29E1
330
50
100
AcDbDictionary
280
     1
281
     1
  3
ADSK_XREC_LAYER_RECONCILED
360
29E2
  0
DICTIONARY
  5
29E3
330
51
100
AcDbDictionary
280
     1
281
     1
  3
ADSK_XREC_LAYER_RECONCILED
360
29E4
  0
DICTIONARY
  5
29E5
330
52
100
AcDbDictionary
280
     1
281
     1
  3
ADSK_XREC_LAYER_RECONCILED
360
29E6
  0
DICTIONARY
  5
29E7
330
53
100
AcDbDictionary
280
     1
281
     1
  3
ADSK_XREC_LAYER_RECONCILED
360
29E8
  0
DICTIONARY
  5
29E9
330
54
100
AcDbDictionary
280
     1
281
     1
  3
ADSK_XREC_LAYER_RECONCILED
360
29EA
  0
DICTIONARY
  5
2984
330
18
100
AcDbDictionary
281
     1
  3
ACAD_LAYOUTSELFREF
350
2985
  0
DICTIONARY
  5
2982
330
15
100
AcDbDictionary
281
     1
  3
ACAD_LAYOUTSELFREF
350
2983
  0
XRECORD
  5
29DA
102
{ACAD_REACTORS
330
C
102
}
330
C
100
AcDbXrecord
280
     1
300
ACDLT
300
2014
300
ACDLT_F_S
  0
DICTIONARY
  5
29BD
102
{ACAD_REACTORS
330
C
102
}
330
C
100
AcDbDictionary
281
     1
  0
DICTIONARY
  5
29D6
102
{ACAD_REACTORS
330
C
102
}
330
C
100
AcDbDictionary
281
     1
  3
Imperial24
350
29D7
  0
DICTIONARY
  5
D
102
{ACAD_REACTORS
330
C
102
}
330
C
100
AcDbDictionary
281
     1
  0
DICTIONARY
  5
94
102
{ACAD_REACTORS
330
C
102
}
330
C
100
AcDbDictionary
281
     1
  3
Model
350
29D8
  3
レイアウト1
350
29D9
  0
DICTIONARY
  5
298B
102
{ACAD_REACTORS
330
C
102
}
330
C
100
AcDbDictionary
281
     1
  3
ByBlock
350
2994
  3
ByLayer
350
298C
  3
Global
350
299C
  0
DICTIONARY
  5
29D2
102
{ACAD_REACTORS
330
C
102
}
330
C
100
AcDbDictionary
281
     1
  3
Standard
350
29D3
  0
DICTIONARY
  5
1B
102
{ACAD_REACTORS
330
C
102
}
330
C
100
AcDbDictionary
281
     1
  3
STANDARD
350
1C
  0
DICTIONARY
  5
95
102
{ACAD_REACTORS
330
C
102
}
330
C
100
AcDbDictionary
281
     1
  0
ACDBDICTIONARYWDFLT
  5
2989
102
{ACAD_REACTORS
330
C
102
}
330
C
100
AcDbDictionary
281
     1
  3
Normal
350
298A
100
AcDbDictionaryWithDefault
340
298A
  0
DICTIONARY
  5
29C0
102
{ACAD_REACTORS
330
C
102
}
330
C
100
AcDbDictionary
281
     1
  3
A0
350
29C1
  3
A1
350
29C2
  3
A2
350
29C3
  3
A3
350
29C4
  3
A4
350
29C5
  3
A5
350
29C6
  3
A6
350
29C7
  3
A7
350
29C8
  3
A8
350
29C9
  3
A9
350
29CA
  3
B0
350
29CB
  3
B1
350
29CC
  3
B2
350
29CD
  3
B3
350
29CE
  3
B4
350
29CF
  3
B5
350
29D0
  3
B6
350
29D1
  0
DICTIONARY
  5
29D4
102
{ACAD_REACTORS
330
C
102
}
330
C
100
AcDbDictionary
281
     1
  3
Imperial24
350
29D5
  0
DICTIONARY
  5
29BE
102
{ACAD_REACTORS
330
C
102
}
330
C
100
AcDbDictionary
281
     1
  3
Standard
350
29BF
  0
DICTIONARY
  5
29A4
102
{ACAD_REACTORS
330
C
102
}
330
C
100
AcDbDictionary
281
     1
  3
2dWireframe
350
29AA
  3
Basic
350
29A9
  3
Brighten
350
29B0
  3
ColorChange
350
29B4
  3
Conceptual
350
29AD
  3
Dim
350
29AF
  3
EdgeColorOff
350
29BC
  3
Facepattern
350
29B3
  3
Flat
350
29A5
  3
FlatWithEdges
350
29A6
  3
Gouraud
350
29A7
  3
GouraudWithEdges
350
29A8
  3
Hidden
350
29AC
  3
JitterOff
350
29BA
  3
Linepattern
350
29B2
  3
OverhangOff
350
29BB
  3
Realistic
350
29AE
  3
Shaded
350
29B9
  3
Shaded with edges
350
29B8
  3
Shades of Gray
350
29B5
  3
Sketchy
350
29B6
  3
Thicken
350
29B1
  3
Wireframe
350
29AB
  3
X-Ray
350
29B7
  0
XRECORD
  5
29F8
102
{ACAD_REACTORS
330
C
102
}
330
C
100
AcDbXrecord
280
     1
 90
        1
330
29BF
  0
DICTIONARY
  5
29EB
102
{ACAD_REACTORS
330
C
102
}
330
C
100
AcDbDictionary
281
     1
  3
CANNOSCALE
350
29F0
  3
CMLEADERSTYLE
350
29ED
  3
CTABLESTYLE
350
29EC
  3
CVIEWDETAILSTYLE
350
29EE
  3
CVIEWSECTIONSTYLE
350
29EF
  3
DIMASSOC
350
29F3
  3
INDEXCTL
350
29F2
  3
SORTENTS
350
29F1
  3
XCLIPFRAME
350
29F4
  0
DICTIONARY
  5
3D
102
{ACAD_REACTORS
330
C
102
}
330
C
100
AcDbDictionary
281
     1
  0
XRECORD
  5
29F9
102
{ACAD_REACTORS
330
C
102
}
330
C
100
AcDbXrecord
280
     1
  1
DWGPROPS COOKIE
  2

  3

  4

  6

  7

  8
Yoshitsune
  9

300
=
301
=
302
=
303
=
304
=
305
=
306
=
307
=
308
=
309
=
 40
0.261122037037037
 41
2454509.60412434
 42
2457192.602324676
  1

 90
        0
  0
XRECORD
  5
29DC
102
{ACAD_REACTORS
330
29DB
102
}
330
29DB
100
AcDbXrecord
280
     1
290
     1
  0
XRECORD
  5
29DE
102
{ACAD_REACTORS
330
29DD
102
}
330
29DD
100
AcDbXrecord
280
     1
290
     1
  0
XRECORD
  5
29E0
102
{ACAD_REACTORS
330
29DF
102
}
330
29DF
100
AcDbXrecord
280
     1
290
     1
  0
XRECORD
  5
29E2
102
{ACAD_REACTORS
330
29E1
102
}
330
29E1
100
AcDbXrecord
280
     1
290
     1
  0
XRECORD
  5
29E4
102
{ACAD_REACTORS
330
29E3
102
}
330
29E3
100
AcDbXrecord
280
     1
290
     1
  0
XRECORD
  5
29E6
102
{ACAD_REACTORS
330
29E5
102
}
330
29E5
100
AcDbXrecord
280
     1
290
     1
  0
XRECORD
  5
29E8
102
{ACAD_REACTORS
330
29E7
102
}
330
29E7
100
AcDbXrecord
280
     1
290
     1
  0
XRECORD
  5
29EA
102
{ACAD_REACTORS
330
29E9
102
}
330
29E9
100
AcDbXrecord
280
     1
290
     1
  0
XRECORD
  5
2985
102
{ACAD_REACTORS
330
2984
102
}
330
2984
100
AcDbXrecord
280
     1
340
18
  0
XRECORD
  5
2983
102
{ACAD_REACTORS
330
2982
102
}
330
2982
100
AcDbXrecord
280
     1
340
15
  0
ACDBDETAILVIEWSTYLE
  5
29D7
102
{ACAD_XDICTIONARY
360
2A31
102
}
102
{ACAD_REACTORS
330
29D6
102
}
330
29D6
100
AcDbModelDocViewStyle
 70
     0
  3
Imperial24
290
     0
100
AcDbDetailViewStyle
 70
     0
 71
     0
 90
        3
 71
     1
340
F
 40
0.24
340
0
 40
0.24
300

 40
0.36
280
     3
 71
     2
340
14
 90
       25
 71
     3
340
F
 40
0.24
 90
        1
 40
0.75
 90
        1
300
%<\AcVar ViewType \f "%tc1">% %<\AcVar ViewDetailId>%\PSCALE %<\AcVar ViewScale \f "%sn">%
 71
     4
340
14
 90
       25
340
14
 90
       25
280
     0
  0
LAYOUT
  5
29D8
102
{ACAD_XDICTIONARY
360
2A33
102
}
102
{ACAD_REACTORS
330
94
102
}
330
94
100
AcDbPlotSettings
  1

  2
Canon LBP9100C
  4

  6

 40
0.0
 41
0.0
 42
0.0
 43
0.0
 44
0.0
 45
0.0
 46
0.0
 47
0.0
 48
0.0
 49
0.0
140
0.0
141
0.0
142
1.0
143
1.0
 70
  1712
 72
     0
 73
     0
 74
     0
  7

 75
     0
147
1.0
148
0.0
149
0.0
100
AcDbLayout
  1
Model
 70
     1
 71
     0
 10
0.0
 20
0.0
 11
12.0
 21
9.0
 12
0.0
 22
0.0
 32
0.0
 14
0.0
 24
0.0
 34
0.0
 15
0.0
 25
0.0
 35
0.0
146
0.0
 13
0.0
 23
0.0
 33
0.0
 16
1.0
 26
0.0
 36
0.0
 17
0.0
 27
1.0
 37
0.0
 76
     0
330
18
331
2981
  0
LAYOUT
  5
29D9
102
{ACAD_XDICTIONARY
360
2A35
102
}
102
{ACAD_REACTORS
330
94
102
}
330
94
100
AcDbPlotSettings
  1

  2
Canon LBP9100C
  4

  6

 40
0.0
 41
0.0
 42
0.0
 43
0.0
 44
0.0
 45
0.0
 46
0.0
 47
0.0
 48
0.0
 49
0.0
140
0.0
141
0.0
142
1.0
143
1.0
 70
   688
 72
     0
 73
     0
 74
     5
  7

 75
    16
147
1.0
148
0.0
149
0.0
100
AcDbLayout
  1
レイアウト1
 70
     1
 71
     1
 10
0.0
 20
0.0
 11
420.0
 21
297.0
 12
0.0
 22
0.0
 32
0.0
 14
1.000000000000000E+20
 24
1.000000000000000E+20
 34
1.000000000000000E+20
 15
-1.000000000000000E+20
 25
-1.000000000000000E+20
 35
-1.000000000000000E+20
146
0.0
 13
0.0
 23
0.0
 33
0.0
 16
1.0
 26
0.0
 36
0.0
 17
0.0
 27
1.0
 37
0.0
 76
     0
330
15
  0
MATERIAL
  5
2994
102
{ACAD_XDICTIONARY
360
2995
102
}
102
{ACAD_REACTORS
330
298B
102
}
330
298B
100
AcDbMaterial
  1
ByBlock
 72
     0
 43
0.0208333333333333
 43
0.0
 43
0.0
 43
0.0
 43
0.0
 43
0.0208333333333333
 43
0.0
 43
0.0
 43
0.0
 43
0.0
 43
1.0
 43
0.0
 43
0.0
 43
0.0
 43
0.0
 43
1.0
 77
     0
 47
0.0208333333333333
 47
0.0
 47
0.0
 47
0.0
 47
0.0
 47
0.0208333333333333
 47
0.0
 47
0.0
 47
0.0
 47
0.0
 47
1.0
 47
0.0
 47
0.0
 47
0.0
 47
0.0
 47
1.0
171
     0
 49
0.0208333333333333
 49
0.0
 49
0.0
 49
0.0
 49
0.0
 49
0.0208333333333333
 49
0.0
 49
0.0
 49
0.0
 49
0.0
 49
1.0
 49
0.0
 49
0.0
 49
0.0
 49
0.0
 49
1.0
175
     0
142
0.0208333333333333
142
0.0
142
0.0
142
0.0
142
0.0
142
0.0208333333333333
142
0.0
142
0.0
142
0.0
142
0.0
142
1.0
142
0.0
142
0.0
142
0.0
142
0.0
142
1.0
179
     0
144
0.0208333333333333
144
0.0
144
0.0
144
0.0
144
0.0
144
0.0208333333333333
144
0.0
144
0.0
144
0.0
144
0.0
144
1.0
144
0.0
144
0.0
144
0.0
144
0.0
144
1.0
147
0.0208333333333333
147
0.0
147
0.0
147
0.0
147
0.0
147
0.0208333333333333
147
0.0
147
0.0
147
0.0
147
0.0
147
1.0
147
0.0
147
0.0
147
0.0
147
0.0
147
1.0
  0
MATERIAL
  5
298C
102
{ACAD_XDICTIONARY
360
298D
102
}
102
{ACAD_REACTORS
330
298B
102
}
330
298B
100
AcDbMaterial
  1
ByLayer
 72
     0
 43
0.0208333333333333
 43
0.0
 43
0.0
 43
0.0
 43
0.0
 43
0.0208333333333333
 43
0.0
 43
0.0
 43
0.0
 43
0.0
 43
1.0
 43
0.0
 43
0.0
 43
0.0
 43
0.0
 43
1.0
 77
     0
 47
0.0208333333333333
 47
0.0
 47
0.0
 47
0.0
 47
0.0
 47
0.0208333333333333
 47
0.0
 47
0.0
 47
0.0
 47
0.0
 47
1.0
 47
0.0
 47
0.0
 47
0.0
 47
0.0
 47
1.0
171
     0
 49
0.0208333333333333
 49
0.0
 49
0.0
 49
0.0
 49
0.0
 49
0.0208333333333333
 49
0.0
 49
0.0
 49
0.0
 49
0.0
 49
1.0
 49
0.0
 49
0.0
 49
0.0
 49
0.0
 49
1.0
175
     0
142
0.0208333333333333
142
0.0
142
0.0
142
0.0
142
0.0
142
0.0208333333333333
142
0.0
142
0.0
142
0.0
142
0.0
142
1.0
142
0.0
142
0.0
142
0.0
142
0.0
142
1.0
179
     0
144
0.0208333333333333
144
0.0
144
0.0
144
0.0
144
0.0
144
0.0208333333333333
144
0.0
144
0.0
144
0.0
144
0.0
144
1.0
144
0.0
144
0.0
144
0.0
144
0.0
144
1.0
147
0.0208333333333333
147
0.0
147
0.0
147
0.0
147
0.0
147
0.0208333333333333
147
0.0
147
0.0
147
0.0
147
0.0
147
1.0
147
0.0
147
0.0
147
0.0
147
0.0
147
1.0
  0
MATERIAL
  5
299C
102
{ACAD_XDICTIONARY
360
299D
102
}
102
{ACAD_REACTORS
330
298B
102
}
330
298B
100
AcDbMaterial
  1
Global
 72
     0
 43
0.0208333333333333
 43
0.0
 43
0.0
 43
0.0
 43
0.0
 43
0.0208333333333333
 43
0.0
 43
0.0
 43
0.0
 43
0.0
 43
1.0
 43
0.0
 43
0.0
 43
0.0
 43
0.0
 43
1.0
 77
     0
 47
0.0208333333333333
 47
0.0
 47
0.0
 47
0.0
 47
0.0
 47
0.0208333333333333
 47
0.0
 47
0.0
 47
0.0
 47
0.0
 47
1.0
 47
0.0
 47
0.0
 47
0.0
 47
0.0
 47
1.0
171
     0
 49
0.0208333333333333
 49
0.0
 49
0.0
 49
0.0
 49
0.0
 49
0.0208333333333333
 49
0.0
 49
0.0
 49
0.0
 49
0.0
 49
1.0
 49
0.0
 49
0.0
 49
0.0
 49
0.0
 49
1.0
175
     0
142
0.0208333333333333
142
0.0
142
0.0
142
0.0
142
0.0
142
0.0208333333333333
142
0.0
142
0.0
142
0.0
142
0.0
142
1.0
142
0.0
142
0.0
142
0.0
142
0.0
142
1.0
179
     0
144
0.0208333333333333
144
0.0
144
0.0
144
0.0
144
0.0
144
0.0208333333333333
144
0.0
144
0.0
144
0.0
144
0.0
144
1.0
144
0.0
144
0.0
144
0.0
144
0.0
144
1.0
147
0.0208333333333333
147
0.0
147
0.0
147
0.0
147
0.0
147
0.0208333333333333
147
0.0
147
0.0
147
0.0
147
0.0
147
1.0
147
0.0
147
0.0
147
0.0
147
0.0
147
1.0
  0
MLEADERSTYLE
  5
29D3
102
{ACAD_REACTORS
330
29D2
102
}
330
29D2
100
AcDbMLeaderStyle
170
     2
171
     1
172
     0
 90
        2
 40
0.0
 41
0.0
173
     1
 91
-1056964608
340
12
 92
       -2
290
     1
 42
0.09
291
     1
 43
0.36
  3
Standard
 44
0.18
300

342
F
174
     1
178
     6
175
     1
176
     0
 93
-1056964608
 45
0.18
292
     0
297
     0
 46
0.18
 94
-1056964608
 47
1.0
 49
1.0
140
1.0
293
     1
141
0.0
294
     1
177
     0
142
1.0
295
     0
296
     0
143
0.125
1001
ACAD_MLEADERVER
1070
     2
  0
MLINESTYLE
  5
1C
102
{ACAD_REACTORS
330
1B
102
}
330
1B
100
AcDbMlineStyle
  2
STANDARD
 70
     0
  3

 62
   256
 51
90.0
 52
90.0
 71
     2
 49
0.5
 62
   256
  6
BYLAYER
 49
-0.5
 62
   256
  6
BYLAYER
  0
ACDBPLACEHOLDER
  5
298A
102
{ACAD_REACTORS
330
2989
102
}
330
2989
  0
SCALE
  5
29C1
102
{ACAD_REACTORS
330
29C0
102
}
330
29C0
100
AcDbScale
 70
     0
300
1:1
140
1.0
141
1.0
290
     1
  0
SCALE
  5
29C2
102
{ACAD_REACTORS
330
29C0
102
}
330
29C0
100
AcDbScale
 70
     0
300
1/128" = 1'-0"
140
0.0078125
141
12.0
290
     0
  0
SCALE
  5
29C3
102
{ACAD_REACTORS
330
29C0
102
}
330
29C0
100
AcDbScale
 70
     0
300
1/64" = 1'-0"
140
0.015625
141
12.0
290
     0
  0
SCALE
  5
29C4
102
{ACAD_REACTORS
330
29C0
102
}
330
29C0
100
AcDbScale
 70
     0
300
1/32" = 1'-0"
140
0.03125
141
12.0
290
     0
  0
SCALE
  5
29C5
102
{ACAD_REACTORS
330
29C0
102
}
330
29C0
100
AcDbScale
 70
     0
300
1/16" = 1'-0"
140
0.0625
141
12.0
290
     0
  0
SCALE
  5
29C6
102
{ACAD_REACTORS
330
29C0
102
}
330
29C0
100
AcDbScale
 70
     0
300
3/32" = 1'-0"
140
0.09375
141
12.0
290
     0
  0
SCALE
  5
29C7
102
{ACAD_REACTORS
330
29C0
102
}
330
29C0
100
AcDbScale
 70
     0
300
1/8" = 1'-0"
140
0.125
141
12.0
290
     0
  0
SCALE
  5
29C8
102
{ACAD_REACTORS
330
29C0
102
}
330
29C0
100
AcDbScale
 70
     0
300
3/16" = 1'-0"
140
0.1875
141
12.0
290
     0
  0
SCALE
  5
29C9
102
{ACAD_REACTORS
330
29C0
102
}
330
29C0
100
AcDbScale
 70
     0
300
1/4" = 1'-0"
140
0.25
141
12.0
290
     0
  0
SCALE
  5
29CA
102
{ACAD_REACTORS
330
29C0
102
}
330
29C0
100
AcDbScale
 70
     0
300
3/8" = 1'-0"
140
0.375
141
12.0
290
     0
  0
SCALE
  5
29CB
102
{ACAD_REACTORS
330
29C0
102
}
330
29C0
100
AcDbScale
 70
     0
300
1/2" = 1'-0"
140
0.5
141
12.0
290
     0
  0
SCALE
  5
29CC
102
{ACAD_REACTORS
330
29C0
102
}
330
29C0
100
AcDbScale
 70
     0
300
3/4" = 1'-0"
140
0.75
141
12.0
290
     0
  0
SCALE
  5
29CD
102
{ACAD_REACTORS
330
29C0
102
}
330
29C0
100
AcDbScale
 70
     0
300
1" = 1'-0"
140
1.0
141
12.0
290
     0
  0
SCALE
  5
29CE
102
{ACAD_REACTORS
330
29C0
102
}
330
29C0
100
AcDbScale
 70
     0
300
1-1/2" = 1'-0"
140
1.5
141
12.0
290
     0
  0
SCALE
  5
29CF
102
{ACAD_REACTORS
330
29C0
102
}
330
29C0
100
AcDbScale
 70
     0
300
3" = 1'-0"
140
3.0
141
12.0
290
     0
  0
SCALE
  5
29D0
102
{ACAD_REACTORS
330
29C0
102
}
330
29C0
100
AcDbScale
 70
     0
300
6" = 1'-0"
140
6.0
141
12.0
290
     0
  0
SCALE
  5
29D1
102
{ACAD_REACTORS
330
29C0
102
}
330
29C0
100
AcDbScale
 70
     0
300
1'-0" = 1'-0"
140
12.0
141
12.0
290
     0
  0
ACDBSECTIONVIEWSTYLE
  5
29D5
102
{ACAD_XDICTIONARY
360
2A2F
102
}
102
{ACAD_REACTORS
330
29D4
102
}
330
29D4
100
AcDbModelDocViewStyle
 70
     0
  3
Imperial24
290
     0
100
AcDbSectionViewStyle
 70
     0
 71
     0
 90
       78
 71
     1
340
F
 40
0.24
340
0
340
0
 40
0.24
300
I, O, Q, S, X, Z
 40
0.48
 90
        3
 40
0.18
 90
        1
 71
     2
340
14
 90
       25
340
14
 90
       50
 40
0.24
 40
0.0
 40
0.24
 71
     3
340
F
 40
0.24
 90
        1
 40
0.75
 90
        1
300
%<\AcVar ViewType \f "%tc1">% %<\AcVar ViewSectionStartId>%-%<\AcVar ViewSectionEndId>%\PSCALE %<\AcVar ViewScale \f "%sn">%
 71
     4
300
ANSI31
 40
1.0
 90
        0
290
     0
290
     0
 90
        6
 40
0.0
 40
1.570796326794896
 40
0.2617993877991494
 40
1.308996938995747
 40
-0.2617993877991494
 40
1.832595714594046
  0
TABLESTYLE
  5
29BF
102
{ACAD_XDICTIONARY
360
29F6
102
}
102
{ACAD_REACTORS
330
29BE
102
}
330
29BE
100
AcDbTableStyle
  3
Standard
 70
     0
 71
     0
 40
0.06
 41
0.06
280
     0
281
     0
  7
STANDARD
140
0.18
170
     2
 62
     0
 63
     7
283
     0
274
    -2
284
     1
 64
     0
275
    -2
285
     1
 65
     0
276
    -2
286
     1
 66
     0
277
    -2
287
     1
 67
     0
278
    -2
288
     1
 68
     0
279
    -2
289
     1
 69
     0
  7
STANDARD
140
0.25
170
     5
 62
     0
 63
     7
283
     0
274
    -2
284
     1
 64
     0
275
    -2
285
     1
 65
     0
276
    -2
286
     1
 66
     0
277
    -2
287
     1
 67
     0
278
    -2
288
     1
 68
     0
279
    -2
289
     1
 69
     0
  7
STANDARD
140
0.18
170
     5
 62
     0
 63
     7
283
     0
274
    -2
284
     1
 64
     0
275
    -2
285
     1
 65
     0
276
    -2
286
     1
 66
     0
277
    -2
287
     1
 67
     0
278
    -2
288
     1
 68
     0
279
    -2
289
     1
 69
     0
  0
VISUALSTYLE
  5
29AA
102
{ACAD_XDICTIONARY
360
2A07
102
}
102
{ACAD_REACTORS
330
29A4
102
}
330
29A4
100
AcDbVisualStyle
  2
2dWireframe
 70
     4
 71
     0
 72
     2
 73
     0
 90
        0
 40
-0.6
 41
-30.0
 62
     5
 63
     7
 74
     1
 91
        4
 64
     7
 65
   257
 75
     1
175
     1
 42
1.0
 92
        0
 66
   257
 43
1.0
 76
     1
 77
     6
 78
     2
 67
     7
 79
     5
170
     0
171
     0
290
     0
174
     0
 93
        1
 44
0.0
173
     0
291
     0
 45
0.0
1001
ACAD
1000
AcDbSavedByObjectVersion
1070
     0
  0
VISUALSTYLE
  5
29A9
102
{ACAD_XDICTIONARY
360
2A05
102
}
102
{ACAD_REACTORS
330
29A4
102
}
330
29A4
100
AcDbVisualStyle
  2
Basic
 70
     7
 71
     1
 72
     0
 73
     1
 90
        0
 40
-0.6
 41
-30.0
 62
     5
 63
     7
 74
     0
 91
        4
 64
     7
 65
   257
 75
     1
175
     1
 42
1.0
 92
        8
 66
     7
 43
1.0
 76
     1
 77
     6
 78
     2
 67
     7
 79
     5
170
     0
171
     0
290
     0
174
     0
 93
        1
 44
0.0
173
     0
291
     1
 45
0.0
1001
ACAD
1000
AcDbSavedByObjectVersion
1070
     0
  0
VISUALSTYLE
  5
29B0
102
{ACAD_XDICTIONARY
360
2A13
102
}
102
{ACAD_REACTORS
330
29A4
102
}
330
29A4
100
AcDbVisualStyle
  2
Brighten
 70
    12
 71
     2
 72
     2
 73
     0
 90
        0
 40
-0.6
 41
-30.0
 62
     5
 63
     7
 74
     1
 91
        4
 64
     7
 65
   257
 75
     1
175
     1
 42
1.0
 92
        8
 66
     7
 43
1.0
 76
     1
 77
     6
 78
     2
 67
     7
 79
     5
170
     0
171
     0
290
     0
174
     0
 93
        1
 44
50.0
173
     0
291
     1
 45
0.0
1001
ACAD
1000
AcDbSavedByObjectVersion
1070
     0
  0
VISUALSTYLE
  5
29B4
102
{ACAD_XDICTIONARY
360
2A1B
102
}
102
{ACAD_REACTORS
330
29A4
102
}
330
29A4
100
AcDbVisualStyle
  2
ColorChange
 70
    16
 71
     2
 72
     2
 73
     3
 90
        0
 40
-0.6
 41
-30.0
 62
     5
 63
     8
 74
     1
 91
        4
 64
     7
 65
   257
 75
     1
175
     1
 42
1.0
 92
        8
 66
     8
 43
1.0
 76
     1
 77
     6
 78
     2
 67
     7
 79
     5
170
     0
171
     0
290
     0
174
     0
 93
        1
 44
0.0
173
     0
291
     1
 45
0.0
1001
ACAD
1000
AcDbSavedByObjectVersion
1070
     0
  0
VISUALSTYLE
  5
29AD
102
{ACAD_XDICTIONARY
360
2A0D
102
}
102
{ACAD_REACTORS
330
29A4
102
}
330
29A4
100
AcDbVisualStyle
  2
Conceptual
 70
     9
 71
     3
 72
     2
 73
     0
 90
        0
 40
-0.6
 41
-30.0
 62
     5
 63
     7
 74
     2
 91
        2
 64
     7
 65
   257
 75
     1
175
     1
 42
179.0
 92
        8
 66
     7
 43
1.0
 76
     1
 77
     6
 78
     2
 67
     7
 79
     3
170
     0
171
     0
290
     0
174
     0
 93
        1
 44
0.0
173
     0
291
     0
 45
0.0
1001
ACAD
1000
AcDbSavedByObjectVersion
1070
     0
  0
VISUALSTYLE
  5
29AF
102
{ACAD_XDICTIONARY
360
2A11
102
}
102
{ACAD_REACTORS
330
29A4
102
}
330
29A4
100
AcDbVisualStyle
  2
Dim
 70
    11
 71
     2
 72
     2
 73
     0
 90
        0
 40
-0.6
 41
-30.0
 62
     5
 63
     7
 74
     1
 91
        4
 64
     7
 65
   257
 75
     1
175
     1
 42
1.0
 92
        8
 66
     7
 43
1.0
 76
     1
 77
     6
 78
     2
 67
     7
 79
     5
170
     0
171
     0
290
     0
174
     0
 93
        1
 44
-50.0
173
     0
291
     1
 45
0.0
1001
ACAD
1000
AcDbSavedByObjectVersion
1070
     0
  0
VISUALSTYLE
  5
29BC
102
{ACAD_XDICTIONARY
360
2A2B
102
}
102
{ACAD_REACTORS
330
29A4
102
}
330
29A4
100
AcDbVisualStyle
  2
EdgeColorOff
 70
    22
 71
     2
 72
     2
 73
     0
 90
        0
 40
-0.6
 41
-30.0
 62
     5
 63
     7
 74
     1
 91
        4
 64
     7
 65
   257
 75
     1
175
     1
 42
1.0
 92
        8
 66
     7
 43
1.0
 76
     1
 77
     6
 78
     2
 67
     7
 79
     5
170
     0
171
     0
290
     0
174
     0
 93
        1
 44
0.0
173
     0
291
     1
 45
0.0
1001
ACAD
1000
AcDbSavedByObjectVersion
1070
     0
  0
VISUALSTYLE
  5
29B3
102
{ACAD_XDICTIONARY
360
2A19
102
}
102
{ACAD_REACTORS
330
29A4
102
}
330
29A4
100
AcDbVisualStyle
  2
Facepattern
 70
    15
 71
     2
 72
     2
 73
     0
 90
        0
 40
-0.6
 41
-30.0
 62
     5
 63
     7
 74
     1
 91
        4
 64
     7
 65
   257
 75
     1
175
     1
 42
1.0
 92
        8
 66
     7
 43
1.0
 76
     1
 77
     6
 78
     2
 67
     7
 79
     5
170
     0
171
     0
290
     0
174
     0
 93
        1
 44
0.0
173
     0
291
     1
 45
0.0
1001
ACAD
1000
AcDbSavedByObjectVersion
1070
     0
  0
VISUALSTYLE
  5
29A5
102
{ACAD_XDICTIONARY
360
29FD
102
}
102
{ACAD_REACTORS
330
29A4
102
}
330
29A4
100
AcDbVisualStyle
  2
Flat
 70
     0
 71
     2
 72
     1
 73
     1
 90
        2
 40
-0.6
 41
30.0
 62
     5
 63
     7
 74
     0
 91
        0
 64
     7
 65
   257
 75
     1
175
     1
 42
1.0
 92
        8
 66
     7
 43
1.0
 76
     1
 77
     6
 78
     2
 67
     7
 79
     5
170
     0
171
     0
290
     0
174
     0
 93
       13
 44
0.0
173
     0
291
     1
 45
0.0
1001
ACAD
1000
AcDbSavedByObjectVersion
1070
     0
  0
VISUALSTYLE
  5
29A6
102
{ACAD_XDICTIONARY
360
29FF
102
}
102
{ACAD_REACTORS
330
29A4
102
}
330
29A4
100
AcDbVisualStyle
  2
FlatWithEdges
 70
     1
 71
     2
 72
     1
 73
     1
 90
        2
 40
-0.6
 41
30.0
 62
     5
 63
     7
 74
     1
 91
        0
 64
     7
 65
   257
 75
     1
175
     1
 42
1.0
 92
        0
 66
   257
 43
1.0
 76
     1
 77
     6
 78
     2
 67
     7
 79
     5
170
     0
171
     0
290
     0
174
     0
 93
       13
 44
0.0
173
     0
291
     1
 45
0.0
1001
ACAD
1000
AcDbSavedByObjectVersion
1070
     0
  0
VISUALSTYLE
  5
29A7
102
{ACAD_XDICTIONARY
360
2A01
102
}
102
{ACAD_REACTORS
330
29A4
102
}
330
29A4
100
AcDbVisualStyle
  2
Gouraud
 70
     2
 71
     2
 72
     2
 73
     1
 90
        2
 40
-0.6
 41
30.0
 62
     5
 63
     7
 74
     0
 91
        0
 64
     7
 65
   257
 75
     1
175
     1
 42
1.0
 92
        0
 66
     7
 43
1.0
 76
     1
 77
     6
 78
     2
 67
     7
 79
     5
170
     0
171
     0
290
     0
174
     0
 93
       13
 44
0.0
173
     0
291
     1
 45
0.0
1001
ACAD
1000
AcDbSavedByObjectVersion
1070
     0
  0
VISUALSTYLE
  5
29A8
102
{ACAD_XDICTIONARY
360
2A03
102
}
102
{ACAD_REACTORS
330
29A4
102
}
330
29A4
100
AcDbVisualStyle
  2
GouraudWithEdges
 70
     3
 71
     2
 72
     2
 73
     1
 90
        2
 40
-0.6
 41
30.0
 62
     5
 63
     7
 74
     1
 91
        0
 64
     7
 65
   257
 75
     1
175
     1
 42
1.0
 92
        0
 66
   257
 43
1.0
 76
     1
 77
     6
 78
     2
 67
     7
 79
     5
170
     0
171
     0
290
     0
174
     0
 93
       13
 44
0.0
173
     0
291
     1
 45
0.0
1001
ACAD
1000
AcDbSavedByObjectVersion
1070
     0
  0
VISUALSTYLE
  5
29AC
102
{ACAD_XDICTIONARY
360
2A0B
102
}
102
{ACAD_REACTORS
330
29A4
102
}
330
29A4
100
AcDbVisualStyle
  2
Hidden
 70
     6
 71
     1
 72
     2
 73
     2
 90
        0
 40
-0.6
 41
-30.0
 62
     5
 63
     7
 74
     2
 91
        2
 64
     7
 65
   257
 75
     2
175
     1
 42
40.0
 92
        0
 66
   257
 43
1.0
 76
     1
 77
     6
 78
     2
 67
     7
 79
     3
170
     0
171
     0
290
     0
174
     0
 93
        1
 44
0.0
173
     0
291
     0
 45
0.0
1001
ACAD
1000
AcDbSavedByObjectVersion
1070
     0
  0
VISUALSTYLE
  5
29BA
102
{ACAD_XDICTIONARY
360
2A27
102
}
102
{ACAD_REACTORS
330
29A4
102
}
330
29A4
100
AcDbVisualStyle
  2
JitterOff
 70
    20
 71
     2
 72
     2
 73
     0
 90
        0
 40
-0.6
 41
-30.0
 62
     5
 63
     7
 74
     1
 91
        4
 64
     7
 65
   257
 75
     1
175
     1
 42
1.0
 92
       10
 66
     7
 43
1.0
 76
     1
 77
     6
 78
     2
 67
     7
 79
     5
170
     0
171
     0
290
     0
174
     0
 93
        1
 44
0.0
173
     0
291
     1
 45
0.0
1001
ACAD
1000
AcDbSavedByObjectVersion
1070
     0
  0
VISUALSTYLE
  5
29B2
102
{ACAD_XDICTIONARY
360
2A17
102
}
102
{ACAD_REACTORS
330
29A4
102
}
330
29A4
100
AcDbVisualStyle
  2
Linepattern
 70
    14
 71
     2
 72
     2
 73
     0
 90
        0
 40
-0.6
 41
-30.0
 62
     5
 63
     7
 74
     1
 91
        4
 64
     7
 65
   257
 75
     7
175
     7
 42
1.0
 92
        8
 66
     7
 43
1.0
 76
     1
 77
     6
 78
     2
 67
     7
 79
     5
170
     0
171
     0
290
     0
174
     0
 93
        1
 44
0.0
173
     0
291
     1
 45
0.0
1001
ACAD
1000
AcDbSavedByObjectVersion
1070
     0
  0
VISUALSTYLE
  5
29BB
102
{ACAD_XDICTIONARY
360
2A29
102
}
102
{ACAD_REACTORS
330
29A4
102
}
330
29A4
100
AcDbVisualStyle
  2
OverhangOff
 70
    21
 71
     2
 72
     2
 73
     0
 90
        0
 40
-0.6
 41
-30.0
 62
     5
 63
     7
 74
     1
 91
        4
 64
     7
 65
   257
 75
     1
175
     1
 42
1.0
 92
        9
 66
     7
 43
1.0
 76
     1
 77
     6
 78
     2
 67
     7
 79
     5
170
     0
171
     0
290
     0
174
     0
 93
        1
 44
0.0
173
     0
291
     1
 45
0.0
1001
ACAD
1000
AcDbSavedByObjectVersion
1070
     0
  0
VISUALSTYLE
  5
29AE
102
{ACAD_XDICTIONARY
360
2A0F
102
}
102
{ACAD_REACTORS
330
29A4
102
}
330
29A4
100
AcDbVisualStyle
  2
Realistic
 70
     8
 71
     2
 72
     3
 73
     0
 90
        2
 40
-0.6
 41
30.0
 62
     5
 63
     7
 74
     0
 91
        0
 64
     7
 65
   257
 75
     1
175
     1
 42
1.0
 92
        8
 66
   257
 43
1.0
 76
     1
 77
     6
 78
     2
 67
     7
 79
     3
170
     0
171
     0
290
     0
174
     0
 93
       13
 44
0.0
173
     0
291
     0
 45
0.0
1001
ACAD
1000
AcDbSavedByObjectVersion
1070
     0
  0
VISUALSTYLE
  5
29B9
102
{ACAD_XDICTIONARY
360
2A25
102
}
102
{ACAD_REACTORS
330
29A4
102
}
330
29A4
100
AcDbVisualStyle
  2
Shaded
 70
    27
 71
     2
 72
     2
 73
     1
 90
        2
 40
-0.6
 41
30.0
 62
     5
 63
     7
 74
     0
 91
        4
 64
     7
 65
   257
 75
     1
175
     1
 42
1.0
 92
        8
 66
   257
 43
1.0
 76
     1
 77
     6
 78
     2
 67
     8
 79
     3
170
     0
171
     0
290
     0
174
     0
 93
        5
 44
0.0
173
     0
291
     0
 45
0.0
1001
ACAD
1000
AcDbSavedByObjectVersion
1070
     0
  0
VISUALSTYLE
  5
29B8
102
{ACAD_XDICTIONARY
360
2A23
102
}
102
{ACAD_REACTORS
330
29A4
102
}
330
29A4
100
AcDbVisualStyle
  2
Shaded with edges
 70
    26
 71
     2
 72
     2
 73
     1
 90
        2
 40
-0.6
 41
30.0
 62
     5
 63
     7
 74
     1
 91
       10
 64
     7
 65
   257
 75
     2
175
     1
 42
1.0
 92
        8
 66
   257
 43
1.0
 76
     1
 77
     6
 78
     2
 67
     7
 79
     3
170
     0
171
     0
290
     0
174
     0
 93
        5
 44
0.0
173
     0
291
     0
 45
0.0
1001
ACAD
1000
AcDbSavedByObjectVersion
1070
     0
  0
VISUALSTYLE
  5
29B5
102
{ACAD_XDICTIONARY
360
2A1D
102
}
102
{ACAD_REACTORS
330
29A4
102
}
330
29A4
100
AcDbVisualStyle
  2
Shades of Gray
 70
    23
 71
     2
 72
     2
 73
     3
 90
        0
 40
-0.6
 41
-30.0
 62
     5
 63
     7
 74
     2
 91
        2
 64
     7
 65
     7
 75
     1
175
     1
 42
40.0
 92
        8
 66
     7
 43
1.0
 76
     1
 77
     6
 78
     2
 67
     7
 79
     3
170
     0
171
     0
290
     0
174
     0
 93
        1
 44
0.0
173
     0
291
     0
 45
0.0
1001
ACAD
1000
AcDbSavedByObjectVersion
1070
     0
  0
VISUALSTYLE
  5
29B6
102
{ACAD_XDICTIONARY
360
2A1F
102
}
102
{ACAD_REACTORS
330
29A4
102
}
330
29A4
100
AcDbVisualStyle
  2
Sketchy
 70
    24
 71
     1
 72
     2
 73
     2
 90
        0
 40
-0.6
 41
-30.0
 62
     5
 63
     7
 74
     2
 91
        2
 64
     7
 65
     7
 75
     1
175
     1
 42
40.0
 92
       11
 66
     7
 43
1.0
 76
     1
 77
     6
 78
     2
 67
     7
 79
     6
170
     0
171
     0
290
     0
174
     0
 93
        1
 44
0.0
173
     0
291
     0
 45
0.0
1001
ACAD
1000
AcDbSavedByObjectVersion
1070
     0
  0
VISUALSTYLE
  5
29B1
102
{ACAD_XDICTIONARY
360
2A15
102
}
102
{ACAD_REACTORS
330
29A4
102
}
330
29A4
100
AcDbVisualStyle
  2
Thicken
 70
    13
 71
     2
 72
     2
 73
     0
 90
        0
 40
-0.6
 41
-30.0
 62
     5
 63
     7
 74
     1
 91
        4
 64
     7
 65
   257
 75
     1
175
     1
 42
1.0
 92
       12
 66
     7
 43
1.0
 76
     1
 77
     6
 78
     2
 67
     7
 79
     5
170
     0
171
     0
290
     0
174
     0
 93
        1
 44
0.0
173
     0
291
     1
 45
0.0
1001
ACAD
1000
AcDbSavedByObjectVersion
1070
     0
  0
VISUALSTYLE
  5
29AB
102
{ACAD_XDICTIONARY
360
2A09
102
}
102
{ACAD_REACTORS
330
29A4
102
}
330
29A4
100
AcDbVisualStyle
  2
Wireframe
 70
     5
 71
     0
 72
     2
 73
     0
 90
        0
 40
-0.6
 41
-30.0
 62
     5
 63
     7
 74
     1
 91
        4
 64
     7
 65
   257
 75
     1
175
     1
 42
1.0
 92
        0
 66
   257
 43
1.0
 76
     1
 77
     6
 78
     2
 67
     7
 79
     3
170
     0
171
     0
290
     0
174
     0
 93
        1
 44
0.0
173
     0
291
     0
 45
0.0
1001
ACAD
1000
AcDbSavedByObjectVersion
1070
     0
  0
VISUALSTYLE
  5
29B7
102
{ACAD_XDICTIONARY
360
2A21
102
}
102
{ACAD_REACTORS
330
29A4
102
}
330
29A4
100
AcDbVisualStyle
  2
X-Ray
 70
    25
 71
     2
 72
     2
 73
     1
 90
        1
 40
0.5
 41
-30.0
 62
     5
 63
     7
 74
     1
 91
        0
 64
     7
 65
   257
 75
     1
175
     1
 42
1.0
 92
        8
 66
     7
 43
1.0
 76
     1
 77
     6
 78
     2
 67
     7
 79
     3
170
     0
171
     0
290
     0
174
     0
 93
       13
 44
0.0
173
     0
291
     0
 45
0.0
1001
ACAD
1000
AcDbSavedByObjectVersion
1070
     0
  0
DICTIONARYVAR
  5
29F0
102
{ACAD_REACTORS
330
29EB
102
}
330
29EB
100
DictionaryVariables
280
     0
  1
1:1
  0
DICTIONARYVAR
  5
29ED
102
{ACAD_REACTORS
330
29EB
102
}
330
29EB
100
DictionaryVariables
280
     0
  1
STANDARD
  0
DICTIONARYVAR
  5
29EC
102
{ACAD_REACTORS
330
29EB
102
}
330
29EB
100
DictionaryVariables
280
     0
  1
STANDARD
  0
DICTIONARYVAR
  5
29EE
102
{ACAD_REACTORS
330
29EB
102
}
330
29EB
100
DictionaryVariables
280
     0
  1
Imperial24
  0
DICTIONARYVAR
  5
29EF
102
{ACAD_REACTORS
330
29EB
102
}
330
29EB
100
DictionaryVariables
280
     0
  1
Imperial24
  0
DICTIONARYVAR
  5
29F3
102
{ACAD_REACTORS
330
29EB
102
}
330
29EB
100
DictionaryVariables
280
     0
  1
1
  0
DICTIONARYVAR
  5
29F2
102
{ACAD_REACTORS
330
29EB
102
}
330
29EB
100
DictionaryVariables
280
     0
  1
0
  0
DICTIONARYVAR
  5
29F1
102
{ACAD_REACTORS
330
29EB
102
}
330
29EB
100
DictionaryVariables
280
     0
  1
127
  0
DICTIONARYVAR
  5
29F4
102
{ACAD_REACTORS
330
29EB
102
}
330
29EB
100
DictionaryVariables
280
     0
  1
2
  0
DICTIONARY
  5
2A31
330
29D7
100
AcDbDictionary
280
     1
281
     1
  3
ACAD_XREC_ROUNDTRIP
360
2A32
  0
DICTIONARY
  5
2A33
330
29D8
100
AcDbDictionary
280
     1
281
     1
  3
ACAD_XREC_ROUNDTRIP
360
2A34
  0
DICTIONARY
  5
2A35
330
29D9
100
AcDbDictionary
280
     1
281
     1
  3
ACAD_XREC_ROUNDTRIP
360
2A36
  0
DICTIONARY
  5
2995
330
2994
100
AcDbDictionary
280
     1
281
     1
  3
ACAD_XREC_ROUNDTRIP
360
29FB
  3
BUMPTILE
360
2997
  3
DIFFUSETILE
360
2996
  3
OPACITYTILE
360
299A
  3
REFLECTIONTILE
360
2999
  3
REFRACTIONTILE
360
299B
  3
SPECULARTILE
360
2998
  0
DICTIONARY
  5
298D
330
298C
100
AcDbDictionary
280
     1
281
     1
  3
ACAD_XREC_ROUNDTRIP
360
29FA
  3
BUMPTILE
360
298F
  3
DIFFUSETILE
360
298E
  3
OPACITYTILE
360
2992
  3
REFLECTIONTILE
360
2991
  3
REFRACTIONTILE
360
2993
  3
SPECULARTILE
360
2990
  0
DICTIONARY
  5
299D
330
299C
100
AcDbDictionary
280
     1
281
     1
  3
ACAD_XREC_ROUNDTRIP
360
29FC
  3
BUMPTILE
360
299F
  3
DIFFUSETILE
360
299E
  3
OPACITYTILE
360
29A2
  3
REFLECTIONTILE
360
29A1
  3
REFRACTIONTILE
360
29A3
  3
SPECULARTILE
360
29A0
  0
DICTIONARY
  5
2A2F
330
29D5
100
AcDbDictionary
280
     1
281
     1
  3
ACAD_XREC_ROUNDTRIP
360
2A30
  0
DICTIONARY
  5
29F6
330
29BF
100
AcDbDictionary
280
     1
281
     1
  3
ACAD_ROUNDTRIP_2008_TABLESTYLE_CELLSTYLEMAP
360
29F7
  3
ACAD_XREC_ROUNDTRIP
360
2A2D
  0
DICTIONARY
  5
2A07
330
29AA
100
AcDbDictionary
280
     1
281
     1
  3
ACAD_XREC_ROUNDTRIP
360
2A08
  0
DICTIONARY
  5
2A05
330
29A9
100
AcDbDictionary
280
     1
281
     1
  3
ACAD_XREC_ROUNDTRIP
360
2A06
  0
DICTIONARY
  5
2A13
330
29B0
100
AcDbDictionary
280
     1
281
     1
  3
ACAD_XREC_ROUNDTRIP
360
2A14
  0
DICTIONARY
  5
2A1B
330
29B4
100
AcDbDictionary
280
     1
281
     1
  3
ACAD_XREC_ROUNDTRIP
360
2A1C
  0
DICTIONARY
  5
2A0D
330
29AD
100
AcDbDictionary
280
     1
281
     1
  3
ACAD_XREC_ROUNDTRIP
360
2A0E
  0
DICTIONARY
  5
2A11
330
29AF
100
AcDbDictionary
280
     1
281
     1
  3
ACAD_XREC_ROUNDTRIP
360
2A12
  0
DICTIONARY
  5
2A2B
330
29BC
100
AcDbDictionary
280
     1
281
     1
  3
ACAD_XREC_ROUNDTRIP
360
2A2C
  0
DICTIONARY
  5
2A19
330
29B3
100
AcDbDictionary
280
     1
281
     1
  3
ACAD_XREC_ROUNDTRIP
360
2A1A
  0
DICTIONARY
  5
29FD
330
29A5
100
AcDbDictionary
280
     1
281
     1
  3
ACAD_XREC_ROUNDTRIP
360
29FE
  0
DICTIONARY
  5
29FF
330
29A6
100
AcDbDictionary
280
     1
281
     1
  3
ACAD_XREC_ROUNDTRIP
360
2A00
  0
DICTIONARY
  5
2A01
330
29A7
100
AcDbDictionary
280
     1
281
     1
  3
ACAD_XREC_ROUNDTRIP
360
2A02
  0
DICTIONARY
  5
2A03
330
29A8
100
AcDbDictionary
280
     1
281
     1
  3
ACAD_XREC_ROUNDTRIP
360
2A04
  0
DICTIONARY
  5
2A0B
330
29AC
100
AcDbDictionary
280
     1
281
     1
  3
ACAD_XREC_ROUNDTRIP
360
2A0C
  0
DICTIONARY
  5
2A27
330
29BA
100
AcDbDictionary
280
     1
281
     1
  3
ACAD_XREC_ROUNDTRIP
360
2A28
  0
DICTIONARY
  5
2A17
330
29B2
100
AcDbDictionary
280
     1
281
     1
  3
ACAD_XREC_ROUNDTRIP
360
2A18
  0
DICTIONARY
  5
2A29
330
29BB
100
AcDbDictionary
280
     1
281
     1
  3
ACAD_XREC_ROUNDTRIP
360
2A2A
  0
DICTIONARY
  5
2A0F
330
29AE
100
AcDbDictionary
280
     1
281
     1
  3
ACAD_XREC_ROUNDTRIP
360
2A10
  0
DICTIONARY
  5
2A25
330
29B9
100
AcDbDictionary
280
     1
281
     1
  3
ACAD_XREC_ROUNDTRIP
360
2A26
  0
DICTIONARY
  5
2A23
330
29B8
100
AcDbDictionary
280
     1
281
     1
  3
ACAD_XREC_ROUNDTRIP
360
2A24
  0
DICTIONARY
  5
2A1D
330
29B5
100
AcDbDictionary
280
     1
281
     1
  3
ACAD_XREC_ROUNDTRIP
360
2A1E
  0
DICTIONARY
  5
2A1F
330
29B6
100
AcDbDictionary
280
     1
281
     1
  3
ACAD_XREC_ROUNDTRIP
360
2A20
  0
DICTIONARY
  5
2A15
330
29B1
100
AcDbDictionary
280
     1
281
     1
  3
ACAD_XREC_ROUNDTRIP
360
2A16
  0
DICTIONARY
  5
2A09
330
29AB
100
AcDbDictionary
280
     1
281
     1
  3
ACAD_XREC_ROUNDTRIP
360
2A0A
  0
DICTIONARY
  5
2A21
330
29B7
100
AcDbDictionary
280
     1
281
     1
  3
ACAD_XREC_ROUNDTRIP
360
2A22
  0
XRECORD
  5
2A32
102
{ACAD_REACTORS
330
2A31
102
}
330
2A31
100
AcDbXrecord
280
     1
102
DISPLAYNAME
  1
Imperial24
102
FLAGS
 90
        0
  0
XRECORD
  5
2A34
102
{ACAD_REACTORS
330
2A33
102
}
330
2A33
100
AcDbXrecord
280
     1
102
SHADEPLOT
 70
     0
102
SHADEPLOTRESLEVEL
 70
     2
102
SHADEPLOTCUSTOMDPI
 70
   300
  0
XRECORD
  5
2A36
102
{ACAD_REACTORS
330
2A35
102
}
330
2A35
100
AcDbXrecord
280
     1
102
SHADEPLOT
 70
     0
102
SHADEPLOTRESLEVEL
 70
     2
102
SHADEPLOTCUSTOMDPI
 70
   300
  0
XRECORD
  5
29FB
102
{ACAD_REACTORS
330
2995
102
}
330
2995
100
AcDbXrecord
280
     1
102
MATERIAL
148
0.0
149
0.0
149
0.0
 93
        0
 94
      127
282
     0
 72
     0
 77
     0
171
     0
175
     0
179
     0
273
     0
  0
XRECORD
  5
2997
102
{ACAD_REACTORS
330
2995
102
}
330
2995
100
AcDbXrecord
280
     1
270
     1
271
     1
  0
XRECORD
  5
2996
102
{ACAD_REACTORS
330
2995
102
}
330
2995
100
AcDbXrecord
280
     1
270
     1
271
     1
  0
XRECORD
  5
299A
102
{ACAD_REACTORS
330
2995
102
}
330
2995
100
AcDbXrecord
280
     1
270
     1
271
     1
  0
XRECORD
  5
2999
102
{ACAD_REACTORS
330
2995
102
}
330
2995
100
AcDbXrecord
280
     1
270
     1
271
     1
  0
XRECORD
  5
299B
102
{ACAD_REACTORS
330
2995
102
}
330
2995
100
AcDbXrecord
280
     1
270
     1
271
     1
  0
XRECORD
  5
2998
102
{ACAD_REACTORS
330
2995
102
}
330
2995
100
AcDbXrecord
280
     1
270
     1
271
     1
  0
XRECORD
  5
29FA
102
{ACAD_REACTORS
330
298D
102
}
330
298D
100
AcDbXrecord
280
     1
102
MATERIAL
148
0.0
149
0.0
149
0.0
 93
        0
 94
      127
282
     0
 72
     0
 77
     0
171
     0
175
     0
179
     0
273
     0
  0
XRECORD
  5
298F
102
{ACAD_REACTORS
330
298D
102
}
330
298D
100
AcDbXrecord
280
     1
270
     1
271
     1
  0
XRECORD
  5
298E
102
{ACAD_REACTORS
330
298D
102
}
330
298D
100
AcDbXrecord
280
     1
270
     1
271
     1
  0
XRECORD
  5
2992
102
{ACAD_REACTORS
330
298D
102
}
330
298D
100
AcDbXrecord
280
     1
270
     1
271
     1
  0
XRECORD
  5
2991
102
{ACAD_REACTORS
330
298D
102
}
330
298D
100
AcDbXrecord
280
     1
270
     1
271
     1
  0
XRECORD
  5
2993
102
{ACAD_REACTORS
330
298D
102
}
330
298D
100
AcDbXrecord
280
     1
270
     1
271
     1
  0
XRECORD
  5
2990
102
{ACAD_REACTORS
330
298D
102
}
330
298D
100
AcDbXrecord
280
     1
270
     1
271
     1
  0
XRECORD
  5
29FC
102
{ACAD_REACTORS
330
299D
102
}
330
299D
100
AcDbXrecord
280
     1
102
MATERIAL
148
0.0
149
0.0
149
0.0
 93
        0
 94
      127
282
     0
 72
     0
 77
     0
171
     0
175
     0
179
     0
273
     0
  0
XRECORD
  5
299F
102
{ACAD_REACTORS
330
299D
102
}
330
299D
100
AcDbXrecord
280
     1
270
     1
271
     1
  0
XRECORD
  5
299E
102
{ACAD_REACTORS
330
299D
102
}
330
299D
100
AcDbXrecord
280
     1
270
     1
271
     1
  0
XRECORD
  5
29A2
102
{ACAD_REACTORS
330
299D
102
}
330
299D
100
AcDbXrecord
280
     1
270
     1
271
     1
  0
XRECORD
  5
29A1
102
{ACAD_REACTORS
330
299D
102
}
330
299D
100
AcDbXrecord
280
     1
270
     1
271
     1
  0
XRECORD
  5
29A3
102
{ACAD_REACTORS
330
299D
102
}
330
299D
100
AcDbXrecord
280
     1
270
     1
271
     1
  0
XRECORD
  5
29A0
102
{ACAD_REACTORS
330
299D
102
}
330
299D
100
AcDbXrecord
280
     1
270
     1
271
     1
  0
XRECORD
  5
2A30
102
{ACAD_REACTORS
330
2A2F
102
}
330
2A2F
100
AcDbXrecord
280
     1
102
DISPLAYNAME
  1
Imperial24
102
FLAGS
 90
        0
  0
CELLSTYLEMAP
  5
29F7
102
{ACAD_REACTORS
330
29F6
102
}
330
29F6
100
AcDbCellStyleMap
 90
        3
300
CELLSTYLE
  1
TABLEFORMAT_BEGIN
 90
        5
170
     1
 91
        0
 92
    32768
 62
   257
 93
        1
300
CONTENTFORMAT
  1
CONTENTFORMAT_BEGIN
 90
        0
 91
        0
 92
      512
 93
        0
300

 40
0.0
140
1.0
 94
        5
 62
     0
340
F
144
0.25
309
CONTENTFORMAT_END
171
     0
 94
        0
309
TABLEFORMAT_END
  1
CELLSTYLE_BEGIN
 90
        1
 91
        1
300
_TITLE
309
CELLSTYLE_END
300
CELLSTYLE
  1
TABLEFORMAT_BEGIN
 90
        5
170
     1
 91
        0
 92
        0
 62
   257
 93
        1
300
CONTENTFORMAT
  1
CONTENTFORMAT_BEGIN
 90
        0
 91
        0
 92
      512
 93
        0
300

 40
0.0
140
1.0
 94
        5
 62
     0
340
F
144
0.18
309
CONTENTFORMAT_END
171
     0
 94
        0
309
TABLEFORMAT_END
  1
CELLSTYLE_BEGIN
 90
        2
 91
        1
300
_HEADER
309
CELLSTYLE_END
300
CELLSTYLE
  1
TABLEFORMAT_BEGIN
 90
        5
170
     1
 91
        0
 92
        0
 62
   257
 93
        1
300
CONTENTFORMAT
  1
CONTENTFORMAT_BEGIN
 90
        0
 91
        0
 92
      512
 93
        0
300

 40
0.0
140
1.0
 94
        2
 62
     0
340
F
144
0.18
309
CONTENTFORMAT_END
171
     0
 94
        0
309
TABLEFORMAT_END
  1
CELLSTYLE_BEGIN
 90
        3
 91
        2
300
_DATA
309
CELLSTYLE_END
  0
XRECORD
  5
2A2D
102
{ACAD_REACTORS
330
29F6
102
}
330
29F6
100
AcDbXrecord
280
     1
102
ACAD_ROUNDTRIP_PRE2007_TABLESTYLE
 90
      512
 91
        0
  1

 92
      512
 93
        0
  2

 94
      512
 95
        0
  3

  0
XRECORD
  5
2A08
102
{ACAD_REACTORS
330
2A07
102
}
330
2A07
100
AcDbXrecord
280
     1
102
RTVSPost2010Prop28
280
     1
102
RTVSPost2010PropOp28
 70
     1
102
RTVSPost2010Prop29
280
     1
102
RTVSPost2010PropOp29
 70
     1
102
RTVSPost2010Prop30
280
     0
102
RTVSPost2010PropOp30
 70
     1
102
RTVSPost2010Prop31
280
     0
102
RTVSPost2010PropOp31
 70
     1
102
RTVSPost2010Prop32
280
     0
102
RTVSPost2010PropOp32
 70
     1
102
RTVSPost2010Prop33
280
     0
102
RTVSPost2010PropOp33
 70
     1
102
RTVSPost2010Prop34
280
     0
102
RTVSPost2010PropOp34
 70
     1
102
RTVSPost2010Prop35
280
     0
102
RTVSPost2010PropOp35
 70
     1
102
RTVSPost2010Prop36
280
     0
102
RTVSPost2010PropOp36
 70
     1
102
RTVSPost2010Prop37
 90
       50
102
RTVSPost2010PropOp37
 70
     1
102
RTVSPost2010Prop38
140
0.0
102
RTVSPost2010PropOp38
 70
     1
102
RTVSPost2010Prop39
140
1.0
102
RTVSPost2010PropOp39
 70
     1
102
RTVSPost2010Prop40
 90
        0
102
RTVSPost2010PropOp40
 70
     1
102
RTVSPost2010Prop41ColorIndex
 90
       18
102
RTVSPost2010Prop41ColorRGB
 90
        0
102
RTVSPost2010PropOp41
 70
     1
102
RTVSPost2010Prop42
 90
       50
102
RTVSPost2010PropOp42
 70
     1
102
RTVSPost2010Prop43
 90
        3
102
RTVSPost2010PropOp43
 70
     1
102
RTVSPost2010Prop44ColorIndex
 90
        5
102
RTVSPost2010Prop44ColorRGB
 90
      255
102
RTVSPost2010PropOp44
 70
     1
102
RTVSPost2010Prop45
280
     0
102
RTVSPost2010PropOp45
 70
     1
102
RTVSPost2010Prop46
 90
       50
102
RTVSPost2010PropOp46
 70
     1
102
RTVSPost2010Prop47
 90
       50
102
RTVSPost2010PropOp47
 70
     1
102
RTVSPost2010Prop48
 90
       50
102
RTVSPost2010PropOp48
 70
     1
102
RTVSPost2010Prop49
280
     0
102
RTVSPost2010PropOp49
 70
     1
102
RTVSPost2010Prop50
 90
       50
102
RTVSPost2010PropOp50
 70
     1
102
RTVSPost2010Prop51ColorIndex
 90
      256
102
RTVSPost2010Prop51ColorRGB
 90
-16777216
102
RTVSPost2010PropOp51
 70
     0
102
RTVSPost2010Prop52
140
1.0
102
RTVSPost2010PropOp52
 70
     0
102
RTVSPost2010Prop53
 90
        2
102
RTVSPost2010PropOp53
 70
     1
102
RTVSPost2010Prop54
  1
strokes_ogs.tif
102
RTVSPost2010PropOp54
 70
     1
102
RTVSPost2010Prop55
280
     0
102
RTVSPost2010PropOp55
 70
     1
102
RTVSPost2010Prop56
140
1.0
102
RTVSPost2010PropOp56
 70
     1
102
RTVSPost2010Prop57
140
1.0
102
RTVSPost2010PropOp57
 70
     1
102
RTVSPropertyOp0
 70
     1
102
RTVSPropertyOp1
 70
     1
102
RTVSPropertyOp2
 70
     1
102
RTVSPropertyOp3
 70
     1
102
RTVSPropertyOp4
 70
     1
102
RTVSPropertyOp5
 70
     1
102
RTVSPropertyOp6
 70
     1
102
RTVSPropertyOp7
 70
     1
102
RTVSPropertyOp8
 70
     1
102
RTVSPropertyOp9
 70
     1
102
RTVSPropertyOp10
 70
     1
102
RTVSPropertyOp11
 70
     1
102
RTVSPropertyOp12
 70
     1
102
RTVSPropertyOp13
 70
     1
102
RTVSPropertyOp14
 70
     1
102
RTVSPropertyOp15
 70
     1
102
RTVSPropertyOp16
 70
     1
102
RTVSPropertyOp17
 70
     1
102
RTVSPropertyOp18
 70
     1
102
RTVSPropertyOp19
 70
     1
102
RTVSPropertyOp20
 70
     1
102
RTVSPropertyOp21
 70
     1
102
RTVSPropertyOp22
 70
     1
102
RTVSPropertyOp23
 70
     1
102
RTVSPropertyOp24
 70
     1
102
RTVSPropertyOp25
 70
     1
102
RTVSPropertyOp26
 70
     1
102
RTVSPropertyOp27
 70
     1
102
RTVSPropertyOp28
 70
     1
102
RTVSPropertyOp29
 70
     1
102
RTVSPropertyOp30
 70
     1
102
RTVSPropertyOp31
 70
     1
102
RTVSPropertyOp32
 70
     1
102
RTVSPropertyOp33
 70
     1
102
RTVSPropertyOp34
 70
     1
102
RTVSPropertyOp35
 70
     1
102
RTVSPropertyOp36
 70
     1
102
RTVSPropertyOp37
 70
     1
102
RTVSPropertyOp38
 70
     1
102
RTVSPropertyOp39
 70
     1
102
RTVSPropertyOp40
 70
     1
102
RTVSPropertyOp41
 70
     1
102
RTVSPropertyOp42
 70
     1
102
RTVSPropertyOp43
 70
     1
102
RTVSPropertyOp44
 70
     1
102
RTVSPropertyOp45
 70
     1
102
RTVSPropertyOp46
 70
     1
102
RTVSPropertyOp47
 70
     1
102
RTVSPropertyOp48
 70
     1
102
RTVSPropertyOp49
 70
     1
102
RTVSPropertyOp50
 70
     1
102
RTVSPropertyOp51
 70
     0
102
RTVSPropertyOp52
 70
     0
102
RTVSPropertyOp53
 70
     1
102
RTVSPropertyOp54
 70
     1
102
RTVSPropertyOp55
 70
     1
102
RTVSPropertyOp56
 70
     1
102
RTVSPropertyOp57
 70
     1
102
RTVSPropertyOp58
 70
     1
102
RTVSPropertyOp59
 70
     1
102
RTVSPropertyOp60
 70
     1
102
RTVSPropertyOp61
 70
     1
102
RTVSPropertyOp62
 70
     1
  0
XRECORD
  5
2A06
102
{ACAD_REACTORS
330
2A05
102
}
330
2A05
100
AcDbXrecord
280
     1
102
RTVSPost2010Prop28
280
     0
102
RTVSPost2010PropOp28
 70
     1
102
RTVSPost2010Prop29
280
     1
102
RTVSPost2010PropOp29
 70
     1
102
RTVSPost2010Prop30
280
     1
102
RTVSPost2010PropOp30
 70
     1
102
RTVSPost2010Prop31
280
     0
102
RTVSPost2010PropOp31
 70
     1
102
RTVSPost2010Prop32
280
     0
102
RTVSPost2010PropOp32
 70
     1
102
RTVSPost2010Prop33
280
     0
102
RTVSPost2010PropOp33
 70
     1
102
RTVSPost2010Prop34
280
     0
102
RTVSPost2010PropOp34
 70
     1
102
RTVSPost2010Prop35
280
     0
102
RTVSPost2010PropOp35
 70
     1
102
RTVSPost2010Prop36
280
     0
102
RTVSPost2010PropOp36
 70
     1
102
RTVSPost2010Prop37
 90
       50
102
RTVSPost2010PropOp37
 70
     1
102
RTVSPost2010Prop38
140
0.0
102
RTVSPost2010PropOp38
 70
     1
102
RTVSPost2010Prop39
140
1.0
102
RTVSPost2010PropOp39
 70
     1
102
RTVSPost2010Prop40
 90
        0
102
RTVSPost2010PropOp40
 70
     1
102
RTVSPost2010Prop41ColorIndex
 90
       18
102
RTVSPost2010Prop41ColorRGB
 90
        0
102
RTVSPost2010PropOp41
 70
     1
102
RTVSPost2010Prop42
 90
       50
102
RTVSPost2010PropOp42
 70
     1
102
RTVSPost2010Prop43
 90
        3
102
RTVSPost2010PropOp43
 70
     1
102
RTVSPost2010Prop44ColorIndex
 90
        5
102
RTVSPost2010Prop44ColorRGB
 90
      255
102
RTVSPost2010PropOp44
 70
     1
102
RTVSPost2010Prop45
280
     0
102
RTVSPost2010PropOp45
 70
     1
102
RTVSPost2010Prop46
 90
       50
102
RTVSPost2010PropOp46
 70
     1
102
RTVSPost2010Prop47
 90
       50
102
RTVSPost2010PropOp47
 70
     1
102
RTVSPost2010Prop48
 90
       50
102
RTVSPost2010PropOp48
 70
     1
102
RTVSPost2010Prop49
280
     0
102
RTVSPost2010PropOp49
 70
     1
102
RTVSPost2010Prop50
 90
       50
102
RTVSPost2010PropOp50
 70
     1
102
RTVSPost2010Prop51ColorIndex
 90
      256
102
RTVSPost2010Prop51ColorRGB
 90
-16777216
102
RTVSPost2010PropOp51
 70
     0
102
RTVSPost2010Prop52
140
1.0
102
RTVSPost2010PropOp52
 70
     0
102
RTVSPost2010Prop53
 90
        2
102
RTVSPost2010PropOp53
 70
     1
102
RTVSPost2010Prop54
  1
strokes_ogs.tif
102
RTVSPost2010PropOp54
 70
     1
102
RTVSPost2010Prop55
280
     0
102
RTVSPost2010PropOp55
 70
     1
102
RTVSPost2010Prop56
140
1.0
102
RTVSPost2010PropOp56
 70
     1
102
RTVSPost2010Prop57
140
1.0
102
RTVSPost2010PropOp57
 70
     1
102
RTVSPropertyOp0
 70
     1
102
RTVSPropertyOp1
 70
     1
102
RTVSPropertyOp2
 70
     1
102
RTVSPropertyOp3
 70
     1
102
RTVSPropertyOp4
 70
     1
102
RTVSPropertyOp5
 70
     1
102
RTVSPropertyOp6
 70
     1
102
RTVSPropertyOp7
 70
     1
102
RTVSPropertyOp8
 70
     1
102
RTVSPropertyOp9
 70
     1
102
RTVSPropertyOp10
 70
     1
102
RTVSPropertyOp11
 70
     1
102
RTVSPropertyOp12
 70
     1
102
RTVSPropertyOp13
 70
     1
102
RTVSPropertyOp14
 70
     1
102
RTVSPropertyOp15
 70
     1
102
RTVSPropertyOp16
 70
     1
102
RTVSPropertyOp17
 70
     1
102
RTVSPropertyOp18
 70
     1
102
RTVSPropertyOp19
 70
     1
102
RTVSPropertyOp20
 70
     1
102
RTVSPropertyOp21
 70
     1
102
RTVSPropertyOp22
 70
     1
102
RTVSPropertyOp23
 70
     1
102
RTVSPropertyOp24
 70
     1
102
RTVSPropertyOp25
 70
     1
102
RTVSPropertyOp26
 70
     1
102
RTVSPropertyOp27
 70
     1
102
RTVSPropertyOp28
 70
     1
102
RTVSPropertyOp29
 70
     1
102
RTVSPropertyOp30
 70
     1
102
RTVSPropertyOp31
 70
     1
102
RTVSPropertyOp32
 70
     1
102
RTVSPropertyOp33
 70
     1
102
RTVSPropertyOp34
 70
     1
102
RTVSPropertyOp35
 70
     1
102
RTVSPropertyOp36
 70
     1
102
RTVSPropertyOp37
 70
     1
102
RTVSPropertyOp38
 70
     1
102
RTVSPropertyOp39
 70
     1
102
RTVSPropertyOp40
 70
     1
102
RTVSPropertyOp41
 70
     1
102
RTVSPropertyOp42
 70
     1
102
RTVSPropertyOp43
 70
     1
102
RTVSPropertyOp44
 70
     1
102
RTVSPropertyOp45
 70
     1
102
RTVSPropertyOp46
 70
     1
102
RTVSPropertyOp47
 70
     1
102
RTVSPropertyOp48
 70
     1
102
RTVSPropertyOp49
 70
     1
102
RTVSPropertyOp50
 70
     1
102
RTVSPropertyOp51
 70
     0
102
RTVSPropertyOp52
 70
     0
102
RTVSPropertyOp53
 70
     1
102
RTVSPropertyOp54
 70
     1
102
RTVSPropertyOp55
 70
     1
102
RTVSPropertyOp56
 70
     1
102
RTVSPropertyOp57
 70
     1
102
RTVSPropertyOp58
 70
     1
102
RTVSPropertyOp59
 70
     1
102
RTVSPropertyOp60
 70
     1
102
RTVSPropertyOp61
 70
     1
102
RTVSPropertyOp62
 70
     1
  0
XRECORD
  5
2A14
102
{ACAD_REACTORS
330
2A13
102
}
330
2A13
100
AcDbXrecord
280
     1
102
RTVSPost2010Prop28
280
     0
102
RTVSPost2010PropOp28
 70
     1
102
RTVSPost2010Prop29
280
     1
102
RTVSPost2010PropOp29
 70
     1
102
RTVSPost2010Prop30
280
     1
102
RTVSPost2010PropOp30
 70
     1
102
RTVSPost2010Prop31
280
     0
102
RTVSPost2010PropOp31
 70
     1
102
RTVSPost2010Prop32
280
     0
102
RTVSPost2010PropOp32
 70
     1
102
RTVSPost2010Prop33
280
     0
102
RTVSPost2010PropOp33
 70
     1
102
RTVSPost2010Prop34
280
     0
102
RTVSPost2010PropOp34
 70
     1
102
RTVSPost2010Prop35
280
     0
102
RTVSPost2010PropOp35
 70
     1
102
RTVSPost2010Prop36
280
     0
102
RTVSPost2010PropOp36
 70
     1
102
RTVSPost2010Prop37
 90
       50
102
RTVSPost2010PropOp37
 70
     1
102
RTVSPost2010Prop38
140
0.0
102
RTVSPost2010PropOp38
 70
     1
102
RTVSPost2010Prop39
140
1.0
102
RTVSPost2010PropOp39
 70
     1
102
RTVSPost2010Prop40
 90
        0
102
RTVSPost2010PropOp40
 70
     1
102
RTVSPost2010Prop41ColorIndex
 90
       18
102
RTVSPost2010Prop41ColorRGB
 90
        0
102
RTVSPost2010PropOp41
 70
     1
102
RTVSPost2010Prop42
 90
       50
102
RTVSPost2010PropOp42
 70
     1
102
RTVSPost2010Prop43
 90
        3
102
RTVSPost2010PropOp43
 70
     1
102
RTVSPost2010Prop44ColorIndex
 90
        5
102
RTVSPost2010Prop44ColorRGB
 90
      255
102
RTVSPost2010PropOp44
 70
     1
102
RTVSPost2010Prop45
280
     0
102
RTVSPost2010PropOp45
 70
     1
102
RTVSPost2010Prop46
 90
       50
102
RTVSPost2010PropOp46
 70
     1
102
RTVSPost2010Prop47
 90
       50
102
RTVSPost2010PropOp47
 70
     1
102
RTVSPost2010Prop48
 90
       50
102
RTVSPost2010PropOp48
 70
     1
102
RTVSPost2010Prop49
280
     0
102
RTVSPost2010PropOp49
 70
     1
102
RTVSPost2010Prop50
 90
       50
102
RTVSPost2010PropOp50
 70
     1
102
RTVSPost2010Prop51ColorIndex
 90
      256
102
RTVSPost2010Prop51ColorRGB
 90
-16777216
102
RTVSPost2010PropOp51
 70
     0
102
RTVSPost2010Prop52
140
1.0
102
RTVSPost2010PropOp52
 70
     0
102
RTVSPost2010Prop53
 90
        2
102
RTVSPost2010PropOp53
 70
     1
102
RTVSPost2010Prop54
  1
strokes_ogs.tif
102
RTVSPost2010PropOp54
 70
     1
102
RTVSPost2010Prop55
280
     0
102
RTVSPost2010PropOp55
 70
     1
102
RTVSPost2010Prop56
140
1.0
102
RTVSPost2010PropOp56
 70
     1
102
RTVSPost2010Prop57
140
1.0
102
RTVSPost2010PropOp57
 70
     1
102
RTVSPropertyOp0
 70
     1
102
RTVSPropertyOp1
 70
     1
102
RTVSPropertyOp2
 70
     1
102
RTVSPropertyOp3
 70
     1
102
RTVSPropertyOp4
 70
     1
102
RTVSPropertyOp5
 70
     1
102
RTVSPropertyOp6
 70
     1
102
RTVSPropertyOp7
 70
     1
102
RTVSPropertyOp8
 70
     1
102
RTVSPropertyOp9
 70
     1
102
RTVSPropertyOp10
 70
     1
102
RTVSPropertyOp11
 70
     1
102
RTVSPropertyOp12
 70
     1
102
RTVSPropertyOp13
 70
     1
102
RTVSPropertyOp14
 70
     1
102
RTVSPropertyOp15
 70
     1
102
RTVSPropertyOp16
 70
     1
102
RTVSPropertyOp17
 70
     1
102
RTVSPropertyOp18
 70
     1
102
RTVSPropertyOp19
 70
     1
102
RTVSPropertyOp20
 70
     1
102
RTVSPropertyOp21
 70
     1
102
RTVSPropertyOp22
 70
     1
102
RTVSPropertyOp23
 70
     1
102
RTVSPropertyOp24
 70
     1
102
RTVSPropertyOp25
 70
     1
102
RTVSPropertyOp26
 70
     1
102
RTVSPropertyOp27
 70
     1
102
RTVSPropertyOp28
 70
     1
102
RTVSPropertyOp29
 70
     1
102
RTVSPropertyOp30
 70
     1
102
RTVSPropertyOp31
 70
     1
102
RTVSPropertyOp32
 70
     1
102
RTVSPropertyOp33
 70
     1
102
RTVSPropertyOp34
 70
     1
102
RTVSPropertyOp35
 70
     1
102
RTVSPropertyOp36
 70
     1
102
RTVSPropertyOp37
 70
     1
102
RTVSPropertyOp38
 70
     1
102
RTVSPropertyOp39
 70
     1
102
RTVSPropertyOp40
 70
     1
102
RTVSPropertyOp41
 70
     1
102
RTVSPropertyOp42
 70
     1
102
RTVSPropertyOp43
 70
     1
102
RTVSPropertyOp44
 70
     1
102
RTVSPropertyOp45
 70
     1
102
RTVSPropertyOp46
 70
     1
102
RTVSPropertyOp47
 70
     1
102
RTVSPropertyOp48
 70
     1
102
RTVSPropertyOp49
 70
     1
102
RTVSPropertyOp50
 70
     1
102
RTVSPropertyOp51
 70
     0
102
RTVSPropertyOp52
 70
     0
102
RTVSPropertyOp53
 70
     1
102
RTVSPropertyOp54
 70
     1
102
RTVSPropertyOp55
 70
     1
102
RTVSPropertyOp56
 70
     1
102
RTVSPropertyOp57
 70
     1
102
RTVSPropertyOp58
 70
     1
102
RTVSPropertyOp59
 70
     1
102
RTVSPropertyOp60
 70
     1
102
RTVSPropertyOp61
 70
     1
102
RTVSPropertyOp62
 70
     1
  0
XRECORD
  5
2A1C
102
{ACAD_REACTORS
330
2A1B
102
}
330
2A1B
100
AcDbXrecord
280
     1
102
RTVSPost2010Prop28
280
     0
102
RTVSPost2010PropOp28
 70
     1
102
RTVSPost2010Prop29
280
     1
102
RTVSPost2010PropOp29
 70
     1
102
RTVSPost2010Prop30
280
     1
102
RTVSPost2010PropOp30
 70
     1
102
RTVSPost2010Prop31
280
     0
102
RTVSPost2010PropOp31
 70
     1
102
RTVSPost2010Prop32
280
     0
102
RTVSPost2010PropOp32
 70
     1
102
RTVSPost2010Prop33
280
     0
102
RTVSPost2010PropOp33
 70
     1
102
RTVSPost2010Prop34
280
     0
102
RTVSPost2010PropOp34
 70
     1
102
RTVSPost2010Prop35
280
     0
102
RTVSPost2010PropOp35
 70
     1
102
RTVSPost2010Prop36
280
     0
102
RTVSPost2010PropOp36
 70
     1
102
RTVSPost2010Prop37
 90
       50
102
RTVSPost2010PropOp37
 70
     1
102
RTVSPost2010Prop38
140
0.0
102
RTVSPost2010PropOp38
 70
     1
102
RTVSPost2010Prop39
140
1.0
102
RTVSPost2010PropOp39
 70
     1
102
RTVSPost2010Prop40
 90
        0
102
RTVSPost2010PropOp40
 70
     1
102
RTVSPost2010Prop41ColorIndex
 90
       18
102
RTVSPost2010Prop41ColorRGB
 90
        0
102
RTVSPost2010PropOp41
 70
     1
102
RTVSPost2010Prop42
 90
       50
102
RTVSPost2010PropOp42
 70
     1
102
RTVSPost2010Prop43
 90
        3
102
RTVSPost2010PropOp43
 70
     1
102
RTVSPost2010Prop44ColorIndex
 90
        5
102
RTVSPost2010Prop44ColorRGB
 90
      255
102
RTVSPost2010PropOp44
 70
     1
102
RTVSPost2010Prop45
280
     0
102
RTVSPost2010PropOp45
 70
     1
102
RTVSPost2010Prop46
 90
       50
102
RTVSPost2010PropOp46
 70
     1
102
RTVSPost2010Prop47
 90
       50
102
RTVSPost2010PropOp47
 70
     1
102
RTVSPost2010Prop48
 90
       50
102
RTVSPost2010PropOp48
 70
     1
102
RTVSPost2010Prop49
280
     0
102
RTVSPost2010PropOp49
 70
     1
102
RTVSPost2010Prop50
 90
       50
102
RTVSPost2010PropOp50
 70
     1
102
RTVSPost2010Prop51ColorIndex
 90
      256
102
RTVSPost2010Prop51ColorRGB
 90
-16777216
102
RTVSPost2010PropOp51
 70
     0
102
RTVSPost2010Prop52
140
1.0
102
RTVSPost2010PropOp52
 70
     0
102
RTVSPost2010Prop53
 90
        2
102
RTVSPost2010PropOp53
 70
     1
102
RTVSPost2010Prop54
  1
strokes_ogs.tif
102
RTVSPost2010PropOp54
 70
     1
102
RTVSPost2010Prop55
280
     0
102
RTVSPost2010PropOp55
 70
     1
102
RTVSPost2010Prop56
140
1.0
102
RTVSPost2010PropOp56
 70
     1
102
RTVSPost2010Prop57
140
1.0
102
RTVSPost2010PropOp57
 70
     1
102
RTVSPropertyOp0
 70
     1
102
RTVSPropertyOp1
 70
     1
102
RTVSPropertyOp2
 70
     1
102
RTVSPropertyOp3
 70
     1
102
RTVSPropertyOp4
 70
     1
102
RTVSPropertyOp5
 70
     1
102
RTVSPropertyOp6
 70
     1
102
RTVSPropertyOp7
 70
     1
102
RTVSPropertyOp8
 70
     1
102
RTVSPropertyOp9
 70
     1
102
RTVSPropertyOp10
 70
     1
102
RTVSPropertyOp11
 70
     1
102
RTVSPropertyOp12
 70
     1
102
RTVSPropertyOp13
 70
     1
102
RTVSPropertyOp14
 70
     1
102
RTVSPropertyOp15
 70
     1
102
RTVSPropertyOp16
 70
     1
102
RTVSPropertyOp17
 70
     1
102
RTVSPropertyOp18
 70
     1
102
RTVSPropertyOp19
 70
     1
102
RTVSPropertyOp20
 70
     1
102
RTVSPropertyOp21
 70
     1
102
RTVSPropertyOp22
 70
     1
102
RTVSPropertyOp23
 70
     1
102
RTVSPropertyOp24
 70
     1
102
RTVSPropertyOp25
 70
     1
102
RTVSPropertyOp26
 70
     1
102
RTVSPropertyOp27
 70
     1
102
RTVSPropertyOp28
 70
     1
102
RTVSPropertyOp29
 70
     1
102
RTVSPropertyOp30
 70
     1
102
RTVSPropertyOp31
 70
     1
102
RTVSPropertyOp32
 70
     1
102
RTVSPropertyOp33
 70
     1
102
RTVSPropertyOp34
 70
     1
102
RTVSPropertyOp35
 70
     1
102
RTVSPropertyOp36
 70
     1
102
RTVSPropertyOp37
 70
     1
102
RTVSPropertyOp38
 70
     1
102
RTVSPropertyOp39
 70
     1
102
RTVSPropertyOp40
 70
     1
102
RTVSPropertyOp41
 70
     1
102
RTVSPropertyOp42
 70
     1
102
RTVSPropertyOp43
 70
     1
102
RTVSPropertyOp44
 70
     1
102
RTVSPropertyOp45
 70
     1
102
RTVSPropertyOp46
 70
     1
102
RTVSPropertyOp47
 70
     1
102
RTVSPropertyOp48
 70
     1
102
RTVSPropertyOp49
 70
     1
102
RTVSPropertyOp50
 70
     1
102
RTVSPropertyOp51
 70
     0
102
RTVSPropertyOp52
 70
     0
102
RTVSPropertyOp53
 70
     1
102
RTVSPropertyOp54
 70
     1
102
RTVSPropertyOp55
 70
     1
102
RTVSPropertyOp56
 70
     1
102
RTVSPropertyOp57
 70
     1
102
RTVSPropertyOp58
 70
     1
102
RTVSPropertyOp59
 70
     1
102
RTVSPropertyOp60
 70
     1
102
RTVSPropertyOp61
 70
     1
102
RTVSPropertyOp62
 70
     1
  0
XRECORD
  5
2A0E
102
{ACAD_REACTORS
330
2A0D
102
}
330
2A0D
100
AcDbXrecord
280
     1
102
RTVSPost2010Prop28
280
     0
102
RTVSPost2010PropOp28
 70
     1
102
RTVSPost2010Prop29
280
     1
102
RTVSPost2010PropOp29
 70
     1
102
RTVSPost2010Prop30
280
     1
102
RTVSPost2010PropOp30
 70
     1
102
RTVSPost2010Prop31
280
     0
102
RTVSPost2010PropOp31
 70
     1
102
RTVSPost2010Prop32
280
     0
102
RTVSPost2010PropOp32
 70
     1
102
RTVSPost2010Prop33
280
     0
102
RTVSPost2010PropOp33
 70
     1
102
RTVSPost2010Prop34
280
     0
102
RTVSPost2010PropOp34
 70
     1
102
RTVSPost2010Prop35
280
     0
102
RTVSPost2010PropOp35
 70
     1
102
RTVSPost2010Prop36
280
     0
102
RTVSPost2010PropOp36
 70
     1
102
RTVSPost2010Prop37
 90
       50
102
RTVSPost2010PropOp37
 70
     1
102
RTVSPost2010Prop38
140
0.0
102
RTVSPost2010PropOp38
 70
     1
102
RTVSPost2010Prop39
140
1.0
102
RTVSPost2010PropOp39
 70
     1
102
RTVSPost2010Prop40
 90
        0
102
RTVSPost2010PropOp40
 70
     1
102
RTVSPost2010Prop41ColorIndex
 90
       18
102
RTVSPost2010Prop41ColorRGB
 90
        0
102
RTVSPost2010PropOp41
 70
     1
102
RTVSPost2010Prop42
 90
       50
102
RTVSPost2010PropOp42
 70
     1
102
RTVSPost2010Prop43
 90
        3
102
RTVSPost2010PropOp43
 70
     1
102
RTVSPost2010Prop44ColorIndex
 90
        5
102
RTVSPost2010Prop44ColorRGB
 90
      255
102
RTVSPost2010PropOp44
 70
     1
102
RTVSPost2010Prop45
280
     0
102
RTVSPost2010PropOp45
 70
     1
102
RTVSPost2010Prop46
 90
       50
102
RTVSPost2010PropOp46
 70
     1
102
RTVSPost2010Prop47
 90
       50
102
RTVSPost2010PropOp47
 70
     1
102
RTVSPost2010Prop48
 90
       50
102
RTVSPost2010PropOp48
 70
     1
102
RTVSPost2010Prop49
280
     0
102
RTVSPost2010PropOp49
 70
     1
102
RTVSPost2010Prop50
 90
       50
102
RTVSPost2010PropOp50
 70
     1
102
RTVSPost2010Prop51ColorIndex
 90
      256
102
RTVSPost2010Prop51ColorRGB
 90
-16777216
102
RTVSPost2010PropOp51
 70
     0
102
RTVSPost2010Prop52
140
1.0
102
RTVSPost2010PropOp52
 70
     0
102
RTVSPost2010Prop53
 90
        2
102
RTVSPost2010PropOp53
 70
     1
102
RTVSPost2010Prop54
  1
strokes_ogs.tif
102
RTVSPost2010PropOp54
 70
     1
102
RTVSPost2010Prop55
280
     0
102
RTVSPost2010PropOp55
 70
     1
102
RTVSPost2010Prop56
140
1.0
102
RTVSPost2010PropOp56
 70
     1
102
RTVSPost2010Prop57
140
1.0
102
RTVSPost2010PropOp57
 70
     1
102
RTVSPropertyOp0
 70
     1
102
RTVSPropertyOp1
 70
     1
102
RTVSPropertyOp2
 70
     1
102
RTVSPropertyOp3
 70
     1
102
RTVSPropertyOp4
 70
     1
102
RTVSPropertyOp5
 70
     1
102
RTVSPropertyOp6
 70
     1
102
RTVSPropertyOp7
 70
     1
102
RTVSPropertyOp8
 70
     1
102
RTVSPropertyOp9
 70
     1
102
RTVSPropertyOp10
 70
     1
102
RTVSPropertyOp11
 70
     1
102
RTVSPropertyOp12
 70
     1
102
RTVSPropertyOp13
 70
     1
102
RTVSPropertyOp14
 70
     1
102
RTVSPropertyOp15
 70
     1
102
RTVSPropertyOp16
 70
     1
102
RTVSPropertyOp17
 70
     1
102
RTVSPropertyOp18
 70
     1
102
RTVSPropertyOp19
 70
     1
102
RTVSPropertyOp20
 70
     1
102
RTVSPropertyOp21
 70
     1
102
RTVSPropertyOp22
 70
     1
102
RTVSPropertyOp23
 70
     1
102
RTVSPropertyOp24
 70
     1
102
RTVSPropertyOp25
 70
     1
102
RTVSPropertyOp26
 70
     1
102
RTVSPropertyOp27
 70
     1
102
RTVSPropertyOp28
 70
     1
102
RTVSPropertyOp29
 70
     1
102
RTVSPropertyOp30
 70
     1
102
RTVSPropertyOp31
 70
     1
102
RTVSPropertyOp32
 70
     1
102
RTVSPropertyOp33
 70
     1
102
RTVSPropertyOp34
 70
     1
102
RTVSPropertyOp35
 70
     1
102
RTVSPropertyOp36
 70
     1
102
RTVSPropertyOp37
 70
     1
102
RTVSPropertyOp38
 70
     1
102
RTVSPropertyOp39
 70
     1
102
RTVSPropertyOp40
 70
     1
102
RTVSPropertyOp41
 70
     1
102
RTVSPropertyOp42
 70
     1
102
RTVSPropertyOp43
 70
     1
102
RTVSPropertyOp44
 70
     1
102
RTVSPropertyOp45
 70
     1
102
RTVSPropertyOp46
 70
     1
102
RTVSPropertyOp47
 70
     1
102
RTVSPropertyOp48
 70
     1
102
RTVSPropertyOp49
 70
     1
102
RTVSPropertyOp50
 70
     1
102
RTVSPropertyOp51
 70
     0
102
RTVSPropertyOp52
 70
     0
102
RTVSPropertyOp53
 70
     1
102
RTVSPropertyOp54
 70
     1
102
RTVSPropertyOp55
 70
     1
102
RTVSPropertyOp56
 70
     1
102
RTVSPropertyOp57
 70
     1
102
RTVSPropertyOp58
 70
     1
102
RTVSPropertyOp59
 70
     1
102
RTVSPropertyOp60
 70
     1
102
RTVSPropertyOp61
 70
     1
102
RTVSPropertyOp62
 70
     1
  0
XRECORD
  5
2A12
102
{ACAD_REACTORS
330
2A11
102
}
330
2A11
100
AcDbXrecord
280
     1
102
RTVSPost2010Prop28
280
     0
102
RTVSPost2010PropOp28
 70
     1
102
RTVSPost2010Prop29
280
     1
102
RTVSPost2010PropOp29
 70
     1
102
RTVSPost2010Prop30
280
     1
102
RTVSPost2010PropOp30
 70
     1
102
RTVSPost2010Prop31
280
     0
102
RTVSPost2010PropOp31
 70
     1
102
RTVSPost2010Prop32
280
     0
102
RTVSPost2010PropOp32
 70
     1
102
RTVSPost2010Prop33
280
     0
102
RTVSPost2010PropOp33
 70
     1
102
RTVSPost2010Prop34
280
     0
102
RTVSPost2010PropOp34
 70
     1
102
RTVSPost2010Prop35
280
     0
102
RTVSPost2010PropOp35
 70
     1
102
RTVSPost2010Prop36
280
     0
102
RTVSPost2010PropOp36
 70
     1
102
RTVSPost2010Prop37
 90
       50
102
RTVSPost2010PropOp37
 70
     1
102
RTVSPost2010Prop38
140
0.0
102
RTVSPost2010PropOp38
 70
     1
102
RTVSPost2010Prop39
140
1.0
102
RTVSPost2010PropOp39
 70
     1
102
RTVSPost2010Prop40
 90
        0
102
RTVSPost2010PropOp40
 70
     1
102
RTVSPost2010Prop41ColorIndex
 90
       18
102
RTVSPost2010Prop41ColorRGB
 90
        0
102
RTVSPost2010PropOp41
 70
     1
102
RTVSPost2010Prop42
 90
       50
102
RTVSPost2010PropOp42
 70
     1
102
RTVSPost2010Prop43
 90
        3
102
RTVSPost2010PropOp43
 70
     1
102
RTVSPost2010Prop44ColorIndex
 90
        5
102
RTVSPost2010Prop44ColorRGB
 90
      255
102
RTVSPost2010PropOp44
 70
     1
102
RTVSPost2010Prop45
280
     0
102
RTVSPost2010PropOp45
 70
     1
102
RTVSPost2010Prop46
 90
       50
102
RTVSPost2010PropOp46
 70
     1
102
RTVSPost2010Prop47
 90
       50
102
RTVSPost2010PropOp47
 70
     1
102
RTVSPost2010Prop48
 90
       50
102
RTVSPost2010PropOp48
 70
     1
102
RTVSPost2010Prop49
280
     0
102
RTVSPost2010PropOp49
 70
     1
102
RTVSPost2010Prop50
 90
       50
102
RTVSPost2010PropOp50
 70
     1
102
RTVSPost2010Prop51ColorIndex
 90
      256
102
RTVSPost2010Prop51ColorRGB
 90
-16777216
102
RTVSPost2010PropOp51
 70
     0
102
RTVSPost2010Prop52
140
1.0
102
RTVSPost2010PropOp52
 70
     0
102
RTVSPost2010Prop53
 90
        2
102
RTVSPost2010PropOp53
 70
     1
102
RTVSPost2010Prop54
  1
strokes_ogs.tif
102
RTVSPost2010PropOp54
 70
     1
102
RTVSPost2010Prop55
280
     0
102
RTVSPost2010PropOp55
 70
     1
102
RTVSPost2010Prop56
140
1.0
102
RTVSPost2010PropOp56
 70
     1
102
RTVSPost2010Prop57
140
1.0
102
RTVSPost2010PropOp57
 70
     1
102
RTVSPropertyOp0
 70
     1
102
RTVSPropertyOp1
 70
     1
102
RTVSPropertyOp2
 70
     1
102
RTVSPropertyOp3
 70
     1
102
RTVSPropertyOp4
 70
     1
102
RTVSPropertyOp5
 70
     1
102
RTVSPropertyOp6
 70
     1
102
RTVSPropertyOp7
 70
     1
102
RTVSPropertyOp8
 70
     1
102
RTVSPropertyOp9
 70
     1
102
RTVSPropertyOp10
 70
     1
102
RTVSPropertyOp11
 70
     1
102
RTVSPropertyOp12
 70
     1
102
RTVSPropertyOp13
 70
     1
102
RTVSPropertyOp14
 70
     1
102
RTVSPropertyOp15
 70
     1
102
RTVSPropertyOp16
 70
     1
102
RTVSPropertyOp17
 70
     1
102
RTVSPropertyOp18
 70
     1
102
RTVSPropertyOp19
 70
     1
102
RTVSPropertyOp20
 70
     1
102
RTVSPropertyOp21
 70
     1
102
RTVSPropertyOp22
 70
     1
102
RTVSPropertyOp23
 70
     1
102
RTVSPropertyOp24
 70
     1
102
RTVSPropertyOp25
 70
     1
102
RTVSPropertyOp26
 70
     1
102
RTVSPropertyOp27
 70
     1
102
RTVSPropertyOp28
 70
     1
102
RTVSPropertyOp29
 70
     1
102
RTVSPropertyOp30
 70
     1
102
RTVSPropertyOp31
 70
     1
102
RTVSPropertyOp32
 70
     1
102
RTVSPropertyOp33
 70
     1
102
RTVSPropertyOp34
 70
     1
102
RTVSPropertyOp35
 70
     1
102
RTVSPropertyOp36
 70
     1
102
RTVSPropertyOp37
 70
     1
102
RTVSPropertyOp38
 70
     1
102
RTVSPropertyOp39
 70
     1
102
RTVSPropertyOp40
 70
     1
102
RTVSPropertyOp41
 70
     1
102
RTVSPropertyOp42
 70
     1
102
RTVSPropertyOp43
 70
     1
102
RTVSPropertyOp44
 70
     1
102
RTVSPropertyOp45
 70
     1
102
RTVSPropertyOp46
 70
     1
102
RTVSPropertyOp47
 70
     1
102
RTVSPropertyOp48
 70
     1
102
RTVSPropertyOp49
 70
     1
102
RTVSPropertyOp50
 70
     1
102
RTVSPropertyOp51
 70
     0
102
RTVSPropertyOp52
 70
     0
102
RTVSPropertyOp53
 70
     1
102
RTVSPropertyOp54
 70
     1
102
RTVSPropertyOp55
 70
     1
102
RTVSPropertyOp56
 70
     1
102
RTVSPropertyOp57
 70
     1
102
RTVSPropertyOp58
 70
     1
102
RTVSPropertyOp59
 70
     1
102
RTVSPropertyOp60
 70
     1
102
RTVSPropertyOp61
 70
     1
102
RTVSPropertyOp62
 70
     1
  0
XRECORD
  5
2A2C
102
{ACAD_REACTORS
330
2A2B
102
}
330
2A2B
100
AcDbXrecord
280
     1
102
RTVSPost2010Prop28
280
     0
102
RTVSPost2010PropOp28
 70
     1
102
RTVSPost2010Prop29
280
     1
102
RTVSPost2010PropOp29
 70
     1
102
RTVSPost2010Prop30
280
     1
102
RTVSPost2010PropOp30
 70
     1
102
RTVSPost2010Prop31
280
     0
102
RTVSPost2010PropOp31
 70
     1
102
RTVSPost2010Prop32
280
     0
102
RTVSPost2010PropOp32
 70
     1
102
RTVSPost2010Prop33
280
     0
102
RTVSPost2010PropOp33
 70
     1
102
RTVSPost2010Prop34
280
     0
102
RTVSPost2010PropOp34
 70
     1
102
RTVSPost2010Prop35
280
     0
102
RTVSPost2010PropOp35
 70
     1
102
RTVSPost2010Prop36
280
     0
102
RTVSPost2010PropOp36
 70
     1
102
RTVSPost2010Prop37
 90
       50
102
RTVSPost2010PropOp37
 70
     0
102
RTVSPost2010Prop38
140
0.0
102
RTVSPost2010PropOp38
 70
     0
102
RTVSPost2010Prop39
140
1.0
102
RTVSPost2010PropOp39
 70
     0
102
RTVSPost2010Prop40
 90
        0
102
RTVSPost2010PropOp40
 70
     0
102
RTVSPost2010Prop41ColorIndex
 90
       18
102
RTVSPost2010Prop41ColorRGB
 90
        0
102
RTVSPost2010PropOp41
 70
     0
102
RTVSPost2010Prop42
 90
       50
102
RTVSPost2010PropOp42
 70
     0
102
RTVSPost2010Prop43
 90
        3
102
RTVSPost2010PropOp43
 70
     0
102
RTVSPost2010Prop44ColorIndex
 90
        5
102
RTVSPost2010Prop44ColorRGB
 90
      255
102
RTVSPost2010PropOp44
 70
     0
102
RTVSPost2010Prop45
280
     0
102
RTVSPost2010PropOp45
 70
     1
102
RTVSPost2010Prop46
 90
       50
102
RTVSPost2010PropOp46
 70
     0
102
RTVSPost2010Prop47
 90
       50
102
RTVSPost2010PropOp47
 70
     0
102
RTVSPost2010Prop48
 90
       50
102
RTVSPost2010PropOp48
 70
     0
102
RTVSPost2010Prop49
280
     0
102
RTVSPost2010PropOp49
 70
     1
102
RTVSPost2010Prop50
 90
       50
102
RTVSPost2010PropOp50
 70
     0
102
RTVSPost2010Prop51ColorIndex
 90
      256
102
RTVSPost2010Prop51ColorRGB
 90
-16777216
102
RTVSPost2010PropOp51
 70
     0
102
RTVSPost2010Prop52
140
1.0
102
RTVSPost2010PropOp52
 70
     0
102
RTVSPost2010Prop53
 90
        2
102
RTVSPost2010PropOp53
 70
     0
102
RTVSPost2010Prop54
  1
strokes_ogs.tif
102
RTVSPost2010PropOp54
 70
     0
102
RTVSPost2010Prop55
280
     0
102
RTVSPost2010PropOp55
 70
     1
102
RTVSPost2010Prop56
140
1.0
102
RTVSPost2010PropOp56
 70
     0
102
RTVSPost2010Prop57
140
1.0
102
RTVSPost2010PropOp57
 70
     0
102
RTVSPropertyOp0
 70
     0
102
RTVSPropertyOp1
 70
     0
102
RTVSPropertyOp2
 70
     0
102
RTVSPropertyOp3
 70
     0
102
RTVSPropertyOp4
 70
     0
102
RTVSPropertyOp5
 70
     0
102
RTVSPropertyOp6
 70
     0
102
RTVSPropertyOp7
 70
     0
102
RTVSPropertyOp8
 70
     0
102
RTVSPropertyOp9
 70
     0
102
RTVSPropertyOp10
 70
     0
102
RTVSPropertyOp11
 70
     0
102
RTVSPropertyOp12
 70
     0
102
RTVSPropertyOp13
 70
     0
102
RTVSPropertyOp14
 70
     2
102
RTVSPropertyOp15
 70
     0
102
RTVSPropertyOp16
 70
     0
102
RTVSPropertyOp17
 70
     0
102
RTVSPropertyOp18
 70
     0
102
RTVSPropertyOp19
 70
     0
102
RTVSPropertyOp20
 70
     0
102
RTVSPropertyOp21
 70
     0
102
RTVSPropertyOp22
 70
     0
102
RTVSPropertyOp23
 70
     0
102
RTVSPropertyOp24
 70
     0
102
RTVSPropertyOp25
 70
     0
102
RTVSPropertyOp26
 70
     0
102
RTVSPropertyOp27
 70
     0
102
RTVSPropertyOp28
 70
     1
102
RTVSPropertyOp29
 70
     1
102
RTVSPropertyOp30
 70
     1
102
RTVSPropertyOp31
 70
     1
102
RTVSPropertyOp32
 70
     1
102
RTVSPropertyOp33
 70
     1
102
RTVSPropertyOp34
 70
     1
102
RTVSPropertyOp35
 70
     1
102
RTVSPropertyOp36
 70
     1
102
RTVSPropertyOp37
 70
     0
102
RTVSPropertyOp38
 70
     0
102
RTVSPropertyOp39
 70
     0
102
RTVSPropertyOp40
 70
     0
102
RTVSPropertyOp41
 70
     0
102
RTVSPropertyOp42
 70
     0
102
RTVSPropertyOp43
 70
     0
102
RTVSPropertyOp44
 70
     0
102
RTVSPropertyOp45
 70
     1
102
RTVSPropertyOp46
 70
     0
102
RTVSPropertyOp47
 70
     0
102
RTVSPropertyOp48
 70
     0
102
RTVSPropertyOp49
 70
     1
102
RTVSPropertyOp50
 70
     0
102
RTVSPropertyOp51
 70
     0
102
RTVSPropertyOp52
 70
     0
102
RTVSPropertyOp53
 70
     0
102
RTVSPropertyOp54
 70
     0
102
RTVSPropertyOp55
 70
     1
102
RTVSPropertyOp56
 70
     0
102
RTVSPropertyOp57
 70
     0
102
RTVSPropertyOp58
 70
     0
102
RTVSPropertyOp59
 70
     0
102
RTVSPropertyOp60
 70
     0
102
RTVSPropertyOp61
 70
     0
102
RTVSPropertyOp62
 70
     0
  0
XRECORD
  5
2A1A
102
{ACAD_REACTORS
330
2A19
102
}
330
2A19
100
AcDbXrecord
280
     1
102
RTVSPost2010Prop28
280
     0
102
RTVSPost2010PropOp28
 70
     1
102
RTVSPost2010Prop29
280
     1
102
RTVSPost2010PropOp29
 70
     1
102
RTVSPost2010Prop30
280
     1
102
RTVSPost2010PropOp30
 70
     1
102
RTVSPost2010Prop31
280
     0
102
RTVSPost2010PropOp31
 70
     1
102
RTVSPost2010Prop32
280
     0
102
RTVSPost2010PropOp32
 70
     1
102
RTVSPost2010Prop33
280
     0
102
RTVSPost2010PropOp33
 70
     1
102
RTVSPost2010Prop34
280
     0
102
RTVSPost2010PropOp34
 70
     1
102
RTVSPost2010Prop35
280
     0
102
RTVSPost2010PropOp35
 70
     1
102
RTVSPost2010Prop36
280
     0
102
RTVSPost2010PropOp36
 70
     1
102
RTVSPost2010Prop37
 90
       50
102
RTVSPost2010PropOp37
 70
     1
102
RTVSPost2010Prop38
140
0.0
102
RTVSPost2010PropOp38
 70
     1
102
RTVSPost2010Prop39
140
1.0
102
RTVSPost2010PropOp39
 70
     1
102
RTVSPost2010Prop40
 90
        0
102
RTVSPost2010PropOp40
 70
     1
102
RTVSPost2010Prop41ColorIndex
 90
       18
102
RTVSPost2010Prop41ColorRGB
 90
        0
102
RTVSPost2010PropOp41
 70
     1
102
RTVSPost2010Prop42
 90
       50
102
RTVSPost2010PropOp42
 70
     1
102
RTVSPost2010Prop43
 90
        3
102
RTVSPost2010PropOp43
 70
     1
102
RTVSPost2010Prop44ColorIndex
 90
        5
102
RTVSPost2010Prop44ColorRGB
 90
      255
102
RTVSPost2010PropOp44
 70
     1
102
RTVSPost2010Prop45
280
     0
102
RTVSPost2010PropOp45
 70
     1
102
RTVSPost2010Prop46
 90
       50
102
RTVSPost2010PropOp46
 70
     1
102
RTVSPost2010Prop47
 90
       50
102
RTVSPost2010PropOp47
 70
     1
102
RTVSPost2010Prop48
 90
       50
102
RTVSPost2010PropOp48
 70
     1
102
RTVSPost2010Prop49
280
     0
102
RTVSPost2010PropOp49
 70
     1
102
RTVSPost2010Prop50
 90
       50
102
RTVSPost2010PropOp50
 70
     1
102
RTVSPost2010Prop51ColorIndex
 90
      256
102
RTVSPost2010Prop51ColorRGB
 90
-16777216
102
RTVSPost2010PropOp51
 70
     0
102
RTVSPost2010Prop52
140
1.0
102
RTVSPost2010PropOp52
 70
     0
102
RTVSPost2010Prop53
 90
        2
102
RTVSPost2010PropOp53
 70
     1
102
RTVSPost2010Prop54
  1
strokes_ogs.tif
102
RTVSPost2010PropOp54
 70
     1
102
RTVSPost2010Prop55
280
     0
102
RTVSPost2010PropOp55
 70
     1
102
RTVSPost2010Prop56
140
1.0
102
RTVSPost2010PropOp56
 70
     1
102
RTVSPost2010Prop57
140
1.0
102
RTVSPost2010PropOp57
 70
     1
102
RTVSPropertyOp0
 70
     1
102
RTVSPropertyOp1
 70
     1
102
RTVSPropertyOp2
 70
     1
102
RTVSPropertyOp3
 70
     1
102
RTVSPropertyOp4
 70
     1
102
RTVSPropertyOp5
 70
     1
102
RTVSPropertyOp6
 70
     1
102
RTVSPropertyOp7
 70
     1
102
RTVSPropertyOp8
 70
     1
102
RTVSPropertyOp9
 70
     1
102
RTVSPropertyOp10
 70
     1
102
RTVSPropertyOp11
 70
     1
102
RTVSPropertyOp12
 70
     1
102
RTVSPropertyOp13
 70
     1
102
RTVSPropertyOp14
 70
     1
102
RTVSPropertyOp15
 70
     1
102
RTVSPropertyOp16
 70
     1
102
RTVSPropertyOp17
 70
     1
102
RTVSPropertyOp18
 70
     1
102
RTVSPropertyOp19
 70
     1
102
RTVSPropertyOp20
 70
     1
102
RTVSPropertyOp21
 70
     1
102
RTVSPropertyOp22
 70
     1
102
RTVSPropertyOp23
 70
     1
102
RTVSPropertyOp24
 70
     1
102
RTVSPropertyOp25
 70
     1
102
RTVSPropertyOp26
 70
     1
102
RTVSPropertyOp27
 70
     1
102
RTVSPropertyOp28
 70
     1
102
RTVSPropertyOp29
 70
     1
102
RTVSPropertyOp30
 70
     1
102
RTVSPropertyOp31
 70
     1
102
RTVSPropertyOp32
 70
     1
102
RTVSPropertyOp33
 70
     1
102
RTVSPropertyOp34
 70
     1
102
RTVSPropertyOp35
 70
     1
102
RTVSPropertyOp36
 70
     1
102
RTVSPropertyOp37
 70
     1
102
RTVSPropertyOp38
 70
     1
102
RTVSPropertyOp39
 70
     1
102
RTVSPropertyOp40
 70
     1
102
RTVSPropertyOp41
 70
     1
102
RTVSPropertyOp42
 70
     1
102
RTVSPropertyOp43
 70
     1
102
RTVSPropertyOp44
 70
     1
102
RTVSPropertyOp45
 70
     1
102
RTVSPropertyOp46
 70
     1
102
RTVSPropertyOp47
 70
     1
102
RTVSPropertyOp48
 70
     1
102
RTVSPropertyOp49
 70
     1
102
RTVSPropertyOp50
 70
     1
102
RTVSPropertyOp51
 70
     0
102
RTVSPropertyOp52
 70
     0
102
RTVSPropertyOp53
 70
     1
102
RTVSPropertyOp54
 70
     1
102
RTVSPropertyOp55
 70
     1
102
RTVSPropertyOp56
 70
     1
102
RTVSPropertyOp57
 70
     1
102
RTVSPropertyOp58
 70
     1
102
RTVSPropertyOp59
 70
     1
102
RTVSPropertyOp60
 70
     1
102
RTVSPropertyOp61
 70
     1
102
RTVSPropertyOp62
 70
     1
  0
XRECORD
  5
29FE
102
{ACAD_REACTORS
330
29FD
102
}
330
29FD
100
AcDbXrecord
280
     1
102
RTVSPost2010Prop28
280
     0
102
RTVSPost2010PropOp28
 70
     1
102
RTVSPost2010Prop29
280
     1
102
RTVSPost2010PropOp29
 70
     1
102
RTVSPost2010Prop30
280
     1
102
RTVSPost2010PropOp30
 70
     1
102
RTVSPost2010Prop31
280
     0
102
RTVSPost2010PropOp31
 70
     1
102
RTVSPost2010Prop32
280
     0
102
RTVSPost2010PropOp32
 70
     1
102
RTVSPost2010Prop33
280
     0
102
RTVSPost2010PropOp33
 70
     1
102
RTVSPost2010Prop34
280
     0
102
RTVSPost2010PropOp34
 70
     1
102
RTVSPost2010Prop35
280
     0
102
RTVSPost2010PropOp35
 70
     1
102
RTVSPost2010Prop36
280
     0
102
RTVSPost2010PropOp36
 70
     1
102
RTVSPost2010Prop37
 90
       50
102
RTVSPost2010PropOp37
 70
     1
102
RTVSPost2010Prop38
140
0.0
102
RTVSPost2010PropOp38
 70
     1
102
RTVSPost2010Prop39
140
1.0
102
RTVSPost2010PropOp39
 70
     1
102
RTVSPost2010Prop40
 90
        0
102
RTVSPost2010PropOp40
 70
     1
102
RTVSPost2010Prop41ColorIndex
 90
       18
102
RTVSPost2010Prop41ColorRGB
 90
        0
102
RTVSPost2010PropOp41
 70
     1
102
RTVSPost2010Prop42
 90
       50
102
RTVSPost2010PropOp42
 70
     1
102
RTVSPost2010Prop43
 90
        3
102
RTVSPost2010PropOp43
 70
     1
102
RTVSPost2010Prop44ColorIndex
 90
        5
102
RTVSPost2010Prop44ColorRGB
 90
      255
102
RTVSPost2010PropOp44
 70
     1
102
RTVSPost2010Prop45
280
     0
102
RTVSPost2010PropOp45
 70
     1
102
RTVSPost2010Prop46
 90
       50
102
RTVSPost2010PropOp46
 70
     1
102
RTVSPost2010Prop47
 90
       50
102
RTVSPost2010PropOp47
 70
     1
102
RTVSPost2010Prop48
 90
       50
102
RTVSPost2010PropOp48
 70
     1
102
RTVSPost2010Prop49
280
     0
102
RTVSPost2010PropOp49
 70
     1
102
RTVSPost2010Prop50
 90
       50
102
RTVSPost2010PropOp50
 70
     1
102
RTVSPost2010Prop51ColorIndex
 90
      256
102
RTVSPost2010Prop51ColorRGB
 90
-16777216
102
RTVSPost2010PropOp51
 70
     0
102
RTVSPost2010Prop52
140
1.0
102
RTVSPost2010PropOp52
 70
     0
102
RTVSPost2010Prop53
 90
        2
102
RTVSPost2010PropOp53
 70
     1
102
RTVSPost2010Prop54
  1
strokes_ogs.tif
102
RTVSPost2010PropOp54
 70
     1
102
RTVSPost2010Prop55
280
     0
102
RTVSPost2010PropOp55
 70
     1
102
RTVSPost2010Prop56
140
1.0
102
RTVSPost2010PropOp56
 70
     1
102
RTVSPost2010Prop57
140
1.0
102
RTVSPost2010PropOp57
 70
     1
102
RTVSPropertyOp0
 70
     1
102
RTVSPropertyOp1
 70
     1
102
RTVSPropertyOp2
 70
     1
102
RTVSPropertyOp3
 70
     1
102
RTVSPropertyOp4
 70
     1
102
RTVSPropertyOp5
 70
     1
102
RTVSPropertyOp6
 70
     1
102
RTVSPropertyOp7
 70
     1
102
RTVSPropertyOp8
 70
     1
102
RTVSPropertyOp9
 70
     1
102
RTVSPropertyOp10
 70
     1
102
RTVSPropertyOp11
 70
     1
102
RTVSPropertyOp12
 70
     1
102
RTVSPropertyOp13
 70
     1
102
RTVSPropertyOp14
 70
     1
102
RTVSPropertyOp15
 70
     1
102
RTVSPropertyOp16
 70
     1
102
RTVSPropertyOp17
 70
     1
102
RTVSPropertyOp18
 70
     1
102
RTVSPropertyOp19
 70
     1
102
RTVSPropertyOp20
 70
     1
102
RTVSPropertyOp21
 70
     1
102
RTVSPropertyOp22
 70
     1
102
RTVSPropertyOp23
 70
     1
102
RTVSPropertyOp24
 70
     1
102
RTVSPropertyOp25
 70
     1
102
RTVSPropertyOp26
 70
     1
102
RTVSPropertyOp27
 70
     1
102
RTVSPropertyOp28
 70
     1
102
RTVSPropertyOp29
 70
     1
102
RTVSPropertyOp30
 70
     1
102
RTVSPropertyOp31
 70
     1
102
RTVSPropertyOp32
 70
     1
102
RTVSPropertyOp33
 70
     1
102
RTVSPropertyOp34
 70
     1
102
RTVSPropertyOp35
 70
     1
102
RTVSPropertyOp36
 70
     1
102
RTVSPropertyOp37
 70
     1
102
RTVSPropertyOp38
 70
     1
102
RTVSPropertyOp39
 70
     1
102
RTVSPropertyOp40
 70
     1
102
RTVSPropertyOp41
 70
     1
102
RTVSPropertyOp42
 70
     1
102
RTVSPropertyOp43
 70
     1
102
RTVSPropertyOp44
 70
     1
102
RTVSPropertyOp45
 70
     1
102
RTVSPropertyOp46
 70
     1
102
RTVSPropertyOp47
 70
     1
102
RTVSPropertyOp48
 70
     1
102
RTVSPropertyOp49
 70
     1
102
RTVSPropertyOp50
 70
     1
102
RTVSPropertyOp51
 70
     0
102
RTVSPropertyOp52
 70
     0
102
RTVSPropertyOp53
 70
     1
102
RTVSPropertyOp54
 70
     1
102
RTVSPropertyOp55
 70
     1
102
RTVSPropertyOp56
 70
     1
102
RTVSPropertyOp57
 70
     1
102
RTVSPropertyOp58
 70
     1
102
RTVSPropertyOp59
 70
     1
102
RTVSPropertyOp60
 70
     1
102
RTVSPropertyOp61
 70
     1
102
RTVSPropertyOp62
 70
     1
  0
XRECORD
  5
2A00
102
{ACAD_REACTORS
330
29FF
102
}
330
29FF
100
AcDbXrecord
280
     1
102
RTVSPost2010Prop28
280
     0
102
RTVSPost2010PropOp28
 70
     1
102
RTVSPost2010Prop29
280
     1
102
RTVSPost2010PropOp29
 70
     1
102
RTVSPost2010Prop30
280
     1
102
RTVSPost2010PropOp30
 70
     1
102
RTVSPost2010Prop31
280
     0
102
RTVSPost2010PropOp31
 70
     1
102
RTVSPost2010Prop32
280
     0
102
RTVSPost2010PropOp32
 70
     1
102
RTVSPost2010Prop33
280
     0
102
RTVSPost2010PropOp33
 70
     1
102
RTVSPost2010Prop34
280
     0
102
RTVSPost2010PropOp34
 70
     1
102
RTVSPost2010Prop35
280
     0
102
RTVSPost2010PropOp35
 70
     1
102
RTVSPost2010Prop36
280
     0
102
RTVSPost2010PropOp36
 70
     1
102
RTVSPost2010Prop37
 90
       50
102
RTVSPost2010PropOp37
 70
     1
102
RTVSPost2010Prop38
140
0.0
102
RTVSPost2010PropOp38
 70
     1
102
RTVSPost2010Prop39
140
1.0
102
RTVSPost2010PropOp39
 70
     1
102
RTVSPost2010Prop40
 90
        0
102
RTVSPost2010PropOp40
 70
     1
102
RTVSPost2010Prop41ColorIndex
 90
       18
102
RTVSPost2010Prop41ColorRGB
 90
        0
102
RTVSPost2010PropOp41
 70
     1
102
RTVSPost2010Prop42
 90
       50
102
RTVSPost2010PropOp42
 70
     1
102
RTVSPost2010Prop43
 90
        3
102
RTVSPost2010PropOp43
 70
     1
102
RTVSPost2010Prop44ColorIndex
 90
        5
102
RTVSPost2010Prop44ColorRGB
 90
      255
102
RTVSPost2010PropOp44
 70
     1
102
RTVSPost2010Prop45
280
     0
102
RTVSPost2010PropOp45
 70
     1
102
RTVSPost2010Prop46
 90
       50
102
RTVSPost2010PropOp46
 70
     1
102
RTVSPost2010Prop47
 90
       50
102
RTVSPost2010PropOp47
 70
     1
102
RTVSPost2010Prop48
 90
       50
102
RTVSPost2010PropOp48
 70
     1
102
RTVSPost2010Prop49
280
     0
102
RTVSPost2010PropOp49
 70
     1
102
RTVSPost2010Prop50
 90
       50
102
RTVSPost2010PropOp50
 70
     1
102
RTVSPost2010Prop51ColorIndex
 90
      256
102
RTVSPost2010Prop51ColorRGB
 90
-16777216
102
RTVSPost2010PropOp51
 70
     0
102
RTVSPost2010Prop52
140
1.0
102
RTVSPost2010PropOp52
 70
     0
102
RTVSPost2010Prop53
 90
        2
102
RTVSPost2010PropOp53
 70
     1
102
RTVSPost2010Prop54
  1
strokes_ogs.tif
102
RTVSPost2010PropOp54
 70
     1
102
RTVSPost2010Prop55
280
     0
102
RTVSPost2010PropOp55
 70
     1
102
RTVSPost2010Prop56
140
1.0
102
RTVSPost2010PropOp56
 70
     1
102
RTVSPost2010Prop57
140
1.0
102
RTVSPost2010PropOp57
 70
     1
102
RTVSPropertyOp0
 70
     1
102
RTVSPropertyOp1
 70
     1
102
RTVSPropertyOp2
 70
     1
102
RTVSPropertyOp3
 70
     1
102
RTVSPropertyOp4
 70
     1
102
RTVSPropertyOp5
 70
     1
102
RTVSPropertyOp6
 70
     1
102
RTVSPropertyOp7
 70
     1
102
RTVSPropertyOp8
 70
     1
102
RTVSPropertyOp9
 70
     1
102
RTVSPropertyOp10
 70
     1
102
RTVSPropertyOp11
 70
     1
102
RTVSPropertyOp12
 70
     1
102
RTVSPropertyOp13
 70
     1
102
RTVSPropertyOp14
 70
     1
102
RTVSPropertyOp15
 70
     1
102
RTVSPropertyOp16
 70
     1
102
RTVSPropertyOp17
 70
     1
102
RTVSPropertyOp18
 70
     1
102
RTVSPropertyOp19
 70
     1
102
RTVSPropertyOp20
 70
     1
102
RTVSPropertyOp21
 70
     1
102
RTVSPropertyOp22
 70
     1
102
RTVSPropertyOp23
 70
     1
102
RTVSPropertyOp24
 70
     1
102
RTVSPropertyOp25
 70
     1
102
RTVSPropertyOp26
 70
     1
102
RTVSPropertyOp27
 70
     1
102
RTVSPropertyOp28
 70
     1
102
RTVSPropertyOp29
 70
     1
102
RTVSPropertyOp30
 70
     1
102
RTVSPropertyOp31
 70
     1
102
RTVSPropertyOp32
 70
     1
102
RTVSPropertyOp33
 70
     1
102
RTVSPropertyOp34
 70
     1
102
RTVSPropertyOp35
 70
     1
102
RTVSPropertyOp36
 70
     1
102
RTVSPropertyOp37
 70
     1
102
RTVSPropertyOp38
 70
     1
102
RTVSPropertyOp39
 70
     1
102
RTVSPropertyOp40
 70
     1
102
RTVSPropertyOp41
 70
     1
102
RTVSPropertyOp42
 70
     1
102
RTVSPropertyOp43
 70
     1
102
RTVSPropertyOp44
 70
     1
102
RTVSPropertyOp45
 70
     1
102
RTVSPropertyOp46
 70
     1
102
RTVSPropertyOp47
 70
     1
102
RTVSPropertyOp48
 70
     1
102
RTVSPropertyOp49
 70
     1
102
RTVSPropertyOp50
 70
     1
102
RTVSPropertyOp51
 70
     0
102
RTVSPropertyOp52
 70
     0
102
RTVSPropertyOp53
 70
     1
102
RTVSPropertyOp54
 70
     1
102
RTVSPropertyOp55
 70
     1
102
RTVSPropertyOp56
 70
     1
102
RTVSPropertyOp57
 70
     1
102
RTVSPropertyOp58
 70
     1
102
RTVSPropertyOp59
 70
     1
102
RTVSPropertyOp60
 70
     1
102
RTVSPropertyOp61
 70
     1
102
RTVSPropertyOp62
 70
     1
  0
XRECORD
  5
2A02
102
{ACAD_REACTORS
330
2A01
102
}
330
2A01
100
AcDbXrecord
280
     1
102
RTVSPost2010Prop28
280
     0
102
RTVSPost2010PropOp28
 70
     1
102
RTVSPost2010Prop29
280
     1
102
RTVSPost2010PropOp29
 70
     1
102
RTVSPost2010Prop30
280
     1
102
RTVSPost2010PropOp30
 70
     1
102
RTVSPost2010Prop31
280
     0
102
RTVSPost2010PropOp31
 70
     1
102
RTVSPost2010Prop32
280
     0
102
RTVSPost2010PropOp32
 70
     1
102
RTVSPost2010Prop33
280
     0
102
RTVSPost2010PropOp33
 70
     1
102
RTVSPost2010Prop34
280
     0
102
RTVSPost2010PropOp34
 70
     1
102
RTVSPost2010Prop35
280
     0
102
RTVSPost2010PropOp35
 70
     1
102
RTVSPost2010Prop36
280
     0
102
RTVSPost2010PropOp36
 70
     1
102
RTVSPost2010Prop37
 90
       50
102
RTVSPost2010PropOp37
 70
     1
102
RTVSPost2010Prop38
140
0.0
102
RTVSPost2010PropOp38
 70
     1
102
RTVSPost2010Prop39
140
1.0
102
RTVSPost2010PropOp39
 70
     1
102
RTVSPost2010Prop40
 90
        0
102
RTVSPost2010PropOp40
 70
     1
102
RTVSPost2010Prop41ColorIndex
 90
       18
102
RTVSPost2010Prop41ColorRGB
 90
        0
102
RTVSPost2010PropOp41
 70
     1
102
RTVSPost2010Prop42
 90
       50
102
RTVSPost2010PropOp42
 70
     1
102
RTVSPost2010Prop43
 90
        3
102
RTVSPost2010PropOp43
 70
     1
102
RTVSPost2010Prop44ColorIndex
 90
        5
102
RTVSPost2010Prop44ColorRGB
 90
      255
102
RTVSPost2010PropOp44
 70
     1
102
RTVSPost2010Prop45
280
     0
102
RTVSPost2010PropOp45
 70
     1
102
RTVSPost2010Prop46
 90
       50
102
RTVSPost2010PropOp46
 70
     1
102
RTVSPost2010Prop47
 90
       50
102
RTVSPost2010PropOp47
 70
     1
102
RTVSPost2010Prop48
 90
       50
102
RTVSPost2010PropOp48
 70
     1
102
RTVSPost2010Prop49
280
     0
102
RTVSPost2010PropOp49
 70
     1
102
RTVSPost2010Prop50
 90
       50
102
RTVSPost2010PropOp50
 70
     1
102
RTVSPost2010Prop51ColorIndex
 90
      256
102
RTVSPost2010Prop51ColorRGB
 90
-16777216
102
RTVSPost2010PropOp51
 70
     0
102
RTVSPost2010Prop52
140
1.0
102
RTVSPost2010PropOp52
 70
     0
102
RTVSPost2010Prop53
 90
        2
102
RTVSPost2010PropOp53
 70
     1
102
RTVSPost2010Prop54
  1
strokes_ogs.tif
102
RTVSPost2010PropOp54
 70
     1
102
RTVSPost2010Prop55
280
     0
102
RTVSPost2010PropOp55
 70
     1
102
RTVSPost2010Prop56
140
1.0
102
RTVSPost2010PropOp56
 70
     1
102
RTVSPost2010Prop57
140
1.0
102
RTVSPost2010PropOp57
 70
     1
102
RTVSPropertyOp0
 70
     1
102
RTVSPropertyOp1
 70
     1
102
RTVSPropertyOp2
 70
     1
102
RTVSPropertyOp3
 70
     1
102
RTVSPropertyOp4
 70
     1
102
RTVSPropertyOp5
 70
     1
102
RTVSPropertyOp6
 70
     1
102
RTVSPropertyOp7
 70
     1
102
RTVSPropertyOp8
 70
     1
102
RTVSPropertyOp9
 70
     1
102
RTVSPropertyOp10
 70
     1
102
RTVSPropertyOp11
 70
     1
102
RTVSPropertyOp12
 70
     1
102
RTVSPropertyOp13
 70
     1
102
RTVSPropertyOp14
 70
     1
102
RTVSPropertyOp15
 70
     1
102
RTVSPropertyOp16
 70
     1
102
RTVSPropertyOp17
 70
     1
102
RTVSPropertyOp18
 70
     1
102
RTVSPropertyOp19
 70
     1
102
RTVSPropertyOp20
 70
     1
102
RTVSPropertyOp21
 70
     1
102
RTVSPropertyOp22
 70
     1
102
RTVSPropertyOp23
 70
     1
102
RTVSPropertyOp24
 70
     1
102
RTVSPropertyOp25
 70
     1
102
RTVSPropertyOp26
 70
     1
102
RTVSPropertyOp27
 70
     1
102
RTVSPropertyOp28
 70
     1
102
RTVSPropertyOp29
 70
     1
102
RTVSPropertyOp30
 70
     1
102
RTVSPropertyOp31
 70
     1
102
RTVSPropertyOp32
 70
     1
102
RTVSPropertyOp33
 70
     1
102
RTVSPropertyOp34
 70
     1
102
RTVSPropertyOp35
 70
     1
102
RTVSPropertyOp36
 70
     1
102
RTVSPropertyOp37
 70
     1
102
RTVSPropertyOp38
 70
     1
102
RTVSPropertyOp39
 70
     1
102
RTVSPropertyOp40
 70
     1
102
RTVSPropertyOp41
 70
     1
102
RTVSPropertyOp42
 70
     1
102
RTVSPropertyOp43
 70
     1
102
RTVSPropertyOp44
 70
     1
102
RTVSPropertyOp45
 70
     1
102
RTVSPropertyOp46
 70
     1
102
RTVSPropertyOp47
 70
     1
102
RTVSPropertyOp48
 70
     1
102
RTVSPropertyOp49
 70
     1
102
RTVSPropertyOp50
 70
     1
102
RTVSPropertyOp51
 70
     0
102
RTVSPropertyOp52
 70
     0
102
RTVSPropertyOp53
 70
     1
102
RTVSPropertyOp54
 70
     1
102
RTVSPropertyOp55
 70
     1
102
RTVSPropertyOp56
 70
     1
102
RTVSPropertyOp57
 70
     1
102
RTVSPropertyOp58
 70
     1
102
RTVSPropertyOp59
 70
     1
102
RTVSPropertyOp60
 70
     1
102
RTVSPropertyOp61
 70
     1
102
RTVSPropertyOp62
 70
     1
  0
XRECORD
  5
2A04
102
{ACAD_REACTORS
330
2A03
102
}
330
2A03
100
AcDbXrecord
280
     1
102
RTVSPost2010Prop28
280
     0
102
RTVSPost2010PropOp28
 70
     1
102
RTVSPost2010Prop29
280
     1
102
RTVSPost2010PropOp29
 70
     1
102
RTVSPost2010Prop30
280
     1
102
RTVSPost2010PropOp30
 70
     1
102
RTVSPost2010Prop31
280
     0
102
RTVSPost2010PropOp31
 70
     1
102
RTVSPost2010Prop32
280
     0
102
RTVSPost2010PropOp32
 70
     1
102
RTVSPost2010Prop33
280
     0
102
RTVSPost2010PropOp33
 70
     1
102
RTVSPost2010Prop34
280
     0
102
RTVSPost2010PropOp34
 70
     1
102
RTVSPost2010Prop35
280
     0
102
RTVSPost2010PropOp35
 70
     1
102
RTVSPost2010Prop36
280
     0
102
RTVSPost2010PropOp36
 70
     1
102
RTVSPost2010Prop37
 90
       50
102
RTVSPost2010PropOp37
 70
     1
102
RTVSPost2010Prop38
140
0.0
102
RTVSPost2010PropOp38
 70
     1
102
RTVSPost2010Prop39
140
1.0
102
RTVSPost2010PropOp39
 70
     1
102
RTVSPost2010Prop40
 90
        0
102
RTVSPost2010PropOp40
 70
     1
102
RTVSPost2010Prop41ColorIndex
 90
       18
102
RTVSPost2010Prop41ColorRGB
 90
        0
102
RTVSPost2010PropOp41
 70
     1
102
RTVSPost2010Prop42
 90
       50
102
RTVSPost2010PropOp42
 70
     1
102
RTVSPost2010Prop43
 90
        3
102
RTVSPost2010PropOp43
 70
     1
102
RTVSPost2010Prop44ColorIndex
 90
        5
102
RTVSPost2010Prop44ColorRGB
 90
      255
102
RTVSPost2010PropOp44
 70
     1
102
RTVSPost2010Prop45
280
     0
102
RTVSPost2010PropOp45
 70
     1
102
RTVSPost2010Prop46
 90
       50
102
RTVSPost2010PropOp46
 70
     1
102
RTVSPost2010Prop47
 90
       50
102
RTVSPost2010PropOp47
 70
     1
102
RTVSPost2010Prop48
 90
       50
102
RTVSPost2010PropOp48
 70
     1
102
RTVSPost2010Prop49
280
     0
102
RTVSPost2010PropOp49
 70
     1
102
RTVSPost2010Prop50
 90
       50
102
RTVSPost2010PropOp50
 70
     1
102
RTVSPost2010Prop51ColorIndex
 90
      256
102
RTVSPost2010Prop51ColorRGB
 90
-16777216
102
RTVSPost2010PropOp51
 70
     0
102
RTVSPost2010Prop52
140
1.0
102
RTVSPost2010PropOp52
 70
     0
102
RTVSPost2010Prop53
 90
        2
102
RTVSPost2010PropOp53
 70
     1
102
RTVSPost2010Prop54
  1
strokes_ogs.tif
102
RTVSPost2010PropOp54
 70
     1
102
RTVSPost2010Prop55
280
     0
102
RTVSPost2010PropOp55
 70
     1
102
RTVSPost2010Prop56
140
1.0
102
RTVSPost2010PropOp56
 70
     1
102
RTVSPost2010Prop57
140
1.0
102
RTVSPost2010PropOp57
 70
     1
102
RTVSPropertyOp0
 70
     1
102
RTVSPropertyOp1
 70
     1
102
RTVSPropertyOp2
 70
     1
102
RTVSPropertyOp3
 70
     1
102
RTVSPropertyOp4
 70
     1
102
RTVSPropertyOp5
 70
     1
102
RTVSPropertyOp6
 70
     1
102
RTVSPropertyOp7
 70
     1
102
RTVSPropertyOp8
 70
     1
102
RTVSPropertyOp9
 70
     1
102
RTVSPropertyOp10
 70
     1
102
RTVSPropertyOp11
 70
     1
102
RTVSPropertyOp12
 70
     1
102
RTVSPropertyOp13
 70
     1
102
RTVSPropertyOp14
 70
     1
102
RTVSPropertyOp15
 70
     1
102
RTVSPropertyOp16
 70
     1
102
RTVSPropertyOp17
 70
     1
102
RTVSPropertyOp18
 70
     1
102
RTVSPropertyOp19
 70
     1
102
RTVSPropertyOp20
 70
     1
102
RTVSPropertyOp21
 70
     1
102
RTVSPropertyOp22
 70
     1
102
RTVSPropertyOp23
 70
     1
102
RTVSPropertyOp24
 70
     1
102
RTVSPropertyOp25
 70
     1
102
RTVSPropertyOp26
 70
     1
102
RTVSPropertyOp27
 70
     1
102
RTVSPropertyOp28
 70
     1
102
RTVSPropertyOp29
 70
     1
102
RTVSPropertyOp30
 70
     1
102
RTVSPropertyOp31
 70
     1
102
RTVSPropertyOp32
 70
     1
102
RTVSPropertyOp33
 70
     1
102
RTVSPropertyOp34
 70
     1
102
RTVSPropertyOp35
 70
     1
102
RTVSPropertyOp36
 70
     1
102
RTVSPropertyOp37
 70
     1
102
RTVSPropertyOp38
 70
     1
102
RTVSPropertyOp39
 70
     1
102
RTVSPropertyOp40
 70
     1
102
RTVSPropertyOp41
 70
     1
102
RTVSPropertyOp42
 70
     1
102
RTVSPropertyOp43
 70
     1
102
RTVSPropertyOp44
 70
     1
102
RTVSPropertyOp45
 70
     1
102
RTVSPropertyOp46
 70
     1
102
RTVSPropertyOp47
 70
     1
102
RTVSPropertyOp48
 70
     1
102
RTVSPropertyOp49
 70
     1
102
RTVSPropertyOp50
 70
     1
102
RTVSPropertyOp51
 70
     0
102
RTVSPropertyOp52
 70
     0
102
RTVSPropertyOp53
 70
     1
102
RTVSPropertyOp54
 70
     1
102
RTVSPropertyOp55
 70
     1
102
RTVSPropertyOp56
 70
     1
102
RTVSPropertyOp57
 70
     1
102
RTVSPropertyOp58
 70
     1
102
RTVSPropertyOp59
 70
     1
102
RTVSPropertyOp60
 70
     1
102
RTVSPropertyOp61
 70
     1
102
RTVSPropertyOp62
 70
     1
  0
XRECORD
  5
2A0C
102
{ACAD_REACTORS
330
2A0B
102
}
330
2A0B
100
AcDbXrecord
280
     1
102
RTVSPost2010Prop28
280
     0
102
RTVSPost2010PropOp28
 70
     1
102
RTVSPost2010Prop29
280
     1
102
RTVSPost2010PropOp29
 70
     1
102
RTVSPost2010Prop30
280
     1
102
RTVSPost2010PropOp30
 70
     1
102
RTVSPost2010Prop31
280
     0
102
RTVSPost2010PropOp31
 70
     1
102
RTVSPost2010Prop32
280
     0
102
RTVSPost2010PropOp32
 70
     1
102
RTVSPost2010Prop33
280
     0
102
RTVSPost2010PropOp33
 70
     1
102
RTVSPost2010Prop34
280
     0
102
RTVSPost2010PropOp34
 70
     1
102
RTVSPost2010Prop35
280
     0
102
RTVSPost2010PropOp35
 70
     1
102
RTVSPost2010Prop36
280
     0
102
RTVSPost2010PropOp36
 70
     1
102
RTVSPost2010Prop37
 90
       50
102
RTVSPost2010PropOp37
 70
     1
102
RTVSPost2010Prop38
140
0.0
102
RTVSPost2010PropOp38
 70
     1
102
RTVSPost2010Prop39
140
1.0
102
RTVSPost2010PropOp39
 70
     1
102
RTVSPost2010Prop40
 90
        0
102
RTVSPost2010PropOp40
 70
     1
102
RTVSPost2010Prop41ColorIndex
 90
       18
102
RTVSPost2010Prop41ColorRGB
 90
        0
102
RTVSPost2010PropOp41
 70
     1
102
RTVSPost2010Prop42
 90
       50
102
RTVSPost2010PropOp42
 70
     1
102
RTVSPost2010Prop43
 90
        3
102
RTVSPost2010PropOp43
 70
     1
102
RTVSPost2010Prop44ColorIndex
 90
        5
102
RTVSPost2010Prop44ColorRGB
 90
      255
102
RTVSPost2010PropOp44
 70
     1
102
RTVSPost2010Prop45
280
     0
102
RTVSPost2010PropOp45
 70
     1
102
RTVSPost2010Prop46
 90
       50
102
RTVSPost2010PropOp46
 70
     1
102
RTVSPost2010Prop47
 90
       50
102
RTVSPost2010PropOp47
 70
     1
102
RTVSPost2010Prop48
 90
       50
102
RTVSPost2010PropOp48
 70
     1
102
RTVSPost2010Prop49
280
     0
102
RTVSPost2010PropOp49
 70
     1
102
RTVSPost2010Prop50
 90
       50
102
RTVSPost2010PropOp50
 70
     1
102
RTVSPost2010Prop51ColorIndex
 90
      256
102
RTVSPost2010Prop51ColorRGB
 90
-16777216
102
RTVSPost2010PropOp51
 70
     0
102
RTVSPost2010Prop52
140
1.0
102
RTVSPost2010PropOp52
 70
     0
102
RTVSPost2010Prop53
 90
        2
102
RTVSPost2010PropOp53
 70
     1
102
RTVSPost2010Prop54
  1
strokes_ogs.tif
102
RTVSPost2010PropOp54
 70
     1
102
RTVSPost2010Prop55
280
     0
102
RTVSPost2010PropOp55
 70
     1
102
RTVSPost2010Prop56
140
1.0
102
RTVSPost2010PropOp56
 70
     1
102
RTVSPost2010Prop57
140
1.0
102
RTVSPost2010PropOp57
 70
     1
102
RTVSPropertyOp0
 70
     1
102
RTVSPropertyOp1
 70
     1
102
RTVSPropertyOp2
 70
     1
102
RTVSPropertyOp3
 70
     1
102
RTVSPropertyOp4
 70
     1
102
RTVSPropertyOp5
 70
     1
102
RTVSPropertyOp6
 70
     1
102
RTVSPropertyOp7
 70
     1
102
RTVSPropertyOp8
 70
     1
102
RTVSPropertyOp9
 70
     1
102
RTVSPropertyOp10
 70
     1
102
RTVSPropertyOp11
 70
     1
102
RTVSPropertyOp12
 70
     1
102
RTVSPropertyOp13
 70
     1
102
RTVSPropertyOp14
 70
     1
102
RTVSPropertyOp15
 70
     1
102
RTVSPropertyOp16
 70
     1
102
RTVSPropertyOp17
 70
     1
102
RTVSPropertyOp18
 70
     1
102
RTVSPropertyOp19
 70
     1
102
RTVSPropertyOp20
 70
     1
102
RTVSPropertyOp21
 70
     1
102
RTVSPropertyOp22
 70
     1
102
RTVSPropertyOp23
 70
     1
102
RTVSPropertyOp24
 70
     1
102
RTVSPropertyOp25
 70
     1
102
RTVSPropertyOp26
 70
     1
102
RTVSPropertyOp27
 70
     1
102
RTVSPropertyOp28
 70
     1
102
RTVSPropertyOp29
 70
     1
102
RTVSPropertyOp30
 70
     1
102
RTVSPropertyOp31
 70
     1
102
RTVSPropertyOp32
 70
     1
102
RTVSPropertyOp33
 70
     1
102
RTVSPropertyOp34
 70
     1
102
RTVSPropertyOp35
 70
     1
102
RTVSPropertyOp36
 70
     1
102
RTVSPropertyOp37
 70
     1
102
RTVSPropertyOp38
 70
     1
102
RTVSPropertyOp39
 70
     1
102
RTVSPropertyOp40
 70
     1
102
RTVSPropertyOp41
 70
     1
102
RTVSPropertyOp42
 70
     1
102
RTVSPropertyOp43
 70
     1
102
RTVSPropertyOp44
 70
     1
102
RTVSPropertyOp45
 70
     1
102
RTVSPropertyOp46
 70
     1
102
RTVSPropertyOp47
 70
     1
102
RTVSPropertyOp48
 70
     1
102
RTVSPropertyOp49
 70
     1
102
RTVSPropertyOp50
 70
     1
102
RTVSPropertyOp51
 70
     0
102
RTVSPropertyOp52
 70
     0
102
RTVSPropertyOp53
 70
     1
102
RTVSPropertyOp54
 70
     1
102
RTVSPropertyOp55
 70
     1
102
RTVSPropertyOp56
 70
     1
102
RTVSPropertyOp57
 70
     1
102
RTVSPropertyOp58
 70
     1
102
RTVSPropertyOp59
 70
     1
102
RTVSPropertyOp60
 70
     1
102
RTVSPropertyOp61
 70
     1
102
RTVSPropertyOp62
 70
     1
  0
XRECORD
  5
2A28
102
{ACAD_REACTORS
330
2A27
102
}
330
2A27
100
AcDbXrecord
280
     1
102
RTVSPost2010Prop28
280
     0
102
RTVSPost2010PropOp28
 70
     1
102
RTVSPost2010Prop29
280
     1
102
RTVSPost2010PropOp29
 70
     1
102
RTVSPost2010Prop30
280
     1
102
RTVSPost2010PropOp30
 70
     1
102
RTVSPost2010Prop31
280
     0
102
RTVSPost2010PropOp31
 70
     1
102
RTVSPost2010Prop32
280
     0
102
RTVSPost2010PropOp32
 70
     1
102
RTVSPost2010Prop33
280
     0
102
RTVSPost2010PropOp33
 70
     1
102
RTVSPost2010Prop34
280
     0
102
RTVSPost2010PropOp34
 70
     1
102
RTVSPost2010Prop35
280
     0
102
RTVSPost2010PropOp35
 70
     1
102
RTVSPost2010Prop36
280
     0
102
RTVSPost2010PropOp36
 70
     1
102
RTVSPost2010Prop37
 90
       50
102
RTVSPost2010PropOp37
 70
     0
102
RTVSPost2010Prop38
140
0.0
102
RTVSPost2010PropOp38
 70
     0
102
RTVSPost2010Prop39
140
1.0
102
RTVSPost2010PropOp39
 70
     0
102
RTVSPost2010Prop40
 90
        0
102
RTVSPost2010PropOp40
 70
     0
102
RTVSPost2010Prop41ColorIndex
 90
       18
102
RTVSPost2010Prop41ColorRGB
 90
        0
102
RTVSPost2010PropOp41
 70
     0
102
RTVSPost2010Prop42
 90
       50
102
RTVSPost2010PropOp42
 70
     0
102
RTVSPost2010Prop43
 90
        3
102
RTVSPost2010PropOp43
 70
     0
102
RTVSPost2010Prop44ColorIndex
 90
        5
102
RTVSPost2010Prop44ColorRGB
 90
      255
102
RTVSPost2010PropOp44
 70
     0
102
RTVSPost2010Prop45
280
     0
102
RTVSPost2010PropOp45
 70
     1
102
RTVSPost2010Prop46
 90
       50
102
RTVSPost2010PropOp46
 70
     0
102
RTVSPost2010Prop47
 90
       50
102
RTVSPost2010PropOp47
 70
     0
102
RTVSPost2010Prop48
 90
       50
102
RTVSPost2010PropOp48
 70
     0
102
RTVSPost2010Prop49
280
     0
102
RTVSPost2010PropOp49
 70
     1
102
RTVSPost2010Prop50
 90
       50
102
RTVSPost2010PropOp50
 70
     0
102
RTVSPost2010Prop51ColorIndex
 90
      256
102
RTVSPost2010Prop51ColorRGB
 90
-16777216
102
RTVSPost2010PropOp51
 70
     0
102
RTVSPost2010Prop52
140
1.0
102
RTVSPost2010PropOp52
 70
     0
102
RTVSPost2010Prop53
 90
        2
102
RTVSPost2010PropOp53
 70
     0
102
RTVSPost2010Prop54
  1
strokes_ogs.tif
102
RTVSPost2010PropOp54
 70
     0
102
RTVSPost2010Prop55
280
     0
102
RTVSPost2010PropOp55
 70
     1
102
RTVSPost2010Prop56
140
1.0
102
RTVSPost2010PropOp56
 70
     0
102
RTVSPost2010Prop57
140
1.0
102
RTVSPost2010PropOp57
 70
     0
102
RTVSPropertyOp0
 70
     0
102
RTVSPropertyOp1
 70
     0
102
RTVSPropertyOp2
 70
     0
102
RTVSPropertyOp3
 70
     0
102
RTVSPropertyOp4
 70
     0
102
RTVSPropertyOp5
 70
     0
102
RTVSPropertyOp6
 70
     0
102
RTVSPropertyOp7
 70
     0
102
RTVSPropertyOp8
 70
     0
102
RTVSPropertyOp9
 70
     0
102
RTVSPropertyOp10
 70
     0
102
RTVSPropertyOp11
 70
     0
102
RTVSPropertyOp12
 70
     0
102
RTVSPropertyOp13
 70
     0
102
RTVSPropertyOp14
 70
     2
102
RTVSPropertyOp15
 70
     0
102
RTVSPropertyOp16
 70
     0
102
RTVSPropertyOp17
 70
     0
102
RTVSPropertyOp18
 70
     0
102
RTVSPropertyOp19
 70
     0
102
RTVSPropertyOp20
 70
     0
102
RTVSPropertyOp21
 70
     0
102
RTVSPropertyOp22
 70
     0
102
RTVSPropertyOp23
 70
     0
102
RTVSPropertyOp24
 70
     0
102
RTVSPropertyOp25
 70
     0
102
RTVSPropertyOp26
 70
     0
102
RTVSPropertyOp27
 70
     0
102
RTVSPropertyOp28
 70
     1
102
RTVSPropertyOp29
 70
     1
102
RTVSPropertyOp30
 70
     1
102
RTVSPropertyOp31
 70
     1
102
RTVSPropertyOp32
 70
     1
102
RTVSPropertyOp33
 70
     1
102
RTVSPropertyOp34
 70
     1
102
RTVSPropertyOp35
 70
     1
102
RTVSPropertyOp36
 70
     1
102
RTVSPropertyOp37
 70
     0
102
RTVSPropertyOp38
 70
     0
102
RTVSPropertyOp39
 70
     0
102
RTVSPropertyOp40
 70
     0
102
RTVSPropertyOp41
 70
     0
102
RTVSPropertyOp42
 70
     0
102
RTVSPropertyOp43
 70
     0
102
RTVSPropertyOp44
 70
     0
102
RTVSPropertyOp45
 70
     1
102
RTVSPropertyOp46
 70
     0
102
RTVSPropertyOp47
 70
     0
102
RTVSPropertyOp48
 70
     0
102
RTVSPropertyOp49
 70
     1
102
RTVSPropertyOp50
 70
     0
102
RTVSPropertyOp51
 70
     0
102
RTVSPropertyOp52
 70
     0
102
RTVSPropertyOp53
 70
     0
102
RTVSPropertyOp54
 70
     0
102
RTVSPropertyOp55
 70
     1
102
RTVSPropertyOp56
 70
     0
102
RTVSPropertyOp57
 70
     0
102
RTVSPropertyOp58
 70
     0
102
RTVSPropertyOp59
 70
     0
102
RTVSPropertyOp60
 70
     0
102
RTVSPropertyOp61
 70
     0
102
RTVSPropertyOp62
 70
     0
  0
XRECORD
  5
2A18
102
{ACAD_REACTORS
330
2A17
102
}
330
2A17
100
AcDbXrecord
280
     1
102
RTVSPost2010Prop28
280
     0
102
RTVSPost2010PropOp28
 70
     1
102
RTVSPost2010Prop29
280
     1
102
RTVSPost2010PropOp29
 70
     1
102
RTVSPost2010Prop30
280
     1
102
RTVSPost2010PropOp30
 70
     1
102
RTVSPost2010Prop31
280
     0
102
RTVSPost2010PropOp31
 70
     1
102
RTVSPost2010Prop32
280
     0
102
RTVSPost2010PropOp32
 70
     1
102
RTVSPost2010Prop33
280
     0
102
RTVSPost2010PropOp33
 70
     1
102
RTVSPost2010Prop34
280
     0
102
RTVSPost2010PropOp34
 70
     1
102
RTVSPost2010Prop35
280
     0
102
RTVSPost2010PropOp35
 70
     1
102
RTVSPost2010Prop36
280
     0
102
RTVSPost2010PropOp36
 70
     1
102
RTVSPost2010Prop37
 90
       50
102
RTVSPost2010PropOp37
 70
     1
102
RTVSPost2010Prop38
140
0.0
102
RTVSPost2010PropOp38
 70
     1
102
RTVSPost2010Prop39
140
1.0
102
RTVSPost2010PropOp39
 70
     1
102
RTVSPost2010Prop40
 90
        0
102
RTVSPost2010PropOp40
 70
     1
102
RTVSPost2010Prop41ColorIndex
 90
       18
102
RTVSPost2010Prop41ColorRGB
 90
        0
102
RTVSPost2010PropOp41
 70
     1
102
RTVSPost2010Prop42
 90
       50
102
RTVSPost2010PropOp42
 70
     1
102
RTVSPost2010Prop43
 90
        3
102
RTVSPost2010PropOp43
 70
     1
102
RTVSPost2010Prop44ColorIndex
 90
        5
102
RTVSPost2010Prop44ColorRGB
 90
      255
102
RTVSPost2010PropOp44
 70
     1
102
RTVSPost2010Prop45
280
     0
102
RTVSPost2010PropOp45
 70
     1
102
RTVSPost2010Prop46
 90
       50
102
RTVSPost2010PropOp46
 70
     1
102
RTVSPost2010Prop47
 90
       50
102
RTVSPost2010PropOp47
 70
     1
102
RTVSPost2010Prop48
 90
       50
102
RTVSPost2010PropOp48
 70
     1
102
RTVSPost2010Prop49
280
     0
102
RTVSPost2010PropOp49
 70
     1
102
RTVSPost2010Prop50
 90
       50
102
RTVSPost2010PropOp50
 70
     1
102
RTVSPost2010Prop51ColorIndex
 90
      256
102
RTVSPost2010Prop51ColorRGB
 90
-16777216
102
RTVSPost2010PropOp51
 70
     0
102
RTVSPost2010Prop52
140
1.0
102
RTVSPost2010PropOp52
 70
     0
102
RTVSPost2010Prop53
 90
        2
102
RTVSPost2010PropOp53
 70
     1
102
RTVSPost2010Prop54
  1
strokes_ogs.tif
102
RTVSPost2010PropOp54
 70
     1
102
RTVSPost2010Prop55
280
     0
102
RTVSPost2010PropOp55
 70
     1
102
RTVSPost2010Prop56
140
1.0
102
RTVSPost2010PropOp56
 70
     1
102
RTVSPost2010Prop57
140
1.0
102
RTVSPost2010PropOp57
 70
     1
102
RTVSPropertyOp0
 70
     1
102
RTVSPropertyOp1
 70
     1
102
RTVSPropertyOp2
 70
     1
102
RTVSPropertyOp3
 70
     1
102
RTVSPropertyOp4
 70
     1
102
RTVSPropertyOp5
 70
     1
102
RTVSPropertyOp6
 70
     1
102
RTVSPropertyOp7
 70
     1
102
RTVSPropertyOp8
 70
     1
102
RTVSPropertyOp9
 70
     1
102
RTVSPropertyOp10
 70
     1
102
RTVSPropertyOp11
 70
     1
102
RTVSPropertyOp12
 70
     1
102
RTVSPropertyOp13
 70
     1
102
RTVSPropertyOp14
 70
     1
102
RTVSPropertyOp15
 70
     1
102
RTVSPropertyOp16
 70
     1
102
RTVSPropertyOp17
 70
     1
102
RTVSPropertyOp18
 70
     1
102
RTVSPropertyOp19
 70
     1
102
RTVSPropertyOp20
 70
     1
102
RTVSPropertyOp21
 70
     1
102
RTVSPropertyOp22
 70
     1
102
RTVSPropertyOp23
 70
     1
102
RTVSPropertyOp24
 70
     1
102
RTVSPropertyOp25
 70
     1
102
RTVSPropertyOp26
 70
     1
102
RTVSPropertyOp27
 70
     1
102
RTVSPropertyOp28
 70
     1
102
RTVSPropertyOp29
 70
     1
102
RTVSPropertyOp30
 70
     1
102
RTVSPropertyOp31
 70
     1
102
RTVSPropertyOp32
 70
     1
102
RTVSPropertyOp33
 70
     1
102
RTVSPropertyOp34
 70
     1
102
RTVSPropertyOp35
 70
     1
102
RTVSPropertyOp36
 70
     1
102
RTVSPropertyOp37
 70
     1
102
RTVSPropertyOp38
 70
     1
102
RTVSPropertyOp39
 70
     1
102
RTVSPropertyOp40
 70
     1
102
RTVSPropertyOp41
 70
     1
102
RTVSPropertyOp42
 70
     1
102
RTVSPropertyOp43
 70
     1
102
RTVSPropertyOp44
 70
     1
102
RTVSPropertyOp45
 70
     1
102
RTVSPropertyOp46
 70
     1
102
RTVSPropertyOp47
 70
     1
102
RTVSPropertyOp48
 70
     1
102
RTVSPropertyOp49
 70
     1
102
RTVSPropertyOp50
 70
     1
102
RTVSPropertyOp51
 70
     0
102
RTVSPropertyOp52
 70
     0
102
RTVSPropertyOp53
 70
     1
102
RTVSPropertyOp54
 70
     1
102
RTVSPropertyOp55
 70
     1
102
RTVSPropertyOp56
 70
     1
102
RTVSPropertyOp57
 70
     1
102
RTVSPropertyOp58
 70
     1
102
RTVSPropertyOp59
 70
     1
102
RTVSPropertyOp60
 70
     1
102
RTVSPropertyOp61
 70
     1
102
RTVSPropertyOp62
 70
     1
  0
XRECORD
  5
2A2A
102
{ACAD_REACTORS
330
2A29
102
}
330
2A29
100
AcDbXrecord
280
     1
102
RTVSPost2010Prop28
280
     0
102
RTVSPost2010PropOp28
 70
     1
102
RTVSPost2010Prop29
280
     1
102
RTVSPost2010PropOp29
 70
     1
102
RTVSPost2010Prop30
280
     1
102
RTVSPost2010PropOp30
 70
     1
102
RTVSPost2010Prop31
280
     0
102
RTVSPost2010PropOp31
 70
     1
102
RTVSPost2010Prop32
280
     0
102
RTVSPost2010PropOp32
 70
     1
102
RTVSPost2010Prop33
280
     0
102
RTVSPost2010PropOp33
 70
     1
102
RTVSPost2010Prop34
280
     0
102
RTVSPost2010PropOp34
 70
     1
102
RTVSPost2010Prop35
280
     0
102
RTVSPost2010PropOp35
 70
     1
102
RTVSPost2010Prop36
280
     0
102
RTVSPost2010PropOp36
 70
     1
102
RTVSPost2010Prop37
 90
       50
102
RTVSPost2010PropOp37
 70
     0
102
RTVSPost2010Prop38
140
0.0
102
RTVSPost2010PropOp38
 70
     0
102
RTVSPost2010Prop39
140
1.0
102
RTVSPost2010PropOp39
 70
     0
102
RTVSPost2010Prop40
 90
        0
102
RTVSPost2010PropOp40
 70
     0
102
RTVSPost2010Prop41ColorIndex
 90
       18
102
RTVSPost2010Prop41ColorRGB
 90
        0
102
RTVSPost2010PropOp41
 70
     0
102
RTVSPost2010Prop42
 90
       50
102
RTVSPost2010PropOp42
 70
     0
102
RTVSPost2010Prop43
 90
        3
102
RTVSPost2010PropOp43
 70
     0
102
RTVSPost2010Prop44ColorIndex
 90
        5
102
RTVSPost2010Prop44ColorRGB
 90
      255
102
RTVSPost2010PropOp44
 70
     0
102
RTVSPost2010Prop45
280
     0
102
RTVSPost2010PropOp45
 70
     1
102
RTVSPost2010Prop46
 90
       50
102
RTVSPost2010PropOp46
 70
     0
102
RTVSPost2010Prop47
 90
       50
102
RTVSPost2010PropOp47
 70
     0
102
RTVSPost2010Prop48
 90
       50
102
RTVSPost2010PropOp48
 70
     0
102
RTVSPost2010Prop49
280
     0
102
RTVSPost2010PropOp49
 70
     1
102
RTVSPost2010Prop50
 90
       50
102
RTVSPost2010PropOp50
 70
     0
102
RTVSPost2010Prop51ColorIndex
 90
      256
102
RTVSPost2010Prop51ColorRGB
 90
-16777216
102
RTVSPost2010PropOp51
 70
     0
102
RTVSPost2010Prop52
140
1.0
102
RTVSPost2010PropOp52
 70
     0
102
RTVSPost2010Prop53
 90
        2
102
RTVSPost2010PropOp53
 70
     0
102
RTVSPost2010Prop54
  1
strokes_ogs.tif
102
RTVSPost2010PropOp54
 70
     0
102
RTVSPost2010Prop55
280
     0
102
RTVSPost2010PropOp55
 70
     1
102
RTVSPost2010Prop56
140
1.0
102
RTVSPost2010PropOp56
 70
     0
102
RTVSPost2010Prop57
140
1.0
102
RTVSPost2010PropOp57
 70
     0
102
RTVSPropertyOp0
 70
     0
102
RTVSPropertyOp1
 70
     0
102
RTVSPropertyOp2
 70
     0
102
RTVSPropertyOp3
 70
     0
102
RTVSPropertyOp4
 70
     0
102
RTVSPropertyOp5
 70
     0
102
RTVSPropertyOp6
 70
     0
102
RTVSPropertyOp7
 70
     0
102
RTVSPropertyOp8
 70
     0
102
RTVSPropertyOp9
 70
     0
102
RTVSPropertyOp10
 70
     0
102
RTVSPropertyOp11
 70
     0
102
RTVSPropertyOp12
 70
     0
102
RTVSPropertyOp13
 70
     0
102
RTVSPropertyOp14
 70
     2
102
RTVSPropertyOp15
 70
     0
102
RTVSPropertyOp16
 70
     0
102
RTVSPropertyOp17
 70
     0
102
RTVSPropertyOp18
 70
     0
102
RTVSPropertyOp19
 70
     0
102
RTVSPropertyOp20
 70
     0
102
RTVSPropertyOp21
 70
     0
102
RTVSPropertyOp22
 70
     0
102
RTVSPropertyOp23
 70
     0
102
RTVSPropertyOp24
 70
     0
102
RTVSPropertyOp25
 70
     0
102
RTVSPropertyOp26
 70
     0
102
RTVSPropertyOp27
 70
     0
102
RTVSPropertyOp28
 70
     1
102
RTVSPropertyOp29
 70
     1
102
RTVSPropertyOp30
 70
     1
102
RTVSPropertyOp31
 70
     1
102
RTVSPropertyOp32
 70
     1
102
RTVSPropertyOp33
 70
     1
102
RTVSPropertyOp34
 70
     1
102
RTVSPropertyOp35
 70
     1
102
RTVSPropertyOp36
 70
     1
102
RTVSPropertyOp37
 70
     0
102
RTVSPropertyOp38
 70
     0
102
RTVSPropertyOp39
 70
     0
102
RTVSPropertyOp40
 70
     0
102
RTVSPropertyOp41
 70
     0
102
RTVSPropertyOp42
 70
     0
102
RTVSPropertyOp43
 70
     0
102
RTVSPropertyOp44
 70
     0
102
RTVSPropertyOp45
 70
     1
102
RTVSPropertyOp46
 70
     0
102
RTVSPropertyOp47
 70
     0
102
RTVSPropertyOp48
 70
     0
102
RTVSPropertyOp49
 70
     1
102
RTVSPropertyOp50
 70
     0
102
RTVSPropertyOp51
 70
     0
102
RTVSPropertyOp52
 70
     0
102
RTVSPropertyOp53
 70
     0
102
RTVSPropertyOp54
 70
     0
102
RTVSPropertyOp55
 70
     1
102
RTVSPropertyOp56
 70
     0
102
RTVSPropertyOp57
 70
     0
102
RTVSPropertyOp58
 70
     0
102
RTVSPropertyOp59
 70
     0
102
RTVSPropertyOp60
 70
     0
102
RTVSPropertyOp61
 70
     0
102
RTVSPropertyOp62
 70
     0
  0
XRECORD
  5
2A10
102
{ACAD_REACTORS
330
2A0F
102
}
330
2A0F
100
AcDbXrecord
280
     1
102
RTVSPost2010Prop28
280
     0
102
RTVSPost2010PropOp28
 70
     1
102
RTVSPost2010Prop29
280
     1
102
RTVSPost2010PropOp29
 70
     1
102
RTVSPost2010Prop30
280
     1
102
RTVSPost2010PropOp30
 70
     1
102
RTVSPost2010Prop31
280
     0
102
RTVSPost2010PropOp31
 70
     1
102
RTVSPost2010Prop32
280
     0
102
RTVSPost2010PropOp32
 70
     1
102
RTVSPost2010Prop33
280
     0
102
RTVSPost2010PropOp33
 70
     1
102
RTVSPost2010Prop34
280
     0
102
RTVSPost2010PropOp34
 70
     1
102
RTVSPost2010Prop35
280
     0
102
RTVSPost2010PropOp35
 70
     1
102
RTVSPost2010Prop36
280
     0
102
RTVSPost2010PropOp36
 70
     1
102
RTVSPost2010Prop37
 90
       50
102
RTVSPost2010PropOp37
 70
     1
102
RTVSPost2010Prop38
140
0.0
102
RTVSPost2010PropOp38
 70
     1
102
RTVSPost2010Prop39
140
1.0
102
RTVSPost2010PropOp39
 70
     1
102
RTVSPost2010Prop40
 90
        0
102
RTVSPost2010PropOp40
 70
     1
102
RTVSPost2010Prop41ColorIndex
 90
       18
102
RTVSPost2010Prop41ColorRGB
 90
        0
102
RTVSPost2010PropOp41
 70
     1
102
RTVSPost2010Prop42
 90
       50
102
RTVSPost2010PropOp42
 70
     1
102
RTVSPost2010Prop43
 90
        3
102
RTVSPost2010PropOp43
 70
     1
102
RTVSPost2010Prop44ColorIndex
 90
        5
102
RTVSPost2010Prop44ColorRGB
 90
      255
102
RTVSPost2010PropOp44
 70
     1
102
RTVSPost2010Prop45
280
     0
102
RTVSPost2010PropOp45
 70
     1
102
RTVSPost2010Prop46
 90
       50
102
RTVSPost2010PropOp46
 70
     1
102
RTVSPost2010Prop47
 90
       50
102
RTVSPost2010PropOp47
 70
     1
102
RTVSPost2010Prop48
 90
       50
102
RTVSPost2010PropOp48
 70
     1
102
RTVSPost2010Prop49
280
     0
102
RTVSPost2010PropOp49
 70
     1
102
RTVSPost2010Prop50
 90
       50
102
RTVSPost2010PropOp50
 70
     1
102
RTVSPost2010Prop51ColorIndex
 90
      256
102
RTVSPost2010Prop51ColorRGB
 90
-16777216
102
RTVSPost2010PropOp51
 70
     0
102
RTVSPost2010Prop52
140
1.0
102
RTVSPost2010PropOp52
 70
     0
102
RTVSPost2010Prop53
 90
        2
102
RTVSPost2010PropOp53
 70
     1
102
RTVSPost2010Prop54
  1
strokes_ogs.tif
102
RTVSPost2010PropOp54
 70
     1
102
RTVSPost2010Prop55
280
     0
102
RTVSPost2010PropOp55
 70
     1
102
RTVSPost2010Prop56
140
1.0
102
RTVSPost2010PropOp56
 70
     1
102
RTVSPost2010Prop57
140
1.0
102
RTVSPost2010PropOp57
 70
     1
102
RTVSPropertyOp0
 70
     1
102
RTVSPropertyOp1
 70
     1
102
RTVSPropertyOp2
 70
     1
102
RTVSPropertyOp3
 70
     1
102
RTVSPropertyOp4
 70
     1
102
RTVSPropertyOp5
 70
     1
102
RTVSPropertyOp6
 70
     1
102
RTVSPropertyOp7
 70
     1
102
RTVSPropertyOp8
 70
     1
102
RTVSPropertyOp9
 70
     1
102
RTVSPropertyOp10
 70
     1
102
RTVSPropertyOp11
 70
     1
102
RTVSPropertyOp12
 70
     1
102
RTVSPropertyOp13
 70
     1
102
RTVSPropertyOp14
 70
     1
102
RTVSPropertyOp15
 70
     1
102
RTVSPropertyOp16
 70
     1
102
RTVSPropertyOp17
 70
     1
102
RTVSPropertyOp18
 70
     1
102
RTVSPropertyOp19
 70
     1
102
RTVSPropertyOp20
 70
     1
102
RTVSPropertyOp21
 70
     1
102
RTVSPropertyOp22
 70
     1
102
RTVSPropertyOp23
 70
     1
102
RTVSPropertyOp24
 70
     1
102
RTVSPropertyOp25
 70
     1
102
RTVSPropertyOp26
 70
     1
102
RTVSPropertyOp27
 70
     1
102
RTVSPropertyOp28
 70
     1
102
RTVSPropertyOp29
 70
     1
102
RTVSPropertyOp30
 70
     1
102
RTVSPropertyOp31
 70
     1
102
RTVSPropertyOp32
 70
     1
102
RTVSPropertyOp33
 70
     1
102
RTVSPropertyOp34
 70
     1
102
RTVSPropertyOp35
 70
     1
102
RTVSPropertyOp36
 70
     1
102
RTVSPropertyOp37
 70
     1
102
RTVSPropertyOp38
 70
     1
102
RTVSPropertyOp39
 70
     1
102
RTVSPropertyOp40
 70
     1
102
RTVSPropertyOp41
 70
     1
102
RTVSPropertyOp42
 70
     1
102
RTVSPropertyOp43
 70
     1
102
RTVSPropertyOp44
 70
     1
102
RTVSPropertyOp45
 70
     1
102
RTVSPropertyOp46
 70
     1
102
RTVSPropertyOp47
 70
     1
102
RTVSPropertyOp48
 70
     1
102
RTVSPropertyOp49
 70
     1
102
RTVSPropertyOp50
 70
     1
102
RTVSPropertyOp51
 70
     0
102
RTVSPropertyOp52
 70
     0
102
RTVSPropertyOp53
 70
     1
102
RTVSPropertyOp54
 70
     1
102
RTVSPropertyOp55
 70
     1
102
RTVSPropertyOp56
 70
     1
102
RTVSPropertyOp57
 70
     1
102
RTVSPropertyOp58
 70
     1
102
RTVSPropertyOp59
 70
     1
102
RTVSPropertyOp60
 70
     1
102
RTVSPropertyOp61
 70
     1
102
RTVSPropertyOp62
 70
     1
  0
XRECORD
  5
2A26
102
{ACAD_REACTORS
330
2A25
102
}
330
2A25
100
AcDbXrecord
280
     1
102
RTVSPost2010Prop28
280
     0
102
RTVSPost2010PropOp28
 70
     1
102
RTVSPost2010Prop29
280
     1
102
RTVSPost2010PropOp29
 70
     1
102
RTVSPost2010Prop30
280
     1
102
RTVSPost2010PropOp30
 70
     1
102
RTVSPost2010Prop31
280
     0
102
RTVSPost2010PropOp31
 70
     1
102
RTVSPost2010Prop32
280
     0
102
RTVSPost2010PropOp32
 70
     1
102
RTVSPost2010Prop33
280
     0
102
RTVSPost2010PropOp33
 70
     1
102
RTVSPost2010Prop34
280
     0
102
RTVSPost2010PropOp34
 70
     1
102
RTVSPost2010Prop35
280
     0
102
RTVSPost2010PropOp35
 70
     1
102
RTVSPost2010Prop36
280
     0
102
RTVSPost2010PropOp36
 70
     1
102
RTVSPost2010Prop37
 90
       50
102
RTVSPost2010PropOp37
 70
     1
102
RTVSPost2010Prop38
140
0.0
102
RTVSPost2010PropOp38
 70
     1
102
RTVSPost2010Prop39
140
1.0
102
RTVSPost2010PropOp39
 70
     1
102
RTVSPost2010Prop40
 90
        0
102
RTVSPost2010PropOp40
 70
     1
102
RTVSPost2010Prop41ColorIndex
 90
       18
102
RTVSPost2010Prop41ColorRGB
 90
        0
102
RTVSPost2010PropOp41
 70
     1
102
RTVSPost2010Prop42
 90
       50
102
RTVSPost2010PropOp42
 70
     1
102
RTVSPost2010Prop43
 90
        3
102
RTVSPost2010PropOp43
 70
     1
102
RTVSPost2010Prop44ColorIndex
 90
        5
102
RTVSPost2010Prop44ColorRGB
 90
      255
102
RTVSPost2010PropOp44
 70
     1
102
RTVSPost2010Prop45
280
     0
102
RTVSPost2010PropOp45
 70
     1
102
RTVSPost2010Prop46
 90
       50
102
RTVSPost2010PropOp46
 70
     1
102
RTVSPost2010Prop47
 90
       50
102
RTVSPost2010PropOp47
 70
     1
102
RTVSPost2010Prop48
 90
       50
102
RTVSPost2010PropOp48
 70
     1
102
RTVSPost2010Prop49
280
     0
102
RTVSPost2010PropOp49
 70
     1
102
RTVSPost2010Prop50
 90
       50
102
RTVSPost2010PropOp50
 70
     1
102
RTVSPost2010Prop51ColorIndex
 90
      256
102
RTVSPost2010Prop51ColorRGB
 90
-16777216
102
RTVSPost2010PropOp51
 70
     0
102
RTVSPost2010Prop52
140
1.0
102
RTVSPost2010PropOp52
 70
     0
102
RTVSPost2010Prop53
 90
        2
102
RTVSPost2010PropOp53
 70
     1
102
RTVSPost2010Prop54
  1
strokes_ogs.tif
102
RTVSPost2010PropOp54
 70
     1
102
RTVSPost2010Prop55
280
     0
102
RTVSPost2010PropOp55
 70
     1
102
RTVSPost2010Prop56
140
1.0
102
RTVSPost2010PropOp56
 70
     1
102
RTVSPost2010Prop57
140
1.0
102
RTVSPost2010PropOp57
 70
     1
102
RTVSPropertyOp0
 70
     1
102
RTVSPropertyOp1
 70
     1
102
RTVSPropertyOp2
 70
     1
102
RTVSPropertyOp3
 70
     1
102
RTVSPropertyOp4
 70
     1
102
RTVSPropertyOp5
 70
     1
102
RTVSPropertyOp6
 70
     1
102
RTVSPropertyOp7
 70
     1
102
RTVSPropertyOp8
 70
     1
102
RTVSPropertyOp9
 70
     1
102
RTVSPropertyOp10
 70
     1
102
RTVSPropertyOp11
 70
     1
102
RTVSPropertyOp12
 70
     1
102
RTVSPropertyOp13
 70
     1
102
RTVSPropertyOp14
 70
     1
102
RTVSPropertyOp15
 70
     1
102
RTVSPropertyOp16
 70
     1
102
RTVSPropertyOp17
 70
     1
102
RTVSPropertyOp18
 70
     1
102
RTVSPropertyOp19
 70
     1
102
RTVSPropertyOp20
 70
     1
102
RTVSPropertyOp21
 70
     1
102
RTVSPropertyOp22
 70
     1
102
RTVSPropertyOp23
 70
     1
102
RTVSPropertyOp24
 70
     1
102
RTVSPropertyOp25
 70
     1
102
RTVSPropertyOp26
 70
     1
102
RTVSPropertyOp27
 70
     1
102
RTVSPropertyOp28
 70
     1
102
RTVSPropertyOp29
 70
     1
102
RTVSPropertyOp30
 70
     1
102
RTVSPropertyOp31
 70
     1
102
RTVSPropertyOp32
 70
     1
102
RTVSPropertyOp33
 70
     1
102
RTVSPropertyOp34
 70
     1
102
RTVSPropertyOp35
 70
     1
102
RTVSPropertyOp36
 70
     1
102
RTVSPropertyOp37
 70
     1
102
RTVSPropertyOp38
 70
     1
102
RTVSPropertyOp39
 70
     1
102
RTVSPropertyOp40
 70
     1
102
RTVSPropertyOp41
 70
     1
102
RTVSPropertyOp42
 70
     1
102
RTVSPropertyOp43
 70
     1
102
RTVSPropertyOp44
 70
     1
102
RTVSPropertyOp45
 70
     1
102
RTVSPropertyOp46
 70
     1
102
RTVSPropertyOp47
 70
     1
102
RTVSPropertyOp48
 70
     1
102
RTVSPropertyOp49
 70
     1
102
RTVSPropertyOp50
 70
     1
102
RTVSPropertyOp51
 70
     0
102
RTVSPropertyOp52
 70
     0
102
RTVSPropertyOp53
 70
     1
102
RTVSPropertyOp54
 70
     1
102
RTVSPropertyOp55
 70
     1
102
RTVSPropertyOp56
 70
     1
102
RTVSPropertyOp57
 70
     1
102
RTVSPropertyOp58
 70
     1
102
RTVSPropertyOp59
 70
     1
102
RTVSPropertyOp60
 70
     1
102
RTVSPropertyOp61
 70
     1
102
RTVSPropertyOp62
 70
     1
  0
XRECORD
  5
2A24
102
{ACAD_REACTORS
330
2A23
102
}
330
2A23
100
AcDbXrecord
280
     1
102
RTVSPost2010Prop28
280
     0
102
RTVSPost2010PropOp28
 70
     1
102
RTVSPost2010Prop29
280
     1
102
RTVSPost2010PropOp29
 70
     1
102
RTVSPost2010Prop30
280
     1
102
RTVSPost2010PropOp30
 70
     1
102
RTVSPost2010Prop31
280
     0
102
RTVSPost2010PropOp31
 70
     1
102
RTVSPost2010Prop32
280
     0
102
RTVSPost2010PropOp32
 70
     1
102
RTVSPost2010Prop33
280
     0
102
RTVSPost2010PropOp33
 70
     1
102
RTVSPost2010Prop34
280
     0
102
RTVSPost2010PropOp34
 70
     1
102
RTVSPost2010Prop35
280
     0
102
RTVSPost2010PropOp35
 70
     1
102
RTVSPost2010Prop36
280
     0
102
RTVSPost2010PropOp36
 70
     1
102
RTVSPost2010Prop37
 90
       50
102
RTVSPost2010PropOp37
 70
     1
102
RTVSPost2010Prop38
140
0.0
102
RTVSPost2010PropOp38
 70
     1
102
RTVSPost2010Prop39
140
1.0
102
RTVSPost2010PropOp39
 70
     1
102
RTVSPost2010Prop40
 90
        0
102
RTVSPost2010PropOp40
 70
     1
102
RTVSPost2010Prop41ColorIndex
 90
       18
102
RTVSPost2010Prop41ColorRGB
 90
        0
102
RTVSPost2010PropOp41
 70
     1
102
RTVSPost2010Prop42
 90
       50
102
RTVSPost2010PropOp42
 70
     1
102
RTVSPost2010Prop43
 90
        3
102
RTVSPost2010PropOp43
 70
     1
102
RTVSPost2010Prop44ColorIndex
 90
        5
102
RTVSPost2010Prop44ColorRGB
 90
      255
102
RTVSPost2010PropOp44
 70
     1
102
RTVSPost2010Prop45
280
     0
102
RTVSPost2010PropOp45
 70
     1
102
RTVSPost2010Prop46
 90
       50
102
RTVSPost2010PropOp46
 70
     1
102
RTVSPost2010Prop47
 90
       50
102
RTVSPost2010PropOp47
 70
     1
102
RTVSPost2010Prop48
 90
       50
102
RTVSPost2010PropOp48
 70
     1
102
RTVSPost2010Prop49
280
     0
102
RTVSPost2010PropOp49
 70
     1
102
RTVSPost2010Prop50
 90
       50
102
RTVSPost2010PropOp50
 70
     1
102
RTVSPost2010Prop51ColorIndex
 90
      256
102
RTVSPost2010Prop51ColorRGB
 90
-16777216
102
RTVSPost2010PropOp51
 70
     0
102
RTVSPost2010Prop52
140
1.0
102
RTVSPost2010PropOp52
 70
     0
102
RTVSPost2010Prop53
 90
        2
102
RTVSPost2010PropOp53
 70
     1
102
RTVSPost2010Prop54
  1
strokes_ogs.tif
102
RTVSPost2010PropOp54
 70
     1
102
RTVSPost2010Prop55
280
     0
102
RTVSPost2010PropOp55
 70
     1
102
RTVSPost2010Prop56
140
1.0
102
RTVSPost2010PropOp56
 70
     1
102
RTVSPost2010Prop57
140
1.0
102
RTVSPost2010PropOp57
 70
     1
102
RTVSPropertyOp0
 70
     1
102
RTVSPropertyOp1
 70
     1
102
RTVSPropertyOp2
 70
     1
102
RTVSPropertyOp3
 70
     1
102
RTVSPropertyOp4
 70
     1
102
RTVSPropertyOp5
 70
     1
102
RTVSPropertyOp6
 70
     1
102
RTVSPropertyOp7
 70
     1
102
RTVSPropertyOp8
 70
     1
102
RTVSPropertyOp9
 70
     1
102
RTVSPropertyOp10
 70
     1
102
RTVSPropertyOp11
 70
     1
102
RTVSPropertyOp12
 70
     1
102
RTVSPropertyOp13
 70
     1
102
RTVSPropertyOp14
 70
     1
102
RTVSPropertyOp15
 70
     1
102
RTVSPropertyOp16
 70
     1
102
RTVSPropertyOp17
 70
     1
102
RTVSPropertyOp18
 70
     1
102
RTVSPropertyOp19
 70
     1
102
RTVSPropertyOp20
 70
     1
102
RTVSPropertyOp21
 70
     1
102
RTVSPropertyOp22
 70
     1
102
RTVSPropertyOp23
 70
     1
102
RTVSPropertyOp24
 70
     1
102
RTVSPropertyOp25
 70
     1
102
RTVSPropertyOp26
 70
     1
102
RTVSPropertyOp27
 70
     1
102
RTVSPropertyOp28
 70
     1
102
RTVSPropertyOp29
 70
     1
102
RTVSPropertyOp30
 70
     1
102
RTVSPropertyOp31
 70
     1
102
RTVSPropertyOp32
 70
     1
102
RTVSPropertyOp33
 70
     1
102
RTVSPropertyOp34
 70
     1
102
RTVSPropertyOp35
 70
     1
102
RTVSPropertyOp36
 70
     1
102
RTVSPropertyOp37
 70
     1
102
RTVSPropertyOp38
 70
     1
102
RTVSPropertyOp39
 70
     1
102
RTVSPropertyOp40
 70
     1
102
RTVSPropertyOp41
 70
     1
102
RTVSPropertyOp42
 70
     1
102
RTVSPropertyOp43
 70
     1
102
RTVSPropertyOp44
 70
     1
102
RTVSPropertyOp45
 70
     1
102
RTVSPropertyOp46
 70
     1
102
RTVSPropertyOp47
 70
     1
102
RTVSPropertyOp48
 70
     1
102
RTVSPropertyOp49
 70
     1
102
RTVSPropertyOp50
 70
     1
102
RTVSPropertyOp51
 70
     0
102
RTVSPropertyOp52
 70
     0
102
RTVSPropertyOp53
 70
     1
102
RTVSPropertyOp54
 70
     1
102
RTVSPropertyOp55
 70
     1
102
RTVSPropertyOp56
 70
     1
102
RTVSPropertyOp57
 70
     1
102
RTVSPropertyOp58
 70
     1
102
RTVSPropertyOp59
 70
     1
102
RTVSPropertyOp60
 70
     1
102
RTVSPropertyOp61
 70
     1
102
RTVSPropertyOp62
 70
     1
  0
XRECORD
  5
2A1E
102
{ACAD_REACTORS
330
2A1D
102
}
330
2A1D
100
AcDbXrecord
280
     1
102
RTVSPost2010Prop28
280
     0
102
RTVSPost2010PropOp28
 70
     1
102
RTVSPost2010Prop29
280
     1
102
RTVSPost2010PropOp29
 70
     1
102
RTVSPost2010Prop30
280
     1
102
RTVSPost2010PropOp30
 70
     1
102
RTVSPost2010Prop31
280
     0
102
RTVSPost2010PropOp31
 70
     1
102
RTVSPost2010Prop32
280
     0
102
RTVSPost2010PropOp32
 70
     1
102
RTVSPost2010Prop33
280
     0
102
RTVSPost2010PropOp33
 70
     1
102
RTVSPost2010Prop34
280
     0
102
RTVSPost2010PropOp34
 70
     1
102
RTVSPost2010Prop35
280
     0
102
RTVSPost2010PropOp35
 70
     1
102
RTVSPost2010Prop36
280
     0
102
RTVSPost2010PropOp36
 70
     1
102
RTVSPost2010Prop37
 90
       50
102
RTVSPost2010PropOp37
 70
     1
102
RTVSPost2010Prop38
140
0.0
102
RTVSPost2010PropOp38
 70
     1
102
RTVSPost2010Prop39
140
1.0
102
RTVSPost2010PropOp39
 70
     1
102
RTVSPost2010Prop40
 90
        0
102
RTVSPost2010PropOp40
 70
     1
102
RTVSPost2010Prop41ColorIndex
 90
       18
102
RTVSPost2010Prop41ColorRGB
 90
        0
102
RTVSPost2010PropOp41
 70
     1
102
RTVSPost2010Prop42
 90
       50
102
RTVSPost2010PropOp42
 70
     1
102
RTVSPost2010Prop43
 90
        3
102
RTVSPost2010PropOp43
 70
     1
102
RTVSPost2010Prop44ColorIndex
 90
        5
102
RTVSPost2010Prop44ColorRGB
 90
      255
102
RTVSPost2010PropOp44
 70
     1
102
RTVSPost2010Prop45
280
     0
102
RTVSPost2010PropOp45
 70
     1
102
RTVSPost2010Prop46
 90
       50
102
RTVSPost2010PropOp46
 70
     1
102
RTVSPost2010Prop47
 90
       50
102
RTVSPost2010PropOp47
 70
     1
102
RTVSPost2010Prop48
 90
       50
102
RTVSPost2010PropOp48
 70
     1
102
RTVSPost2010Prop49
280
     0
102
RTVSPost2010PropOp49
 70
     1
102
RTVSPost2010Prop50
 90
       50
102
RTVSPost2010PropOp50
 70
     1
102
RTVSPost2010Prop51ColorIndex
 90
      256
102
RTVSPost2010Prop51ColorRGB
 90
-16777216
102
RTVSPost2010PropOp51
 70
     0
102
RTVSPost2010Prop52
140
1.0
102
RTVSPost2010PropOp52
 70
     0
102
RTVSPost2010Prop53
 90
        2
102
RTVSPost2010PropOp53
 70
     1
102
RTVSPost2010Prop54
  1
strokes_ogs.tif
102
RTVSPost2010PropOp54
 70
     1
102
RTVSPost2010Prop55
280
     0
102
RTVSPost2010PropOp55
 70
     1
102
RTVSPost2010Prop56
140
1.0
102
RTVSPost2010PropOp56
 70
     1
102
RTVSPost2010Prop57
140
1.0
102
RTVSPost2010PropOp57
 70
     1
102
RTVSPropertyOp0
 70
     1
102
RTVSPropertyOp1
 70
     1
102
RTVSPropertyOp2
 70
     1
102
RTVSPropertyOp3
 70
     1
102
RTVSPropertyOp4
 70
     1
102
RTVSPropertyOp5
 70
     1
102
RTVSPropertyOp6
 70
     1
102
RTVSPropertyOp7
 70
     1
102
RTVSPropertyOp8
 70
     1
102
RTVSPropertyOp9
 70
     1
102
RTVSPropertyOp10
 70
     1
102
RTVSPropertyOp11
 70
     1
102
RTVSPropertyOp12
 70
     1
102
RTVSPropertyOp13
 70
     1
102
RTVSPropertyOp14
 70
     1
102
RTVSPropertyOp15
 70
     1
102
RTVSPropertyOp16
 70
     1
102
RTVSPropertyOp17
 70
     1
102
RTVSPropertyOp18
 70
     1
102
RTVSPropertyOp19
 70
     1
102
RTVSPropertyOp20
 70
     1
102
RTVSPropertyOp21
 70
     1
102
RTVSPropertyOp22
 70
     1
102
RTVSPropertyOp23
 70
     1
102
RTVSPropertyOp24
 70
     1
102
RTVSPropertyOp25
 70
     1
102
RTVSPropertyOp26
 70
     1
102
RTVSPropertyOp27
 70
     1
102
RTVSPropertyOp28
 70
     1
102
RTVSPropertyOp29
 70
     1
102
RTVSPropertyOp30
 70
     1
102
RTVSPropertyOp31
 70
     1
102
RTVSPropertyOp32
 70
     1
102
RTVSPropertyOp33
 70
     1
102
RTVSPropertyOp34
 70
     1
102
RTVSPropertyOp35
 70
     1
102
RTVSPropertyOp36
 70
     1
102
RTVSPropertyOp37
 70
     1
102
RTVSPropertyOp38
 70
     1
102
RTVSPropertyOp39
 70
     1
102
RTVSPropertyOp40
 70
     1
102
RTVSPropertyOp41
 70
     1
102
RTVSPropertyOp42
 70
     1
102
RTVSPropertyOp43
 70
     1
102
RTVSPropertyOp44
 70
     1
102
RTVSPropertyOp45
 70
     1
102
RTVSPropertyOp46
 70
     1
102
RTVSPropertyOp47
 70
     1
102
RTVSPropertyOp48
 70
     1
102
RTVSPropertyOp49
 70
     1
102
RTVSPropertyOp50
 70
     1
102
RTVSPropertyOp51
 70
     0
102
RTVSPropertyOp52
 70
     0
102
RTVSPropertyOp53
 70
     1
102
RTVSPropertyOp54
 70
     1
102
RTVSPropertyOp55
 70
     1
102
RTVSPropertyOp56
 70
     1
102
RTVSPropertyOp57
 70
     1
102
RTVSPropertyOp58
 70
     1
102
RTVSPropertyOp59
 70
     1
102
RTVSPropertyOp60
 70
     1
102
RTVSPropertyOp61
 70
     1
102
RTVSPropertyOp62
 70
     1
  0
XRECORD
  5
2A20
102
{ACAD_REACTORS
330
2A1F
102
}
330
2A1F
100
AcDbXrecord
280
     1
102
RTVSPost2010Prop28
280
     0
102
RTVSPost2010PropOp28
 70
     1
102
RTVSPost2010Prop29
280
     1
102
RTVSPost2010PropOp29
 70
     1
102
RTVSPost2010Prop30
280
     1
102
RTVSPost2010PropOp30
 70
     1
102
RTVSPost2010Prop31
280
     0
102
RTVSPost2010PropOp31
 70
     1
102
RTVSPost2010Prop32
280
     0
102
RTVSPost2010PropOp32
 70
     1
102
RTVSPost2010Prop33
280
     0
102
RTVSPost2010PropOp33
 70
     1
102
RTVSPost2010Prop34
280
     0
102
RTVSPost2010PropOp34
 70
     1
102
RTVSPost2010Prop35
280
     0
102
RTVSPost2010PropOp35
 70
     1
102
RTVSPost2010Prop36
280
     0
102
RTVSPost2010PropOp36
 70
     1
102
RTVSPost2010Prop37
 90
       50
102
RTVSPost2010PropOp37
 70
     1
102
RTVSPost2010Prop38
140
0.0
102
RTVSPost2010PropOp38
 70
     1
102
RTVSPost2010Prop39
140
1.0
102
RTVSPost2010PropOp39
 70
     1
102
RTVSPost2010Prop40
 90
        0
102
RTVSPost2010PropOp40
 70
     1
102
RTVSPost2010Prop41ColorIndex
 90
       18
102
RTVSPost2010Prop41ColorRGB
 90
        0
102
RTVSPost2010PropOp41
 70
     1
102
RTVSPost2010Prop42
 90
       50
102
RTVSPost2010PropOp42
 70
     1
102
RTVSPost2010Prop43
 90
        3
102
RTVSPost2010PropOp43
 70
     1
102
RTVSPost2010Prop44ColorIndex
 90
        5
102
RTVSPost2010Prop44ColorRGB
 90
      255
102
RTVSPost2010PropOp44
 70
     1
102
RTVSPost2010Prop45
280
     0
102
RTVSPost2010PropOp45
 70
     1
102
RTVSPost2010Prop46
 90
       50
102
RTVSPost2010PropOp46
 70
     1
102
RTVSPost2010Prop47
 90
       50
102
RTVSPost2010PropOp47
 70
     1
102
RTVSPost2010Prop48
 90
       50
102
RTVSPost2010PropOp48
 70
     1
102
RTVSPost2010Prop49
280
     0
102
RTVSPost2010PropOp49
 70
     1
102
RTVSPost2010Prop50
 90
       50
102
RTVSPost2010PropOp50
 70
     1
102
RTVSPost2010Prop51ColorIndex
 90
      256
102
RTVSPost2010Prop51ColorRGB
 90
-16777216
102
RTVSPost2010PropOp51
 70
     0
102
RTVSPost2010Prop52
140
1.0
102
RTVSPost2010PropOp52
 70
     0
102
RTVSPost2010Prop53
 90
        2
102
RTVSPost2010PropOp53
 70
     1
102
RTVSPost2010Prop54
  1
strokes_ogs.tif
102
RTVSPost2010PropOp54
 70
     1
102
RTVSPost2010Prop55
280
     0
102
RTVSPost2010PropOp55
 70
     1
102
RTVSPost2010Prop56
140
1.0
102
RTVSPost2010PropOp56
 70
     1
102
RTVSPost2010Prop57
140
1.0
102
RTVSPost2010PropOp57
 70
     1
102
RTVSPropertyOp0
 70
     1
102
RTVSPropertyOp1
 70
     1
102
RTVSPropertyOp2
 70
     1
102
RTVSPropertyOp3
 70
     1
102
RTVSPropertyOp4
 70
     1
102
RTVSPropertyOp5
 70
     1
102
RTVSPropertyOp6
 70
     1
102
RTVSPropertyOp7
 70
     1
102
RTVSPropertyOp8
 70
     1
102
RTVSPropertyOp9
 70
     1
102
RTVSPropertyOp10
 70
     1
102
RTVSPropertyOp11
 70
     1
102
RTVSPropertyOp12
 70
     1
102
RTVSPropertyOp13
 70
     1
102
RTVSPropertyOp14
 70
     1
102
RTVSPropertyOp15
 70
     1
102
RTVSPropertyOp16
 70
     1
102
RTVSPropertyOp17
 70
     1
102
RTVSPropertyOp18
 70
     1
102
RTVSPropertyOp19
 70
     1
102
RTVSPropertyOp20
 70
     1
102
RTVSPropertyOp21
 70
     1
102
RTVSPropertyOp22
 70
     1
102
RTVSPropertyOp23
 70
     1
102
RTVSPropertyOp24
 70
     1
102
RTVSPropertyOp25
 70
     1
102
RTVSPropertyOp26
 70
     1
102
RTVSPropertyOp27
 70
     1
102
RTVSPropertyOp28
 70
     1
102
RTVSPropertyOp29
 70
     1
102
RTVSPropertyOp30
 70
     1
102
RTVSPropertyOp31
 70
     1
102
RTVSPropertyOp32
 70
     1
102
RTVSPropertyOp33
 70
     1
102
RTVSPropertyOp34
 70
     1
102
RTVSPropertyOp35
 70
     1
102
RTVSPropertyOp36
 70
     1
102
RTVSPropertyOp37
 70
     1
102
RTVSPropertyOp38
 70
     1
102
RTVSPropertyOp39
 70
     1
102
RTVSPropertyOp40
 70
     1
102
RTVSPropertyOp41
 70
     1
102
RTVSPropertyOp42
 70
     1
102
RTVSPropertyOp43
 70
     1
102
RTVSPropertyOp44
 70
     1
102
RTVSPropertyOp45
 70
     1
102
RTVSPropertyOp46
 70
     1
102
RTVSPropertyOp47
 70
     1
102
RTVSPropertyOp48
 70
     1
102
RTVSPropertyOp49
 70
     1
102
RTVSPropertyOp50
 70
     1
102
RTVSPropertyOp51
 70
     0
102
RTVSPropertyOp52
 70
     0
102
RTVSPropertyOp53
 70
     1
102
RTVSPropertyOp54
 70
     1
102
RTVSPropertyOp55
 70
     1
102
RTVSPropertyOp56
 70
     1
102
RTVSPropertyOp57
 70
     1
102
RTVSPropertyOp58
 70
     1
102
RTVSPropertyOp59
 70
     1
102
RTVSPropertyOp60
 70
     1
102
RTVSPropertyOp61
 70
     1
102
RTVSPropertyOp62
 70
     1
  0
XRECORD
  5
2A16
102
{ACAD_REACTORS
330
2A15
102
}
330
2A15
100
AcDbXrecord
280
     1
102
RTVSPost2010Prop28
280
     0
102
RTVSPost2010PropOp28
 70
     1
102
RTVSPost2010Prop29
280
     1
102
RTVSPost2010PropOp29
 70
     1
102
RTVSPost2010Prop30
280
     1
102
RTVSPost2010PropOp30
 70
     1
102
RTVSPost2010Prop31
280
     0
102
RTVSPost2010PropOp31
 70
     1
102
RTVSPost2010Prop32
280
     0
102
RTVSPost2010PropOp32
 70
     1
102
RTVSPost2010Prop33
280
     0
102
RTVSPost2010PropOp33
 70
     1
102
RTVSPost2010Prop34
280
     0
102
RTVSPost2010PropOp34
 70
     1
102
RTVSPost2010Prop35
280
     0
102
RTVSPost2010PropOp35
 70
     1
102
RTVSPost2010Prop36
280
     0
102
RTVSPost2010PropOp36
 70
     1
102
RTVSPost2010Prop37
 90
       50
102
RTVSPost2010PropOp37
 70
     1
102
RTVSPost2010Prop38
140
0.0
102
RTVSPost2010PropOp38
 70
     1
102
RTVSPost2010Prop39
140
1.0
102
RTVSPost2010PropOp39
 70
     1
102
RTVSPost2010Prop40
 90
        0
102
RTVSPost2010PropOp40
 70
     1
102
RTVSPost2010Prop41ColorIndex
 90
       18
102
RTVSPost2010Prop41ColorRGB
 90
        0
102
RTVSPost2010PropOp41
 70
     1
102
RTVSPost2010Prop42
 90
       50
102
RTVSPost2010PropOp42
 70
     1
102
RTVSPost2010Prop43
 90
        3
102
RTVSPost2010PropOp43
 70
     1
102
RTVSPost2010Prop44ColorIndex
 90
        5
102
RTVSPost2010Prop44ColorRGB
 90
      255
102
RTVSPost2010PropOp44
 70
     1
102
RTVSPost2010Prop45
280
     0
102
RTVSPost2010PropOp45
 70
     1
102
RTVSPost2010Prop46
 90
       50
102
RTVSPost2010PropOp46
 70
     1
102
RTVSPost2010Prop47
 90
       50
102
RTVSPost2010PropOp47
 70
     1
102
RTVSPost2010Prop48
 90
       50
102
RTVSPost2010PropOp48
 70
     1
102
RTVSPost2010Prop49
280
     0
102
RTVSPost2010PropOp49
 70
     1
102
RTVSPost2010Prop50
 90
       50
102
RTVSPost2010PropOp50
 70
     1
102
RTVSPost2010Prop51ColorIndex
 90
      256
102
RTVSPost2010Prop51ColorRGB
 90
-16777216
102
RTVSPost2010PropOp51
 70
     0
102
RTVSPost2010Prop52
140
1.0
102
RTVSPost2010PropOp52
 70
     0
102
RTVSPost2010Prop53
 90
        2
102
RTVSPost2010PropOp53
 70
     1
102
RTVSPost2010Prop54
  1
strokes_ogs.tif
102
RTVSPost2010PropOp54
 70
     1
102
RTVSPost2010Prop55
280
     0
102
RTVSPost2010PropOp55
 70
     1
102
RTVSPost2010Prop56
140
1.0
102
RTVSPost2010PropOp56
 70
     1
102
RTVSPost2010Prop57
140
1.0
102
RTVSPost2010PropOp57
 70
     1
102
RTVSPropertyOp0
 70
     1
102
RTVSPropertyOp1
 70
     1
102
RTVSPropertyOp2
 70
     1
102
RTVSPropertyOp3
 70
     1
102
RTVSPropertyOp4
 70
     1
102
RTVSPropertyOp5
 70
     1
102
RTVSPropertyOp6
 70
     1
102
RTVSPropertyOp7
 70
     1
102
RTVSPropertyOp8
 70
     1
102
RTVSPropertyOp9
 70
     1
102
RTVSPropertyOp10
 70
     1
102
RTVSPropertyOp11
 70
     1
102
RTVSPropertyOp12
 70
     1
102
RTVSPropertyOp13
 70
     1
102
RTVSPropertyOp14
 70
     1
102
RTVSPropertyOp15
 70
     1
102
RTVSPropertyOp16
 70
     1
102
RTVSPropertyOp17
 70
     1
102
RTVSPropertyOp18
 70
     1
102
RTVSPropertyOp19
 70
     1
102
RTVSPropertyOp20
 70
     1
102
RTVSPropertyOp21
 70
     1
102
RTVSPropertyOp22
 70
     1
102
RTVSPropertyOp23
 70
     1
102
RTVSPropertyOp24
 70
     1
102
RTVSPropertyOp25
 70
     1
102
RTVSPropertyOp26
 70
     1
102
RTVSPropertyOp27
 70
     1
102
RTVSPropertyOp28
 70
     1
102
RTVSPropertyOp29
 70
     1
102
RTVSPropertyOp30
 70
     1
102
RTVSPropertyOp31
 70
     1
102
RTVSPropertyOp32
 70
     1
102
RTVSPropertyOp33
 70
     1
102
RTVSPropertyOp34
 70
     1
102
RTVSPropertyOp35
 70
     1
102
RTVSPropertyOp36
 70
     1
102
RTVSPropertyOp37
 70
     1
102
RTVSPropertyOp38
 70
     1
102
RTVSPropertyOp39
 70
     1
102
RTVSPropertyOp40
 70
     1
102
RTVSPropertyOp41
 70
     1
102
RTVSPropertyOp42
 70
     1
102
RTVSPropertyOp43
 70
     1
102
RTVSPropertyOp44
 70
     1
102
RTVSPropertyOp45
 70
     1
102
RTVSPropertyOp46
 70
     1
102
RTVSPropertyOp47
 70
     1
102
RTVSPropertyOp48
 70
     1
102
RTVSPropertyOp49
 70
     1
102
RTVSPropertyOp50
 70
     1
102
RTVSPropertyOp51
 70
     0
102
RTVSPropertyOp52
 70
     0
102
RTVSPropertyOp53
 70
     1
102
RTVSPropertyOp54
 70
     1
102
RTVSPropertyOp55
 70
     1
102
RTVSPropertyOp56
 70
     1
102
RTVSPropertyOp57
 70
     1
102
RTVSPropertyOp58
 70
     1
102
RTVSPropertyOp59
 70
     1
102
RTVSPropertyOp60
 70
     1
102
RTVSPropertyOp61
 70
     1
102
RTVSPropertyOp62
 70
     1
  0
XRECORD
  5
2A0A
102
{ACAD_REACTORS
330
2A09
102
}
330
2A09
100
AcDbXrecord
280
     1
102
RTVSPost2010Prop28
280
     0
102
RTVSPost2010PropOp28
 70
     1
102
RTVSPost2010Prop29
280
     1
102
RTVSPost2010PropOp29
 70
     1
102
RTVSPost2010Prop30
280
     1
102
RTVSPost2010PropOp30
 70
     1
102
RTVSPost2010Prop31
280
     0
102
RTVSPost2010PropOp31
 70
     1
102
RTVSPost2010Prop32
280
     0
102
RTVSPost2010PropOp32
 70
     1
102
RTVSPost2010Prop33
280
     0
102
RTVSPost2010PropOp33
 70
     1
102
RTVSPost2010Prop34
280
     0
102
RTVSPost2010PropOp34
 70
     1
102
RTVSPost2010Prop35
280
     0
102
RTVSPost2010PropOp35
 70
     1
102
RTVSPost2010Prop36
280
     0
102
RTVSPost2010PropOp36
 70
     1
102
RTVSPost2010Prop37
 90
       50
102
RTVSPost2010PropOp37
 70
     1
102
RTVSPost2010Prop38
140
0.0
102
RTVSPost2010PropOp38
 70
     1
102
RTVSPost2010Prop39
140
1.0
102
RTVSPost2010PropOp39
 70
     1
102
RTVSPost2010Prop40
 90
        0
102
RTVSPost2010PropOp40
 70
     1
102
RTVSPost2010Prop41ColorIndex
 90
       18
102
RTVSPost2010Prop41ColorRGB
 90
        0
102
RTVSPost2010PropOp41
 70
     1
102
RTVSPost2010Prop42
 90
       50
102
RTVSPost2010PropOp42
 70
     1
102
RTVSPost2010Prop43
 90
        3
102
RTVSPost2010PropOp43
 70
     1
102
RTVSPost2010Prop44ColorIndex
 90
        5
102
RTVSPost2010Prop44ColorRGB
 90
      255
102
RTVSPost2010PropOp44
 70
     1
102
RTVSPost2010Prop45
280
     0
102
RTVSPost2010PropOp45
 70
     1
102
RTVSPost2010Prop46
 90
       50
102
RTVSPost2010PropOp46
 70
     1
102
RTVSPost2010Prop47
 90
       50
102
RTVSPost2010PropOp47
 70
     1
102
RTVSPost2010Prop48
 90
       50
102
RTVSPost2010PropOp48
 70
     1
102
RTVSPost2010Prop49
280
     0
102
RTVSPost2010PropOp49
 70
     1
102
RTVSPost2010Prop50
 90
       50
102
RTVSPost2010PropOp50
 70
     1
102
RTVSPost2010Prop51ColorIndex
 90
      256
102
RTVSPost2010Prop51ColorRGB
 90
-16777216
102
RTVSPost2010PropOp51
 70
     0
102
RTVSPost2010Prop52
140
1.0
102
RTVSPost2010PropOp52
 70
     0
102
RTVSPost2010Prop53
 90
        2
102
RTVSPost2010PropOp53
 70
     1
102
RTVSPost2010Prop54
  1
strokes_ogs.tif
102
RTVSPost2010PropOp54
 70
     1
102
RTVSPost2010Prop55
280
     0
102
RTVSPost2010PropOp55
 70
     1
102
RTVSPost2010Prop56
140
1.0
102
RTVSPost2010PropOp56
 70
     1
102
RTVSPost2010Prop57
140
1.0
102
RTVSPost2010PropOp57
 70
     1
102
RTVSPropertyOp0
 70
     1
102
RTVSPropertyOp1
 70
     1
102
RTVSPropertyOp2
 70
     1
102
RTVSPropertyOp3
 70
     1
102
RTVSPropertyOp4
 70
     1
102
RTVSPropertyOp5
 70
     1
102
RTVSPropertyOp6
 70
     1
102
RTVSPropertyOp7
 70
     1
102
RTVSPropertyOp8
 70
     1
102
RTVSPropertyOp9
 70
     1
102
RTVSPropertyOp10
 70
     1
102
RTVSPropertyOp11
 70
     1
102
RTVSPropertyOp12
 70
     1
102
RTVSPropertyOp13
 70
     1
102
RTVSPropertyOp14
 70
     1
102
RTVSPropertyOp15
 70
     1
102
RTVSPropertyOp16
 70
     1
102
RTVSPropertyOp17
 70
     1
102
RTVSPropertyOp18
 70
     1
102
RTVSPropertyOp19
 70
     1
102
RTVSPropertyOp20
 70
     1
102
RTVSPropertyOp21
 70
     1
102
RTVSPropertyOp22
 70
     1
102
RTVSPropertyOp23
 70
     1
102
RTVSPropertyOp24
 70
     1
102
RTVSPropertyOp25
 70
     1
102
RTVSPropertyOp26
 70
     1
102
RTVSPropertyOp27
 70
     1
102
RTVSPropertyOp28
 70
     1
102
RTVSPropertyOp29
 70
     1
102
RTVSPropertyOp30
 70
     1
102
RTVSPropertyOp31
 70
     1
102
RTVSPropertyOp32
 70
     1
102
RTVSPropertyOp33
 70
     1
102
RTVSPropertyOp34
 70
     1
102
RTVSPropertyOp35
 70
     1
102
RTVSPropertyOp36
 70
     1
102
RTVSPropertyOp37
 70
     1
102
RTVSPropertyOp38
 70
     1
102
RTVSPropertyOp39
 70
     1
102
RTVSPropertyOp40
 70
     1
102
RTVSPropertyOp41
 70
     1
102
RTVSPropertyOp42
 70
     1
102
RTVSPropertyOp43
 70
     1
102
RTVSPropertyOp44
 70
     1
102
RTVSPropertyOp45
 70
     1
102
RTVSPropertyOp46
 70
     1
102
RTVSPropertyOp47
 70
     1
102
RTVSPropertyOp48
 70
     1
102
RTVSPropertyOp49
 70
     1
102
RTVSPropertyOp50
 70
     1
102
RTVSPropertyOp51
 70
     0
102
RTVSPropertyOp52
 70
     0
102
RTVSPropertyOp53
 70
     1
102
RTVSPropertyOp54
 70
     1
102
RTVSPropertyOp55
 70
     1
102
RTVSPropertyOp56
 70
     1
102
RTVSPropertyOp57
 70
     1
102
RTVSPropertyOp58
 70
     1
102
RTVSPropertyOp59
 70
     1
102
RTVSPropertyOp60
 70
     1
102
RTVSPropertyOp61
 70
     1
102
RTVSPropertyOp62
 70
     1
  0
XRECORD
  5
2A22
102
{ACAD_REACTORS
330
2A21
102
}
330
2A21
100
AcDbXrecord
280
     1
102
RTVSPost2010Prop28
280
     0
102
RTVSPost2010PropOp28
 70
     1
102
RTVSPost2010Prop29
280
     1
102
RTVSPost2010PropOp29
 70
     1
102
RTVSPost2010Prop30
280
     1
102
RTVSPost2010PropOp30
 70
     1
102
RTVSPost2010Prop31
280
     0
102
RTVSPost2010PropOp31
 70
     1
102
RTVSPost2010Prop32
280
     0
102
RTVSPost2010PropOp32
 70
     1
102
RTVSPost2010Prop33
280
     0
102
RTVSPost2010PropOp33
 70
     1
102
RTVSPost2010Prop34
280
     0
102
RTVSPost2010PropOp34
 70
     1
102
RTVSPost2010Prop35
280
     0
102
RTVSPost2010PropOp35
 70
     1
102
RTVSPost2010Prop36
280
     0
102
RTVSPost2010PropOp36
 70
     1
102
RTVSPost2010Prop37
 90
       50
102
RTVSPost2010PropOp37
 70
     1
102
RTVSPost2010Prop38
140
0.0
102
RTVSPost2010PropOp38
 70
     1
102
RTVSPost2010Prop39
140
1.0
102
RTVSPost2010PropOp39
 70
     1
102
RTVSPost2010Prop40
 90
        0
102
RTVSPost2010PropOp40
 70
     1
102
RTVSPost2010Prop41ColorIndex
 90
       18
102
RTVSPost2010Prop41ColorRGB
 90
        0
102
RTVSPost2010PropOp41
 70
     1
102
RTVSPost2010Prop42
 90
       50
102
RTVSPost2010PropOp42
 70
     1
102
RTVSPost2010Prop43
 90
        3
102
RTVSPost2010PropOp43
 70
     1
102
RTVSPost2010Prop44ColorIndex
 90
        5
102
RTVSPost2010Prop44ColorRGB
 90
      255
102
RTVSPost2010PropOp44
 70
     1
102
RTVSPost2010Prop45
280
     0
102
RTVSPost2010PropOp45
 70
     1
102
RTVSPost2010Prop46
 90
       50
102
RTVSPost2010PropOp46
 70
     1
102
RTVSPost2010Prop47
 90
       50
102
RTVSPost2010PropOp47
 70
     1
102
RTVSPost2010Prop48
 90
       50
102
RTVSPost2010PropOp48
 70
     1
102
RTVSPost2010Prop49
280
     0
102
RTVSPost2010PropOp49
 70
     1
102
RTVSPost2010Prop50
 90
       50
102
RTVSPost2010PropOp50
 70
     1
102
RTVSPost2010Prop51ColorIndex
 90
      256
102
RTVSPost2010Prop51ColorRGB
 90
-16777216
102
RTVSPost2010PropOp51
 70
     0
102
RTVSPost2010Prop52
140
1.0
102
RTVSPost2010PropOp52
 70
     0
102
RTVSPost2010Prop53
 90
        2
102
RTVSPost2010PropOp53
 70
     1
102
RTVSPost2010Prop54
  1
strokes_ogs.tif
102
RTVSPost2010PropOp54
 70
     1
102
RTVSPost2010Prop55
280
     0
102
RTVSPost2010PropOp55
 70
     1
102
RTVSPost2010Prop56
140
1.0
102
RTVSPost2010PropOp56
 70
     1
102
RTVSPost2010Prop57
140
1.0
102
RTVSPost2010PropOp57
 70
     1
102
RTVSPropertyOp0
 70
     1
102
RTVSPropertyOp1
 70
     1
102
RTVSPropertyOp2
 70
     1
102
RTVSPropertyOp3
 70
     1
102
RTVSPropertyOp4
 70
     1
102
RTVSPropertyOp5
 70
     1
102
RTVSPropertyOp6
 70
     1
102
RTVSPropertyOp7
 70
     1
102
RTVSPropertyOp8
 70
     1
102
RTVSPropertyOp9
 70
     1
102
RTVSPropertyOp10
 70
     1
102
RTVSPropertyOp11
 70
     1
102
RTVSPropertyOp12
 70
     1
102
RTVSPropertyOp13
 70
     1
102
RTVSPropertyOp14
 70
     1
102
RTVSPropertyOp15
 70
     1
102
RTVSPropertyOp16
 70
     1
102
RTVSPropertyOp17
 70
     1
102
RTVSPropertyOp18
 70
     1
102
RTVSPropertyOp19
 70
     1
102
RTVSPropertyOp20
 70
     1
102
RTVSPropertyOp21
 70
     1
102
RTVSPropertyOp22
 70
     1
102
RTVSPropertyOp23
 70
     1
102
RTVSPropertyOp24
 70
     1
102
RTVSPropertyOp25
 70
     1
102
RTVSPropertyOp26
 70
     1
102
RTVSPropertyOp27
 70
     1
102
RTVSPropertyOp28
 70
     1
102
RTVSPropertyOp29
 70
     1
102
RTVSPropertyOp30
 70
     1
102
RTVSPropertyOp31
 70
     1
102
RTVSPropertyOp32
 70
     1
102
RTVSPropertyOp33
 70
     1
102
RTVSPropertyOp34
 70
     1
102
RTVSPropertyOp35
 70
     1
102
RTVSPropertyOp36
 70
     1
102
RTVSPropertyOp37
 70
     1
102
RTVSPropertyOp38
 70
     1
102
RTVSPropertyOp39
 70
     1
102
RTVSPropertyOp40
 70
     1
102
RTVSPropertyOp41
 70
     1
102
RTVSPropertyOp42
 70
     1
102
RTVSPropertyOp43
 70
     1
102
RTVSPropertyOp44
 70
     1
102
RTVSPropertyOp45
 70
     1
102
RTVSPropertyOp46
 70
     1
102
RTVSPropertyOp47
 70
     1
102
RTVSPropertyOp48
 70
     1
102
RTVSPropertyOp49
 70
     1
102
RTVSPropertyOp50
 70
     1
102
RTVSPropertyOp51
 70
     0
102
RTVSPropertyOp52
 70
     0
102
RTVSPropertyOp53
 70
     1
102
RTVSPropertyOp54
 70
     1
102
RTVSPropertyOp55
 70
     1
102
RTVSPropertyOp56
 70
     1
102
RTVSPropertyOp57
 70
     1
102
RTVSPropertyOp58
 70
     1
102
RTVSPropertyOp59
 70
     1
102
RTVSPropertyOp60
 70
     1
102
RTVSPropertyOp61
 70
     1
102
RTVSPropertyOp62
 70
     1
  0
ENDSEC
  0
EOF
