  0
SECTION
  2
HEADER
  9
$ACADVER
  1
AC1015
  9
$ACADMAINTVER
 70
    20
  9
$DWGCODEPAGE
  3
ANSI_932
  9
$INSBASE
 10
0.0
 20
0.0
 30
0.0
  9
$EXTMIN
 10
9.9999975266385
 20
10.0
 30
0.0
  9
$EXTMAX
 10
318.9379565258889
 20
220.0416374639458
 30
0.0
  9
$LIMMIN
 10
0.0000015376081137
 20
-0.0000001931532552
  9
$LIMMAX
 10
396.0000015376081
 20
272.9999998068465
  9
$ORTHOMODE
 70
     1
  9
$REGENMODE
 70
     1
  9
$FILLMODE
 70
     1
  9
$QTEXTMODE
 70
     0
  9
$MIRRTEXT
 70
     1
  9
$LTSCALE
 40
1.0
  9
$ATTMODE
 70
     1
  9
$TEXTSIZE
 40
2.5
  9
$TRACEWID
 40
1.0
  9
$TEXTSTYLE
  7
STANDARD
  9
$CLAYER
  8
0
  9
$CELTYPE
  6
BYLAYER
  9
$CECOLOR
 62
   256
  9
$CELTSCALE
 40
1.0
  9
$DISPSILH
 70
     0
  9
$DIMSCALE
 40
1.0
  9
$DIMASZ
 40
3.0
  9
$DIMEXO
 40
1.0
  9
$DIMDLI
 40
10.0
  9
$DIMRND
 40
0.0
  9
$DIMDLE
 40
0.0
  9
$DIMEXE
 40
1.0
  9
$DIMTP
 40
0.0
  9
$DIMTM
 40
0.0
  9
$DIMTXT
 40
2.5
  9
$DIMCEN
 40
0.0
  9
$DIMTSZ
 40
0.0
  9
$DIMTOL
 70
     0
  9
$DIMLIM
 70
     0
  9
$DIMTIH
 70
     0
  9
$DIMTOH
 70
     0
  9
$DIMSE1
 70
     0
  9
$DIMSE2
 70
     0
  9
$DIMTAD
 70
     3
  9
$DIMZIN
 70
     8
  9
$DIMBLK
  1

  9
$DIMASO
 70
     1
  9
$DIMSHO
 70
     1
  9
$DIMPOST
  1

  9
$DIMAPOST
  1

  9
$DIMALT
 70
     0
  9
$DIMALTD
 70
     2
  9
$DIMALTF
 40
25.4
  9
$DIMLFAC
 40
1.0
  9
$DIMTOFL
 70
     1
  9
$DIMTVP
 40
0.0
  9
$DIMTIX
 70
     0
  9
$DIMSOXD
 70
     0
  9
$DIMSAH
 70
     1
  9
$DIMBLK1
  1
OPEN
  9
$DIMBLK2
  1
OPEN
  9
$DIMSTYLE
  2
STANDARD
  9
$DIMCLRD
 70
     0
  9
$DIMCLRE
 70
     0
  9
$DIMCLRT
 70
     0
  9
$DIMTFAC
 40
1.0
  9
$DIMGAP
 40
1.0
  9
$DIMJUST
 70
     0
  9
$DIMSD1
 70
     0
  9
$DIMSD2
 70
     0
  9
$DIMTOLJ
 70
     1
  9
$DIMTZIN
 70
     0
  9
$DIMALTZ
 70
     0
  9
$DIMALTTZ
 70
     0
  9
$DIMUPT
 70
     0
  9
$DIMDEC
 70
     4
  9
$DIMTDEC
 70
     4
  9
$DIMALTU
 70
     2
  9
$DIMALTTD
 70
     2
  9
$DIMTXSTY
  7
STANDARD
  9
$DIMAUNIT
 70
     0
  9
$DIMADEC
 70
     0
  9
$DIMALTRND
 40
0.0
  9
$DIMAZIN
 70
     0
  9
$DIMDSEP
 70
    46
  9
$DIMATFIT
 70
     3
  9
$DIMFRAC
 70
     0
  9
$DIMLDRBLK
  1
OPEN
  9
$DIMLUNIT
 70
     2
  9
$DIMLWD
 70
    -2
  9
$DIMLWE
 70
    -2
  9
$DIMTMOVE
 70
     0
  9
$LUNITS
 70
     2
  9
$LUPREC
 70
     4
  9
$SKETCHINC
 40
1.0
  9
$FILLETRAD
 40
0.0
  9
$AUNITS
 70
     0
  9
$AUPREC
 70
     0
  9
$MENU
  1
.
  9
$ELEVATION
 40
0.0
  9
$PELEVATION
 40
0.0
  9
$THICKNESS
 40
0.0
  9
$LIMCHECK
 70
     0
  9
$CHAMFERA
 40
0.2
  9
$CHAMFERB
 40
0.2
  9
$CHAMFERC
 40
20.0
  9
$CHAMFERD
 40
0.0
  9
$SKPOLY
 70
     0
  9
$TDCREATE
 40
2454525.396254514
  9
$TDUCREATE
 40
2454525.021254514
  9
$TDUPDATE
 40
2457192.602358079
  9
$TDUUPDATE
 40
2457192.227358079
  9
$TDINDWG
 40
0.1507254282
  9
$TDUSRTIMER
 40
0.1507254282
  9
$USRTIMER
 70
     1
  9
$ANGBASE
 50
0.0
  9
$ANGDIR
 70
     0
  9
$PDMODE
 70
     0
  9
$PDSIZE
 40
0.0
  9
$PLINEWID
 40
0.0
  9
$SPLFRAME
 70
     0
  9
$SPLINETYPE
 70
     6
  9
$SPLINESEGS
 70
     8
  9
$HANDSEED
  5
2615
  9
$SURFTAB1
 70
     6
  9
$SURFTAB2
 70
     6
  9
$SURFTYPE
 70
     6
  9
$SURFU
 70
     6
  9
$SURFV
 70
     6
  9
$UCSBASE
  2

  9
$UCSNAME
  2

  9
$UCSORG
 10
0.0
 20
0.0
 30
0.0
  9
$UCSXDIR
 10
1.0
 20
0.0
 30
0.0
  9
$UCSYDIR
 10
0.0
 20
1.0
 30
0.0
  9
$UCSORTHOREF
  2

  9
$UCSORTHOVIEW
 70
     0
  9
$UCSORGTOP
 10
0.0
 20
0.0
 30
0.0
  9
$UCSORGBOTTOM
 10
0.0
 20
0.0
 30
0.0
  9
$UCSORGLEFT
 10
0.0
 20
0.0
 30
0.0
  9
$UCSORGRIGHT
 10
0.0
 20
0.0
 30
0.0
  9
$UCSORGFRONT
 10
0.0
 20
0.0
 30
0.0
  9
$UCSORGBACK
 10
0.0
 20
0.0
 30
0.0
  9
$PUCSBASE
  2

  9
$PUCSNAME
  2

  9
$PUCSORG
 10
0.0
 20
0.0
 30
0.0
  9
$PUCSXDIR
 10
1.0
 20
0.0
 30
0.0
  9
$PUCSYDIR
 10
0.0
 20
1.0
 30
0.0
  9
$PUCSORTHOREF
  2

  9
$PUCSORTHOVIEW
 70
     0
  9
$PUCSORGTOP
 10
0.0
 20
0.0
 30
0.0
  9
$PUCSORGBOTTOM
 10
0.0
 20
0.0
 30
0.0
  9
$PUCSORGLEFT
 10
0.0
 20
0.0
 30
0.0
  9
$PUCSORGRIGHT
 10
0.0
 20
0.0
 30
0.0
  9
$PUCSORGFRONT
 10
0.0
 20
0.0
 30
0.0
  9
$PUCSORGBACK
 10
0.0
 20
0.0
 30
0.0
  9
$USERI1
 70
     0
  9
$USERI2
 70
     0
  9
$USERI3
 70
     0
  9
$USERI4
 70
     0
  9
$USERI5
 70
     0
  9
$USERR1
 40
0.0
  9
$USERR2
 40
0.0
  9
$USERR3
 40
0.0
  9
$USERR4
 40
0.0
  9
$USERR5
 40
0.0
  9
$WORLDVIEW
 70
     1
  9
$SHADEDGE
 70
     3
  9
$SHADEDIF
 70
    70
  9
$TILEMODE
 70
     1
  9
$MAXACTVP
 70
    48
  9
$PINSBASE
 10
0.0
 20
0.0
 30
0.0
  9
$PLIMCHECK
 70
     0
  9
$PEXTMIN
 10
1.000000000000000E+20
 20
1.000000000000000E+20
 30
1.000000000000000E+20
  9
$PEXTMAX
 10
-1.000000000000000E+20
 20
-1.000000000000000E+20
 30
-1.000000000000000E+20
  9
$PLIMMIN
 10
0.0
 20
0.0
  9
$PLIMMAX
 10
420.0
 20
297.0
  9
$UNITMODE
 70
     0
  9
$VISRETAIN
 70
     1
  9
$PLINEGEN
 70
     0
  9
$PSLTSCALE
 70
     1
  9
$TREEDEPTH
 70
  3020
  9
$CMLSTYLE
  2
STANDARD
  9
$CMLJUST
 70
     0
  9
$CMLSCALE
 40
20.0
  9
$PROXYGRAPHICS
 70
     1
  9
$MEASUREMENT
 70
     0
  9
$CELWEIGHT
370
    -1
  9
$ENDCAPS
280
     0
  9
$JOINSTYLE
280
     0
  9
$LWDISPLAY
290
     0
  9
$INSUNITS
 70
     0
  9
$HYPERLINKBASE
  1

  9
$STYLESHEET
  1

  9
$XEDIT
290
     1
  9
$CEPSNTYPE
380
     0
  9
$PSTYLEMODE
290
     1
  9
$FINGERPRINTGUID
  2
{AC469C4A-E7B5-439E-BCFC-1BCC47F27E3A}
  9
$VERSIONGUID
  2
{14DADB0F-EA3C-4CD9-A4C3-7F3AFE63B0FC}
  9
$EXTNAMES
290
     1
  9
$PSVPSCALE
 40
0.0
  9
$OLESTARTUP
290
     0
  0
ENDSEC
  0
SECTION
  2
CLASSES
  0
CLASS
  1
ACDBDICTIONARYWDFLT
  2
AcDbDictionaryWithDefault
  3
ObjectDBX Classes
 90
        0
280
     0
281
     0
  0
CLASS
  1
ACDBPLACEHOLDER
  2
AcDbPlaceHolder
  3
ObjectDBX Classes
 90
        0
280
     0
281
     0
  0
CLASS
  1
LAYOUT
  2
AcDbLayout
  3
ObjectDBX Classes
 90
        0
280
     0
281
     0
  0
CLASS
  1
DICTIONARYVAR
  2
AcDbDictionaryVar
  3
ObjectDBX Classes
 90
        0
280
     0
281
     0
  0
CLASS
  1
MATERIAL
  2
AcDbMaterial
  3
ObjectDBX Classes
 90
     1153
280
     0
281
     0
  0
CLASS
  1
VISUALSTYLE
  2
AcDbVisualStyle
  3
ObjectDBX Classes
 90
     4095
280
     0
281
     0
  0
CLASS
  1
TABLESTYLE
  2
AcDbTableStyle
  3
ObjectDBX Classes
 90
     4095
280
     0
281
     0
  0
CLASS
  1
SCALE
  2
AcDbScale
  3
ObjectDBX Classes
 90
     1153
280
     0
281
     0
  0
CLASS
  1
MLEADERSTYLE
  2
AcDbMLeaderStyle
  3
ACDB_MLEADERSTYLE_CLASS
 90
     4095
280
     0
281
     0
  0
CLASS
  1
ACDBSECTIONVIEWSTYLE
  2
AcDbSectionViewStyle
  3
ObjectDBX Classes
 90
     1025
280
     0
281
     0
  0
CLASS
  1
ACDBDETAILVIEWSTYLE
  2
AcDbDetailViewStyle
  3
ObjectDBX Classes
 90
     1025
280
     0
281
     0
  0
CLASS
  1
CELLSTYLEMAP
  2
AcDbCellStyleMap
  3
ObjectDBX Classes
 90
     1152
280
     0
281
     0
  0
ENDSEC
  0
SECTION
  2
TABLES
  0
TABLE
  2
VPORT
  5
8
330
0
100
AcDbSymbolTable
 70
     1
  0
VPORT
  5
255F
330
8
100
AcDbSymbolTableRecord
100
AcDbViewportTableRecord
  2
*ACTIVE
 70
     0
 10
0.0
 20
0.0
 11
1.0
 21
1.0
 12
245.3133802206337
 22
115.0156635644359
 13
0.0
 23
0.0
 14
10.0
 24
10.0
 15
10.0
 25
10.0
 16
0.0
 26
0.0
 36
1.0
 17
0.0
 27
0.0
 37
0.0
 40
211.7393883328174
 41
1.899603698811096
 42
50.0
 43
0.0
 44
0.0
 50
0.0
 51
0.0
 71
     0
 72
   100
 73
     1
 74
     0
 75
     0
 76
     0
 77
     0
 78
     0
281
     0
 65
     1
110
0.0
120
0.0
130
0.0
111
1.0
121
0.0
131
0.0
112
0.0
122
1.0
132
0.0
 79
     0
146
0.0
1001
ACAD_NAV_VCDISPLAY
1070
     3
  0
ENDTAB
  0
TABLE
  2
LTYPE
  5
5
330
0
100
AcDbSymbolTable
 70
     4
  0
LTYPE
  5
12
330
5
100
AcDbSymbolTableRecord
100
AcDbLinetypeTableRecord
  2
BYBLOCK
 70
     0
  3

 72
    65
 73
     0
 40
0.0
  0
LTYPE
  5
13
330
5
100
AcDbSymbolTableRecord
100
AcDbLinetypeTableRecord
  2
BYLAYER
 70
     0
  3

 72
    65
 73
     0
 40
0.0
  0
LTYPE
  5
14
330
5
100
AcDbSymbolTableRecord
100
AcDbLinetypeTableRecord
  2
CONTINUOUS
 70
     0
  3
Solid line
 72
    65
 73
     0
 40
0.0
  0
LTYPE
  5
4B
330
5
100
AcDbSymbolTableRecord
100
AcDbLinetypeTableRecord
  2
DASHED
 70
     0
  3
Dashed __ __ __ __ __ __ __ __ __ __ __ __ __ _
 72
    65
 73
     2
 40
19.04999999999999
 49
12.7
 74
     0
 49
-6.349999999999998
 74
     0
  0
LTYPE
  5
4C
330
5
100
AcDbSymbolTableRecord
100
AcDbLinetypeTableRecord
  2
CENTER
 70
     0
  3
Center ____ _ ____ _ ____ _ ____ _ ____ _ ____
 72
    65
 73
     4
 40
50.8
 49
31.75
 74
     0
 49
-6.349999999999998
 74
     0
 49
6.349999999999998
 74
     0
 49
-6.349999999999998
 74
     0
  0
LTYPE
  5
4D
330
5
100
AcDbSymbolTableRecord
100
AcDbLinetypeTableRecord
  2
PHANTOM
 70
     0
  3
Phantom ______  __  __  ______  __  __  ______
 72
    65
 73
     6
 40
63.5
 49
31.75
 74
     0
 49
-6.349999999999998
 74
     0
 49
6.349999999999998
 74
     0
 49
-6.349999999999998
 74
     0
 49
6.349999999999998
 74
     0
 49
-6.349999999999998
 74
     0
  0
ENDTAB
  0
TABLE
  2
LAYER
  5
2
330
0
100
AcDbSymbolTable
 70
     8
  0
LAYER
  5
E
102
{ACAD_XDICTIONARY
360
25B9
102
}
330
2
100
AcDbSymbolTableRecord
100
AcDbLayerTableRecord
  2
0
 70
     0
 62
     7
  6
CONTINUOUS
370
    -3
390
2568
  0
LAYER
  5
4E
102
{ACAD_XDICTIONARY
360
25BB
102
}
330
2
100
AcDbSymbolTableRecord
100
AcDbLayerTableRecord
  2
4
 70
     0
 62
     1
  6
CENTER
370
    -3
390
2568
  0
LAYER
  5
4F
102
{ACAD_XDICTIONARY
360
25BD
102
}
330
2
100
AcDbSymbolTableRecord
100
AcDbLayerTableRecord
  2
5
 70
     0
 62
     6
  6
PHANTOM
370
    -3
390
2568
  0
LAYER
  5
50
102
{ACAD_XDICTIONARY
360
25BF
102
}
330
2
100
AcDbSymbolTableRecord
100
AcDbLayerTableRecord
  2
1
 70
     0
 62
     7
  6
CONTINUOUS
370
    -3
390
2568
  0
LAYER
  5
51
102
{ACAD_XDICTIONARY
360
25C1
102
}
330
2
100
AcDbSymbolTableRecord
100
AcDbLayerTableRecord
  2
2
 70
     0
 62
     4
  6
CONTINUOUS
370
    -3
390
2568
  0
LAYER
  5
52
102
{ACAD_XDICTIONARY
360
25C3
102
}
330
2
100
AcDbSymbolTableRecord
100
AcDbLayerTableRecord
  2
3
 70
     0
 62
     2
  6
DASHED
370
    -3
390
2568
  0
LAYER
  5
53
102
{ACAD_XDICTIONARY
360
25C5
102
}
330
2
100
AcDbSymbolTableRecord
100
AcDbLayerTableRecord
  2
6
 70
     0
 62
     5
  6
CONTINUOUS
370
    -3
390
2568
  0
LAYER
  5
54
102
{ACAD_XDICTIONARY
360
25C7
102
}
330
2
100
AcDbSymbolTableRecord
100
AcDbLayerTableRecord
  2
7
 70
     0
 62
     3
  6
CONTINUOUS
370
    -3
390
2568
  0
ENDTAB
  0
TABLE
  2
STYLE
  5
3
330
0
100
AcDbSymbolTable
 70
     1
  0
STYLE
  5
F
330
3
100
AcDbSymbolTableRecord
100
AcDbTextStyleTableRecord
  2
STANDARD
 70
     0
 40
0.0
 41
1.0
 50
0.0
 71
     0
 42
2.5
  3
simplex.shx
  4

  0
ENDTAB
  0
TABLE
  2
VIEW
  5
6
330
0
100
AcDbSymbolTable
 70
     0
  0
ENDTAB
  0
TABLE
  2
UCS
  5
7
330
0
100
AcDbSymbolTable
 70
     0
  0
ENDTAB
  0
TABLE
  2
APPID
  5
9
330
0
100
AcDbSymbolTable
 70
     5
  0
APPID
  5
10
330
9
100
AcDbSymbolTableRecord
100
AcDbRegAppTableRecord
  2
ACAD
 70
     0
  0
APPID
  5
3E
330
9
100
AcDbSymbolTableRecord
100
AcDbRegAppTableRecord
  2
CONTENTTABDATA
 70
     0
  0
APPID
  5
3F
330
9
100
AcDbSymbolTableRecord
100
AcDbRegAppTableRecord
  2
CONTENTCURRENTTAB
 70
     0
  0
APPID
  5
25D3
330
9
100
AcDbSymbolTableRecord
100
AcDbRegAppTableRecord
  2
ACAD_NAV_VCDISPLAY
 70
     0
  0
APPID
  5
260C
330
9
100
AcDbSymbolTableRecord
100
AcDbRegAppTableRecord
  2
ACAD_MLEADERVER
 70
     0
  0
ENDTAB
  0
TABLE
  2
DIMSTYLE
  5
A
330
0
100
AcDbSymbolTable
 70
     1
100
AcDbDimStyleTable
 71
     0
  0
DIMSTYLE
105
1D
330
A
100
AcDbSymbolTableRecord
100
AcDbDimStyleTableRecord
  2
STANDARD
 70
     0
 41
3.0
 42
1.0
 43
10.0
 44
1.0
 73
     0
 74
     0
 77
     3
 78
     8
140
2.5
141
0.0
147
1.0
172
     1
173
     1
340
F
341
2E
343
2E
344
2E
  0
ENDTAB
  0
TABLE
  2
BLOCK_RECORD
  5
1
330
0
100
AcDbSymbolTable
 70
     1
  0
BLOCK_RECORD
  5
18
102
{ACAD_XDICTIONARY
360
2562
102
}
330
1
100
AcDbSymbolTableRecord
100
AcDbBlockTableRecord
  2
*MODEL_SPACE
340
25B6
  0
BLOCK_RECORD
  5
15
102
{ACAD_XDICTIONARY
360
2560
102
}
330
1
100
AcDbSymbolTableRecord
100
AcDbBlockTableRecord
  2
*PAPER_SPACE
340
25B7
  0
BLOCK_RECORD
  5
2E
330
1
100
AcDbSymbolTableRecord
100
AcDbBlockTableRecord
  2
_OPEN
340
0
  0
ENDTAB
  0
ENDSEC
  0
SECTION
  2
BLOCKS
  0
BLOCK
  5
19
330
18
100
AcDbEntity
  8
0
100
AcDbBlockBegin
  2
*MODEL_SPACE
 70
     0
 10
0.0
 20
0.0
 30
0.0
  3
*MODEL_SPACE
  1

  0
ENDBLK
  5
1A
330
18
100
AcDbEntity
  8
0
100
AcDbBlockEnd
  0
BLOCK
  5
16
330
15
100
AcDbEntity
 67
     1
  8
0
100
AcDbBlockBegin
  2
*PAPER_SPACE
 70
     0
 10
0.0
 20
0.0
 30
0.0
  3
*PAPER_SPACE
  1

  0
ENDBLK
  5
17
330
15
100
AcDbEntity
 67
     1
  8
0
100
AcDbBlockEnd
  0
BLOCK
  5
2F
330
2E
100
AcDbEntity
  8
0
100
AcDbBlockBegin
  2
_OPEN
 70
     0
 10
0.0
 20
0.0
 30
0.0
  3
_OPEN
  1

  0
LINE
  5
30
330
2E
100
AcDbEntity
  8
0
  6
ByBlock
 62
     0
100
AcDbLine
 10
-1.0
 20
0.1666666666666666
 30
0.0
 11
0.0
 21
0.0
 31
0.0
  0
LINE
  5
31
330
2E
100
AcDbEntity
  8
0
  6
ByBlock
 62
     0
100
AcDbLine
 10
0.0
 20
0.0
 30
0.0
 11
-1.0
 21
-0.1666666666666666
 31
0.0
  0
LINE
  5
32
330
2E
100
AcDbEntity
  8
0
  6
ByBlock
 62
     0
100
AcDbLine
 10
0.0
 20
0.0
 30
0.0
 11
-1.0
 21
0.0
 31
0.0
  0
ENDBLK
  5
33
330
2E
100
AcDbEntity
  8
0
100
AcDbBlockEnd
  0
ENDSEC
  0
SECTION
  2
ENTITIES
  0
TEXT
  5
63
330
18
100
AcDbEntity
  8
4
  6
CENTER
 48
0.25
100
AcDbText
 10
23.97950852663849
 20
10.0
 30
0.0
 40
1.399999999999999
  1
4
100
AcDbText
  0
TEXT
  5
64
330
18
100
AcDbEntity
  8
7
  6
Continuous
 48
0.25
100
AcDbText
 10
9.999997526638502
 20
26.0000007607689
 30
0.0
 40
3.0
  1
CODE No.11030
100
AcDbText
  0
TEXT
  5
65
330
18
100
AcDbEntity
  8
7
  6
Continuous
 48
0.25
100
AcDbText
 10
9.999997526638502
 20
18.00000076076889
 30
0.0
 40
3.0
  1
TYPE No.TL-365
100
AcDbText
  0
TEXT
  5
66
330
18
100
AcDbEntity
  8
1
  6
Continuous
 48
0.25
100
AcDbText
 10
9.999997526638502
 20
10.00000076076889
 30
0.0
 40
1.399999999999999
  1
LAYER
100
AcDbText
  0
TEXT
  5
67
330
18
100
AcDbEntity
  8
2
  6
Continuous
 48
0.25
100
AcDbText
 10
19.9795085266385
 20
10.0
 30
0.0
 40
1.399999999999999
  1
2
100
AcDbText
  0
TEXT
  5
68
330
18
100
AcDbEntity
  8
3
  6
DASHED
 48
0.25
100
AcDbText
 10
21.9795085266385
 20
10.0
 30
0.0
 40
1.399999999999999
  1
3
100
AcDbText
  0
TEXT
  5
69
330
18
100
AcDbEntity
  8
1
  6
Continuous
 48
0.25
100
AcDbText
 10
17.9795085266385
 20
10.0
 30
0.0
 40
1.399999999999999
  1
1
100
AcDbText
  0
TEXT
  5
6A
330
18
100
AcDbEntity
  8
5
  6
PHANTOM
 48
0.25
100
AcDbText
 10
25.9795085266385
 20
10.0
 30
0.0
 40
1.399999999999999
  1
5
100
AcDbText
  0
TEXT
  5
6B
330
18
100
AcDbEntity
  8
6
  6
Continuous
 48
0.25
100
AcDbText
 10
27.9795085266385
 20
10.0
 30
0.0
 40
1.399999999999999
  1
6
100
AcDbText
  0
TEXT
  5
6C
330
18
100
AcDbEntity
  8
7
  6
Continuous
 48
0.25
100
AcDbText
 10
29.9795085266385
 20
10.0
 30
0.0
 40
1.399999999999999
  1
7
100
AcDbText
  0
CIRCLE
  5
504
330
18
100
AcDbEntity
  8
1
  6
Continuous
100
AcDbCircle
 10
204.9477118826944
 20
125.5416374639457
 30
0.0
 40
11.0
  0
LINE
  5
505
330
18
100
AcDbEntity
  8
1
  6
Continuous
100
AcDbLine
 10
204.9477118827044
 20
138.2433433861222
 30
0.0
 11
193.9477118827043
 21
131.8924904250377
 31
0.0
  0
LINE
  5
506
330
18
100
AcDbEntity
  8
1
  6
Continuous
100
AcDbLine
 10
215.9477118827043
 20
131.8924904250272
 30
0.0
 11
204.9477118827044
 21
138.2433433861121
 31
0.0
  0
LINE
  5
507
330
18
100
AcDbEntity
  8
4
  6
CENTER
 48
0.3
100
AcDbLine
 10
204.9477118826944
 20
143.0416374639458
 30
0.0
 11
204.9477118826944
 21
108.0416374639457
 31
0.0
  0
CIRCLE
  5
508
330
18
100
AcDbEntity
  8
1
  6
Continuous
100
AcDbCircle
 10
204.9477118826943
 20
125.5416374639457
 30
0.0
 40
14.5
  0
LINE
  5
50A
330
18
100
AcDbEntity
  8
4
  6
CENTER
 48
0.3
100
AcDbLine
 10
222.4477118826943
 20
125.5416374639457
 30
0.0
 11
187.4477118826943
 21
125.5416374639457
 31
0.0
  0
LINE
  5
50B
330
18
100
AcDbEntity
  8
1
  6
Continuous
100
AcDbLine
 10
204.9477118826843
 20
112.8399315417697
 30
0.0
 11
215.9477118826843
 21
119.1907845028542
 31
0.0
  0
ARC
  5
50D
330
18
100
AcDbEntity
  8
1
  6
Continuous
100
AcDbCircle
 10
204.9477118826944
 20
125.5416374639457
 30
0.0
 40
9.5
100
AcDbArc
 50
213.7387226487371
 51
326.2612773512617
  0
ARC
  5
50E
330
18
100
AcDbEntity
  8
1
  6
Continuous
100
AcDbCircle
 10
204.9477118826944
 20
125.5416374639858
 30
0.0
 40
9.5
100
AcDbArc
 50
33.73872264873821
 51
146.2612773512629
  0
LINE
  5
50F
330
18
100
AcDbEntity
  8
1
  6
Continuous
100
AcDbLine
 10
193.9477118826844
 20
119.1907845028647
 30
0.0
 11
204.9477118826844
 21
112.8399315417798
 31
0.0
  0
ARC
  5
511
330
18
100
AcDbEntity
  8
2
  6
Continuous
100
AcDbCircle
 10
204.9477118826944
 20
125.5416374639258
 30
0.0
 40
3.4999999999999
100
AcDbArc
 50
140.4823472028211
 51
219.5176527968957
  0
CIRCLE
  5
512
330
18
100
AcDbEntity
  8
1
  6
Continuous
100
AcDbCircle
 10
204.9477118826944
 20
125.5416374639457
 30
0.0
 40
5.499999999940895
  0
LINE
  5
513
330
18
100
AcDbEntity
  8
1
  6
Continuous
100
AcDbLine
 10
199.4477118826945
 20
128.7170639445459
 30
0.0
 11
204.9477118825944
 21
131.8924904250259
 31
0.0
  0
ARC
  5
515
330
18
100
AcDbEntity
  8
1
  6
Continuous
100
AcDbCircle
 10
204.9477118826894
 20
125.5416374639457
 30
0.0
 40
3.093999999999998
100
AcDbArc
 50
150.7688548602239
 51
209.2311451397727
  0
LINE
  5
518
330
18
100
AcDbEntity
  8
1
  6
Continuous
100
AcDbLine
 10
199.4477118826942
 20
122.3662109833958
 30
0.0
 11
204.9477118826943
 21
119.1907845028559
 31
0.0
  0
ARC
  5
519
330
18
100
AcDbEntity
  8
2
  6
Continuous
100
AcDbCircle
 10
204.9477118826893
 20
125.5416374639457
 30
0.0
 40
8.9585
100
AcDbArc
 50
208.134382499142
 51
331.8656175009927
  0
ARC
  5
51A
330
18
100
AcDbEntity
  8
1
  6
Continuous
100
AcDbCircle
 10
204.9477118826943
 20
125.5416374639557
 30
0.0
 40
8.799999999877
100
AcDbArc
 50
206.1390829635597
 51
295.0000000000098
  0
LINE
  5
51D
330
18
100
AcDbEntity
  8
1
  6
Continuous
100
AcDbLine
 10
208.3255810334942
 20
133.3416374639456
 30
0.0
 11
200.6616880843943
 21
133.3416374639456
 31
0.0
  0
ARC
  5
51E
330
18
100
AcDbEntity
  8
1
  6
Continuous
100
AcDbCircle
 10
204.9477118826943
 20
125.5416374639457
 30
0.0
 40
7.0
100
AcDbArc
 50
154.9999999999797
 51
295.0000000000299
  0
CIRCLE
  5
51F
330
18
100
AcDbEntity
  8
1
  6
Continuous
100
AcDbCircle
 10
204.9477118826943
 20
125.5416374639457
 30
0.0
 40
6.5
  0
LINE
  5
520
330
18
100
AcDbEntity
  8
1
  6
Continuous
100
AcDbLine
 10
193.9477118826944
 20
131.8924904250412
 30
0.0
 11
193.9477118826944
 21
119.1907845028712
 31
0.0
  0
ARC
  5
521
330
18
100
AcDbEntity
  8
1
  6
Continuous
100
AcDbCircle
 10
204.9477118826943
 20
125.5416374638958
 30
0.0
 40
7.299999999939498
100
AcDbArc
 50
154.9999999995304
 51
295.000000000253
  0
LINE
  5
522
330
18
100
AcDbEntity
  8
1
  6
Continuous
100
AcDbLine
 10
201.2286711794465
 20
117.5661289381362
 30
0.0
 11
201.8625985719944
 21
118.9255906185757
 31
0.0
  0
ARC
  5
523
330
18
100
AcDbEntity
  8
1
  6
Continuous
100
AcDbCircle
 10
204.9477118826943
 20
125.5416374639457
 30
0.0
 40
8.9
100
AcDbArc
 50
118.7883646262001
 51
155.0000000000199
  0
LINE
  5
524
330
18
100
AcDbEntity
  8
1
  6
Continuous
100
AcDbLine
 10
196.8815725780943
 20
129.3029399934358
 30
0.0
 11
198.6035573733943
 21
128.4999652961257
 31
0.0
  0
ARC
  5
525
330
18
100
AcDbEntity
  8
1
  6
Continuous
100
AcDbCircle
 10
204.9477118826944
 20
125.5416374639457
 30
0.0
 40
8.9585
100
AcDbArc
 50
151.865617500926
 51
208.1343824990739
  0
ARC
  5
526
330
18
100
AcDbEntity
  8
2
  6
Continuous
100
AcDbCircle
 10
204.9477118826944
 20
125.5416374639457
 30
0.0
 40
9.5
100
AcDbArc
 50
146.2612773512629
 51
213.7387226487371
  0
LINE
  5
527
330
18
100
AcDbEntity
  8
1
  6
Continuous
100
AcDbLine
 10
197.0477118826943
 20
120.2652750806358
 30
0.0
 11
197.0477118826943
 21
129.2254679633657
 31
0.0
  0
LINE
  5
528
330
18
100
AcDbEntity
  8
1
  6
Continuous
100
AcDbLine
 10
197.0477118826943
 20
129.6356311685458
 30
0.0
 11
197.0477118826943
 21
130.8179998472558
 31
0.0
  0
LINE
  5
529
330
18
100
AcDbEntity
  8
1
  6
Continuous
100
AcDbLine
 10
199.4477118826944
 20
122.3662109833957
 30
0.0
 11
199.4477118826944
 21
128.7170639445458
 31
0.0
  0
ARC
  5
52E
330
18
100
AcDbEntity
  8
1
  6
Continuous
100
AcDbCircle
 10
204.9477118826944
 20
125.5416374639457
 30
0.0
 40
8.9
100
AcDbArc
 50
294.9999999999898
 51
331.2116353738097
  0
LINE
  5
52F
330
18
100
AcDbEntity
  8
1
  6
Continuous
100
AcDbLine
 10
204.9477118826942
 20
119.1907845028558
 30
0.0
 11
210.4477118826944
 21
122.3662109833958
 31
0.0
  0
LINE
  5
530
330
18
100
AcDbEntity
  8
1
  6
Continuous
100
AcDbLine
 10
207.9060397148942
 20
119.1974829546858
 30
0.0
 11
208.7090144121944
 21
117.4754981593159
 31
0.0
  0
LINE
  5
537
330
18
100
AcDbEntity
  8
1
  6
Continuous
100
AcDbLine
 10
204.9477118825943
 20
131.8924904250257
 30
0.0
 11
210.4477118826943
 21
128.7170639444157
 31
0.0
  0
ARC
  5
538
330
18
100
AcDbEntity
  8
1
  6
Continuous
100
AcDbCircle
 10
204.9477118826943
 20
125.5416374639457
 30
0.0
 40
8.5
100
AcDbArc
 50
23.41551361544571
 51
66.58448638443886
  0
LINE
  5
539
330
18
100
AcDbEntity
  8
1
  6
Continuous
100
AcDbLine
 10
207.6477118826943
 20
123.3145317188158
 30
0.0
 11
207.6477118826942
 21
127.7687432090756
 31
0.0
  0
ARC
  5
545
330
18
100
AcDbEntity
  8
1
  6
Continuous
100
AcDbCircle
 10
204.9477118826944
 20
125.5416374639457
 30
0.0
 40
8.9585
100
AcDbArc
 50
331.8656175009235
 51
28.13438249907639
  0
ARC
  5
546
330
18
100
AcDbEntity
  8
2
  6
Continuous
100
AcDbCircle
 10
204.9477118826944
 20
125.5416374639457
 30
0.0
 40
9.5
100
AcDbArc
 50
326.2612773512617
 51
33.73872264873821
  0
LINE
  5
547
330
18
100
AcDbEntity
  8
1
  6
Continuous
100
AcDbLine
 10
212.7477118826943
 20
121.2556136655958
 30
0.0
 11
212.7477118826943
 21
128.9195066147557
 31
0.0
  0
LINE
  5
548
330
18
100
AcDbEntity
  8
1
  6
Continuous
100
AcDbLine
 10
212.8477118826943
 20
120.2652750806358
 30
0.0
 11
212.8477118826943
 21
130.8179998472558
 31
0.0
  0
LINE
  5
549
330
18
100
AcDbEntity
  8
1
  6
Continuous
100
AcDbLine
 10
210.4477118826943
 20
122.3662109833957
 30
0.0
 11
210.4477118826943
 21
128.7170639444157
 31
0.0
  0
ARC
  5
54F
330
18
100
AcDbEntity
  8
1
  6
Continuous
100
AcDbCircle
 10
204.9477118826943
 20
125.5416374639507
 30
0.0
 40
8.799999999877
100
AcDbArc
 50
332.4198007979294
 51
333.8609170365101
  0
LINE
  5
55E
330
18
100
AcDbEntity
  8
1
  6
Continuous
100
AcDbLine
 10
215.9477118826943
 20
119.1907845028507
 30
0.0
 11
215.9477118826943
 21
131.8924904250207
 31
0.0
  0
LINE
  5
6FA
330
18
100
AcDbEntity
  8
1
  6
Continuous
100
AcDbLine
 10
202.2477118826945
 20
123.3145317188158
 30
0.0
 11
202.2477118826945
 21
127.7687432090756
 31
0.0
  0
ARC
  5
6FB
330
18
100
AcDbEntity
  8
2
  6
Continuous
100
AcDbCircle
 10
204.9477118826894
 20
125.5416374639457
 30
0.0
 40
3.093999999999998
100
AcDbArc
 50
209.2311451397373
 51
330.768854860642
  0
ARC
  5
6FC
330
18
100
AcDbEntity
  8
1
  6
Continuous
100
AcDbCircle
 10
204.9477118826944
 20
125.5416374639258
 30
0.0
 40
3.4999999999999
100
AcDbArc
 50
219.5176527968957
 51
320.4823472028259
  0
ARC
  5
6FD
330
18
100
AcDbEntity
  8
2
  6
Continuous
100
AcDbCircle
 10
204.9477118826894
 20
125.5416374639457
 30
0.0
 40
3.093999999999998
100
AcDbArc
 50
29.23114513936132
 51
150.7688548602593
  0
ARC
  5
6FE
330
18
100
AcDbEntity
  8
1
  6
Continuous
100
AcDbCircle
 10
204.9477118826944
 20
125.5416374639258
 30
0.0
 40
3.4999999999999
100
AcDbArc
 50
39.51765279717705
 51
140.4823472028325
  0
ARC
  5
6FF
330
18
100
AcDbEntity
  8
1
  6
Continuous
100
AcDbCircle
 10
204.9477118826994
 20
125.5416374639457
 30
0.0
 40
3.093999999999998
100
AcDbArc
 50
330.7688548602272
 51
29.23114513977605
  0
ARC
  5
700
330
18
100
AcDbEntity
  8
2
  6
Continuous
100
AcDbCircle
 10
204.9477118826944
 20
125.5416374639258
 30
0.0
 40
3.4999999999999
100
AcDbArc
 50
320.4823472031043
 51
39.51765279717885
  0
LINE
  5
A6E
330
18
100
AcDbEntity
  8
1
  6
Continuous
100
AcDbLine
 10
95.74122190953993
 20
193.7126803791658
 30
0.0
 11
101.9574672394999
 21
191.0416374639458
 31
0.0
  0
LINE
  5
A6F
330
18
100
AcDbEntity
  8
1
  6
Continuous
100
AcDbLine
 10
101.9574672394998
 20
220.0416374639458
 30
0.0
 11
95.74122190953987
 21
217.3705945487258
 31
0.0
  0
LINE
  5
A70
330
18
100
AcDbEntity
  8
4
  6
CENTER
 48
0.3
100
AcDbLine
 10
90.95746723949988
 20
205.5416374639456
 30
0.0
 11
133.2574672394999
 21
205.5416374639456
 31
0.0
  0
LINE
  5
A72
330
18
100
AcDbEntity
  8
1
  6
Continuous
100
AcDbLine
 10
95.55746723949985
 20
193.9916374639456
 30
0.0
 11
95.55746723949985
 21
217.0916374639457
 31
0.0
  0
LINE
  5
A73
330
18
100
AcDbEntity
  8
1
  6
Continuous
100
AcDbLine
 10
94.95746723949993
 20
195.3416374639458
 30
0.0
 11
94.95746723949993
 21
215.7416374639458
 31
0.0
  0
LINE
  5
A74
330
18
100
AcDbEntity
  8
1
  6
Continuous
100
AcDbLine
 10
94.95746723949984
 20
195.3416374639458
 30
0.0
 11
95.55746723949985
 21
194.7416374639457
 31
0.0
  0
LINE
  5
A75
330
18
100
AcDbEntity
  8
1
  6
Continuous
100
AcDbLine
 10
95.55746723949992
 20
193.9916374639458
 30
0.0
 11
95.74122190953993
 21
193.7126803791658
 31
0.0
  0
LINE
  5
A7C
330
18
100
AcDbEntity
  8
1
  6
Continuous
100
AcDbLine
 10
95.55746723949992
 20
216.3416374639458
 30
0.0
 11
94.95746723949984
 21
215.7416374639458
 31
0.0
  0
LINE
  5
A7D
330
18
100
AcDbEntity
  8
1
  6
Continuous
100
AcDbLine
 10
95.74122190953984
 20
217.3705945487256
 30
0.0
 11
95.55746723949992
 21
217.0916374639458
 31
0.0
  0
LINE
  5
A84
330
18
100
AcDbEntity
  8
1
  6
Continuous
100
AcDbLine
 10
129.2574672394998
 20
202.841637463946
 30
0.0
 11
129.2574672394999
 21
208.2416374639457
 31
0.0
  0
LINE
  5
A85
330
18
100
AcDbEntity
  8
1
  6
Continuous
100
AcDbLine
 10
130.2574672394999
 20
208.0416374639457
 30
0.0
 11
130.0574672394999
 21
208.2416374639457
 31
0.0
  0
LINE
  5
A86
330
18
100
AcDbEntity
  8
1
  6
Continuous
100
AcDbLine
 10
152.8574672394999
 20
199.0416374639457
 30
0.0
 11
152.8574672394999
 21
212.0416374639457
 31
0.0
  0
LINE
  5
A87
330
18
100
AcDbEntity
  8
1
  6
Continuous
100
AcDbLine
 10
153.6574672394999
 20
199.0416374639457
 30
0.0
 11
153.6574672394999
 21
212.0416374639457
 31
0.0
  0
LINE
  5
A88
330
18
100
AcDbEntity
  8
1
  6
Continuous
100
AcDbLine
 10
157.6574672394999
 20
211.0416374640196
 30
0.0
 11
157.6574672394999
 21
200.0416374638727
 31
0.0
  0
LINE
  5
A8B
330
18
100
AcDbEntity
  8
1
  6
Continuous
100
AcDbLine
 10
120.2574672394999
 20
197.4754981593157
 30
0.0
 11
120.2574672394999
 21
213.3416374639457
 31
0.0
  0
LINE
  5
A8C
330
18
100
AcDbEntity
  8
1
  6
Continuous
100
AcDbLine
 10
118.6574672394999
 20
197.4754981593158
 30
0.0
 11
118.6574672394999
 21
213.3416374639458
 31
0.0
  0
LINE
  5
A92
330
18
100
AcDbEntity
  8
1
  6
Continuous
100
AcDbLine
 10
146.8574672394999
 20
194.541637463946
 30
0.0
 11
146.8574672394999
 21
216.5416374639456
 31
0.0
  0
LINE
  5
A94
330
18
100
AcDbEntity
  8
1
  6
Continuous
100
AcDbLine
 10
101.9574672394999
 20
191.0416374639457
 30
0.0
 11
101.9574672394999
 21
220.0416374639457
 31
0.0
  0
LINE
  5
A95
330
18
100
AcDbEntity
  8
1
  6
Continuous
100
AcDbLine
 10
102.7574672394999
 20
191.1416374639458
 30
0.0
 11
102.7574672394999
 21
219.9416374639458
 31
0.0
  0
LINE
  5
A96
330
18
100
AcDbEntity
  8
1
  6
Continuous
100
AcDbLine
 10
142.8574672394998
 20
216.5416374639457
 30
0.0
 11
142.8574672394999
 21
194.5416374639458
 31
0.0
  0
LINE
  5
A9A
330
18
100
AcDbEntity
  8
1
  6
Continuous
100
AcDbLine
 10
115.4574672394999
 20
197.6416374639457
 30
0.0
 11
115.4574672395
 21
213.4416374639457
 31
0.0
  0
LINE
  5
A9C
330
18
100
AcDbEntity
  8
1
  6
Continuous
100
AcDbLine
 10
114.7574672393699
 20
197.6416374639457
 30
0.0
 11
114.7574672393697
 21
213.4416374639458
 31
0.0
  0
LINE
  5
A9E
330
18
100
AcDbEntity
  8
1
  6
Continuous
100
AcDbLine
 10
142.8574672394999
 20
194.5416374639458
 30
0.0
 11
146.8574672394999
 21
194.5416374639458
 31
0.0
  0
LINE
  5
AA0
330
18
100
AcDbEntity
  8
1
  6
Continuous
100
AcDbLine
 10
102.7574672394999
 20
195.2416374639458
 30
0.0
 11
102.8574672394998
 21
195.3416374639455
 31
0.0
  0
LINE
  5
AA1
330
18
100
AcDbEntity
  8
1
  6
Continuous
100
AcDbLine
 10
102.6574672394998
 20
191.0416374639457
 30
0.0
 11
102.7574672394999
 21
191.1416374639458
 31
0.0
  0
LINE
  5
AA2
330
18
100
AcDbEntity
  8
1
  6
Continuous
100
AcDbLine
 10
101.9574672394999
 20
191.0416374639457
 30
0.0
 11
102.6574672394999
 21
191.0416374639457
 31
0.0
  0
LINE
  5
AA3
330
18
100
AcDbEntity
  8
1
  6
Continuous
100
AcDbLine
 10
102.8574672394998
 20
197.6416374639457
 30
0.0
 11
118.2574672394998
 21
197.6416374639457
 31
0.0
  0
LINE
  5
AAE
330
18
100
AcDbEntity
  8
1
  6
Continuous
100
AcDbLine
 10
120.2574672394999
 20
197.4754981593158
 30
0.0
 11
118.6574672394999
 21
197.4754981593158
 31
0.0
  0
LINE
  5
AB6
330
18
100
AcDbEntity
  8
1
  6
Continuous
100
AcDbLine
 10
152.8574672394999
 20
199.0416374639457
 30
0.0
 11
153.6574672394999
 21
199.0416374639457
 31
0.0
  0
LINE
  5
AB7
330
18
100
AcDbEntity
  8
1
  6
Continuous
100
AcDbLine
 10
120.2574672394999
 20
201.2556136656457
 30
0.0
 11
118.6574672394999
 21
201.2556136656457
 31
0.0
  0
LINE
  5
ABD
330
18
100
AcDbEntity
  8
1
  6
Continuous
100
AcDbLine
 10
118.4574672394999
 20
200.5666374639458
 30
0.0
 11
118.6574672394999
 21
200.7666374639458
 31
0.0
  0
LINE
  5
ABF
330
18
100
AcDbEntity
  8
1
  6
Continuous
100
AcDbLine
 10
118.2574672394999
 20
200.5666374639458
 30
0.0
 11
118.4574672394999
 21
200.5666374639458
 31
0.0
  0
LINE
  5
AC9
330
18
100
AcDbEntity
  8
1
  6
Continuous
100
AcDbLine
 10
130.0574672395001
 20
202.841637463946
 30
0.0
 11
130.2574672394998
 21
203.0416374639457
 31
0.0
  0
LINE
  5
ACB
330
18
100
AcDbEntity
  8
1
  6
Continuous
100
AcDbLine
 10
154.1487074256023
 20
205.5416374639482
 30
0.0
 11
157.1662270533963
 21
205.5416374639456
 31
0.0
  0
LINE
  5
ACD
330
18
100
AcDbEntity
  8
1
  6
Continuous
100
AcDbLine
 10
153.6574672394998
 20
200.0416374639323
 30
0.0
 11
157.6574672394999
 21
200.0416374639477
 31
0.0
  0
LINE
  5
ACF
330
18
100
AcDbEntity
  8
1
  6
Continuous
100
AcDbLine
 10
120.2574672394999
 20
202.841637463946
 30
0.0
 11
130.0574672395001
 21
202.841637463946
 31
0.0
  0
LINE
  5
AD2
330
18
100
AcDbEntity
  8
1
  6
Continuous
100
AcDbLine
 10
130.2574672394999
 20
203.0416374639457
 30
0.0
 11
130.2574672394999
 21
208.0416374639457
 31
0.0
  0
LINE
  5
AD8
330
18
100
AcDbEntity
  8
1
  6
Continuous
100
AcDbLine
 10
146.8574672394999
 20
216.5416374639457
 30
0.0
 11
142.8574672394998
 21
216.5416374639457
 31
0.0
  0
LINE
  5
AD9
330
18
100
AcDbEntity
  8
1
  6
Continuous
100
AcDbLine
 10
142.8574672394999
 20
205.5416374639456
 30
0.0
 11
145.8574672394999
 21
205.5416374639456
 31
0.0
  0
LINE
  5
ADB
330
18
100
AcDbEntity
  8
1
  6
Continuous
100
AcDbLine
 10
102.7574672394999
 20
215.7318274745058
 30
0.0
 11
102.8574672394999
 21
215.6307404964258
 31
0.0
  0
LINE
  5
ADE
330
18
100
AcDbEntity
  8
1
  6
Continuous
100
AcDbLine
 10
102.8574672394998
 20
213.4416374639457
 30
0.0
 11
118.2574672394998
 21
213.4416374639457
 31
0.0
  0
LINE
  5
AE8
330
18
100
AcDbEntity
  8
1
  6
Continuous
100
AcDbLine
 10
102.7574672394999
 20
219.9416374639457
 30
0.0
 11
102.6574672394999
 21
220.0416374639457
 31
0.0
  0
LINE
  5
AE9
330
18
100
AcDbEntity
  8
1
  6
Continuous
100
AcDbLine
 10
102.6574672394999
 20
220.0416374639457
 30
0.0
 11
101.9574672394999
 21
220.0416374639457
 31
0.0
  0
LINE
  5
AEC
330
18
100
AcDbEntity
  8
1
  6
Continuous
100
AcDbLine
 10
153.6574672394999
 20
212.0416374639457
 30
0.0
 11
152.8574672394999
 21
212.0416374639457
 31
0.0
  0
LINE
  5
AED
330
18
100
AcDbEntity
  8
1
  6
Continuous
100
AcDbLine
 10
120.2574672394999
 20
213.3416374639458
 30
0.0
 11
118.6574672394999
 21
213.3416374639458
 31
0.0
  0
LINE
  5
AEF
330
18
100
AcDbEntity
  8
1
  6
Continuous
100
AcDbLine
 10
120.2574672394999
 20
208.9195066147456
 30
0.0
 11
118.6574672394999
 21
208.9195066147456
 31
0.0
  0
LINE
  5
AF0
330
18
100
AcDbEntity
  8
1
  6
Continuous
100
AcDbLine
 10
118.6574672394999
 20
210.3166374639457
 30
0.0
 11
118.4574672394998
 21
210.5166374639458
 31
0.0
  0
LINE
  5
AF1
330
18
100
AcDbEntity
  8
1
  6
Continuous
100
AcDbLine
 10
118.4574672394999
 20
210.5166374639458
 30
0.0
 11
118.2574672394999
 21
210.5166374639458
 31
0.0
  0
LINE
  5
AF5
330
18
100
AcDbEntity
  8
1
  6
Continuous
100
AcDbLine
 10
153.6574672394999
 20
211.0416374639332
 30
0.0
 11
157.6574672394999
 21
211.0416374639474
 31
0.0
  0
LINE
  5
AF7
330
18
100
AcDbEntity
  8
1
  6
Continuous
100
AcDbLine
 10
130.0574672394999
 20
208.2416374639457
 30
0.0
 11
120.2574672394999
 21
208.2416374639456
 31
0.0
  0
ARC
  5
DBF
330
18
100
AcDbEntity
  8
1
  6
Continuous
100
AcDbCircle
 10
131.2324672390246
 20
200.0416374638592
 30
0.0
 40
15.62500000047528
100
AcDbArc
 50
339.3903070634625
 51
20.60969293721502
  0
ARC
  5
DC0
330
18
100
AcDbEntity
  8
1
  6
Continuous
100
AcDbCircle
 10
131.2324672390246
 20
211.041637464032
 30
0.0
 40
15.62500000047528
100
AcDbArc
 50
339.390307062785
 51
20.60969293653748
  0
ARC
  5
DE8
330
18
100
AcDbEntity
  8
1
  6
Continuous
100
AcDbCircle
 10
149.7144923553982
 20
208.2916374639677
 30
0.0
 40
7.942974884101682
100
AcDbArc
 50
339.7438420005554
 51
20.25615799910473
  0
ARC
  5
DE9
330
18
100
AcDbEntity
  8
1
  6
Continuous
100
AcDbCircle
 10
161.6004421235976
 20
208.2916374639677
 30
0.0
 40
7.942974884101682
100
AcDbArc
 50
159.7438420008952
 51
200.2561579994446
  0
ARC
  5
DEA
330
18
100
AcDbEntity
  8
1
  6
Continuous
100
AcDbCircle
 10
149.7144923553982
 20
202.7916374639287
 30
0.0
 40
7.942974884101682
100
AcDbArc
 50
339.7438420008952
 51
20.2561579994446
  0
ARC
  5
DEB
330
18
100
AcDbEntity
  8
1
  6
Continuous
100
AcDbCircle
 10
161.6004421235976
 20
202.7916374639287
 30
0.0
 40
7.942974884101682
100
AcDbArc
 50
159.7438420005554
 51
200.2561579991047
  0
LINE
  5
DF5
330
18
100
AcDbEntity
  8
1
  6
Continuous
100
AcDbLine
 10
103.8574672394998
 20
213.4416374639457
 30
0.0
 11
103.8574672394998
 21
197.6416374639457
 31
0.0
  0
LINE
  5
DF6
330
18
100
AcDbEntity
  8
1
  6
Continuous
100
AcDbLine
 10
102.8574672394998
 20
215.6307404964259
 30
0.0
 11
102.8574672394998
 21
195.3416374639458
 31
0.0
  0
ARC
  5
FDC
330
18
100
AcDbEntity
  8
2
  6
Continuous
100
AcDbCircle
 10
204.9477118826894
 20
125.5416374639457
 30
0.0
 40
8.9585
100
AcDbArc
 50
28.13438249900841
 51
151.8656175008583
  0
ARC
  5
140E
330
18
100
AcDbEntity
  8
1
  6
Continuous
100
AcDbCircle
 10
204.9477118826943
 20
125.5416374639757
 30
0.0
 40
8.799999999877
100
AcDbArc
 50
26.13908296347801
 51
117.5801992024782
  0
LINE
  5
1CF2
330
18
100
AcDbEntity
  8
4
  6
CENTER
 48
0.3
100
AcDbLine
 10
90.95746723949988
 20
125.5416374639456
 30
0.0
 11
133.2574672394999
 21
125.5416374639456
 31
0.0
  0
LINE
  5
1CF3
330
18
100
AcDbEntity
  8
1
  6
Continuous
100
AcDbLine
 10
95.74122190953993
 20
113.7126803791658
 30
0.0
 11
101.9574672394999
 21
111.0416374639459
 31
0.0
  0
LINE
  5
1CF4
330
18
100
AcDbEntity
  8
1
  6
Continuous
100
AcDbLine
 10
101.9574672394999
 20
140.0416374639458
 30
0.0
 11
95.74122190953993
 21
137.3705945487258
 31
0.0
  0
LINE
  5
1CF6
330
18
100
AcDbEntity
  8
1
  6
Continuous
100
AcDbLine
 10
95.74122190953993
 20
113.7126803791658
 30
0.0
 11
95.74122190953993
 21
137.3705945487258
 31
0.0
  0
LINE
  5
1CF7
330
18
100
AcDbEntity
  8
1
  6
Continuous
100
AcDbLine
 10
95.55746723949992
 20
113.9916374639459
 30
0.0
 11
95.55746723949992
 21
137.0916374639458
 31
0.0
  0
LINE
  5
1CF8
330
18
100
AcDbEntity
  8
4
  6
CENTER
 48
0.3
100
AcDbLine
 10
32.19852819750281
 20
143.0416374639457
 30
0.0
 11
32.19852819750281
 21
108.0416374639457
 31
0.0
  0
CIRCLE
  5
1CF9
330
18
100
AcDbEntity
  8
1
  6
Continuous
100
AcDbCircle
 10
32.19852819750281
 20
125.5416374639457
 30
0.0
 40
11.0
  0
CIRCLE
  5
1CFA
330
18
100
AcDbEntity
  8
1
  6
Continuous
100
AcDbCircle
 10
32.19852819750281
 20
125.5416374639457
 30
0.0
 40
14.5
  0
CIRCLE
  5
1CFD
330
18
100
AcDbEntity
  8
1
  6
Continuous
100
AcDbCircle
 10
32.19852819750281
 20
125.5416374639457
 30
0.0
 40
11.55
  0
LINE
  5
1CFF
330
18
100
AcDbEntity
  8
1
  6
Continuous
100
AcDbLine
 10
95.55746723950004
 20
136.341637463946
 30
0.0
 11
94.9574672395
 21
135.7416374639459
 31
0.0
  0
LINE
  5
1D00
330
18
100
AcDbEntity
  8
4
  6
CENTER
 48
0.3
100
AcDbLine
 10
49.69852819750281
 20
125.5416374639457
 30
0.0
 11
14.69852819750281
 21
125.5416374639457
 31
0.0
  0
LINE
  5
1D0E
330
18
100
AcDbEntity
  8
4
  6
CENTER
 48
0.3
100
AcDbLine
 10
69.73948321985409
 20
205.5416374639456
 30
0.0
 11
12.23948321985358
 21
205.5416374639456
 31
0.0
  0
LINE
  5
1D0F
330
18
100
AcDbEntity
  8
1
  6
Continuous
100
AcDbLine
 10
43.03948321985359
 20
211.0416374639456
 30
0.0
 11
34.93948321985357
 21
211.0416374639456
 31
0.0
  0
LINE
  5
1D10
330
18
100
AcDbEntity
  8
1
  6
Continuous
100
AcDbLine
 10
34.93948321985362
 20
200.0416374639456
 30
0.0
 11
43.03948321985359
 21
200.0416374639456
 31
0.0
  0
LINE
  5
1D19
330
18
100
AcDbEntity
  8
1
  6
Continuous
100
AcDbLine
 10
19.64575014808355
 20
216.6510378564061
 30
0.0
 11
15.57538263117356
 21
210.5454865809956
 31
0.0
  0
LINE
  5
1D1A
330
18
100
AcDbEntity
  8
1
  6
Continuous
100
AcDbLine
 10
15.57538263117368
 20
200.5377883468954
 30
0.0
 11
19.64575014808366
 21
194.4322370714854
 31
0.0
  0
ARC
  5
1D25
330
18
100
AcDbEntity
  8
1
  6
Continuous
100
AcDbCircle
 10
17.23948321985363
 20
201.6471887393455
 30
0.0
 40
2.0
100
AcDbArc
 50
180.0000000001188
 51
213.6900675259097
  0
ARC
  5
1D26
330
18
100
AcDbEntity
  8
1
  6
Continuous
100
AcDbCircle
 10
17.23948321985363
 20
209.4360861885556
 30
0.0
 40
2.0
100
AcDbArc
 50
146.3099324742501
 51
180.0000000000195
  0
LINE
  5
1D2F
330
18
100
AcDbEntity
  8
1
  6
Continuous
100
AcDbLine
 10
15.23948321985364
 20
209.4360861885556
 30
0.0
 11
15.23948321985364
 21
201.6471887393455
 31
0.0
  0
LINE
  5
1D3A
330
18
100
AcDbEntity
  8
1
  6
Continuous
100
AcDbLine
 10
26.43949549457465
 20
194.94141600726
 30
0.0
 11
34.9094832198536
 21
201.2914644748855
 31
0.0
  0
LINE
  5
1D3F
330
18
100
AcDbEntity
  8
1
  6
Continuous
100
AcDbLine
 10
34.90948321985371
 20
209.7918104529991
 30
0.0
 11
26.43949549456573
 21
216.1418589206315
 31
0.0
  0
LINE
  5
1D42
330
18
100
AcDbEntity
  8
1
  6
Continuous
100
AcDbLine
 10
34.93948321985362
 20
211.0416374639456
 30
0.0
 11
26.77191354550359
 21
217.1438446917356
 31
0.0
  0
LINE
  5
1D43
330
18
100
AcDbEntity
  8
1
  6
Continuous
100
AcDbLine
 10
26.77191354550359
 20
193.9394302361555
 30
0.0
 11
34.93948321985368
 21
200.0416374639455
 31
0.0
  0
ARC
  5
1D46
330
18
100
AcDbEntity
  8
1
  6
Continuous
100
AcDbCircle
 10
18.23948321985364
 20
201.9499643770966
 30
0.0
 40
2.0
100
AcDbArc
 50
180.0
 51
213.6900675259802
  0
ARC
  5
1D47
330
18
100
AcDbEntity
  8
1
  6
Continuous
100
AcDbCircle
 10
20.73948321984363
 20
202.0416374639555
 30
0.0
 40
0.5
100
AcDbArc
 50
270.0
 51
0.0000000000113991
  0
ARC
  5
1D48
330
18
100
AcDbEntity
  8
1
  6
Continuous
100
AcDbCircle
 10
18.23948321982362
 20
202.0416374639455
 30
0.0
 40
0.5
100
AcDbArc
 50
180.0
 51
270.0000000019069
  0
LINE
  5
1D50
330
18
100
AcDbEntity
  8
1
  6
Continuous
100
AcDbLine
 10
21.84503449528762
 20
194.5416374639455
 30
0.0
 11
25.23979082693262
 21
194.5416374639455
 31
0.0
  0
LINE
  5
1D53
330
18
100
AcDbEntity
  8
1
  6
Continuous
100
AcDbLine
 10
21.30985073676362
 20
193.5416374639255
 30
0.0
 11
25.5748621684736
 21
193.5416374639256
 31
0.0
  0
ARC
  5
1D54
330
18
100
AcDbEntity
  8
1
  6
Continuous
100
AcDbCircle
 10
21.30985073676362
 20
195.5416374639255
 30
0.0
 40
1.999999999999899
100
AcDbArc
 50
213.6900675257792
 51
270.0000000000096
  0
LINE
  5
1D58
330
18
100
AcDbEntity
  8
1
  6
Continuous
100
AcDbLine
 10
16.57538263117811
 20
200.8405639846465
 30
0.0
 11
20.18093390661209
 21
195.432237071495
 31
0.0
  0
LINE
  5
1D5A
330
18
100
AcDbEntity
  8
1
  6
Continuous
100
AcDbLine
 10
18.23948321984363
 20
201.5416374639455
 30
0.0
 11
20.73948321984363
 21
201.5416374639455
 31
0.0
  0
ARC
  5
1D5F
330
18
100
AcDbEntity
  8
1
  6
Continuous
100
AcDbCircle
 10
21.84503449528762
 20
196.5416374639455
 30
0.0
 40
2.0
100
AcDbArc
 50
213.6900675259802
 51
270.0
  0
ARC
  5
1D60
330
18
100
AcDbEntity
  8
1
  6
Continuous
100
AcDbCircle
 10
25.57486216846359
 20
195.5416374639255
 30
0.0
 40
1.999999999999899
100
AcDbArc
 50
270.0000000000374
 51
306.7643806750883
  0
ARC
  5
1D67
330
18
100
AcDbEntity
  8
1
  6
Continuous
100
AcDbCircle
 10
25.23979082693262
 20
196.5416374639455
 30
0.0
 40
2.0
100
AcDbArc
 50
270.0000000000016
 51
306.8593225666882
  0
LINE
  5
1D6A
330
18
100
AcDbEntity
  8
1
  6
Continuous
100
AcDbLine
 10
21.84503449528762
 20
216.5416374639455
 30
0.0
 11
25.23979082693262
 21
216.5416374639456
 31
0.0
  0
LINE
  5
1D6B
330
18
100
AcDbEntity
  8
1
  6
Continuous
100
AcDbLine
 10
25.57486216847354
 20
217.5416374639656
 30
0.0
 11
21.30985073676362
 21
217.5416374639655
 31
0.0
  0
ARC
  5
1D6E
330
18
100
AcDbEntity
  8
1
  6
Continuous
100
AcDbCircle
 10
18.23948321985364
 20
209.133310550641
 30
0.0
 40
2.0
100
AcDbArc
 50
146.3099324740197
 51
180.0
  0
LINE
  5
1D75
330
18
100
AcDbEntity
  8
1
  6
Continuous
100
AcDbLine
 10
20.73948321984363
 20
209.5416374639455
 30
0.0
 11
18.23948321984363
 21
209.5416374639455
 31
0.0
  0
LINE
  5
1D77
330
18
100
AcDbEntity
  8
1
  6
Continuous
100
AcDbLine
 10
16.23948321985364
 20
201.9499643770966
 30
0.0
 11
16.23948321985364
 21
209.133310550641
 31
0.0
  0
ARC
  5
1D7D
330
18
100
AcDbEntity
  8
1
  6
Continuous
100
AcDbCircle
 10
18.23948321984363
 20
209.0416374639255
 30
0.0
 40
0.5
100
AcDbArc
 50
90.0
 51
179.9999999980898
  0
ARC
  5
1D81
330
18
100
AcDbEntity
  8
1
  6
Continuous
100
AcDbCircle
 10
20.73948321985363
 20
209.0416374639455
 30
0.0
 40
0.5
100
AcDbArc
 50
0.0
 51
90.00000000121969
  0
LINE
  5
1D82
330
18
100
AcDbEntity
  8
1
  6
Continuous
100
AcDbLine
 10
21.23948321984363
 20
202.0416374639455
 30
0.0
 11
21.23948321984363
 21
209.0416374639455
 31
0.0
  0
LINE
  5
1D83
330
18
100
AcDbEntity
  8
1
  6
Continuous
100
AcDbLine
 10
20.18093390671452
 20
215.6510378563961
 30
0.0
 11
16.57538263117805
 21
210.2427109430916
 31
0.0
  0
ARC
  5
1D84
330
18
100
AcDbEntity
  8
1
  6
Continuous
100
AcDbCircle
 10
21.30985073675367
 20
215.5416374639555
 30
0.0
 40
1.999999999999899
100
AcDbArc
 50
89.99999999988926
 51
146.3099324740409
  0
ARC
  5
1D85
330
18
100
AcDbEntity
  8
1
  6
Continuous
100
AcDbCircle
 10
21.84503449539011
 20
214.5416374639455
 30
0.0
 40
2.0
100
AcDbArc
 50
90.0
 51
146.3099324740197
  0
ARC
  5
1D8B
330
18
100
AcDbEntity
  8
1
  6
Continuous
100
AcDbCircle
 10
25.23979082692363
 20
214.5416374639455
 30
0.0
 40
2.0
100
AcDbArc
 50
53.1406774333095
 51
90.0
  0
ARC
  5
1D8C
330
18
100
AcDbEntity
  8
1
  6
Continuous
100
AcDbCircle
 10
25.5748621684736
 20
215.5416374639655
 30
0.0
 40
2.0
100
AcDbArc
 50
53.23561932502923
 51
90.00000000007981
  0
LINE
  5
1D93
330
18
100
AcDbEntity
  8
1
  6
Continuous
100
AcDbLine
 10
34.90948321985365
 20
201.2914644748856
 30
0.0
 11
34.90948321985365
 21
209.7918104529991
 31
0.0
  0
LINE
  5
1DA9
330
18
100
AcDbEntity
  8
1
  6
Continuous
100
AcDbLine
 10
30.17352819750283
 20
126.5916374639457
 30
0.0
 11
37.85184580754281
 21
126.5916374639456
 31
0.0
  0
LINE
  5
1DAA
330
18
100
AcDbEntity
  8
1
  6
Continuous
100
AcDbLine
 10
30.17352819750283
 20
124.4916374639457
 30
0.0
 11
37.85184580754286
 21
124.4916374639456
 31
0.0
  0
LINE
  5
1DAB
330
18
100
AcDbEntity
  8
1
  6
Continuous
100
AcDbLine
 10
27.47352819750273
 20
124.3416374639456
 30
0.0
 11
36.92352819750283
 21
124.3416374639456
 31
0.0
  0
LINE
  5
1DAC
330
18
100
AcDbEntity
  8
1
  6
Continuous
100
AcDbLine
 10
27.47352819750273
 20
126.7416374639455
 30
0.0
 11
36.92352819750283
 21
126.7416374639455
 31
0.0
  0
CIRCLE
  5
1DAE
330
18
100
AcDbEntity
  8
1
  6
Continuous
100
AcDbCircle
 10
32.19852819750281
 20
125.5416374639457
 30
0.0
 40
5.9
  0
CIRCLE
  5
1DAF
330
18
100
AcDbEntity
  8
1
  6
Continuous
100
AcDbCircle
 10
32.19852819750281
 20
125.5416374639457
 30
0.0
 40
10.2
  0
ARC
  5
1DB0
330
18
100
AcDbEntity
  8
1
  6
Continuous
100
AcDbCircle
 10
32.19852819750281
 20
125.5416374639557
 30
0.0
 40
4.0
100
AcDbArc
 50
197.45760312389
 51
342.5423968760691
  0
ARC
  5
1DB1
330
18
100
AcDbEntity
  8
1
  6
Continuous
100
AcDbCircle
 10
32.19852819750281
 20
125.5416374639557
 30
0.0
 40
4.0
100
AcDbArc
 50
17.45760312355177
 51
162.5423968764905
  0
ARC
  5
1DB2
330
18
100
AcDbEntity
  8
1
  6
Continuous
100
AcDbCircle
 10
32.19852819750281
 20
125.5416374639457
 30
0.0
 40
5.75
100
AcDbArc
 50
10.52174596600193
 51
349.4782540340693
  0
ARC
  5
1DB3
330
18
100
AcDbEntity
  8
1
  6
Continuous
100
AcDbCircle
 10
32.19852819750281
 20
125.5416374639457
 30
0.0
 40
4.875
100
AcDbArc
 50
165.7499673021797
 51
194.2500326977901
  0
LINE
  5
1DB4
330
18
100
AcDbEntity
  8
1
  6
Continuous
100
AcDbLine
 10
30.17352819750283
 20
124.4916374639457
 30
0.0
 11
30.17352819750283
 21
126.5916374639457
 31
0.0
  0
ARC
  5
1DB8
330
18
100
AcDbEntity
  8
1
  6
Continuous
100
AcDbCircle
 10
32.19852819750281
 20
125.5416374639457
 30
0.0
 40
4.875
100
AcDbArc
 50
345.7499673022401
 51
347.5619071849902
  0
ARC
  5
1DB9
330
18
100
AcDbEntity
  8
1
  6
Continuous
100
AcDbCircle
 10
32.1985281974928
 20
125.5416374639756
 30
0.0
 40
4.875
100
AcDbArc
 50
12.43809281472933
 51
14.2500326974774
  0
ARC
  5
1DC2
330
18
100
AcDbEntity
  8
1
  6
Continuous
100
AcDbCircle
 10
32.19852819750281
 20
125.5416374639557
 30
0.0
 40
5.19999999994
100
AcDbArc
 50
348.3418058359102
 51
11.64943791084231
  0
LINE
  5
1DC3
330
18
100
AcDbEntity
  8
1
  6
Continuous
100
AcDbLine
 10
62.41029238367435
 20
202.1561653702757
 30
0.0
 11
66.09288378857407
 21
203.5473665676856
 31
0.0
  0
LINE
  5
1DC4
330
18
100
AcDbEntity
  8
1
  6
Continuous
100
AcDbLine
 10
62.410292383674
 20
208.9271095576155
 30
0.0
 11
66.09288378857411
 21
207.5359083602056
 31
0.0
  0
LINE
  5
1DC6
330
18
100
AcDbEntity
  8
1
  6
Continuous
100
AcDbLine
 10
43.03948321985354
 20
208.9916374639457
 30
0.0
 11
62.0568918149541
 21
208.9916374639456
 31
0.0
  0
LINE
  5
1DC7
330
18
100
AcDbEntity
  8
1
  6
Continuous
100
AcDbLine
 10
43.03948321985359
 20
202.0916374639456
 30
0.0
 11
62.0568918149541
 21
202.0916374639456
 31
0.0
  0
LINE
  5
1DC8
330
18
100
AcDbEntity
  8
1
  6
Continuous
100
AcDbLine
 10
42.83948321985359
 20
201.8916374639456
 30
0.0
 11
42.83948321985359
 21
201.5532838664356
 31
0.0
  0
ARC
  5
1DD1
330
18
100
AcDbEntity
  8
1
  6
Continuous
100
AcDbCircle
 10
43.03948321979361
 20
201.5532838664956
 30
0.0
 40
0.20000000000005
100
AcDbArc
 50
180.000000016869
 51
226.8476102906901
  0
ARC
  5
1DD2
330
18
100
AcDbEntity
  8
1
  6
Continuous
100
AcDbCircle
 10
43.03948321985359
 20
200.2416374639251
 30
0.0
 40
0.19999999999999
100
AcDbArc
 50
270.0
 51
0.0000000059047379
  0
ARC
  5
1DD3
330
18
100
AcDbEntity
  8
1
  6
Continuous
100
AcDbCircle
 10
43.03948321982415
 20
201.0049910614851
 30
0.0
 40
0.20000000000005
100
AcDbArc
 50
0.0000000001139911
 51
46.84761025285921
  0
LINE
  5
1DD4
330
18
100
AcDbEntity
  8
1
  6
Continuous
100
AcDbLine
 10
42.90269499407361
 20
201.4073764256155
 30
0.0
 11
43.07948321985361
 21
201.2416374639455
 31
0.0
  0
LINE
  5
1DD5
330
18
100
AcDbEntity
  8
1
  6
Continuous
100
AcDbLine
 10
43.23948321985364
 20
200.2416374639455
 30
0.0
 11
43.23948321985364
 21
201.0049910614556
 31
0.0
  0
LINE
  5
1DD6
330
18
100
AcDbEntity
  8
1
  6
Continuous
100
AcDbLine
 10
43.17627144563352
 20
201.150898502276
 30
0.0
 11
43.07948321985361
 21
201.2416374639455
 31
0.0
  0
LINE
  5
1DD7
330
18
100
AcDbEntity
  8
1
  6
Continuous
100
AcDbLine
 10
42.90269499407361
 20
209.6758985022756
 30
0.0
 11
43.17627144563352
 21
209.9323764256156
 31
0.0
  0
ARC
  5
1DD8
330
18
100
AcDbEntity
  8
1
  6
Continuous
100
AcDbCircle
 10
43.03948321985359
 20
201.8916374639856
 30
0.0
 40
0.19999999999999
100
AcDbArc
 50
90.0
 51
180.0000000118502
  0
ARC
  5
1DD9
330
18
100
AcDbEntity
  8
1
  6
Continuous
100
AcDbCircle
 10
43.03948321985409
 20
209.1916374639456
 30
0.0
 40
0.19999999999999
100
AcDbArc
 50
180.0
 51
270.0000000010096
  0
ARC
  5
1DDA
330
18
100
AcDbEntity
  8
1
  6
Continuous
100
AcDbCircle
 10
43.03948321985359
 20
209.5299910614251
 30
0.0
 40
0.19999999999999
100
AcDbArc
 50
133.1523897281094
 51
179.9999999914197
  0
LINE
  5
1DDB
330
18
100
AcDbEntity
  8
1
  6
Continuous
100
AcDbLine
 10
42.83948321985359
 20
209.1916374639456
 30
0.0
 11
42.83948321985359
 21
209.5299910614556
 31
0.0
  0
ARC
  5
1DDC
330
18
100
AcDbEntity
  8
1
  6
Continuous
100
AcDbCircle
 10
43.03948321985359
 20
210.0782838665056
 30
0.0
 40
0.19999999999997
100
AcDbArc
 50
313.152389720205
 51
359.9999999999674
  0
ARC
  5
1DDD
330
18
100
AcDbEntity
  8
1
  6
Continuous
100
AcDbCircle
 10
43.03948321983415
 20
210.8416374639456
 30
0.0
 40
0.20000000000005
100
AcDbArc
 50
0.0
 51
89.99999999408059
  0
LINE
  5
1DDE
330
18
100
AcDbEntity
  8
1
  6
Continuous
100
AcDbLine
 10
43.23948321985364
 20
210.0782838664356
 30
0.0
 11
43.23948321985364
 21
210.8416374639456
 31
0.0
  0
ARC
  5
1DE0
330
18
100
AcDbEntity
  8
1
  6
Continuous
100
AcDbCircle
 10
62.0568918149441
 20
203.0916374639361
 30
0.0
 40
1.0
100
AcDbArc
 50
270.0000000008614
 51
290.6954507349839
  0
ARC
  5
1DE1
330
18
100
AcDbEntity
  8
1
  6
Continuous
100
AcDbCircle
 10
62.0568918149641
 20
207.9916374639456
 30
0.0
 40
1.0
100
AcDbArc
 50
69.30454926629934
 51
90.00000000038919
  0
LINE
  5
1DE3
330
18
100
AcDbEntity
  8
1
  6
Continuous
100
AcDbLine
 10
64.2394832198541
 20
202.8471930195026
 30
0.0
 11
64.2394832198541
 21
208.2360819083856
 31
0.0
  0
ARC
  5
1DE4
330
18
100
AcDbEntity
  8
1
  6
Continuous
100
AcDbCircle
 10
65.73948321985409
 20
206.6004362665393
 30
0.0
 40
1.0
100
AcDbArc
 50
0.0
 51
69.30454926589224
  0
ARC
  5
1DE5
330
18
100
AcDbEntity
  8
1
  6
Continuous
100
AcDbCircle
 10
65.73948321985409
 20
204.4828386613519
 30
0.0
 40
1.0
100
AcDbArc
 50
290.6954507341099
 51
0.0
  0
LINE
  5
1DE6
330
18
100
AcDbEntity
  8
1
  6
Continuous
100
AcDbLine
 10
66.7394832198541
 20
204.4828386613456
 30
0.0
 11
66.7394832198541
 21
206.6004362665456
 31
0.0
  0
LINE
  5
1DE8
330
18
100
AcDbEntity
  8
1
  6
Continuous
100
AcDbLine
 10
94.95746723949995
 20
115.3416374639458
 30
0.0
 11
94.95746723949995
 21
135.7416374639459
 31
0.0
  0
LINE
  5
1DE9
330
18
100
AcDbEntity
  8
1
  6
Continuous
100
AcDbLine
 10
94.9574672394999
 20
115.3416374639458
 30
0.0
 11
95.55746723949985
 21
114.7416374639459
 31
0.0
  0
LINE
  5
1DEA
330
18
100
AcDbEntity
  8
1
  6
Continuous
100
AcDbLine
 10
95.55746723950004
 20
113.9916374639459
 30
0.0
 11
95.74122190953998
 21
113.7126803791659
 31
0.0
  0
LINE
  5
1DEB
330
18
100
AcDbEntity
  8
1
  6
Continuous
100
AcDbLine
 10
93.95746723949988
 20
126.7416374639457
 30
0.0
 11
93.95746723949988
 21
129.5416374639457
 31
0.0
  0
LINE
  5
1DEC
330
18
100
AcDbEntity
  8
1
  6
Continuous
100
AcDbLine
 10
93.95746723949995
 20
121.5416374639459
 30
0.0
 11
93.95746723949995
 21
124.3416374639458
 31
0.0
  0
LINE
  5
1DED
330
18
100
AcDbEntity
  8
1
  6
Continuous
100
AcDbLine
 10
93.95746723949995
 20
121.5416374639459
 30
0.0
 11
94.95746723949995
 21
119.7916374639459
 31
0.0
  0
LINE
  5
1DEE
330
18
100
AcDbEntity
  8
1
  6
Continuous
100
AcDbLine
 10
94.45746723949993
 20
124.4916374639459
 30
0.0
 11
94.45746723949993
 21
126.5916374639458
 31
0.0
  0
LINE
  5
1DEF
330
18
100
AcDbEntity
  8
1
  6
Continuous
100
AcDbLine
 10
94.68073075076992
 20
124.4916374639457
 30
0.0
 11
94.9574672394999
 21
124.4916374639457
 31
0.0
  0
LINE
  5
1DF0
330
18
100
AcDbEntity
  8
1
  6
Continuous
100
AcDbLine
 10
94.45746723949993
 20
124.4916374639459
 30
0.0
 11
94.68073075076992
 21
124.4916374639459
 31
0.0
  0
LINE
  5
1DF1
330
18
100
AcDbEntity
  8
1
  6
Continuous
100
AcDbLine
 10
94.45746723949993
 20
124.4916374639458
 30
0.0
 11
94.45746723949993
 21
124.3416374639458
 31
0.0
  0
LINE
  5
1DF2
330
18
100
AcDbEntity
  8
1
  6
Continuous
100
AcDbLine
 10
94.45746723949993
 20
124.3416374639458
 30
0.0
 11
93.95746723949995
 21
124.3416374639458
 31
0.0
  0
LINE
  5
1DF3
330
18
100
AcDbEntity
  8
1
  6
Continuous
100
AcDbLine
 10
93.95746723949995
 20
126.7416374639459
 30
0.0
 11
94.45746723949993
 21
126.7416374639459
 31
0.0
  0
LINE
  5
1DF4
330
18
100
AcDbEntity
  8
1
  6
Continuous
100
AcDbLine
 10
94.45746723949993
 20
126.7416374639458
 30
0.0
 11
94.45746723949993
 21
126.5916374639458
 31
0.0
  0
LINE
  5
1DF5
330
18
100
AcDbEntity
  8
1
  6
Continuous
100
AcDbLine
 10
94.68073075076992
 20
126.5916374639458
 30
0.0
 11
94.9574672394999
 21
126.5916374639458
 31
0.0
  0
LINE
  5
1DF6
330
18
100
AcDbEntity
  8
1
  6
Continuous
100
AcDbLine
 10
94.45746723949993
 20
126.5916374639458
 30
0.0
 11
94.68073075076992
 21
126.5916374639458
 31
0.0
  0
LINE
  5
1DF7
330
18
100
AcDbEntity
  8
1
  6
Continuous
100
AcDbLine
 10
94.95746723949995
 20
131.2916374639459
 30
0.0
 11
93.95746723949995
 21
129.541637463946
 31
0.0
  0
LINE
  5
1DF9
330
18
100
AcDbEntity
  8
1
  6
Continuous
100
AcDbLine
 10
95.74122190953993
 20
137.3705945487257
 30
0.0
 11
95.55746723949992
 21
137.0916374639457
 31
0.0
  0
LINE
  5
1DFD
330
18
100
AcDbEntity
  8
1
  6
Continuous
100
AcDbLine
 10
102.7574672394999
 20
111.1416374639458
 30
0.0
 11
102.7574672394999
 21
139.9416374639458
 31
0.0
  0
LINE
  5
1DFF
330
18
100
AcDbEntity
  8
1
  6
Continuous
100
AcDbLine
 10
101.9574672394998
 20
111.0416374639457
 30
0.0
 11
101.9574672394999
 21
140.0416374639458
 31
0.0
  0
LINE
  5
1E03
330
18
100
AcDbEntity
  8
1
  6
Continuous
100
AcDbLine
 10
142.8574672394999
 20
138.2433433861065
 30
0.0
 11
142.8574672394999
 21
112.8399315418976
 31
0.0
  0
LINE
  5
1E04
330
18
100
AcDbEntity
  8
1
  6
Continuous
100
AcDbLine
 10
146.8574672394999
 20
114.541637463946
 30
0.0
 11
146.8574672394999
 21
136.5416374639456
 31
0.0
  0
LINE
  5
1E0C
330
18
100
AcDbEntity
  8
1
  6
Continuous
100
AcDbLine
 10
152.8574672394999
 20
119.0416374639459
 30
0.0
 11
153.6574672394999
 21
119.0416374639459
 31
0.0
  0
LINE
  5
1E0D
330
18
100
AcDbEntity
  8
1
  6
Continuous
100
AcDbLine
 10
153.6574672394999
 20
132.0416374639459
 30
0.0
 11
152.8574672394999
 21
132.0416374639459
 31
0.0
  0
ARC
  5
1E0F
330
18
100
AcDbEntity
  8
1
  6
Continuous
100
AcDbCircle
 10
130.7541506640049
 20
138.3939740425817
 30
0.0
 40
16.4432192957905
100
AcDbArc
 50
336.7097036817694
 51
348.3299559128192
  0
ARC
  5
1E10
330
18
100
AcDbEntity
  8
1
  6
Continuous
100
AcDbCircle
 10
130.7541506640049
 20
112.6893008853101
 30
0.0
 40
16.4432192957905
100
AcDbArc
 50
11.67004408717873
 51
23.29029631822757
  0
ARC
  5
1E11
330
18
100
AcDbEntity
  8
1
  6
Continuous
100
AcDbCircle
 10
126.1908005736799
 20
125.5416374640356
 30
0.0
 40
20.66666666581749
100
AcDbArc
 50
342.1034488703798
 51
17.89655112962332
  0
LINE
  5
1E12
330
18
100
AcDbEntity
  8
1
  6
Continuous
100
AcDbLine
 10
145.8574672394999
 20
112.839931541785
 30
0.0
 11
146.8574672394999
 21
114.5416374639456
 31
0.0
  0
LINE
  5
1E13
330
18
100
AcDbEntity
  8
1
  6
Continuous
100
AcDbLine
 10
103.8574672394999
 20
116.0416374639457
 30
0.0
 11
103.8574672394999
 21
120.2652750806358
 31
0.0
  0
LINE
  5
1E14
330
18
100
AcDbEntity
  8
1
  6
Continuous
100
AcDbLine
 10
102.8574672394999
 20
135.6307404964258
 30
0.0
 11
102.8574672394999
 21
115.4525344314659
 31
0.0
  0
LINE
  5
1E17
330
18
100
AcDbEntity
  8
1
  6
Continuous
100
AcDbLine
 10
101.9574672394999
 20
111.0416374639459
 30
0.0
 11
102.6574672394999
 21
111.0416374639459
 31
0.0
  0
LINE
  5
1E18
330
18
100
AcDbEntity
  8
1
  6
Continuous
100
AcDbLine
 10
102.6574672395
 20
111.0416374639458
 30
0.0
 11
102.7574672394999
 21
111.1416374639458
 31
0.0
  0
LINE
  5
1E19
330
18
100
AcDbEntity
  8
1
  6
Continuous
100
AcDbLine
 10
102.8574672394998
 20
115.4525344314659
 30
0.0
 11
102.7574672394999
 21
115.3514474533859
 31
0.0
  0
LINE
  5
1E1A
330
18
100
AcDbEntity
  8
1
  6
Continuous
100
AcDbLine
 10
142.8574672394999
 20
119.1907845030838
 30
0.0
 11
145.8574672394999
 21
119.1907845029042
 31
0.0
  0
LINE
  5
1E1B
330
18
100
AcDbEntity
  8
1
  6
Continuous
100
AcDbLine
 10
142.8574672394999
 20
112.8399315418976
 30
0.0
 11
145.8574672395649
 21
112.8399315418976
 31
0.0
  0
LINE
  5
1E22
330
18
100
AcDbEntity
  8
1
  6
Continuous
100
AcDbLine
 10
103.8574672394999
 20
135.0416374639455
 30
0.0
 11
103.8574672394999
 21
130.8179998472558
 31
0.0
  0
LINE
  5
1E23
330
18
100
AcDbEntity
  8
1
  6
Continuous
100
AcDbLine
 10
102.7574672394999
 20
135.7318274745058
 30
0.0
 11
102.8574672394999
 21
135.6307404964258
 31
0.0
  0
LINE
  5
1E26
330
18
100
AcDbEntity
  8
1
  6
Continuous
100
AcDbLine
 10
142.8574672394999
 20
131.8924904249876
 30
0.0
 11
145.8574672394999
 21
131.8924904249876
 31
0.0
  0
LINE
  5
1E28
330
18
100
AcDbEntity
  8
1
  6
Continuous
100
AcDbLine
 10
120.2574672394999
 20
117.4754981593158
 30
0.0
 11
120.2574672394999
 21
133.3416374639458
 31
0.0
  0
LINE
  5
1E29
330
18
100
AcDbEntity
  8
1
  6
Continuous
100
AcDbLine
 10
152.8574672394999
 20
119.0416374639459
 30
0.0
 11
152.8574672394999
 21
132.0416374639459
 31
0.0
  0
LINE
  5
1E2A
330
18
100
AcDbEntity
  8
1
  6
Continuous
100
AcDbLine
 10
118.6574672394999
 20
118.9255906185758
 30
0.0
 11
118.6574672394999
 21
133.3416374639458
 31
0.0
  0
LINE
  5
1E2B
330
18
100
AcDbEntity
  8
1
  6
Continuous
100
AcDbLine
 10
118.2574672394999
 20
117.5661289381358
 30
0.0
 11
118.2574672394999
 21
134.3416374638255
 31
0.0
  0
LINE
  5
1E2C
330
18
100
AcDbEntity
  8
1
  6
Continuous
100
AcDbLine
 10
115.4574672394999
 20
116.7416374640657
 30
0.0
 11
115.4574672394999
 21
121.6647830692258
 31
0.0
  0
LINE
  5
1E2D
330
18
100
AcDbEntity
  8
1
  6
Continuous
100
AcDbLine
 10
114.7574672393799
 20
116.0416374639456
 30
0.0
 11
114.7574672393799
 21
120.2652750806358
 31
0.0
  0
LINE
  5
1E34
330
18
100
AcDbEntity
  8
1
  6
Continuous
100
AcDbLine
 10
119.9574672394999
 20
118.5416374639559
 30
0.0
 11
120.2574672394999
 21
118.5416374639559
 31
0.0
  0
LINE
  5
1E35
330
18
100
AcDbEntity
  8
1
  6
Continuous
100
AcDbLine
 10
119.9574672394999
 20
117.4754981593158
 30
0.0
 11
120.2574672394999
 21
117.4754981593158
 31
0.0
  0
LINE
  5
1E36
330
18
100
AcDbEntity
  8
1
  6
Continuous
100
AcDbLine
 10
118.2574672394999
 20
117.5661289381358
 30
0.0
 11
119.9574672394999
 21
117.5661289381358
 31
0.0
  0
LINE
  5
1E37
330
18
100
AcDbEntity
  8
1
  6
Continuous
100
AcDbLine
 10
118.2574672394999
 20
118.9255906185758
 30
0.0
 11
119.9574672394999
 21
118.9255906185758
 31
0.0
  0
LINE
  5
1E3A
330
18
100
AcDbEntity
  8
1
  6
Continuous
100
AcDbLine
 10
119.9574672394999
 20
118.9255906185758
 30
0.0
 11
119.9574672394999
 21
116.9416374640657
 31
0.0
  0
LINE
  5
1E40
330
18
100
AcDbEntity
  8
2
  6
Continuous
100
AcDbLine
 10
118.2574672395
 20
129.4184918586657
 30
0.0
 11
102.8574672394999
 21
120.2652750806357
 31
0.0
  0
LINE
  5
1E41
330
18
100
AcDbEntity
  8
2
  6
Continuous
100
AcDbLine
 10
118.2574672394999
 20
121.6647830692257
 30
0.0
 11
102.8574672394999
 21
130.8179998472556
 31
0.0
  0
LINE
  5
1E43
330
18
100
AcDbEntity
  8
1
  6
Continuous
100
AcDbLine
 10
115.4574672394999
 20
121.6647830692258
 30
0.0
 11
118.2574672394999
 21
121.6647830692258
 31
0.0
  0
LINE
  5
1E44
330
18
100
AcDbEntity
  8
1
  6
Continuous
100
AcDbLine
 10
118.2574672394999
 20
129.4184918586657
 30
0.0
 11
115.4574672394999
 21
129.4184918586657
 31
0.0
  0
LINE
  5
1E46
330
18
100
AcDbEntity
  8
1
  6
Continuous
100
AcDbLine
 10
102.8574672394999
 20
120.2652750806358
 30
0.0
 11
114.7574672393799
 21
120.2652750806358
 31
0.0
  0
LINE
  5
1E48
330
18
100
AcDbEntity
  8
1
  6
Continuous
100
AcDbLine
 10
114.7574672393799
 20
120.2652750806358
 30
0.0
 11
115.4574672395
 21
121.6647830692259
 31
0.0
  0
LINE
  5
1E49
330
18
100
AcDbEntity
  8
1
  6
Continuous
100
AcDbLine
 10
114.7574672393799
 20
130.8179998472558
 30
0.0
 11
102.8574672394999
 21
130.8179998472558
 31
0.0
  0
LINE
  5
1E4D
330
18
100
AcDbEntity
  8
1
  6
Continuous
100
AcDbLine
 10
114.7574672393799
 20
130.8179998472558
 30
0.0
 11
114.7574672393799
 21
135.0416374639455
 31
0.0
  0
LINE
  5
1E4E
330
18
100
AcDbEntity
  8
1
  6
Continuous
100
AcDbLine
 10
115.4574672394999
 20
129.4184918586659
 30
0.0
 11
115.4574672394999
 21
134.3416374638255
 31
0.0
  0
LINE
  5
1E4F
330
18
100
AcDbEntity
  8
1
  6
Continuous
100
AcDbLine
 10
115.4574672395
 20
129.4184918586658
 30
0.0
 11
114.7574672393799
 21
130.8179998472558
 31
0.0
  0
LINE
  5
1E54
330
18
100
AcDbEntity
  8
1
  6
Continuous
100
AcDbLine
 10
118.4574672395
 20
120.5666374639458
 30
0.0
 11
118.6574672394999
 21
120.7666374639458
 31
0.0
  0
LINE
  5
1E55
330
18
100
AcDbEntity
  8
1
  6
Continuous
100
AcDbLine
 10
118.2574672394999
 20
120.5666374639458
 30
0.0
 11
118.4574672394999
 21
120.5666374639458
 31
0.0
  0
LINE
  5
1E60
330
18
100
AcDbEntity
  8
1
  6
Continuous
100
AcDbLine
 10
118.6574672394999
 20
128.4999652961458
 30
0.0
 11
120.2574672394999
 21
128.4999652961458
 31
0.0
  0
LINE
  5
1E61
330
18
100
AcDbEntity
  8
1
  6
Continuous
100
AcDbLine
 10
118.6574672394999
 20
129.3029399934558
 30
0.0
 11
120.2574672394999
 21
129.3029399934558
 31
0.0
  0
LINE
  5
1E62
330
18
100
AcDbEntity
  8
1
  6
Continuous
100
AcDbLine
 10
118.6574672394999
 20
133.3416374639458
 30
0.0
 11
120.2574672394999
 21
133.3416374639458
 31
0.0
  0
LINE
  5
1E63
330
18
100
AcDbEntity
  8
1
  6
Continuous
100
AcDbLine
 10
118.6574672394998
 20
130.3166374639457
 30
0.0
 11
118.4574672394998
 21
130.5166374639458
 31
0.0
  0
LINE
  5
1E64
330
18
100
AcDbEntity
  8
1
  6
Continuous
100
AcDbLine
 10
118.4574672394999
 20
130.5166374639458
 30
0.0
 11
118.2574672394999
 21
130.5166374639458
 31
0.0
  0
LINE
  5
1E6F
330
18
100
AcDbEntity
  8
1
  6
Continuous
100
AcDbLine
 10
153.6574672394987
 20
120.041637463948
 30
0.0
 11
154.1487074256207
 21
119.1907845028636
 31
0.0
  0
ARC
  5
1E70
330
18
100
AcDbEntity
  8
1
  6
Continuous
100
AcDbCircle
 10
156.4688722627712
 20
120.7784977431257
 30
0.0
 40
2.811405023272465
100
AcDbArc
 50
145.6157525320629
 51
205.6157525319717
  0
ARC
  5
1E71
330
18
100
AcDbEntity
  8
1
  6
Continuous
100
AcDbCircle
 10
154.8460622162286
 20
120.7784977431257
 30
0.0
 40
2.811405023272465
100
AcDbArc
 50
334.3842474680282
 51
34.38424746793706
  0
LINE
  5
1E72
330
18
100
AcDbEntity
  8
1
  6
Continuous
100
AcDbLine
 10
157.6574672395011
 20
120.041637463948
 30
0.0
 11
157.166227053379
 21
119.1907845028636
 31
0.0
  0
LINE
  5
1E73
330
18
100
AcDbEntity
  8
1
  6
Continuous
100
AcDbLine
 10
153.6574672394999
 20
119.0416374639459
 30
0.0
 11
153.6574672394999
 21
132.0416374639459
 31
0.0
  0
LINE
  5
1E74
330
18
100
AcDbEntity
  8
1
  6
Continuous
100
AcDbLine
 10
154.1487074256252
 20
119.1907845028557
 30
0.0
 11
157.1662270533733
 21
119.1907845028536
 31
0.0
  0
LINE
  5
1E75
330
18
100
AcDbEntity
  8
2
  6
Continuous
100
AcDbLine
 10
120.2574672394999
 20
127.7687432090758
 30
0.0
 11
129.2574672394999
 21
123.314531718816
 31
0.0
  0
LINE
  5
1E76
330
18
100
AcDbEntity
  8
2
  6
Continuous
100
AcDbLine
 10
129.2574672394998
 20
127.7687432090758
 30
0.0
 11
120.2574672394999
 21
123.3145317188158
 31
0.0
  0
LINE
  5
1E79
330
18
100
AcDbEntity
  8
1
  6
Continuous
100
AcDbLine
 10
129.2574672394999
 20
123.3145317188158
 30
0.0
 11
120.2574672394999
 21
123.3145317188158
 31
0.0
  0
LINE
  5
1E7A
330
18
100
AcDbEntity
  8
1
  6
Continuous
100
AcDbLine
 10
120.2574672394999
 20
127.7687432090758
 30
0.0
 11
129.2574672394999
 21
127.7687432090758
 31
0.0
  0
LINE
  5
1E7B
330
18
100
AcDbEntity
  8
1
  6
Continuous
100
AcDbLine
 10
120.2574672394999
 20
122.0416374639459
 30
0.0
 11
129.2574672394999
 21
122.0416374639459
 31
0.0
  0
LINE
  5
1E7C
330
18
100
AcDbEntity
  8
1
  6
Continuous
100
AcDbLine
 10
129.2574672394999
 20
129.0416374639459
 30
0.0
 11
120.2574672394999
 21
129.0416374639459
 31
0.0
  0
ARC
  5
1E7D
330
18
100
AcDbEntity
  8
1
  6
Continuous
100
AcDbCircle
 10
164.1662270534722
 20
125.5416374639457
 30
0.0
 40
10.50875981397234
100
AcDbArc
 50
162.4120462261388
 51
197.5879537738267
  0
ARC
  5
1E7E
330
18
100
AcDbEntity
  8
1
  6
Continuous
100
AcDbCircle
 10
147.1487074255275
 20
125.5416374639457
 30
0.0
 40
10.50875981397234
100
AcDbArc
 50
342.4120462261734
 51
17.58795377386117
  0
LINE
  5
1E7F
330
18
100
AcDbEntity
  8
1
  6
Continuous
100
AcDbLine
 10
157.6574672394999
 20
131.0416374639542
 30
0.0
 11
157.6574672394999
 21
120.041637463946
 31
0.0
  0
LINE
  5
1E80
330
18
100
AcDbEntity
  8
1
  6
Continuous
100
AcDbLine
 10
154.1487074256207
 20
122.3662109834042
 30
0.0
 11
157.166227053379
 21
122.366210983403
 31
0.0
  0
LINE
  5
1E81
330
18
100
AcDbEntity
  8
1
  6
Continuous
100
AcDbLine
 10
153.6574672395
 20
120.7784977431258
 30
0.0
 11
153.6601407732099
 21
120.6656271294759
 31
0.0
  0
LINE
  5
1E82
330
18
100
AcDbEntity
  8
1
  6
Continuous
100
AcDbLine
 10
153.6574672394999
 20
126.0671343251559
 30
0.0
 11
153.6806340367399
 21
126.0555399639809
 31
0.0
  0
LINE
  5
1E83
330
18
100
AcDbEntity
  8
1
  6
Continuous
100
AcDbLine
 10
154.1487074256207
 20
128.717063944494
 30
0.0
 11
157.166227053379
 21
128.7170639444944
 31
0.0
  0
LINE
  5
1E84
330
18
100
AcDbEntity
  8
1
  6
Continuous
100
AcDbLine
 10
154.1487074256205
 20
131.8924904250366
 30
0.0
 11
157.166227053379
 21
131.8924904250367
 31
0.0
  0
ARC
  5
1E85
330
18
100
AcDbEntity
  8
1
  6
Continuous
100
AcDbCircle
 10
156.4688722627712
 20
130.3047771847656
 30
0.0
 40
2.811405023272465
100
AcDbArc
 50
154.3842474680282
 51
214.384247467937
  0
LINE
  5
1E86
330
18
100
AcDbEntity
  8
1
  6
Continuous
100
AcDbLine
 10
153.6574672394986
 20
131.0416374639522
 30
0.0
 11
154.1487074256207
 21
131.8924904250367
 31
0.0
  0
LINE
  5
1E87
330
18
100
AcDbEntity
  8
1
  6
Continuous
100
AcDbLine
 10
153.6574672394999
 20
130.3047771848058
 30
0.0
 11
153.6601407732399
 21
130.1919065711059
 31
0.0
  0
ARC
  5
1E88
330
18
100
AcDbEntity
  8
1
  6
Continuous
100
AcDbCircle
 10
154.8460622162286
 20
130.3047771847656
 30
0.0
 40
2.811405023272465
100
AcDbArc
 50
325.6157525320629
 51
25.61575253197176
  0
LINE
  5
1E89
330
18
100
AcDbEntity
  8
1
  6
Continuous
100
AcDbLine
 10
157.6574672395009
 20
131.0416374639522
 30
0.0
 11
157.166227053379
 21
131.8924904250367
 31
0.0
  0
LINE
  5
1E8A
330
18
100
AcDbEntity
  8
1
  6
Continuous
100
AcDbLine
 10
129.2574672394999
 20
127.7687432090758
 30
0.0
 11
129.2574672394999
 21
129.0416374639459
 31
0.0
  0
LINE
  5
1E8B
330
18
100
AcDbEntity
  8
1
  6
Continuous
100
AcDbLine
 10
130.2574672394999
 20
128.0416374639459
 30
0.0
 11
130.2574672394999
 21
123.0416374639459
 31
0.0
  0
ARC
  5
1E8C
330
18
100
AcDbEntity
  8
1
  6
Continuous
100
AcDbCircle
 10
126.5080952038028
 20
125.5416374639459
 30
0.0
 40
3.538226475321216
100
AcDbArc
 50
320.9910879687151
 51
39.00891203128484
  0
LINE
  5
1E8D
330
18
100
AcDbEntity
  8
1
  6
Continuous
100
AcDbLine
 10
129.2574672394999
 20
122.0416374639458
 30
0.0
 11
130.2574672394999
 21
123.0416374639458
 31
0.0
  0
LINE
  5
1E8E
330
18
100
AcDbEntity
  8
1
  6
Continuous
100
AcDbLine
 10
129.2574672394999
 20
122.0416374639459
 30
0.0
 11
129.2574672394999
 21
123.3145317188158
 31
0.0
  0
LINE
  5
1E8F
330
18
100
AcDbEntity
  8
1
  6
Continuous
100
AcDbLine
 10
130.2574672394999
 20
128.0416374639458
 30
0.0
 11
129.2574672394999
 21
129.0416374639458
 31
0.0
  0
LINE
  5
1EDF
330
18
100
AcDbEntity
  8
1
  6
Continuous
100
AcDbLine
 10
145.8574672394998
 20
138.2433433861065
 30
0.0
 11
146.8574672394998
 21
136.5416374639455
 31
0.0
  0
LINE
  5
1EE0
330
18
100
AcDbEntity
  8
1
  6
Continuous
100
AcDbLine
 10
102.6574672394999
 20
140.0416374639459
 30
0.0
 11
101.9574672394999
 21
140.0416374639459
 31
0.0
  0
LINE
  5
1EE1
330
18
100
AcDbEntity
  8
1
  6
Continuous
100
AcDbLine
 10
102.7574672394999
 20
139.9416374639458
 30
0.0
 11
102.6574672394998
 21
140.0416374639458
 31
0.0
  0
LINE
  5
1EE2
330
18
100
AcDbEntity
  8
1
  6
Continuous
100
AcDbLine
 10
145.8574672394999
 20
138.2433433861065
 30
0.0
 11
142.8574672394999
 21
138.2433433861065
 31
0.0
  0
LINE
  5
200F
330
18
100
AcDbEntity
  8
1
  6
Continuous
100
AcDbLine
 10
17.73948321984363
 20
202.0416374639422
 30
0.0
 11
17.73948321984363
 21
209.0416374639422
 31
0.0
  0
LINE
  5
20B3
330
18
100
AcDbEntity
  8
1
  6
Continuous
100
AcDbLine
 10
102.8574672394999
 20
135.0416374639455
 30
0.0
 11
114.7574672393699
 21
135.0416374639455
 31
0.0
  0
LINE
  5
20B4
330
18
100
AcDbEntity
  8
2
  6
Continuous
100
AcDbLine
 10
115.2989672393774
 20
134.5001374639456
 30
0.0
 11
103.8574672394999
 21
134.5001374639457
 31
0.0
  0
LINE
  5
20B5
330
18
100
AcDbEntity
  8
1
  6
Continuous
100
AcDbLine
 10
114.7574672393699
 20
135.0416374639455
 30
0.0
 11
115.4574672394999
 21
134.3416374638254
 31
0.0
  0
LINE
  5
20B6
330
18
100
AcDbEntity
  8
1
  6
Continuous
100
AcDbLine
 10
114.7574672393699
 20
116.0416374639458
 30
0.0
 11
115.4574672394999
 21
116.7416374640657
 31
0.0
  0
LINE
  5
20B7
330
18
100
AcDbEntity
  8
2
  6
Continuous
100
AcDbLine
 10
115.2989672393774
 20
116.5831374639456
 30
0.0
 11
103.8574672394999
 21
116.5831374639455
 31
0.0
  0
LINE
  5
20B8
330
18
100
AcDbEntity
  8
1
  6
Continuous
100
AcDbLine
 10
102.8574672394999
 20
116.0416374639457
 30
0.0
 11
114.7574672393699
 21
116.0416374639457
 31
0.0
  0
LINE
  5
20BD
330
18
100
AcDbEntity
  8
2
  6
Continuous
100
AcDbLine
 10
129.6634672394992
 20
122.4476374639451
 30
0.0
 11
120.2574672394999
 21
122.4476374639451
 31
0.0
  0
LINE
  5
20BE
330
18
100
AcDbEntity
  8
2
  6
Continuous
100
AcDbLine
 10
129.6634672395005
 20
128.6356374639451
 30
0.0
 11
120.2574672394999
 21
128.6356374639451
 31
0.0
  0
LINE
  5
20BF
330
18
100
AcDbEntity
  8
1
  6
Continuous
100
AcDbLine
 10
115.4574672394999
 20
134.3416374638255
 30
0.0
 11
118.2574672394999
 21
134.3416374638255
 31
0.0
  0
LINE
  5
20C0
330
18
100
AcDbEntity
  8
1
  6
Continuous
100
AcDbLine
 10
115.4574672394999
 20
116.7416374640657
 30
0.0
 11
119.7574672394999
 21
116.7416374640657
 31
0.0
  0
LINE
  5
20C2
330
18
100
AcDbEntity
  8
1
  6
Continuous
100
AcDbLine
 10
119.7574672394999
 20
116.7416374640657
 30
0.0
 11
119.9574672394999
 21
116.9416374640657
 31
0.0
  0
LINE
  5
21A2
330
18
100
AcDbEntity
  8
1
  6
Continuous
100
AcDbLine
 10
118.2574672394999
 20
197.6416374639457
 30
0.0
 11
118.2574672394999
 21
213.4416374639457
 31
0.0
  0
LINE
  5
21B5
330
18
100
AcDbEntity
  8
1
  6
Continuous
100
AcDbLine
 10
94.95746723949993
 20
211.291637463946
 30
0.0
 11
93.95746723949994
 21
209.541637463946
 31
0.0
  0
LINE
  5
21B6
330
18
100
AcDbEntity
  8
1
  6
Continuous
100
AcDbLine
 10
93.95746723949988
 20
201.5416374639459
 30
0.0
 11
93.95746723949988
 21
209.5416374639457
 31
0.0
  0
LINE
  5
21B7
330
18
100
AcDbEntity
  8
1
  6
Continuous
100
AcDbLine
 10
93.95746723949994
 20
201.5416374639459
 30
0.0
 11
94.95746723949993
 21
199.7916374639459
 31
0.0
  0
LINE
  5
21DC
330
18
100
AcDbEntity
  8
1
  6
Continuous
100
AcDbLine
 10
120.2574672394999
 20
37.74163746394544
 30
0.0
 11
118.6574672394999
 21
37.74163746394544
 31
0.0
  0
LINE
  5
21DD
330
18
100
AcDbEntity
  8
1
  6
Continuous
100
AcDbLine
 10
120.2574672394999
 20
41.78033493444567
 30
0.0
 11
118.6574672394999
 21
41.78033493444567
 31
0.0
  0
LINE
  5
21DE
330
18
100
AcDbEntity
  8
1
  6
Continuous
100
AcDbLine
 10
120.2574672394999
 20
52.54163746394571
 30
0.0
 11
118.6574672394999
 21
52.54163746394571
 31
0.0
  0
LINE
  5
21DF
330
18
100
AcDbEntity
  8
1
  6
Continuous
100
AcDbLine
 10
120.2574672394999
 20
53.60777676857543
 30
0.0
 11
118.6574672394999
 21
53.60777676857541
 31
0.0
  0
LINE
  5
21E0
330
18
100
AcDbEntity
  8
4
  6
CENTER
 48
0.3
100
AcDbLine
 10
90.95746723949993
 20
45.54163746394563
 30
0.0
 11
133.2574672394998
 21
45.54163746394563
 31
0.0
  0
LINE
  5
21E8
330
18
100
AcDbEntity
  8
1
  6
Continuous
100
AcDbLine
 10
93.95746723949988
 20
49.54163746394527
 30
0.0
 11
93.95746723949988
 21
41.54163746394553
 31
0.0
  0
LINE
  5
21E9
330
18
100
AcDbEntity
  8
1
  6
Continuous
100
AcDbLine
 10
118.2574672394999
 20
53.44163746394554
 30
0.0
 11
118.2574672394999
 21
49.26067816719356
 31
0.0
  0
LINE
  5
21EA
330
18
100
AcDbEntity
  8
1
  6
Continuous
100
AcDbLine
 10
118.6574672394999
 20
53.60777676857541
 30
0.0
 11
118.6574672394999
 21
49.26067816719355
 31
0.0
  0
LINE
  5
21EB
330
18
100
AcDbEntity
  8
1
  6
Continuous
100
AcDbLine
 10
102.8574672394998
 20
35.45253443146529
 30
0.0
 11
102.8574672394998
 21
55.74163746394543
 31
0.0
  0
LINE
  5
21EC
330
18
100
AcDbEntity
  8
1
  6
Continuous
100
AcDbLine
 10
103.8574672394998
 20
37.6416374639455
 30
0.0
 11
103.8574672394998
 21
53.44163746394554
 31
0.0
  0
ARC
  5
21ED
330
18
100
AcDbEntity
  8
1
  6
Continuous
100
AcDbCircle
 10
131.2324672390246
 20
40.04163746385927
 30
0.0
 40
15.62500000047528
100
AcDbArc
 50
339.3903070634625
 51
20.60969293721502
  0
LINE
  5
21EE
330
18
100
AcDbEntity
  8
1
  6
Continuous
100
AcDbLine
 10
114.7574672393699
 20
53.44163746394554
 30
0.0
 11
114.7574672393697
 21
37.64163746394547
 31
0.0
  0
LINE
  5
21EF
330
18
100
AcDbEntity
  8
1
  6
Continuous
100
AcDbLine
 10
115.4574672394999
 20
53.4416374639455
 30
0.0
 11
115.4574672395
 21
37.6416374639455
 31
0.0
  0
LINE
  5
21F0
330
18
100
AcDbEntity
  8
1
  6
Continuous
100
AcDbLine
 10
142.8574672394998
 20
34.54163746394559
 30
0.0
 11
142.8574672394999
 21
56.54163746394543
 31
0.0
  0
LINE
  5
21F1
330
18
100
AcDbEntity
  8
1
  6
Continuous
100
AcDbLine
 10
102.7574672394999
 20
59.94163746394548
 30
0.0
 11
102.7574672394999
 21
31.14163746394547
 31
0.0
  0
LINE
  5
21F2
330
18
100
AcDbEntity
  8
1
  6
Continuous
100
AcDbLine
 10
101.9574672394999
 20
60.0416374639455
 30
0.0
 11
101.9574672394999
 21
31.0416374639455
 31
0.0
  0
LINE
  5
21F3
330
18
100
AcDbEntity
  8
1
  6
Continuous
100
AcDbLine
 10
146.8574672394999
 20
56.54163746394516
 30
0.0
 11
146.8574672394999
 21
34.54163746394562
 31
0.0
  0
LINE
  5
21F4
330
18
100
AcDbEntity
  8
1
  6
Continuous
100
AcDbLine
 10
94.95746723949993
 20
55.74163746394543
 30
0.0
 11
94.95746723949993
 21
35.3416374639455
 31
0.0
  0
LINE
  5
21F5
330
18
100
AcDbEntity
  8
1
  6
Continuous
100
AcDbLine
 10
95.55746723949985
 20
57.09163746394564
 30
0.0
 11
95.55746723949985
 21
33.99163746394552
 31
0.0
  0
LINE
  5
21F6
330
18
100
AcDbEntity
  8
1
  6
Continuous
100
AcDbLine
 10
102.7574672394999
 20
55.84163746394549
 30
0.0
 11
102.8574672394998
 21
55.7416374639456
 31
0.0
  0
LINE
  5
21F7
330
18
100
AcDbEntity
  8
1
  6
Continuous
100
AcDbLine
 10
101.9574672394999
 20
60.0416374639455
 30
0.0
 11
102.6574672394999
 21
60.0416374639455
 31
0.0
  0
LINE
  5
21F8
330
18
100
AcDbEntity
  8
1
  6
Continuous
100
AcDbLine
 10
102.6574672394998
 20
60.04163746394553
 30
0.0
 11
102.7574672394999
 21
59.94163746394548
 31
0.0
  0
LINE
  5
21F9
330
18
100
AcDbEntity
  8
1
  6
Continuous
100
AcDbLine
 10
95.55746723949992
 20
57.09163746394547
 30
0.0
 11
95.74122190953993
 21
57.37059454872542
 31
0.0
  0
LINE
  5
21FA
330
18
100
AcDbEntity
  8
1
  6
Continuous
100
AcDbLine
 10
94.95746723949984
 20
55.7416374639455
 30
0.0
 11
95.55746723949985
 21
56.34163746394555
 31
0.0
  0
LINE
  5
21FB
330
18
100
AcDbEntity
  8
1
  6
Continuous
100
AcDbLine
 10
95.74122190953993
 20
57.37059454872547
 30
0.0
 11
101.9574672394999
 21
60.04163746394546
 31
0.0
  0
LINE
  5
21FC
330
18
100
AcDbEntity
  8
1
  6
Continuous
100
AcDbLine
 10
93.95746723949994
 20
49.54163746394531
 30
0.0
 11
94.95746723949993
 21
51.29163746394532
 31
0.0
  0
ARC
  5
21FD
330
18
100
AcDbEntity
  8
1
  6
Continuous
100
AcDbCircle
 10
131.2324672390246
 20
51.04163746403202
 30
0.0
 40
15.62500000047528
100
AcDbArc
 50
339.390307062785
 51
20.60969293653748
  0
LINE
  5
21FE
330
18
100
AcDbEntity
  8
1
  6
Continuous
100
AcDbLine
 10
142.8574672394999
 20
56.54163746394543
 30
0.0
 11
146.8574672394999
 21
56.54163746394543
 31
0.0
  0
LINE
  5
21FF
330
18
100
AcDbEntity
  8
1
  6
Continuous
100
AcDbLine
 10
102.8574672394998
 20
53.44163746394554
 30
0.0
 11
118.2574672394998
 21
53.44163746394554
 31
0.0
  0
LINE
  5
2201
330
18
100
AcDbEntity
  8
1
  6
Continuous
100
AcDbLine
 10
142.8574672394999
 20
45.54163746394563
 30
0.0
 11
145.8574672394999
 21
45.54163746394563
 31
0.0
  0
LINE
  5
2202
330
18
100
AcDbEntity
  8
1
  6
Continuous
100
AcDbLine
 10
118.2574672394999
 20
50.51663746394546
 30
0.0
 11
118.4574672394999
 21
50.51663746394546
 31
0.0
  0
LINE
  5
2203
330
18
100
AcDbEntity
  8
1
  6
Continuous
100
AcDbLine
 10
118.4574672394999
 20
50.51663746394546
 30
0.0
 11
118.6574672394999
 21
50.31663746394547
 31
0.0
  0
LINE
  5
2204
330
18
100
AcDbEntity
  8
1
  6
Continuous
100
AcDbLine
 10
102.7574672394999
 20
35.35144745338544
 30
0.0
 11
102.8574672394999
 21
35.45253443146544
 31
0.0
  0
LINE
  5
2205
330
18
100
AcDbEntity
  8
1
  6
Continuous
100
AcDbLine
 10
101.9574672394998
 20
31.04163746394545
 30
0.0
 11
95.74122190953987
 21
33.71268037916545
 31
0.0
  0
LINE
  5
2206
330
18
100
AcDbEntity
  8
1
  6
Continuous
100
AcDbLine
 10
94.95746723949993
 20
39.7916374639453
 30
0.0
 11
93.95746723949994
 21
41.54163746394529
 31
0.0
  0
LINE
  5
2207
330
18
100
AcDbEntity
  8
1
  6
Continuous
100
AcDbLine
 10
95.74122190953984
 20
33.71268037916559
 30
0.0
 11
95.55746723949992
 21
33.99163746394549
 31
0.0
  0
LINE
  5
2208
330
18
100
AcDbEntity
  8
1
  6
Continuous
100
AcDbLine
 10
95.55746723949992
 20
34.74163746394543
 30
0.0
 11
94.95746723949984
 21
35.3416374639455
 31
0.0
  0
LINE
  5
2209
330
18
100
AcDbEntity
  8
1
  6
Continuous
100
AcDbLine
 10
102.6574672394999
 20
31.0416374639455
 30
0.0
 11
101.9574672394999
 21
31.0416374639455
 31
0.0
  0
LINE
  5
220A
330
18
100
AcDbEntity
  8
1
  6
Continuous
100
AcDbLine
 10
102.7574672394999
 20
31.14163746394558
 30
0.0
 11
102.6574672394999
 21
31.0416374639455
 31
0.0
  0
LINE
  5
220B
330
18
100
AcDbEntity
  8
1
  6
Continuous
100
AcDbLine
 10
146.8574672394999
 20
34.54163746394559
 30
0.0
 11
142.8574672394998
 21
34.54163746394559
 31
0.0
  0
LINE
  5
220C
330
18
100
AcDbEntity
  8
1
  6
Continuous
100
AcDbLine
 10
102.8574672394998
 20
37.64163746394553
 30
0.0
 11
118.2574672394998
 21
37.64163746394553
 31
0.0
  0
LINE
  5
220D
330
18
100
AcDbEntity
  8
1
  6
Continuous
100
AcDbLine
 10
118.4574672394999
 20
40.56663746394547
 30
0.0
 11
118.2574672394999
 21
40.56663746394547
 31
0.0
  0
LINE
  5
220F
330
18
100
AcDbEntity
  8
1
  6
Continuous
100
AcDbLine
 10
118.6574672394999
 20
40.76663746394553
 30
0.0
 11
118.4574672394998
 21
40.56663746394547
 31
0.0
  0
ARC
  5
2210
330
18
100
AcDbEntity
  8
1
  6
Continuous
100
AcDbCircle
 10
161.6004421235976
 20
42.79163746392351
 30
0.0
 40
7.942974884101682
100
AcDbArc
 50
159.7438420005554
 51
200.2561579991047
  0
ARC
  5
2211
330
18
100
AcDbEntity
  8
1
  6
Continuous
100
AcDbCircle
 10
149.7144923553982
 20
42.79163746392351
 30
0.0
 40
7.942974884101682
100
AcDbArc
 50
339.7438420008952
 51
20.2561579994446
  0
LINE
  5
2212
330
18
100
AcDbEntity
  8
1
  6
Continuous
100
AcDbLine
 10
120.2574672394999
 20
53.6077767685755
 30
0.0
 11
120.2574672394999
 21
37.74163746394552
 31
0.0
  0
LINE
  5
2213
330
18
100
AcDbEntity
  8
1
  6
Continuous
100
AcDbLine
 10
157.6574672394999
 20
40.04163746387169
 30
0.0
 11
157.6574672394999
 21
51.04163746401854
 31
0.0
  0
LINE
  5
2214
330
18
100
AcDbEntity
  8
1
  6
Continuous
100
AcDbLine
 10
153.6574672394999
 20
52.0416374639455
 30
0.0
 11
153.6574672394999
 21
39.0416374639455
 31
0.0
  0
LINE
  5
2215
330
18
100
AcDbEntity
  8
1
  6
Continuous
100
AcDbLine
 10
152.8574672394999
 20
52.0416374639455
 30
0.0
 11
152.8574672394999
 21
39.0416374639455
 31
0.0
  0
LINE
  5
2217
330
18
100
AcDbEntity
  8
1
  6
Continuous
100
AcDbLine
 10
154.1487074256023
 20
45.54163746394303
 30
0.0
 11
157.1662270533963
 21
45.54163746394563
 31
0.0
  0
LINE
  5
2218
330
18
100
AcDbEntity
  8
1
  6
Continuous
100
AcDbLine
 10
153.6574672394998
 20
51.04163746395892
 30
0.0
 11
157.6574672394999
 21
51.04163746394356
 31
0.0
  0
LINE
  5
221B
330
18
100
AcDbEntity
  8
1
  6
Continuous
100
AcDbLine
 10
152.8574672394999
 20
52.0416374639455
 30
0.0
 11
153.6574672394999
 21
52.0416374639455
 31
0.0
  0
ARC
  5
221C
330
18
100
AcDbEntity
  8
1
  6
Continuous
100
AcDbCircle
 10
161.6004421235976
 20
48.29163746396257
 30
0.0
 40
7.942974884101682
100
AcDbArc
 50
159.7438420008952
 51
200.2561579994446
  0
ARC
  5
221D
330
18
100
AcDbEntity
  8
1
  6
Continuous
100
AcDbCircle
 10
149.7144923553982
 20
48.29163746396257
 30
0.0
 40
7.942974884101682
100
AcDbArc
 50
339.7438420005554
 51
20.25615799910476
  0
LINE
  5
221E
330
18
100
AcDbEntity
  8
1
  6
Continuous
100
AcDbLine
 10
130.0574672394999
 20
42.8416374639456
 30
0.0
 11
120.2574672394999
 21
42.84163746394571
 31
0.0
  0
LINE
  5
221F
330
18
100
AcDbEntity
  8
1
  6
Continuous
100
AcDbLine
 10
130.2574672394999
 20
48.0416374639455
 30
0.0
 11
130.2574672394999
 21
43.0416374639455
 31
0.0
  0
LINE
  5
2220
330
18
100
AcDbEntity
  8
1
  6
Continuous
100
AcDbLine
 10
120.2574672394999
 20
48.24163746394527
 30
0.0
 11
130.0574672395001
 21
48.24163746394527
 31
0.0
  0
LINE
  5
2221
330
18
100
AcDbEntity
  8
1
  6
Continuous
100
AcDbLine
 10
130.0574672395001
 20
48.24163746394527
 30
0.0
 11
130.2574672394998
 21
48.04163746394554
 31
0.0
  0
LINE
  5
2222
330
18
100
AcDbEntity
  8
1
  6
Continuous
100
AcDbLine
 10
130.2574672394999
 20
43.0416374639455
 30
0.0
 11
130.0574672394999
 21
42.8416374639456
 31
0.0
  0
LINE
  5
2223
330
18
100
AcDbEntity
  8
1
  6
Continuous
100
AcDbLine
 10
129.2574672394998
 20
48.24163746394527
 30
0.0
 11
129.2574672394999
 21
42.84163746394557
 31
0.0
  0
LINE
  5
2224
330
18
100
AcDbEntity
  8
1
  6
Continuous
100
AcDbLine
 10
153.6574672394999
 20
40.041637463958
 30
0.0
 11
157.6574672394999
 21
40.04163746394381
 31
0.0
  0
LINE
  5
2225
330
18
100
AcDbEntity
  8
1
  6
Continuous
100
AcDbLine
 10
153.6574672394999
 20
39.0416374639455
 30
0.0
 11
152.8574672394999
 21
39.0416374639455
 31
0.0
  0
LINE
  5
2309
330
18
100
AcDbEntity
  8
1
  6
Continuous
100
AcDbLine
 10
291.2379565258888
 20
121.2556136655973
 30
0.0
 11
289.6379565258889
 21
121.2556136655973
 31
0.0
  0
LINE
  5
230A
330
18
100
AcDbEntity
  8
1
  6
Continuous
100
AcDbLine
 10
291.2379565258888
 20
128.91950661475
 30
0.0
 11
289.6379565258889
 21
128.91950661475
 31
0.0
  0
LINE
  5
230B
330
18
100
AcDbEntity
  8
1
  6
Continuous
100
AcDbLine
 10
291.2379565258888
 20
133.3416374639458
 30
0.0
 11
289.6379565258889
 21
133.3416374639458
 31
0.0
  0
LINE
  5
230C
330
18
100
AcDbEntity
  8
1
  6
Continuous
100
AcDbLine
 10
291.6379565258889
 20
117.5661289381358
 30
0.0
 11
291.2379565258888
 21
117.5661289381358
 31
0.0
  0
LINE
  5
230D
330
18
100
AcDbEntity
  8
1
  6
Continuous
100
AcDbLine
 10
291.6379565258889
 20
118.9255906185758
 30
0.0
 11
291.2379565258888
 21
118.9255906185758
 31
0.0
  0
LINE
  5
230E
330
18
100
AcDbEntity
  8
1
  6
Continuous
100
AcDbLine
 10
294.4379565258889
 20
116.7416374640657
 30
0.0
 11
290.1379565258888
 21
116.7416374640657
 31
0.0
  0
LINE
  5
230F
330
18
100
AcDbEntity
  8
4
  6
CENTER
 48
0.3
100
AcDbLine
 10
318.9379565258889
 20
125.5416374639456
 30
0.0
 11
276.6379565258889
 21
125.5416374639456
 31
0.0
  0
LINE
  5
2314
330
18
100
AcDbEntity
  8
2
  6
Continuous
100
AcDbLine
 10
291.6379565258888
 20
121.6647830692257
 30
0.0
 11
307.0379565258889
 21
130.8179998472555
 31
0.0
  0
LINE
  5
2315
330
18
100
AcDbEntity
  8
1
  6
Continuous
100
AcDbLine
 10
314.9379565258889
 20
115.3416374639458
 30
0.0
 11
314.9379565258889
 21
135.7416374639459
 31
0.0
  0
LINE
  5
2317
330
18
100
AcDbEntity
  8
1
  6
Continuous
100
AcDbLine
 10
307.1379565258888
 20
111.1416374639458
 30
0.0
 11
307.1379565258888
 21
139.9416374639458
 31
0.0
  0
LINE
  5
2318
330
18
100
AcDbEntity
  8
1
  6
Continuous
100
AcDbLine
 10
307.9379565258889
 20
111.0416374639457
 30
0.0
 11
307.9379565258889
 21
140.0416374639458
 31
0.0
  0
LINE
  5
2319
330
18
100
AcDbEntity
  8
1
  6
Continuous
100
AcDbLine
 10
307.0379565258889
 20
135.6307404964258
 30
0.0
 11
307.0379565258889
 21
115.4525344314659
 31
0.0
  0
LINE
  5
231A
330
18
100
AcDbEntity
  8
1
  6
Continuous
100
AcDbLine
 10
314.1542018558489
 20
113.7126803791658
 30
0.0
 11
314.1542018558489
 21
137.3705945487258
 31
0.0
  0
LINE
  5
231B
330
18
100
AcDbEntity
  8
1
  6
Continuous
100
AcDbLine
 10
314.3379565258888
 20
113.9916374639459
 30
0.0
 11
314.3379565258888
 21
137.0916374639458
 31
0.0
  0
LINE
  5
231F
330
18
100
AcDbEntity
  8
1
  6
Continuous
100
AcDbLine
 10
291.2379565258888
 20
117.4754981593159
 30
0.0
 11
291.2379565258888
 21
133.3416374639458
 31
0.0
  0
LINE
  5
2320
330
18
100
AcDbEntity
  8
1
  6
Continuous
100
AcDbLine
 10
291.6379565258889
 20
117.5661289381358
 30
0.0
 11
291.6379565258889
 21
134.3416374638255
 31
0.0
  0
LINE
  5
2321
330
18
100
AcDbEntity
  8
1
  6
Continuous
100
AcDbLine
 10
307.0379565258889
 20
115.4525344314659
 30
0.0
 11
307.1379565258888
 21
115.3514474533859
 31
0.0
  0
LINE
  5
2322
330
18
100
AcDbEntity
  8
1
  6
Continuous
100
AcDbLine
 10
314.1542018558489
 20
113.7126803791658
 30
0.0
 11
307.9379565258889
 21
111.0416374639459
 31
0.0
  0
LINE
  5
2323
330
18
100
AcDbEntity
  8
1
  6
Continuous
100
AcDbLine
 10
307.9379565258889
 20
111.0416374639459
 30
0.0
 11
307.2379565258888
 21
111.0416374639459
 31
0.0
  0
LINE
  5
2324
330
18
100
AcDbEntity
  8
1
  6
Continuous
100
AcDbLine
 10
307.2379565258887
 20
111.0416374639458
 30
0.0
 11
307.1379565258888
 21
111.1416374639458
 31
0.0
  0
LINE
  5
2325
330
18
100
AcDbEntity
  8
1
  6
Continuous
100
AcDbLine
 10
315.9379565258888
 20
121.5416374639459
 30
0.0
 11
314.9379565258889
 21
119.7916374639459
 31
0.0
  0
LINE
  5
2326
330
18
100
AcDbEntity
  8
1
  6
Continuous
100
AcDbLine
 10
314.9379565258889
 20
115.3416374639458
 30
0.0
 11
314.337956525889
 21
114.7416374639459
 31
0.0
  0
LINE
  5
2327
330
18
100
AcDbEntity
  8
1
  6
Continuous
100
AcDbLine
 10
314.3379565258888
 20
113.9916374639459
 30
0.0
 11
314.1542018558489
 21
113.7126803791659
 31
0.0
  0
LINE
  5
232E
330
18
100
AcDbEntity
  8
1
  6
Continuous
100
AcDbLine
 10
306.0379565258889
 20
116.0416374639457
 30
0.0
 11
306.0379565258889
 21
120.2652750806358
 31
0.0
  0
LINE
  5
2331
330
18
100
AcDbEntity
  8
1
  6
Continuous
100
AcDbLine
 10
291.4379565258887
 20
120.5666374639458
 30
0.0
 11
291.2379565258888
 21
120.7666374639458
 31
0.0
  0
LINE
  5
2332
330
18
100
AcDbEntity
  8
1
  6
Continuous
100
AcDbLine
 10
291.6379565258889
 20
120.5666374639458
 30
0.0
 11
291.4379565258889
 21
120.5666374639458
 31
0.0
  0
LINE
  5
2333
330
18
100
AcDbEntity
  8
1
  6
Continuous
100
AcDbLine
 10
307.0379565258889
 20
116.0416374639457
 30
0.0
 11
295.1379565260189
 21
116.0416374639457
 31
0.0
  0
LINE
  5
2334
330
18
100
AcDbEntity
  8
2
  6
Continuous
100
AcDbLine
 10
294.5964565260113
 20
116.5831374639456
 30
0.0
 11
306.0379565258889
 21
116.5831374639455
 31
0.0
  0
LINE
  5
2335
330
18
100
AcDbEntity
  8
1
  6
Continuous
100
AcDbLine
 10
295.1379565260089
 20
120.2652750806358
 30
0.0
 11
294.4379565258888
 21
121.6647830692259
 31
0.0
  0
LINE
  5
2336
330
18
100
AcDbEntity
  8
1
  6
Continuous
100
AcDbLine
 10
295.1379565260089
 20
116.0416374639456
 30
0.0
 11
295.1379565260089
 21
120.2652750806358
 31
0.0
  0
LINE
  5
2337
330
18
100
AcDbEntity
  8
1
  6
Continuous
100
AcDbLine
 10
307.0379565258889
 20
120.2652750806358
 30
0.0
 11
295.1379565260089
 21
120.2652750806358
 31
0.0
  0
LINE
  5
2338
330
18
100
AcDbEntity
  8
1
  6
Continuous
100
AcDbLine
 10
295.1379565260189
 20
116.0416374639458
 30
0.0
 11
294.4379565258889
 21
116.7416374640657
 31
0.0
  0
LINE
  5
2339
330
18
100
AcDbEntity
  8
1
  6
Continuous
100
AcDbLine
 10
294.4379565258889
 20
116.7416374640657
 30
0.0
 11
294.4379565258889
 21
121.6647830692258
 31
0.0
  0
LINE
  5
233A
330
18
100
AcDbEntity
  8
1
  6
Continuous
100
AcDbLine
 10
294.4379565258889
 20
121.6647830692258
 30
0.0
 11
291.6379565258889
 21
121.6647830692258
 31
0.0
  0
LINE
  5
233B
330
18
100
AcDbEntity
  8
1
  6
Continuous
100
AcDbLine
 10
307.1379565258888
 20
135.7318274745058
 30
0.0
 11
307.0379565258889
 21
135.6307404964258
 31
0.0
  0
LINE
  5
233E
330
18
100
AcDbEntity
  8
1
  6
Continuous
100
AcDbLine
 10
314.9379565258889
 20
131.2916374639459
 30
0.0
 11
315.9379565258888
 21
129.541637463946
 31
0.0
  0
LINE
  5
233F
330
18
100
AcDbEntity
  8
1
  6
Continuous
100
AcDbLine
 10
315.9379565258888
 20
121.5416374639459
 30
0.0
 11
315.9379565258888
 21
124.3416374639456
 31
0.0
  0
LINE
  5
2347
330
18
100
AcDbEntity
  8
1
  6
Continuous
100
AcDbLine
 10
307.2379565258888
 20
140.0416374639459
 30
0.0
 11
307.9379565258889
 21
140.0416374639459
 31
0.0
  0
LINE
  5
2348
330
18
100
AcDbEntity
  8
1
  6
Continuous
100
AcDbLine
 10
307.1379565258888
 20
139.9416374639458
 30
0.0
 11
307.237956525889
 21
140.0416374639458
 31
0.0
  0
LINE
  5
2349
330
18
100
AcDbEntity
  8
1
  6
Continuous
100
AcDbLine
 10
314.3379565258888
 20
136.341637463946
 30
0.0
 11
314.9379565258888
 21
135.7416374639459
 31
0.0
  0
LINE
  5
234A
330
18
100
AcDbEntity
  8
1
  6
Continuous
100
AcDbLine
 10
314.1542018558489
 20
137.3705945487257
 30
0.0
 11
314.3379565258888
 21
137.0916374639457
 31
0.0
  0
LINE
  5
234B
330
18
100
AcDbEntity
  8
1
  6
Continuous
100
AcDbLine
 10
307.9379565258889
 20
140.0416374639458
 30
0.0
 11
314.1542018558489
 21
137.3705945487258
 31
0.0
  0
LINE
  5
234D
330
18
100
AcDbEntity
  8
1
  6
Continuous
100
AcDbLine
 10
295.1379565260089
 20
130.8179998472558
 30
0.0
 11
295.1379565260089
 21
135.0416374639455
 31
0.0
  0
LINE
  5
234E
330
18
100
AcDbEntity
  8
1
  6
Continuous
100
AcDbLine
 10
295.1379565260189
 20
135.0416374639455
 30
0.0
 11
294.4379565258889
 21
134.3416374638254
 31
0.0
  0
LINE
  5
234F
330
18
100
AcDbEntity
  8
1
  6
Continuous
100
AcDbLine
 10
306.0379565258889
 20
135.0416374639455
 30
0.0
 11
306.0379565258889
 21
130.8179998472558
 31
0.0
  0
LINE
  5
2353
330
18
100
AcDbEntity
  8
1
  6
Continuous
100
AcDbLine
 10
291.2379565258889
 20
130.3166374639457
 30
0.0
 11
291.437956525889
 21
130.5166374639458
 31
0.0
  0
LINE
  5
2354
330
18
100
AcDbEntity
  8
1
  6
Continuous
100
AcDbLine
 10
291.4379565258889
 20
130.5166374639458
 30
0.0
 11
291.6379565258889
 21
130.5166374639458
 31
0.0
  0
LINE
  5
2355
330
18
100
AcDbEntity
  8
1
  6
Continuous
100
AcDbLine
 10
295.1379565260089
 20
130.8179998472558
 30
0.0
 11
307.0379565258889
 21
130.8179998472558
 31
0.0
  0
LINE
  5
2356
330
18
100
AcDbEntity
  8
1
  6
Continuous
100
AcDbLine
 10
294.4379565258888
 20
129.4184918586658
 30
0.0
 11
295.1379565260089
 21
130.8179998472558
 31
0.0
  0
LINE
  5
2357
330
18
100
AcDbEntity
  8
1
  6
Continuous
100
AcDbLine
 10
294.4379565258889
 20
129.4184918586659
 30
0.0
 11
294.4379565258889
 21
134.3416374638255
 31
0.0
  0
LINE
  5
2358
330
18
100
AcDbEntity
  8
2
  6
Continuous
100
AcDbLine
 10
291.6379565258887
 20
129.4184918586657
 30
0.0
 11
307.0379565258889
 21
120.2652750806357
 31
0.0
  0
LINE
  5
2359
330
18
100
AcDbEntity
  8
1
  6
Continuous
100
AcDbLine
 10
291.6379565258889
 20
129.4184918586657
 30
0.0
 11
294.4379565258889
 21
129.4184918586657
 31
0.0
  0
LINE
  5
235A
330
18
100
AcDbEntity
  8
1
  6
Continuous
100
AcDbLine
 10
294.4379565258889
 20
134.3416374638255
 30
0.0
 11
291.6379565258889
 21
134.3416374638255
 31
0.0
  0
LINE
  5
235F
330
18
100
AcDbEntity
  8
1
  6
Continuous
100
AcDbLine
 10
307.0379565258889
 20
135.0416374639455
 30
0.0
 11
295.1379565260189
 21
135.0416374639455
 31
0.0
  0
LINE
  5
2360
330
18
100
AcDbEntity
  8
2
  6
Continuous
100
AcDbLine
 10
294.5964565260113
 20
134.5001374639456
 30
0.0
 11
306.0379565258888
 21
134.5001374639457
 31
0.0
  0
LINE
  5
2363
330
18
100
AcDbEntity
  8
2
  6
Continuous
100
AcDbLine
 10
289.6379565258889
 20
127.7687432090758
 30
0.0
 11
280.6379565258889
 21
123.314531718816
 31
0.0
  0
LINE
  5
2364
330
18
100
AcDbEntity
  8
1
  6
Continuous
100
AcDbLine
 10
279.6379565258889
 20
128.0416374639459
 30
0.0
 11
279.6379565258889
 21
123.0416374639459
 31
0.0
  0
ARC
  5
2365
330
18
100
AcDbEntity
  8
1
  6
Continuous
100
AcDbCircle
 10
283.3873285615859
 20
125.5416374639459
 30
0.0
 40
3.538226475321216
100
AcDbArc
 50
140.9910879687151
 51
219.0089120312848
  0
LINE
  5
236B
330
18
100
AcDbEntity
  8
1
  6
Continuous
100
AcDbLine
 10
289.6379565258889
 20
117.4754981593158
 30
0.0
 11
289.6379565258889
 21
133.3416374639458
 31
0.0
  0
LINE
  5
2374
330
18
100
AcDbEntity
  8
1
  6
Continuous
100
AcDbLine
 10
291.2379565258888
 20
117.4754981593159
 30
0.0
 11
289.6379565258889
 21
117.4754981593158
 31
0.0
  0
LINE
  5
2376
330
18
100
AcDbEntity
  8
1
  6
Continuous
100
AcDbLine
 10
290.1379565258888
 20
116.7416374640657
 30
0.0
 11
289.9379565258889
 21
116.9416374640657
 31
0.0
  0
LINE
  5
2377
330
18
100
AcDbEntity
  8
1
  6
Continuous
100
AcDbLine
 10
289.9379565258889
 20
117.4754981593158
 30
0.0
 11
289.9379565258889
 21
116.9416374640657
 31
0.0
  0
LINE
  5
237A
330
18
100
AcDbEntity
  8
1
  6
Continuous
100
AcDbLine
 10
289.6379565258889
 20
122.0416374639459
 30
0.0
 11
280.6379565258889
 21
122.0416374639459
 31
0.0
  0
LINE
  5
237B
330
18
100
AcDbEntity
  8
1
  6
Continuous
100
AcDbLine
 10
280.6379565258889
 20
122.0416374639458
 30
0.0
 11
279.6379565258888
 21
123.0416374639458
 31
0.0
  0
LINE
  5
237C
330
18
100
AcDbEntity
  8
1
  6
Continuous
100
AcDbLine
 10
280.6379565258889
 20
122.0416374639459
 30
0.0
 11
280.6379565258889
 21
123.3145317188158
 31
0.0
  0
LINE
  5
237D
330
18
100
AcDbEntity
  8
1
  6
Continuous
100
AcDbLine
 10
280.6379565258889
 20
123.3145317188158
 30
0.0
 11
289.6379565258889
 21
123.3145317188158
 31
0.0
  0
LINE
  5
2380
330
18
100
AcDbEntity
  8
2
  6
Continuous
100
AcDbLine
 10
280.2319565258896
 20
122.4476374639451
 30
0.0
 11
289.6379565258889
 21
122.4476374639451
 31
0.0
  0
LINE
  5
238C
330
18
100
AcDbEntity
  8
2
  6
Continuous
100
AcDbLine
 10
280.6379565258889
 20
127.7687432090758
 30
0.0
 11
289.6379565258889
 21
123.3145317188158
 31
0.0
  0
LINE
  5
238D
330
18
100
AcDbEntity
  8
1
  6
Continuous
100
AcDbLine
 10
280.6379565258889
 20
129.0416374639459
 30
0.0
 11
289.6379565258889
 21
129.0416374639459
 31
0.0
  0
LINE
  5
238E
330
18
100
AcDbEntity
  8
1
  6
Continuous
100
AcDbLine
 10
280.6379565258889
 20
127.7687432090758
 30
0.0
 11
280.6379565258889
 21
129.0416374639459
 31
0.0
  0
LINE
  5
238F
330
18
100
AcDbEntity
  8
1
  6
Continuous
100
AcDbLine
 10
279.6379565258888
 20
128.0416374639458
 30
0.0
 11
280.6379565258889
 21
129.0416374639458
 31
0.0
  0
LINE
  5
2390
330
18
100
AcDbEntity
  8
1
  6
Continuous
100
AcDbLine
 10
289.6379565258889
 20
127.7687432090758
 30
0.0
 11
280.6379565258889
 21
127.7687432090758
 31
0.0
  0
LINE
  5
2393
330
18
100
AcDbEntity
  8
2
  6
Continuous
100
AcDbLine
 10
280.2319565258883
 20
128.6356374639451
 30
0.0
 11
289.6379565258889
 21
128.6356374639451
 31
0.0
  0
LINE
  5
24DC
330
18
100
AcDbEntity
  8
1
  6
Continuous
100
AcDbLine
 10
120.2574672394999
 20
42.58330963175749
 30
0.0
 11
119.9574672394999
 21
42.58330963175749
 31
0.0
  0
LINE
  5
24DD
330
18
100
AcDbEntity
  8
1
  6
Continuous
100
AcDbLine
 10
119.9574672394999
 20
49.26067816719355
 30
0.0
 11
118.2574672394998
 21
49.26067816719355
 31
0.0
  0
LINE
  5
24DE
330
18
100
AcDbEntity
  8
1
  6
Continuous
100
AcDbLine
 10
119.9574672394999
 20
41.82259676067814
 30
0.0
 11
118.2574672394999
 21
41.82259676067814
 31
0.0
  0
LINE
  5
24DF
330
18
100
AcDbEntity
  8
1
  6
Continuous
100
AcDbLine
 10
118.2574672394999
 20
41.82259676067814
 30
0.0
 11
118.2574672394999
 21
37.6416374639455
 31
0.0
  0
LINE
  5
24E0
330
18
100
AcDbEntity
  8
1
  6
Continuous
100
AcDbLine
 10
119.9574672394999
 20
49.26067816719355
 30
0.0
 11
119.9574672394999
 21
41.82259676067814
 31
0.0
  0
LINE
  5
24E1
330
18
100
AcDbEntity
  8
1
  6
Continuous
100
AcDbLine
 10
118.6574672394999
 20
41.82259676067814
 30
0.0
 11
118.6574672394999
 21
37.74163746394544
 31
0.0
  0
LINE
  5
24EA
330
18
100
AcDbEntity
  8
1
  6
Continuous
100
AcDbLine
 10
315.4379565258889
 20
124.4916374639456
 30
0.0
 11
315.4379565258889
 21
126.5916374639456
 31
0.0
  0
LINE
  5
24EC
330
18
100
AcDbEntity
  8
1
  6
Continuous
100
AcDbLine
 10
315.4379565258889
 20
124.4916374639456
 30
0.0
 11
315.4379565258889
 21
124.3416374639456
 31
0.0
  0
LINE
  5
24ED
330
18
100
AcDbEntity
  8
1
  6
Continuous
100
AcDbLine
 10
315.4379565258889
 20
124.3416374639456
 30
0.0
 11
315.9379565258888
 21
124.3416374639456
 31
0.0
  0
LINE
  5
24EE
330
18
100
AcDbEntity
  8
1
  6
Continuous
100
AcDbLine
 10
315.9379565258888
 20
126.7416374639456
 30
0.0
 11
315.4379565258889
 21
126.7416374639456
 31
0.0
  0
LINE
  5
24EF
330
18
100
AcDbEntity
  8
1
  6
Continuous
100
AcDbLine
 10
315.4379565258889
 20
126.7416374639456
 30
0.0
 11
315.4379565258889
 21
126.5916374639456
 31
0.0
  0
LINE
  5
24F1
330
18
100
AcDbEntity
  8
1
  6
Continuous
100
AcDbLine
 10
315.9379565258888
 20
126.7416374639456
 30
0.0
 11
315.9379565258888
 21
129.5416374639457
 31
0.0
  0
LINE
  5
2531
330
18
100
AcDbEntity
  8
4
  6
CENTER
 48
0.3
100
AcDbLine
 10
139.8574672394999
 20
205.5416374639456
 30
0.0
 11
160.6574672394998
 21
205.5416374639456
 31
0.0
  0
LINE
  5
2532
330
18
100
AcDbEntity
  8
4
  6
CENTER
 48
0.3
100
AcDbLine
 10
139.8574672394999
 20
125.5416374640021
 30
0.0
 11
160.6574672394999
 21
125.5416374640021
 31
0.0
  0
LINE
  5
2533
330
18
100
AcDbEntity
  8
4
  6
CENTER
 48
0.3
100
AcDbLine
 10
139.8574672394999
 20
45.54163746394563
 30
0.0
 11
160.6574672394999
 21
45.54163746394563
 31
0.0
  0
LINE
  5
2534
330
18
100
AcDbEntity
  8
4
  6
CENTER
 48
0.3
100
AcDbLine
 10
270.0379565258888
 20
125.5416374640021
 30
0.0
 11
249.2379565258888
 21
125.5416374640021
 31
0.0
  0
ARC
  5
2535
330
18
100
AcDbEntity
  8
1
  6
Continuous
100
AcDbCircle
 10
283.7046231917088
 20
125.5416374640356
 30
0.0
 40
20.66666666581749
100
AcDbArc
 50
162.1034488703766
 51
197.8965511296202
  0
LINE
  5
2536
330
18
100
AcDbEntity
  8
1
  6
Continuous
100
AcDbLine
 10
263.0379565258888
 20
114.541637463946
 30
0.0
 11
263.0379565258888
 21
136.5416374639456
 31
0.0
  0
LINE
  5
2537
330
18
100
AcDbEntity
  8
1
  6
Continuous
100
AcDbLine
 10
267.0379565258888
 20
138.2433433861065
 30
0.0
 11
267.0379565258888
 21
112.8399315418976
 31
0.0
  0
LINE
  5
2538
330
18
100
AcDbEntity
  8
1
  6
Continuous
100
AcDbLine
 10
264.0379565258888
 20
112.839931541785
 30
0.0
 11
263.0379565258888
 21
114.5416374639456
 31
0.0
  0
LINE
  5
2539
330
18
100
AcDbEntity
  8
1
  6
Continuous
100
AcDbLine
 10
267.0379565258889
 20
112.8399315418976
 30
0.0
 11
264.0379565258239
 21
112.8399315418976
 31
0.0
  0
ARC
  5
253A
330
18
100
AcDbEntity
  8
1
  6
Continuous
100
AcDbCircle
 10
279.1412731013839
 20
112.6893008853101
 30
0.0
 40
16.4432192957905
100
AcDbArc
 50
156.7097036817724
 51
168.3299559128212
  0
LINE
  5
253B
330
18
100
AcDbEntity
  8
1
  6
Continuous
100
AcDbLine
 10
267.0379565258888
 20
119.1907845030838
 30
0.0
 11
264.0379565258888
 21
119.1907845029042
 31
0.0
  0
ARC
  5
253C
330
18
100
AcDbEntity
  8
1
  6
Continuous
100
AcDbCircle
 10
279.1412731013839
 20
138.3939740425817
 30
0.0
 40
16.4432192957905
100
AcDbArc
 50
191.6700440871806
 51
203.2902963182305
  0
LINE
  5
253D
330
18
100
AcDbEntity
  8
1
  6
Continuous
100
AcDbLine
 10
267.0379565258888
 20
131.8924904249876
 30
0.0
 11
264.0379565258888
 21
131.8924904249876
 31
0.0
  0
LINE
  5
253E
330
18
100
AcDbEntity
  8
1
  6
Continuous
100
AcDbLine
 10
264.0379565258889
 20
138.2433433861065
 30
0.0
 11
263.0379565258889
 21
136.5416374639455
 31
0.0
  0
LINE
  5
253F
330
18
100
AcDbEntity
  8
1
  6
Continuous
100
AcDbLine
 10
264.0379565258888
 20
138.2433433861065
 30
0.0
 11
267.0379565258888
 21
138.2433433861065
 31
0.0
  0
LINE
  5
2540
330
18
100
AcDbEntity
  8
1
  6
Continuous
100
AcDbLine
 10
257.0379565258889
 20
119.0416374639459
 30
0.0
 11
257.0379565258889
 21
132.0416374639459
 31
0.0
  0
LINE
  5
2541
330
18
100
AcDbEntity
  8
1
  6
Continuous
100
AcDbLine
 10
256.2379565258888
 20
119.0416374639459
 30
0.0
 11
256.2379565258888
 21
132.0416374639459
 31
0.0
  0
ARC
  5
2542
330
18
100
AcDbEntity
  8
1
  6
Continuous
100
AcDbCircle
 10
245.7291967119166
 20
125.5416374639457
 30
0.0
 40
10.50875981397234
100
AcDbArc
 50
342.4120462261734
 51
17.58795377386117
  0
ARC
  5
2543
330
18
100
AcDbEntity
  8
1
  6
Continuous
100
AcDbCircle
 10
262.7467163398612
 20
125.5416374639457
 30
0.0
 40
10.50875981397234
100
AcDbArc
 50
162.4120462261388
 51
197.5879537738267
  0
LINE
  5
2544
330
18
100
AcDbEntity
  8
1
  6
Continuous
100
AcDbLine
 10
252.2379565258888
 20
131.0416374639542
 30
0.0
 11
252.2379565258888
 21
120.041637463946
 31
0.0
  0
LINE
  5
2545
330
18
100
AcDbEntity
  8
1
  6
Continuous
100
AcDbLine
 10
255.7467163397635
 20
119.1907845028557
 30
0.0
 11
252.7291967120155
 21
119.1907845028536
 31
0.0
  0
LINE
  5
2546
330
18
100
AcDbEntity
  8
1
  6
Continuous
100
AcDbLine
 10
255.7467163397681
 20
122.3662109834042
 30
0.0
 11
252.7291967120097
 21
122.366210983403
 31
0.0
  0
LINE
  5
2547
330
18
100
AcDbEntity
  8
1
  6
Continuous
100
AcDbLine
 10
257.0379565258889
 20
119.0416374639459
 30
0.0
 11
256.2379565258888
 21
119.0416374639459
 31
0.0
  0
LINE
  5
2548
330
18
100
AcDbEntity
  8
1
  6
Continuous
100
AcDbLine
 10
256.23795652589
 20
120.041637463948
 30
0.0
 11
255.7467163397681
 21
119.1907845028636
 31
0.0
  0
ARC
  5
2549
330
18
100
AcDbEntity
  8
1
  6
Continuous
100
AcDbCircle
 10
253.4265515026176
 20
120.7784977431257
 30
0.0
 40
2.811405023272465
100
AcDbArc
 50
334.3842474680282
 51
34.38424746793708
  0
LINE
  5
254A
330
18
100
AcDbEntity
  8
1
  6
Continuous
100
AcDbLine
 10
256.2379565258888
 20
120.7784977431258
 30
0.0
 11
256.2352829921788
 21
120.6656271294759
 31
0.0
  0
ARC
  5
254B
330
18
100
AcDbEntity
  8
1
  6
Continuous
100
AcDbCircle
 10
255.0493615491602
 20
120.7784977431257
 30
0.0
 40
2.811405023272465
100
AcDbArc
 50
145.6157525320629
 51
205.6157525319718
  0
LINE
  5
254C
330
18
100
AcDbEntity
  8
1
  6
Continuous
100
AcDbLine
 10
252.2379565258876
 20
120.041637463948
 30
0.0
 11
252.7291967120097
 21
119.1907845028636
 31
0.0
  0
LINE
  5
254D
330
18
100
AcDbEntity
  8
1
  6
Continuous
100
AcDbLine
 10
255.7467163397681
 20
128.717063944494
 30
0.0
 11
252.7291967120097
 21
128.7170639444944
 31
0.0
  0
LINE
  5
254E
330
18
100
AcDbEntity
  8
1
  6
Continuous
100
AcDbLine
 10
255.7467163397681
 20
131.8924904250366
 30
0.0
 11
252.7291967120097
 21
131.8924904250367
 31
0.0
  0
LINE
  5
254F
330
18
100
AcDbEntity
  8
1
  6
Continuous
100
AcDbLine
 10
256.2379565258888
 20
132.0416374639459
 30
0.0
 11
257.0379565258889
 21
132.0416374639459
 31
0.0
  0
LINE
  5
2550
330
18
100
AcDbEntity
  8
1
  6
Continuous
100
AcDbLine
 10
256.2379565258888
 20
126.0671343251559
 30
0.0
 11
256.2147897286489
 21
126.0555399639809
 31
0.0
  0
ARC
  5
2551
330
18
100
AcDbEntity
  8
1
  6
Continuous
100
AcDbCircle
 10
253.4265515026176
 20
130.3047771847656
 30
0.0
 40
2.811405023272465
100
AcDbArc
 50
325.6157525320629
 51
25.61575253197177
  0
LINE
  5
2552
330
18
100
AcDbEntity
  8
1
  6
Continuous
100
AcDbLine
 10
256.23795652589
 20
131.0416374639522
 30
0.0
 11
255.7467163397681
 21
131.8924904250367
 31
0.0
  0
LINE
  5
2553
330
18
100
AcDbEntity
  8
1
  6
Continuous
100
AcDbLine
 10
256.2379565258888
 20
130.3047771848058
 30
0.0
 11
256.2352829921489
 21
130.1919065711059
 31
0.0
  0
ARC
  5
2554
330
18
100
AcDbEntity
  8
1
  6
Continuous
100
AcDbCircle
 10
255.0493615491602
 20
130.3047771847656
 30
0.0
 40
2.811405023272465
100
AcDbArc
 50
154.3842474680282
 51
214.384247467937
  0
LINE
  5
2555
330
18
100
AcDbEntity
  8
1
  6
Continuous
100
AcDbLine
 10
252.2379565258877
 20
131.0416374639522
 30
0.0
 11
252.7291967120097
 21
131.8924904250367
 31
0.0
  0
ENDSEC
  0
SECTION
  2
OBJECTS
  0
DICTIONARY
  5
C
330
0
100
AcDbDictionary
281
     1
  3
ACAD_CIP_PREVIOUS_PRODUCT_INFO
350
25B8
  3
ACAD_COLOR
350
259B
  3
ACAD_DETAILVIEWSTYLE
350
25B4
  3
ACAD_GROUP
350
D
  3
ACAD_LAYOUT
350
94
  3
ACAD_MATERIAL
350
2569
  3
ACAD_MLEADERSTYLE
350
25B0
  3
ACAD_MLINESTYLE
350
1B
  3
ACAD_PLOTSETTINGS
350
95
  3
ACAD_PLOTSTYLENAME
350
2567
  3
ACAD_SCALELIST
350
259E
  3
ACAD_SECTIONVIEWSTYLE
350
25B2
  3
ACAD_TABLESTYLE
350
259C
  3
ACAD_VISUALSTYLE
350
2582
  3
ACDB_RECOMPOSE_DATA
350
25D6
  3
AcDbVariableDictionary
350
25C9
  3
CONTENTDICTIONARY
350
3D
  3
DWGPROPS
350
25D7
  0
DICTIONARY
  5
25B9
330
E
100
AcDbDictionary
280
     1
281
     1
  3
ADSK_XREC_LAYER_RECONCILED
360
25BA
  0
DICTIONARY
  5
25BB
330
4E
100
AcDbDictionary
280
     1
281
     1
  3
ADSK_XREC_LAYER_RECONCILED
360
25BC
  0
DICTIONARY
  5
25BD
330
4F
100
AcDbDictionary
280
     1
281
     1
  3
ADSK_XREC_LAYER_RECONCILED
360
25BE
  0
DICTIONARY
  5
25BF
330
50
100
AcDbDictionary
280
     1
281
     1
  3
ADSK_XREC_LAYER_RECONCILED
360
25C0
  0
DICTIONARY
  5
25C1
330
51
100
AcDbDictionary
280
     1
281
     1
  3
ADSK_XREC_LAYER_RECONCILED
360
25C2
  0
DICTIONARY
  5
25C3
330
52
100
AcDbDictionary
280
     1
281
     1
  3
ADSK_XREC_LAYER_RECONCILED
360
25C4
  0
DICTIONARY
  5
25C5
330
53
100
AcDbDictionary
280
     1
281
     1
  3
ADSK_XREC_LAYER_RECONCILED
360
25C6
  0
DICTIONARY
  5
25C7
330
54
100
AcDbDictionary
280
     1
281
     1
  3
ADSK_XREC_LAYER_RECONCILED
360
25C8
  0
DICTIONARY
  5
2562
330
18
100
AcDbDictionary
281
     1
  3
ACAD_LAYOUTSELFREF
350
2563
  0
DICTIONARY
  5
2560
330
15
100
AcDbDictionary
281
     1
  3
ACAD_LAYOUTSELFREF
350
2561
  0
XRECORD
  5
25B8
102
{ACAD_REACTORS
330
C
102
}
330
C
100
AcDbXrecord
280
     1
300
ACDLT
300
2014
300
ACDLT_F_S
  0
DICTIONARY
  5
259B
102
{ACAD_REACTORS
330
C
102
}
330
C
100
AcDbDictionary
281
     1
  0
DICTIONARY
  5
25B4
102
{ACAD_REACTORS
330
C
102
}
330
C
100
AcDbDictionary
281
     1
  3
Imperial24
350
25B5
  0
DICTIONARY
  5
D
102
{ACAD_REACTORS
330
C
102
}
330
C
100
AcDbDictionary
281
     1
  0
DICTIONARY
  5
94
102
{ACAD_REACTORS
330
C
102
}
330
C
100
AcDbDictionary
281
     1
  3
Model
350
25B6
  3
レイアウト1
350
25B7
  0
DICTIONARY
  5
2569
102
{ACAD_REACTORS
330
C
102
}
330
C
100
AcDbDictionary
281
     1
  3
ByBlock
350
2572
  3
ByLayer
350
256A
  3
Global
350
257A
  0
DICTIONARY
  5
25B0
102
{ACAD_REACTORS
330
C
102
}
330
C
100
AcDbDictionary
281
     1
  3
Standard
350
25B1
  0
DICTIONARY
  5
1B
102
{ACAD_REACTORS
330
C
102
}
330
C
100
AcDbDictionary
281
     1
  3
STANDARD
350
1C
  0
DICTIONARY
  5
95
102
{ACAD_REACTORS
330
C
102
}
330
C
100
AcDbDictionary
281
     1
  0
ACDBDICTIONARYWDFLT
  5
2567
102
{ACAD_REACTORS
330
C
102
}
330
C
100
AcDbDictionary
281
     1
  3
Normal
350
2568
100
AcDbDictionaryWithDefault
340
2568
  0
DICTIONARY
  5
259E
102
{ACAD_REACTORS
330
C
102
}
330
C
100
AcDbDictionary
281
     1
  3
A0
350
259F
  3
A1
350
25A0
  3
A2
350
25A1
  3
A3
350
25A2
  3
A4
350
25A3
  3
A5
350
25A4
  3
A6
350
25A5
  3
A7
350
25A6
  3
A8
350
25A7
  3
A9
350
25A8
  3
B0
350
25A9
  3
B1
350
25AA
  3
B2
350
25AB
  3
B3
350
25AC
  3
B4
350
25AD
  3
B5
350
25AE
  3
B6
350
25AF
  0
DICTIONARY
  5
25B2
102
{ACAD_REACTORS
330
C
102
}
330
C
100
AcDbDictionary
281
     1
  3
Imperial24
350
25B3
  0
DICTIONARY
  5
259C
102
{ACAD_REACTORS
330
C
102
}
330
C
100
AcDbDictionary
281
     1
  3
Standard
350
259D
  0
DICTIONARY
  5
2582
102
{ACAD_REACTORS
330
C
102
}
330
C
100
AcDbDictionary
281
     1
  3
2dWireframe
350
2588
  3
Basic
350
2587
  3
Brighten
350
258E
  3
ColorChange
350
2592
  3
Conceptual
350
258B
  3
Dim
350
258D
  3
EdgeColorOff
350
259A
  3
Facepattern
350
2591
  3
Flat
350
2583
  3
FlatWithEdges
350
2584
  3
Gouraud
350
2585
  3
GouraudWithEdges
350
2586
  3
Hidden
350
258A
  3
JitterOff
350
2598
  3
Linepattern
350
2590
  3
OverhangOff
350
2599
  3
Realistic
350
258C
  3
Shaded
350
2597
  3
Shaded with edges
350
2596
  3
Shades of Gray
350
2593
  3
Sketchy
350
2594
  3
Thicken
350
258F
  3
Wireframe
350
2589
  3
X-Ray
350
2595
  0
XRECORD
  5
25D6
102
{ACAD_REACTORS
330
C
102
}
330
C
100
AcDbXrecord
280
     1
 90
        1
330
259D
  0
DICTIONARY
  5
25C9
102
{ACAD_REACTORS
330
C
102
}
330
C
100
AcDbDictionary
281
     1
  3
CANNOSCALE
350
25CE
  3
CMLEADERSTYLE
350
25CB
  3
CTABLESTYLE
350
25CA
  3
CVIEWDETAILSTYLE
350
25CC
  3
CVIEWSECTIONSTYLE
350
25CD
  3
DIMASSOC
350
25D1
  3
INDEXCTL
350
25D0
  3
SORTENTS
350
25CF
  3
XCLIPFRAME
350
25D2
  0
DICTIONARY
  5
3D
102
{ACAD_REACTORS
330
C
102
}
330
C
100
AcDbDictionary
281
     1
  0
XRECORD
  5
25D7
102
{ACAD_REACTORS
330
C
102
}
330
C
100
AcDbXrecord
280
     1
  1
DWGPROPS COOKIE
  2

  3

  4

  6

  7

  8
Yoshitsune
  9

300
=
301
=
302
=
303
=
304
=
305
=
306
=
307
=
308
=
309
=
 40
0.1507247685185185
 41
2454525.396254514
 42
2457192.602358079
  1

 90
        0
  0
XRECORD
  5
25BA
102
{ACAD_REACTORS
330
25B9
102
}
330
25B9
100
AcDbXrecord
280
     1
290
     1
  0
XRECORD
  5
25BC
102
{ACAD_REACTORS
330
25BB
102
}
330
25BB
100
AcDbXrecord
280
     1
290
     1
  0
XRECORD
  5
25BE
102
{ACAD_REACTORS
330
25BD
102
}
330
25BD
100
AcDbXrecord
280
     1
290
     1
  0
XRECORD
  5
25C0
102
{ACAD_REACTORS
330
25BF
102
}
330
25BF
100
AcDbXrecord
280
     1
290
     1
  0
XRECORD
  5
25C2
102
{ACAD_REACTORS
330
25C1
102
}
330
25C1
100
AcDbXrecord
280
     1
290
     1
  0
XRECORD
  5
25C4
102
{ACAD_REACTORS
330
25C3
102
}
330
25C3
100
AcDbXrecord
280
     1
290
     1
  0
XRECORD
  5
25C6
102
{ACAD_REACTORS
330
25C5
102
}
330
25C5
100
AcDbXrecord
280
     1
290
     1
  0
XRECORD
  5
25C8
102
{ACAD_REACTORS
330
25C7
102
}
330
25C7
100
AcDbXrecord
280
     1
290
     1
  0
XRECORD
  5
2563
102
{ACAD_REACTORS
330
2562
102
}
330
2562
100
AcDbXrecord
280
     1
340
18
  0
XRECORD
  5
2561
102
{ACAD_REACTORS
330
2560
102
}
330
2560
100
AcDbXrecord
280
     1
340
15
  0
ACDBDETAILVIEWSTYLE
  5
25B5
102
{ACAD_XDICTIONARY
360
260F
102
}
102
{ACAD_REACTORS
330
25B4
102
}
330
25B4
100
AcDbModelDocViewStyle
 70
     0
  3
Imperial24
290
     0
100
AcDbDetailViewStyle
 70
     0
 71
     0
 90
        3
 71
     1
340
F
 40
0.24
340
0
 40
0.24
300

 40
0.36
280
     3
 71
     2
340
14
 90
       25
 71
     3
340
F
 40
0.24
 90
        1
 40
0.75
 90
        1
300
%<\AcVar ViewType \f "%tc1">% %<\AcVar ViewDetailId>%\PSCALE %<\AcVar ViewScale \f "%sn">%
 71
     4
340
14
 90
       25
340
14
 90
       25
280
     0
  0
LAYOUT
  5
25B6
102
{ACAD_XDICTIONARY
360
2611
102
}
102
{ACAD_REACTORS
330
94
102
}
330
94
100
AcDbPlotSettings
  1

  2
Canon LBP9100C
  4

  6

 40
0.0
 41
0.0
 42
0.0
 43
0.0
 44
0.0
 45
0.0
 46
0.0
 47
0.0
 48
0.0
 49
0.0
140
0.0
141
0.0
142
1.0
143
1.0
 70
  1712
 72
     0
 73
     0
 74
     0
  7

 75
     0
147
1.0
148
0.0
149
0.0
100
AcDbLayout
  1
Model
 70
     1
 71
     0
 10
0.0
 20
0.0
 11
12.0
 21
9.0
 12
0.0
 22
0.0
 32
0.0
 14
0.0
 24
0.0
 34
0.0
 15
0.0
 25
0.0
 35
0.0
146
0.0
 13
0.0
 23
0.0
 33
0.0
 16
1.0
 26
0.0
 36
0.0
 17
0.0
 27
1.0
 37
0.0
 76
     0
330
18
331
255F
  0
LAYOUT
  5
25B7
102
{ACAD_XDICTIONARY
360
2613
102
}
102
{ACAD_REACTORS
330
94
102
}
330
94
100
AcDbPlotSettings
  1

  2
Canon LBP9100C
  4

  6

 40
0.0
 41
0.0
 42
0.0
 43
0.0
 44
0.0
 45
0.0
 46
0.0
 47
0.0
 48
0.0
 49
0.0
140
0.0
141
0.0
142
1.0
143
1.0
 70
   688
 72
     0
 73
     0
 74
     5
  7

 75
    16
147
1.0
148
0.0
149
0.0
100
AcDbLayout
  1
レイアウト1
 70
     1
 71
     1
 10
0.0
 20
0.0
 11
420.0
 21
297.0
 12
0.0
 22
0.0
 32
0.0
 14
1.000000000000000E+20
 24
1.000000000000000E+20
 34
1.000000000000000E+20
 15
-1.000000000000000E+20
 25
-1.000000000000000E+20
 35
-1.000000000000000E+20
146
0.0
 13
0.0
 23
0.0
 33
0.0
 16
1.0
 26
0.0
 36
0.0
 17
0.0
 27
1.0
 37
0.0
 76
     0
330
15
  0
MATERIAL
  5
2572
102
{ACAD_XDICTIONARY
360
2573
102
}
102
{ACAD_REACTORS
330
2569
102
}
330
2569
100
AcDbMaterial
  1
ByBlock
 72
     0
 43
0.0208333333333333
 43
0.0
 43
0.0
 43
0.0
 43
0.0
 43
0.0208333333333333
 43
0.0
 43
0.0
 43
0.0
 43
0.0
 43
1.0
 43
0.0
 43
0.0
 43
0.0
 43
0.0
 43
1.0
 77
     0
 47
0.0208333333333333
 47
0.0
 47
0.0
 47
0.0
 47
0.0
 47
0.0208333333333333
 47
0.0
 47
0.0
 47
0.0
 47
0.0
 47
1.0
 47
0.0
 47
0.0
 47
0.0
 47
0.0
 47
1.0
171
     0
 49
0.0208333333333333
 49
0.0
 49
0.0
 49
0.0
 49
0.0
 49
0.0208333333333333
 49
0.0
 49
0.0
 49
0.0
 49
0.0
 49
1.0
 49
0.0
 49
0.0
 49
0.0
 49
0.0
 49
1.0
175
     0
142
0.0208333333333333
142
0.0
142
0.0
142
0.0
142
0.0
142
0.0208333333333333
142
0.0
142
0.0
142
0.0
142
0.0
142
1.0
142
0.0
142
0.0
142
0.0
142
0.0
142
1.0
179
     0
144
0.0208333333333333
144
0.0
144
0.0
144
0.0
144
0.0
144
0.0208333333333333
144
0.0
144
0.0
144
0.0
144
0.0
144
1.0
144
0.0
144
0.0
144
0.0
144
0.0
144
1.0
147
0.0208333333333333
147
0.0
147
0.0
147
0.0
147
0.0
147
0.0208333333333333
147
0.0
147
0.0
147
0.0
147
0.0
147
1.0
147
0.0
147
0.0
147
0.0
147
0.0
147
1.0
  0
MATERIAL
  5
256A
102
{ACAD_XDICTIONARY
360
256B
102
}
102
{ACAD_REACTORS
330
2569
102
}
330
2569
100
AcDbMaterial
  1
ByLayer
 72
     0
 43
0.0208333333333333
 43
0.0
 43
0.0
 43
0.0
 43
0.0
 43
0.0208333333333333
 43
0.0
 43
0.0
 43
0.0
 43
0.0
 43
1.0
 43
0.0
 43
0.0
 43
0.0
 43
0.0
 43
1.0
 77
     0
 47
0.0208333333333333
 47
0.0
 47
0.0
 47
0.0
 47
0.0
 47
0.0208333333333333
 47
0.0
 47
0.0
 47
0.0
 47
0.0
 47
1.0
 47
0.0
 47
0.0
 47
0.0
 47
0.0
 47
1.0
171
     0
 49
0.0208333333333333
 49
0.0
 49
0.0
 49
0.0
 49
0.0
 49
0.0208333333333333
 49
0.0
 49
0.0
 49
0.0
 49
0.0
 49
1.0
 49
0.0
 49
0.0
 49
0.0
 49
0.0
 49
1.0
175
     0
142
0.0208333333333333
142
0.0
142
0.0
142
0.0
142
0.0
142
0.0208333333333333
142
0.0
142
0.0
142
0.0
142
0.0
142
1.0
142
0.0
142
0.0
142
0.0
142
0.0
142
1.0
179
     0
144
0.0208333333333333
144
0.0
144
0.0
144
0.0
144
0.0
144
0.0208333333333333
144
0.0
144
0.0
144
0.0
144
0.0
144
1.0
144
0.0
144
0.0
144
0.0
144
0.0
144
1.0
147
0.0208333333333333
147
0.0
147
0.0
147
0.0
147
0.0
147
0.0208333333333333
147
0.0
147
0.0
147
0.0
147
0.0
147
1.0
147
0.0
147
0.0
147
0.0
147
0.0
147
1.0
  0
MATERIAL
  5
257A
102
{ACAD_XDICTIONARY
360
257B
102
}
102
{ACAD_REACTORS
330
2569
102
}
330
2569
100
AcDbMaterial
  1
Global
 72
     0
 43
0.0208333333333333
 43
0.0
 43
0.0
 43
0.0
 43
0.0
 43
0.0208333333333333
 43
0.0
 43
0.0
 43
0.0
 43
0.0
 43
1.0
 43
0.0
 43
0.0
 43
0.0
 43
0.0
 43
1.0
 77
     0
 47
0.0208333333333333
 47
0.0
 47
0.0
 47
0.0
 47
0.0
 47
0.0208333333333333
 47
0.0
 47
0.0
 47
0.0
 47
0.0
 47
1.0
 47
0.0
 47
0.0
 47
0.0
 47
0.0
 47
1.0
171
     0
 49
0.0208333333333333
 49
0.0
 49
0.0
 49
0.0
 49
0.0
 49
0.0208333333333333
 49
0.0
 49
0.0
 49
0.0
 49
0.0
 49
1.0
 49
0.0
 49
0.0
 49
0.0
 49
0.0
 49
1.0
175
     0
142
0.0208333333333333
142
0.0
142
0.0
142
0.0
142
0.0
142
0.0208333333333333
142
0.0
142
0.0
142
0.0
142
0.0
142
1.0
142
0.0
142
0.0
142
0.0
142
0.0
142
1.0
179
     0
144
0.0208333333333333
144
0.0
144
0.0
144
0.0
144
0.0
144
0.0208333333333333
144
0.0
144
0.0
144
0.0
144
0.0
144
1.0
144
0.0
144
0.0
144
0.0
144
0.0
144
1.0
147
0.0208333333333333
147
0.0
147
0.0
147
0.0
147
0.0
147
0.0208333333333333
147
0.0
147
0.0
147
0.0
147
0.0
147
1.0
147
0.0
147
0.0
147
0.0
147
0.0
147
1.0
  0
MLEADERSTYLE
  5
25B1
102
{ACAD_REACTORS
330
25B0
102
}
330
25B0
100
AcDbMLeaderStyle
170
     2
171
     1
172
     0
 90
        2
 40
0.0
 41
0.0
173
     1
 91
-1056964608
340
12
 92
       -2
290
     1
 42
0.09
291
     1
 43
0.36
  3
Standard
 44
0.18
300

342
F
174
     1
178
     6
175
     1
176
     0
 93
-1056964608
 45
0.18
292
     0
297
     0
 46
0.18
 94
-1056964608
 47
1.0
 49
1.0
140
1.0
293
     1
141
0.0
294
     1
177
     0
142
1.0
295
     0
296
     0
143
0.125
1001
ACAD_MLEADERVER
1070
     2
  0
MLINESTYLE
  5
1C
102
{ACAD_REACTORS
330
1B
102
}
330
1B
100
AcDbMlineStyle
  2
STANDARD
 70
     0
  3

 62
   256
 51
90.0
 52
90.0
 71
     2
 49
0.5
 62
   256
  6
BYLAYER
 49
-0.5
 62
   256
  6
BYLAYER
  0
ACDBPLACEHOLDER
  5
2568
102
{ACAD_REACTORS
330
2567
102
}
330
2567
  0
SCALE
  5
259F
102
{ACAD_REACTORS
330
259E
102
}
330
259E
100
AcDbScale
 70
     0
300
1:1
140
1.0
141
1.0
290
     1
  0
SCALE
  5
25A0
102
{ACAD_REACTORS
330
259E
102
}
330
259E
100
AcDbScale
 70
     0
300
1/128" = 1'-0"
140
0.0078125
141
12.0
290
     0
  0
SCALE
  5
25A1
102
{ACAD_REACTORS
330
259E
102
}
330
259E
100
AcDbScale
 70
     0
300
1/64" = 1'-0"
140
0.015625
141
12.0
290
     0
  0
SCALE
  5
25A2
102
{ACAD_REACTORS
330
259E
102
}
330
259E
100
AcDbScale
 70
     0
300
1/32" = 1'-0"
140
0.03125
141
12.0
290
     0
  0
SCALE
  5
25A3
102
{ACAD_REACTORS
330
259E
102
}
330
259E
100
AcDbScale
 70
     0
300
1/16" = 1'-0"
140
0.0625
141
12.0
290
     0
  0
SCALE
  5
25A4
102
{ACAD_REACTORS
330
259E
102
}
330
259E
100
AcDbScale
 70
     0
300
3/32" = 1'-0"
140
0.09375
141
12.0
290
     0
  0
SCALE
  5
25A5
102
{ACAD_REACTORS
330
259E
102
}
330
259E
100
AcDbScale
 70
     0
300
1/8" = 1'-0"
140
0.125
141
12.0
290
     0
  0
SCALE
  5
25A6
102
{ACAD_REACTORS
330
259E
102
}
330
259E
100
AcDbScale
 70
     0
300
3/16" = 1'-0"
140
0.1875
141
12.0
290
     0
  0
SCALE
  5
25A7
102
{ACAD_REACTORS
330
259E
102
}
330
259E
100
AcDbScale
 70
     0
300
1/4" = 1'-0"
140
0.25
141
12.0
290
     0
  0
SCALE
  5
25A8
102
{ACAD_REACTORS
330
259E
102
}
330
259E
100
AcDbScale
 70
     0
300
3/8" = 1'-0"
140
0.375
141
12.0
290
     0
  0
SCALE
  5
25A9
102
{ACAD_REACTORS
330
259E
102
}
330
259E
100
AcDbScale
 70
     0
300
1/2" = 1'-0"
140
0.5
141
12.0
290
     0
  0
SCALE
  5
25AA
102
{ACAD_REACTORS
330
259E
102
}
330
259E
100
AcDbScale
 70
     0
300
3/4" = 1'-0"
140
0.75
141
12.0
290
     0
  0
SCALE
  5
25AB
102
{ACAD_REACTORS
330
259E
102
}
330
259E
100
AcDbScale
 70
     0
300
1" = 1'-0"
140
1.0
141
12.0
290
     0
  0
SCALE
  5
25AC
102
{ACAD_REACTORS
330
259E
102
}
330
259E
100
AcDbScale
 70
     0
300
1-1/2" = 1'-0"
140
1.5
141
12.0
290
     0
  0
SCALE
  5
25AD
102
{ACAD_REACTORS
330
259E
102
}
330
259E
100
AcDbScale
 70
     0
300
3" = 1'-0"
140
3.0
141
12.0
290
     0
  0
SCALE
  5
25AE
102
{ACAD_REACTORS
330
259E
102
}
330
259E
100
AcDbScale
 70
     0
300
6" = 1'-0"
140
6.0
141
12.0
290
     0
  0
SCALE
  5
25AF
102
{ACAD_REACTORS
330
259E
102
}
330
259E
100
AcDbScale
 70
     0
300
1'-0" = 1'-0"
140
12.0
141
12.0
290
     0
  0
ACDBSECTIONVIEWSTYLE
  5
25B3
102
{ACAD_XDICTIONARY
360
260D
102
}
102
{ACAD_REACTORS
330
25B2
102
}
330
25B2
100
AcDbModelDocViewStyle
 70
     0
  3
Imperial24
290
     0
100
AcDbSectionViewStyle
 70
     0
 71
     0
 90
       78
 71
     1
340
F
 40
0.24
340
0
340
0
 40
0.24
300
I, O, Q, S, X, Z
 40
0.48
 90
        3
 40
0.18
 90
        1
 71
     2
340
14
 90
       25
340
14
 90
       50
 40
0.24
 40
0.0
 40
0.24
 71
     3
340
F
 40
0.24
 90
        1
 40
0.75
 90
        1
300
%<\AcVar ViewType \f "%tc1">% %<\AcVar ViewSectionStartId>%-%<\AcVar ViewSectionEndId>%\PSCALE %<\AcVar ViewScale \f "%sn">%
 71
     4
300
ANSI31
 40
1.0
 90
        0
290
     0
290
     0
 90
        6
 40
0.0
 40
1.570796326794896
 40
0.2617993877991494
 40
1.308996938995747
 40
-0.2617993877991494
 40
1.832595714594046
  0
TABLESTYLE
  5
259D
102
{ACAD_XDICTIONARY
360
25D4
102
}
102
{ACAD_REACTORS
330
259C
102
}
330
259C
100
AcDbTableStyle
  3
Standard
 70
     0
 71
     0
 40
0.06
 41
0.06
280
     0
281
     0
  7
STANDARD
140
0.18
170
     2
 62
     0
 63
     7
283
     0
274
    -2
284
     1
 64
     0
275
    -2
285
     1
 65
     0
276
    -2
286
     1
 66
     0
277
    -2
287
     1
 67
     0
278
    -2
288
     1
 68
     0
279
    -2
289
     1
 69
     0
  7
STANDARD
140
0.25
170
     5
 62
     0
 63
     7
283
     0
274
    -2
284
     1
 64
     0
275
    -2
285
     1
 65
     0
276
    -2
286
     1
 66
     0
277
    -2
287
     1
 67
     0
278
    -2
288
     1
 68
     0
279
    -2
289
     1
 69
     0
  7
STANDARD
140
0.18
170
     5
 62
     0
 63
     7
283
     0
274
    -2
284
     1
 64
     0
275
    -2
285
     1
 65
     0
276
    -2
286
     1
 66
     0
277
    -2
287
     1
 67
     0
278
    -2
288
     1
 68
     0
279
    -2
289
     1
 69
     0
  0
VISUALSTYLE
  5
2588
102
{ACAD_XDICTIONARY
360
25E5
102
}
102
{ACAD_REACTORS
330
2582
102
}
330
2582
100
AcDbVisualStyle
  2
2dWireframe
 70
     4
 71
     0
 72
     2
 73
     0
 90
        0
 40
-0.6
 41
-30.0
 62
     5
 63
     7
 74
     1
 91
        4
 64
     7
 65
   257
 75
     1
175
     1
 42
1.0
 92
        0
 66
   257
 43
1.0
 76
     1
 77
     6
 78
     2
 67
     7
 79
     5
170
     0
171
     0
290
     0
174
     0
 93
        1
 44
0.0
173
     0
291
     0
 45
0.0
1001
ACAD
1000
AcDbSavedByObjectVersion
1070
     0
  0
VISUALSTYLE
  5
2587
102
{ACAD_XDICTIONARY
360
25E3
102
}
102
{ACAD_REACTORS
330
2582
102
}
330
2582
100
AcDbVisualStyle
  2
Basic
 70
     7
 71
     1
 72
     0
 73
     1
 90
        0
 40
-0.6
 41
-30.0
 62
     5
 63
     7
 74
     0
 91
        4
 64
     7
 65
   257
 75
     1
175
     1
 42
1.0
 92
        8
 66
     7
 43
1.0
 76
     1
 77
     6
 78
     2
 67
     7
 79
     5
170
     0
171
     0
290
     0
174
     0
 93
        1
 44
0.0
173
     0
291
     1
 45
0.0
1001
ACAD
1000
AcDbSavedByObjectVersion
1070
     0
  0
VISUALSTYLE
  5
258E
102
{ACAD_XDICTIONARY
360
25F1
102
}
102
{ACAD_REACTORS
330
2582
102
}
330
2582
100
AcDbVisualStyle
  2
Brighten
 70
    12
 71
     2
 72
     2
 73
     0
 90
        0
 40
-0.6
 41
-30.0
 62
     5
 63
     7
 74
     1
 91
        4
 64
     7
 65
   257
 75
     1
175
     1
 42
1.0
 92
        8
 66
     7
 43
1.0
 76
     1
 77
     6
 78
     2
 67
     7
 79
     5
170
     0
171
     0
290
     0
174
     0
 93
        1
 44
50.0
173
     0
291
     1
 45
0.0
1001
ACAD
1000
AcDbSavedByObjectVersion
1070
     0
  0
VISUALSTYLE
  5
2592
102
{ACAD_XDICTIONARY
360
25F9
102
}
102
{ACAD_REACTORS
330
2582
102
}
330
2582
100
AcDbVisualStyle
  2
ColorChange
 70
    16
 71
     2
 72
     2
 73
     3
 90
        0
 40
-0.6
 41
-30.0
 62
     5
 63
     8
 74
     1
 91
        4
 64
     7
 65
   257
 75
     1
175
     1
 42
1.0
 92
        8
 66
     8
 43
1.0
 76
     1
 77
     6
 78
     2
 67
     7
 79
     5
170
     0
171
     0
290
     0
174
     0
 93
        1
 44
0.0
173
     0
291
     1
 45
0.0
1001
ACAD
1000
AcDbSavedByObjectVersion
1070
     0
  0
VISUALSTYLE
  5
258B
102
{ACAD_XDICTIONARY
360
25EB
102
}
102
{ACAD_REACTORS
330
2582
102
}
330
2582
100
AcDbVisualStyle
  2
Conceptual
 70
     9
 71
     3
 72
     2
 73
     0
 90
        0
 40
-0.6
 41
-30.0
 62
     5
 63
     7
 74
     2
 91
        2
 64
     7
 65
   257
 75
     1
175
     1
 42
179.0
 92
        8
 66
     7
 43
1.0
 76
     1
 77
     6
 78
     2
 67
     7
 79
     3
170
     0
171
     0
290
     0
174
     0
 93
        1
 44
0.0
173
     0
291
     0
 45
0.0
1001
ACAD
1000
AcDbSavedByObjectVersion
1070
     0
  0
VISUALSTYLE
  5
258D
102
{ACAD_XDICTIONARY
360
25EF
102
}
102
{ACAD_REACTORS
330
2582
102
}
330
2582
100
AcDbVisualStyle
  2
Dim
 70
    11
 71
     2
 72
     2
 73
     0
 90
        0
 40
-0.6
 41
-30.0
 62
     5
 63
     7
 74
     1
 91
        4
 64
     7
 65
   257
 75
     1
175
     1
 42
1.0
 92
        8
 66
     7
 43
1.0
 76
     1
 77
     6
 78
     2
 67
     7
 79
     5
170
     0
171
     0
290
     0
174
     0
 93
        1
 44
-50.0
173
     0
291
     1
 45
0.0
1001
ACAD
1000
AcDbSavedByObjectVersion
1070
     0
  0
VISUALSTYLE
  5
259A
102
{ACAD_XDICTIONARY
360
2609
102
}
102
{ACAD_REACTORS
330
2582
102
}
330
2582
100
AcDbVisualStyle
  2
EdgeColorOff
 70
    22
 71
     2
 72
     2
 73
     0
 90
        0
 40
-0.6
 41
-30.0
 62
     5
 63
     7
 74
     1
 91
        4
 64
     7
 65
   257
 75
     1
175
     1
 42
1.0
 92
        8
 66
     7
 43
1.0
 76
     1
 77
     6
 78
     2
 67
     7
 79
     5
170
     0
171
     0
290
     0
174
     0
 93
        1
 44
0.0
173
     0
291
     1
 45
0.0
1001
ACAD
1000
AcDbSavedByObjectVersion
1070
     0
  0
VISUALSTYLE
  5
2591
102
{ACAD_XDICTIONARY
360
25F7
102
}
102
{ACAD_REACTORS
330
2582
102
}
330
2582
100
AcDbVisualStyle
  2
Facepattern
 70
    15
 71
     2
 72
     2
 73
     0
 90
        0
 40
-0.6
 41
-30.0
 62
     5
 63
     7
 74
     1
 91
        4
 64
     7
 65
   257
 75
     1
175
     1
 42
1.0
 92
        8
 66
     7
 43
1.0
 76
     1
 77
     6
 78
     2
 67
     7
 79
     5
170
     0
171
     0
290
     0
174
     0
 93
        1
 44
0.0
173
     0
291
     1
 45
0.0
1001
ACAD
1000
AcDbSavedByObjectVersion
1070
     0
  0
VISUALSTYLE
  5
2583
102
{ACAD_XDICTIONARY
360
25DB
102
}
102
{ACAD_REACTORS
330
2582
102
}
330
2582
100
AcDbVisualStyle
  2
Flat
 70
     0
 71
     2
 72
     1
 73
     1
 90
        2
 40
-0.6
 41
30.0
 62
     5
 63
     7
 74
     0
 91
        0
 64
     7
 65
   257
 75
     1
175
     1
 42
1.0
 92
        8
 66
     7
 43
1.0
 76
     1
 77
     6
 78
     2
 67
     7
 79
     5
170
     0
171
     0
290
     0
174
     0
 93
       13
 44
0.0
173
     0
291
     1
 45
0.0
1001
ACAD
1000
AcDbSavedByObjectVersion
1070
     0
  0
VISUALSTYLE
  5
2584
102
{ACAD_XDICTIONARY
360
25DD
102
}
102
{ACAD_REACTORS
330
2582
102
}
330
2582
100
AcDbVisualStyle
  2
FlatWithEdges
 70
     1
 71
     2
 72
     1
 73
     1
 90
        2
 40
-0.6
 41
30.0
 62
     5
 63
     7
 74
     1
 91
        0
 64
     7
 65
   257
 75
     1
175
     1
 42
1.0
 92
        0
 66
   257
 43
1.0
 76
     1
 77
     6
 78
     2
 67
     7
 79
     5
170
     0
171
     0
290
     0
174
     0
 93
       13
 44
0.0
173
     0
291
     1
 45
0.0
1001
ACAD
1000
AcDbSavedByObjectVersion
1070
     0
  0
VISUALSTYLE
  5
2585
102
{ACAD_XDICTIONARY
360
25DF
102
}
102
{ACAD_REACTORS
330
2582
102
}
330
2582
100
AcDbVisualStyle
  2
Gouraud
 70
     2
 71
     2
 72
     2
 73
     1
 90
        2
 40
-0.6
 41
30.0
 62
     5
 63
     7
 74
     0
 91
        0
 64
     7
 65
   257
 75
     1
175
     1
 42
1.0
 92
        0
 66
     7
 43
1.0
 76
     1
 77
     6
 78
     2
 67
     7
 79
     5
170
     0
171
     0
290
     0
174
     0
 93
       13
 44
0.0
173
     0
291
     1
 45
0.0
1001
ACAD
1000
AcDbSavedByObjectVersion
1070
     0
  0
VISUALSTYLE
  5
2586
102
{ACAD_XDICTIONARY
360
25E1
102
}
102
{ACAD_REACTORS
330
2582
102
}
330
2582
100
AcDbVisualStyle
  2
GouraudWithEdges
 70
     3
 71
     2
 72
     2
 73
     1
 90
        2
 40
-0.6
 41
30.0
 62
     5
 63
     7
 74
     1
 91
        0
 64
     7
 65
   257
 75
     1
175
     1
 42
1.0
 92
        0
 66
   257
 43
1.0
 76
     1
 77
     6
 78
     2
 67
     7
 79
     5
170
     0
171
     0
290
     0
174
     0
 93
       13
 44
0.0
173
     0
291
     1
 45
0.0
1001
ACAD
1000
AcDbSavedByObjectVersion
1070
     0
  0
VISUALSTYLE
  5
258A
102
{ACAD_XDICTIONARY
360
25E9
102
}
102
{ACAD_REACTORS
330
2582
102
}
330
2582
100
AcDbVisualStyle
  2
Hidden
 70
     6
 71
     1
 72
     2
 73
     2
 90
        0
 40
-0.6
 41
-30.0
 62
     5
 63
     7
 74
     2
 91
        2
 64
     7
 65
   257
 75
     2
175
     1
 42
40.0
 92
        0
 66
   257
 43
1.0
 76
     1
 77
     6
 78
     2
 67
     7
 79
     3
170
     0
171
     0
290
     0
174
     0
 93
        1
 44
0.0
173
     0
291
     0
 45
0.0
1001
ACAD
1000
AcDbSavedByObjectVersion
1070
     0
  0
VISUALSTYLE
  5
2598
102
{ACAD_XDICTIONARY
360
2605
102
}
102
{ACAD_REACTORS
330
2582
102
}
330
2582
100
AcDbVisualStyle
  2
JitterOff
 70
    20
 71
     2
 72
     2
 73
     0
 90
        0
 40
-0.6
 41
-30.0
 62
     5
 63
     7
 74
     1
 91
        4
 64
     7
 65
   257
 75
     1
175
     1
 42
1.0
 92
       10
 66
     7
 43
1.0
 76
     1
 77
     6
 78
     2
 67
     7
 79
     5
170
     0
171
     0
290
     0
174
     0
 93
        1
 44
0.0
173
     0
291
     1
 45
0.0
1001
ACAD
1000
AcDbSavedByObjectVersion
1070
     0
  0
VISUALSTYLE
  5
2590
102
{ACAD_XDICTIONARY
360
25F5
102
}
102
{ACAD_REACTORS
330
2582
102
}
330
2582
100
AcDbVisualStyle
  2
Linepattern
 70
    14
 71
     2
 72
     2
 73
     0
 90
        0
 40
-0.6
 41
-30.0
 62
     5
 63
     7
 74
     1
 91
        4
 64
     7
 65
   257
 75
     7
175
     7
 42
1.0
 92
        8
 66
     7
 43
1.0
 76
     1
 77
     6
 78
     2
 67
     7
 79
     5
170
     0
171
     0
290
     0
174
     0
 93
        1
 44
0.0
173
     0
291
     1
 45
0.0
1001
ACAD
1000
AcDbSavedByObjectVersion
1070
     0
  0
VISUALSTYLE
  5
2599
102
{ACAD_XDICTIONARY
360
2607
102
}
102
{ACAD_REACTORS
330
2582
102
}
330
2582
100
AcDbVisualStyle
  2
OverhangOff
 70
    21
 71
     2
 72
     2
 73
     0
 90
        0
 40
-0.6
 41
-30.0
 62
     5
 63
     7
 74
     1
 91
        4
 64
     7
 65
   257
 75
     1
175
     1
 42
1.0
 92
        9
 66
     7
 43
1.0
 76
     1
 77
     6
 78
     2
 67
     7
 79
     5
170
     0
171
     0
290
     0
174
     0
 93
        1
 44
0.0
173
     0
291
     1
 45
0.0
1001
ACAD
1000
AcDbSavedByObjectVersion
1070
     0
  0
VISUALSTYLE
  5
258C
102
{ACAD_XDICTIONARY
360
25ED
102
}
102
{ACAD_REACTORS
330
2582
102
}
330
2582
100
AcDbVisualStyle
  2
Realistic
 70
     8
 71
     2
 72
     3
 73
     0
 90
        2
 40
-0.6
 41
30.0
 62
     5
 63
     7
 74
     0
 91
        0
 64
     7
 65
   257
 75
     1
175
     1
 42
1.0
 92
        8
 66
   257
 43
1.0
 76
     1
 77
     6
 78
     2
 67
     7
 79
     3
170
     0
171
     0
290
     0
174
     0
 93
       13
 44
0.0
173
     0
291
     0
 45
0.0
1001
ACAD
1000
AcDbSavedByObjectVersion
1070
     0
  0
VISUALSTYLE
  5
2597
102
{ACAD_XDICTIONARY
360
2603
102
}
102
{ACAD_REACTORS
330
2582
102
}
330
2582
100
AcDbVisualStyle
  2
Shaded
 70
    27
 71
     2
 72
     2
 73
     1
 90
        2
 40
-0.6
 41
30.0
 62
     5
 63
     7
 74
     0
 91
        4
 64
     7
 65
   257
 75
     1
175
     1
 42
1.0
 92
        8
 66
   257
 43
1.0
 76
     1
 77
     6
 78
     2
 67
     8
 79
     3
170
     0
171
     0
290
     0
174
     0
 93
        5
 44
0.0
173
     0
291
     0
 45
0.0
1001
ACAD
1000
AcDbSavedByObjectVersion
1070
     0
  0
VISUALSTYLE
  5
2596
102
{ACAD_XDICTIONARY
360
2601
102
}
102
{ACAD_REACTORS
330
2582
102
}
330
2582
100
AcDbVisualStyle
  2
Shaded with edges
 70
    26
 71
     2
 72
     2
 73
     1
 90
        2
 40
-0.6
 41
30.0
 62
     5
 63
     7
 74
     1
 91
       10
 64
     7
 65
   257
 75
     2
175
     1
 42
1.0
 92
        8
 66
   257
 43
1.0
 76
     1
 77
     6
 78
     2
 67
     7
 79
     3
170
     0
171
     0
290
     0
174
     0
 93
        5
 44
0.0
173
     0
291
     0
 45
0.0
1001
ACAD
1000
AcDbSavedByObjectVersion
1070
     0
  0
VISUALSTYLE
  5
2593
102
{ACAD_XDICTIONARY
360
25FB
102
}
102
{ACAD_REACTORS
330
2582
102
}
330
2582
100
AcDbVisualStyle
  2
Shades of Gray
 70
    23
 71
     2
 72
     2
 73
     3
 90
        0
 40
-0.6
 41
-30.0
 62
     5
 63
     7
 74
     2
 91
        2
 64
     7
 65
     7
 75
     1
175
     1
 42
40.0
 92
        8
 66
     7
 43
1.0
 76
     1
 77
     6
 78
     2
 67
     7
 79
     3
170
     0
171
     0
290
     0
174
     0
 93
        1
 44
0.0
173
     0
291
     0
 45
0.0
1001
ACAD
1000
AcDbSavedByObjectVersion
1070
     0
  0
VISUALSTYLE
  5
2594
102
{ACAD_XDICTIONARY
360
25FD
102
}
102
{ACAD_REACTORS
330
2582
102
}
330
2582
100
AcDbVisualStyle
  2
Sketchy
 70
    24
 71
     1
 72
     2
 73
     2
 90
        0
 40
-0.6
 41
-30.0
 62
     5
 63
     7
 74
     2
 91
        2
 64
     7
 65
     7
 75
     1
175
     1
 42
40.0
 92
       11
 66
     7
 43
1.0
 76
     1
 77
     6
 78
     2
 67
     7
 79
     6
170
     0
171
     0
290
     0
174
     0
 93
        1
 44
0.0
173
     0
291
     0
 45
0.0
1001
ACAD
1000
AcDbSavedByObjectVersion
1070
     0
  0
VISUALSTYLE
  5
258F
102
{ACAD_XDICTIONARY
360
25F3
102
}
102
{ACAD_REACTORS
330
2582
102
}
330
2582
100
AcDbVisualStyle
  2
Thicken
 70
    13
 71
     2
 72
     2
 73
     0
 90
        0
 40
-0.6
 41
-30.0
 62
     5
 63
     7
 74
     1
 91
        4
 64
     7
 65
   257
 75
     1
175
     1
 42
1.0
 92
       12
 66
     7
 43
1.0
 76
     1
 77
     6
 78
     2
 67
     7
 79
     5
170
     0
171
     0
290
     0
174
     0
 93
        1
 44
0.0
173
     0
291
     1
 45
0.0
1001
ACAD
1000
AcDbSavedByObjectVersion
1070
     0
  0
VISUALSTYLE
  5
2589
102
{ACAD_XDICTIONARY
360
25E7
102
}
102
{ACAD_REACTORS
330
2582
102
}
330
2582
100
AcDbVisualStyle
  2
Wireframe
 70
     5
 71
     0
 72
     2
 73
     0
 90
        0
 40
-0.6
 41
-30.0
 62
     5
 63
     7
 74
     1
 91
        4
 64
     7
 65
   257
 75
     1
175
     1
 42
1.0
 92
        0
 66
   257
 43
1.0
 76
     1
 77
     6
 78
     2
 67
     7
 79
     3
170
     0
171
     0
290
     0
174
     0
 93
        1
 44
0.0
173
     0
291
     0
 45
0.0
1001
ACAD
1000
AcDbSavedByObjectVersion
1070
     0
  0
VISUALSTYLE
  5
2595
102
{ACAD_XDICTIONARY
360
25FF
102
}
102
{ACAD_REACTORS
330
2582
102
}
330
2582
100
AcDbVisualStyle
  2
X-Ray
 70
    25
 71
     2
 72
     2
 73
     1
 90
        1
 40
0.5
 41
-30.0
 62
     5
 63
     7
 74
     1
 91
        0
 64
     7
 65
   257
 75
     1
175
     1
 42
1.0
 92
        8
 66
     7
 43
1.0
 76
     1
 77
     6
 78
     2
 67
     7
 79
     3
170
     0
171
     0
290
     0
174
     0
 93
       13
 44
0.0
173
     0
291
     0
 45
0.0
1001
ACAD
1000
AcDbSavedByObjectVersion
1070
     0
  0
DICTIONARYVAR
  5
25CE
102
{ACAD_REACTORS
330
25C9
102
}
330
25C9
100
DictionaryVariables
280
     0
  1
1:1
  0
DICTIONARYVAR
  5
25CB
102
{ACAD_REACTORS
330
25C9
102
}
330
25C9
100
DictionaryVariables
280
     0
  1
STANDARD
  0
DICTIONARYVAR
  5
25CA
102
{ACAD_REACTORS
330
25C9
102
}
330
25C9
100
DictionaryVariables
280
     0
  1
STANDARD
  0
DICTIONARYVAR
  5
25CC
102
{ACAD_REACTORS
330
25C9
102
}
330
25C9
100
DictionaryVariables
280
     0
  1
Imperial24
  0
DICTIONARYVAR
  5
25CD
102
{ACAD_REACTORS
330
25C9
102
}
330
25C9
100
DictionaryVariables
280
     0
  1
Imperial24
  0
DICTIONARYVAR
  5
25D1
102
{ACAD_REACTORS
330
25C9
102
}
330
25C9
100
DictionaryVariables
280
     0
  1
1
  0
DICTIONARYVAR
  5
25D0
102
{ACAD_REACTORS
330
25C9
102
}
330
25C9
100
DictionaryVariables
280
     0
  1
0
  0
DICTIONARYVAR
  5
25CF
102
{ACAD_REACTORS
330
25C9
102
}
330
25C9
100
DictionaryVariables
280
     0
  1
127
  0
DICTIONARYVAR
  5
25D2
102
{ACAD_REACTORS
330
25C9
102
}
330
25C9
100
DictionaryVariables
280
     0
  1
2
  0
DICTIONARY
  5
260F
330
25B5
100
AcDbDictionary
280
     1
281
     1
  3
ACAD_XREC_ROUNDTRIP
360
2610
  0
DICTIONARY
  5
2611
330
25B6
100
AcDbDictionary
280
     1
281
     1
  3
ACAD_XREC_ROUNDTRIP
360
2612
  0
DICTIONARY
  5
2613
330
25B7
100
AcDbDictionary
280
     1
281
     1
  3
ACAD_XREC_ROUNDTRIP
360
2614
  0
DICTIONARY
  5
2573
330
2572
100
AcDbDictionary
280
     1
281
     1
  3
ACAD_XREC_ROUNDTRIP
360
25D9
  3
BUMPTILE
360
2575
  3
DIFFUSETILE
360
2574
  3
OPACITYTILE
360
2578
  3
REFLECTIONTILE
360
2577
  3
REFRACTIONTILE
360
2579
  3
SPECULARTILE
360
2576
  0
DICTIONARY
  5
256B
330
256A
100
AcDbDictionary
280
     1
281
     1
  3
ACAD_XREC_ROUNDTRIP
360
25D8
  3
BUMPTILE
360
256D
  3
DIFFUSETILE
360
256C
  3
OPACITYTILE
360
2570
  3
REFLECTIONTILE
360
256F
  3
REFRACTIONTILE
360
2571
  3
SPECULARTILE
360
256E
  0
DICTIONARY
  5
257B
330
257A
100
AcDbDictionary
280
     1
281
     1
  3
ACAD_XREC_ROUNDTRIP
360
25DA
  3
BUMPTILE
360
257D
  3
DIFFUSETILE
360
257C
  3
OPACITYTILE
360
2580
  3
REFLECTIONTILE
360
257F
  3
REFRACTIONTILE
360
2581
  3
SPECULARTILE
360
257E
  0
DICTIONARY
  5
260D
330
25B3
100
AcDbDictionary
280
     1
281
     1
  3
ACAD_XREC_ROUNDTRIP
360
260E
  0
DICTIONARY
  5
25D4
330
259D
100
AcDbDictionary
280
     1
281
     1
  3
ACAD_ROUNDTRIP_2008_TABLESTYLE_CELLSTYLEMAP
360
25D5
  3
ACAD_XREC_ROUNDTRIP
360
260B
  0
DICTIONARY
  5
25E5
330
2588
100
AcDbDictionary
280
     1
281
     1
  3
ACAD_XREC_ROUNDTRIP
360
25E6
  0
DICTIONARY
  5
25E3
330
2587
100
AcDbDictionary
280
     1
281
     1
  3
ACAD_XREC_ROUNDTRIP
360
25E4
  0
DICTIONARY
  5
25F1
330
258E
100
AcDbDictionary
280
     1
281
     1
  3
ACAD_XREC_ROUNDTRIP
360
25F2
  0
DICTIONARY
  5
25F9
330
2592
100
AcDbDictionary
280
     1
281
     1
  3
ACAD_XREC_ROUNDTRIP
360
25FA
  0
DICTIONARY
  5
25EB
330
258B
100
AcDbDictionary
280
     1
281
     1
  3
ACAD_XREC_ROUNDTRIP
360
25EC
  0
DICTIONARY
  5
25EF
330
258D
100
AcDbDictionary
280
     1
281
     1
  3
ACAD_XREC_ROUNDTRIP
360
25F0
  0
DICTIONARY
  5
2609
330
259A
100
AcDbDictionary
280
     1
281
     1
  3
ACAD_XREC_ROUNDTRIP
360
260A
  0
DICTIONARY
  5
25F7
330
2591
100
AcDbDictionary
280
     1
281
     1
  3
ACAD_XREC_ROUNDTRIP
360
25F8
  0
DICTIONARY
  5
25DB
330
2583
100
AcDbDictionary
280
     1
281
     1
  3
ACAD_XREC_ROUNDTRIP
360
25DC
  0
DICTIONARY
  5
25DD
330
2584
100
AcDbDictionary
280
     1
281
     1
  3
ACAD_XREC_ROUNDTRIP
360
25DE
  0
DICTIONARY
  5
25DF
330
2585
100
AcDbDictionary
280
     1
281
     1
  3
ACAD_XREC_ROUNDTRIP
360
25E0
  0
DICTIONARY
  5
25E1
330
2586
100
AcDbDictionary
280
     1
281
     1
  3
ACAD_XREC_ROUNDTRIP
360
25E2
  0
DICTIONARY
  5
25E9
330
258A
100
AcDbDictionary
280
     1
281
     1
  3
ACAD_XREC_ROUNDTRIP
360
25EA
  0
DICTIONARY
  5
2605
330
2598
100
AcDbDictionary
280
     1
281
     1
  3
ACAD_XREC_ROUNDTRIP
360
2606
  0
DICTIONARY
  5
25F5
330
2590
100
AcDbDictionary
280
     1
281
     1
  3
ACAD_XREC_ROUNDTRIP
360
25F6
  0
DICTIONARY
  5
2607
330
2599
100
AcDbDictionary
280
     1
281
     1
  3
ACAD_XREC_ROUNDTRIP
360
2608
  0
DICTIONARY
  5
25ED
330
258C
100
AcDbDictionary
280
     1
281
     1
  3
ACAD_XREC_ROUNDTRIP
360
25EE
  0
DICTIONARY
  5
2603
330
2597
100
AcDbDictionary
280
     1
281
     1
  3
ACAD_XREC_ROUNDTRIP
360
2604
  0
DICTIONARY
  5
2601
330
2596
100
AcDbDictionary
280
     1
281
     1
  3
ACAD_XREC_ROUNDTRIP
360
2602
  0
DICTIONARY
  5
25FB
330
2593
100
AcDbDictionary
280
     1
281
     1
  3
ACAD_XREC_ROUNDTRIP
360
25FC
  0
DICTIONARY
  5
25FD
330
2594
100
AcDbDictionary
280
     1
281
     1
  3
ACAD_XREC_ROUNDTRIP
360
25FE
  0
DICTIONARY
  5
25F3
330
258F
100
AcDbDictionary
280
     1
281
     1
  3
ACAD_XREC_ROUNDTRIP
360
25F4
  0
DICTIONARY
  5
25E7
330
2589
100
AcDbDictionary
280
     1
281
     1
  3
ACAD_XREC_ROUNDTRIP
360
25E8
  0
DICTIONARY
  5
25FF
330
2595
100
AcDbDictionary
280
     1
281
     1
  3
ACAD_XREC_ROUNDTRIP
360
2600
  0
XRECORD
  5
2610
102
{ACAD_REACTORS
330
260F
102
}
330
260F
100
AcDbXrecord
280
     1
102
DISPLAYNAME
  1
Imperial24
102
FLAGS
 90
        0
  0
XRECORD
  5
2612
102
{ACAD_REACTORS
330
2611
102
}
330
2611
100
AcDbXrecord
280
     1
102
SHADEPLOT
 70
     0
102
SHADEPLOTRESLEVEL
 70
     2
102
SHADEPLOTCUSTOMDPI
 70
   300
  0
XRECORD
  5
2614
102
{ACAD_REACTORS
330
2613
102
}
330
2613
100
AcDbXrecord
280
     1
102
SHADEPLOT
 70
     0
102
SHADEPLOTRESLEVEL
 70
     2
102
SHADEPLOTCUSTOMDPI
 70
   300
  0
XRECORD
  5
25D9
102
{ACAD_REACTORS
330
2573
102
}
330
2573
100
AcDbXrecord
280
     1
102
MATERIAL
148
0.0
149
0.0
149
0.0
 93
        0
 94
      127
282
     0
 72
     0
 77
     0
171
     0
175
     0
179
     0
273
     0
  0
XRECORD
  5
2575
102
{ACAD_REACTORS
330
2573
102
}
330
2573
100
AcDbXrecord
280
     1
270
     1
271
     1
  0
XRECORD
  5
2574
102
{ACAD_REACTORS
330
2573
102
}
330
2573
100
AcDbXrecord
280
     1
270
     1
271
     1
  0
XRECORD
  5
2578
102
{ACAD_REACTORS
330
2573
102
}
330
2573
100
AcDbXrecord
280
     1
270
     1
271
     1
  0
XRECORD
  5
2577
102
{ACAD_REACTORS
330
2573
102
}
330
2573
100
AcDbXrecord
280
     1
270
     1
271
     1
  0
XRECORD
  5
2579
102
{ACAD_REACTORS
330
2573
102
}
330
2573
100
AcDbXrecord
280
     1
270
     1
271
     1
  0
XRECORD
  5
2576
102
{ACAD_REACTORS
330
2573
102
}
330
2573
100
AcDbXrecord
280
     1
270
     1
271
     1
  0
XRECORD
  5
25D8
102
{ACAD_REACTORS
330
256B
102
}
330
256B
100
AcDbXrecord
280
     1
102
MATERIAL
148
0.0
149
0.0
149
0.0
 93
        0
 94
      127
282
     0
 72
     0
 77
     0
171
     0
175
     0
179
     0
273
     0
  0
XRECORD
  5
256D
102
{ACAD_REACTORS
330
256B
102
}
330
256B
100
AcDbXrecord
280
     1
270
     1
271
     1
  0
XRECORD
  5
256C
102
{ACAD_REACTORS
330
256B
102
}
330
256B
100
AcDbXrecord
280
     1
270
     1
271
     1
  0
XRECORD
  5
2570
102
{ACAD_REACTORS
330
256B
102
}
330
256B
100
AcDbXrecord
280
     1
270
     1
271
     1
  0
XRECORD
  5
256F
102
{ACAD_REACTORS
330
256B
102
}
330
256B
100
AcDbXrecord
280
     1
270
     1
271
     1
  0
XRECORD
  5
2571
102
{ACAD_REACTORS
330
256B
102
}
330
256B
100
AcDbXrecord
280
     1
270
     1
271
     1
  0
XRECORD
  5
256E
102
{ACAD_REACTORS
330
256B
102
}
330
256B
100
AcDbXrecord
280
     1
270
     1
271
     1
  0
XRECORD
  5
25DA
102
{ACAD_REACTORS
330
257B
102
}
330
257B
100
AcDbXrecord
280
     1
102
MATERIAL
148
0.0
149
0.0
149
0.0
 93
        0
 94
      127
282
     0
 72
     0
 77
     0
171
     0
175
     0
179
     0
273
     0
  0
XRECORD
  5
257D
102
{ACAD_REACTORS
330
257B
102
}
330
257B
100
AcDbXrecord
280
     1
270
     1
271
     1
  0
XRECORD
  5
257C
102
{ACAD_REACTORS
330
257B
102
}
330
257B
100
AcDbXrecord
280
     1
270
     1
271
     1
  0
XRECORD
  5
2580
102
{ACAD_REACTORS
330
257B
102
}
330
257B
100
AcDbXrecord
280
     1
270
     1
271
     1
  0
XRECORD
  5
257F
102
{ACAD_REACTORS
330
257B
102
}
330
257B
100
AcDbXrecord
280
     1
270
     1
271
     1
  0
XRECORD
  5
2581
102
{ACAD_REACTORS
330
257B
102
}
330
257B
100
AcDbXrecord
280
     1
270
     1
271
     1
  0
XRECORD
  5
257E
102
{ACAD_REACTORS
330
257B
102
}
330
257B
100
AcDbXrecord
280
     1
270
     1
271
     1
  0
XRECORD
  5
260E
102
{ACAD_REACTORS
330
260D
102
}
330
260D
100
AcDbXrecord
280
     1
102
DISPLAYNAME
  1
Imperial24
102
FLAGS
 90
        0
  0
CELLSTYLEMAP
  5
25D5
102
{ACAD_REACTORS
330
25D4
102
}
330
25D4
100
AcDbCellStyleMap
 90
        3
300
CELLSTYLE
  1
TABLEFORMAT_BEGIN
 90
        5
170
     1
 91
        0
 92
    32768
 62
   257
 93
        1
300
CONTENTFORMAT
  1
CONTENTFORMAT_BEGIN
 90
        0
 91
        0
 92
      512
 93
        0
300

 40
0.0
140
1.0
 94
        5
 62
     0
340
F
144
0.25
309
CONTENTFORMAT_END
171
     0
 94
        0
309
TABLEFORMAT_END
  1
CELLSTYLE_BEGIN
 90
        1
 91
        1
300
_TITLE
309
CELLSTYLE_END
300
CELLSTYLE
  1
TABLEFORMAT_BEGIN
 90
        5
170
     1
 91
        0
 92
        0
 62
   257
 93
        1
300
CONTENTFORMAT
  1
CONTENTFORMAT_BEGIN
 90
        0
 91
        0
 92
      512
 93
        0
300

 40
0.0
140
1.0
 94
        5
 62
     0
340
F
144
0.18
309
CONTENTFORMAT_END
171
     0
 94
        0
309
TABLEFORMAT_END
  1
CELLSTYLE_BEGIN
 90
        2
 91
        1
300
_HEADER
309
CELLSTYLE_END
300
CELLSTYLE
  1
TABLEFORMAT_BEGIN
 90
        5
170
     1
 91
        0
 92
        0
 62
   257
 93
        1
300
CONTENTFORMAT
  1
CONTENTFORMAT_BEGIN
 90
        0
 91
        0
 92
      512
 93
        0
300

 40
0.0
140
1.0
 94
        2
 62
     0
340
F
144
0.18
309
CONTENTFORMAT_END
171
     0
 94
        0
309
TABLEFORMAT_END
  1
CELLSTYLE_BEGIN
 90
        3
 91
        2
300
_DATA
309
CELLSTYLE_END
  0
XRECORD
  5
260B
102
{ACAD_REACTORS
330
25D4
102
}
330
25D4
100
AcDbXrecord
280
     1
102
ACAD_ROUNDTRIP_PRE2007_TABLESTYLE
 90
      512
 91
        0
  1

 92
      512
 93
        0
  2

 94
      512
 95
        0
  3

  0
XRECORD
  5
25E6
102
{ACAD_REACTORS
330
25E5
102
}
330
25E5
100
AcDbXrecord
280
     1
102
RTVSPost2010Prop28
280
     1
102
RTVSPost2010PropOp28
 70
     1
102
RTVSPost2010Prop29
280
     1
102
RTVSPost2010PropOp29
 70
     1
102
RTVSPost2010Prop30
280
     0
102
RTVSPost2010PropOp30
 70
     1
102
RTVSPost2010Prop31
280
     0
102
RTVSPost2010PropOp31
 70
     1
102
RTVSPost2010Prop32
280
     0
102
RTVSPost2010PropOp32
 70
     1
102
RTVSPost2010Prop33
280
     0
102
RTVSPost2010PropOp33
 70
     1
102
RTVSPost2010Prop34
280
     0
102
RTVSPost2010PropOp34
 70
     1
102
RTVSPost2010Prop35
280
     0
102
RTVSPost2010PropOp35
 70
     1
102
RTVSPost2010Prop36
280
     0
102
RTVSPost2010PropOp36
 70
     1
102
RTVSPost2010Prop37
 90
       50
102
RTVSPost2010PropOp37
 70
     1
102
RTVSPost2010Prop38
140
0.0
102
RTVSPost2010PropOp38
 70
     1
102
RTVSPost2010Prop39
140
1.0
102
RTVSPost2010PropOp39
 70
     1
102
RTVSPost2010Prop40
 90
        0
102
RTVSPost2010PropOp40
 70
     1
102
RTVSPost2010Prop41ColorIndex
 90
       18
102
RTVSPost2010Prop41ColorRGB
 90
        0
102
RTVSPost2010PropOp41
 70
     1
102
RTVSPost2010Prop42
 90
       50
102
RTVSPost2010PropOp42
 70
     1
102
RTVSPost2010Prop43
 90
        3
102
RTVSPost2010PropOp43
 70
     1
102
RTVSPost2010Prop44ColorIndex
 90
        5
102
RTVSPost2010Prop44ColorRGB
 90
      255
102
RTVSPost2010PropOp44
 70
     1
102
RTVSPost2010Prop45
280
     0
102
RTVSPost2010PropOp45
 70
     1
102
RTVSPost2010Prop46
 90
       50
102
RTVSPost2010PropOp46
 70
     1
102
RTVSPost2010Prop47
 90
       50
102
RTVSPost2010PropOp47
 70
     1
102
RTVSPost2010Prop48
 90
       50
102
RTVSPost2010PropOp48
 70
     1
102
RTVSPost2010Prop49
280
     0
102
RTVSPost2010PropOp49
 70
     1
102
RTVSPost2010Prop50
 90
       50
102
RTVSPost2010PropOp50
 70
     1
102
RTVSPost2010Prop51ColorIndex
 90
      256
102
RTVSPost2010Prop51ColorRGB
 90
-16777216
102
RTVSPost2010PropOp51
 70
     0
102
RTVSPost2010Prop52
140
1.0
102
RTVSPost2010PropOp52
 70
     0
102
RTVSPost2010Prop53
 90
        2
102
RTVSPost2010PropOp53
 70
     1
102
RTVSPost2010Prop54
  1
strokes_ogs.tif
102
RTVSPost2010PropOp54
 70
     1
102
RTVSPost2010Prop55
280
     0
102
RTVSPost2010PropOp55
 70
     1
102
RTVSPost2010Prop56
140
1.0
102
RTVSPost2010PropOp56
 70
     1
102
RTVSPost2010Prop57
140
1.0
102
RTVSPost2010PropOp57
 70
     1
102
RTVSPropertyOp0
 70
     1
102
RTVSPropertyOp1
 70
     1
102
RTVSPropertyOp2
 70
     1
102
RTVSPropertyOp3
 70
     1
102
RTVSPropertyOp4
 70
     1
102
RTVSPropertyOp5
 70
     1
102
RTVSPropertyOp6
 70
     1
102
RTVSPropertyOp7
 70
     1
102
RTVSPropertyOp8
 70
     1
102
RTVSPropertyOp9
 70
     1
102
RTVSPropertyOp10
 70
     1
102
RTVSPropertyOp11
 70
     1
102
RTVSPropertyOp12
 70
     1
102
RTVSPropertyOp13
 70
     1
102
RTVSPropertyOp14
 70
     1
102
RTVSPropertyOp15
 70
     1
102
RTVSPropertyOp16
 70
     1
102
RTVSPropertyOp17
 70
     1
102
RTVSPropertyOp18
 70
     1
102
RTVSPropertyOp19
 70
     1
102
RTVSPropertyOp20
 70
     1
102
RTVSPropertyOp21
 70
     1
102
RTVSPropertyOp22
 70
     1
102
RTVSPropertyOp23
 70
     1
102
RTVSPropertyOp24
 70
     1
102
RTVSPropertyOp25
 70
     1
102
RTVSPropertyOp26
 70
     1
102
RTVSPropertyOp27
 70
     1
102
RTVSPropertyOp28
 70
     1
102
RTVSPropertyOp29
 70
     1
102
RTVSPropertyOp30
 70
     1
102
RTVSPropertyOp31
 70
     1
102
RTVSPropertyOp32
 70
     1
102
RTVSPropertyOp33
 70
     1
102
RTVSPropertyOp34
 70
     1
102
RTVSPropertyOp35
 70
     1
102
RTVSPropertyOp36
 70
     1
102
RTVSPropertyOp37
 70
     1
102
RTVSPropertyOp38
 70
     1
102
RTVSPropertyOp39
 70
     1
102
RTVSPropertyOp40
 70
     1
102
RTVSPropertyOp41
 70
     1
102
RTVSPropertyOp42
 70
     1
102
RTVSPropertyOp43
 70
     1
102
RTVSPropertyOp44
 70
     1
102
RTVSPropertyOp45
 70
     1
102
RTVSPropertyOp46
 70
     1
102
RTVSPropertyOp47
 70
     1
102
RTVSPropertyOp48
 70
     1
102
RTVSPropertyOp49
 70
     1
102
RTVSPropertyOp50
 70
     1
102
RTVSPropertyOp51
 70
     0
102
RTVSPropertyOp52
 70
     0
102
RTVSPropertyOp53
 70
     1
102
RTVSPropertyOp54
 70
     1
102
RTVSPropertyOp55
 70
     1
102
RTVSPropertyOp56
 70
     1
102
RTVSPropertyOp57
 70
     1
102
RTVSPropertyOp58
 70
     1
102
RTVSPropertyOp59
 70
     1
102
RTVSPropertyOp60
 70
     1
102
RTVSPropertyOp61
 70
     1
102
RTVSPropertyOp62
 70
     1
  0
XRECORD
  5
25E4
102
{ACAD_REACTORS
330
25E3
102
}
330
25E3
100
AcDbXrecord
280
     1
102
RTVSPost2010Prop28
280
     0
102
RTVSPost2010PropOp28
 70
     1
102
RTVSPost2010Prop29
280
     1
102
RTVSPost2010PropOp29
 70
     1
102
RTVSPost2010Prop30
280
     1
102
RTVSPost2010PropOp30
 70
     1
102
RTVSPost2010Prop31
280
     0
102
RTVSPost2010PropOp31
 70
     1
102
RTVSPost2010Prop32
280
     0
102
RTVSPost2010PropOp32
 70
     1
102
RTVSPost2010Prop33
280
     0
102
RTVSPost2010PropOp33
 70
     1
102
RTVSPost2010Prop34
280
     0
102
RTVSPost2010PropOp34
 70
     1
102
RTVSPost2010Prop35
280
     0
102
RTVSPost2010PropOp35
 70
     1
102
RTVSPost2010Prop36
280
     0
102
RTVSPost2010PropOp36
 70
     1
102
RTVSPost2010Prop37
 90
       50
102
RTVSPost2010PropOp37
 70
     1
102
RTVSPost2010Prop38
140
0.0
102
RTVSPost2010PropOp38
 70
     1
102
RTVSPost2010Prop39
140
1.0
102
RTVSPost2010PropOp39
 70
     1
102
RTVSPost2010Prop40
 90
        0
102
RTVSPost2010PropOp40
 70
     1
102
RTVSPost2010Prop41ColorIndex
 90
       18
102
RTVSPost2010Prop41ColorRGB
 90
        0
102
RTVSPost2010PropOp41
 70
     1
102
RTVSPost2010Prop42
 90
       50
102
RTVSPost2010PropOp42
 70
     1
102
RTVSPost2010Prop43
 90
        3
102
RTVSPost2010PropOp43
 70
     1
102
RTVSPost2010Prop44ColorIndex
 90
        5
102
RTVSPost2010Prop44ColorRGB
 90
      255
102
RTVSPost2010PropOp44
 70
     1
102
RTVSPost2010Prop45
280
     0
102
RTVSPost2010PropOp45
 70
     1
102
RTVSPost2010Prop46
 90
       50
102
RTVSPost2010PropOp46
 70
     1
102
RTVSPost2010Prop47
 90
       50
102
RTVSPost2010PropOp47
 70
     1
102
RTVSPost2010Prop48
 90
       50
102
RTVSPost2010PropOp48
 70
     1
102
RTVSPost2010Prop49
280
     0
102
RTVSPost2010PropOp49
 70
     1
102
RTVSPost2010Prop50
 90
       50
102
RTVSPost2010PropOp50
 70
     1
102
RTVSPost2010Prop51ColorIndex
 90
      256
102
RTVSPost2010Prop51ColorRGB
 90
-16777216
102
RTVSPost2010PropOp51
 70
     0
102
RTVSPost2010Prop52
140
1.0
102
RTVSPost2010PropOp52
 70
     0
102
RTVSPost2010Prop53
 90
        2
102
RTVSPost2010PropOp53
 70
     1
102
RTVSPost2010Prop54
  1
strokes_ogs.tif
102
RTVSPost2010PropOp54
 70
     1
102
RTVSPost2010Prop55
280
     0
102
RTVSPost2010PropOp55
 70
     1
102
RTVSPost2010Prop56
140
1.0
102
RTVSPost2010PropOp56
 70
     1
102
RTVSPost2010Prop57
140
1.0
102
RTVSPost2010PropOp57
 70
     1
102
RTVSPropertyOp0
 70
     1
102
RTVSPropertyOp1
 70
     1
102
RTVSPropertyOp2
 70
     1
102
RTVSPropertyOp3
 70
     1
102
RTVSPropertyOp4
 70
     1
102
RTVSPropertyOp5
 70
     1
102
RTVSPropertyOp6
 70
     1
102
RTVSPropertyOp7
 70
     1
102
RTVSPropertyOp8
 70
     1
102
RTVSPropertyOp9
 70
     1
102
RTVSPropertyOp10
 70
     1
102
RTVSPropertyOp11
 70
     1
102
RTVSPropertyOp12
 70
     1
102
RTVSPropertyOp13
 70
     1
102
RTVSPropertyOp14
 70
     1
102
RTVSPropertyOp15
 70
     1
102
RTVSPropertyOp16
 70
     1
102
RTVSPropertyOp17
 70
     1
102
RTVSPropertyOp18
 70
     1
102
RTVSPropertyOp19
 70
     1
102
RTVSPropertyOp20
 70
     1
102
RTVSPropertyOp21
 70
     1
102
RTVSPropertyOp22
 70
     1
102
RTVSPropertyOp23
 70
     1
102
RTVSPropertyOp24
 70
     1
102
RTVSPropertyOp25
 70
     1
102
RTVSPropertyOp26
 70
     1
102
RTVSPropertyOp27
 70
     1
102
RTVSPropertyOp28
 70
     1
102
RTVSPropertyOp29
 70
     1
102
RTVSPropertyOp30
 70
     1
102
RTVSPropertyOp31
 70
     1
102
RTVSPropertyOp32
 70
     1
102
RTVSPropertyOp33
 70
     1
102
RTVSPropertyOp34
 70
     1
102
RTVSPropertyOp35
 70
     1
102
RTVSPropertyOp36
 70
     1
102
RTVSPropertyOp37
 70
     1
102
RTVSPropertyOp38
 70
     1
102
RTVSPropertyOp39
 70
     1
102
RTVSPropertyOp40
 70
     1
102
RTVSPropertyOp41
 70
     1
102
RTVSPropertyOp42
 70
     1
102
RTVSPropertyOp43
 70
     1
102
RTVSPropertyOp44
 70
     1
102
RTVSPropertyOp45
 70
     1
102
RTVSPropertyOp46
 70
     1
102
RTVSPropertyOp47
 70
     1
102
RTVSPropertyOp48
 70
     1
102
RTVSPropertyOp49
 70
     1
102
RTVSPropertyOp50
 70
     1
102
RTVSPropertyOp51
 70
     0
102
RTVSPropertyOp52
 70
     0
102
RTVSPropertyOp53
 70
     1
102
RTVSPropertyOp54
 70
     1
102
RTVSPropertyOp55
 70
     1
102
RTVSPropertyOp56
 70
     1
102
RTVSPropertyOp57
 70
     1
102
RTVSPropertyOp58
 70
     1
102
RTVSPropertyOp59
 70
     1
102
RTVSPropertyOp60
 70
     1
102
RTVSPropertyOp61
 70
     1
102
RTVSPropertyOp62
 70
     1
  0
XRECORD
  5
25F2
102
{ACAD_REACTORS
330
25F1
102
}
330
25F1
100
AcDbXrecord
280
     1
102
RTVSPost2010Prop28
280
     0
102
RTVSPost2010PropOp28
 70
     1
102
RTVSPost2010Prop29
280
     1
102
RTVSPost2010PropOp29
 70
     1
102
RTVSPost2010Prop30
280
     1
102
RTVSPost2010PropOp30
 70
     1
102
RTVSPost2010Prop31
280
     0
102
RTVSPost2010PropOp31
 70
     1
102
RTVSPost2010Prop32
280
     0
102
RTVSPost2010PropOp32
 70
     1
102
RTVSPost2010Prop33
280
     0
102
RTVSPost2010PropOp33
 70
     1
102
RTVSPost2010Prop34
280
     0
102
RTVSPost2010PropOp34
 70
     1
102
RTVSPost2010Prop35
280
     0
102
RTVSPost2010PropOp35
 70
     1
102
RTVSPost2010Prop36
280
     0
102
RTVSPost2010PropOp36
 70
     1
102
RTVSPost2010Prop37
 90
       50
102
RTVSPost2010PropOp37
 70
     1
102
RTVSPost2010Prop38
140
0.0
102
RTVSPost2010PropOp38
 70
     1
102
RTVSPost2010Prop39
140
1.0
102
RTVSPost2010PropOp39
 70
     1
102
RTVSPost2010Prop40
 90
        0
102
RTVSPost2010PropOp40
 70
     1
102
RTVSPost2010Prop41ColorIndex
 90
       18
102
RTVSPost2010Prop41ColorRGB
 90
        0
102
RTVSPost2010PropOp41
 70
     1
102
RTVSPost2010Prop42
 90
       50
102
RTVSPost2010PropOp42
 70
     1
102
RTVSPost2010Prop43
 90
        3
102
RTVSPost2010PropOp43
 70
     1
102
RTVSPost2010Prop44ColorIndex
 90
        5
102
RTVSPost2010Prop44ColorRGB
 90
      255
102
RTVSPost2010PropOp44
 70
     1
102
RTVSPost2010Prop45
280
     0
102
RTVSPost2010PropOp45
 70
     1
102
RTVSPost2010Prop46
 90
       50
102
RTVSPost2010PropOp46
 70
     1
102
RTVSPost2010Prop47
 90
       50
102
RTVSPost2010PropOp47
 70
     1
102
RTVSPost2010Prop48
 90
       50
102
RTVSPost2010PropOp48
 70
     1
102
RTVSPost2010Prop49
280
     0
102
RTVSPost2010PropOp49
 70
     1
102
RTVSPost2010Prop50
 90
       50
102
RTVSPost2010PropOp50
 70
     1
102
RTVSPost2010Prop51ColorIndex
 90
      256
102
RTVSPost2010Prop51ColorRGB
 90
-16777216
102
RTVSPost2010PropOp51
 70
     0
102
RTVSPost2010Prop52
140
1.0
102
RTVSPost2010PropOp52
 70
     0
102
RTVSPost2010Prop53
 90
        2
102
RTVSPost2010PropOp53
 70
     1
102
RTVSPost2010Prop54
  1
strokes_ogs.tif
102
RTVSPost2010PropOp54
 70
     1
102
RTVSPost2010Prop55
280
     0
102
RTVSPost2010PropOp55
 70
     1
102
RTVSPost2010Prop56
140
1.0
102
RTVSPost2010PropOp56
 70
     1
102
RTVSPost2010Prop57
140
1.0
102
RTVSPost2010PropOp57
 70
     1
102
RTVSPropertyOp0
 70
     1
102
RTVSPropertyOp1
 70
     1
102
RTVSPropertyOp2
 70
     1
102
RTVSPropertyOp3
 70
     1
102
RTVSPropertyOp4
 70
     1
102
RTVSPropertyOp5
 70
     1
102
RTVSPropertyOp6
 70
     1
102
RTVSPropertyOp7
 70
     1
102
RTVSPropertyOp8
 70
     1
102
RTVSPropertyOp9
 70
     1
102
RTVSPropertyOp10
 70
     1
102
RTVSPropertyOp11
 70
     1
102
RTVSPropertyOp12
 70
     1
102
RTVSPropertyOp13
 70
     1
102
RTVSPropertyOp14
 70
     1
102
RTVSPropertyOp15
 70
     1
102
RTVSPropertyOp16
 70
     1
102
RTVSPropertyOp17
 70
     1
102
RTVSPropertyOp18
 70
     1
102
RTVSPropertyOp19
 70
     1
102
RTVSPropertyOp20
 70
     1
102
RTVSPropertyOp21
 70
     1
102
RTVSPropertyOp22
 70
     1
102
RTVSPropertyOp23
 70
     1
102
RTVSPropertyOp24
 70
     1
102
RTVSPropertyOp25
 70
     1
102
RTVSPropertyOp26
 70
     1
102
RTVSPropertyOp27
 70
     1
102
RTVSPropertyOp28
 70
     1
102
RTVSPropertyOp29
 70
     1
102
RTVSPropertyOp30
 70
     1
102
RTVSPropertyOp31
 70
     1
102
RTVSPropertyOp32
 70
     1
102
RTVSPropertyOp33
 70
     1
102
RTVSPropertyOp34
 70
     1
102
RTVSPropertyOp35
 70
     1
102
RTVSPropertyOp36
 70
     1
102
RTVSPropertyOp37
 70
     1
102
RTVSPropertyOp38
 70
     1
102
RTVSPropertyOp39
 70
     1
102
RTVSPropertyOp40
 70
     1
102
RTVSPropertyOp41
 70
     1
102
RTVSPropertyOp42
 70
     1
102
RTVSPropertyOp43
 70
     1
102
RTVSPropertyOp44
 70
     1
102
RTVSPropertyOp45
 70
     1
102
RTVSPropertyOp46
 70
     1
102
RTVSPropertyOp47
 70
     1
102
RTVSPropertyOp48
 70
     1
102
RTVSPropertyOp49
 70
     1
102
RTVSPropertyOp50
 70
     1
102
RTVSPropertyOp51
 70
     0
102
RTVSPropertyOp52
 70
     0
102
RTVSPropertyOp53
 70
     1
102
RTVSPropertyOp54
 70
     1
102
RTVSPropertyOp55
 70
     1
102
RTVSPropertyOp56
 70
     1
102
RTVSPropertyOp57
 70
     1
102
RTVSPropertyOp58
 70
     1
102
RTVSPropertyOp59
 70
     1
102
RTVSPropertyOp60
 70
     1
102
RTVSPropertyOp61
 70
     1
102
RTVSPropertyOp62
 70
     1
  0
XRECORD
  5
25FA
102
{ACAD_REACTORS
330
25F9
102
}
330
25F9
100
AcDbXrecord
280
     1
102
RTVSPost2010Prop28
280
     0
102
RTVSPost2010PropOp28
 70
     1
102
RTVSPost2010Prop29
280
     1
102
RTVSPost2010PropOp29
 70
     1
102
RTVSPost2010Prop30
280
     1
102
RTVSPost2010PropOp30
 70
     1
102
RTVSPost2010Prop31
280
     0
102
RTVSPost2010PropOp31
 70
     1
102
RTVSPost2010Prop32
280
     0
102
RTVSPost2010PropOp32
 70
     1
102
RTVSPost2010Prop33
280
     0
102
RTVSPost2010PropOp33
 70
     1
102
RTVSPost2010Prop34
280
     0
102
RTVSPost2010PropOp34
 70
     1
102
RTVSPost2010Prop35
280
     0
102
RTVSPost2010PropOp35
 70
     1
102
RTVSPost2010Prop36
280
     0
102
RTVSPost2010PropOp36
 70
     1
102
RTVSPost2010Prop37
 90
       50
102
RTVSPost2010PropOp37
 70
     1
102
RTVSPost2010Prop38
140
0.0
102
RTVSPost2010PropOp38
 70
     1
102
RTVSPost2010Prop39
140
1.0
102
RTVSPost2010PropOp39
 70
     1
102
RTVSPost2010Prop40
 90
        0
102
RTVSPost2010PropOp40
 70
     1
102
RTVSPost2010Prop41ColorIndex
 90
       18
102
RTVSPost2010Prop41ColorRGB
 90
        0
102
RTVSPost2010PropOp41
 70
     1
102
RTVSPost2010Prop42
 90
       50
102
RTVSPost2010PropOp42
 70
     1
102
RTVSPost2010Prop43
 90
        3
102
RTVSPost2010PropOp43
 70
     1
102
RTVSPost2010Prop44ColorIndex
 90
        5
102
RTVSPost2010Prop44ColorRGB
 90
      255
102
RTVSPost2010PropOp44
 70
     1
102
RTVSPost2010Prop45
280
     0
102
RTVSPost2010PropOp45
 70
     1
102
RTVSPost2010Prop46
 90
       50
102
RTVSPost2010PropOp46
 70
     1
102
RTVSPost2010Prop47
 90
       50
102
RTVSPost2010PropOp47
 70
     1
102
RTVSPost2010Prop48
 90
       50
102
RTVSPost2010PropOp48
 70
     1
102
RTVSPost2010Prop49
280
     0
102
RTVSPost2010PropOp49
 70
     1
102
RTVSPost2010Prop50
 90
       50
102
RTVSPost2010PropOp50
 70
     1
102
RTVSPost2010Prop51ColorIndex
 90
      256
102
RTVSPost2010Prop51ColorRGB
 90
-16777216
102
RTVSPost2010PropOp51
 70
     0
102
RTVSPost2010Prop52
140
1.0
102
RTVSPost2010PropOp52
 70
     0
102
RTVSPost2010Prop53
 90
        2
102
RTVSPost2010PropOp53
 70
     1
102
RTVSPost2010Prop54
  1
strokes_ogs.tif
102
RTVSPost2010PropOp54
 70
     1
102
RTVSPost2010Prop55
280
     0
102
RTVSPost2010PropOp55
 70
     1
102
RTVSPost2010Prop56
140
1.0
102
RTVSPost2010PropOp56
 70
     1
102
RTVSPost2010Prop57
140
1.0
102
RTVSPost2010PropOp57
 70
     1
102
RTVSPropertyOp0
 70
     1
102
RTVSPropertyOp1
 70
     1
102
RTVSPropertyOp2
 70
     1
102
RTVSPropertyOp3
 70
     1
102
RTVSPropertyOp4
 70
     1
102
RTVSPropertyOp5
 70
     1
102
RTVSPropertyOp6
 70
     1
102
RTVSPropertyOp7
 70
     1
102
RTVSPropertyOp8
 70
     1
102
RTVSPropertyOp9
 70
     1
102
RTVSPropertyOp10
 70
     1
102
RTVSPropertyOp11
 70
     1
102
RTVSPropertyOp12
 70
     1
102
RTVSPropertyOp13
 70
     1
102
RTVSPropertyOp14
 70
     1
102
RTVSPropertyOp15
 70
     1
102
RTVSPropertyOp16
 70
     1
102
RTVSPropertyOp17
 70
     1
102
RTVSPropertyOp18
 70
     1
102
RTVSPropertyOp19
 70
     1
102
RTVSPropertyOp20
 70
     1
102
RTVSPropertyOp21
 70
     1
102
RTVSPropertyOp22
 70
     1
102
RTVSPropertyOp23
 70
     1
102
RTVSPropertyOp24
 70
     1
102
RTVSPropertyOp25
 70
     1
102
RTVSPropertyOp26
 70
     1
102
RTVSPropertyOp27
 70
     1
102
RTVSPropertyOp28
 70
     1
102
RTVSPropertyOp29
 70
     1
102
RTVSPropertyOp30
 70
     1
102
RTVSPropertyOp31
 70
     1
102
RTVSPropertyOp32
 70
     1
102
RTVSPropertyOp33
 70
     1
102
RTVSPropertyOp34
 70
     1
102
RTVSPropertyOp35
 70
     1
102
RTVSPropertyOp36
 70
     1
102
RTVSPropertyOp37
 70
     1
102
RTVSPropertyOp38
 70
     1
102
RTVSPropertyOp39
 70
     1
102
RTVSPropertyOp40
 70
     1
102
RTVSPropertyOp41
 70
     1
102
RTVSPropertyOp42
 70
     1
102
RTVSPropertyOp43
 70
     1
102
RTVSPropertyOp44
 70
     1
102
RTVSPropertyOp45
 70
     1
102
RTVSPropertyOp46
 70
     1
102
RTVSPropertyOp47
 70
     1
102
RTVSPropertyOp48
 70
     1
102
RTVSPropertyOp49
 70
     1
102
RTVSPropertyOp50
 70
     1
102
RTVSPropertyOp51
 70
     0
102
RTVSPropertyOp52
 70
     0
102
RTVSPropertyOp53
 70
     1
102
RTVSPropertyOp54
 70
     1
102
RTVSPropertyOp55
 70
     1
102
RTVSPropertyOp56
 70
     1
102
RTVSPropertyOp57
 70
     1
102
RTVSPropertyOp58
 70
     1
102
RTVSPropertyOp59
 70
     1
102
RTVSPropertyOp60
 70
     1
102
RTVSPropertyOp61
 70
     1
102
RTVSPropertyOp62
 70
     1
  0
XRECORD
  5
25EC
102
{ACAD_REACTORS
330
25EB
102
}
330
25EB
100
AcDbXrecord
280
     1
102
RTVSPost2010Prop28
280
     0
102
RTVSPost2010PropOp28
 70
     1
102
RTVSPost2010Prop29
280
     1
102
RTVSPost2010PropOp29
 70
     1
102
RTVSPost2010Prop30
280
     1
102
RTVSPost2010PropOp30
 70
     1
102
RTVSPost2010Prop31
280
     0
102
RTVSPost2010PropOp31
 70
     1
102
RTVSPost2010Prop32
280
     0
102
RTVSPost2010PropOp32
 70
     1
102
RTVSPost2010Prop33
280
     0
102
RTVSPost2010PropOp33
 70
     1
102
RTVSPost2010Prop34
280
     0
102
RTVSPost2010PropOp34
 70
     1
102
RTVSPost2010Prop35
280
     0
102
RTVSPost2010PropOp35
 70
     1
102
RTVSPost2010Prop36
280
     0
102
RTVSPost2010PropOp36
 70
     1
102
RTVSPost2010Prop37
 90
       50
102
RTVSPost2010PropOp37
 70
     1
102
RTVSPost2010Prop38
140
0.0
102
RTVSPost2010PropOp38
 70
     1
102
RTVSPost2010Prop39
140
1.0
102
RTVSPost2010PropOp39
 70
     1
102
RTVSPost2010Prop40
 90
        0
102
RTVSPost2010PropOp40
 70
     1
102
RTVSPost2010Prop41ColorIndex
 90
       18
102
RTVSPost2010Prop41ColorRGB
 90
        0
102
RTVSPost2010PropOp41
 70
     1
102
RTVSPost2010Prop42
 90
       50
102
RTVSPost2010PropOp42
 70
     1
102
RTVSPost2010Prop43
 90
        3
102
RTVSPost2010PropOp43
 70
     1
102
RTVSPost2010Prop44ColorIndex
 90
        5
102
RTVSPost2010Prop44ColorRGB
 90
      255
102
RTVSPost2010PropOp44
 70
     1
102
RTVSPost2010Prop45
280
     0
102
RTVSPost2010PropOp45
 70
     1
102
RTVSPost2010Prop46
 90
       50
102
RTVSPost2010PropOp46
 70
     1
102
RTVSPost2010Prop47
 90
       50
102
RTVSPost2010PropOp47
 70
     1
102
RTVSPost2010Prop48
 90
       50
102
RTVSPost2010PropOp48
 70
     1
102
RTVSPost2010Prop49
280
     0
102
RTVSPost2010PropOp49
 70
     1
102
RTVSPost2010Prop50
 90
       50
102
RTVSPost2010PropOp50
 70
     1
102
RTVSPost2010Prop51ColorIndex
 90
      256
102
RTVSPost2010Prop51ColorRGB
 90
-16777216
102
RTVSPost2010PropOp51
 70
     0
102
RTVSPost2010Prop52
140
1.0
102
RTVSPost2010PropOp52
 70
     0
102
RTVSPost2010Prop53
 90
        2
102
RTVSPost2010PropOp53
 70
     1
102
RTVSPost2010Prop54
  1
strokes_ogs.tif
102
RTVSPost2010PropOp54
 70
     1
102
RTVSPost2010Prop55
280
     0
102
RTVSPost2010PropOp55
 70
     1
102
RTVSPost2010Prop56
140
1.0
102
RTVSPost2010PropOp56
 70
     1
102
RTVSPost2010Prop57
140
1.0
102
RTVSPost2010PropOp57
 70
     1
102
RTVSPropertyOp0
 70
     1
102
RTVSPropertyOp1
 70
     1
102
RTVSPropertyOp2
 70
     1
102
RTVSPropertyOp3
 70
     1
102
RTVSPropertyOp4
 70
     1
102
RTVSPropertyOp5
 70
     1
102
RTVSPropertyOp6
 70
     1
102
RTVSPropertyOp7
 70
     1
102
RTVSPropertyOp8
 70
     1
102
RTVSPropertyOp9
 70
     1
102
RTVSPropertyOp10
 70
     1
102
RTVSPropertyOp11
 70
     1
102
RTVSPropertyOp12
 70
     1
102
RTVSPropertyOp13
 70
     1
102
RTVSPropertyOp14
 70
     1
102
RTVSPropertyOp15
 70
     1
102
RTVSPropertyOp16
 70
     1
102
RTVSPropertyOp17
 70
     1
102
RTVSPropertyOp18
 70
     1
102
RTVSPropertyOp19
 70
     1
102
RTVSPropertyOp20
 70
     1
102
RTVSPropertyOp21
 70
     1
102
RTVSPropertyOp22
 70
     1
102
RTVSPropertyOp23
 70
     1
102
RTVSPropertyOp24
 70
     1
102
RTVSPropertyOp25
 70
     1
102
RTVSPropertyOp26
 70
     1
102
RTVSPropertyOp27
 70
     1
102
RTVSPropertyOp28
 70
     1
102
RTVSPropertyOp29
 70
     1
102
RTVSPropertyOp30
 70
     1
102
RTVSPropertyOp31
 70
     1
102
RTVSPropertyOp32
 70
     1
102
RTVSPropertyOp33
 70
     1
102
RTVSPropertyOp34
 70
     1
102
RTVSPropertyOp35
 70
     1
102
RTVSPropertyOp36
 70
     1
102
RTVSPropertyOp37
 70
     1
102
RTVSPropertyOp38
 70
     1
102
RTVSPropertyOp39
 70
     1
102
RTVSPropertyOp40
 70
     1
102
RTVSPropertyOp41
 70
     1
102
RTVSPropertyOp42
 70
     1
102
RTVSPropertyOp43
 70
     1
102
RTVSPropertyOp44
 70
     1
102
RTVSPropertyOp45
 70
     1
102
RTVSPropertyOp46
 70
     1
102
RTVSPropertyOp47
 70
     1
102
RTVSPropertyOp48
 70
     1
102
RTVSPropertyOp49
 70
     1
102
RTVSPropertyOp50
 70
     1
102
RTVSPropertyOp51
 70
     0
102
RTVSPropertyOp52
 70
     0
102
RTVSPropertyOp53
 70
     1
102
RTVSPropertyOp54
 70
     1
102
RTVSPropertyOp55
 70
     1
102
RTVSPropertyOp56
 70
     1
102
RTVSPropertyOp57
 70
     1
102
RTVSPropertyOp58
 70
     1
102
RTVSPropertyOp59
 70
     1
102
RTVSPropertyOp60
 70
     1
102
RTVSPropertyOp61
 70
     1
102
RTVSPropertyOp62
 70
     1
  0
XRECORD
  5
25F0
102
{ACAD_REACTORS
330
25EF
102
}
330
25EF
100
AcDbXrecord
280
     1
102
RTVSPost2010Prop28
280
     0
102
RTVSPost2010PropOp28
 70
     1
102
RTVSPost2010Prop29
280
     1
102
RTVSPost2010PropOp29
 70
     1
102
RTVSPost2010Prop30
280
     1
102
RTVSPost2010PropOp30
 70
     1
102
RTVSPost2010Prop31
280
     0
102
RTVSPost2010PropOp31
 70
     1
102
RTVSPost2010Prop32
280
     0
102
RTVSPost2010PropOp32
 70
     1
102
RTVSPost2010Prop33
280
     0
102
RTVSPost2010PropOp33
 70
     1
102
RTVSPost2010Prop34
280
     0
102
RTVSPost2010PropOp34
 70
     1
102
RTVSPost2010Prop35
280
     0
102
RTVSPost2010PropOp35
 70
     1
102
RTVSPost2010Prop36
280
     0
102
RTVSPost2010PropOp36
 70
     1
102
RTVSPost2010Prop37
 90
       50
102
RTVSPost2010PropOp37
 70
     1
102
RTVSPost2010Prop38
140
0.0
102
RTVSPost2010PropOp38
 70
     1
102
RTVSPost2010Prop39
140
1.0
102
RTVSPost2010PropOp39
 70
     1
102
RTVSPost2010Prop40
 90
        0
102
RTVSPost2010PropOp40
 70
     1
102
RTVSPost2010Prop41ColorIndex
 90
       18
102
RTVSPost2010Prop41ColorRGB
 90
        0
102
RTVSPost2010PropOp41
 70
     1
102
RTVSPost2010Prop42
 90
       50
102
RTVSPost2010PropOp42
 70
     1
102
RTVSPost2010Prop43
 90
        3
102
RTVSPost2010PropOp43
 70
     1
102
RTVSPost2010Prop44ColorIndex
 90
        5
102
RTVSPost2010Prop44ColorRGB
 90
      255
102
RTVSPost2010PropOp44
 70
     1
102
RTVSPost2010Prop45
280
     0
102
RTVSPost2010PropOp45
 70
     1
102
RTVSPost2010Prop46
 90
       50
102
RTVSPost2010PropOp46
 70
     1
102
RTVSPost2010Prop47
 90
       50
102
RTVSPost2010PropOp47
 70
     1
102
RTVSPost2010Prop48
 90
       50
102
RTVSPost2010PropOp48
 70
     1
102
RTVSPost2010Prop49
280
     0
102
RTVSPost2010PropOp49
 70
     1
102
RTVSPost2010Prop50
 90
       50
102
RTVSPost2010PropOp50
 70
     1
102
RTVSPost2010Prop51ColorIndex
 90
      256
102
RTVSPost2010Prop51ColorRGB
 90
-16777216
102
RTVSPost2010PropOp51
 70
     0
102
RTVSPost2010Prop52
140
1.0
102
RTVSPost2010PropOp52
 70
     0
102
RTVSPost2010Prop53
 90
        2
102
RTVSPost2010PropOp53
 70
     1
102
RTVSPost2010Prop54
  1
strokes_ogs.tif
102
RTVSPost2010PropOp54
 70
     1
102
RTVSPost2010Prop55
280
     0
102
RTVSPost2010PropOp55
 70
     1
102
RTVSPost2010Prop56
140
1.0
102
RTVSPost2010PropOp56
 70
     1
102
RTVSPost2010Prop57
140
1.0
102
RTVSPost2010PropOp57
 70
     1
102
RTVSPropertyOp0
 70
     1
102
RTVSPropertyOp1
 70
     1
102
RTVSPropertyOp2
 70
     1
102
RTVSPropertyOp3
 70
     1
102
RTVSPropertyOp4
 70
     1
102
RTVSPropertyOp5
 70
     1
102
RTVSPropertyOp6
 70
     1
102
RTVSPropertyOp7
 70
     1
102
RTVSPropertyOp8
 70
     1
102
RTVSPropertyOp9
 70
     1
102
RTVSPropertyOp10
 70
     1
102
RTVSPropertyOp11
 70
     1
102
RTVSPropertyOp12
 70
     1
102
RTVSPropertyOp13
 70
     1
102
RTVSPropertyOp14
 70
     1
102
RTVSPropertyOp15
 70
     1
102
RTVSPropertyOp16
 70
     1
102
RTVSPropertyOp17
 70
     1
102
RTVSPropertyOp18
 70
     1
102
RTVSPropertyOp19
 70
     1
102
RTVSPropertyOp20
 70
     1
102
RTVSPropertyOp21
 70
     1
102
RTVSPropertyOp22
 70
     1
102
RTVSPropertyOp23
 70
     1
102
RTVSPropertyOp24
 70
     1
102
RTVSPropertyOp25
 70
     1
102
RTVSPropertyOp26
 70
     1
102
RTVSPropertyOp27
 70
     1
102
RTVSPropertyOp28
 70
     1
102
RTVSPropertyOp29
 70
     1
102
RTVSPropertyOp30
 70
     1
102
RTVSPropertyOp31
 70
     1
102
RTVSPropertyOp32
 70
     1
102
RTVSPropertyOp33
 70
     1
102
RTVSPropertyOp34
 70
     1
102
RTVSPropertyOp35
 70
     1
102
RTVSPropertyOp36
 70
     1
102
RTVSPropertyOp37
 70
     1
102
RTVSPropertyOp38
 70
     1
102
RTVSPropertyOp39
 70
     1
102
RTVSPropertyOp40
 70
     1
102
RTVSPropertyOp41
 70
     1
102
RTVSPropertyOp42
 70
     1
102
RTVSPropertyOp43
 70
     1
102
RTVSPropertyOp44
 70
     1
102
RTVSPropertyOp45
 70
     1
102
RTVSPropertyOp46
 70
     1
102
RTVSPropertyOp47
 70
     1
102
RTVSPropertyOp48
 70
     1
102
RTVSPropertyOp49
 70
     1
102
RTVSPropertyOp50
 70
     1
102
RTVSPropertyOp51
 70
     0
102
RTVSPropertyOp52
 70
     0
102
RTVSPropertyOp53
 70
     1
102
RTVSPropertyOp54
 70
     1
102
RTVSPropertyOp55
 70
     1
102
RTVSPropertyOp56
 70
     1
102
RTVSPropertyOp57
 70
     1
102
RTVSPropertyOp58
 70
     1
102
RTVSPropertyOp59
 70
     1
102
RTVSPropertyOp60
 70
     1
102
RTVSPropertyOp61
 70
     1
102
RTVSPropertyOp62
 70
     1
  0
XRECORD
  5
260A
102
{ACAD_REACTORS
330
2609
102
}
330
2609
100
AcDbXrecord
280
     1
102
RTVSPost2010Prop28
280
     0
102
RTVSPost2010PropOp28
 70
     1
102
RTVSPost2010Prop29
280
     1
102
RTVSPost2010PropOp29
 70
     1
102
RTVSPost2010Prop30
280
     1
102
RTVSPost2010PropOp30
 70
     1
102
RTVSPost2010Prop31
280
     0
102
RTVSPost2010PropOp31
 70
     1
102
RTVSPost2010Prop32
280
     0
102
RTVSPost2010PropOp32
 70
     1
102
RTVSPost2010Prop33
280
     0
102
RTVSPost2010PropOp33
 70
     1
102
RTVSPost2010Prop34
280
     0
102
RTVSPost2010PropOp34
 70
     1
102
RTVSPost2010Prop35
280
     0
102
RTVSPost2010PropOp35
 70
     1
102
RTVSPost2010Prop36
280
     0
102
RTVSPost2010PropOp36
 70
     1
102
RTVSPost2010Prop37
 90
       50
102
RTVSPost2010PropOp37
 70
     0
102
RTVSPost2010Prop38
140
0.0
102
RTVSPost2010PropOp38
 70
     0
102
RTVSPost2010Prop39
140
1.0
102
RTVSPost2010PropOp39
 70
     0
102
RTVSPost2010Prop40
 90
        0
102
RTVSPost2010PropOp40
 70
     0
102
RTVSPost2010Prop41ColorIndex
 90
       18
102
RTVSPost2010Prop41ColorRGB
 90
        0
102
RTVSPost2010PropOp41
 70
     0
102
RTVSPost2010Prop42
 90
       50
102
RTVSPost2010PropOp42
 70
     0
102
RTVSPost2010Prop43
 90
        3
102
RTVSPost2010PropOp43
 70
     0
102
RTVSPost2010Prop44ColorIndex
 90
        5
102
RTVSPost2010Prop44ColorRGB
 90
      255
102
RTVSPost2010PropOp44
 70
     0
102
RTVSPost2010Prop45
280
     0
102
RTVSPost2010PropOp45
 70
     1
102
RTVSPost2010Prop46
 90
       50
102
RTVSPost2010PropOp46
 70
     0
102
RTVSPost2010Prop47
 90
       50
102
RTVSPost2010PropOp47
 70
     0
102
RTVSPost2010Prop48
 90
       50
102
RTVSPost2010PropOp48
 70
     0
102
RTVSPost2010Prop49
280
     0
102
RTVSPost2010PropOp49
 70
     1
102
RTVSPost2010Prop50
 90
       50
102
RTVSPost2010PropOp50
 70
     0
102
RTVSPost2010Prop51ColorIndex
 90
      256
102
RTVSPost2010Prop51ColorRGB
 90
-16777216
102
RTVSPost2010PropOp51
 70
     0
102
RTVSPost2010Prop52
140
1.0
102
RTVSPost2010PropOp52
 70
     0
102
RTVSPost2010Prop53
 90
        2
102
RTVSPost2010PropOp53
 70
     0
102
RTVSPost2010Prop54
  1
strokes_ogs.tif
102
RTVSPost2010PropOp54
 70
     0
102
RTVSPost2010Prop55
280
     0
102
RTVSPost2010PropOp55
 70
     1
102
RTVSPost2010Prop56
140
1.0
102
RTVSPost2010PropOp56
 70
     0
102
RTVSPost2010Prop57
140
1.0
102
RTVSPost2010PropOp57
 70
     0
102
RTVSPropertyOp0
 70
     0
102
RTVSPropertyOp1
 70
     0
102
RTVSPropertyOp2
 70
     0
102
RTVSPropertyOp3
 70
     0
102
RTVSPropertyOp4
 70
     0
102
RTVSPropertyOp5
 70
     0
102
RTVSPropertyOp6
 70
     0
102
RTVSPropertyOp7
 70
     0
102
RTVSPropertyOp8
 70
     0
102
RTVSPropertyOp9
 70
     0
102
RTVSPropertyOp10
 70
     0
102
RTVSPropertyOp11
 70
     0
102
RTVSPropertyOp12
 70
     0
102
RTVSPropertyOp13
 70
     0
102
RTVSPropertyOp14
 70
     2
102
RTVSPropertyOp15
 70
     0
102
RTVSPropertyOp16
 70
     0
102
RTVSPropertyOp17
 70
     0
102
RTVSPropertyOp18
 70
     0
102
RTVSPropertyOp19
 70
     0
102
RTVSPropertyOp20
 70
     0
102
RTVSPropertyOp21
 70
     0
102
RTVSPropertyOp22
 70
     0
102
RTVSPropertyOp23
 70
     0
102
RTVSPropertyOp24
 70
     0
102
RTVSPropertyOp25
 70
     0
102
RTVSPropertyOp26
 70
     0
102
RTVSPropertyOp27
 70
     0
102
RTVSPropertyOp28
 70
     1
102
RTVSPropertyOp29
 70
     1
102
RTVSPropertyOp30
 70
     1
102
RTVSPropertyOp31
 70
     1
102
RTVSPropertyOp32
 70
     1
102
RTVSPropertyOp33
 70
     1
102
RTVSPropertyOp34
 70
     1
102
RTVSPropertyOp35
 70
     1
102
RTVSPropertyOp36
 70
     1
102
RTVSPropertyOp37
 70
     0
102
RTVSPropertyOp38
 70
     0
102
RTVSPropertyOp39
 70
     0
102
RTVSPropertyOp40
 70
     0
102
RTVSPropertyOp41
 70
     0
102
RTVSPropertyOp42
 70
     0
102
RTVSPropertyOp43
 70
     0
102
RTVSPropertyOp44
 70
     0
102
RTVSPropertyOp45
 70
     1
102
RTVSPropertyOp46
 70
     0
102
RTVSPropertyOp47
 70
     0
102
RTVSPropertyOp48
 70
     0
102
RTVSPropertyOp49
 70
     1
102
RTVSPropertyOp50
 70
     0
102
RTVSPropertyOp51
 70
     0
102
RTVSPropertyOp52
 70
     0
102
RTVSPropertyOp53
 70
     0
102
RTVSPropertyOp54
 70
     0
102
RTVSPropertyOp55
 70
     1
102
RTVSPropertyOp56
 70
     0
102
RTVSPropertyOp57
 70
     0
102
RTVSPropertyOp58
 70
     0
102
RTVSPropertyOp59
 70
     0
102
RTVSPropertyOp60
 70
     0
102
RTVSPropertyOp61
 70
     0
102
RTVSPropertyOp62
 70
     0
  0
XRECORD
  5
25F8
102
{ACAD_REACTORS
330
25F7
102
}
330
25F7
100
AcDbXrecord
280
     1
102
RTVSPost2010Prop28
280
     0
102
RTVSPost2010PropOp28
 70
     1
102
RTVSPost2010Prop29
280
     1
102
RTVSPost2010PropOp29
 70
     1
102
RTVSPost2010Prop30
280
     1
102
RTVSPost2010PropOp30
 70
     1
102
RTVSPost2010Prop31
280
     0
102
RTVSPost2010PropOp31
 70
     1
102
RTVSPost2010Prop32
280
     0
102
RTVSPost2010PropOp32
 70
     1
102
RTVSPost2010Prop33
280
     0
102
RTVSPost2010PropOp33
 70
     1
102
RTVSPost2010Prop34
280
     0
102
RTVSPost2010PropOp34
 70
     1
102
RTVSPost2010Prop35
280
     0
102
RTVSPost2010PropOp35
 70
     1
102
RTVSPost2010Prop36
280
     0
102
RTVSPost2010PropOp36
 70
     1
102
RTVSPost2010Prop37
 90
       50
102
RTVSPost2010PropOp37
 70
     1
102
RTVSPost2010Prop38
140
0.0
102
RTVSPost2010PropOp38
 70
     1
102
RTVSPost2010Prop39
140
1.0
102
RTVSPost2010PropOp39
 70
     1
102
RTVSPost2010Prop40
 90
        0
102
RTVSPost2010PropOp40
 70
     1
102
RTVSPost2010Prop41ColorIndex
 90
       18
102
RTVSPost2010Prop41ColorRGB
 90
        0
102
RTVSPost2010PropOp41
 70
     1
102
RTVSPost2010Prop42
 90
       50
102
RTVSPost2010PropOp42
 70
     1
102
RTVSPost2010Prop43
 90
        3
102
RTVSPost2010PropOp43
 70
     1
102
RTVSPost2010Prop44ColorIndex
 90
        5
102
RTVSPost2010Prop44ColorRGB
 90
      255
102
RTVSPost2010PropOp44
 70
     1
102
RTVSPost2010Prop45
280
     0
102
RTVSPost2010PropOp45
 70
     1
102
RTVSPost2010Prop46
 90
       50
102
RTVSPost2010PropOp46
 70
     1
102
RTVSPost2010Prop47
 90
       50
102
RTVSPost2010PropOp47
 70
     1
102
RTVSPost2010Prop48
 90
       50
102
RTVSPost2010PropOp48
 70
     1
102
RTVSPost2010Prop49
280
     0
102
RTVSPost2010PropOp49
 70
     1
102
RTVSPost2010Prop50
 90
       50
102
RTVSPost2010PropOp50
 70
     1
102
RTVSPost2010Prop51ColorIndex
 90
      256
102
RTVSPost2010Prop51ColorRGB
 90
-16777216
102
RTVSPost2010PropOp51
 70
     0
102
RTVSPost2010Prop52
140
1.0
102
RTVSPost2010PropOp52
 70
     0
102
RTVSPost2010Prop53
 90
        2
102
RTVSPost2010PropOp53
 70
     1
102
RTVSPost2010Prop54
  1
strokes_ogs.tif
102
RTVSPost2010PropOp54
 70
     1
102
RTVSPost2010Prop55
280
     0
102
RTVSPost2010PropOp55
 70
     1
102
RTVSPost2010Prop56
140
1.0
102
RTVSPost2010PropOp56
 70
     1
102
RTVSPost2010Prop57
140
1.0
102
RTVSPost2010PropOp57
 70
     1
102
RTVSPropertyOp0
 70
     1
102
RTVSPropertyOp1
 70
     1
102
RTVSPropertyOp2
 70
     1
102
RTVSPropertyOp3
 70
     1
102
RTVSPropertyOp4
 70
     1
102
RTVSPropertyOp5
 70
     1
102
RTVSPropertyOp6
 70
     1
102
RTVSPropertyOp7
 70
     1
102
RTVSPropertyOp8
 70
     1
102
RTVSPropertyOp9
 70
     1
102
RTVSPropertyOp10
 70
     1
102
RTVSPropertyOp11
 70
     1
102
RTVSPropertyOp12
 70
     1
102
RTVSPropertyOp13
 70
     1
102
RTVSPropertyOp14
 70
     1
102
RTVSPropertyOp15
 70
     1
102
RTVSPropertyOp16
 70
     1
102
RTVSPropertyOp17
 70
     1
102
RTVSPropertyOp18
 70
     1
102
RTVSPropertyOp19
 70
     1
102
RTVSPropertyOp20
 70
     1
102
RTVSPropertyOp21
 70
     1
102
RTVSPropertyOp22
 70
     1
102
RTVSPropertyOp23
 70
     1
102
RTVSPropertyOp24
 70
     1
102
RTVSPropertyOp25
 70
     1
102
RTVSPropertyOp26
 70
     1
102
RTVSPropertyOp27
 70
     1
102
RTVSPropertyOp28
 70
     1
102
RTVSPropertyOp29
 70
     1
102
RTVSPropertyOp30
 70
     1
102
RTVSPropertyOp31
 70
     1
102
RTVSPropertyOp32
 70
     1
102
RTVSPropertyOp33
 70
     1
102
RTVSPropertyOp34
 70
     1
102
RTVSPropertyOp35
 70
     1
102
RTVSPropertyOp36
 70
     1
102
RTVSPropertyOp37
 70
     1
102
RTVSPropertyOp38
 70
     1
102
RTVSPropertyOp39
 70
     1
102
RTVSPropertyOp40
 70
     1
102
RTVSPropertyOp41
 70
     1
102
RTVSPropertyOp42
 70
     1
102
RTVSPropertyOp43
 70
     1
102
RTVSPropertyOp44
 70
     1
102
RTVSPropertyOp45
 70
     1
102
RTVSPropertyOp46
 70
     1
102
RTVSPropertyOp47
 70
     1
102
RTVSPropertyOp48
 70
     1
102
RTVSPropertyOp49
 70
     1
102
RTVSPropertyOp50
 70
     1
102
RTVSPropertyOp51
 70
     0
102
RTVSPropertyOp52
 70
     0
102
RTVSPropertyOp53
 70
     1
102
RTVSPropertyOp54
 70
     1
102
RTVSPropertyOp55
 70
     1
102
RTVSPropertyOp56
 70
     1
102
RTVSPropertyOp57
 70
     1
102
RTVSPropertyOp58
 70
     1
102
RTVSPropertyOp59
 70
     1
102
RTVSPropertyOp60
 70
     1
102
RTVSPropertyOp61
 70
     1
102
RTVSPropertyOp62
 70
     1
  0
XRECORD
  5
25DC
102
{ACAD_REACTORS
330
25DB
102
}
330
25DB
100
AcDbXrecord
280
     1
102
RTVSPost2010Prop28
280
     0
102
RTVSPost2010PropOp28
 70
     1
102
RTVSPost2010Prop29
280
     1
102
RTVSPost2010PropOp29
 70
     1
102
RTVSPost2010Prop30
280
     1
102
RTVSPost2010PropOp30
 70
     1
102
RTVSPost2010Prop31
280
     0
102
RTVSPost2010PropOp31
 70
     1
102
RTVSPost2010Prop32
280
     0
102
RTVSPost2010PropOp32
 70
     1
102
RTVSPost2010Prop33
280
     0
102
RTVSPost2010PropOp33
 70
     1
102
RTVSPost2010Prop34
280
     0
102
RTVSPost2010PropOp34
 70
     1
102
RTVSPost2010Prop35
280
     0
102
RTVSPost2010PropOp35
 70
     1
102
RTVSPost2010Prop36
280
     0
102
RTVSPost2010PropOp36
 70
     1
102
RTVSPost2010Prop37
 90
       50
102
RTVSPost2010PropOp37
 70
     1
102
RTVSPost2010Prop38
140
0.0
102
RTVSPost2010PropOp38
 70
     1
102
RTVSPost2010Prop39
140
1.0
102
RTVSPost2010PropOp39
 70
     1
102
RTVSPost2010Prop40
 90
        0
102
RTVSPost2010PropOp40
 70
     1
102
RTVSPost2010Prop41ColorIndex
 90
       18
102
RTVSPost2010Prop41ColorRGB
 90
        0
102
RTVSPost2010PropOp41
 70
     1
102
RTVSPost2010Prop42
 90
       50
102
RTVSPost2010PropOp42
 70
     1
102
RTVSPost2010Prop43
 90
        3
102
RTVSPost2010PropOp43
 70
     1
102
RTVSPost2010Prop44ColorIndex
 90
        5
102
RTVSPost2010Prop44ColorRGB
 90
      255
102
RTVSPost2010PropOp44
 70
     1
102
RTVSPost2010Prop45
280
     0
102
RTVSPost2010PropOp45
 70
     1
102
RTVSPost2010Prop46
 90
       50
102
RTVSPost2010PropOp46
 70
     1
102
RTVSPost2010Prop47
 90
       50
102
RTVSPost2010PropOp47
 70
     1
102
RTVSPost2010Prop48
 90
       50
102
RTVSPost2010PropOp48
 70
     1
102
RTVSPost2010Prop49
280
     0
102
RTVSPost2010PropOp49
 70
     1
102
RTVSPost2010Prop50
 90
       50
102
RTVSPost2010PropOp50
 70
     1
102
RTVSPost2010Prop51ColorIndex
 90
      256
102
RTVSPost2010Prop51ColorRGB
 90
-16777216
102
RTVSPost2010PropOp51
 70
     0
102
RTVSPost2010Prop52
140
1.0
102
RTVSPost2010PropOp52
 70
     0
102
RTVSPost2010Prop53
 90
        2
102
RTVSPost2010PropOp53
 70
     1
102
RTVSPost2010Prop54
  1
strokes_ogs.tif
102
RTVSPost2010PropOp54
 70
     1
102
RTVSPost2010Prop55
280
     0
102
RTVSPost2010PropOp55
 70
     1
102
RTVSPost2010Prop56
140
1.0
102
RTVSPost2010PropOp56
 70
     1
102
RTVSPost2010Prop57
140
1.0
102
RTVSPost2010PropOp57
 70
     1
102
RTVSPropertyOp0
 70
     1
102
RTVSPropertyOp1
 70
     1
102
RTVSPropertyOp2
 70
     1
102
RTVSPropertyOp3
 70
     1
102
RTVSPropertyOp4
 70
     1
102
RTVSPropertyOp5
 70
     1
102
RTVSPropertyOp6
 70
     1
102
RTVSPropertyOp7
 70
     1
102
RTVSPropertyOp8
 70
     1
102
RTVSPropertyOp9
 70
     1
102
RTVSPropertyOp10
 70
     1
102
RTVSPropertyOp11
 70
     1
102
RTVSPropertyOp12
 70
     1
102
RTVSPropertyOp13
 70
     1
102
RTVSPropertyOp14
 70
     1
102
RTVSPropertyOp15
 70
     1
102
RTVSPropertyOp16
 70
     1
102
RTVSPropertyOp17
 70
     1
102
RTVSPropertyOp18
 70
     1
102
RTVSPropertyOp19
 70
     1
102
RTVSPropertyOp20
 70
     1
102
RTVSPropertyOp21
 70
     1
102
RTVSPropertyOp22
 70
     1
102
RTVSPropertyOp23
 70
     1
102
RTVSPropertyOp24
 70
     1
102
RTVSPropertyOp25
 70
     1
102
RTVSPropertyOp26
 70
     1
102
RTVSPropertyOp27
 70
     1
102
RTVSPropertyOp28
 70
     1
102
RTVSPropertyOp29
 70
     1
102
RTVSPropertyOp30
 70
     1
102
RTVSPropertyOp31
 70
     1
102
RTVSPropertyOp32
 70
     1
102
RTVSPropertyOp33
 70
     1
102
RTVSPropertyOp34
 70
     1
102
RTVSPropertyOp35
 70
     1
102
RTVSPropertyOp36
 70
     1
102
RTVSPropertyOp37
 70
     1
102
RTVSPropertyOp38
 70
     1
102
RTVSPropertyOp39
 70
     1
102
RTVSPropertyOp40
 70
     1
102
RTVSPropertyOp41
 70
     1
102
RTVSPropertyOp42
 70
     1
102
RTVSPropertyOp43
 70
     1
102
RTVSPropertyOp44
 70
     1
102
RTVSPropertyOp45
 70
     1
102
RTVSPropertyOp46
 70
     1
102
RTVSPropertyOp47
 70
     1
102
RTVSPropertyOp48
 70
     1
102
RTVSPropertyOp49
 70
     1
102
RTVSPropertyOp50
 70
     1
102
RTVSPropertyOp51
 70
     0
102
RTVSPropertyOp52
 70
     0
102
RTVSPropertyOp53
 70
     1
102
RTVSPropertyOp54
 70
     1
102
RTVSPropertyOp55
 70
     1
102
RTVSPropertyOp56
 70
     1
102
RTVSPropertyOp57
 70
     1
102
RTVSPropertyOp58
 70
     1
102
RTVSPropertyOp59
 70
     1
102
RTVSPropertyOp60
 70
     1
102
RTVSPropertyOp61
 70
     1
102
RTVSPropertyOp62
 70
     1
  0
XRECORD
  5
25DE
102
{ACAD_REACTORS
330
25DD
102
}
330
25DD
100
AcDbXrecord
280
     1
102
RTVSPost2010Prop28
280
     0
102
RTVSPost2010PropOp28
 70
     1
102
RTVSPost2010Prop29
280
     1
102
RTVSPost2010PropOp29
 70
     1
102
RTVSPost2010Prop30
280
     1
102
RTVSPost2010PropOp30
 70
     1
102
RTVSPost2010Prop31
280
     0
102
RTVSPost2010PropOp31
 70
     1
102
RTVSPost2010Prop32
280
     0
102
RTVSPost2010PropOp32
 70
     1
102
RTVSPost2010Prop33
280
     0
102
RTVSPost2010PropOp33
 70
     1
102
RTVSPost2010Prop34
280
     0
102
RTVSPost2010PropOp34
 70
     1
102
RTVSPost2010Prop35
280
     0
102
RTVSPost2010PropOp35
 70
     1
102
RTVSPost2010Prop36
280
     0
102
RTVSPost2010PropOp36
 70
     1
102
RTVSPost2010Prop37
 90
       50
102
RTVSPost2010PropOp37
 70
     1
102
RTVSPost2010Prop38
140
0.0
102
RTVSPost2010PropOp38
 70
     1
102
RTVSPost2010Prop39
140
1.0
102
RTVSPost2010PropOp39
 70
     1
102
RTVSPost2010Prop40
 90
        0
102
RTVSPost2010PropOp40
 70
     1
102
RTVSPost2010Prop41ColorIndex
 90
       18
102
RTVSPost2010Prop41ColorRGB
 90
        0
102
RTVSPost2010PropOp41
 70
     1
102
RTVSPost2010Prop42
 90
       50
102
RTVSPost2010PropOp42
 70
     1
102
RTVSPost2010Prop43
 90
        3
102
RTVSPost2010PropOp43
 70
     1
102
RTVSPost2010Prop44ColorIndex
 90
        5
102
RTVSPost2010Prop44ColorRGB
 90
      255
102
RTVSPost2010PropOp44
 70
     1
102
RTVSPost2010Prop45
280
     0
102
RTVSPost2010PropOp45
 70
     1
102
RTVSPost2010Prop46
 90
       50
102
RTVSPost2010PropOp46
 70
     1
102
RTVSPost2010Prop47
 90
       50
102
RTVSPost2010PropOp47
 70
     1
102
RTVSPost2010Prop48
 90
       50
102
RTVSPost2010PropOp48
 70
     1
102
RTVSPost2010Prop49
280
     0
102
RTVSPost2010PropOp49
 70
     1
102
RTVSPost2010Prop50
 90
       50
102
RTVSPost2010PropOp50
 70
     1
102
RTVSPost2010Prop51ColorIndex
 90
      256
102
RTVSPost2010Prop51ColorRGB
 90
-16777216
102
RTVSPost2010PropOp51
 70
     0
102
RTVSPost2010Prop52
140
1.0
102
RTVSPost2010PropOp52
 70
     0
102
RTVSPost2010Prop53
 90
        2
102
RTVSPost2010PropOp53
 70
     1
102
RTVSPost2010Prop54
  1
strokes_ogs.tif
102
RTVSPost2010PropOp54
 70
     1
102
RTVSPost2010Prop55
280
     0
102
RTVSPost2010PropOp55
 70
     1
102
RTVSPost2010Prop56
140
1.0
102
RTVSPost2010PropOp56
 70
     1
102
RTVSPost2010Prop57
140
1.0
102
RTVSPost2010PropOp57
 70
     1
102
RTVSPropertyOp0
 70
     1
102
RTVSPropertyOp1
 70
     1
102
RTVSPropertyOp2
 70
     1
102
RTVSPropertyOp3
 70
     1
102
RTVSPropertyOp4
 70
     1
102
RTVSPropertyOp5
 70
     1
102
RTVSPropertyOp6
 70
     1
102
RTVSPropertyOp7
 70
     1
102
RTVSPropertyOp8
 70
     1
102
RTVSPropertyOp9
 70
     1
102
RTVSPropertyOp10
 70
     1
102
RTVSPropertyOp11
 70
     1
102
RTVSPropertyOp12
 70
     1
102
RTVSPropertyOp13
 70
     1
102
RTVSPropertyOp14
 70
     1
102
RTVSPropertyOp15
 70
     1
102
RTVSPropertyOp16
 70
     1
102
RTVSPropertyOp17
 70
     1
102
RTVSPropertyOp18
 70
     1
102
RTVSPropertyOp19
 70
     1
102
RTVSPropertyOp20
 70
     1
102
RTVSPropertyOp21
 70
     1
102
RTVSPropertyOp22
 70
     1
102
RTVSPropertyOp23
 70
     1
102
RTVSPropertyOp24
 70
     1
102
RTVSPropertyOp25
 70
     1
102
RTVSPropertyOp26
 70
     1
102
RTVSPropertyOp27
 70
     1
102
RTVSPropertyOp28
 70
     1
102
RTVSPropertyOp29
 70
     1
102
RTVSPropertyOp30
 70
     1
102
RTVSPropertyOp31
 70
     1
102
RTVSPropertyOp32
 70
     1
102
RTVSPropertyOp33
 70
     1
102
RTVSPropertyOp34
 70
     1
102
RTVSPropertyOp35
 70
     1
102
RTVSPropertyOp36
 70
     1
102
RTVSPropertyOp37
 70
     1
102
RTVSPropertyOp38
 70
     1
102
RTVSPropertyOp39
 70
     1
102
RTVSPropertyOp40
 70
     1
102
RTVSPropertyOp41
 70
     1
102
RTVSPropertyOp42
 70
     1
102
RTVSPropertyOp43
 70
     1
102
RTVSPropertyOp44
 70
     1
102
RTVSPropertyOp45
 70
     1
102
RTVSPropertyOp46
 70
     1
102
RTVSPropertyOp47
 70
     1
102
RTVSPropertyOp48
 70
     1
102
RTVSPropertyOp49
 70
     1
102
RTVSPropertyOp50
 70
     1
102
RTVSPropertyOp51
 70
     0
102
RTVSPropertyOp52
 70
     0
102
RTVSPropertyOp53
 70
     1
102
RTVSPropertyOp54
 70
     1
102
RTVSPropertyOp55
 70
     1
102
RTVSPropertyOp56
 70
     1
102
RTVSPropertyOp57
 70
     1
102
RTVSPropertyOp58
 70
     1
102
RTVSPropertyOp59
 70
     1
102
RTVSPropertyOp60
 70
     1
102
RTVSPropertyOp61
 70
     1
102
RTVSPropertyOp62
 70
     1
  0
XRECORD
  5
25E0
102
{ACAD_REACTORS
330
25DF
102
}
330
25DF
100
AcDbXrecord
280
     1
102
RTVSPost2010Prop28
280
     0
102
RTVSPost2010PropOp28
 70
     1
102
RTVSPost2010Prop29
280
     1
102
RTVSPost2010PropOp29
 70
     1
102
RTVSPost2010Prop30
280
     1
102
RTVSPost2010PropOp30
 70
     1
102
RTVSPost2010Prop31
280
     0
102
RTVSPost2010PropOp31
 70
     1
102
RTVSPost2010Prop32
280
     0
102
RTVSPost2010PropOp32
 70
     1
102
RTVSPost2010Prop33
280
     0
102
RTVSPost2010PropOp33
 70
     1
102
RTVSPost2010Prop34
280
     0
102
RTVSPost2010PropOp34
 70
     1
102
RTVSPost2010Prop35
280
     0
102
RTVSPost2010PropOp35
 70
     1
102
RTVSPost2010Prop36
280
     0
102
RTVSPost2010PropOp36
 70
     1
102
RTVSPost2010Prop37
 90
       50
102
RTVSPost2010PropOp37
 70
     1
102
RTVSPost2010Prop38
140
0.0
102
RTVSPost2010PropOp38
 70
     1
102
RTVSPost2010Prop39
140
1.0
102
RTVSPost2010PropOp39
 70
     1
102
RTVSPost2010Prop40
 90
        0
102
RTVSPost2010PropOp40
 70
     1
102
RTVSPost2010Prop41ColorIndex
 90
       18
102
RTVSPost2010Prop41ColorRGB
 90
        0
102
RTVSPost2010PropOp41
 70
     1
102
RTVSPost2010Prop42
 90
       50
102
RTVSPost2010PropOp42
 70
     1
102
RTVSPost2010Prop43
 90
        3
102
RTVSPost2010PropOp43
 70
     1
102
RTVSPost2010Prop44ColorIndex
 90
        5
102
RTVSPost2010Prop44ColorRGB
 90
      255
102
RTVSPost2010PropOp44
 70
     1
102
RTVSPost2010Prop45
280
     0
102
RTVSPost2010PropOp45
 70
     1
102
RTVSPost2010Prop46
 90
       50
102
RTVSPost2010PropOp46
 70
     1
102
RTVSPost2010Prop47
 90
       50
102
RTVSPost2010PropOp47
 70
     1
102
RTVSPost2010Prop48
 90
       50
102
RTVSPost2010PropOp48
 70
     1
102
RTVSPost2010Prop49
280
     0
102
RTVSPost2010PropOp49
 70
     1
102
RTVSPost2010Prop50
 90
       50
102
RTVSPost2010PropOp50
 70
     1
102
RTVSPost2010Prop51ColorIndex
 90
      256
102
RTVSPost2010Prop51ColorRGB
 90
-16777216
102
RTVSPost2010PropOp51
 70
     0
102
RTVSPost2010Prop52
140
1.0
102
RTVSPost2010PropOp52
 70
     0
102
RTVSPost2010Prop53
 90
        2
102
RTVSPost2010PropOp53
 70
     1
102
RTVSPost2010Prop54
  1
strokes_ogs.tif
102
RTVSPost2010PropOp54
 70
     1
102
RTVSPost2010Prop55
280
     0
102
RTVSPost2010PropOp55
 70
     1
102
RTVSPost2010Prop56
140
1.0
102
RTVSPost2010PropOp56
 70
     1
102
RTVSPost2010Prop57
140
1.0
102
RTVSPost2010PropOp57
 70
     1
102
RTVSPropertyOp0
 70
     1
102
RTVSPropertyOp1
 70
     1
102
RTVSPropertyOp2
 70
     1
102
RTVSPropertyOp3
 70
     1
102
RTVSPropertyOp4
 70
     1
102
RTVSPropertyOp5
 70
     1
102
RTVSPropertyOp6
 70
     1
102
RTVSPropertyOp7
 70
     1
102
RTVSPropertyOp8
 70
     1
102
RTVSPropertyOp9
 70
     1
102
RTVSPropertyOp10
 70
     1
102
RTVSPropertyOp11
 70
     1
102
RTVSPropertyOp12
 70
     1
102
RTVSPropertyOp13
 70
     1
102
RTVSPropertyOp14
 70
     1
102
RTVSPropertyOp15
 70
     1
102
RTVSPropertyOp16
 70
     1
102
RTVSPropertyOp17
 70
     1
102
RTVSPropertyOp18
 70
     1
102
RTVSPropertyOp19
 70
     1
102
RTVSPropertyOp20
 70
     1
102
RTVSPropertyOp21
 70
     1
102
RTVSPropertyOp22
 70
     1
102
RTVSPropertyOp23
 70
     1
102
RTVSPropertyOp24
 70
     1
102
RTVSPropertyOp25
 70
     1
102
RTVSPropertyOp26
 70
     1
102
RTVSPropertyOp27
 70
     1
102
RTVSPropertyOp28
 70
     1
102
RTVSPropertyOp29
 70
     1
102
RTVSPropertyOp30
 70
     1
102
RTVSPropertyOp31
 70
     1
102
RTVSPropertyOp32
 70
     1
102
RTVSPropertyOp33
 70
     1
102
RTVSPropertyOp34
 70
     1
102
RTVSPropertyOp35
 70
     1
102
RTVSPropertyOp36
 70
     1
102
RTVSPropertyOp37
 70
     1
102
RTVSPropertyOp38
 70
     1
102
RTVSPropertyOp39
 70
     1
102
RTVSPropertyOp40
 70
     1
102
RTVSPropertyOp41
 70
     1
102
RTVSPropertyOp42
 70
     1
102
RTVSPropertyOp43
 70
     1
102
RTVSPropertyOp44
 70
     1
102
RTVSPropertyOp45
 70
     1
102
RTVSPropertyOp46
 70
     1
102
RTVSPropertyOp47
 70
     1
102
RTVSPropertyOp48
 70
     1
102
RTVSPropertyOp49
 70
     1
102
RTVSPropertyOp50
 70
     1
102
RTVSPropertyOp51
 70
     0
102
RTVSPropertyOp52
 70
     0
102
RTVSPropertyOp53
 70
     1
102
RTVSPropertyOp54
 70
     1
102
RTVSPropertyOp55
 70
     1
102
RTVSPropertyOp56
 70
     1
102
RTVSPropertyOp57
 70
     1
102
RTVSPropertyOp58
 70
     1
102
RTVSPropertyOp59
 70
     1
102
RTVSPropertyOp60
 70
     1
102
RTVSPropertyOp61
 70
     1
102
RTVSPropertyOp62
 70
     1
  0
XRECORD
  5
25E2
102
{ACAD_REACTORS
330
25E1
102
}
330
25E1
100
AcDbXrecord
280
     1
102
RTVSPost2010Prop28
280
     0
102
RTVSPost2010PropOp28
 70
     1
102
RTVSPost2010Prop29
280
     1
102
RTVSPost2010PropOp29
 70
     1
102
RTVSPost2010Prop30
280
     1
102
RTVSPost2010PropOp30
 70
     1
102
RTVSPost2010Prop31
280
     0
102
RTVSPost2010PropOp31
 70
     1
102
RTVSPost2010Prop32
280
     0
102
RTVSPost2010PropOp32
 70
     1
102
RTVSPost2010Prop33
280
     0
102
RTVSPost2010PropOp33
 70
     1
102
RTVSPost2010Prop34
280
     0
102
RTVSPost2010PropOp34
 70
     1
102
RTVSPost2010Prop35
280
     0
102
RTVSPost2010PropOp35
 70
     1
102
RTVSPost2010Prop36
280
     0
102
RTVSPost2010PropOp36
 70
     1
102
RTVSPost2010Prop37
 90
       50
102
RTVSPost2010PropOp37
 70
     1
102
RTVSPost2010Prop38
140
0.0
102
RTVSPost2010PropOp38
 70
     1
102
RTVSPost2010Prop39
140
1.0
102
RTVSPost2010PropOp39
 70
     1
102
RTVSPost2010Prop40
 90
        0
102
RTVSPost2010PropOp40
 70
     1
102
RTVSPost2010Prop41ColorIndex
 90
       18
102
RTVSPost2010Prop41ColorRGB
 90
        0
102
RTVSPost2010PropOp41
 70
     1
102
RTVSPost2010Prop42
 90
       50
102
RTVSPost2010PropOp42
 70
     1
102
RTVSPost2010Prop43
 90
        3
102
RTVSPost2010PropOp43
 70
     1
102
RTVSPost2010Prop44ColorIndex
 90
        5
102
RTVSPost2010Prop44ColorRGB
 90
      255
102
RTVSPost2010PropOp44
 70
     1
102
RTVSPost2010Prop45
280
     0
102
RTVSPost2010PropOp45
 70
     1
102
RTVSPost2010Prop46
 90
       50
102
RTVSPost2010PropOp46
 70
     1
102
RTVSPost2010Prop47
 90
       50
102
RTVSPost2010PropOp47
 70
     1
102
RTVSPost2010Prop48
 90
       50
102
RTVSPost2010PropOp48
 70
     1
102
RTVSPost2010Prop49
280
     0
102
RTVSPost2010PropOp49
 70
     1
102
RTVSPost2010Prop50
 90
       50
102
RTVSPost2010PropOp50
 70
     1
102
RTVSPost2010Prop51ColorIndex
 90
      256
102
RTVSPost2010Prop51ColorRGB
 90
-16777216
102
RTVSPost2010PropOp51
 70
     0
102
RTVSPost2010Prop52
140
1.0
102
RTVSPost2010PropOp52
 70
     0
102
RTVSPost2010Prop53
 90
        2
102
RTVSPost2010PropOp53
 70
     1
102
RTVSPost2010Prop54
  1
strokes_ogs.tif
102
RTVSPost2010PropOp54
 70
     1
102
RTVSPost2010Prop55
280
     0
102
RTVSPost2010PropOp55
 70
     1
102
RTVSPost2010Prop56
140
1.0
102
RTVSPost2010PropOp56
 70
     1
102
RTVSPost2010Prop57
140
1.0
102
RTVSPost2010PropOp57
 70
     1
102
RTVSPropertyOp0
 70
     1
102
RTVSPropertyOp1
 70
     1
102
RTVSPropertyOp2
 70
     1
102
RTVSPropertyOp3
 70
     1
102
RTVSPropertyOp4
 70
     1
102
RTVSPropertyOp5
 70
     1
102
RTVSPropertyOp6
 70
     1
102
RTVSPropertyOp7
 70
     1
102
RTVSPropertyOp8
 70
     1
102
RTVSPropertyOp9
 70
     1
102
RTVSPropertyOp10
 70
     1
102
RTVSPropertyOp11
 70
     1
102
RTVSPropertyOp12
 70
     1
102
RTVSPropertyOp13
 70
     1
102
RTVSPropertyOp14
 70
     1
102
RTVSPropertyOp15
 70
     1
102
RTVSPropertyOp16
 70
     1
102
RTVSPropertyOp17
 70
     1
102
RTVSPropertyOp18
 70
     1
102
RTVSPropertyOp19
 70
     1
102
RTVSPropertyOp20
 70
     1
102
RTVSPropertyOp21
 70
     1
102
RTVSPropertyOp22
 70
     1
102
RTVSPropertyOp23
 70
     1
102
RTVSPropertyOp24
 70
     1
102
RTVSPropertyOp25
 70
     1
102
RTVSPropertyOp26
 70
     1
102
RTVSPropertyOp27
 70
     1
102
RTVSPropertyOp28
 70
     1
102
RTVSPropertyOp29
 70
     1
102
RTVSPropertyOp30
 70
     1
102
RTVSPropertyOp31
 70
     1
102
RTVSPropertyOp32
 70
     1
102
RTVSPropertyOp33
 70
     1
102
RTVSPropertyOp34
 70
     1
102
RTVSPropertyOp35
 70
     1
102
RTVSPropertyOp36
 70
     1
102
RTVSPropertyOp37
 70
     1
102
RTVSPropertyOp38
 70
     1
102
RTVSPropertyOp39
 70
     1
102
RTVSPropertyOp40
 70
     1
102
RTVSPropertyOp41
 70
     1
102
RTVSPropertyOp42
 70
     1
102
RTVSPropertyOp43
 70
     1
102
RTVSPropertyOp44
 70
     1
102
RTVSPropertyOp45
 70
     1
102
RTVSPropertyOp46
 70
     1
102
RTVSPropertyOp47
 70
     1
102
RTVSPropertyOp48
 70
     1
102
RTVSPropertyOp49
 70
     1
102
RTVSPropertyOp50
 70
     1
102
RTVSPropertyOp51
 70
     0
102
RTVSPropertyOp52
 70
     0
102
RTVSPropertyOp53
 70
     1
102
RTVSPropertyOp54
 70
     1
102
RTVSPropertyOp55
 70
     1
102
RTVSPropertyOp56
 70
     1
102
RTVSPropertyOp57
 70
     1
102
RTVSPropertyOp58
 70
     1
102
RTVSPropertyOp59
 70
     1
102
RTVSPropertyOp60
 70
     1
102
RTVSPropertyOp61
 70
     1
102
RTVSPropertyOp62
 70
     1
  0
XRECORD
  5
25EA
102
{ACAD_REACTORS
330
25E9
102
}
330
25E9
100
AcDbXrecord
280
     1
102
RTVSPost2010Prop28
280
     0
102
RTVSPost2010PropOp28
 70
     1
102
RTVSPost2010Prop29
280
     1
102
RTVSPost2010PropOp29
 70
     1
102
RTVSPost2010Prop30
280
     1
102
RTVSPost2010PropOp30
 70
     1
102
RTVSPost2010Prop31
280
     0
102
RTVSPost2010PropOp31
 70
     1
102
RTVSPost2010Prop32
280
     0
102
RTVSPost2010PropOp32
 70
     1
102
RTVSPost2010Prop33
280
     0
102
RTVSPost2010PropOp33
 70
     1
102
RTVSPost2010Prop34
280
     0
102
RTVSPost2010PropOp34
 70
     1
102
RTVSPost2010Prop35
280
     0
102
RTVSPost2010PropOp35
 70
     1
102
RTVSPost2010Prop36
280
     0
102
RTVSPost2010PropOp36
 70
     1
102
RTVSPost2010Prop37
 90
       50
102
RTVSPost2010PropOp37
 70
     1
102
RTVSPost2010Prop38
140
0.0
102
RTVSPost2010PropOp38
 70
     1
102
RTVSPost2010Prop39
140
1.0
102
RTVSPost2010PropOp39
 70
     1
102
RTVSPost2010Prop40
 90
        0
102
RTVSPost2010PropOp40
 70
     1
102
RTVSPost2010Prop41ColorIndex
 90
       18
102
RTVSPost2010Prop41ColorRGB
 90
        0
102
RTVSPost2010PropOp41
 70
     1
102
RTVSPost2010Prop42
 90
       50
102
RTVSPost2010PropOp42
 70
     1
102
RTVSPost2010Prop43
 90
        3
102
RTVSPost2010PropOp43
 70
     1
102
RTVSPost2010Prop44ColorIndex
 90
        5
102
RTVSPost2010Prop44ColorRGB
 90
      255
102
RTVSPost2010PropOp44
 70
     1
102
RTVSPost2010Prop45
280
     0
102
RTVSPost2010PropOp45
 70
     1
102
RTVSPost2010Prop46
 90
       50
102
RTVSPost2010PropOp46
 70
     1
102
RTVSPost2010Prop47
 90
       50
102
RTVSPost2010PropOp47
 70
     1
102
RTVSPost2010Prop48
 90
       50
102
RTVSPost2010PropOp48
 70
     1
102
RTVSPost2010Prop49
280
     0
102
RTVSPost2010PropOp49
 70
     1
102
RTVSPost2010Prop50
 90
       50
102
RTVSPost2010PropOp50
 70
     1
102
RTVSPost2010Prop51ColorIndex
 90
      256
102
RTVSPost2010Prop51ColorRGB
 90
-16777216
102
RTVSPost2010PropOp51
 70
     0
102
RTVSPost2010Prop52
140
1.0
102
RTVSPost2010PropOp52
 70
     0
102
RTVSPost2010Prop53
 90
        2
102
RTVSPost2010PropOp53
 70
     1
102
RTVSPost2010Prop54
  1
strokes_ogs.tif
102
RTVSPost2010PropOp54
 70
     1
102
RTVSPost2010Prop55
280
     0
102
RTVSPost2010PropOp55
 70
     1
102
RTVSPost2010Prop56
140
1.0
102
RTVSPost2010PropOp56
 70
     1
102
RTVSPost2010Prop57
140
1.0
102
RTVSPost2010PropOp57
 70
     1
102
RTVSPropertyOp0
 70
     1
102
RTVSPropertyOp1
 70
     1
102
RTVSPropertyOp2
 70
     1
102
RTVSPropertyOp3
 70
     1
102
RTVSPropertyOp4
 70
     1
102
RTVSPropertyOp5
 70
     1
102
RTVSPropertyOp6
 70
     1
102
RTVSPropertyOp7
 70
     1
102
RTVSPropertyOp8
 70
     1
102
RTVSPropertyOp9
 70
     1
102
RTVSPropertyOp10
 70
     1
102
RTVSPropertyOp11
 70
     1
102
RTVSPropertyOp12
 70
     1
102
RTVSPropertyOp13
 70
     1
102
RTVSPropertyOp14
 70
     1
102
RTVSPropertyOp15
 70
     1
102
RTVSPropertyOp16
 70
     1
102
RTVSPropertyOp17
 70
     1
102
RTVSPropertyOp18
 70
     1
102
RTVSPropertyOp19
 70
     1
102
RTVSPropertyOp20
 70
     1
102
RTVSPropertyOp21
 70
     1
102
RTVSPropertyOp22
 70
     1
102
RTVSPropertyOp23
 70
     1
102
RTVSPropertyOp24
 70
     1
102
RTVSPropertyOp25
 70
     1
102
RTVSPropertyOp26
 70
     1
102
RTVSPropertyOp27
 70
     1
102
RTVSPropertyOp28
 70
     1
102
RTVSPropertyOp29
 70
     1
102
RTVSPropertyOp30
 70
     1
102
RTVSPropertyOp31
 70
     1
102
RTVSPropertyOp32
 70
     1
102
RTVSPropertyOp33
 70
     1
102
RTVSPropertyOp34
 70
     1
102
RTVSPropertyOp35
 70
     1
102
RTVSPropertyOp36
 70
     1
102
RTVSPropertyOp37
 70
     1
102
RTVSPropertyOp38
 70
     1
102
RTVSPropertyOp39
 70
     1
102
RTVSPropertyOp40
 70
     1
102
RTVSPropertyOp41
 70
     1
102
RTVSPropertyOp42
 70
     1
102
RTVSPropertyOp43
 70
     1
102
RTVSPropertyOp44
 70
     1
102
RTVSPropertyOp45
 70
     1
102
RTVSPropertyOp46
 70
     1
102
RTVSPropertyOp47
 70
     1
102
RTVSPropertyOp48
 70
     1
102
RTVSPropertyOp49
 70
     1
102
RTVSPropertyOp50
 70
     1
102
RTVSPropertyOp51
 70
     0
102
RTVSPropertyOp52
 70
     0
102
RTVSPropertyOp53
 70
     1
102
RTVSPropertyOp54
 70
     1
102
RTVSPropertyOp55
 70
     1
102
RTVSPropertyOp56
 70
     1
102
RTVSPropertyOp57
 70
     1
102
RTVSPropertyOp58
 70
     1
102
RTVSPropertyOp59
 70
     1
102
RTVSPropertyOp60
 70
     1
102
RTVSPropertyOp61
 70
     1
102
RTVSPropertyOp62
 70
     1
  0
XRECORD
  5
2606
102
{ACAD_REACTORS
330
2605
102
}
330
2605
100
AcDbXrecord
280
     1
102
RTVSPost2010Prop28
280
     0
102
RTVSPost2010PropOp28
 70
     1
102
RTVSPost2010Prop29
280
     1
102
RTVSPost2010PropOp29
 70
     1
102
RTVSPost2010Prop30
280
     1
102
RTVSPost2010PropOp30
 70
     1
102
RTVSPost2010Prop31
280
     0
102
RTVSPost2010PropOp31
 70
     1
102
RTVSPost2010Prop32
280
     0
102
RTVSPost2010PropOp32
 70
     1
102
RTVSPost2010Prop33
280
     0
102
RTVSPost2010PropOp33
 70
     1
102
RTVSPost2010Prop34
280
     0
102
RTVSPost2010PropOp34
 70
     1
102
RTVSPost2010Prop35
280
     0
102
RTVSPost2010PropOp35
 70
     1
102
RTVSPost2010Prop36
280
     0
102
RTVSPost2010PropOp36
 70
     1
102
RTVSPost2010Prop37
 90
       50
102
RTVSPost2010PropOp37
 70
     0
102
RTVSPost2010Prop38
140
0.0
102
RTVSPost2010PropOp38
 70
     0
102
RTVSPost2010Prop39
140
1.0
102
RTVSPost2010PropOp39
 70
     0
102
RTVSPost2010Prop40
 90
        0
102
RTVSPost2010PropOp40
 70
     0
102
RTVSPost2010Prop41ColorIndex
 90
       18
102
RTVSPost2010Prop41ColorRGB
 90
        0
102
RTVSPost2010PropOp41
 70
     0
102
RTVSPost2010Prop42
 90
       50
102
RTVSPost2010PropOp42
 70
     0
102
RTVSPost2010Prop43
 90
        3
102
RTVSPost2010PropOp43
 70
     0
102
RTVSPost2010Prop44ColorIndex
 90
        5
102
RTVSPost2010Prop44ColorRGB
 90
      255
102
RTVSPost2010PropOp44
 70
     0
102
RTVSPost2010Prop45
280
     0
102
RTVSPost2010PropOp45
 70
     1
102
RTVSPost2010Prop46
 90
       50
102
RTVSPost2010PropOp46
 70
     0
102
RTVSPost2010Prop47
 90
       50
102
RTVSPost2010PropOp47
 70
     0
102
RTVSPost2010Prop48
 90
       50
102
RTVSPost2010PropOp48
 70
     0
102
RTVSPost2010Prop49
280
     0
102
RTVSPost2010PropOp49
 70
     1
102
RTVSPost2010Prop50
 90
       50
102
RTVSPost2010PropOp50
 70
     0
102
RTVSPost2010Prop51ColorIndex
 90
      256
102
RTVSPost2010Prop51ColorRGB
 90
-16777216
102
RTVSPost2010PropOp51
 70
     0
102
RTVSPost2010Prop52
140
1.0
102
RTVSPost2010PropOp52
 70
     0
102
RTVSPost2010Prop53
 90
        2
102
RTVSPost2010PropOp53
 70
     0
102
RTVSPost2010Prop54
  1
strokes_ogs.tif
102
RTVSPost2010PropOp54
 70
     0
102
RTVSPost2010Prop55
280
     0
102
RTVSPost2010PropOp55
 70
     1
102
RTVSPost2010Prop56
140
1.0
102
RTVSPost2010PropOp56
 70
     0
102
RTVSPost2010Prop57
140
1.0
102
RTVSPost2010PropOp57
 70
     0
102
RTVSPropertyOp0
 70
     0
102
RTVSPropertyOp1
 70
     0
102
RTVSPropertyOp2
 70
     0
102
RTVSPropertyOp3
 70
     0
102
RTVSPropertyOp4
 70
     0
102
RTVSPropertyOp5
 70
     0
102
RTVSPropertyOp6
 70
     0
102
RTVSPropertyOp7
 70
     0
102
RTVSPropertyOp8
 70
     0
102
RTVSPropertyOp9
 70
     0
102
RTVSPropertyOp10
 70
     0
102
RTVSPropertyOp11
 70
     0
102
RTVSPropertyOp12
 70
     0
102
RTVSPropertyOp13
 70
     0
102
RTVSPropertyOp14
 70
     2
102
RTVSPropertyOp15
 70
     0
102
RTVSPropertyOp16
 70
     0
102
RTVSPropertyOp17
 70
     0
102
RTVSPropertyOp18
 70
     0
102
RTVSPropertyOp19
 70
     0
102
RTVSPropertyOp20
 70
     0
102
RTVSPropertyOp21
 70
     0
102
RTVSPropertyOp22
 70
     0
102
RTVSPropertyOp23
 70
     0
102
RTVSPropertyOp24
 70
     0
102
RTVSPropertyOp25
 70
     0
102
RTVSPropertyOp26
 70
     0
102
RTVSPropertyOp27
 70
     0
102
RTVSPropertyOp28
 70
     1
102
RTVSPropertyOp29
 70
     1
102
RTVSPropertyOp30
 70
     1
102
RTVSPropertyOp31
 70
     1
102
RTVSPropertyOp32
 70
     1
102
RTVSPropertyOp33
 70
     1
102
RTVSPropertyOp34
 70
     1
102
RTVSPropertyOp35
 70
     1
102
RTVSPropertyOp36
 70
     1
102
RTVSPropertyOp37
 70
     0
102
RTVSPropertyOp38
 70
     0
102
RTVSPropertyOp39
 70
     0
102
RTVSPropertyOp40
 70
     0
102
RTVSPropertyOp41
 70
     0
102
RTVSPropertyOp42
 70
     0
102
RTVSPropertyOp43
 70
     0
102
RTVSPropertyOp44
 70
     0
102
RTVSPropertyOp45
 70
     1
102
RTVSPropertyOp46
 70
     0
102
RTVSPropertyOp47
 70
     0
102
RTVSPropertyOp48
 70
     0
102
RTVSPropertyOp49
 70
     1
102
RTVSPropertyOp50
 70
     0
102
RTVSPropertyOp51
 70
     0
102
RTVSPropertyOp52
 70
     0
102
RTVSPropertyOp53
 70
     0
102
RTVSPropertyOp54
 70
     0
102
RTVSPropertyOp55
 70
     1
102
RTVSPropertyOp56
 70
     0
102
RTVSPropertyOp57
 70
     0
102
RTVSPropertyOp58
 70
     0
102
RTVSPropertyOp59
 70
     0
102
RTVSPropertyOp60
 70
     0
102
RTVSPropertyOp61
 70
     0
102
RTVSPropertyOp62
 70
     0
  0
XRECORD
  5
25F6
102
{ACAD_REACTORS
330
25F5
102
}
330
25F5
100
AcDbXrecord
280
     1
102
RTVSPost2010Prop28
280
     0
102
RTVSPost2010PropOp28
 70
     1
102
RTVSPost2010Prop29
280
     1
102
RTVSPost2010PropOp29
 70
     1
102
RTVSPost2010Prop30
280
     1
102
RTVSPost2010PropOp30
 70
     1
102
RTVSPost2010Prop31
280
     0
102
RTVSPost2010PropOp31
 70
     1
102
RTVSPost2010Prop32
280
     0
102
RTVSPost2010PropOp32
 70
     1
102
RTVSPost2010Prop33
280
     0
102
RTVSPost2010PropOp33
 70
     1
102
RTVSPost2010Prop34
280
     0
102
RTVSPost2010PropOp34
 70
     1
102
RTVSPost2010Prop35
280
     0
102
RTVSPost2010PropOp35
 70
     1
102
RTVSPost2010Prop36
280
     0
102
RTVSPost2010PropOp36
 70
     1
102
RTVSPost2010Prop37
 90
       50
102
RTVSPost2010PropOp37
 70
     1
102
RTVSPost2010Prop38
140
0.0
102
RTVSPost2010PropOp38
 70
     1
102
RTVSPost2010Prop39
140
1.0
102
RTVSPost2010PropOp39
 70
     1
102
RTVSPost2010Prop40
 90
        0
102
RTVSPost2010PropOp40
 70
     1
102
RTVSPost2010Prop41ColorIndex
 90
       18
102
RTVSPost2010Prop41ColorRGB
 90
        0
102
RTVSPost2010PropOp41
 70
     1
102
RTVSPost2010Prop42
 90
       50
102
RTVSPost2010PropOp42
 70
     1
102
RTVSPost2010Prop43
 90
        3
102
RTVSPost2010PropOp43
 70
     1
102
RTVSPost2010Prop44ColorIndex
 90
        5
102
RTVSPost2010Prop44ColorRGB
 90
      255
102
RTVSPost2010PropOp44
 70
     1
102
RTVSPost2010Prop45
280
     0
102
RTVSPost2010PropOp45
 70
     1
102
RTVSPost2010Prop46
 90
       50
102
RTVSPost2010PropOp46
 70
     1
102
RTVSPost2010Prop47
 90
       50
102
RTVSPost2010PropOp47
 70
     1
102
RTVSPost2010Prop48
 90
       50
102
RTVSPost2010PropOp48
 70
     1
102
RTVSPost2010Prop49
280
     0
102
RTVSPost2010PropOp49
 70
     1
102
RTVSPost2010Prop50
 90
       50
102
RTVSPost2010PropOp50
 70
     1
102
RTVSPost2010Prop51ColorIndex
 90
      256
102
RTVSPost2010Prop51ColorRGB
 90
-16777216
102
RTVSPost2010PropOp51
 70
     0
102
RTVSPost2010Prop52
140
1.0
102
RTVSPost2010PropOp52
 70
     0
102
RTVSPost2010Prop53
 90
        2
102
RTVSPost2010PropOp53
 70
     1
102
RTVSPost2010Prop54
  1
strokes_ogs.tif
102
RTVSPost2010PropOp54
 70
     1
102
RTVSPost2010Prop55
280
     0
102
RTVSPost2010PropOp55
 70
     1
102
RTVSPost2010Prop56
140
1.0
102
RTVSPost2010PropOp56
 70
     1
102
RTVSPost2010Prop57
140
1.0
102
RTVSPost2010PropOp57
 70
     1
102
RTVSPropertyOp0
 70
     1
102
RTVSPropertyOp1
 70
     1
102
RTVSPropertyOp2
 70
     1
102
RTVSPropertyOp3
 70
     1
102
RTVSPropertyOp4
 70
     1
102
RTVSPropertyOp5
 70
     1
102
RTVSPropertyOp6
 70
     1
102
RTVSPropertyOp7
 70
     1
102
RTVSPropertyOp8
 70
     1
102
RTVSPropertyOp9
 70
     1
102
RTVSPropertyOp10
 70
     1
102
RTVSPropertyOp11
 70
     1
102
RTVSPropertyOp12
 70
     1
102
RTVSPropertyOp13
 70
     1
102
RTVSPropertyOp14
 70
     1
102
RTVSPropertyOp15
 70
     1
102
RTVSPropertyOp16
 70
     1
102
RTVSPropertyOp17
 70
     1
102
RTVSPropertyOp18
 70
     1
102
RTVSPropertyOp19
 70
     1
102
RTVSPropertyOp20
 70
     1
102
RTVSPropertyOp21
 70
     1
102
RTVSPropertyOp22
 70
     1
102
RTVSPropertyOp23
 70
     1
102
RTVSPropertyOp24
 70
     1
102
RTVSPropertyOp25
 70
     1
102
RTVSPropertyOp26
 70
     1
102
RTVSPropertyOp27
 70
     1
102
RTVSPropertyOp28
 70
     1
102
RTVSPropertyOp29
 70
     1
102
RTVSPropertyOp30
 70
     1
102
RTVSPropertyOp31
 70
     1
102
RTVSPropertyOp32
 70
     1
102
RTVSPropertyOp33
 70
     1
102
RTVSPropertyOp34
 70
     1
102
RTVSPropertyOp35
 70
     1
102
RTVSPropertyOp36
 70
     1
102
RTVSPropertyOp37
 70
     1
102
RTVSPropertyOp38
 70
     1
102
RTVSPropertyOp39
 70
     1
102
RTVSPropertyOp40
 70
     1
102
RTVSPropertyOp41
 70
     1
102
RTVSPropertyOp42
 70
     1
102
RTVSPropertyOp43
 70
     1
102
RTVSPropertyOp44
 70
     1
102
RTVSPropertyOp45
 70
     1
102
RTVSPropertyOp46
 70
     1
102
RTVSPropertyOp47
 70
     1
102
RTVSPropertyOp48
 70
     1
102
RTVSPropertyOp49
 70
     1
102
RTVSPropertyOp50
 70
     1
102
RTVSPropertyOp51
 70
     0
102
RTVSPropertyOp52
 70
     0
102
RTVSPropertyOp53
 70
     1
102
RTVSPropertyOp54
 70
     1
102
RTVSPropertyOp55
 70
     1
102
RTVSPropertyOp56
 70
     1
102
RTVSPropertyOp57
 70
     1
102
RTVSPropertyOp58
 70
     1
102
RTVSPropertyOp59
 70
     1
102
RTVSPropertyOp60
 70
     1
102
RTVSPropertyOp61
 70
     1
102
RTVSPropertyOp62
 70
     1
  0
XRECORD
  5
2608
102
{ACAD_REACTORS
330
2607
102
}
330
2607
100
AcDbXrecord
280
     1
102
RTVSPost2010Prop28
280
     0
102
RTVSPost2010PropOp28
 70
     1
102
RTVSPost2010Prop29
280
     1
102
RTVSPost2010PropOp29
 70
     1
102
RTVSPost2010Prop30
280
     1
102
RTVSPost2010PropOp30
 70
     1
102
RTVSPost2010Prop31
280
     0
102
RTVSPost2010PropOp31
 70
     1
102
RTVSPost2010Prop32
280
     0
102
RTVSPost2010PropOp32
 70
     1
102
RTVSPost2010Prop33
280
     0
102
RTVSPost2010PropOp33
 70
     1
102
RTVSPost2010Prop34
280
     0
102
RTVSPost2010PropOp34
 70
     1
102
RTVSPost2010Prop35
280
     0
102
RTVSPost2010PropOp35
 70
     1
102
RTVSPost2010Prop36
280
     0
102
RTVSPost2010PropOp36
 70
     1
102
RTVSPost2010Prop37
 90
       50
102
RTVSPost2010PropOp37
 70
     0
102
RTVSPost2010Prop38
140
0.0
102
RTVSPost2010PropOp38
 70
     0
102
RTVSPost2010Prop39
140
1.0
102
RTVSPost2010PropOp39
 70
     0
102
RTVSPost2010Prop40
 90
        0
102
RTVSPost2010PropOp40
 70
     0
102
RTVSPost2010Prop41ColorIndex
 90
       18
102
RTVSPost2010Prop41ColorRGB
 90
        0
102
RTVSPost2010PropOp41
 70
     0
102
RTVSPost2010Prop42
 90
       50
102
RTVSPost2010PropOp42
 70
     0
102
RTVSPost2010Prop43
 90
        3
102
RTVSPost2010PropOp43
 70
     0
102
RTVSPost2010Prop44ColorIndex
 90
        5
102
RTVSPost2010Prop44ColorRGB
 90
      255
102
RTVSPost2010PropOp44
 70
     0
102
RTVSPost2010Prop45
280
     0
102
RTVSPost2010PropOp45
 70
     1
102
RTVSPost2010Prop46
 90
       50
102
RTVSPost2010PropOp46
 70
     0
102
RTVSPost2010Prop47
 90
       50
102
RTVSPost2010PropOp47
 70
     0
102
RTVSPost2010Prop48
 90
       50
102
RTVSPost2010PropOp48
 70
     0
102
RTVSPost2010Prop49
280
     0
102
RTVSPost2010PropOp49
 70
     1
102
RTVSPost2010Prop50
 90
       50
102
RTVSPost2010PropOp50
 70
     0
102
RTVSPost2010Prop51ColorIndex
 90
      256
102
RTVSPost2010Prop51ColorRGB
 90
-16777216
102
RTVSPost2010PropOp51
 70
     0
102
RTVSPost2010Prop52
140
1.0
102
RTVSPost2010PropOp52
 70
     0
102
RTVSPost2010Prop53
 90
        2
102
RTVSPost2010PropOp53
 70
     0
102
RTVSPost2010Prop54
  1
strokes_ogs.tif
102
RTVSPost2010PropOp54
 70
     0
102
RTVSPost2010Prop55
280
     0
102
RTVSPost2010PropOp55
 70
     1
102
RTVSPost2010Prop56
140
1.0
102
RTVSPost2010PropOp56
 70
     0
102
RTVSPost2010Prop57
140
1.0
102
RTVSPost2010PropOp57
 70
     0
102
RTVSPropertyOp0
 70
     0
102
RTVSPropertyOp1
 70
     0
102
RTVSPropertyOp2
 70
     0
102
RTVSPropertyOp3
 70
     0
102
RTVSPropertyOp4
 70
     0
102
RTVSPropertyOp5
 70
     0
102
RTVSPropertyOp6
 70
     0
102
RTVSPropertyOp7
 70
     0
102
RTVSPropertyOp8
 70
     0
102
RTVSPropertyOp9
 70
     0
102
RTVSPropertyOp10
 70
     0
102
RTVSPropertyOp11
 70
     0
102
RTVSPropertyOp12
 70
     0
102
RTVSPropertyOp13
 70
     0
102
RTVSPropertyOp14
 70
     2
102
RTVSPropertyOp15
 70
     0
102
RTVSPropertyOp16
 70
     0
102
RTVSPropertyOp17
 70
     0
102
RTVSPropertyOp18
 70
     0
102
RTVSPropertyOp19
 70
     0
102
RTVSPropertyOp20
 70
     0
102
RTVSPropertyOp21
 70
     0
102
RTVSPropertyOp22
 70
     0
102
RTVSPropertyOp23
 70
     0
102
RTVSPropertyOp24
 70
     0
102
RTVSPropertyOp25
 70
     0
102
RTVSPropertyOp26
 70
     0
102
RTVSPropertyOp27
 70
     0
102
RTVSPropertyOp28
 70
     1
102
RTVSPropertyOp29
 70
     1
102
RTVSPropertyOp30
 70
     1
102
RTVSPropertyOp31
 70
     1
102
RTVSPropertyOp32
 70
     1
102
RTVSPropertyOp33
 70
     1
102
RTVSPropertyOp34
 70
     1
102
RTVSPropertyOp35
 70
     1
102
RTVSPropertyOp36
 70
     1
102
RTVSPropertyOp37
 70
     0
102
RTVSPropertyOp38
 70
     0
102
RTVSPropertyOp39
 70
     0
102
RTVSPropertyOp40
 70
     0
102
RTVSPropertyOp41
 70
     0
102
RTVSPropertyOp42
 70
     0
102
RTVSPropertyOp43
 70
     0
102
RTVSPropertyOp44
 70
     0
102
RTVSPropertyOp45
 70
     1
102
RTVSPropertyOp46
 70
     0
102
RTVSPropertyOp47
 70
     0
102
RTVSPropertyOp48
 70
     0
102
RTVSPropertyOp49
 70
     1
102
RTVSPropertyOp50
 70
     0
102
RTVSPropertyOp51
 70
     0
102
RTVSPropertyOp52
 70
     0
102
RTVSPropertyOp53
 70
     0
102
RTVSPropertyOp54
 70
     0
102
RTVSPropertyOp55
 70
     1
102
RTVSPropertyOp56
 70
     0
102
RTVSPropertyOp57
 70
     0
102
RTVSPropertyOp58
 70
     0
102
RTVSPropertyOp59
 70
     0
102
RTVSPropertyOp60
 70
     0
102
RTVSPropertyOp61
 70
     0
102
RTVSPropertyOp62
 70
     0
  0
XRECORD
  5
25EE
102
{ACAD_REACTORS
330
25ED
102
}
330
25ED
100
AcDbXrecord
280
     1
102
RTVSPost2010Prop28
280
     0
102
RTVSPost2010PropOp28
 70
     1
102
RTVSPost2010Prop29
280
     1
102
RTVSPost2010PropOp29
 70
     1
102
RTVSPost2010Prop30
280
     1
102
RTVSPost2010PropOp30
 70
     1
102
RTVSPost2010Prop31
280
     0
102
RTVSPost2010PropOp31
 70
     1
102
RTVSPost2010Prop32
280
     0
102
RTVSPost2010PropOp32
 70
     1
102
RTVSPost2010Prop33
280
     0
102
RTVSPost2010PropOp33
 70
     1
102
RTVSPost2010Prop34
280
     0
102
RTVSPost2010PropOp34
 70
     1
102
RTVSPost2010Prop35
280
     0
102
RTVSPost2010PropOp35
 70
     1
102
RTVSPost2010Prop36
280
     0
102
RTVSPost2010PropOp36
 70
     1
102
RTVSPost2010Prop37
 90
       50
102
RTVSPost2010PropOp37
 70
     1
102
RTVSPost2010Prop38
140
0.0
102
RTVSPost2010PropOp38
 70
     1
102
RTVSPost2010Prop39
140
1.0
102
RTVSPost2010PropOp39
 70
     1
102
RTVSPost2010Prop40
 90
        0
102
RTVSPost2010PropOp40
 70
     1
102
RTVSPost2010Prop41ColorIndex
 90
       18
102
RTVSPost2010Prop41ColorRGB
 90
        0
102
RTVSPost2010PropOp41
 70
     1
102
RTVSPost2010Prop42
 90
       50
102
RTVSPost2010PropOp42
 70
     1
102
RTVSPost2010Prop43
 90
        3
102
RTVSPost2010PropOp43
 70
     1
102
RTVSPost2010Prop44ColorIndex
 90
        5
102
RTVSPost2010Prop44ColorRGB
 90
      255
102
RTVSPost2010PropOp44
 70
     1
102
RTVSPost2010Prop45
280
     0
102
RTVSPost2010PropOp45
 70
     1
102
RTVSPost2010Prop46
 90
       50
102
RTVSPost2010PropOp46
 70
     1
102
RTVSPost2010Prop47
 90
       50
102
RTVSPost2010PropOp47
 70
     1
102
RTVSPost2010Prop48
 90
       50
102
RTVSPost2010PropOp48
 70
     1
102
RTVSPost2010Prop49
280
     0
102
RTVSPost2010PropOp49
 70
     1
102
RTVSPost2010Prop50
 90
       50
102
RTVSPost2010PropOp50
 70
     1
102
RTVSPost2010Prop51ColorIndex
 90
      256
102
RTVSPost2010Prop51ColorRGB
 90
-16777216
102
RTVSPost2010PropOp51
 70
     0
102
RTVSPost2010Prop52
140
1.0
102
RTVSPost2010PropOp52
 70
     0
102
RTVSPost2010Prop53
 90
        2
102
RTVSPost2010PropOp53
 70
     1
102
RTVSPost2010Prop54
  1
strokes_ogs.tif
102
RTVSPost2010PropOp54
 70
     1
102
RTVSPost2010Prop55
280
     0
102
RTVSPost2010PropOp55
 70
     1
102
RTVSPost2010Prop56
140
1.0
102
RTVSPost2010PropOp56
 70
     1
102
RTVSPost2010Prop57
140
1.0
102
RTVSPost2010PropOp57
 70
     1
102
RTVSPropertyOp0
 70
     1
102
RTVSPropertyOp1
 70
     1
102
RTVSPropertyOp2
 70
     1
102
RTVSPropertyOp3
 70
     1
102
RTVSPropertyOp4
 70
     1
102
RTVSPropertyOp5
 70
     1
102
RTVSPropertyOp6
 70
     1
102
RTVSPropertyOp7
 70
     1
102
RTVSPropertyOp8
 70
     1
102
RTVSPropertyOp9
 70
     1
102
RTVSPropertyOp10
 70
     1
102
RTVSPropertyOp11
 70
     1
102
RTVSPropertyOp12
 70
     1
102
RTVSPropertyOp13
 70
     1
102
RTVSPropertyOp14
 70
     1
102
RTVSPropertyOp15
 70
     1
102
RTVSPropertyOp16
 70
     1
102
RTVSPropertyOp17
 70
     1
102
RTVSPropertyOp18
 70
     1
102
RTVSPropertyOp19
 70
     1
102
RTVSPropertyOp20
 70
     1
102
RTVSPropertyOp21
 70
     1
102
RTVSPropertyOp22
 70
     1
102
RTVSPropertyOp23
 70
     1
102
RTVSPropertyOp24
 70
     1
102
RTVSPropertyOp25
 70
     1
102
RTVSPropertyOp26
 70
     1
102
RTVSPropertyOp27
 70
     1
102
RTVSPropertyOp28
 70
     1
102
RTVSPropertyOp29
 70
     1
102
RTVSPropertyOp30
 70
     1
102
RTVSPropertyOp31
 70
     1
102
RTVSPropertyOp32
 70
     1
102
RTVSPropertyOp33
 70
     1
102
RTVSPropertyOp34
 70
     1
102
RTVSPropertyOp35
 70
     1
102
RTVSPropertyOp36
 70
     1
102
RTVSPropertyOp37
 70
     1
102
RTVSPropertyOp38
 70
     1
102
RTVSPropertyOp39
 70
     1
102
RTVSPropertyOp40
 70
     1
102
RTVSPropertyOp41
 70
     1
102
RTVSPropertyOp42
 70
     1
102
RTVSPropertyOp43
 70
     1
102
RTVSPropertyOp44
 70
     1
102
RTVSPropertyOp45
 70
     1
102
RTVSPropertyOp46
 70
     1
102
RTVSPropertyOp47
 70
     1
102
RTVSPropertyOp48
 70
     1
102
RTVSPropertyOp49
 70
     1
102
RTVSPropertyOp50
 70
     1
102
RTVSPropertyOp51
 70
     0
102
RTVSPropertyOp52
 70
     0
102
RTVSPropertyOp53
 70
     1
102
RTVSPropertyOp54
 70
     1
102
RTVSPropertyOp55
 70
     1
102
RTVSPropertyOp56
 70
     1
102
RTVSPropertyOp57
 70
     1
102
RTVSPropertyOp58
 70
     1
102
RTVSPropertyOp59
 70
     1
102
RTVSPropertyOp60
 70
     1
102
RTVSPropertyOp61
 70
     1
102
RTVSPropertyOp62
 70
     1
  0
XRECORD
  5
2604
102
{ACAD_REACTORS
330
2603
102
}
330
2603
100
AcDbXrecord
280
     1
102
RTVSPost2010Prop28
280
     0
102
RTVSPost2010PropOp28
 70
     1
102
RTVSPost2010Prop29
280
     1
102
RTVSPost2010PropOp29
 70
     1
102
RTVSPost2010Prop30
280
     1
102
RTVSPost2010PropOp30
 70
     1
102
RTVSPost2010Prop31
280
     0
102
RTVSPost2010PropOp31
 70
     1
102
RTVSPost2010Prop32
280
     0
102
RTVSPost2010PropOp32
 70
     1
102
RTVSPost2010Prop33
280
     0
102
RTVSPost2010PropOp33
 70
     1
102
RTVSPost2010Prop34
280
     0
102
RTVSPost2010PropOp34
 70
     1
102
RTVSPost2010Prop35
280
     0
102
RTVSPost2010PropOp35
 70
     1
102
RTVSPost2010Prop36
280
     0
102
RTVSPost2010PropOp36
 70
     1
102
RTVSPost2010Prop37
 90
       50
102
RTVSPost2010PropOp37
 70
     1
102
RTVSPost2010Prop38
140
0.0
102
RTVSPost2010PropOp38
 70
     1
102
RTVSPost2010Prop39
140
1.0
102
RTVSPost2010PropOp39
 70
     1
102
RTVSPost2010Prop40
 90
        0
102
RTVSPost2010PropOp40
 70
     1
102
RTVSPost2010Prop41ColorIndex
 90
       18
102
RTVSPost2010Prop41ColorRGB
 90
        0
102
RTVSPost2010PropOp41
 70
     1
102
RTVSPost2010Prop42
 90
       50
102
RTVSPost2010PropOp42
 70
     1
102
RTVSPost2010Prop43
 90
        3
102
RTVSPost2010PropOp43
 70
     1
102
RTVSPost2010Prop44ColorIndex
 90
        5
102
RTVSPost2010Prop44ColorRGB
 90
      255
102
RTVSPost2010PropOp44
 70
     1
102
RTVSPost2010Prop45
280
     0
102
RTVSPost2010PropOp45
 70
     1
102
RTVSPost2010Prop46
 90
       50
102
RTVSPost2010PropOp46
 70
     1
102
RTVSPost2010Prop47
 90
       50
102
RTVSPost2010PropOp47
 70
     1
102
RTVSPost2010Prop48
 90
       50
102
RTVSPost2010PropOp48
 70
     1
102
RTVSPost2010Prop49
280
     0
102
RTVSPost2010PropOp49
 70
     1
102
RTVSPost2010Prop50
 90
       50
102
RTVSPost2010PropOp50
 70
     1
102
RTVSPost2010Prop51ColorIndex
 90
      256
102
RTVSPost2010Prop51ColorRGB
 90
-16777216
102
RTVSPost2010PropOp51
 70
     0
102
RTVSPost2010Prop52
140
1.0
102
RTVSPost2010PropOp52
 70
     0
102
RTVSPost2010Prop53
 90
        2
102
RTVSPost2010PropOp53
 70
     1
102
RTVSPost2010Prop54
  1
strokes_ogs.tif
102
RTVSPost2010PropOp54
 70
     1
102
RTVSPost2010Prop55
280
     0
102
RTVSPost2010PropOp55
 70
     1
102
RTVSPost2010Prop56
140
1.0
102
RTVSPost2010PropOp56
 70
     1
102
RTVSPost2010Prop57
140
1.0
102
RTVSPost2010PropOp57
 70
     1
102
RTVSPropertyOp0
 70
     1
102
RTVSPropertyOp1
 70
     1
102
RTVSPropertyOp2
 70
     1
102
RTVSPropertyOp3
 70
     1
102
RTVSPropertyOp4
 70
     1
102
RTVSPropertyOp5
 70
     1
102
RTVSPropertyOp6
 70
     1
102
RTVSPropertyOp7
 70
     1
102
RTVSPropertyOp8
 70
     1
102
RTVSPropertyOp9
 70
     1
102
RTVSPropertyOp10
 70
     1
102
RTVSPropertyOp11
 70
     1
102
RTVSPropertyOp12
 70
     1
102
RTVSPropertyOp13
 70
     1
102
RTVSPropertyOp14
 70
     1
102
RTVSPropertyOp15
 70
     1
102
RTVSPropertyOp16
 70
     1
102
RTVSPropertyOp17
 70
     1
102
RTVSPropertyOp18
 70
     1
102
RTVSPropertyOp19
 70
     1
102
RTVSPropertyOp20
 70
     1
102
RTVSPropertyOp21
 70
     1
102
RTVSPropertyOp22
 70
     1
102
RTVSPropertyOp23
 70
     1
102
RTVSPropertyOp24
 70
     1
102
RTVSPropertyOp25
 70
     1
102
RTVSPropertyOp26
 70
     1
102
RTVSPropertyOp27
 70
     1
102
RTVSPropertyOp28
 70
     1
102
RTVSPropertyOp29
 70
     1
102
RTVSPropertyOp30
 70
     1
102
RTVSPropertyOp31
 70
     1
102
RTVSPropertyOp32
 70
     1
102
RTVSPropertyOp33
 70
     1
102
RTVSPropertyOp34
 70
     1
102
RTVSPropertyOp35
 70
     1
102
RTVSPropertyOp36
 70
     1
102
RTVSPropertyOp37
 70
     1
102
RTVSPropertyOp38
 70
     1
102
RTVSPropertyOp39
 70
     1
102
RTVSPropertyOp40
 70
     1
102
RTVSPropertyOp41
 70
     1
102
RTVSPropertyOp42
 70
     1
102
RTVSPropertyOp43
 70
     1
102
RTVSPropertyOp44
 70
     1
102
RTVSPropertyOp45
 70
     1
102
RTVSPropertyOp46
 70
     1
102
RTVSPropertyOp47
 70
     1
102
RTVSPropertyOp48
 70
     1
102
RTVSPropertyOp49
 70
     1
102
RTVSPropertyOp50
 70
     1
102
RTVSPropertyOp51
 70
     0
102
RTVSPropertyOp52
 70
     0
102
RTVSPropertyOp53
 70
     1
102
RTVSPropertyOp54
 70
     1
102
RTVSPropertyOp55
 70
     1
102
RTVSPropertyOp56
 70
     1
102
RTVSPropertyOp57
 70
     1
102
RTVSPropertyOp58
 70
     1
102
RTVSPropertyOp59
 70
     1
102
RTVSPropertyOp60
 70
     1
102
RTVSPropertyOp61
 70
     1
102
RTVSPropertyOp62
 70
     1
  0
XRECORD
  5
2602
102
{ACAD_REACTORS
330
2601
102
}
330
2601
100
AcDbXrecord
280
     1
102
RTVSPost2010Prop28
280
     0
102
RTVSPost2010PropOp28
 70
     1
102
RTVSPost2010Prop29
280
     1
102
RTVSPost2010PropOp29
 70
     1
102
RTVSPost2010Prop30
280
     1
102
RTVSPost2010PropOp30
 70
     1
102
RTVSPost2010Prop31
280
     0
102
RTVSPost2010PropOp31
 70
     1
102
RTVSPost2010Prop32
280
     0
102
RTVSPost2010PropOp32
 70
     1
102
RTVSPost2010Prop33
280
     0
102
RTVSPost2010PropOp33
 70
     1
102
RTVSPost2010Prop34
280
     0
102
RTVSPost2010PropOp34
 70
     1
102
RTVSPost2010Prop35
280
     0
102
RTVSPost2010PropOp35
 70
     1
102
RTVSPost2010Prop36
280
     0
102
RTVSPost2010PropOp36
 70
     1
102
RTVSPost2010Prop37
 90
       50
102
RTVSPost2010PropOp37
 70
     1
102
RTVSPost2010Prop38
140
0.0
102
RTVSPost2010PropOp38
 70
     1
102
RTVSPost2010Prop39
140
1.0
102
RTVSPost2010PropOp39
 70
     1
102
RTVSPost2010Prop40
 90
        0
102
RTVSPost2010PropOp40
 70
     1
102
RTVSPost2010Prop41ColorIndex
 90
       18
102
RTVSPost2010Prop41ColorRGB
 90
        0
102
RTVSPost2010PropOp41
 70
     1
102
RTVSPost2010Prop42
 90
       50
102
RTVSPost2010PropOp42
 70
     1
102
RTVSPost2010Prop43
 90
        3
102
RTVSPost2010PropOp43
 70
     1
102
RTVSPost2010Prop44ColorIndex
 90
        5
102
RTVSPost2010Prop44ColorRGB
 90
      255
102
RTVSPost2010PropOp44
 70
     1
102
RTVSPost2010Prop45
280
     0
102
RTVSPost2010PropOp45
 70
     1
102
RTVSPost2010Prop46
 90
       50
102
RTVSPost2010PropOp46
 70
     1
102
RTVSPost2010Prop47
 90
       50
102
RTVSPost2010PropOp47
 70
     1
102
RTVSPost2010Prop48
 90
       50
102
RTVSPost2010PropOp48
 70
     1
102
RTVSPost2010Prop49
280
     0
102
RTVSPost2010PropOp49
 70
     1
102
RTVSPost2010Prop50
 90
       50
102
RTVSPost2010PropOp50
 70
     1
102
RTVSPost2010Prop51ColorIndex
 90
      256
102
RTVSPost2010Prop51ColorRGB
 90
-16777216
102
RTVSPost2010PropOp51
 70
     0
102
RTVSPost2010Prop52
140
1.0
102
RTVSPost2010PropOp52
 70
     0
102
RTVSPost2010Prop53
 90
        2
102
RTVSPost2010PropOp53
 70
     1
102
RTVSPost2010Prop54
  1
strokes_ogs.tif
102
RTVSPost2010PropOp54
 70
     1
102
RTVSPost2010Prop55
280
     0
102
RTVSPost2010PropOp55
 70
     1
102
RTVSPost2010Prop56
140
1.0
102
RTVSPost2010PropOp56
 70
     1
102
RTVSPost2010Prop57
140
1.0
102
RTVSPost2010PropOp57
 70
     1
102
RTVSPropertyOp0
 70
     1
102
RTVSPropertyOp1
 70
     1
102
RTVSPropertyOp2
 70
     1
102
RTVSPropertyOp3
 70
     1
102
RTVSPropertyOp4
 70
     1
102
RTVSPropertyOp5
 70
     1
102
RTVSPropertyOp6
 70
     1
102
RTVSPropertyOp7
 70
     1
102
RTVSPropertyOp8
 70
     1
102
RTVSPropertyOp9
 70
     1
102
RTVSPropertyOp10
 70
     1
102
RTVSPropertyOp11
 70
     1
102
RTVSPropertyOp12
 70
     1
102
RTVSPropertyOp13
 70
     1
102
RTVSPropertyOp14
 70
     1
102
RTVSPropertyOp15
 70
     1
102
RTVSPropertyOp16
 70
     1
102
RTVSPropertyOp17
 70
     1
102
RTVSPropertyOp18
 70
     1
102
RTVSPropertyOp19
 70
     1
102
RTVSPropertyOp20
 70
     1
102
RTVSPropertyOp21
 70
     1
102
RTVSPropertyOp22
 70
     1
102
RTVSPropertyOp23
 70
     1
102
RTVSPropertyOp24
 70
     1
102
RTVSPropertyOp25
 70
     1
102
RTVSPropertyOp26
 70
     1
102
RTVSPropertyOp27
 70
     1
102
RTVSPropertyOp28
 70
     1
102
RTVSPropertyOp29
 70
     1
102
RTVSPropertyOp30
 70
     1
102
RTVSPropertyOp31
 70
     1
102
RTVSPropertyOp32
 70
     1
102
RTVSPropertyOp33
 70
     1
102
RTVSPropertyOp34
 70
     1
102
RTVSPropertyOp35
 70
     1
102
RTVSPropertyOp36
 70
     1
102
RTVSPropertyOp37
 70
     1
102
RTVSPropertyOp38
 70
     1
102
RTVSPropertyOp39
 70
     1
102
RTVSPropertyOp40
 70
     1
102
RTVSPropertyOp41
 70
     1
102
RTVSPropertyOp42
 70
     1
102
RTVSPropertyOp43
 70
     1
102
RTVSPropertyOp44
 70
     1
102
RTVSPropertyOp45
 70
     1
102
RTVSPropertyOp46
 70
     1
102
RTVSPropertyOp47
 70
     1
102
RTVSPropertyOp48
 70
     1
102
RTVSPropertyOp49
 70
     1
102
RTVSPropertyOp50
 70
     1
102
RTVSPropertyOp51
 70
     0
102
RTVSPropertyOp52
 70
     0
102
RTVSPropertyOp53
 70
     1
102
RTVSPropertyOp54
 70
     1
102
RTVSPropertyOp55
 70
     1
102
RTVSPropertyOp56
 70
     1
102
RTVSPropertyOp57
 70
     1
102
RTVSPropertyOp58
 70
     1
102
RTVSPropertyOp59
 70
     1
102
RTVSPropertyOp60
 70
     1
102
RTVSPropertyOp61
 70
     1
102
RTVSPropertyOp62
 70
     1
  0
XRECORD
  5
25FC
102
{ACAD_REACTORS
330
25FB
102
}
330
25FB
100
AcDbXrecord
280
     1
102
RTVSPost2010Prop28
280
     0
102
RTVSPost2010PropOp28
 70
     1
102
RTVSPost2010Prop29
280
     1
102
RTVSPost2010PropOp29
 70
     1
102
RTVSPost2010Prop30
280
     1
102
RTVSPost2010PropOp30
 70
     1
102
RTVSPost2010Prop31
280
     0
102
RTVSPost2010PropOp31
 70
     1
102
RTVSPost2010Prop32
280
     0
102
RTVSPost2010PropOp32
 70
     1
102
RTVSPost2010Prop33
280
     0
102
RTVSPost2010PropOp33
 70
     1
102
RTVSPost2010Prop34
280
     0
102
RTVSPost2010PropOp34
 70
     1
102
RTVSPost2010Prop35
280
     0
102
RTVSPost2010PropOp35
 70
     1
102
RTVSPost2010Prop36
280
     0
102
RTVSPost2010PropOp36
 70
     1
102
RTVSPost2010Prop37
 90
       50
102
RTVSPost2010PropOp37
 70
     1
102
RTVSPost2010Prop38
140
0.0
102
RTVSPost2010PropOp38
 70
     1
102
RTVSPost2010Prop39
140
1.0
102
RTVSPost2010PropOp39
 70
     1
102
RTVSPost2010Prop40
 90
        0
102
RTVSPost2010PropOp40
 70
     1
102
RTVSPost2010Prop41ColorIndex
 90
       18
102
RTVSPost2010Prop41ColorRGB
 90
        0
102
RTVSPost2010PropOp41
 70
     1
102
RTVSPost2010Prop42
 90
       50
102
RTVSPost2010PropOp42
 70
     1
102
RTVSPost2010Prop43
 90
        3
102
RTVSPost2010PropOp43
 70
     1
102
RTVSPost2010Prop44ColorIndex
 90
        5
102
RTVSPost2010Prop44ColorRGB
 90
      255
102
RTVSPost2010PropOp44
 70
     1
102
RTVSPost2010Prop45
280
     0
102
RTVSPost2010PropOp45
 70
     1
102
RTVSPost2010Prop46
 90
       50
102
RTVSPost2010PropOp46
 70
     1
102
RTVSPost2010Prop47
 90
       50
102
RTVSPost2010PropOp47
 70
     1
102
RTVSPost2010Prop48
 90
       50
102
RTVSPost2010PropOp48
 70
     1
102
RTVSPost2010Prop49
280
     0
102
RTVSPost2010PropOp49
 70
     1
102
RTVSPost2010Prop50
 90
       50
102
RTVSPost2010PropOp50
 70
     1
102
RTVSPost2010Prop51ColorIndex
 90
      256
102
RTVSPost2010Prop51ColorRGB
 90
-16777216
102
RTVSPost2010PropOp51
 70
     0
102
RTVSPost2010Prop52
140
1.0
102
RTVSPost2010PropOp52
 70
     0
102
RTVSPost2010Prop53
 90
        2
102
RTVSPost2010PropOp53
 70
     1
102
RTVSPost2010Prop54
  1
strokes_ogs.tif
102
RTVSPost2010PropOp54
 70
     1
102
RTVSPost2010Prop55
280
     0
102
RTVSPost2010PropOp55
 70
     1
102
RTVSPost2010Prop56
140
1.0
102
RTVSPost2010PropOp56
 70
     1
102
RTVSPost2010Prop57
140
1.0
102
RTVSPost2010PropOp57
 70
     1
102
RTVSPropertyOp0
 70
     1
102
RTVSPropertyOp1
 70
     1
102
RTVSPropertyOp2
 70
     1
102
RTVSPropertyOp3
 70
     1
102
RTVSPropertyOp4
 70
     1
102
RTVSPropertyOp5
 70
     1
102
RTVSPropertyOp6
 70
     1
102
RTVSPropertyOp7
 70
     1
102
RTVSPropertyOp8
 70
     1
102
RTVSPropertyOp9
 70
     1
102
RTVSPropertyOp10
 70
     1
102
RTVSPropertyOp11
 70
     1
102
RTVSPropertyOp12
 70
     1
102
RTVSPropertyOp13
 70
     1
102
RTVSPropertyOp14
 70
     1
102
RTVSPropertyOp15
 70
     1
102
RTVSPropertyOp16
 70
     1
102
RTVSPropertyOp17
 70
     1
102
RTVSPropertyOp18
 70
     1
102
RTVSPropertyOp19
 70
     1
102
RTVSPropertyOp20
 70
     1
102
RTVSPropertyOp21
 70
     1
102
RTVSPropertyOp22
 70
     1
102
RTVSPropertyOp23
 70
     1
102
RTVSPropertyOp24
 70
     1
102
RTVSPropertyOp25
 70
     1
102
RTVSPropertyOp26
 70
     1
102
RTVSPropertyOp27
 70
     1
102
RTVSPropertyOp28
 70
     1
102
RTVSPropertyOp29
 70
     1
102
RTVSPropertyOp30
 70
     1
102
RTVSPropertyOp31
 70
     1
102
RTVSPropertyOp32
 70
     1
102
RTVSPropertyOp33
 70
     1
102
RTVSPropertyOp34
 70
     1
102
RTVSPropertyOp35
 70
     1
102
RTVSPropertyOp36
 70
     1
102
RTVSPropertyOp37
 70
     1
102
RTVSPropertyOp38
 70
     1
102
RTVSPropertyOp39
 70
     1
102
RTVSPropertyOp40
 70
     1
102
RTVSPropertyOp41
 70
     1
102
RTVSPropertyOp42
 70
     1
102
RTVSPropertyOp43
 70
     1
102
RTVSPropertyOp44
 70
     1
102
RTVSPropertyOp45
 70
     1
102
RTVSPropertyOp46
 70
     1
102
RTVSPropertyOp47
 70
     1
102
RTVSPropertyOp48
 70
     1
102
RTVSPropertyOp49
 70
     1
102
RTVSPropertyOp50
 70
     1
102
RTVSPropertyOp51
 70
     0
102
RTVSPropertyOp52
 70
     0
102
RTVSPropertyOp53
 70
     1
102
RTVSPropertyOp54
 70
     1
102
RTVSPropertyOp55
 70
     1
102
RTVSPropertyOp56
 70
     1
102
RTVSPropertyOp57
 70
     1
102
RTVSPropertyOp58
 70
     1
102
RTVSPropertyOp59
 70
     1
102
RTVSPropertyOp60
 70
     1
102
RTVSPropertyOp61
 70
     1
102
RTVSPropertyOp62
 70
     1
  0
XRECORD
  5
25FE
102
{ACAD_REACTORS
330
25FD
102
}
330
25FD
100
AcDbXrecord
280
     1
102
RTVSPost2010Prop28
280
     0
102
RTVSPost2010PropOp28
 70
     1
102
RTVSPost2010Prop29
280
     1
102
RTVSPost2010PropOp29
 70
     1
102
RTVSPost2010Prop30
280
     1
102
RTVSPost2010PropOp30
 70
     1
102
RTVSPost2010Prop31
280
     0
102
RTVSPost2010PropOp31
 70
     1
102
RTVSPost2010Prop32
280
     0
102
RTVSPost2010PropOp32
 70
     1
102
RTVSPost2010Prop33
280
     0
102
RTVSPost2010PropOp33
 70
     1
102
RTVSPost2010Prop34
280
     0
102
RTVSPost2010PropOp34
 70
     1
102
RTVSPost2010Prop35
280
     0
102
RTVSPost2010PropOp35
 70
     1
102
RTVSPost2010Prop36
280
     0
102
RTVSPost2010PropOp36
 70
     1
102
RTVSPost2010Prop37
 90
       50
102
RTVSPost2010PropOp37
 70
     1
102
RTVSPost2010Prop38
140
0.0
102
RTVSPost2010PropOp38
 70
     1
102
RTVSPost2010Prop39
140
1.0
102
RTVSPost2010PropOp39
 70
     1
102
RTVSPost2010Prop40
 90
        0
102
RTVSPost2010PropOp40
 70
     1
102
RTVSPost2010Prop41ColorIndex
 90
       18
102
RTVSPost2010Prop41ColorRGB
 90
        0
102
RTVSPost2010PropOp41
 70
     1
102
RTVSPost2010Prop42
 90
       50
102
RTVSPost2010PropOp42
 70
     1
102
RTVSPost2010Prop43
 90
        3
102
RTVSPost2010PropOp43
 70
     1
102
RTVSPost2010Prop44ColorIndex
 90
        5
102
RTVSPost2010Prop44ColorRGB
 90
      255
102
RTVSPost2010PropOp44
 70
     1
102
RTVSPost2010Prop45
280
     0
102
RTVSPost2010PropOp45
 70
     1
102
RTVSPost2010Prop46
 90
       50
102
RTVSPost2010PropOp46
 70
     1
102
RTVSPost2010Prop47
 90
       50
102
RTVSPost2010PropOp47
 70
     1
102
RTVSPost2010Prop48
 90
       50
102
RTVSPost2010PropOp48
 70
     1
102
RTVSPost2010Prop49
280
     0
102
RTVSPost2010PropOp49
 70
     1
102
RTVSPost2010Prop50
 90
       50
102
RTVSPost2010PropOp50
 70
     1
102
RTVSPost2010Prop51ColorIndex
 90
      256
102
RTVSPost2010Prop51ColorRGB
 90
-16777216
102
RTVSPost2010PropOp51
 70
     0
102
RTVSPost2010Prop52
140
1.0
102
RTVSPost2010PropOp52
 70
     0
102
RTVSPost2010Prop53
 90
        2
102
RTVSPost2010PropOp53
 70
     1
102
RTVSPost2010Prop54
  1
strokes_ogs.tif
102
RTVSPost2010PropOp54
 70
     1
102
RTVSPost2010Prop55
280
     0
102
RTVSPost2010PropOp55
 70
     1
102
RTVSPost2010Prop56
140
1.0
102
RTVSPost2010PropOp56
 70
     1
102
RTVSPost2010Prop57
140
1.0
102
RTVSPost2010PropOp57
 70
     1
102
RTVSPropertyOp0
 70
     1
102
RTVSPropertyOp1
 70
     1
102
RTVSPropertyOp2
 70
     1
102
RTVSPropertyOp3
 70
     1
102
RTVSPropertyOp4
 70
     1
102
RTVSPropertyOp5
 70
     1
102
RTVSPropertyOp6
 70
     1
102
RTVSPropertyOp7
 70
     1
102
RTVSPropertyOp8
 70
     1
102
RTVSPropertyOp9
 70
     1
102
RTVSPropertyOp10
 70
     1
102
RTVSPropertyOp11
 70
     1
102
RTVSPropertyOp12
 70
     1
102
RTVSPropertyOp13
 70
     1
102
RTVSPropertyOp14
 70
     1
102
RTVSPropertyOp15
 70
     1
102
RTVSPropertyOp16
 70
     1
102
RTVSPropertyOp17
 70
     1
102
RTVSPropertyOp18
 70
     1
102
RTVSPropertyOp19
 70
     1
102
RTVSPropertyOp20
 70
     1
102
RTVSPropertyOp21
 70
     1
102
RTVSPropertyOp22
 70
     1
102
RTVSPropertyOp23
 70
     1
102
RTVSPropertyOp24
 70
     1
102
RTVSPropertyOp25
 70
     1
102
RTVSPropertyOp26
 70
     1
102
RTVSPropertyOp27
 70
     1
102
RTVSPropertyOp28
 70
     1
102
RTVSPropertyOp29
 70
     1
102
RTVSPropertyOp30
 70
     1
102
RTVSPropertyOp31
 70
     1
102
RTVSPropertyOp32
 70
     1
102
RTVSPropertyOp33
 70
     1
102
RTVSPropertyOp34
 70
     1
102
RTVSPropertyOp35
 70
     1
102
RTVSPropertyOp36
 70
     1
102
RTVSPropertyOp37
 70
     1
102
RTVSPropertyOp38
 70
     1
102
RTVSPropertyOp39
 70
     1
102
RTVSPropertyOp40
 70
     1
102
RTVSPropertyOp41
 70
     1
102
RTVSPropertyOp42
 70
     1
102
RTVSPropertyOp43
 70
     1
102
RTVSPropertyOp44
 70
     1
102
RTVSPropertyOp45
 70
     1
102
RTVSPropertyOp46
 70
     1
102
RTVSPropertyOp47
 70
     1
102
RTVSPropertyOp48
 70
     1
102
RTVSPropertyOp49
 70
     1
102
RTVSPropertyOp50
 70
     1
102
RTVSPropertyOp51
 70
     0
102
RTVSPropertyOp52
 70
     0
102
RTVSPropertyOp53
 70
     1
102
RTVSPropertyOp54
 70
     1
102
RTVSPropertyOp55
 70
     1
102
RTVSPropertyOp56
 70
     1
102
RTVSPropertyOp57
 70
     1
102
RTVSPropertyOp58
 70
     1
102
RTVSPropertyOp59
 70
     1
102
RTVSPropertyOp60
 70
     1
102
RTVSPropertyOp61
 70
     1
102
RTVSPropertyOp62
 70
     1
  0
XRECORD
  5
25F4
102
{ACAD_REACTORS
330
25F3
102
}
330
25F3
100
AcDbXrecord
280
     1
102
RTVSPost2010Prop28
280
     0
102
RTVSPost2010PropOp28
 70
     1
102
RTVSPost2010Prop29
280
     1
102
RTVSPost2010PropOp29
 70
     1
102
RTVSPost2010Prop30
280
     1
102
RTVSPost2010PropOp30
 70
     1
102
RTVSPost2010Prop31
280
     0
102
RTVSPost2010PropOp31
 70
     1
102
RTVSPost2010Prop32
280
     0
102
RTVSPost2010PropOp32
 70
     1
102
RTVSPost2010Prop33
280
     0
102
RTVSPost2010PropOp33
 70
     1
102
RTVSPost2010Prop34
280
     0
102
RTVSPost2010PropOp34
 70
     1
102
RTVSPost2010Prop35
280
     0
102
RTVSPost2010PropOp35
 70
     1
102
RTVSPost2010Prop36
280
     0
102
RTVSPost2010PropOp36
 70
     1
102
RTVSPost2010Prop37
 90
       50
102
RTVSPost2010PropOp37
 70
     1
102
RTVSPost2010Prop38
140
0.0
102
RTVSPost2010PropOp38
 70
     1
102
RTVSPost2010Prop39
140
1.0
102
RTVSPost2010PropOp39
 70
     1
102
RTVSPost2010Prop40
 90
        0
102
RTVSPost2010PropOp40
 70
     1
102
RTVSPost2010Prop41ColorIndex
 90
       18
102
RTVSPost2010Prop41ColorRGB
 90
        0
102
RTVSPost2010PropOp41
 70
     1
102
RTVSPost2010Prop42
 90
       50
102
RTVSPost2010PropOp42
 70
     1
102
RTVSPost2010Prop43
 90
        3
102
RTVSPost2010PropOp43
 70
     1
102
RTVSPost2010Prop44ColorIndex
 90
        5
102
RTVSPost2010Prop44ColorRGB
 90
      255
102
RTVSPost2010PropOp44
 70
     1
102
RTVSPost2010Prop45
280
     0
102
RTVSPost2010PropOp45
 70
     1
102
RTVSPost2010Prop46
 90
       50
102
RTVSPost2010PropOp46
 70
     1
102
RTVSPost2010Prop47
 90
       50
102
RTVSPost2010PropOp47
 70
     1
102
RTVSPost2010Prop48
 90
       50
102
RTVSPost2010PropOp48
 70
     1
102
RTVSPost2010Prop49
280
     0
102
RTVSPost2010PropOp49
 70
     1
102
RTVSPost2010Prop50
 90
       50
102
RTVSPost2010PropOp50
 70
     1
102
RTVSPost2010Prop51ColorIndex
 90
      256
102
RTVSPost2010Prop51ColorRGB
 90
-16777216
102
RTVSPost2010PropOp51
 70
     0
102
RTVSPost2010Prop52
140
1.0
102
RTVSPost2010PropOp52
 70
     0
102
RTVSPost2010Prop53
 90
        2
102
RTVSPost2010PropOp53
 70
     1
102
RTVSPost2010Prop54
  1
strokes_ogs.tif
102
RTVSPost2010PropOp54
 70
     1
102
RTVSPost2010Prop55
280
     0
102
RTVSPost2010PropOp55
 70
     1
102
RTVSPost2010Prop56
140
1.0
102
RTVSPost2010PropOp56
 70
     1
102
RTVSPost2010Prop57
140
1.0
102
RTVSPost2010PropOp57
 70
     1
102
RTVSPropertyOp0
 70
     1
102
RTVSPropertyOp1
 70
     1
102
RTVSPropertyOp2
 70
     1
102
RTVSPropertyOp3
 70
     1
102
RTVSPropertyOp4
 70
     1
102
RTVSPropertyOp5
 70
     1
102
RTVSPropertyOp6
 70
     1
102
RTVSPropertyOp7
 70
     1
102
RTVSPropertyOp8
 70
     1
102
RTVSPropertyOp9
 70
     1
102
RTVSPropertyOp10
 70
     1
102
RTVSPropertyOp11
 70
     1
102
RTVSPropertyOp12
 70
     1
102
RTVSPropertyOp13
 70
     1
102
RTVSPropertyOp14
 70
     1
102
RTVSPropertyOp15
 70
     1
102
RTVSPropertyOp16
 70
     1
102
RTVSPropertyOp17
 70
     1
102
RTVSPropertyOp18
 70
     1
102
RTVSPropertyOp19
 70
     1
102
RTVSPropertyOp20
 70
     1
102
RTVSPropertyOp21
 70
     1
102
RTVSPropertyOp22
 70
     1
102
RTVSPropertyOp23
 70
     1
102
RTVSPropertyOp24
 70
     1
102
RTVSPropertyOp25
 70
     1
102
RTVSPropertyOp26
 70
     1
102
RTVSPropertyOp27
 70
     1
102
RTVSPropertyOp28
 70
     1
102
RTVSPropertyOp29
 70
     1
102
RTVSPropertyOp30
 70
     1
102
RTVSPropertyOp31
 70
     1
102
RTVSPropertyOp32
 70
     1
102
RTVSPropertyOp33
 70
     1
102
RTVSPropertyOp34
 70
     1
102
RTVSPropertyOp35
 70
     1
102
RTVSPropertyOp36
 70
     1
102
RTVSPropertyOp37
 70
     1
102
RTVSPropertyOp38
 70
     1
102
RTVSPropertyOp39
 70
     1
102
RTVSPropertyOp40
 70
     1
102
RTVSPropertyOp41
 70
     1
102
RTVSPropertyOp42
 70
     1
102
RTVSPropertyOp43
 70
     1
102
RTVSPropertyOp44
 70
     1
102
RTVSPropertyOp45
 70
     1
102
RTVSPropertyOp46
 70
     1
102
RTVSPropertyOp47
 70
     1
102
RTVSPropertyOp48
 70
     1
102
RTVSPropertyOp49
 70
     1
102
RTVSPropertyOp50
 70
     1
102
RTVSPropertyOp51
 70
     0
102
RTVSPropertyOp52
 70
     0
102
RTVSPropertyOp53
 70
     1
102
RTVSPropertyOp54
 70
     1
102
RTVSPropertyOp55
 70
     1
102
RTVSPropertyOp56
 70
     1
102
RTVSPropertyOp57
 70
     1
102
RTVSPropertyOp58
 70
     1
102
RTVSPropertyOp59
 70
     1
102
RTVSPropertyOp60
 70
     1
102
RTVSPropertyOp61
 70
     1
102
RTVSPropertyOp62
 70
     1
  0
XRECORD
  5
25E8
102
{ACAD_REACTORS
330
25E7
102
}
330
25E7
100
AcDbXrecord
280
     1
102
RTVSPost2010Prop28
280
     0
102
RTVSPost2010PropOp28
 70
     1
102
RTVSPost2010Prop29
280
     1
102
RTVSPost2010PropOp29
 70
     1
102
RTVSPost2010Prop30
280
     1
102
RTVSPost2010PropOp30
 70
     1
102
RTVSPost2010Prop31
280
     0
102
RTVSPost2010PropOp31
 70
     1
102
RTVSPost2010Prop32
280
     0
102
RTVSPost2010PropOp32
 70
     1
102
RTVSPost2010Prop33
280
     0
102
RTVSPost2010PropOp33
 70
     1
102
RTVSPost2010Prop34
280
     0
102
RTVSPost2010PropOp34
 70
     1
102
RTVSPost2010Prop35
280
     0
102
RTVSPost2010PropOp35
 70
     1
102
RTVSPost2010Prop36
280
     0
102
RTVSPost2010PropOp36
 70
     1
102
RTVSPost2010Prop37
 90
       50
102
RTVSPost2010PropOp37
 70
     1
102
RTVSPost2010Prop38
140
0.0
102
RTVSPost2010PropOp38
 70
     1
102
RTVSPost2010Prop39
140
1.0
102
RTVSPost2010PropOp39
 70
     1
102
RTVSPost2010Prop40
 90
        0
102
RTVSPost2010PropOp40
 70
     1
102
RTVSPost2010Prop41ColorIndex
 90
       18
102
RTVSPost2010Prop41ColorRGB
 90
        0
102
RTVSPost2010PropOp41
 70
     1
102
RTVSPost2010Prop42
 90
       50
102
RTVSPost2010PropOp42
 70
     1
102
RTVSPost2010Prop43
 90
        3
102
RTVSPost2010PropOp43
 70
     1
102
RTVSPost2010Prop44ColorIndex
 90
        5
102
RTVSPost2010Prop44ColorRGB
 90
      255
102
RTVSPost2010PropOp44
 70
     1
102
RTVSPost2010Prop45
280
     0
102
RTVSPost2010PropOp45
 70
     1
102
RTVSPost2010Prop46
 90
       50
102
RTVSPost2010PropOp46
 70
     1
102
RTVSPost2010Prop47
 90
       50
102
RTVSPost2010PropOp47
 70
     1
102
RTVSPost2010Prop48
 90
       50
102
RTVSPost2010PropOp48
 70
     1
102
RTVSPost2010Prop49
280
     0
102
RTVSPost2010PropOp49
 70
     1
102
RTVSPost2010Prop50
 90
       50
102
RTVSPost2010PropOp50
 70
     1
102
RTVSPost2010Prop51ColorIndex
 90
      256
102
RTVSPost2010Prop51ColorRGB
 90
-16777216
102
RTVSPost2010PropOp51
 70
     0
102
RTVSPost2010Prop52
140
1.0
102
RTVSPost2010PropOp52
 70
     0
102
RTVSPost2010Prop53
 90
        2
102
RTVSPost2010PropOp53
 70
     1
102
RTVSPost2010Prop54
  1
strokes_ogs.tif
102
RTVSPost2010PropOp54
 70
     1
102
RTVSPost2010Prop55
280
     0
102
RTVSPost2010PropOp55
 70
     1
102
RTVSPost2010Prop56
140
1.0
102
RTVSPost2010PropOp56
 70
     1
102
RTVSPost2010Prop57
140
1.0
102
RTVSPost2010PropOp57
 70
     1
102
RTVSPropertyOp0
 70
     1
102
RTVSPropertyOp1
 70
     1
102
RTVSPropertyOp2
 70
     1
102
RTVSPropertyOp3
 70
     1
102
RTVSPropertyOp4
 70
     1
102
RTVSPropertyOp5
 70
     1
102
RTVSPropertyOp6
 70
     1
102
RTVSPropertyOp7
 70
     1
102
RTVSPropertyOp8
 70
     1
102
RTVSPropertyOp9
 70
     1
102
RTVSPropertyOp10
 70
     1
102
RTVSPropertyOp11
 70
     1
102
RTVSPropertyOp12
 70
     1
102
RTVSPropertyOp13
 70
     1
102
RTVSPropertyOp14
 70
     1
102
RTVSPropertyOp15
 70
     1
102
RTVSPropertyOp16
 70
     1
102
RTVSPropertyOp17
 70
     1
102
RTVSPropertyOp18
 70
     1
102
RTVSPropertyOp19
 70
     1
102
RTVSPropertyOp20
 70
     1
102
RTVSPropertyOp21
 70
     1
102
RTVSPropertyOp22
 70
     1
102
RTVSPropertyOp23
 70
     1
102
RTVSPropertyOp24
 70
     1
102
RTVSPropertyOp25
 70
     1
102
RTVSPropertyOp26
 70
     1
102
RTVSPropertyOp27
 70
     1
102
RTVSPropertyOp28
 70
     1
102
RTVSPropertyOp29
 70
     1
102
RTVSPropertyOp30
 70
     1
102
RTVSPropertyOp31
 70
     1
102
RTVSPropertyOp32
 70
     1
102
RTVSPropertyOp33
 70
     1
102
RTVSPropertyOp34
 70
     1
102
RTVSPropertyOp35
 70
     1
102
RTVSPropertyOp36
 70
     1
102
RTVSPropertyOp37
 70
     1
102
RTVSPropertyOp38
 70
     1
102
RTVSPropertyOp39
 70
     1
102
RTVSPropertyOp40
 70
     1
102
RTVSPropertyOp41
 70
     1
102
RTVSPropertyOp42
 70
     1
102
RTVSPropertyOp43
 70
     1
102
RTVSPropertyOp44
 70
     1
102
RTVSPropertyOp45
 70
     1
102
RTVSPropertyOp46
 70
     1
102
RTVSPropertyOp47
 70
     1
102
RTVSPropertyOp48
 70
     1
102
RTVSPropertyOp49
 70
     1
102
RTVSPropertyOp50
 70
     1
102
RTVSPropertyOp51
 70
     0
102
RTVSPropertyOp52
 70
     0
102
RTVSPropertyOp53
 70
     1
102
RTVSPropertyOp54
 70
     1
102
RTVSPropertyOp55
 70
     1
102
RTVSPropertyOp56
 70
     1
102
RTVSPropertyOp57
 70
     1
102
RTVSPropertyOp58
 70
     1
102
RTVSPropertyOp59
 70
     1
102
RTVSPropertyOp60
 70
     1
102
RTVSPropertyOp61
 70
     1
102
RTVSPropertyOp62
 70
     1
  0
XRECORD
  5
2600
102
{ACAD_REACTORS
330
25FF
102
}
330
25FF
100
AcDbXrecord
280
     1
102
RTVSPost2010Prop28
280
     0
102
RTVSPost2010PropOp28
 70
     1
102
RTVSPost2010Prop29
280
     1
102
RTVSPost2010PropOp29
 70
     1
102
RTVSPost2010Prop30
280
     1
102
RTVSPost2010PropOp30
 70
     1
102
RTVSPost2010Prop31
280
     0
102
RTVSPost2010PropOp31
 70
     1
102
RTVSPost2010Prop32
280
     0
102
RTVSPost2010PropOp32
 70
     1
102
RTVSPost2010Prop33
280
     0
102
RTVSPost2010PropOp33
 70
     1
102
RTVSPost2010Prop34
280
     0
102
RTVSPost2010PropOp34
 70
     1
102
RTVSPost2010Prop35
280
     0
102
RTVSPost2010PropOp35
 70
     1
102
RTVSPost2010Prop36
280
     0
102
RTVSPost2010PropOp36
 70
     1
102
RTVSPost2010Prop37
 90
       50
102
RTVSPost2010PropOp37
 70
     1
102
RTVSPost2010Prop38
140
0.0
102
RTVSPost2010PropOp38
 70
     1
102
RTVSPost2010Prop39
140
1.0
102
RTVSPost2010PropOp39
 70
     1
102
RTVSPost2010Prop40
 90
        0
102
RTVSPost2010PropOp40
 70
     1
102
RTVSPost2010Prop41ColorIndex
 90
       18
102
RTVSPost2010Prop41ColorRGB
 90
        0
102
RTVSPost2010PropOp41
 70
     1
102
RTVSPost2010Prop42
 90
       50
102
RTVSPost2010PropOp42
 70
     1
102
RTVSPost2010Prop43
 90
        3
102
RTVSPost2010PropOp43
 70
     1
102
RTVSPost2010Prop44ColorIndex
 90
        5
102
RTVSPost2010Prop44ColorRGB
 90
      255
102
RTVSPost2010PropOp44
 70
     1
102
RTVSPost2010Prop45
280
     0
102
RTVSPost2010PropOp45
 70
     1
102
RTVSPost2010Prop46
 90
       50
102
RTVSPost2010PropOp46
 70
     1
102
RTVSPost2010Prop47
 90
       50
102
RTVSPost2010PropOp47
 70
     1
102
RTVSPost2010Prop48
 90
       50
102
RTVSPost2010PropOp48
 70
     1
102
RTVSPost2010Prop49
280
     0
102
RTVSPost2010PropOp49
 70
     1
102
RTVSPost2010Prop50
 90
       50
102
RTVSPost2010PropOp50
 70
     1
102
RTVSPost2010Prop51ColorIndex
 90
      256
102
RTVSPost2010Prop51ColorRGB
 90
-16777216
102
RTVSPost2010PropOp51
 70
     0
102
RTVSPost2010Prop52
140
1.0
102
RTVSPost2010PropOp52
 70
     0
102
RTVSPost2010Prop53
 90
        2
102
RTVSPost2010PropOp53
 70
     1
102
RTVSPost2010Prop54
  1
strokes_ogs.tif
102
RTVSPost2010PropOp54
 70
     1
102
RTVSPost2010Prop55
280
     0
102
RTVSPost2010PropOp55
 70
     1
102
RTVSPost2010Prop56
140
1.0
102
RTVSPost2010PropOp56
 70
     1
102
RTVSPost2010Prop57
140
1.0
102
RTVSPost2010PropOp57
 70
     1
102
RTVSPropertyOp0
 70
     1
102
RTVSPropertyOp1
 70
     1
102
RTVSPropertyOp2
 70
     1
102
RTVSPropertyOp3
 70
     1
102
RTVSPropertyOp4
 70
     1
102
RTVSPropertyOp5
 70
     1
102
RTVSPropertyOp6
 70
     1
102
RTVSPropertyOp7
 70
     1
102
RTVSPropertyOp8
 70
     1
102
RTVSPropertyOp9
 70
     1
102
RTVSPropertyOp10
 70
     1
102
RTVSPropertyOp11
 70
     1
102
RTVSPropertyOp12
 70
     1
102
RTVSPropertyOp13
 70
     1
102
RTVSPropertyOp14
 70
     1
102
RTVSPropertyOp15
 70
     1
102
RTVSPropertyOp16
 70
     1
102
RTVSPropertyOp17
 70
     1
102
RTVSPropertyOp18
 70
     1
102
RTVSPropertyOp19
 70
     1
102
RTVSPropertyOp20
 70
     1
102
RTVSPropertyOp21
 70
     1
102
RTVSPropertyOp22
 70
     1
102
RTVSPropertyOp23
 70
     1
102
RTVSPropertyOp24
 70
     1
102
RTVSPropertyOp25
 70
     1
102
RTVSPropertyOp26
 70
     1
102
RTVSPropertyOp27
 70
     1
102
RTVSPropertyOp28
 70
     1
102
RTVSPropertyOp29
 70
     1
102
RTVSPropertyOp30
 70
     1
102
RTVSPropertyOp31
 70
     1
102
RTVSPropertyOp32
 70
     1
102
RTVSPropertyOp33
 70
     1
102
RTVSPropertyOp34
 70
     1
102
RTVSPropertyOp35
 70
     1
102
RTVSPropertyOp36
 70
     1
102
RTVSPropertyOp37
 70
     1
102
RTVSPropertyOp38
 70
     1
102
RTVSPropertyOp39
 70
     1
102
RTVSPropertyOp40
 70
     1
102
RTVSPropertyOp41
 70
     1
102
RTVSPropertyOp42
 70
     1
102
RTVSPropertyOp43
 70
     1
102
RTVSPropertyOp44
 70
     1
102
RTVSPropertyOp45
 70
     1
102
RTVSPropertyOp46
 70
     1
102
RTVSPropertyOp47
 70
     1
102
RTVSPropertyOp48
 70
     1
102
RTVSPropertyOp49
 70
     1
102
RTVSPropertyOp50
 70
     1
102
RTVSPropertyOp51
 70
     0
102
RTVSPropertyOp52
 70
     0
102
RTVSPropertyOp53
 70
     1
102
RTVSPropertyOp54
 70
     1
102
RTVSPropertyOp55
 70
     1
102
RTVSPropertyOp56
 70
     1
102
RTVSPropertyOp57
 70
     1
102
RTVSPropertyOp58
 70
     1
102
RTVSPropertyOp59
 70
     1
102
RTVSPropertyOp60
 70
     1
102
RTVSPropertyOp61
 70
     1
102
RTVSPropertyOp62
 70
     1
  0
ENDSEC
  0
EOF
