  0
SECTION
  2
HEADER
  9
$ACADVER
  1
AC1015
  9
$ACADMAINTVER
 70
    20
  9
$DWGCODEPAGE
  3
ANSI_932
  9
$INSBASE
 10
0.0
 20
0.0
 30
0.0
  9
$EXTMIN
 10
9.9999975266385
 20
10.0
 30
0.0
  9
$EXTMAX
 10
300.5379565258889
 20
217.5416374639656
 30
0.0
  9
$LIMMIN
 10
0.0000015376081137
 20
-0.0000001931532552
  9
$LIMMAX
 10
396.0000015376081
 20
272.9999998068465
  9
$ORTHOMODE
 70
     1
  9
$REGENMODE
 70
     1
  9
$FILLMODE
 70
     1
  9
$QTEXTMODE
 70
     0
  9
$MIRRTEXT
 70
     1
  9
$LTSCALE
 40
1.0
  9
$ATTMODE
 70
     1
  9
$TEXTSIZE
 40
2.5
  9
$TRACEWID
 40
1.0
  9
$TEXTSTYLE
  7
STANDARD
  9
$CLAYER
  8
0
  9
$CELTYPE
  6
BYLAYER
  9
$CECOLOR
 62
   256
  9
$CELTSCALE
 40
1.0
  9
$DISPSILH
 70
     0
  9
$DIMSCALE
 40
1.0
  9
$DIMASZ
 40
3.0
  9
$DIMEXO
 40
1.0
  9
$DIMDLI
 40
10.0
  9
$DIMRND
 40
0.0
  9
$DIMDLE
 40
0.0
  9
$DIMEXE
 40
1.0
  9
$DIMTP
 40
0.0
  9
$DIMTM
 40
0.0
  9
$DIMTXT
 40
2.5
  9
$DIMCEN
 40
0.0
  9
$DIMTSZ
 40
0.0
  9
$DIMTOL
 70
     0
  9
$DIMLIM
 70
     0
  9
$DIMTIH
 70
     0
  9
$DIMTOH
 70
     0
  9
$DIMSE1
 70
     0
  9
$DIMSE2
 70
     0
  9
$DIMTAD
 70
     3
  9
$DIMZIN
 70
     8
  9
$DIMBLK
  1

  9
$DIMASO
 70
     1
  9
$DIMSHO
 70
     1
  9
$DIMPOST
  1

  9
$DIMAPOST
  1

  9
$DIMALT
 70
     0
  9
$DIMALTD
 70
     2
  9
$DIMALTF
 40
25.4
  9
$DIMLFAC
 40
1.0
  9
$DIMTOFL
 70
     1
  9
$DIMTVP
 40
0.0
  9
$DIMTIX
 70
     0
  9
$DIMSOXD
 70
     0
  9
$DIMSAH
 70
     1
  9
$DIMBLK1
  1
OPEN
  9
$DIMBLK2
  1
OPEN
  9
$DIMSTYLE
  2
STANDARD
  9
$DIMCLRD
 70
     0
  9
$DIMCLRE
 70
     0
  9
$DIMCLRT
 70
     0
  9
$DIMTFAC
 40
1.0
  9
$DIMGAP
 40
1.0
  9
$DIMJUST
 70
     0
  9
$DIMSD1
 70
     0
  9
$DIMSD2
 70
     0
  9
$DIMTOLJ
 70
     1
  9
$DIMTZIN
 70
     0
  9
$DIMALTZ
 70
     0
  9
$DIMALTTZ
 70
     0
  9
$DIMUPT
 70
     0
  9
$DIMDEC
 70
     4
  9
$DIMTDEC
 70
     4
  9
$DIMALTU
 70
     2
  9
$DIMALTTD
 70
     2
  9
$DIMTXSTY
  7
STANDARD
  9
$DIMAUNIT
 70
     0
  9
$DIMADEC
 70
     0
  9
$DIMALTRND
 40
0.0
  9
$DIMAZIN
 70
     0
  9
$DIMDSEP
 70
    46
  9
$DIMATFIT
 70
     3
  9
$DIMFRAC
 70
     0
  9
$DIMLDRBLK
  1
OPEN
  9
$DIMLUNIT
 70
     2
  9
$DIMLWD
 70
    -2
  9
$DIMLWE
 70
    -2
  9
$DIMTMOVE
 70
     0
  9
$LUNITS
 70
     2
  9
$LUPREC
 70
     4
  9
$SKETCHINC
 40
1.0
  9
$FILLETRAD
 40
1.0
  9
$AUNITS
 70
     0
  9
$AUPREC
 70
     0
  9
$MENU
  1
.
  9
$ELEVATION
 40
0.0
  9
$PELEVATION
 40
0.0
  9
$THICKNESS
 40
0.0
  9
$LIMCHECK
 70
     0
  9
$CHAMFERA
 40
10.0
  9
$CHAMFERB
 40
10.0
  9
$CHAMFERC
 40
20.0
  9
$CHAMFERD
 40
0.0
  9
$SKPOLY
 70
     0
  9
$TDCREATE
 40
2454525.396254514
  9
$TDUCREATE
 40
2454525.021254514
  9
$TDUPDATE
 40
2457192.602399618
  9
$TDUUPDATE
 40
2457192.227399618
  9
$TDINDWG
 40
0.1680202315
  9
$TDUSRTIMER
 40
0.1680202083
  9
$USRTIMER
 70
     1
  9
$ANGBASE
 50
0.0
  9
$ANGDIR
 70
     0
  9
$PDMODE
 70
     0
  9
$PDSIZE
 40
0.0
  9
$PLINEWID
 40
0.0
  9
$SPLFRAME
 70
     0
  9
$SPLINETYPE
 70
     6
  9
$SPLINESEGS
 70
     8
  9
$HANDSEED
  5
33C0
  9
$SURFTAB1
 70
     6
  9
$SURFTAB2
 70
     6
  9
$SURFTYPE
 70
     6
  9
$SURFU
 70
     6
  9
$SURFV
 70
     6
  9
$UCSBASE
  2

  9
$UCSNAME
  2

  9
$UCSORG
 10
0.0
 20
0.0
 30
0.0
  9
$UCSXDIR
 10
1.0
 20
0.0
 30
0.0
  9
$UCSYDIR
 10
0.0
 20
1.0
 30
0.0
  9
$UCSORTHOREF
  2

  9
$UCSORTHOVIEW
 70
     0
  9
$UCSORGTOP
 10
0.0
 20
0.0
 30
0.0
  9
$UCSORGBOTTOM
 10
0.0
 20
0.0
 30
0.0
  9
$UCSORGLEFT
 10
0.0
 20
0.0
 30
0.0
  9
$UCSORGRIGHT
 10
0.0
 20
0.0
 30
0.0
  9
$UCSORGFRONT
 10
0.0
 20
0.0
 30
0.0
  9
$UCSORGBACK
 10
0.0
 20
0.0
 30
0.0
  9
$PUCSBASE
  2

  9
$PUCSNAME
  2

  9
$PUCSORG
 10
0.0
 20
0.0
 30
0.0
  9
$PUCSXDIR
 10
1.0
 20
0.0
 30
0.0
  9
$PUCSYDIR
 10
0.0
 20
1.0
 30
0.0
  9
$PUCSORTHOREF
  2

  9
$PUCSORTHOVIEW
 70
     0
  9
$PUCSORGTOP
 10
0.0
 20
0.0
 30
0.0
  9
$PUCSORGBOTTOM
 10
0.0
 20
0.0
 30
0.0
  9
$PUCSORGLEFT
 10
0.0
 20
0.0
 30
0.0
  9
$PUCSORGRIGHT
 10
0.0
 20
0.0
 30
0.0
  9
$PUCSORGFRONT
 10
0.0
 20
0.0
 30
0.0
  9
$PUCSORGBACK
 10
0.0
 20
0.0
 30
0.0
  9
$USERI1
 70
     0
  9
$USERI2
 70
     0
  9
$USERI3
 70
     0
  9
$USERI4
 70
     0
  9
$USERI5
 70
     0
  9
$USERR1
 40
0.0
  9
$USERR2
 40
0.0
  9
$USERR3
 40
0.0
  9
$USERR4
 40
0.0
  9
$USERR5
 40
0.0
  9
$WORLDVIEW
 70
     1
  9
$SHADEDGE
 70
     3
  9
$SHADEDIF
 70
    70
  9
$TILEMODE
 70
     1
  9
$MAXACTVP
 70
    48
  9
$PINSBASE
 10
0.0
 20
0.0
 30
0.0
  9
$PLIMCHECK
 70
     0
  9
$PEXTMIN
 10
1.000000000000000E+20
 20
1.000000000000000E+20
 30
1.000000000000000E+20
  9
$PEXTMAX
 10
-1.000000000000000E+20
 20
-1.000000000000000E+20
 30
-1.000000000000000E+20
  9
$PLIMMIN
 10
0.0
 20
0.0
  9
$PLIMMAX
 10
420.0
 20
297.0
  9
$UNITMODE
 70
     0
  9
$VISRETAIN
 70
     1
  9
$PLINEGEN
 70
     0
  9
$PSLTSCALE
 70
     1
  9
$TREEDEPTH
 70
  3020
  9
$CMLSTYLE
  2
STANDARD
  9
$CMLJUST
 70
     0
  9
$CMLSCALE
 40
20.0
  9
$PROXYGRAPHICS
 70
     1
  9
$MEASUREMENT
 70
     0
  9
$CELWEIGHT
370
    -1
  9
$ENDCAPS
280
     0
  9
$JOINSTYLE
280
     0
  9
$LWDISPLAY
290
     0
  9
$INSUNITS
 70
     0
  9
$HYPERLINKBASE
  1

  9
$STYLESHEET
  1

  9
$XEDIT
290
     1
  9
$CEPSNTYPE
380
     0
  9
$PSTYLEMODE
290
     1
  9
$FINGERPRINTGUID
  2
{136B8304-740D-490C-BAC6-45DFC8ECD790}
  9
$VERSIONGUID
  2
{C0157C51-E6D1-4928-9CCA-D6EEE368C035}
  9
$EXTNAMES
290
     1
  9
$PSVPSCALE
 40
0.0
  9
$OLESTARTUP
290
     0
  0
ENDSEC
  0
SECTION
  2
CLASSES
  0
CLASS
  1
ACDBDICTIONARYWDFLT
  2
AcDbDictionaryWithDefault
  3
ObjectDBX Classes
 90
        0
280
     0
281
     0
  0
CLASS
  1
ACDBPLACEHOLDER
  2
AcDbPlaceHolder
  3
ObjectDBX Classes
 90
        0
280
     0
281
     0
  0
CLASS
  1
LAYOUT
  2
AcDbLayout
  3
ObjectDBX Classes
 90
        0
280
     0
281
     0
  0
CLASS
  1
DICTIONARYVAR
  2
AcDbDictionaryVar
  3
ObjectDBX Classes
 90
        0
280
     0
281
     0
  0
CLASS
  1
MATERIAL
  2
AcDbMaterial
  3
ObjectDBX Classes
 90
     1153
280
     0
281
     0
  0
CLASS
  1
VISUALSTYLE
  2
AcDbVisualStyle
  3
ObjectDBX Classes
 90
     4095
280
     0
281
     0
  0
CLASS
  1
TABLESTYLE
  2
AcDbTableStyle
  3
ObjectDBX Classes
 90
     4095
280
     0
281
     0
  0
CLASS
  1
SCALE
  2
AcDbScale
  3
ObjectDBX Classes
 90
     1153
280
     0
281
     0
  0
CLASS
  1
MLEADERSTYLE
  2
AcDbMLeaderStyle
  3
ACDB_MLEADERSTYLE_CLASS
 90
     4095
280
     0
281
     0
  0
CLASS
  1
ACDBSECTIONVIEWSTYLE
  2
AcDbSectionViewStyle
  3
ObjectDBX Classes
 90
     1025
280
     0
281
     0
  0
CLASS
  1
ACDBDETAILVIEWSTYLE
  2
AcDbDetailViewStyle
  3
ObjectDBX Classes
 90
     1025
280
     0
281
     0
  0
CLASS
  1
CELLSTYLEMAP
  2
AcDbCellStyleMap
  3
ObjectDBX Classes
 90
     1152
280
     0
281
     0
  0
ENDSEC
  0
SECTION
  2
TABLES
  0
TABLE
  2
VPORT
  5
8
330
0
100
AcDbSymbolTable
 70
     1
  0
VPORT
  5
330A
330
8
100
AcDbSymbolTableRecord
100
AcDbViewportTableRecord
  2
*ACTIVE
 70
     0
 10
0.0
 20
0.0
 11
1.0
 21
1.0
 12
235.1516910692938
 22
113.7659687387623
 13
0.0
 23
0.0
 14
10.0
 24
10.0
 15
10.0
 25
10.0
 16
0.0
 26
0.0
 36
1.0
 17
0.0
 27
0.0
 37
0.0
 40
209.2199310558336
 41
1.899603698811096
 42
50.0
 43
0.0
 44
0.0
 50
0.0
 51
0.0
 71
     0
 72
   100
 73
     1
 74
     0
 75
     0
 76
     0
 77
     0
 78
     0
281
     0
 65
     1
110
0.0
120
0.0
130
0.0
111
1.0
121
0.0
131
0.0
112
0.0
122
1.0
132
0.0
 79
     0
146
0.0
1001
ACAD_NAV_VCDISPLAY
1070
     3
  0
ENDTAB
  0
TABLE
  2
LTYPE
  5
5
330
0
100
AcDbSymbolTable
 70
     4
  0
LTYPE
  5
12
330
5
100
AcDbSymbolTableRecord
100
AcDbLinetypeTableRecord
  2
BYBLOCK
 70
     0
  3

 72
    65
 73
     0
 40
0.0
  0
LTYPE
  5
13
330
5
100
AcDbSymbolTableRecord
100
AcDbLinetypeTableRecord
  2
BYLAYER
 70
     0
  3

 72
    65
 73
     0
 40
0.0
  0
LTYPE
  5
14
330
5
100
AcDbSymbolTableRecord
100
AcDbLinetypeTableRecord
  2
CONTINUOUS
 70
     0
  3
Solid line
 72
    65
 73
     0
 40
0.0
  0
LTYPE
  5
4B
330
5
100
AcDbSymbolTableRecord
100
AcDbLinetypeTableRecord
  2
DASHED
 70
     0
  3
Dashed __ __ __ __ __ __ __ __ __ __ __ __ __ _
 72
    65
 73
     2
 40
19.04999999999999
 49
12.7
 74
     0
 49
-6.349999999999998
 74
     0
  0
LTYPE
  5
4C
330
5
100
AcDbSymbolTableRecord
100
AcDbLinetypeTableRecord
  2
CENTER
 70
     0
  3
Center ____ _ ____ _ ____ _ ____ _ ____ _ ____
 72
    65
 73
     4
 40
50.8
 49
31.75
 74
     0
 49
-6.349999999999998
 74
     0
 49
6.349999999999998
 74
     0
 49
-6.349999999999998
 74
     0
  0
LTYPE
  5
4D
330
5
100
AcDbSymbolTableRecord
100
AcDbLinetypeTableRecord
  2
PHANTOM
 70
     0
  3
Phantom ______  __  __  ______  __  __  ______
 72
    65
 73
     6
 40
63.5
 49
31.75
 74
     0
 49
-6.349999999999998
 74
     0
 49
6.349999999999998
 74
     0
 49
-6.349999999999998
 74
     0
 49
6.349999999999998
 74
     0
 49
-6.349999999999998
 74
     0
  0
ENDTAB
  0
TABLE
  2
LAYER
  5
2
330
0
100
AcDbSymbolTable
 70
     8
  0
LAYER
  5
E
102
{ACAD_XDICTIONARY
360
3364
102
}
330
2
100
AcDbSymbolTableRecord
100
AcDbLayerTableRecord
  2
0
 70
     0
 62
     7
  6
CONTINUOUS
370
    -3
390
3313
  0
LAYER
  5
4E
102
{ACAD_XDICTIONARY
360
3366
102
}
330
2
100
AcDbSymbolTableRecord
100
AcDbLayerTableRecord
  2
4
 70
     0
 62
     1
  6
CENTER
370
    -3
390
3313
  0
LAYER
  5
4F
102
{ACAD_XDICTIONARY
360
3368
102
}
330
2
100
AcDbSymbolTableRecord
100
AcDbLayerTableRecord
  2
5
 70
     0
 62
     6
  6
PHANTOM
370
    -3
390
3313
  0
LAYER
  5
50
102
{ACAD_XDICTIONARY
360
336A
102
}
330
2
100
AcDbSymbolTableRecord
100
AcDbLayerTableRecord
  2
1
 70
     0
 62
     7
  6
CONTINUOUS
370
    -3
390
3313
  0
LAYER
  5
51
102
{ACAD_XDICTIONARY
360
336C
102
}
330
2
100
AcDbSymbolTableRecord
100
AcDbLayerTableRecord
  2
2
 70
     0
 62
     4
  6
CONTINUOUS
370
    -3
390
3313
  0
LAYER
  5
52
102
{ACAD_XDICTIONARY
360
336E
102
}
330
2
100
AcDbSymbolTableRecord
100
AcDbLayerTableRecord
  2
3
 70
     0
 62
     2
  6
DASHED
370
    -3
390
3313
  0
LAYER
  5
53
102
{ACAD_XDICTIONARY
360
3370
102
}
330
2
100
AcDbSymbolTableRecord
100
AcDbLayerTableRecord
  2
6
 70
     0
 62
     5
  6
CONTINUOUS
370
    -3
390
3313
  0
LAYER
  5
54
102
{ACAD_XDICTIONARY
360
3372
102
}
330
2
100
AcDbSymbolTableRecord
100
AcDbLayerTableRecord
  2
7
 70
     0
 62
     3
  6
CONTINUOUS
370
    -3
390
3313
  0
ENDTAB
  0
TABLE
  2
STYLE
  5
3
330
0
100
AcDbSymbolTable
 70
     1
  0
STYLE
  5
F
330
3
100
AcDbSymbolTableRecord
100
AcDbTextStyleTableRecord
  2
STANDARD
 70
     0
 40
0.0
 41
1.0
 50
0.0
 71
     0
 42
2.5
  3
simplex.shx
  4

  0
ENDTAB
  0
TABLE
  2
VIEW
  5
6
330
0
100
AcDbSymbolTable
 70
     0
  0
ENDTAB
  0
TABLE
  2
UCS
  5
7
330
0
100
AcDbSymbolTable
 70
     0
  0
ENDTAB
  0
TABLE
  2
APPID
  5
9
330
0
100
AcDbSymbolTable
 70
     5
  0
APPID
  5
10
330
9
100
AcDbSymbolTableRecord
100
AcDbRegAppTableRecord
  2
ACAD
 70
     0
  0
APPID
  5
3E
330
9
100
AcDbSymbolTableRecord
100
AcDbRegAppTableRecord
  2
CONTENTTABDATA
 70
     0
  0
APPID
  5
3F
330
9
100
AcDbSymbolTableRecord
100
AcDbRegAppTableRecord
  2
CONTENTCURRENTTAB
 70
     0
  0
APPID
  5
337E
330
9
100
AcDbSymbolTableRecord
100
AcDbRegAppTableRecord
  2
ACAD_NAV_VCDISPLAY
 70
     0
  0
APPID
  5
33B7
330
9
100
AcDbSymbolTableRecord
100
AcDbRegAppTableRecord
  2
ACAD_MLEADERVER
 70
     0
  0
ENDTAB
  0
TABLE
  2
DIMSTYLE
  5
A
330
0
100
AcDbSymbolTable
 70
     1
100
AcDbDimStyleTable
 71
     0
  0
DIMSTYLE
105
1D
330
A
100
AcDbSymbolTableRecord
100
AcDbDimStyleTableRecord
  2
STANDARD
 70
     0
 41
3.0
 42
1.0
 43
10.0
 44
1.0
 73
     0
 74
     0
 77
     3
 78
     8
140
2.5
141
0.0
147
1.0
172
     1
173
     1
340
F
341
2E
343
2E
344
2E
  0
ENDTAB
  0
TABLE
  2
BLOCK_RECORD
  5
1
330
0
100
AcDbSymbolTable
 70
     1
  0
BLOCK_RECORD
  5
18
102
{ACAD_XDICTIONARY
360
330D
102
}
330
1
100
AcDbSymbolTableRecord
100
AcDbBlockTableRecord
  2
*MODEL_SPACE
340
3361
  0
BLOCK_RECORD
  5
15
102
{ACAD_XDICTIONARY
360
330B
102
}
330
1
100
AcDbSymbolTableRecord
100
AcDbBlockTableRecord
  2
*PAPER_SPACE
340
3362
  0
BLOCK_RECORD
  5
2E
330
1
100
AcDbSymbolTableRecord
100
AcDbBlockTableRecord
  2
_OPEN
340
0
  0
ENDTAB
  0
ENDSEC
  0
SECTION
  2
BLOCKS
  0
BLOCK
  5
19
330
18
100
AcDbEntity
  8
0
100
AcDbBlockBegin
  2
*MODEL_SPACE
 70
     0
 10
0.0
 20
0.0
 30
0.0
  3
*MODEL_SPACE
  1

  0
ENDBLK
  5
1A
330
18
100
AcDbEntity
  8
0
100
AcDbBlockEnd
  0
BLOCK
  5
16
330
15
100
AcDbEntity
 67
     1
  8
0
100
AcDbBlockBegin
  2
*PAPER_SPACE
 70
     0
 10
0.0
 20
0.0
 30
0.0
  3
*PAPER_SPACE
  1

  0
ENDBLK
  5
17
330
15
100
AcDbEntity
 67
     1
  8
0
100
AcDbBlockEnd
  0
BLOCK
  5
2F
330
2E
100
AcDbEntity
  8
0
100
AcDbBlockBegin
  2
_OPEN
 70
     0
 10
0.0
 20
0.0
 30
0.0
  3
_OPEN
  1

  0
LINE
  5
30
330
2E
100
AcDbEntity
  8
0
  6
ByBlock
 62
     0
100
AcDbLine
 10
-1.0
 20
0.1666666666666666
 30
0.0
 11
0.0
 21
0.0
 31
0.0
  0
LINE
  5
31
330
2E
100
AcDbEntity
  8
0
  6
ByBlock
 62
     0
100
AcDbLine
 10
0.0
 20
0.0
 30
0.0
 11
-1.0
 21
-0.1666666666666666
 31
0.0
  0
LINE
  5
32
330
2E
100
AcDbEntity
  8
0
  6
ByBlock
 62
     0
100
AcDbLine
 10
0.0
 20
0.0
 30
0.0
 11
-1.0
 21
0.0
 31
0.0
  0
ENDBLK
  5
33
330
2E
100
AcDbEntity
  8
0
100
AcDbBlockEnd
  0
ENDSEC
  0
SECTION
  2
ENTITIES
  0
TEXT
  5
63
330
18
100
AcDbEntity
  8
4
  6
CENTER
 48
0.25
100
AcDbText
 10
23.97950852663849
 20
10.0
 30
0.0
 40
1.399999999999999
  1
4
100
AcDbText
  0
TEXT
  5
64
330
18
100
AcDbEntity
  8
7
  6
Continuous
 48
0.25
100
AcDbText
 10
9.999997526638502
 20
26.0000007607689
 30
0.0
 40
3.0
  1
CODE No.11034
100
AcDbText
  0
TEXT
  5
65
330
18
100
AcDbEntity
  8
7
  6
Continuous
 48
0.25
100
AcDbText
 10
9.999997526638502
 20
18.00000076076889
 30
0.0
 40
3.0
  1
TYPE No.TL-369
100
AcDbText
  0
TEXT
  5
66
330
18
100
AcDbEntity
  8
1
  6
Continuous
 48
0.25
100
AcDbText
 10
9.999997526638502
 20
10.00000076076889
 30
0.0
 40
1.399999999999999
  1
LAYER
100
AcDbText
  0
TEXT
  5
67
330
18
100
AcDbEntity
  8
2
  6
Continuous
 48
0.25
100
AcDbText
 10
19.9795085266385
 20
10.0
 30
0.0
 40
1.399999999999999
  1
2
100
AcDbText
  0
TEXT
  5
68
330
18
100
AcDbEntity
  8
3
  6
DASHED
 48
0.25
100
AcDbText
 10
21.9795085266385
 20
10.0
 30
0.0
 40
1.399999999999999
  1
3
100
AcDbText
  0
TEXT
  5
69
330
18
100
AcDbEntity
  8
1
  6
Continuous
 48
0.25
100
AcDbText
 10
17.9795085266385
 20
10.0
 30
0.0
 40
1.399999999999999
  1
1
100
AcDbText
  0
TEXT
  5
6A
330
18
100
AcDbEntity
  8
5
  6
PHANTOM
 48
0.25
100
AcDbText
 10
25.9795085266385
 20
10.0
 30
0.0
 40
1.399999999999999
  1
5
100
AcDbText
  0
TEXT
  5
6B
330
18
100
AcDbEntity
  8
6
  6
Continuous
 48
0.25
100
AcDbText
 10
27.9795085266385
 20
10.0
 30
0.0
 40
1.399999999999999
  1
6
100
AcDbText
  0
TEXT
  5
6C
330
18
100
AcDbEntity
  8
7
  6
Continuous
 48
0.25
100
AcDbText
 10
29.9795085266385
 20
10.0
 30
0.0
 40
1.399999999999999
  1
7
100
AcDbText
  0
LINE
  5
4AD
330
18
100
AcDbEntity
  8
2
  6
Continuous
100
AcDbLine
 10
113.9989672395048
 20
116.5831374639456
 30
0.0
 11
101.8574672394999
 21
116.5831374639455
 31
0.0
  0
LINE
  5
4E9
330
18
100
AcDbEntity
  8
2
  6
Continuous
100
AcDbLine
 10
127.6634672395005
 20
128.6356374639451
 30
0.0
 11
118.2574672394998
 21
128.6356374639451
 31
0.0
  0
LINE
  5
4EA
330
18
100
AcDbEntity
  8
2
  6
Continuous
100
AcDbLine
 10
127.6634672394992
 20
122.4476374639451
 30
0.0
 11
118.2574672394998
 21
122.4476374639451
 31
0.0
  0
CIRCLE
  5
504
330
18
100
AcDbEntity
  8
1
  6
Continuous
100
AcDbCircle
 10
197.9477118826944
 20
125.5416374639457
 30
0.0
 40
11.0
  0
LINE
  5
505
330
18
100
AcDbEntity
  8
1
  6
Continuous
100
AcDbLine
 10
197.9477118827044
 20
138.2433433861222
 30
0.0
 11
186.9477118827043
 21
131.8924904250377
 31
0.0
  0
LINE
  5
506
330
18
100
AcDbEntity
  8
1
  6
Continuous
100
AcDbLine
 10
208.9477118827043
 20
131.8924904250272
 30
0.0
 11
197.9477118827044
 21
138.2433433861121
 31
0.0
  0
LINE
  5
50B
330
18
100
AcDbEntity
  8
1
  6
Continuous
100
AcDbLine
 10
197.9477118826841
 20
112.8399315417697
 30
0.0
 11
208.9477118826843
 21
119.1907845028542
 31
0.0
  0
ARC
  5
50D
330
18
100
AcDbEntity
  8
1
  6
Continuous
100
AcDbCircle
 10
197.9477118826944
 20
125.5416374639457
 30
0.0
 40
9.5
100
AcDbArc
 50
213.7387226487371
 51
326.2612773512617
  0
ARC
  5
50E
330
18
100
AcDbEntity
  8
1
  6
Continuous
100
AcDbCircle
 10
197.9477118826944
 20
125.5416374639858
 30
0.0
 40
9.5
100
AcDbArc
 50
33.73872264873821
 51
146.2612773512629
  0
LINE
  5
50F
330
18
100
AcDbEntity
  8
1
  6
Continuous
100
AcDbLine
 10
186.9477118826844
 20
119.1907845028647
 30
0.0
 11
197.9477118826844
 21
112.8399315417798
 31
0.0
  0
ARC
  5
511
330
18
100
AcDbEntity
  8
2
  6
Continuous
100
AcDbCircle
 10
197.9477118826944
 20
125.5416374639258
 30
0.0
 40
3.4999999999999
100
AcDbArc
 50
140.4823472028211
 51
219.5176527968957
  0
CIRCLE
  5
512
330
18
100
AcDbEntity
  8
1
  6
Continuous
100
AcDbCircle
 10
197.9477118826944
 20
125.5416374639457
 30
0.0
 40
5.499999999940895
  0
LINE
  5
513
330
18
100
AcDbEntity
  8
1
  6
Continuous
100
AcDbLine
 10
192.4477118826945
 20
128.7170639445459
 30
0.0
 11
197.9477118825944
 21
131.8924904250259
 31
0.0
  0
ARC
  5
515
330
18
100
AcDbEntity
  8
1
  6
Continuous
100
AcDbCircle
 10
197.9477118826894
 20
125.5416374639457
 30
0.0
 40
3.093999999999998
100
AcDbArc
 50
150.7688548602239
 51
209.2311451397727
  0
LINE
  5
518
330
18
100
AcDbEntity
  8
1
  6
Continuous
100
AcDbLine
 10
192.4477118826943
 20
122.3662109833958
 30
0.0
 11
197.9477118826943
 21
119.1907845028559
 31
0.0
  0
ARC
  5
519
330
18
100
AcDbEntity
  8
2
  6
Continuous
100
AcDbCircle
 10
197.9477118826893
 20
125.5416374639457
 30
0.0
 40
8.9585
100
AcDbArc
 50
208.134382499142
 51
331.8656175009927
  0
ARC
  5
51A
330
18
100
AcDbEntity
  8
1
  6
Continuous
100
AcDbCircle
 10
197.9477118826943
 20
125.5416374639557
 30
0.0
 40
8.799999999877
100
AcDbArc
 50
206.1390829635597
 51
295.0000000000098
  0
LINE
  5
51D
330
18
100
AcDbEntity
  8
1
  6
Continuous
100
AcDbLine
 10
201.3255810334942
 20
133.3416374639456
 30
0.0
 11
193.6616880843943
 21
133.3416374639456
 31
0.0
  0
ARC
  5
51E
330
18
100
AcDbEntity
  8
1
  6
Continuous
100
AcDbCircle
 10
197.9477118826943
 20
125.5416374639457
 30
0.0
 40
7.0
100
AcDbArc
 50
154.9999999999797
 51
295.0000000000299
  0
CIRCLE
  5
51F
330
18
100
AcDbEntity
  8
1
  6
Continuous
100
AcDbCircle
 10
197.9477118826943
 20
125.5416374639457
 30
0.0
 40
6.5
  0
LINE
  5
520
330
18
100
AcDbEntity
  8
1
  6
Continuous
100
AcDbLine
 10
186.9477118826944
 20
131.8924904250412
 30
0.0
 11
186.9477118826944
 21
119.1907845028712
 31
0.0
  0
ARC
  5
521
330
18
100
AcDbEntity
  8
1
  6
Continuous
100
AcDbCircle
 10
197.9477118826943
 20
125.5416374638958
 30
0.0
 40
7.299999999939498
100
AcDbArc
 50
154.9999999995304
 51
295.000000000253
  0
LINE
  5
522
330
18
100
AcDbEntity
  8
1
  6
Continuous
100
AcDbLine
 10
194.2286711794465
 20
117.5661289381362
 30
0.0
 11
194.8625985719943
 21
118.9255906185757
 31
0.0
  0
ARC
  5
523
330
18
100
AcDbEntity
  8
1
  6
Continuous
100
AcDbCircle
 10
197.9477118826943
 20
125.5416374639457
 30
0.0
 40
8.9
100
AcDbArc
 50
118.7883646262001
 51
155.0000000000199
  0
LINE
  5
524
330
18
100
AcDbEntity
  8
1
  6
Continuous
100
AcDbLine
 10
189.8815725780943
 20
129.3029399934358
 30
0.0
 11
191.6035573733943
 21
128.4999652961257
 31
0.0
  0
ARC
  5
525
330
18
100
AcDbEntity
  8
1
  6
Continuous
100
AcDbCircle
 10
197.9477118826944
 20
125.5416374639457
 30
0.0
 40
8.9585
100
AcDbArc
 50
151.865617500926
 51
208.1343824990739
  0
ARC
  5
526
330
18
100
AcDbEntity
  8
2
  6
Continuous
100
AcDbCircle
 10
197.9477118826944
 20
125.5416374639457
 30
0.0
 40
9.5
100
AcDbArc
 50
146.2612773512629
 51
213.7387226487371
  0
LINE
  5
527
330
18
100
AcDbEntity
  8
1
  6
Continuous
100
AcDbLine
 10
190.0477118826943
 20
120.2652750806358
 30
0.0
 11
190.0477118826943
 21
129.2254679633657
 31
0.0
  0
LINE
  5
528
330
18
100
AcDbEntity
  8
1
  6
Continuous
100
AcDbLine
 10
190.0477118826943
 20
129.6356311685458
 30
0.0
 11
190.0477118826943
 21
130.8179998472558
 31
0.0
  0
LINE
  5
529
330
18
100
AcDbEntity
  8
1
  6
Continuous
100
AcDbLine
 10
192.4477118826944
 20
122.3662109833957
 30
0.0
 11
192.4477118826944
 21
128.7170639445458
 31
0.0
  0
ARC
  5
52E
330
18
100
AcDbEntity
  8
1
  6
Continuous
100
AcDbCircle
 10
197.9477118826944
 20
125.5416374639457
 30
0.0
 40
8.9
100
AcDbArc
 50
294.9999999999898
 51
331.2116353738097
  0
LINE
  5
52F
330
18
100
AcDbEntity
  8
1
  6
Continuous
100
AcDbLine
 10
197.9477118826943
 20
119.1907845028558
 30
0.0
 11
203.4477118826944
 21
122.3662109833958
 31
0.0
  0
LINE
  5
530
330
18
100
AcDbEntity
  8
1
  6
Continuous
100
AcDbLine
 10
200.9060397148942
 20
119.1974829546858
 30
0.0
 11
201.7090144121943
 21
117.4754981593159
 31
0.0
  0
LINE
  5
537
330
18
100
AcDbEntity
  8
1
  6
Continuous
100
AcDbLine
 10
197.9477118825943
 20
131.8924904250257
 30
0.0
 11
203.4477118826943
 21
128.7170639444157
 31
0.0
  0
ARC
  5
538
330
18
100
AcDbEntity
  8
1
  6
Continuous
100
AcDbCircle
 10
197.9477118826943
 20
125.5416374639457
 30
0.0
 40
8.5
100
AcDbArc
 50
23.41551361544571
 51
66.58448638443886
  0
LINE
  5
539
330
18
100
AcDbEntity
  8
1
  6
Continuous
100
AcDbLine
 10
200.6477118826943
 20
123.3145317188158
 30
0.0
 11
200.6477118826942
 21
127.7687432090756
 31
0.0
  0
ARC
  5
545
330
18
100
AcDbEntity
  8
1
  6
Continuous
100
AcDbCircle
 10
197.9477118826944
 20
125.5416374639457
 30
0.0
 40
8.9585
100
AcDbArc
 50
331.8656175009235
 51
28.13438249907639
  0
ARC
  5
546
330
18
100
AcDbEntity
  8
2
  6
Continuous
100
AcDbCircle
 10
197.9477118826944
 20
125.5416374639457
 30
0.0
 40
9.5
100
AcDbArc
 50
326.2612773512617
 51
33.73872264873821
  0
LINE
  5
547
330
18
100
AcDbEntity
  8
1
  6
Continuous
100
AcDbLine
 10
205.7477118826943
 20
121.2556136655958
 30
0.0
 11
205.7477118826943
 21
128.9195066147557
 31
0.0
  0
LINE
  5
548
330
18
100
AcDbEntity
  8
1
  6
Continuous
100
AcDbLine
 10
205.8477118826943
 20
120.2652750806358
 30
0.0
 11
205.8477118826943
 21
130.8179998472558
 31
0.0
  0
LINE
  5
549
330
18
100
AcDbEntity
  8
1
  6
Continuous
100
AcDbLine
 10
203.4477118826943
 20
122.3662109833957
 30
0.0
 11
203.4477118826943
 21
128.7170639444157
 31
0.0
  0
ARC
  5
54F
330
18
100
AcDbEntity
  8
1
  6
Continuous
100
AcDbCircle
 10
197.9477118826943
 20
125.5416374639507
 30
0.0
 40
8.799999999877
100
AcDbArc
 50
332.4198007979294
 51
333.8609170365101
  0
LINE
  5
55E
330
18
100
AcDbEntity
  8
1
  6
Continuous
100
AcDbLine
 10
208.9477118826942
 20
119.1907845028507
 30
0.0
 11
208.9477118826942
 21
131.8924904250207
 31
0.0
  0
LINE
  5
6FA
330
18
100
AcDbEntity
  8
1
  6
Continuous
100
AcDbLine
 10
195.2477118826944
 20
123.3145317188158
 30
0.0
 11
195.2477118826946
 21
127.7687432090756
 31
0.0
  0
ARC
  5
6FB
330
18
100
AcDbEntity
  8
2
  6
Continuous
100
AcDbCircle
 10
197.9477118826894
 20
125.5416374639457
 30
0.0
 40
3.093999999999998
100
AcDbArc
 50
209.2311451397373
 51
330.768854860642
  0
ARC
  5
6FC
330
18
100
AcDbEntity
  8
1
  6
Continuous
100
AcDbCircle
 10
197.9477118826944
 20
125.5416374639258
 30
0.0
 40
3.4999999999999
100
AcDbArc
 50
219.5176527968957
 51
320.4823472028259
  0
ARC
  5
6FD
330
18
100
AcDbEntity
  8
2
  6
Continuous
100
AcDbCircle
 10
197.9477118826894
 20
125.5416374639457
 30
0.0
 40
3.093999999999998
100
AcDbArc
 50
29.23114513936132
 51
150.7688548602593
  0
ARC
  5
6FE
330
18
100
AcDbEntity
  8
1
  6
Continuous
100
AcDbCircle
 10
197.9477118826944
 20
125.5416374639258
 30
0.0
 40
3.4999999999999
100
AcDbArc
 50
39.51765279717705
 51
140.4823472028325
  0
ARC
  5
6FF
330
18
100
AcDbEntity
  8
1
  6
Continuous
100
AcDbCircle
 10
197.9477118826994
 20
125.5416374639457
 30
0.0
 40
3.093999999999998
100
AcDbArc
 50
330.7688548602272
 51
29.23114513977605
  0
ARC
  5
700
330
18
100
AcDbEntity
  8
2
  6
Continuous
100
AcDbCircle
 10
197.9477118826944
 20
125.5416374639258
 30
0.0
 40
3.4999999999999
100
AcDbArc
 50
320.4823472031043
 51
39.51765279717885
  0
LINE
  5
A70
330
18
100
AcDbEntity
  8
4
  6
CENTER
 48
0.3
100
AcDbLine
 10
95.35746723949996
 20
205.5416374639456
 30
0.0
 11
130.2574672394998
 21
205.5416374639456
 31
0.0
  0
LINE
  5
A84
330
18
100
AcDbEntity
  8
1
  6
Continuous
100
AcDbLine
 10
127.2574672394998
 20
202.841637463946
 30
0.0
 11
127.2574672394999
 21
208.2416374639457
 31
0.0
  0
LINE
  5
A85
330
18
100
AcDbEntity
  8
1
  6
Continuous
100
AcDbLine
 10
128.2574672394999
 20
208.0416374639457
 30
0.0
 11
128.0574672394999
 21
208.2416374639457
 31
0.0
  0
LINE
  5
A86
330
18
100
AcDbEntity
  8
1
  6
Continuous
100
AcDbLine
 10
150.8574672394999
 20
199.0416374639457
 30
0.0
 11
150.8574672394999
 21
212.0416374639457
 31
0.0
  0
LINE
  5
A87
330
18
100
AcDbEntity
  8
1
  6
Continuous
100
AcDbLine
 10
151.6574672394999
 20
199.0416374639457
 30
0.0
 11
151.6574672394999
 21
212.0416374639457
 31
0.0
  0
LINE
  5
A88
330
18
100
AcDbEntity
  8
1
  6
Continuous
100
AcDbLine
 10
155.6574672394999
 20
211.0416374640196
 30
0.0
 11
155.6574672394999
 21
200.0416374638727
 31
0.0
  0
LINE
  5
A8B
330
18
100
AcDbEntity
  8
1
  6
Continuous
100
AcDbLine
 10
118.2574672394999
 20
197.4754981593157
 30
0.0
 11
118.2574672394999
 21
213.3416374639457
 31
0.0
  0
LINE
  5
A8C
330
18
100
AcDbEntity
  8
1
  6
Continuous
100
AcDbLine
 10
116.6574672394999
 20
197.4754981593158
 30
0.0
 11
116.6574672394999
 21
213.3416374639458
 31
0.0
  0
LINE
  5
A92
330
18
100
AcDbEntity
  8
1
  6
Continuous
100
AcDbLine
 10
144.8574672394999
 20
194.541637463946
 30
0.0
 11
144.8574672394999
 21
216.5416374639456
 31
0.0
  0
LINE
  5
A96
330
18
100
AcDbEntity
  8
1
  6
Continuous
100
AcDbLine
 10
140.8574672394998
 20
216.5416374639457
 30
0.0
 11
140.8574672394999
 21
194.5416374639458
 31
0.0
  0
LINE
  5
A9E
330
18
100
AcDbEntity
  8
1
  6
Continuous
100
AcDbLine
 10
140.8574672394999
 20
194.5416374639458
 30
0.0
 11
144.8574672394999
 21
194.5416374639458
 31
0.0
  0
LINE
  5
AAE
330
18
100
AcDbEntity
  8
1
  6
Continuous
100
AcDbLine
 10
118.2574672394999
 20
197.4754981593158
 30
0.0
 11
116.6574672394999
 21
197.4754981593158
 31
0.0
  0
LINE
  5
AB6
330
18
100
AcDbEntity
  8
1
  6
Continuous
100
AcDbLine
 10
150.8574672394999
 20
199.0416374639457
 30
0.0
 11
151.6574672394999
 21
199.0416374639457
 31
0.0
  0
LINE
  5
AB7
330
18
100
AcDbEntity
  8
1
  6
Continuous
100
AcDbLine
 10
118.2574672394999
 20
201.2556136656457
 30
0.0
 11
116.6574672394999
 21
201.2556136656457
 31
0.0
  0
LINE
  5
AC9
330
18
100
AcDbEntity
  8
1
  6
Continuous
100
AcDbLine
 10
128.0574672395001
 20
202.841637463946
 30
0.0
 11
128.2574672394998
 21
203.0416374639457
 31
0.0
  0
LINE
  5
ACB
330
18
100
AcDbEntity
  8
1
  6
Continuous
100
AcDbLine
 10
152.1487074256023
 20
205.5416374639482
 30
0.0
 11
155.1662270533963
 21
205.5416374639456
 31
0.0
  0
LINE
  5
ACD
330
18
100
AcDbEntity
  8
1
  6
Continuous
100
AcDbLine
 10
151.6574672394998
 20
200.0416374639323
 30
0.0
 11
155.6574672394999
 21
200.0416374639477
 31
0.0
  0
LINE
  5
ACF
330
18
100
AcDbEntity
  8
1
  6
Continuous
100
AcDbLine
 10
118.2574672394999
 20
202.841637463946
 30
0.0
 11
128.0574672395001
 21
202.841637463946
 31
0.0
  0
LINE
  5
AD2
330
18
100
AcDbEntity
  8
1
  6
Continuous
100
AcDbLine
 10
128.2574672394999
 20
203.0416374639457
 30
0.0
 11
128.2574672394999
 21
208.0416374639457
 31
0.0
  0
LINE
  5
AD8
330
18
100
AcDbEntity
  8
1
  6
Continuous
100
AcDbLine
 10
144.8574672394999
 20
216.5416374639457
 30
0.0
 11
140.8574672394998
 21
216.5416374639457
 31
0.0
  0
LINE
  5
AD9
330
18
100
AcDbEntity
  8
1
  6
Continuous
100
AcDbLine
 10
140.8574672394999
 20
205.5416374639456
 30
0.0
 11
143.8574672394999
 21
205.5416374639456
 31
0.0
  0
LINE
  5
AEC
330
18
100
AcDbEntity
  8
1
  6
Continuous
100
AcDbLine
 10
151.6574672394999
 20
212.0416374639457
 30
0.0
 11
150.8574672394999
 21
212.0416374639457
 31
0.0
  0
LINE
  5
AED
330
18
100
AcDbEntity
  8
1
  6
Continuous
100
AcDbLine
 10
118.2574672394999
 20
213.3416374639458
 30
0.0
 11
116.6574672394999
 21
213.3416374639458
 31
0.0
  0
LINE
  5
AEF
330
18
100
AcDbEntity
  8
1
  6
Continuous
100
AcDbLine
 10
118.2574672394999
 20
208.9195066147456
 30
0.0
 11
116.6574672394999
 21
208.9195066147456
 31
0.0
  0
LINE
  5
AF5
330
18
100
AcDbEntity
  8
1
  6
Continuous
100
AcDbLine
 10
151.6574672394999
 20
211.0416374639332
 30
0.0
 11
155.6574672394999
 21
211.0416374639474
 31
0.0
  0
LINE
  5
AF7
330
18
100
AcDbEntity
  8
1
  6
Continuous
100
AcDbLine
 10
128.0574672394999
 20
208.2416374639457
 30
0.0
 11
118.2574672394999
 21
208.2416374639456
 31
0.0
  0
ARC
  5
DBF
330
18
100
AcDbEntity
  8
1
  6
Continuous
100
AcDbCircle
 10
129.2324672390246
 20
200.0416374638592
 30
0.0
 40
15.62500000047528
100
AcDbArc
 50
339.3903070634625
 51
20.60969293721502
  0
ARC
  5
DC0
330
18
100
AcDbEntity
  8
1
  6
Continuous
100
AcDbCircle
 10
129.2324672390246
 20
211.041637464032
 30
0.0
 40
15.62500000047528
100
AcDbArc
 50
339.390307062785
 51
20.60969293653748
  0
ARC
  5
DE8
330
18
100
AcDbEntity
  8
1
  6
Continuous
100
AcDbCircle
 10
147.7144923553981
 20
208.2916374639677
 30
0.0
 40
7.942974884101682
100
AcDbArc
 50
339.7438420005554
 51
20.25615799910473
  0
ARC
  5
DE9
330
18
100
AcDbEntity
  8
1
  6
Continuous
100
AcDbCircle
 10
159.6004421235976
 20
208.2916374639677
 30
0.0
 40
7.942974884101682
100
AcDbArc
 50
159.7438420008952
 51
200.2561579994446
  0
ARC
  5
DEA
330
18
100
AcDbEntity
  8
1
  6
Continuous
100
AcDbCircle
 10
147.7144923553981
 20
202.7916374639287
 30
0.0
 40
7.942974884101682
100
AcDbArc
 50
339.7438420008952
 51
20.2561579994446
  0
ARC
  5
DEB
330
18
100
AcDbEntity
  8
1
  6
Continuous
100
AcDbCircle
 10
159.6004421235976
 20
202.7916374639287
 30
0.0
 40
7.942974884101682
100
AcDbArc
 50
159.7438420005554
 51
200.2561579991047
  0
LINE
  5
DF0
330
18
100
AcDbEntity
  8
1
  6
Continuous
100
AcDbLine
 10
100.8574672394999
 20
213.4416374639458
 30
0.0
 11
116.3574672394999
 21
213.4416374639457
 31
0.0
  0
LINE
  5
DF1
330
18
100
AcDbEntity
  8
1
  6
Continuous
100
AcDbLine
 10
100.8574672394999
 20
197.6416374639456
 30
0.0
 11
116.3574672394999
 21
197.6416374639457
 31
0.0
  0
LINE
  5
E81
330
18
100
AcDbEntity
  8
1
  6
Continuous
100
AcDbLine
 10
277.6379565258889
 20
121.2556136655958
 30
0.0
 11
279.2379565258889
 21
121.2556136655958
 31
0.0
  0
LINE
  5
EB4
330
18
100
AcDbEntity
  8
1
  6
Continuous
100
AcDbLine
 10
277.637956525889
 20
128.91950661475
 30
0.0
 11
279.2379565258889
 21
128.91950661475
 31
0.0
  0
ARC
  5
FDC
330
18
100
AcDbEntity
  8
2
  6
Continuous
100
AcDbCircle
 10
197.9477118826894
 20
125.5416374639457
 30
0.0
 40
8.9585
100
AcDbArc
 50
28.13438249900841
 51
151.8656175008583
  0
LINE
  5
13EF
330
18
100
AcDbEntity
  8
2
  6
Continuous
100
AcDbLine
 10
113.9989672394951
 20
134.5001374639456
 30
0.0
 11
101.8574672394999
 21
134.5001374639457
 31
0.0
  0
ARC
  5
140E
330
18
100
AcDbEntity
  8
1
  6
Continuous
100
AcDbCircle
 10
197.9477118826943
 20
125.5416374639757
 30
0.0
 40
8.799999999877
100
AcDbArc
 50
26.13908296347801
 51
117.5801992024782
  0
LINE
  5
155D
330
18
100
AcDbEntity
  8
1
  6
Continuous
100
AcDbLine
 10
117.9574672394997
 20
49.26067816719356
 30
0.0
 11
117.9574672394997
 21
41.82259676069771
 31
0.0
  0
LINE
  5
1562
330
18
100
AcDbEntity
  8
1
  6
Continuous
100
AcDbLine
 10
117.9574672394997
 20
49.26067816719356
 30
0.0
 11
116.3574672394999
 21
49.26067816719355
 31
0.0
  0
LINE
  5
1563
330
18
100
AcDbEntity
  8
1
  6
Continuous
100
AcDbLine
 10
118.2574672394999
 20
41.78033493444565
 30
0.0
 11
116.6574672394999
 21
41.78033493444565
 31
0.0
  0
LINE
  5
1CD2
330
18
100
AcDbEntity
  8
4
  6
CENTER
 48
0.3
100
AcDbLine
 10
95.35746723949996
 20
125.5416374639456
 30
0.0
 11
130.2574672394999
 21
125.5416374639456
 31
0.0
  0
LINE
  5
1DF1
330
18
100
AcDbEntity
  8
4
  6
CENTER
 48
0.3
100
AcDbLine
 10
64.73948321985415
 20
205.5416374639456
 30
0.0
 11
12.23948321985358
 21
205.5416374639456
 31
0.0
  0
LINE
  5
1DF2
330
18
100
AcDbEntity
  8
1
  6
Continuous
100
AcDbLine
 10
43.03948321985359
 20
211.0416374639457
 30
0.0
 11
34.93948321985362
 21
211.0416374639457
 31
0.0
  0
LINE
  5
1DF3
330
18
100
AcDbEntity
  8
1
  6
Continuous
100
AcDbLine
 10
34.93948321985362
 20
200.0416374639457
 30
0.0
 11
43.03948321985359
 21
200.0416374639457
 31
0.0
  0
LINE
  5
1E03
330
18
100
AcDbEntity
  8
1
  6
Continuous
100
AcDbLine
 10
21.84503449528756
 20
216.5416374639458
 30
0.0
 11
25.23979082693256
 21
216.5416374639458
 31
0.0
  0
LINE
  5
1E04
330
18
100
AcDbEntity
  8
1
  6
Continuous
100
AcDbLine
 10
25.57486216847354
 20
217.5416374639656
 30
0.0
 11
21.30985073676356
 21
217.5416374639656
 31
0.0
  0
LINE
  5
1E07
330
18
100
AcDbEntity
  8
1
  6
Continuous
100
AcDbLine
 10
21.84503449528762
 20
194.5416374639456
 30
0.0
 11
25.23979082693262
 21
194.5416374639456
 31
0.0
  0
LINE
  5
1E0E
330
18
100
AcDbEntity
  8
1
  6
Continuous
100
AcDbLine
 10
21.30985073676362
 20
193.5416374639256
 30
0.0
 11
25.57486216847354
 21
193.5416374639256
 31
0.0
  0
LINE
  5
1E12
330
18
100
AcDbEntity
  8
1
  6
Continuous
100
AcDbLine
 10
15.23948321985364
 20
209.4360861885557
 30
0.0
 11
15.23948321985364
 21
201.6471887393356
 31
0.0
  0
ARC
  5
1E14
330
18
100
AcDbEntity
  8
1
  6
Continuous
100
AcDbCircle
 10
18.23948321985364
 20
201.9499643770966
 30
0.0
 40
2.0
100
AcDbArc
 50
180.0
 51
213.6900675259802
  0
ARC
  5
1E15
330
18
100
AcDbEntity
  8
1
  6
Continuous
100
AcDbCircle
 10
20.73948321984363
 20
202.0416374639556
 30
0.0
 40
0.5
100
AcDbArc
 50
270.0
 51
0.0000000000113991
  0
ARC
  5
1E16
330
18
100
AcDbEntity
  8
1
  6
Continuous
100
AcDbCircle
 10
18.23948321982362
 20
202.0416374639456
 30
0.0
 40
0.5
100
AcDbArc
 50
180.0
 51
270.0000000019069
  0
ARC
  5
1E1A
330
18
100
AcDbEntity
  8
1
  6
Continuous
100
AcDbCircle
 10
18.21387340328999
 20
197.0982418548113
 30
0.0
 40
0.3
100
AcDbArc
 50
197.0520962571131
 51
230.3280387944553
  0
LINE
  5
1E1F
330
18
100
AcDbEntity
  8
1
  6
Continuous
100
AcDbLine
 10
16.57538263117805
 20
200.8405639846466
 30
0.0
 11
20.18093390661209
 21
195.4322370714951
 31
0.0
  0
LINE
  5
1E21
330
18
100
AcDbEntity
  8
1
  6
Continuous
100
AcDbLine
 10
15.57538263117368
 20
200.5377883468955
 30
0.0
 11
19.6457501480836
 21
194.4322370714854
 31
0.0
  0
ARC
  5
1E26
330
18
100
AcDbEntity
  8
1
  6
Continuous
100
AcDbCircle
 10
17.23948321985363
 20
201.6471887393456
 30
0.0
 40
2.0
100
AcDbArc
 50
180.0000000001188
 51
213.6900675259097
  0
ARC
  5
1E27
330
18
100
AcDbEntity
  8
1
  6
Continuous
100
AcDbCircle
 10
21.30985073676362
 20
195.5416374639256
 30
0.0
 40
1.999999999999899
100
AcDbArc
 50
213.6900675257792
 51
270.0000000000096
  0
ARC
  5
1E2A
330
18
100
AcDbEntity
  8
1
  6
Continuous
100
AcDbCircle
 10
21.84503449528762
 20
196.5416374639456
 30
0.0
 40
2.0
100
AcDbArc
 50
213.6900675259802
 51
270.0
  0
LINE
  5
1E2D
330
18
100
AcDbEntity
  8
1
  6
Continuous
100
AcDbLine
 10
18.23948321984363
 20
201.5416374639456
 30
0.0
 11
20.73948321984363
 21
201.5416374639456
 31
0.0
  0
ARC
  5
1E33
330
18
100
AcDbEntity
  8
1
  6
Continuous
100
AcDbCircle
 10
18.23948321984357
 20
209.0416374639256
 30
0.0
 40
0.5
100
AcDbArc
 50
90.0
 51
179.9999999980898
  0
LINE
  5
1E34
330
18
100
AcDbEntity
  8
1
  6
Continuous
100
AcDbLine
 10
20.18093390671447
 20
215.6510378563962
 30
0.0
 11
16.575382631178
 21
210.2427109430917
 31
0.0
  0
LINE
  5
1E37
330
18
100
AcDbEntity
  8
1
  6
Continuous
100
AcDbLine
 10
19.64575014808355
 20
216.6510378564062
 30
0.0
 11
15.57538263117356
 21
210.5454865809957
 31
0.0
  0
ARC
  5
1E38
330
18
100
AcDbEntity
  8
1
  6
Continuous
100
AcDbCircle
 10
18.23948321985358
 20
209.1333105506411
 30
0.0
 40
2.0
100
AcDbArc
 50
146.3099324740197
 51
180.0
  0
ARC
  5
1E39
330
18
100
AcDbEntity
  8
1
  6
Continuous
100
AcDbCircle
 10
17.23948321985358
 20
209.4360861885557
 30
0.0
 40
2.0
100
AcDbArc
 50
146.3099324742501
 51
180.0000000000195
  0
LINE
  5
1E41
330
18
100
AcDbEntity
  8
1
  6
Continuous
100
AcDbLine
 10
16.23948321985364
 20
201.9499643770966
 30
0.0
 11
16.23948321985364
 21
209.1333105506411
 31
0.0
  0
ARC
  5
1E46
330
18
100
AcDbEntity
  8
1
  6
Continuous
100
AcDbCircle
 10
20.73948321985358
 20
209.0416374639456
 30
0.0
 40
0.5
100
AcDbArc
 50
0.0
 51
90.00000000121969
  0
LINE
  5
1E4C
330
18
100
AcDbEntity
  8
1
  6
Continuous
100
AcDbLine
 10
20.73948321984363
 20
209.5416374639457
 30
0.0
 11
18.23948321984357
 21
209.5416374639456
 31
0.0
  0
LINE
  5
1E4D
330
18
100
AcDbEntity
  8
1
  6
Continuous
100
AcDbLine
 10
21.23948321984363
 20
202.0416374639456
 30
0.0
 11
21.23948321984363
 21
209.0416374639457
 31
0.0
  0
ARC
  5
1E4E
330
18
100
AcDbEntity
  8
1
  6
Continuous
100
AcDbCircle
 10
21.30985073675361
 20
215.5416374639556
 30
0.0
 40
1.999999999999899
100
AcDbArc
 50
89.99999999988926
 51
146.3099324740409
  0
ARC
  5
1E4F
330
18
100
AcDbEntity
  8
1
  6
Continuous
100
AcDbCircle
 10
21.84503449539005
 20
214.5416374639456
 30
0.0
 40
2.0
100
AcDbArc
 50
90.0
 51
146.3099324740197
  0
LINE
  5
1E5A
330
18
100
AcDbEntity
  8
1
  6
Continuous
100
AcDbLine
 10
34.9094832198536
 20
201.2914644748857
 30
0.0
 11
34.9094832198536
 21
209.7918104529992
 31
0.0
  0
LINE
  5
1E5F
330
18
100
AcDbEntity
  8
1
  6
Continuous
100
AcDbLine
 10
26.4394954945746
 20
194.9414160072601
 30
0.0
 11
34.90948321985348
 21
201.2914644748855
 31
0.0
  0
LINE
  5
1E60
330
18
100
AcDbEntity
  8
1
  6
Continuous
100
AcDbLine
 10
26.77191354550354
 20
193.9394302361556
 30
0.0
 11
34.93948321985362
 21
200.0416374639456
 31
0.0
  0
ARC
  5
1E61
330
18
100
AcDbEntity
  8
1
  6
Continuous
100
AcDbCircle
 10
25.57486216846354
 20
195.5416374639256
 30
0.0
 40
1.999999999999899
100
AcDbArc
 50
270.0000000000374
 51
306.7643806750883
  0
ARC
  5
1E62
330
18
100
AcDbEntity
  8
1
  6
Continuous
100
AcDbCircle
 10
25.23979082693262
 20
196.5416374639456
 30
0.0
 40
2.0
100
AcDbArc
 50
270.0000000000016
 51
306.8593225666882
  0
LINE
  5
1E71
330
18
100
AcDbEntity
  8
1
  6
Continuous
100
AcDbLine
 10
34.90948321985371
 20
209.7918104529992
 30
0.0
 11
26.43949549456573
 21
216.1418589206317
 31
0.0
  0
LINE
  5
1E74
330
18
100
AcDbEntity
  8
1
  6
Continuous
100
AcDbLine
 10
34.93948321985362
 20
211.0416374639457
 30
0.0
 11
26.77191354550359
 21
217.1438446917357
 31
0.0
  0
ARC
  5
1E76
330
18
100
AcDbEntity
  8
1
  6
Continuous
100
AcDbCircle
 10
25.57486216847354
 20
215.5416374639655
 30
0.0
 40
2.0
100
AcDbArc
 50
53.23561932502923
 51
90.00000000007981
  0
ARC
  5
1E77
330
18
100
AcDbEntity
  8
1
  6
Continuous
100
AcDbCircle
 10
25.23979082692358
 20
214.5416374639456
 30
0.0
 40
2.0
100
AcDbArc
 50
53.1406774333095
 51
90.0
  0
LINE
  5
1E82
330
18
100
AcDbEntity
  8
1
  6
Continuous
100
AcDbLine
 10
61.09288378857456
 20
203.5473665676911
 30
0.0
 11
57.41029238367435
 21
202.1561653702757
 31
0.0
  0
LINE
  5
1E83
330
18
100
AcDbEntity
  8
1
  6
Continuous
100
AcDbLine
 10
61.09288378857553
 20
207.5359083601953
 30
0.0
 11
57.410292383674
 21
208.9271095576155
 31
0.0
  0
LINE
  5
1E85
330
18
100
AcDbEntity
  8
1
  6
Continuous
100
AcDbLine
 10
43.03948321985346
 20
208.9916374639458
 30
0.0
 11
57.0568918149541
 21
208.9916374639457
 31
0.0
  0
LINE
  5
1E86
330
18
100
AcDbEntity
  8
1
  6
Continuous
100
AcDbLine
 10
43.03948321985359
 20
202.0916374639456
 30
0.0
 11
57.0568918149541
 21
202.0916374639456
 31
0.0
  0
LINE
  5
1E87
330
18
100
AcDbEntity
  8
1
  6
Continuous
100
AcDbLine
 10
42.83948321985359
 20
201.8916374639457
 30
0.0
 11
42.83948321985359
 21
201.5532838664356
 31
0.0
  0
ARC
  5
1E98
330
18
100
AcDbEntity
  8
1
  6
Continuous
100
AcDbCircle
 10
43.03948321979361
 20
201.5532838664956
 30
0.0
 40
0.20000000000005
100
AcDbArc
 50
180.000000016869
 51
226.8476102906901
  0
ARC
  5
1E99
330
18
100
AcDbEntity
  8
1
  6
Continuous
100
AcDbCircle
 10
43.03948321985359
 20
200.2416374639252
 30
0.0
 40
0.19999999999999
100
AcDbArc
 50
270.0
 51
0.0000000059047379
  0
ARC
  5
1E9A
330
18
100
AcDbEntity
  8
1
  6
Continuous
100
AcDbCircle
 10
43.03948321982415
 20
201.0049910614851
 30
0.0
 40
0.20000000000005
100
AcDbArc
 50
0.0000000001139911
 51
46.84761025285921
  0
LINE
  5
1E9B
330
18
100
AcDbEntity
  8
1
  6
Continuous
100
AcDbLine
 10
42.9026949940735
 20
201.4073764256156
 30
0.0
 11
43.17627144559803
 21
201.1508985023096
 31
0.0
  0
LINE
  5
1E9C
330
18
100
AcDbEntity
  8
1
  6
Continuous
100
AcDbLine
 10
43.23948321985364
 20
200.2416374639456
 30
0.0
 11
43.23948321985364
 21
201.0049910614557
 31
0.0
  0
LINE
  5
1E9E
330
18
100
AcDbEntity
  8
1
  6
Continuous
100
AcDbLine
 10
42.9026949940735
 20
209.6758985022757
 30
0.0
 11
43.17627144563352
 21
209.9323764256157
 31
0.0
  0
ARC
  5
1E9F
330
18
100
AcDbEntity
  8
1
  6
Continuous
100
AcDbCircle
 10
43.03948321985359
 20
201.8916374639857
 30
0.0
 40
0.19999999999999
100
AcDbArc
 50
90.0
 51
180.0000000118502
  0
ARC
  5
1EA0
330
18
100
AcDbEntity
  8
1
  6
Continuous
100
AcDbCircle
 10
43.03948321985409
 20
209.1916374639457
 30
0.0
 40
0.19999999999999
100
AcDbArc
 50
180.0
 51
270.0000000010096
  0
ARC
  5
1EA1
330
18
100
AcDbEntity
  8
1
  6
Continuous
100
AcDbCircle
 10
43.03948321985359
 20
209.5299910614252
 30
0.0
 40
0.19999999999999
100
AcDbArc
 50
133.1523897281094
 51
179.9999999914197
  0
LINE
  5
1EA2
330
18
100
AcDbEntity
  8
1
  6
Continuous
100
AcDbLine
 10
42.83948321985359
 20
209.1916374639457
 30
0.0
 11
42.83948321985359
 21
209.5299910614556
 31
0.0
  0
ARC
  5
1EA3
330
18
100
AcDbEntity
  8
1
  6
Continuous
100
AcDbCircle
 10
43.03948321985359
 20
210.0782838665057
 30
0.0
 40
0.19999999999997
100
AcDbArc
 50
313.152389720205
 51
359.9999999999674
  0
ARC
  5
1EA4
330
18
100
AcDbEntity
  8
1
  6
Continuous
100
AcDbCircle
 10
43.03948321983404
 20
210.8416374639457
 30
0.0
 40
0.20000000000005
100
AcDbArc
 50
0.0
 51
89.99999999408059
  0
LINE
  5
1EA5
330
18
100
AcDbEntity
  8
1
  6
Continuous
100
AcDbLine
 10
43.23948321985364
 20
210.0782838664357
 30
0.0
 11
43.23948321985364
 21
210.8416374639457
 31
0.0
  0
ARC
  5
1EAD
330
18
100
AcDbEntity
  8
1
  6
Continuous
100
AcDbCircle
 10
57.0568918149441
 20
203.0916374639362
 30
0.0
 40
1.0
100
AcDbArc
 50
270.0000000008614
 51
290.6954507349839
  0
ARC
  5
1EAE
330
18
100
AcDbEntity
  8
1
  6
Continuous
100
AcDbCircle
 10
57.0568918149641
 20
207.9916374639457
 30
0.0
 40
1.0
100
AcDbArc
 50
69.30454926629934
 51
90.00000000038919
  0
LINE
  5
1EB1
330
18
100
AcDbEntity
  8
1
  6
Continuous
100
AcDbLine
 10
59.2394832198541
 20
202.8471930195027
 30
0.0
 11
59.2394832198541
 21
208.2360819083857
 31
0.0
  0
LINE
  5
1EBC
330
18
100
AcDbEntity
  8
1
  6
Continuous
100
AcDbLine
 10
61.7394832198541
 20
204.4828386613572
 30
0.0
 11
61.7394832198541
 21
206.6004362665296
 31
0.0
  0
LINE
  5
1FBF
330
18
100
AcDbEntity
  8
1
  6
Continuous
100
AcDbLine
 10
17.73948321984357
 20
202.0416374639422
 30
0.0
 11
17.73948321984357
 21
209.0416374639423
 31
0.0
  0
LINE
  5
25AD
330
18
100
AcDbEntity
  8
1
  6
Continuous
100
AcDbLine
 10
118.2574672394999
 20
42.58330963174575
 30
0.0
 11
117.9574672394997
 21
42.58330963174575
 31
0.0
  0
LINE
  5
25AE
330
18
100
AcDbEntity
  8
1
  6
Continuous
100
AcDbLine
 10
116.6574672394999
 20
52.54163746394567
 30
0.0
 11
118.2574672394999
 21
52.54163746394567
 31
0.0
  0
LINE
  5
25B0
330
18
100
AcDbEntity
  8
1
  6
Continuous
100
AcDbLine
 10
117.9574672394997
 20
41.82259676069771
 30
0.0
 11
116.3574672394999
 21
41.82259676069771
 31
0.0
  0
LINE
  5
25BD
330
18
100
AcDbEntity
  8
1
  6
Continuous
100
AcDbLine
 10
43.19852819757072
 20
119.1907845029055
 30
0.0
 11
43.19852819757048
 21
131.8924904250877
 31
0.0
  0
LINE
  5
25BF
330
18
100
AcDbEntity
  8
1
  6
Continuous
100
AcDbLine
 10
32.19852819758083
 20
138.243343386177
 30
0.0
 11
21.19852819757082
 21
131.8924904250866
 31
0.0
  0
LINE
  5
25C0
330
18
100
AcDbEntity
  8
1
  6
Continuous
100
AcDbLine
 10
21.19852819757082
 20
131.892490425096
 30
0.0
 11
21.19852819757082
 21
119.1907845029137
 31
0.0
  0
LINE
  5
25C1
330
18
100
AcDbEntity
  8
1
  6
Continuous
100
AcDbLine
 10
21.19852819757082
 20
119.1907845029137
 30
0.0
 11
32.19852819756936
 21
112.839931541829
 31
0.0
  0
LINE
  5
25C5
330
18
100
AcDbEntity
  8
1
  6
Continuous
100
AcDbLine
 10
43.19852819757048
 20
131.8924904250877
 30
0.0
 11
32.19852819758083
 21
138.2433433861669
 31
0.0
  0
LINE
  5
25C7
330
18
100
AcDbEntity
  8
1
  6
Continuous
100
AcDbLine
 10
32.19852819756936
 20
112.839931541829
 30
0.0
 11
43.19852819756076
 21
119.190784502909
 31
0.0
  0
LINE
  5
25CC
330
18
100
AcDbEntity
  8
4
  6
CENTER
 48
0.3
100
AcDbLine
 10
212.4477118826944
 20
125.5416374639457
 30
0.0
 11
183.4477118826944
 21
125.5416374639457
 31
0.0
  0
LINE
  5
25CD
330
18
100
AcDbEntity
  8
4
  6
CENTER
 48
0.3
100
AcDbLine
 10
197.9477118826944
 20
140.0416374639458
 30
0.0
 11
197.9477118826944
 21
111.0416374639457
 31
0.0
  0
LINE
  5
2899
330
18
100
AcDbEntity
  8
1
  6
Continuous
100
AcDbLine
 10
98.35746723950002
 20
115.5416374639407
 30
0.0
 11
99.85746723950001
 21
114.5416374639407
 31
0.0
  0
LINE
  5
289A
330
18
100
AcDbEntity
  8
1
  6
Continuous
100
AcDbLine
 10
99.85746723950008
 20
136.5416374639407
 30
0.0
 11
98.35746723950009
 21
135.5416374639407
 31
0.0
  0
LINE
  5
289B
330
18
100
AcDbEntity
  8
4
  6
CENTER
 48
0.3
100
AcDbLine
 10
32.19852819757086
 20
140.0416374639458
 30
0.0
 11
32.19852819757078
 21
111.0416374640158
 31
0.0
  0
CIRCLE
  5
289C
330
18
100
AcDbEntity
  8
1
  6
Continuous
100
AcDbCircle
 10
32.19852819757079
 20
125.5416374639807
 30
0.0
 40
11.0
  0
LINE
  5
289D
330
18
100
AcDbEntity
  8
4
  6
CENTER
 48
0.3
100
AcDbLine
 10
46.69852819753582
 20
125.5416374639807
 30
0.0
 11
17.69852819760588
 21
125.5416374639807
 31
0.0
  0
LINE
  5
289E
330
18
100
AcDbEntity
  8
1
  6
Continuous
100
AcDbLine
 10
31.5090990859108
 20
127.7159908161308
 30
0.0
 11
36.93848953608078
 21
122.2866003659607
 31
0.0
  0
LINE
  5
289F
330
18
100
AcDbEntity
  8
1
  6
Continuous
100
AcDbLine
 10
30.02417484542081
 20
126.2310665756407
 30
0.0
 11
35.4535652955908
 21
120.8016761254707
 31
0.0
  0
LINE
  5
28A0
330
18
100
AcDbEntity
  8
1
  6
Continuous
100
AcDbLine
 10
28.26490484281077
 20
127.7782045438906
 30
0.0
 11
34.43509527748079
 21
121.6080141092206
 31
0.0
  0
LINE
  5
28A1
330
18
100
AcDbEntity
  8
1
  6
Continuous
100
AcDbLine
 10
29.96196111766073
 20
129.4752608187406
 30
0.0
 11
36.13215155233074
 21
123.3050703840706
 31
0.0
  0
LINE
  5
28A2
330
18
100
AcDbEntity
  8
4
  6
CENTER
 48
0.3
100
AcDbLine
 10
21.9454798703906
 20
135.7946857911608
 30
0.0
 11
42.45157652475096
 21
115.2885891368005
 31
0.0
  0
LINE
  5
28A3
330
18
100
AcDbEntity
  8
4
  6
CENTER
 48
0.3
100
AcDbLine
 10
42.45157652475104
 20
135.7946857911609
 30
0.0
 11
21.94547987039069
 21
115.2885891368006
 31
0.0
  0
CIRCLE
  5
28A4
330
18
100
AcDbEntity
  8
1
  6
Continuous
100
AcDbCircle
 10
32.19852819757079
 20
125.5416374639807
 30
0.0
 40
5.9
  0
CIRCLE
  5
28A6
330
18
100
AcDbEntity
  8
1
  6
Continuous
100
AcDbCircle
 10
32.19852819757079
 20
125.5416374639807
 30
0.0
 40
10.0
  0
ARC
  5
28A7
330
18
100
AcDbEntity
  8
1
  6
Continuous
100
AcDbCircle
 10
32.19852819757079
 20
125.5416374639807
 30
0.0
 40
5.75
100
AcDbArc
 50
325.5217459659557
 51
304.4782540340443
  0
ARC
  5
28A8
330
18
100
AcDbEntity
  8
1
  6
Continuous
100
AcDbCircle
 10
32.19852819757079
 20
125.5416374639807
 30
0.0
 40
4.0
100
AcDbArc
 50
332.4576031237603
 51
117.5423968762301
  0
ARC
  5
28A9
330
18
100
AcDbEntity
  8
1
  6
Continuous
100
AcDbCircle
 10
32.19852819757079
 20
125.5416374639807
 30
0.0
 40
4.0000000000001
100
AcDbArc
 50
152.4576031237399
 51
297.5423968762505
  0
ARC
  5
28AB
330
18
100
AcDbEntity
  8
1
  6
Continuous
100
AcDbCircle
 10
32.19852819757079
 20
125.5416374639807
 30
0.0
 40
4.525
100
AcDbArc
 50
119.6215568024498
 51
150.3784431976507
  0
LINE
  5
28AC
330
18
100
AcDbEntity
  8
1
  6
Continuous
100
AcDbLine
 10
30.02417484542081
 20
126.2310665756407
 30
0.0
 11
31.50909908591074
 21
127.7159908161306
 31
0.0
  0
ARC
  5
28AF
330
18
100
AcDbEntity
  8
1
  6
Continuous
100
AcDbCircle
 10
32.19852819757079
 20
125.5416374639807
 30
0.0
 40
5.2
100
AcDbArc
 50
303.3168303260794
 51
326.6714780271494
  0
ARC
  5
28B3
330
18
100
AcDbEntity
  8
1
  6
Continuous
100
AcDbCircle
 10
32.1985281975028
 20
125.5416374639457
 30
0.0
 40
4.525
100
AcDbArc
 50
299.6215568033803
 51
301.5825477875998
  0
ARC
  5
28B4
330
18
100
AcDbEntity
  8
1
  6
Continuous
100
AcDbCircle
 10
32.1985281975593
 20
125.5416374639507
 30
0.0
 40
4.525
100
AcDbArc
 50
328.4174522137994
 51
330.3784431980103
  0
LINE
  5
28B5
330
18
100
AcDbEntity
  8
1
  6
Continuous
100
AcDbLine
 10
98.35746723949995
 20
115.5416374639407
 30
0.0
 11
98.35746723949995
 21
135.5416374639407
 31
0.0
  0
LINE
  5
28B6
330
18
100
AcDbEntity
  8
1
  6
Continuous
100
AcDbLine
 10
97.35746723949995
 20
121.5416374639407
 30
0.0
 11
97.35746723949995
 21
129.5416374639407
 31
0.0
  0
LINE
  5
28B7
330
18
100
AcDbEntity
  8
1
  6
Continuous
100
AcDbLine
 10
97.65746723949995
 20
121.6080141091806
 30
0.0
 11
97.35746723950001
 21
121.9949618138706
 31
0.0
  0
LINE
  5
28B8
330
18
100
AcDbEntity
  8
1
  6
Continuous
100
AcDbLine
 10
97.35746723949995
 20
123.6920180887206
 30
0.0
 11
97.65746723949995
 21
123.3050703840307
 31
0.0
  0
LINE
  5
28B9
330
18
100
AcDbEntity
  8
1
  6
Continuous
100
AcDbLine
 10
97.35746723950008
 20
121.5416374639408
 30
0.0
 11
98.35746723950009
 21
119.7916374639407
 31
0.0
  0
LINE
  5
28BA
330
18
100
AcDbEntity
  8
1
  6
Continuous
100
AcDbLine
 10
97.65746723949995
 20
121.6080141091806
 30
0.0
 11
97.65746723949995
 21
123.3050703840307
 31
0.0
  0
LINE
  5
28BB
330
18
100
AcDbEntity
  8
1
  6
Continuous
100
AcDbLine
 10
98.08073075075993
 20
121.1505308104806
 30
0.0
 11
98.35746723949995
 21
120.8016761254306
 31
0.0
  0
LINE
  5
28BC
330
18
100
AcDbEntity
  8
1
  6
Continuous
100
AcDbLine
 10
97.65746723950009
 20
121.6868510514607
 30
0.0
 11
98.08073075076
 21
121.1505308104807
 31
0.0
  0
LINE
  5
28BD
330
18
100
AcDbEntity
  8
1
  6
Continuous
100
AcDbLine
 10
98.08073075076
 20
122.6354550509707
 30
0.0
 11
98.35746723950002
 21
122.2866003659207
 31
0.0
  0
LINE
  5
28BE
330
18
100
AcDbEntity
  8
1
  6
Continuous
100
AcDbLine
 10
97.65746723949995
 20
123.1717752919607
 30
0.0
 11
98.08073075076
 21
122.6354550509707
 31
0.0
  0
LINE
  5
28BF
330
18
100
AcDbEntity
  8
1
  6
Continuous
100
AcDbLine
 10
98.35746723950002
 20
131.2916374639407
 30
0.0
 11
97.35746723950001
 21
129.5416374639407
 31
0.0
  0
LINE
  5
28C7
330
18
100
AcDbEntity
  8
1
  6
Continuous
100
AcDbLine
 10
144.8574672394999
 20
114.5416374639462
 30
0.0
 11
144.8574672394999
 21
136.5416374639456
 31
0.0
  0
LINE
  5
28C8
330
18
100
AcDbEntity
  8
1
  6
Continuous
100
AcDbLine
 10
140.8574672394999
 20
138.2433433861065
 30
0.0
 11
140.8574672394999
 21
112.8399315418977
 31
0.0
  0
LINE
  5
28CA
330
18
100
AcDbEntity
  8
1
  6
Continuous
100
AcDbLine
 10
99.85746723949995
 20
114.5416374639407
 30
0.0
 11
99.85746723949995
 21
136.5416374639407
 31
0.0
  0
LINE
  5
28D0
330
18
100
AcDbEntity
  8
1
  6
Continuous
100
AcDbLine
 10
152.1487074256024
 20
122.366210983361
 30
0.0
 11
155.1662270533963
 21
122.3662109833585
 31
0.0
  0
LINE
  5
28D1
330
18
100
AcDbEntity
  8
1
  6
Continuous
100
AcDbLine
 10
152.1487074255835
 20
128.7170639444737
 30
0.0
 11
155.1662270534128
 21
128.7170639444844
 31
0.0
  0
LINE
  5
28D2
330
18
100
AcDbEntity
  8
1
  6
Continuous
100
AcDbLine
 10
152.1487074255848
 20
119.1907845028679
 30
0.0
 11
155.1662270534217
 21
119.1907845028794
 31
0.0
  0
LINE
  5
28D3
330
18
100
AcDbEntity
  8
1
  6
Continuous
100
AcDbLine
 10
152.1487074255792
 20
131.8924904250151
 30
0.0
 11
155.1662270534171
 21
131.8924904250203
 31
0.0
  0
LINE
  5
28D6
330
18
100
AcDbEntity
  8
1
  6
Continuous
100
AcDbLine
 10
100.8574672394999
 20
116.0416374639407
 30
0.0
 11
113.4574672394999
 21
116.0416374639407
 31
0.0
  0
LINE
  5
28D8
330
18
100
AcDbEntity
  8
1
  6
Continuous
100
AcDbLine
 10
100.8574672394999
 20
120.2652750806307
 30
0.0
 11
113.4574672394999
 21
120.2652750806307
 31
0.0
  0
LINE
  5
28D9
330
18
100
AcDbEntity
  8
2
  6
Continuous
100
AcDbLine
 10
100.8574672394999
 20
120.2652750806307
 30
0.0
 11
116.3574672394998
 21
129.4184918589456
 31
0.0
  0
LINE
  5
28DA
330
18
100
AcDbEntity
  8
2
  6
Continuous
100
AcDbLine
 10
100.8574672394999
 20
130.8179998472507
 30
0.0
 11
116.3574672394999
 21
121.6647830689457
 31
0.0
  0
LINE
  5
28DB
330
18
100
AcDbEntity
  8
1
  6
Continuous
100
AcDbLine
 10
113.4574672394999
 20
130.8179998472507
 30
0.0
 11
100.8574672394999
 21
130.8179998472507
 31
0.0
  0
LINE
  5
28E0
330
18
100
AcDbEntity
  8
1
  6
Continuous
100
AcDbLine
 10
113.4574672394999
 20
135.0416374639407
 30
0.0
 11
100.8574672394999
 21
135.0416374639407
 31
0.0
  0
ARC
  5
28E1
330
18
100
AcDbEntity
  8
1
  6
Continuous
100
AcDbCircle
 10
124.1908005736799
 20
125.5416374640356
 30
0.0
 40
20.66666666581749
100
AcDbArc
 50
342.1034488703798
 51
17.89655112962332
  0
LINE
  5
28E2
330
18
100
AcDbEntity
  8
1
  6
Continuous
100
AcDbLine
 10
101.8574672394999
 20
120.2652750806357
 30
0.0
 11
101.8574672394999
 21
116.0416374639457
 31
0.0
  0
LINE
  5
28E4
330
18
100
AcDbEntity
  8
1
  6
Continuous
100
AcDbLine
 10
100.8574672394999
 20
136.3416374639406
 30
0.0
 11
100.8574672394999
 21
114.7416374639407
 31
0.0
  0
LINE
  5
28E7
330
18
100
AcDbEntity
  8
1
  6
Continuous
100
AcDbLine
 10
99.85746723949995
 20
114.5416374639407
 30
0.0
 11
100.6574672395
 21
114.5416374639407
 31
0.0
  0
LINE
  5
28E8
330
18
100
AcDbEntity
  8
1
  6
Continuous
100
AcDbLine
 10
100.6574672394999
 20
114.5416374639406
 30
0.0
 11
100.8574672394999
 21
114.7416374639407
 31
0.0
  0
LINE
  5
28EA
330
18
100
AcDbEntity
  8
1
  6
Continuous
100
AcDbLine
 10
140.8574672394999
 20
112.8399315418976
 30
0.0
 11
143.8574672395649
 21
112.8399315418976
 31
0.0
  0
LINE
  5
28EB
330
18
100
AcDbEntity
  8
1
  6
Continuous
100
AcDbLine
 10
140.8574672395
 20
119.1907845030837
 30
0.0
 11
143.8574672395
 21
119.1907845029042
 31
0.0
  0
LINE
  5
28EC
330
18
100
AcDbEntity
  8
1
  6
Continuous
100
AcDbLine
 10
143.8574672395
 20
112.8399315417851
 30
0.0
 11
144.8574672395
 21
114.5416374639457
 31
0.0
  0
ARC
  5
28ED
330
18
100
AcDbEntity
  8
1
  6
Continuous
100
AcDbCircle
 10
128.7541506640049
 20
112.6893008853101
 30
0.0
 40
16.4432192957905
100
AcDbArc
 50
11.67004408717873
 51
23.29029631822757
  0
LINE
  5
2901
330
18
100
AcDbEntity
  8
1
  6
Continuous
100
AcDbLine
 10
101.8574672394999
 20
130.8179998472507
 30
0.0
 11
101.8574672394999
 21
135.0416374639407
 31
0.0
  0
LINE
  5
2902
330
18
100
AcDbEntity
  8
1
  6
Continuous
100
AcDbLine
 10
140.8574672394999
 20
131.8924904249876
 30
0.0
 11
143.8574672394999
 21
131.8924904249876
 31
0.0
  0
ARC
  5
2903
330
18
100
AcDbEntity
  8
1
  6
Continuous
100
AcDbCircle
 10
128.7541506640049
 20
138.3939740425817
 30
0.0
 40
16.4432192957905
100
AcDbArc
 50
336.7097036817694
 51
348.3299559128192
  0
LINE
  5
2904
330
18
100
AcDbEntity
  8
1
  6
Continuous
100
AcDbLine
 10
151.6574672394602
 20
120.041637463941
 30
0.0
 11
152.1487074255785
 21
119.1907845028783
 31
0.0
  0
ARC
  5
2905
330
18
100
AcDbEntity
  8
1
  6
Continuous
100
AcDbCircle
 10
154.4688722630429
 20
120.7784977431371
 30
0.0
 40
2.811405023524514
100
AcDbArc
 50
145.6157525355883
 51
205.6157525366886
  0
LINE
  5
2906
330
18
100
AcDbEntity
  8
1
  6
Continuous
100
AcDbLine
 10
151.6574672395
 20
119.0416374639407
 30
0.0
 11
151.6574672395
 21
132.0416374639407
 31
0.0
  0
LINE
  5
2907
330
18
100
AcDbEntity
  8
1
  6
Continuous
100
AcDbLine
 10
150.8574672394999
 20
119.0416374639407
 30
0.0
 11
150.8574672394999
 21
132.0416374639407
 31
0.0
  0
LINE
  5
2908
330
18
100
AcDbEntity
  8
1
  6
Continuous
100
AcDbLine
 10
116.6574672395
 20
118.9255906186207
 30
0.0
 11
116.6574672395
 21
133.3416374639407
 31
0.0
  0
LINE
  5
2909
330
18
100
AcDbEntity
  8
1
  6
Continuous
100
AcDbLine
 10
116.3574672394999
 20
117.5661289380207
 30
0.0
 11
116.3574672394999
 21
134.3416374639406
 31
0.0
  0
LINE
  5
290A
330
18
100
AcDbEntity
  8
1
  6
Continuous
100
AcDbLine
 10
118.2574672394998
 20
117.4754981593105
 30
0.0
 11
118.2574672394998
 21
133.3416374639406
 31
0.0
  0
LINE
  5
290B
330
18
100
AcDbEntity
  8
1
  6
Continuous
100
AcDbLine
 10
113.4574672394999
 20
116.0416374639407
 30
0.0
 11
113.4574672394999
 21
120.2652750806307
 31
0.0
  0
LINE
  5
290C
330
18
100
AcDbEntity
  8
1
  6
Continuous
100
AcDbLine
 10
114.1574672395
 20
116.7416374639406
 30
0.0
 11
114.1574672395
 21
121.6647830689407
 31
0.0
  0
LINE
  5
290D
330
18
100
AcDbEntity
  8
1
  6
Continuous
100
AcDbLine
 10
117.9574672394999
 20
118.9255906186207
 30
0.0
 11
116.3574672394999
 21
118.9255906186207
 31
0.0
  0
LINE
  5
290E
330
18
100
AcDbEntity
  8
1
  6
Continuous
100
AcDbLine
 10
116.3574672394999
 20
117.5661289380207
 30
0.0
 11
117.7574672394999
 21
117.5661289380207
 31
0.0
  0
LINE
  5
290F
330
18
100
AcDbEntity
  8
1
  6
Continuous
100
AcDbLine
 10
114.1574672395
 20
116.7416374639406
 30
0.0
 11
117.7574672394999
 21
116.7416374639406
 31
0.0
  0
LINE
  5
2910
330
18
100
AcDbEntity
  8
1
  6
Continuous
100
AcDbLine
 10
113.4574672394999
 20
116.0416374639407
 30
0.0
 11
114.1574672394999
 21
116.7416374639408
 31
0.0
  0
LINE
  5
2912
330
18
100
AcDbEntity
  8
1
  6
Continuous
100
AcDbLine
 10
118.2574672394999
 20
117.4754981593107
 30
0.0
 11
117.9574672394999
 21
117.4754981593107
 31
0.0
  0
LINE
  5
2913
330
18
100
AcDbEntity
  8
1
  6
Continuous
100
AcDbLine
 10
117.9574672394999
 20
118.5416374639407
 30
0.0
 11
118.2574672394999
 21
118.5416374639407
 31
0.0
  0
LINE
  5
2914
330
18
100
AcDbEntity
  8
1
  6
Continuous
100
AcDbLine
 10
117.9574672394999
 20
116.9416374639406
 30
0.0
 11
117.9574672394999
 21
118.9255906186206
 31
0.0
  0
LINE
  5
2915
330
18
100
AcDbEntity
  8
1
  6
Continuous
100
AcDbLine
 10
117.7574672395001
 20
117.5661289380208
 30
0.0
 11
117.9574672394999
 21
117.7473904954207
 31
0.0
  0
LINE
  5
2917
330
18
100
AcDbEntity
  8
1
  6
Continuous
100
AcDbLine
 10
117.7574672394999
 20
116.7416374639406
 30
0.0
 11
117.9574672394999
 21
116.9416374639406
 31
0.0
  0
LINE
  5
2918
330
18
100
AcDbEntity
  8
1
  6
Continuous
100
AcDbLine
 10
150.8574672394999
 20
119.0416374639407
 30
0.0
 11
151.6574672395
 21
119.0416374639407
 31
0.0
  0
LINE
  5
291C
330
18
100
AcDbEntity
  8
1
  6
Continuous
100
AcDbLine
 10
116.6574672394999
 20
130.3166374639406
 30
0.0
 11
116.4574672394999
 21
130.5166374639407
 31
0.0
  0
LINE
  5
291D
330
18
100
AcDbEntity
  8
1
  6
Continuous
100
AcDbLine
 10
116.4574672394999
 20
120.5666374639406
 30
0.0
 11
116.6574672395
 21
120.7666374639407
 31
0.0
  0
LINE
  5
2920
330
18
100
AcDbEntity
  8
1
  6
Continuous
100
AcDbLine
 10
114.1574672394999
 20
121.6647830689408
 30
0.0
 11
113.4574672394999
 21
120.2652750806307
 31
0.0
  0
LINE
  5
2921
330
18
100
AcDbEntity
  8
1
  6
Continuous
100
AcDbLine
 10
114.1574672395
 20
121.6647830689407
 30
0.0
 11
116.3574672394999
 21
121.6647830689407
 31
0.0
  0
LINE
  5
2925
330
18
100
AcDbEntity
  8
1
  6
Continuous
100
AcDbLine
 10
116.3574672394999
 20
120.5666374639407
 30
0.0
 11
116.4574672394999
 21
120.5666374639407
 31
0.0
  0
LINE
  5
2926
330
18
100
AcDbEntity
  8
1
  6
Continuous
100
AcDbLine
 10
114.1574672394999
 20
129.4184918589406
 30
0.0
 11
113.4574672394999
 21
130.8179998472508
 31
0.0
  0
LINE
  5
2929
330
18
100
AcDbEntity
  8
1
  6
Continuous
100
AcDbLine
 10
114.1574672395
 20
134.3416374639406
 30
0.0
 11
113.4574672394999
 21
135.0416374639407
 31
0.0
  0
LINE
  5
292B
330
18
100
AcDbEntity
  8
1
  6
Continuous
100
AcDbLine
 10
113.4574672394999
 20
130.8179998472506
 30
0.0
 11
113.4574672394999
 21
135.0416374639407
 31
0.0
  0
LINE
  5
292F
330
18
100
AcDbEntity
  8
1
  6
Continuous
100
AcDbLine
 10
116.3574672394999
 20
129.4184918589406
 30
0.0
 11
114.1574672395
 21
129.4184918589406
 31
0.0
  0
LINE
  5
2935
330
18
100
AcDbEntity
  8
1
  6
Continuous
100
AcDbLine
 10
116.4574672394999
 20
130.5166374639406
 30
0.0
 11
116.3574672394999
 21
130.5166374639406
 31
0.0
  0
LINE
  5
2937
330
18
100
AcDbEntity
  8
1
  6
Continuous
100
AcDbLine
 10
116.3574672394999
 20
134.3416374639406
 30
0.0
 11
114.1574672395
 21
134.3416374639406
 31
0.0
  0
LINE
  5
2939
330
18
100
AcDbEntity
  8
1
  6
Continuous
100
AcDbLine
 10
114.1574672395
 20
129.4184918589405
 30
0.0
 11
114.1574672395
 21
134.3416374639406
 31
0.0
  0
ARC
  5
293D
330
18
100
AcDbEntity
  8
1
  6
Continuous
100
AcDbCircle
 10
162.166227054084
 20
125.5416374639473
 30
0.0
 40
10.50875981458442
100
AcDbArc
 50
162.412046227263
 51
197.5879537730325
  0
LINE
  5
2946
330
18
100
AcDbEntity
  8
1
  6
Continuous
100
AcDbLine
 10
118.2574672394999
 20
128.4999652961207
 30
0.0
 11
116.6574672395
 21
128.4999652961207
 31
0.0
  0
LINE
  5
2947
330
18
100
AcDbEntity
  8
1
  6
Continuous
100
AcDbLine
 10
118.2574672394999
 20
129.3029399934307
 30
0.0
 11
116.6574672395
 21
129.3029399934307
 31
0.0
  0
LINE
  5
2948
330
18
100
AcDbEntity
  8
1
  6
Continuous
100
AcDbLine
 10
118.2574672394999
 20
133.3416374639407
 30
0.0
 11
116.6574672395
 21
133.3416374639407
 31
0.0
  0
ARC
  5
2949
330
18
100
AcDbEntity
  8
1
  6
Continuous
100
AcDbCircle
 10
154.4688722630429
 20
130.3047771847552
 30
0.0
 40
2.811405023524514
100
AcDbArc
 50
154.3842474633113
 51
214.3842474644107
  0
LINE
  5
294A
330
18
100
AcDbEntity
  8
1
  6
Continuous
100
AcDbLine
 10
151.6574672394601
 20
131.0416374639511
 30
0.0
 11
152.1487074255785
 21
131.8924904250138
 31
0.0
  0
LINE
  5
294B
330
18
100
AcDbEntity
  8
1
  6
Continuous
100
AcDbLine
 10
151.6574672395
 20
132.0416374639407
 30
0.0
 11
150.8574672394999
 21
132.0416374639407
 31
0.0
  0
LINE
  5
294E
330
18
100
AcDbEntity
  8
1
  6
Continuous
100
AcDbLine
 10
155.6574672395394
 20
120.0416374639409
 30
0.0
 11
155.166227053421
 21
119.1907845028783
 31
0.0
  0
ARC
  5
294F
330
18
100
AcDbEntity
  8
1
  6
Continuous
100
AcDbCircle
 10
152.8460622159566
 20
120.7784977431372
 30
0.0
 40
2.811405023524514
100
AcDbArc
 50
334.3842474633113
 51
34.38424746441077
  0
LINE
  5
2950
330
18
100
AcDbEntity
  8
1
  6
Continuous
100
AcDbLine
 10
128.2574672394998
 20
128.0416374639406
 30
0.0
 11
127.2574672394998
 21
129.0416374639405
 31
0.0
  0
LINE
  5
2951
330
18
100
AcDbEntity
  8
1
  6
Continuous
100
AcDbLine
 10
127.2574672394998
 20
122.0416374639406
 30
0.0
 11
128.2574672394998
 21
123.0416374639406
 31
0.0
  0
ARC
  5
2952
330
18
100
AcDbEntity
  8
1
  6
Continuous
100
AcDbCircle
 10
145.1487074249155
 20
125.5416374639474
 30
0.0
 40
10.50875981458442
100
AcDbArc
 50
342.4120462269674
 51
17.5879537727369
  0
LINE
  5
2953
330
18
100
AcDbEntity
  8
1
  6
Continuous
100
AcDbLine
 10
155.6574672395
 20
131.0416374640196
 30
0.0
 11
155.6574672395
 21
120.0416374638727
 31
0.0
  0
LINE
  5
2954
330
18
100
AcDbEntity
  8
1
  6
Continuous
100
AcDbLine
 10
127.2574672394999
 20
127.7687432090707
 30
0.0
 11
127.2574672394999
 21
129.0416374639407
 31
0.0
  0
LINE
  5
2955
330
18
100
AcDbEntity
  8
2
  6
Continuous
100
AcDbLine
 10
127.2574672395
 20
123.3145317188158
 30
0.0
 11
118.2574672394998
 21
127.7687432090707
 31
0.0
  0
ARC
  5
2956
330
18
100
AcDbEntity
  8
1
  6
Continuous
100
AcDbCircle
 10
124.5168908565484
 20
125.5416374639407
 30
0.0
 40
3.531396170182863
100
AcDbArc
 50
320.9012624665068
 51
39.09873753349548
  0
LINE
  5
2958
330
18
100
AcDbEntity
  8
1
  6
Continuous
100
AcDbLine
 10
127.2574672394999
 20
123.3145317188107
 30
0.0
 11
118.2574672394998
 21
123.3145317188107
 31
0.0
  0
LINE
  5
2959
330
18
100
AcDbEntity
  8
1
  6
Continuous
100
AcDbLine
 10
118.2574672394998
 20
122.0416374639407
 30
0.0
 11
127.2574672394999
 21
122.0416374639407
 31
0.0
  0
LINE
  5
295A
330
18
100
AcDbEntity
  8
1
  6
Continuous
100
AcDbLine
 10
127.2574672394999
 20
122.0416374639407
 30
0.0
 11
127.2574672394999
 21
123.3145317188107
 31
0.0
  0
LINE
  5
295B
330
18
100
AcDbEntity
  8
2
  6
Continuous
100
AcDbLine
 10
118.2574672394998
 20
123.3145317188107
 30
0.0
 11
127.2574672394999
 21
127.7687432090756
 31
0.0
  0
LINE
  5
295C
330
18
100
AcDbEntity
  8
1
  6
Continuous
100
AcDbLine
 10
118.2574672394998
 20
127.7687432090707
 30
0.0
 11
127.2574672394999
 21
127.7687432090707
 31
0.0
  0
ARC
  5
295D
330
18
100
AcDbEntity
  8
1
  6
Continuous
100
AcDbCircle
 10
152.8460622159566
 20
130.3047771847553
 30
0.0
 40
2.811405023524514
100
AcDbArc
 50
325.6157525355882
 51
25.61575253668864
  0
LINE
  5
295E
330
18
100
AcDbEntity
  8
1
  6
Continuous
100
AcDbLine
 10
155.6574672395394
 20
131.0416374639512
 30
0.0
 11
155.1662270534209
 21
131.8924904250139
 31
0.0
  0
LINE
  5
2960
330
18
100
AcDbEntity
  8
1
  6
Continuous
100
AcDbLine
 10
127.2574672394999
 20
129.0416374639407
 30
0.0
 11
118.2574672394998
 21
129.0416374639407
 31
0.0
  0
LINE
  5
2961
330
18
100
AcDbEntity
  8
1
  6
Continuous
100
AcDbLine
 10
128.2574672394999
 20
123.0416374639407
 30
0.0
 11
128.2574672394999
 21
128.0416374639407
 31
0.0
  0
LINE
  5
29A3
330
18
100
AcDbEntity
  8
1
  6
Continuous
100
AcDbLine
 10
100.6574672395
 20
136.5416374639407
 30
0.0
 11
99.85746723949995
 21
136.5416374639407
 31
0.0
  0
LINE
  5
29A4
330
18
100
AcDbEntity
  8
1
  6
Continuous
100
AcDbLine
 10
100.8574672394999
 20
136.3416374639407
 30
0.0
 11
100.6574672394999
 21
136.5416374639407
 31
0.0
  0
LINE
  5
29A5
330
18
100
AcDbEntity
  8
1
  6
Continuous
100
AcDbLine
 10
143.8574672394999
 20
138.2433433861065
 30
0.0
 11
140.8574672394999
 21
138.2433433861065
 31
0.0
  0
LINE
  5
29A6
330
18
100
AcDbEntity
  8
1
  6
Continuous
100
AcDbLine
 10
143.8574672395
 20
138.2433433861067
 30
0.0
 11
144.8574672395
 21
136.5416374639456
 31
0.0
  0
LINE
  5
2D9D
330
18
100
AcDbEntity
  8
1
  6
Continuous
100
AcDbLine
 10
97.35746723949995
 20
201.5416374639407
 30
0.0
 11
97.35746723949995
 21
209.5416374639407
 31
0.0
  0
LINE
  5
2D9E
330
18
100
AcDbEntity
  8
1
  6
Continuous
100
AcDbLine
 10
98.35746723949995
 20
195.5416374639407
 30
0.0
 11
98.35746723949995
 21
215.5416374639407
 31
0.0
  0
LINE
  5
2D9F
330
18
100
AcDbEntity
  8
1
  6
Continuous
100
AcDbLine
 10
99.85746723949995
 20
194.5416374639407
 30
0.0
 11
99.85746723949995
 21
216.5416374639407
 31
0.0
  0
LINE
  5
2DA1
330
18
100
AcDbEntity
  8
1
  6
Continuous
100
AcDbLine
 10
100.8574672394999
 20
216.3416374639406
 30
0.0
 11
100.8574672394999
 21
194.7416374639406
 31
0.0
  0
LINE
  5
2DA2
330
18
100
AcDbEntity
  8
1
  6
Continuous
100
AcDbLine
 10
97.65746723949995
 20
209.4752608187106
 30
0.0
 11
97.35746723950001
 21
209.0883131140206
 31
0.0
  0
LINE
  5
2DA3
330
18
100
AcDbEntity
  8
1
  6
Continuous
100
AcDbLine
 10
97.35746723949995
 20
207.3912568391706
 30
0.0
 11
97.65746723949995
 21
207.7782045438605
 31
0.0
  0
LINE
  5
2DA4
330
18
100
AcDbEntity
  8
1
  6
Continuous
100
AcDbLine
 10
97.65746723949995
 20
209.4752608187106
 30
0.0
 11
97.65746723949995
 21
207.7782045438605
 31
0.0
  0
LINE
  5
2DA9
330
18
100
AcDbEntity
  8
1
  6
Continuous
100
AcDbLine
 10
98.35746723950002
 20
195.5416374639407
 30
0.0
 11
99.85746723950001
 21
194.5416374639407
 31
0.0
  0
LINE
  5
2DAA
330
18
100
AcDbEntity
  8
1
  6
Continuous
100
AcDbLine
 10
99.85746723949995
 20
194.5416374639407
 30
0.0
 11
100.6574672395
 21
194.5416374639407
 31
0.0
  0
LINE
  5
2DAB
330
18
100
AcDbEntity
  8
1
  6
Continuous
100
AcDbLine
 10
100.6574672394999
 20
194.5416374639406
 30
0.0
 11
100.8574672394999
 21
194.7416374639406
 31
0.0
  0
LINE
  5
2DAC
330
18
100
AcDbEntity
  8
1
  6
Continuous
100
AcDbLine
 10
97.35746723950008
 20
201.5416374639408
 30
0.0
 11
98.35746723950009
 21
199.7916374639407
 31
0.0
  0
LINE
  5
2DAD
330
18
100
AcDbEntity
  8
1
  6
Continuous
100
AcDbLine
 10
101.8574672394999
 20
213.4416374639457
 30
0.0
 11
101.8574672394999
 21
197.6416374639457
 31
0.0
  0
LINE
  5
2DAF
330
18
100
AcDbEntity
  8
1
  6
Continuous
100
AcDbLine
 10
98.35746723950002
 20
211.2916374639407
 30
0.0
 11
97.35746723950001
 21
209.5416374639407
 31
0.0
  0
LINE
  5
2DB0
330
18
100
AcDbEntity
  8
1
  6
Continuous
100
AcDbLine
 10
99.85746723950008
 20
216.5416374639407
 30
0.0
 11
98.35746723950009
 21
215.5416374639407
 31
0.0
  0
LINE
  5
2DB1
330
18
100
AcDbEntity
  8
1
  6
Continuous
100
AcDbLine
 10
100.6574672395
 20
216.5416374639407
 30
0.0
 11
99.85746723949995
 21
216.5416374639407
 31
0.0
  0
LINE
  5
2DB2
330
18
100
AcDbEntity
  8
1
  6
Continuous
100
AcDbLine
 10
100.8574672394999
 20
216.3416374639407
 30
0.0
 11
100.6574672394999
 21
216.5416374639407
 31
0.0
  0
LINE
  5
2E0C
330
18
100
AcDbEntity
  8
1
  6
Continuous
100
AcDbLine
 10
113.4574672394999
 20
197.6416374639457
 30
0.0
 11
113.4574672394999
 21
213.4416374639457
 31
0.0
  0
LINE
  5
2E0D
330
18
100
AcDbEntity
  8
1
  6
Continuous
100
AcDbLine
 10
114.1574672395
 20
197.6416374639457
 30
0.0
 11
114.1574672395
 21
213.4416374639457
 31
0.0
  0
LINE
  5
2E0E
330
18
100
AcDbEntity
  8
1
  6
Continuous
100
AcDbLine
 10
116.3574672394999
 20
197.6416374639457
 30
0.0
 11
116.3574672394999
 21
213.4416374639457
 31
0.0
  0
LINE
  5
2E21
330
18
100
AcDbEntity
  8
1
  6
Continuous
100
AcDbLine
 10
116.6574672394999
 20
210.3166374639406
 30
0.0
 11
116.4574672394999
 21
210.5166374639407
 31
0.0
  0
LINE
  5
2E22
330
18
100
AcDbEntity
  8
1
  6
Continuous
100
AcDbLine
 10
116.4574672394999
 20
210.5166374639406
 30
0.0
 11
116.3574672394999
 21
210.5166374639406
 31
0.0
  0
LINE
  5
2E23
330
18
100
AcDbEntity
  8
1
  6
Continuous
100
AcDbLine
 10
116.4574672394999
 20
200.5666374639406
 30
0.0
 11
116.6574672395
 21
200.7666374639407
 31
0.0
  0
LINE
  5
2E24
330
18
100
AcDbEntity
  8
1
  6
Continuous
100
AcDbLine
 10
116.3574672394999
 20
200.5666374639407
 30
0.0
 11
116.4574672394999
 21
200.5666374639407
 31
0.0
  0
LINE
  5
2E2E
330
18
100
AcDbEntity
  8
4
  6
CENTER
 48
0.3
100
AcDbLine
 10
95.35746723949996
 20
45.54163746394563
 30
0.0
 11
130.2574672394998
 21
45.54163746394563
 31
0.0
  0
LINE
  5
2E2F
330
18
100
AcDbEntity
  8
1
  6
Continuous
100
AcDbLine
 10
144.8574672394999
 20
34.54163746394559
 30
0.0
 11
140.8574672394998
 21
34.54163746394559
 31
0.0
  0
LINE
  5
2E30
330
18
100
AcDbEntity
  8
1
  6
Continuous
100
AcDbLine
 10
140.8574672394999
 20
56.54163746394543
 30
0.0
 11
144.8574672394999
 21
56.54163746394543
 31
0.0
  0
ARC
  5
2E31
330
18
100
AcDbEntity
  8
1
  6
Continuous
100
AcDbCircle
 10
129.2324672390246
 20
51.04163746403202
 30
0.0
 40
15.62500000047528
100
AcDbArc
 50
339.390307062785
 51
20.60969293653748
  0
ARC
  5
2E32
330
18
100
AcDbEntity
  8
1
  6
Continuous
100
AcDbCircle
 10
129.2324672390246
 20
40.04163746385927
 30
0.0
 40
15.62500000047528
100
AcDbArc
 50
339.3903070634625
 51
20.60969293721502
  0
LINE
  5
2E34
330
18
100
AcDbEntity
  8
1
  6
Continuous
100
AcDbLine
 10
101.8574672394999
 20
37.6416374639455
 30
0.0
 11
101.8574672394999
 21
53.44163746394554
 31
0.0
  0
LINE
  5
2E35
330
18
100
AcDbEntity
  8
1
  6
Continuous
100
AcDbLine
 10
100.8574672394999
 20
34.74163746395061
 30
0.0
 11
100.8574672394999
 21
56.3416374639506
 31
0.0
  0
LINE
  5
2E37
330
18
100
AcDbEntity
  8
1
  6
Continuous
100
AcDbLine
 10
99.85746723949995
 20
56.54163746395052
 30
0.0
 11
99.85746723949995
 21
34.54163746395053
 31
0.0
  0
LINE
  5
2E38
330
18
100
AcDbEntity
  8
1
  6
Continuous
100
AcDbLine
 10
98.35746723949995
 20
55.54163746395054
 30
0.0
 11
98.35746723949995
 21
35.54163746395053
 31
0.0
  0
LINE
  5
2E39
330
18
100
AcDbEntity
  8
1
  6
Continuous
100
AcDbLine
 10
97.35746723949995
 20
49.54163746395053
 30
0.0
 11
97.35746723949995
 21
41.54163746395052
 31
0.0
  0
LINE
  5
2E3A
330
18
100
AcDbEntity
  8
1
  6
Continuous
100
AcDbLine
 10
140.8574672394998
 20
34.54163746394559
 30
0.0
 11
140.8574672394999
 21
56.54163746394543
 31
0.0
  0
LINE
  5
2E3C
330
18
100
AcDbEntity
  8
1
  6
Continuous
100
AcDbLine
 10
100.6574672394999
 20
56.54163746395065
 30
0.0
 11
100.8574672394999
 21
56.3416374639506
 31
0.0
  0
LINE
  5
2E3D
330
18
100
AcDbEntity
  8
1
  6
Continuous
100
AcDbLine
 10
99.85746723949995
 20
56.54163746395052
 30
0.0
 11
100.6574672395
 21
56.54163746395052
 31
0.0
  0
LINE
  5
2E3E
330
18
100
AcDbEntity
  8
1
  6
Continuous
100
AcDbLine
 10
98.35746723950002
 20
55.54163746395054
 30
0.0
 11
99.85746723950001
 21
56.54163746395052
 31
0.0
  0
LINE
  5
2E3F
330
18
100
AcDbEntity
  8
1
  6
Continuous
100
AcDbLine
 10
97.35746723950008
 20
49.54163746395042
 30
0.0
 11
98.35746723950009
 21
51.29163746395054
 31
0.0
  0
LINE
  5
2E40
330
18
100
AcDbEntity
  8
1
  6
Continuous
100
AcDbLine
 10
97.65746723949995
 20
47.91149963593054
 30
0.0
 11
98.08073075076
 21
48.44781987692059
 31
0.0
  0
LINE
  5
2E41
330
18
100
AcDbEntity
  8
1
  6
Continuous
100
AcDbLine
 10
98.08073075076
 20
48.44781987692059
 30
0.0
 11
98.35746723950002
 21
48.79667456197054
 31
0.0
  0
LINE
  5
2E42
330
18
100
AcDbEntity
  8
1
  6
Continuous
100
AcDbLine
 10
97.65746723950009
 20
49.39642387643059
 30
0.0
 11
98.08073075076
 21
49.93274411741057
 31
0.0
  0
LINE
  5
2E43
330
18
100
AcDbEntity
  8
1
  6
Continuous
100
AcDbLine
 10
98.08073075075993
 20
49.93274411741069
 30
0.0
 11
98.35746723949995
 21
50.28159880246064
 31
0.0
  0
LINE
  5
2E44
330
18
100
AcDbEntity
  8
1
  6
Continuous
100
AcDbLine
 10
97.65746723949995
 20
49.4752608187106
 30
0.0
 11
97.65746723949995
 21
47.77820454386059
 31
0.0
  0
LINE
  5
2E45
330
18
100
AcDbEntity
  8
1
  6
Continuous
100
AcDbLine
 10
97.35746723949995
 20
47.39125683917065
 30
0.0
 11
97.65746723949995
 21
47.77820454386059
 31
0.0
  0
LINE
  5
2E46
330
18
100
AcDbEntity
  8
1
  6
Continuous
100
AcDbLine
 10
97.65746723949995
 20
49.4752608187106
 30
0.0
 11
97.35746723950001
 21
49.08831311402067
 31
0.0
  0
LINE
  5
2E47
330
18
100
AcDbEntity
  8
1
  6
Continuous
100
AcDbLine
 10
140.8574672394999
 20
45.54163746394563
 30
0.0
 11
143.8574672394999
 21
45.54163746394563
 31
0.0
  0
LINE
  5
2E49
330
18
100
AcDbEntity
  8
1
  6
Continuous
100
AcDbLine
 10
100.8574672394999
 20
34.74163746395058
 30
0.0
 11
100.6574672394999
 21
34.54163746395059
 31
0.0
  0
LINE
  5
2E4A
330
18
100
AcDbEntity
  8
1
  6
Continuous
100
AcDbLine
 10
100.6574672395
 20
34.54163746395053
 30
0.0
 11
99.85746723949995
 21
34.54163746395053
 31
0.0
  0
LINE
  5
2E4B
330
18
100
AcDbEntity
  8
1
  6
Continuous
100
AcDbLine
 10
99.85746723950008
 20
34.54163746395053
 30
0.0
 11
98.35746723950009
 21
35.54163746395053
 31
0.0
  0
LINE
  5
2E4C
330
18
100
AcDbEntity
  8
1
  6
Continuous
100
AcDbLine
 10
98.35746723950002
 20
39.79163746395053
 30
0.0
 11
97.35746723950001
 21
41.54163746395052
 31
0.0
  0
LINE
  5
2E4D
330
18
100
AcDbEntity
  8
1
  6
Continuous
100
AcDbLine
 10
116.3574672394999
 20
53.44163746394547
 30
0.0
 11
116.3574672394999
 21
49.26067816719355
 31
0.0
  0
LINE
  5
2E4E
330
18
100
AcDbEntity
  8
1
  6
Continuous
100
AcDbLine
 10
114.1574672395
 20
53.4416374639455
 30
0.0
 11
114.1574672395
 21
37.64163746394553
 31
0.0
  0
LINE
  5
2E4F
330
18
100
AcDbEntity
  8
1
  6
Continuous
100
AcDbLine
 10
113.4574672394999
 20
53.44163746394554
 30
0.0
 11
113.4574672394999
 21
37.64163746394553
 31
0.0
  0
LINE
  5
2E50
330
18
100
AcDbEntity
  8
1
  6
Continuous
100
AcDbLine
 10
144.8574672394999
 20
56.54163746394516
 30
0.0
 11
144.8574672394999
 21
34.54163746394562
 31
0.0
  0
ARC
  5
2E51
330
18
100
AcDbEntity
  8
1
  6
Continuous
100
AcDbCircle
 10
159.6004421235976
 20
42.79163746392351
 30
0.0
 40
7.942974884101682
100
AcDbArc
 50
159.7438420005554
 51
200.2561579991047
  0
ARC
  5
2E52
330
18
100
AcDbEntity
  8
1
  6
Continuous
100
AcDbCircle
 10
147.7144923553981
 20
42.79163746392351
 30
0.0
 40
7.942974884101682
100
AcDbArc
 50
339.7438420008952
 51
20.2561579994446
  0
LINE
  5
2E53
330
18
100
AcDbEntity
  8
1
  6
Continuous
100
AcDbLine
 10
116.6574672394999
 20
53.60777676857541
 30
0.0
 11
116.6574672394999
 21
49.26067816719355
 31
0.0
  0
LINE
  5
2E54
330
18
100
AcDbEntity
  8
1
  6
Continuous
100
AcDbLine
 10
118.2574672394999
 20
53.6077767685755
 30
0.0
 11
118.2574672394999
 21
37.74163746394552
 31
0.0
  0
LINE
  5
2E55
330
18
100
AcDbEntity
  8
1
  6
Continuous
100
AcDbLine
 10
155.6574672394999
 20
40.04163746387169
 30
0.0
 11
155.6574672394999
 21
51.04163746401854
 31
0.0
  0
LINE
  5
2E56
330
18
100
AcDbEntity
  8
1
  6
Continuous
100
AcDbLine
 10
151.6574672394999
 20
52.0416374639455
 30
0.0
 11
151.6574672394999
 21
39.0416374639455
 31
0.0
  0
LINE
  5
2E57
330
18
100
AcDbEntity
  8
1
  6
Continuous
100
AcDbLine
 10
150.8574672394999
 20
52.0416374639455
 30
0.0
 11
150.8574672394999
 21
39.0416374639455
 31
0.0
  0
LINE
  5
2E58
330
18
100
AcDbEntity
  8
1
  6
Continuous
100
AcDbLine
 10
151.6574672394998
 20
51.04163746395892
 30
0.0
 11
155.6574672394999
 21
51.04163746394356
 31
0.0
  0
LINE
  5
2E59
330
18
100
AcDbEntity
  8
1
  6
Continuous
100
AcDbLine
 10
152.1487074256023
 20
45.54163746394303
 30
0.0
 11
155.1662270533963
 21
45.54163746394563
 31
0.0
  0
LINE
  5
2E5A
330
18
100
AcDbEntity
  8
1
  6
Continuous
100
AcDbLine
 10
118.2574672394999
 20
53.60777676857543
 30
0.0
 11
116.6574672394999
 21
53.60777676857541
 31
0.0
  0
LINE
  5
2E5B
330
18
100
AcDbEntity
  8
1
  6
Continuous
100
AcDbLine
 10
100.8574672394999
 20
53.44163746394561
 30
0.0
 11
116.3574672394999
 21
53.44163746394547
 31
0.0
  0
LINE
  5
2E5E
330
18
100
AcDbEntity
  8
1
  6
Continuous
100
AcDbLine
 10
116.3574672394999
 20
50.51663746395057
 30
0.0
 11
116.4574672394999
 21
50.51663746395057
 31
0.0
  0
LINE
  5
2E5F
330
18
100
AcDbEntity
  8
1
  6
Continuous
100
AcDbLine
 10
116.4574672394999
 20
50.5166374639506
 30
0.0
 11
116.6574672395
 21
50.31663746395057
 31
0.0
  0
ARC
  5
2E60
330
18
100
AcDbEntity
  8
1
  6
Continuous
100
AcDbCircle
 10
159.6004421235976
 20
48.29163746396257
 30
0.0
 40
7.942974884101682
100
AcDbArc
 50
159.7438420008952
 51
200.2561579994446
  0
LINE
  5
2E63
330
18
100
AcDbEntity
  8
1
  6
Continuous
100
AcDbLine
 10
150.8574672394999
 20
52.0416374639455
 30
0.0
 11
151.6574672394999
 21
52.0416374639455
 31
0.0
  0
ARC
  5
2E64
330
18
100
AcDbEntity
  8
1
  6
Continuous
100
AcDbCircle
 10
147.7144923553981
 20
48.29163746396257
 30
0.0
 40
7.942974884101682
100
AcDbArc
 50
339.7438420005554
 51
20.25615799910476
  0
LINE
  5
2E65
330
18
100
AcDbEntity
  8
1
  6
Continuous
100
AcDbLine
 10
128.0574672394999
 20
42.8416374639456
 30
0.0
 11
118.2574672394999
 21
42.84163746394571
 31
0.0
  0
LINE
  5
2E66
330
18
100
AcDbEntity
  8
1
  6
Continuous
100
AcDbLine
 10
128.2574672394999
 20
48.0416374639455
 30
0.0
 11
128.2574672394999
 21
43.0416374639455
 31
0.0
  0
LINE
  5
2E67
330
18
100
AcDbEntity
  8
1
  6
Continuous
100
AcDbLine
 10
118.2574672394999
 20
48.24163746394527
 30
0.0
 11
128.0574672395001
 21
48.24163746394527
 31
0.0
  0
LINE
  5
2E68
330
18
100
AcDbEntity
  8
1
  6
Continuous
100
AcDbLine
 10
128.0574672395001
 20
48.24163746394527
 30
0.0
 11
128.2574672394998
 21
48.04163746394554
 31
0.0
  0
LINE
  5
2E69
330
18
100
AcDbEntity
  8
1
  6
Continuous
100
AcDbLine
 10
128.2574672394999
 20
43.0416374639455
 30
0.0
 11
128.0574672394999
 21
42.8416374639456
 31
0.0
  0
LINE
  5
2E6A
330
18
100
AcDbEntity
  8
1
  6
Continuous
100
AcDbLine
 10
127.2574672394998
 20
48.24163746394527
 30
0.0
 11
127.2574672394999
 21
42.84163746394557
 31
0.0
  0
LINE
  5
2E6B
330
18
100
AcDbEntity
  8
1
  6
Continuous
100
AcDbLine
 10
151.6574672394999
 20
40.041637463958
 30
0.0
 11
155.6574672394999
 21
40.04163746394381
 31
0.0
  0
LINE
  5
2E6C
330
18
100
AcDbEntity
  8
1
  6
Continuous
100
AcDbLine
 10
118.2574672394999
 20
37.74163746394544
 30
0.0
 11
116.6574672394999
 21
37.74163746394544
 31
0.0
  0
LINE
  5
2E6D
330
18
100
AcDbEntity
  8
1
  6
Continuous
100
AcDbLine
 10
116.4574672394999
 20
40.56663746395061
 30
0.0
 11
116.3574672394999
 21
40.56663746395061
 31
0.0
  0
LINE
  5
2E6E
330
18
100
AcDbEntity
  8
1
  6
Continuous
100
AcDbLine
 10
116.6574672394999
 20
40.76663746395062
 30
0.0
 11
116.4574672394999
 21
40.56663746395057
 31
0.0
  0
LINE
  5
2E6F
330
18
100
AcDbEntity
  8
1
  6
Continuous
100
AcDbLine
 10
100.8574672394999
 20
37.64163746394541
 30
0.0
 11
116.3574672394999
 21
37.64163746394554
 31
0.0
  0
LINE
  5
2E70
330
18
100
AcDbEntity
  8
1
  6
Continuous
100
AcDbLine
 10
151.6574672394999
 20
39.0416374639455
 30
0.0
 11
150.8574672394999
 21
39.0416374639455
 31
0.0
  0
LINE
  5
2F53
330
18
100
AcDbEntity
  8
1
  6
Continuous
100
AcDbLine
 10
116.6574672394999
 20
41.82259676069771
 30
0.0
 11
116.6574672394999
 21
37.74163746394544
 31
0.0
  0
LINE
  5
2F54
330
18
100
AcDbEntity
  8
1
  6
Continuous
100
AcDbLine
 10
116.3574672394999
 20
41.82259676069771
 30
0.0
 11
116.3574672394999
 21
37.64163746394554
 31
0.0
  0
LINE
  5
2F5F
330
18
100
AcDbEntity
  8
4
  6
CENTER
 48
0.3
100
AcDbLine
 10
300.5379565258889
 20
125.5416374639456
 30
0.0
 11
265.6379565258889
 21
125.5416374639456
 31
0.0
  0
LINE
  5
2F66
330
18
100
AcDbEntity
  8
1
  6
Continuous
100
AcDbLine
 10
298.5379565258888
 20
121.5416374639407
 30
0.0
 11
298.5379565258888
 21
129.5416374639407
 31
0.0
  0
LINE
  5
2F67
330
18
100
AcDbEntity
  8
1
  6
Continuous
100
AcDbLine
 10
297.5379565258888
 20
115.5416374639407
 30
0.0
 11
297.5379565258888
 21
135.5416374639407
 31
0.0
  0
LINE
  5
2F69
330
18
100
AcDbEntity
  8
1
  6
Continuous
100
AcDbLine
 10
296.0379565258889
 20
114.5416374639407
 30
0.0
 11
296.0379565258889
 21
136.5416374639407
 31
0.0
  0
LINE
  5
2F6B
330
18
100
AcDbEntity
  8
1
  6
Continuous
100
AcDbLine
 10
295.0379565258888
 20
136.3416374639406
 30
0.0
 11
295.0379565258888
 21
114.7416374639407
 31
0.0
  0
LINE
  5
2F70
330
18
100
AcDbEntity
  8
1
  6
Continuous
100
AcDbLine
 10
298.2379565258888
 20
129.4752608187106
 30
0.0
 11
298.5379565258888
 21
129.0883131140206
 31
0.0
  0
LINE
  5
2F71
330
18
100
AcDbEntity
  8
1
  6
Continuous
100
AcDbLine
 10
298.5379565258888
 20
127.3912568391706
 30
0.0
 11
298.2379565258888
 21
127.7782045438605
 31
0.0
  0
LINE
  5
2F72
330
18
100
AcDbEntity
  8
1
  6
Continuous
100
AcDbLine
 10
298.2379565258889
 20
129.4752608187106
 30
0.0
 11
298.2379565258889
 21
127.7782045438605
 31
0.0
  0
LINE
  5
2F77
330
18
100
AcDbEntity
  8
1
  6
Continuous
100
AcDbLine
 10
297.5379565258888
 20
115.5416374639407
 30
0.0
 11
296.0379565258888
 21
114.5416374639407
 31
0.0
  0
LINE
  5
2F78
330
18
100
AcDbEntity
  8
1
  6
Continuous
100
AcDbLine
 10
296.0379565258889
 20
114.5416374639407
 30
0.0
 11
295.2379565258886
 21
114.5416374639407
 31
0.0
  0
LINE
  5
2F79
330
18
100
AcDbEntity
  8
1
  6
Continuous
100
AcDbLine
 10
295.2379565258888
 20
114.5416374639406
 30
0.0
 11
295.0379565258888
 21
114.7416374639407
 31
0.0
  0
LINE
  5
2F7A
330
18
100
AcDbEntity
  8
1
  6
Continuous
100
AcDbLine
 10
298.5379565258887
 20
121.5416374639408
 30
0.0
 11
297.5379565258887
 21
119.7916374639407
 31
0.0
  0
LINE
  5
2F7C
330
18
100
AcDbEntity
  8
1
  6
Continuous
100
AcDbLine
 10
294.0379565258889
 20
120.2652750806357
 30
0.0
 11
294.0379565258889
 21
116.0416374639457
 31
0.0
  0
LINE
  5
2F7E
330
18
100
AcDbEntity
  8
1
  6
Continuous
100
AcDbLine
 10
294.0379565258889
 20
130.8179998472507
 30
0.0
 11
294.0379565258889
 21
135.0416374639407
 31
0.0
  0
LINE
  5
2F81
330
18
100
AcDbEntity
  8
1
  6
Continuous
100
AcDbLine
 10
297.5379565258888
 20
131.2916374639407
 30
0.0
 11
298.5379565258888
 21
129.5416374639407
 31
0.0
  0
LINE
  5
2F84
330
18
100
AcDbEntity
  8
1
  6
Continuous
100
AcDbLine
 10
296.0379565258886
 20
136.5416374639407
 30
0.0
 11
297.5379565258887
 21
135.5416374639407
 31
0.0
  0
LINE
  5
2F85
330
18
100
AcDbEntity
  8
1
  6
Continuous
100
AcDbLine
 10
295.2379565258886
 20
136.5416374639407
 30
0.0
 11
296.0379565258889
 21
136.5416374639407
 31
0.0
  0
LINE
  5
2F86
330
18
100
AcDbEntity
  8
1
  6
Continuous
100
AcDbLine
 10
295.0379565258888
 20
136.3416374639407
 30
0.0
 11
295.2379565258888
 21
136.5416374639407
 31
0.0
  0
LINE
  5
2F89
330
18
100
AcDbEntity
  8
2
  6
Continuous
100
AcDbLine
 10
268.6379565258888
 20
123.3145317188158
 30
0.0
 11
277.637956525889
 21
127.7687432090707
 31
0.0
  0
ARC
  5
2F8B
330
18
100
AcDbEntity
  8
1
  6
Continuous
100
AcDbCircle
 10
271.3785329088403
 20
125.5416374639407
 30
0.0
 40
3.531396170182863
100
AcDbArc
 50
140.9012624665045
 51
219.0987375334932
  0
LINE
  5
2F8C
330
18
100
AcDbEntity
  8
1
  6
Continuous
100
AcDbLine
 10
267.6379565258889
 20
123.0416374639407
 30
0.0
 11
267.6379565258889
 21
128.0416374639407
 31
0.0
  0
LINE
  5
2F8F
330
18
100
AcDbEntity
  8
2
  6
Continuous
100
AcDbLine
 10
295.0379565258888
 20
130.8179998472555
 30
0.0
 11
279.5379565258889
 21
121.6647830689457
 31
0.0
  0
LINE
  5
2F93
330
18
100
AcDbEntity
  8
1
  6
Continuous
100
AcDbLine
 10
279.2379565258887
 20
117.4754981593107
 30
0.0
 11
279.2379565258887
 21
133.3416374639407
 31
0.0
  0
LINE
  5
2F94
330
18
100
AcDbEntity
  8
1
  6
Continuous
100
AcDbLine
 10
279.5379565258889
 20
117.5661289380207
 30
0.0
 11
279.5379565258889
 21
134.3416374639406
 31
0.0
  0
LINE
  5
2F95
330
18
100
AcDbEntity
  8
1
  6
Continuous
100
AcDbLine
 10
277.6379565258889
 20
117.4754981593105
 30
0.0
 11
277.6379565258889
 21
133.3416374639406
 31
0.0
  0
LINE
  5
2F98
330
18
100
AcDbEntity
  8
1
  6
Continuous
100
AcDbLine
 10
279.2379565258887
 20
118.9255906186207
 30
0.0
 11
279.5379565258889
 21
118.9255906186207
 31
0.0
  0
LINE
  5
2F99
330
18
100
AcDbEntity
  8
1
  6
Continuous
100
AcDbLine
 10
279.5379565258889
 20
117.5661289380207
 30
0.0
 11
279.2379565258887
 21
117.5661289380207
 31
0.0
  0
LINE
  5
2F9A
330
18
100
AcDbEntity
  8
1
  6
Continuous
100
AcDbLine
 10
281.7379565258887
 20
116.7416374639406
 30
0.0
 11
278.1379565258889
 21
116.7416374639406
 31
0.0
  0
LINE
  5
2F9B
330
18
100
AcDbEntity
  8
1
  6
Continuous
100
AcDbLine
 10
279.4379565258888
 20
120.5666374639406
 30
0.0
 11
279.2379565258887
 21
120.7666374639407
 31
0.0
  0
LINE
  5
2F9C
330
18
100
AcDbEntity
  8
1
  6
Continuous
100
AcDbLine
 10
281.7379565258887
 20
121.6647830689407
 30
0.0
 11
279.5379565258889
 21
121.6647830689407
 31
0.0
  0
LINE
  5
2F9D
330
18
100
AcDbEntity
  8
1
  6
Continuous
100
AcDbLine
 10
279.5379565258889
 20
120.5666374639407
 30
0.0
 11
279.4379565258888
 21
120.5666374639407
 31
0.0
  0
LINE
  5
2F9E
330
18
100
AcDbEntity
  8
2
  6
Continuous
100
AcDbLine
 10
281.8964565258839
 20
116.5831374639456
 30
0.0
 11
294.0379565258889
 21
116.5831374639455
 31
0.0
  0
LINE
  5
2F9F
330
18
100
AcDbEntity
  8
1
  6
Continuous
100
AcDbLine
 10
295.0379565258888
 20
116.0416374639407
 30
0.0
 11
282.4379565258888
 21
116.0416374639407
 31
0.0
  0
LINE
  5
2FA0
330
18
100
AcDbEntity
  8
1
  6
Continuous
100
AcDbLine
 10
295.0379565258888
 20
120.2652750806307
 30
0.0
 11
282.4379565258888
 21
120.2652750806307
 31
0.0
  0
LINE
  5
2FA1
330
18
100
AcDbEntity
  8
1
  6
Continuous
100
AcDbLine
 10
282.4379565258888
 20
116.0416374639407
 30
0.0
 11
282.4379565258888
 21
120.2652750806307
 31
0.0
  0
LINE
  5
2FA2
330
18
100
AcDbEntity
  8
1
  6
Continuous
100
AcDbLine
 10
282.4379565258889
 20
116.0416374639407
 30
0.0
 11
281.7379565258888
 21
116.7416374639408
 31
0.0
  0
LINE
  5
2FA3
330
18
100
AcDbEntity
  8
1
  6
Continuous
100
AcDbLine
 10
281.7379565258887
 20
116.7416374639406
 30
0.0
 11
281.7379565258887
 21
121.6647830689407
 31
0.0
  0
LINE
  5
2FA4
330
18
100
AcDbEntity
  8
1
  6
Continuous
100
AcDbLine
 10
281.7379565258888
 20
121.6647830689408
 30
0.0
 11
282.4379565258888
 21
120.2652750806307
 31
0.0
  0
LINE
  5
2FA9
330
18
100
AcDbEntity
  8
1
  6
Continuous
100
AcDbLine
 10
277.6379565258888
 20
117.4754981593107
 30
0.0
 11
279.2379565258887
 21
117.4754981593107
 31
0.0
  0
LINE
  5
2FAB
330
18
100
AcDbEntity
  8
1
  6
Continuous
100
AcDbLine
 10
277.9379565258889
 20
116.9416374639406
 30
0.0
 11
277.9379565258889
 21
117.4754981593107
 31
0.0
  0
LINE
  5
2FAD
330
18
100
AcDbEntity
  8
1
  6
Continuous
100
AcDbLine
 10
278.1379565258889
 20
116.7416374639406
 30
0.0
 11
277.9379565258889
 21
116.9416374639406
 31
0.0
  0
LINE
  5
2FB0
330
18
100
AcDbEntity
  8
2
  6
Continuous
100
AcDbLine
 10
268.2319565258895
 20
122.4476374639451
 30
0.0
 11
277.6379565258889
 21
122.4476374639451
 31
0.0
  0
LINE
  5
2FB1
330
18
100
AcDbEntity
  8
1
  6
Continuous
100
AcDbLine
 10
268.6379565258889
 20
122.0416374639406
 30
0.0
 11
267.6379565258889
 21
123.0416374639406
 31
0.0
  0
LINE
  5
2FB2
330
18
100
AcDbEntity
  8
1
  6
Continuous
100
AcDbLine
 10
268.6379565258889
 20
123.3145317188107
 30
0.0
 11
277.637956525889
 21
123.3145317188107
 31
0.0
  0
LINE
  5
2FB3
330
18
100
AcDbEntity
  8
1
  6
Continuous
100
AcDbLine
 10
277.637956525889
 20
122.0416374639407
 30
0.0
 11
268.6379565258889
 21
122.0416374639407
 31
0.0
  0
LINE
  5
2FB4
330
18
100
AcDbEntity
  8
1
  6
Continuous
100
AcDbLine
 10
268.6379565258889
 20
122.0416374639407
 30
0.0
 11
268.6379565258889
 21
123.3145317188107
 31
0.0
  0
LINE
  5
2FB9
330
18
100
AcDbEntity
  8
1
  6
Continuous
100
AcDbLine
 10
281.7379565258887
 20
134.3416374639406
 30
0.0
 11
282.4379565258888
 21
135.0416374639407
 31
0.0
  0
LINE
  5
2FBA
330
18
100
AcDbEntity
  8
1
  6
Continuous
100
AcDbLine
 10
282.4379565258888
 20
130.8179998472506
 30
0.0
 11
282.4379565258888
 21
135.0416374639407
 31
0.0
  0
LINE
  5
2FBB
330
18
100
AcDbEntity
  8
1
  6
Continuous
100
AcDbLine
 10
277.6379565258888
 20
133.3416374639407
 30
0.0
 11
279.2379565258887
 21
133.3416374639407
 31
0.0
  0
LINE
  5
2FBE
330
18
100
AcDbEntity
  8
1
  6
Continuous
100
AcDbLine
 10
279.5379565258889
 20
134.3416374639406
 30
0.0
 11
281.7379565258887
 21
134.3416374639406
 31
0.0
  0
LINE
  5
2FBF
330
18
100
AcDbEntity
  8
2
  6
Continuous
100
AcDbLine
 10
295.0379565258888
 20
120.2652750806354
 30
0.0
 11
279.5379565258889
 21
129.4184918589456
 31
0.0
  0
LINE
  5
2FC0
330
18
100
AcDbEntity
  8
1
  6
Continuous
100
AcDbLine
 10
282.4379565258888
 20
130.8179998472507
 30
0.0
 11
295.0379565258888
 21
130.8179998472507
 31
0.0
  0
LINE
  5
2FC1
330
18
100
AcDbEntity
  8
1
  6
Continuous
100
AcDbLine
 10
279.2379565258888
 20
130.3166374639406
 30
0.0
 11
279.4379565258889
 21
130.5166374639407
 31
0.0
  0
LINE
  5
2FC2
330
18
100
AcDbEntity
  8
1
  6
Continuous
100
AcDbLine
 10
281.7379565258888
 20
129.4184918589406
 30
0.0
 11
282.4379565258889
 21
130.8179998472508
 31
0.0
  0
LINE
  5
2FC3
330
18
100
AcDbEntity
  8
1
  6
Continuous
100
AcDbLine
 10
279.5379565258889
 20
129.4184918589406
 30
0.0
 11
281.7379565258887
 21
129.4184918589406
 31
0.0
  0
LINE
  5
2FC4
330
18
100
AcDbEntity
  8
1
  6
Continuous
100
AcDbLine
 10
279.4379565258888
 20
130.5166374639406
 30
0.0
 11
279.5379565258889
 21
130.5166374639406
 31
0.0
  0
LINE
  5
2FC5
330
18
100
AcDbEntity
  8
1
  6
Continuous
100
AcDbLine
 10
281.7379565258887
 20
129.4184918589405
 30
0.0
 11
281.7379565258887
 21
134.3416374639406
 31
0.0
  0
LINE
  5
2FCE
330
18
100
AcDbEntity
  8
2
  6
Continuous
100
AcDbLine
 10
281.8964565258937
 20
134.5001374639456
 30
0.0
 11
294.0379565258888
 21
134.5001374639457
 31
0.0
  0
LINE
  5
2FCF
330
18
100
AcDbEntity
  8
1
  6
Continuous
100
AcDbLine
 10
282.4379565258888
 20
135.0416374639407
 30
0.0
 11
295.0379565258888
 21
135.0416374639407
 31
0.0
  0
LINE
  5
2FD0
330
18
100
AcDbEntity
  8
2
  6
Continuous
100
AcDbLine
 10
277.637956525889
 20
123.3145317188107
 30
0.0
 11
268.6379565258888
 21
127.7687432090756
 31
0.0
  0
LINE
  5
2FD1
330
18
100
AcDbEntity
  8
2
  6
Continuous
100
AcDbLine
 10
268.2319565258883
 20
128.6356374639451
 30
0.0
 11
277.6379565258889
 21
128.6356374639451
 31
0.0
  0
LINE
  5
2FD2
330
18
100
AcDbEntity
  8
1
  6
Continuous
100
AcDbLine
 10
267.6379565258889
 20
128.0416374639406
 30
0.0
 11
268.6379565258889
 21
129.0416374639405
 31
0.0
  0
LINE
  5
2FD3
330
18
100
AcDbEntity
  8
1
  6
Continuous
100
AcDbLine
 10
268.6379565258889
 20
127.7687432090707
 30
0.0
 11
268.6379565258889
 21
129.0416374639407
 31
0.0
  0
LINE
  5
2FD4
330
18
100
AcDbEntity
  8
1
  6
Continuous
100
AcDbLine
 10
277.637956525889
 20
127.7687432090707
 30
0.0
 11
268.6379565258889
 21
127.7687432090707
 31
0.0
  0
LINE
  5
2FD5
330
18
100
AcDbEntity
  8
1
  6
Continuous
100
AcDbLine
 10
268.6379565258889
 20
129.0416374639407
 30
0.0
 11
277.637956525889
 21
129.0416374639407
 31
0.0
  0
LINE
  5
32D7
330
18
100
AcDbEntity
  8
4
  6
CENTER
 48
0.3
100
AcDbLine
 10
137.8574672394998
 20
205.5416374639456
 30
0.0
 11
158.6574672394999
 21
205.5416374639456
 31
0.0
  0
LINE
  5
32D9
330
18
100
AcDbEntity
  8
4
  6
CENTER
 48
0.3
100
AcDbLine
 10
137.8574672394999
 20
125.5416374640021
 30
0.0
 11
158.6574672395
 21
125.5416374640022
 31
0.0
  0
LINE
  5
32DA
330
18
100
AcDbEntity
  8
4
  6
CENTER
 48
0.3
100
AcDbLine
 10
137.8574672394998
 20
45.54163746394563
 30
0.0
 11
158.6574672394999
 21
45.54163746394567
 31
0.0
  0
LINE
  5
32DB
330
18
100
AcDbEntity
  8
4
  6
CENTER
 48
0.3
100
AcDbLine
 10
258.0379565258888
 20
125.5416374640021
 30
0.0
 11
237.2379565258888
 21
125.5416374640022
 31
0.0
  0
ARC
  5
32DC
330
18
100
AcDbEntity
  8
1
  6
Continuous
100
AcDbCircle
 10
271.7046231917088
 20
125.5416374640356
 30
0.0
 40
20.66666666581749
100
AcDbArc
 50
162.1034488703766
 51
197.8965511296202
  0
LINE
  5
32DD
330
18
100
AcDbEntity
  8
1
  6
Continuous
100
AcDbLine
 10
255.0379565258888
 20
138.2433433861065
 30
0.0
 11
255.0379565258888
 21
112.8399315418977
 31
0.0
  0
LINE
  5
32DE
330
18
100
AcDbEntity
  8
1
  6
Continuous
100
AcDbLine
 10
251.0379565258888
 20
114.5416374639462
 30
0.0
 11
251.0379565258888
 21
136.5416374639456
 31
0.0
  0
LINE
  5
32DF
330
18
100
AcDbEntity
  8
1
  6
Continuous
100
AcDbLine
 10
252.0379565258888
 20
112.8399315417851
 30
0.0
 11
251.0379565258887
 21
114.5416374639457
 31
0.0
  0
LINE
  5
32E0
330
18
100
AcDbEntity
  8
1
  6
Continuous
100
AcDbLine
 10
255.0379565258888
 20
112.8399315418976
 30
0.0
 11
252.0379565258238
 21
112.8399315418976
 31
0.0
  0
ARC
  5
32E1
330
18
100
AcDbEntity
  8
1
  6
Continuous
100
AcDbCircle
 10
267.1412731013838
 20
112.6893008853101
 30
0.0
 40
16.4432192957905
100
AcDbArc
 50
156.7097036817724
 51
168.3299559128212
  0
LINE
  5
32E2
330
18
100
AcDbEntity
  8
1
  6
Continuous
100
AcDbLine
 10
255.0379565258888
 20
119.1907845030837
 30
0.0
 11
252.0379565258888
 21
119.1907845029042
 31
0.0
  0
ARC
  5
32E3
330
18
100
AcDbEntity
  8
1
  6
Continuous
100
AcDbCircle
 10
267.1412731013838
 20
138.3939740425817
 30
0.0
 40
16.4432192957905
100
AcDbArc
 50
191.6700440871806
 51
203.2902963182305
  0
LINE
  5
32E4
330
18
100
AcDbEntity
  8
1
  6
Continuous
100
AcDbLine
 10
255.0379565258888
 20
131.8924904249876
 30
0.0
 11
252.0379565258888
 21
131.8924904249876
 31
0.0
  0
LINE
  5
32E5
330
18
100
AcDbEntity
  8
1
  6
Continuous
100
AcDbLine
 10
252.0379565258886
 20
138.2433433861067
 30
0.0
 11
251.0379565258887
 21
136.5416374639456
 31
0.0
  0
LINE
  5
32E6
330
18
100
AcDbEntity
  8
1
  6
Continuous
100
AcDbLine
 10
252.0379565258888
 20
138.2433433861065
 30
0.0
 11
255.0379565258888
 21
138.2433433861065
 31
0.0
  0
LINE
  5
32E7
330
18
100
AcDbEntity
  8
1
  6
Continuous
100
AcDbLine
 10
244.2379565258887
 20
119.0416374639407
 30
0.0
 11
244.2379565258887
 21
132.0416374639407
 31
0.0
  0
LINE
  5
32E8
330
18
100
AcDbEntity
  8
1
  6
Continuous
100
AcDbLine
 10
245.0379565258888
 20
119.0416374639407
 30
0.0
 11
245.0379565258888
 21
132.0416374639407
 31
0.0
  0
ARC
  5
32E9
330
18
100
AcDbEntity
  8
1
  6
Continuous
100
AcDbCircle
 10
233.7291967113047
 20
125.5416374639473
 30
0.0
 40
10.50875981458442
100
AcDbArc
 50
342.4120462269675
 51
17.58795377273691
  0
ARC
  5
32EA
330
18
100
AcDbEntity
  8
1
  6
Continuous
100
AcDbCircle
 10
250.7467163404732
 20
125.5416374639474
 30
0.0
 40
10.50875981458442
100
AcDbArc
 50
162.412046227263
 51
197.5879537730325
  0
LINE
  5
32EB
330
18
100
AcDbEntity
  8
1
  6
Continuous
100
AcDbLine
 10
240.2379565258887
 20
131.0416374640196
 30
0.0
 11
240.2379565258887
 21
120.0416374638727
 31
0.0
  0
LINE
  5
32EC
330
18
100
AcDbEntity
  8
1
  6
Continuous
100
AcDbLine
 10
243.7467163397864
 20
122.366210983361
 30
0.0
 11
240.7291967119924
 21
122.3662109833585
 31
0.0
  0
LINE
  5
32ED
330
18
100
AcDbEntity
  8
1
  6
Continuous
100
AcDbLine
 10
243.746716339804
 20
119.1907845028679
 30
0.0
 11
240.7291967119671
 21
119.1907845028794
 31
0.0
  0
LINE
  5
32EE
330
18
100
AcDbEntity
  8
1
  6
Continuous
100
AcDbLine
 10
244.2379565259286
 20
120.041637463941
 30
0.0
 11
243.7467163398102
 21
119.1907845028783
 31
0.0
  0
ARC
  5
32EF
330
18
100
AcDbEntity
  8
1
  6
Continuous
100
AcDbCircle
 10
241.4265515023458
 20
120.7784977431371
 30
0.0
 40
2.811405023524514
100
AcDbArc
 50
334.3842474633114
 51
34.3842474644117
  0
LINE
  5
32F0
330
18
100
AcDbEntity
  8
1
  6
Continuous
100
AcDbLine
 10
245.0379565258888
 20
119.0416374639407
 30
0.0
 11
244.2379565258887
 21
119.0416374639407
 31
0.0
  0
LINE
  5
32F1
330
18
100
AcDbEntity
  8
1
  6
Continuous
100
AcDbLine
 10
240.2379565258494
 20
120.0416374639409
 30
0.0
 11
240.7291967119677
 21
119.1907845028783
 31
0.0
  0
ARC
  5
32F2
330
18
100
AcDbEntity
  8
1
  6
Continuous
100
AcDbCircle
 10
243.0493615494321
 20
120.7784977431372
 30
0.0
 40
2.811405023524514
100
AcDbArc
 50
145.6157525355891
 51
205.6157525366886
  0
LINE
  5
32F3
330
18
100
AcDbEntity
  8
1
  6
Continuous
100
AcDbLine
 10
243.7467163398053
 20
128.7170639444737
 30
0.0
 11
240.729196711976
 21
128.7170639444844
 31
0.0
  0
LINE
  5
32F4
330
18
100
AcDbEntity
  8
1
  6
Continuous
100
AcDbLine
 10
243.7467163398095
 20
131.8924904250151
 30
0.0
 11
240.7291967119716
 21
131.8924904250203
 31
0.0
  0
ARC
  5
32F5
330
18
100
AcDbEntity
  8
1
  6
Continuous
100
AcDbCircle
 10
241.4265515023458
 20
130.3047771847552
 30
0.0
 40
2.811405023524514
100
AcDbArc
 50
325.6157525355892
 51
25.61575253668864
  0
LINE
  5
32F6
330
18
100
AcDbEntity
  8
1
  6
Continuous
100
AcDbLine
 10
244.2379565259286
 20
131.0416374639511
 30
0.0
 11
243.7467163398102
 21
131.8924904250138
 31
0.0
  0
LINE
  5
32F7
330
18
100
AcDbEntity
  8
1
  6
Continuous
100
AcDbLine
 10
244.2379565258887
 20
132.0416374639407
 30
0.0
 11
245.0379565258888
 21
132.0416374639407
 31
0.0
  0
ARC
  5
32F8
330
18
100
AcDbEntity
  8
1
  6
Continuous
100
AcDbCircle
 10
243.0493615494321
 20
130.3047771847553
 30
0.0
 40
2.811405023524514
100
AcDbArc
 50
154.3842474633113
 51
214.3842474644117
  0
LINE
  5
32F9
330
18
100
AcDbEntity
  8
1
  6
Continuous
100
AcDbLine
 10
240.2379565258494
 20
131.0416374639512
 30
0.0
 11
240.7291967119678
 21
131.8924904250139
 31
0.0
  0
ARC
  5
3302
330
18
100
AcDbEntity
  8
1
  6
Continuous
100
AcDbCircle
 10
60.73948321985409
 20
204.4828386613572
 30
0.0
 40
1.0
100
AcDbArc
 50
290.6954507341795
 51
359.9999999999997
  0
ARC
  5
3303
330
18
100
AcDbEntity
  8
1
  6
Continuous
100
AcDbCircle
 10
60.73948321985408
 20
206.6004362665296
 30
0.0
 40
1.0
100
AcDbArc
 50
0.0
 51
69.30454926576036
  0
ENDSEC
  0
SECTION
  2
OBJECTS
  0
DICTIONARY
  5
C
330
0
100
AcDbDictionary
281
     1
  3
ACAD_CIP_PREVIOUS_PRODUCT_INFO
350
3363
  3
ACAD_COLOR
350
3346
  3
ACAD_DETAILVIEWSTYLE
350
335F
  3
ACAD_GROUP
350
D
  3
ACAD_LAYOUT
350
94
  3
ACAD_MATERIAL
350
3314
  3
ACAD_MLEADERSTYLE
350
335B
  3
ACAD_MLINESTYLE
350
1B
  3
ACAD_PLOTSETTINGS
350
95
  3
ACAD_PLOTSTYLENAME
350
3312
  3
ACAD_SCALELIST
350
3349
  3
ACAD_SECTIONVIEWSTYLE
350
335D
  3
ACAD_TABLESTYLE
350
3347
  3
ACAD_VISUALSTYLE
350
332D
  3
ACDB_RECOMPOSE_DATA
350
3381
  3
AcDbVariableDictionary
350
3374
  3
CONTENTDICTIONARY
350
3D
  3
DWGPROPS
350
3382
  0
DICTIONARY
  5
3364
330
E
100
AcDbDictionary
280
     1
281
     1
  3
ADSK_XREC_LAYER_RECONCILED
360
3365
  0
DICTIONARY
  5
3366
330
4E
100
AcDbDictionary
280
     1
281
     1
  3
ADSK_XREC_LAYER_RECONCILED
360
3367
  0
DICTIONARY
  5
3368
330
4F
100
AcDbDictionary
280
     1
281
     1
  3
ADSK_XREC_LAYER_RECONCILED
360
3369
  0
DICTIONARY
  5
336A
330
50
100
AcDbDictionary
280
     1
281
     1
  3
ADSK_XREC_LAYER_RECONCILED
360
336B
  0
DICTIONARY
  5
336C
330
51
100
AcDbDictionary
280
     1
281
     1
  3
ADSK_XREC_LAYER_RECONCILED
360
336D
  0
DICTIONARY
  5
336E
330
52
100
AcDbDictionary
280
     1
281
     1
  3
ADSK_XREC_LAYER_RECONCILED
360
336F
  0
DICTIONARY
  5
3370
330
53
100
AcDbDictionary
280
     1
281
     1
  3
ADSK_XREC_LAYER_RECONCILED
360
3371
  0
DICTIONARY
  5
3372
330
54
100
AcDbDictionary
280
     1
281
     1
  3
ADSK_XREC_LAYER_RECONCILED
360
3373
  0
DICTIONARY
  5
330D
330
18
100
AcDbDictionary
281
     1
  3
ACAD_LAYOUTSELFREF
350
330E
  0
DICTIONARY
  5
330B
330
15
100
AcDbDictionary
281
     1
  3
ACAD_LAYOUTSELFREF
350
330C
  0
XRECORD
  5
3363
102
{ACAD_REACTORS
330
C
102
}
330
C
100
AcDbXrecord
280
     1
300
ACDLT
300
2014
300
ACDLT_F_S
  0
DICTIONARY
  5
3346
102
{ACAD_REACTORS
330
C
102
}
330
C
100
AcDbDictionary
281
     1
  0
DICTIONARY
  5
335F
102
{ACAD_REACTORS
330
C
102
}
330
C
100
AcDbDictionary
281
     1
  3
Imperial24
350
3360
  0
DICTIONARY
  5
D
102
{ACAD_REACTORS
330
C
102
}
330
C
100
AcDbDictionary
281
     1
  0
DICTIONARY
  5
94
102
{ACAD_REACTORS
330
C
102
}
330
C
100
AcDbDictionary
281
     1
  3
Model
350
3361
  3
レイアウト1
350
3362
  0
DICTIONARY
  5
3314
102
{ACAD_REACTORS
330
C
102
}
330
C
100
AcDbDictionary
281
     1
  3
ByBlock
350
331D
  3
ByLayer
350
3315
  3
Global
350
3325
  0
DICTIONARY
  5
335B
102
{ACAD_REACTORS
330
C
102
}
330
C
100
AcDbDictionary
281
     1
  3
Standard
350
335C
  0
DICTIONARY
  5
1B
102
{ACAD_REACTORS
330
C
102
}
330
C
100
AcDbDictionary
281
     1
  3
STANDARD
350
1C
  0
DICTIONARY
  5
95
102
{ACAD_REACTORS
330
C
102
}
330
C
100
AcDbDictionary
281
     1
  0
ACDBDICTIONARYWDFLT
  5
3312
102
{ACAD_REACTORS
330
C
102
}
330
C
100
AcDbDictionary
281
     1
  3
Normal
350
3313
100
AcDbDictionaryWithDefault
340
3313
  0
DICTIONARY
  5
3349
102
{ACAD_REACTORS
330
C
102
}
330
C
100
AcDbDictionary
281
     1
  3
A0
350
334A
  3
A1
350
334B
  3
A2
350
334C
  3
A3
350
334D
  3
A4
350
334E
  3
A5
350
334F
  3
A6
350
3350
  3
A7
350
3351
  3
A8
350
3352
  3
A9
350
3353
  3
B0
350
3354
  3
B1
350
3355
  3
B2
350
3356
  3
B3
350
3357
  3
B4
350
3358
  3
B5
350
3359
  3
B6
350
335A
  0
DICTIONARY
  5
335D
102
{ACAD_REACTORS
330
C
102
}
330
C
100
AcDbDictionary
281
     1
  3
Imperial24
350
335E
  0
DICTIONARY
  5
3347
102
{ACAD_REACTORS
330
C
102
}
330
C
100
AcDbDictionary
281
     1
  3
Standard
350
3348
  0
DICTIONARY
  5
332D
102
{ACAD_REACTORS
330
C
102
}
330
C
100
AcDbDictionary
281
     1
  3
2dWireframe
350
3333
  3
Basic
350
3332
  3
Brighten
350
3339
  3
ColorChange
350
333D
  3
Conceptual
350
3336
  3
Dim
350
3338
  3
EdgeColorOff
350
3345
  3
Facepattern
350
333C
  3
Flat
350
332E
  3
FlatWithEdges
350
332F
  3
Gouraud
350
3330
  3
GouraudWithEdges
350
3331
  3
Hidden
350
3335
  3
JitterOff
350
3343
  3
Linepattern
350
333B
  3
OverhangOff
350
3344
  3
Realistic
350
3337
  3
Shaded
350
3342
  3
Shaded with edges
350
3341
  3
Shades of Gray
350
333E
  3
Sketchy
350
333F
  3
Thicken
350
333A
  3
Wireframe
350
3334
  3
X-Ray
350
3340
  0
XRECORD
  5
3381
102
{ACAD_REACTORS
330
C
102
}
330
C
100
AcDbXrecord
280
     1
 90
        1
330
3348
  0
DICTIONARY
  5
3374
102
{ACAD_REACTORS
330
C
102
}
330
C
100
AcDbDictionary
281
     1
  3
CANNOSCALE
350
3379
  3
CMLEADERSTYLE
350
3376
  3
CTABLESTYLE
350
3375
  3
CVIEWDETAILSTYLE
350
3377
  3
CVIEWSECTIONSTYLE
350
3378
  3
DIMASSOC
350
337C
  3
INDEXCTL
350
337B
  3
SORTENTS
350
337A
  3
XCLIPFRAME
350
337D
  0
DICTIONARY
  5
3D
102
{ACAD_REACTORS
330
C
102
}
330
C
100
AcDbDictionary
281
     1
  0
XRECORD
  5
3382
102
{ACAD_REACTORS
330
C
102
}
330
C
100
AcDbXrecord
280
     1
  1
DWGPROPS COOKIE
  2

  3

  4

  6

  7

  8
Yoshitsune
  9

300
=
301
=
302
=
303
=
304
=
305
=
306
=
307
=
308
=
309
=
 40
0.1680195138888889
 41
2454525.396254514
 42
2457192.602399618
  1

 90
        0
  0
XRECORD
  5
3365
102
{ACAD_REACTORS
330
3364
102
}
330
3364
100
AcDbXrecord
280
     1
290
     1
  0
XRECORD
  5
3367
102
{ACAD_REACTORS
330
3366
102
}
330
3366
100
AcDbXrecord
280
     1
290
     1
  0
XRECORD
  5
3369
102
{ACAD_REACTORS
330
3368
102
}
330
3368
100
AcDbXrecord
280
     1
290
     1
  0
XRECORD
  5
336B
102
{ACAD_REACTORS
330
336A
102
}
330
336A
100
AcDbXrecord
280
     1
290
     1
  0
XRECORD
  5
336D
102
{ACAD_REACTORS
330
336C
102
}
330
336C
100
AcDbXrecord
280
     1
290
     1
  0
XRECORD
  5
336F
102
{ACAD_REACTORS
330
336E
102
}
330
336E
100
AcDbXrecord
280
     1
290
     1
  0
XRECORD
  5
3371
102
{ACAD_REACTORS
330
3370
102
}
330
3370
100
AcDbXrecord
280
     1
290
     1
  0
XRECORD
  5
3373
102
{ACAD_REACTORS
330
3372
102
}
330
3372
100
AcDbXrecord
280
     1
290
     1
  0
XRECORD
  5
330E
102
{ACAD_REACTORS
330
330D
102
}
330
330D
100
AcDbXrecord
280
     1
340
18
  0
XRECORD
  5
330C
102
{ACAD_REACTORS
330
330B
102
}
330
330B
100
AcDbXrecord
280
     1
340
15
  0
ACDBDETAILVIEWSTYLE
  5
3360
102
{ACAD_XDICTIONARY
360
33BA
102
}
102
{ACAD_REACTORS
330
335F
102
}
330
335F
100
AcDbModelDocViewStyle
 70
     0
  3
Imperial24
290
     0
100
AcDbDetailViewStyle
 70
     0
 71
     0
 90
        3
 71
     1
340
F
 40
0.24
340
0
 40
0.24
300

 40
0.36
280
     3
 71
     2
340
14
 90
       25
 71
     3
340
F
 40
0.24
 90
        1
 40
0.75
 90
        1
300
%<\AcVar ViewType \f "%tc1">% %<\AcVar ViewDetailId>%\PSCALE %<\AcVar ViewScale \f "%sn">%
 71
     4
340
14
 90
       25
340
14
 90
       25
280
     0
  0
LAYOUT
  5
3361
102
{ACAD_XDICTIONARY
360
33BC
102
}
102
{ACAD_REACTORS
330
94
102
}
330
94
100
AcDbPlotSettings
  1

  2
Canon LBP9100C
  4

  6

 40
0.0
 41
0.0
 42
0.0
 43
0.0
 44
0.0
 45
0.0
 46
0.0
 47
0.0
 48
0.0
 49
0.0
140
0.0
141
0.0
142
1.0
143
1.0
 70
  1712
 72
     0
 73
     0
 74
     0
  7

 75
     0
147
1.0
148
0.0
149
0.0
100
AcDbLayout
  1
Model
 70
     1
 71
     0
 10
0.0
 20
0.0
 11
12.0
 21
9.0
 12
0.0
 22
0.0
 32
0.0
 14
0.0
 24
0.0
 34
0.0
 15
0.0
 25
0.0
 35
0.0
146
0.0
 13
0.0
 23
0.0
 33
0.0
 16
1.0
 26
0.0
 36
0.0
 17
0.0
 27
1.0
 37
0.0
 76
     0
330
18
331
330A
  0
LAYOUT
  5
3362
102
{ACAD_XDICTIONARY
360
33BE
102
}
102
{ACAD_REACTORS
330
94
102
}
330
94
100
AcDbPlotSettings
  1

  2
Canon LBP9100C
  4

  6

 40
0.0
 41
0.0
 42
0.0
 43
0.0
 44
0.0
 45
0.0
 46
0.0
 47
0.0
 48
0.0
 49
0.0
140
0.0
141
0.0
142
1.0
143
1.0
 70
   688
 72
     0
 73
     0
 74
     5
  7

 75
    16
147
1.0
148
0.0
149
0.0
100
AcDbLayout
  1
レイアウト1
 70
     1
 71
     1
 10
0.0
 20
0.0
 11
420.0
 21
297.0
 12
0.0
 22
0.0
 32
0.0
 14
1.000000000000000E+20
 24
1.000000000000000E+20
 34
1.000000000000000E+20
 15
-1.000000000000000E+20
 25
-1.000000000000000E+20
 35
-1.000000000000000E+20
146
0.0
 13
0.0
 23
0.0
 33
0.0
 16
1.0
 26
0.0
 36
0.0
 17
0.0
 27
1.0
 37
0.0
 76
     0
330
15
  0
MATERIAL
  5
331D
102
{ACAD_XDICTIONARY
360
331E
102
}
102
{ACAD_REACTORS
330
3314
102
}
330
3314
100
AcDbMaterial
  1
ByBlock
 72
     0
 43
0.0208333333333333
 43
0.0
 43
0.0
 43
0.0
 43
0.0
 43
0.0208333333333333
 43
0.0
 43
0.0
 43
0.0
 43
0.0
 43
1.0
 43
0.0
 43
0.0
 43
0.0
 43
0.0
 43
1.0
 77
     0
 47
0.0208333333333333
 47
0.0
 47
0.0
 47
0.0
 47
0.0
 47
0.0208333333333333
 47
0.0
 47
0.0
 47
0.0
 47
0.0
 47
1.0
 47
0.0
 47
0.0
 47
0.0
 47
0.0
 47
1.0
171
     0
 49
0.0208333333333333
 49
0.0
 49
0.0
 49
0.0
 49
0.0
 49
0.0208333333333333
 49
0.0
 49
0.0
 49
0.0
 49
0.0
 49
1.0
 49
0.0
 49
0.0
 49
0.0
 49
0.0
 49
1.0
175
     0
142
0.0208333333333333
142
0.0
142
0.0
142
0.0
142
0.0
142
0.0208333333333333
142
0.0
142
0.0
142
0.0
142
0.0
142
1.0
142
0.0
142
0.0
142
0.0
142
0.0
142
1.0
179
     0
144
0.0208333333333333
144
0.0
144
0.0
144
0.0
144
0.0
144
0.0208333333333333
144
0.0
144
0.0
144
0.0
144
0.0
144
1.0
144
0.0
144
0.0
144
0.0
144
0.0
144
1.0
147
0.0208333333333333
147
0.0
147
0.0
147
0.0
147
0.0
147
0.0208333333333333
147
0.0
147
0.0
147
0.0
147
0.0
147
1.0
147
0.0
147
0.0
147
0.0
147
0.0
147
1.0
  0
MATERIAL
  5
3315
102
{ACAD_XDICTIONARY
360
3316
102
}
102
{ACAD_REACTORS
330
3314
102
}
330
3314
100
AcDbMaterial
  1
ByLayer
 72
     0
 43
0.0208333333333333
 43
0.0
 43
0.0
 43
0.0
 43
0.0
 43
0.0208333333333333
 43
0.0
 43
0.0
 43
0.0
 43
0.0
 43
1.0
 43
0.0
 43
0.0
 43
0.0
 43
0.0
 43
1.0
 77
     0
 47
0.0208333333333333
 47
0.0
 47
0.0
 47
0.0
 47
0.0
 47
0.0208333333333333
 47
0.0
 47
0.0
 47
0.0
 47
0.0
 47
1.0
 47
0.0
 47
0.0
 47
0.0
 47
0.0
 47
1.0
171
     0
 49
0.0208333333333333
 49
0.0
 49
0.0
 49
0.0
 49
0.0
 49
0.0208333333333333
 49
0.0
 49
0.0
 49
0.0
 49
0.0
 49
1.0
 49
0.0
 49
0.0
 49
0.0
 49
0.0
 49
1.0
175
     0
142
0.0208333333333333
142
0.0
142
0.0
142
0.0
142
0.0
142
0.0208333333333333
142
0.0
142
0.0
142
0.0
142
0.0
142
1.0
142
0.0
142
0.0
142
0.0
142
0.0
142
1.0
179
     0
144
0.0208333333333333
144
0.0
144
0.0
144
0.0
144
0.0
144
0.0208333333333333
144
0.0
144
0.0
144
0.0
144
0.0
144
1.0
144
0.0
144
0.0
144
0.0
144
0.0
144
1.0
147
0.0208333333333333
147
0.0
147
0.0
147
0.0
147
0.0
147
0.0208333333333333
147
0.0
147
0.0
147
0.0
147
0.0
147
1.0
147
0.0
147
0.0
147
0.0
147
0.0
147
1.0
  0
MATERIAL
  5
3325
102
{ACAD_XDICTIONARY
360
3326
102
}
102
{ACAD_REACTORS
330
3314
102
}
330
3314
100
AcDbMaterial
  1
Global
 72
     0
 43
0.0208333333333333
 43
0.0
 43
0.0
 43
0.0
 43
0.0
 43
0.0208333333333333
 43
0.0
 43
0.0
 43
0.0
 43
0.0
 43
1.0
 43
0.0
 43
0.0
 43
0.0
 43
0.0
 43
1.0
 77
     0
 47
0.0208333333333333
 47
0.0
 47
0.0
 47
0.0
 47
0.0
 47
0.0208333333333333
 47
0.0
 47
0.0
 47
0.0
 47
0.0
 47
1.0
 47
0.0
 47
0.0
 47
0.0
 47
0.0
 47
1.0
171
     0
 49
0.0208333333333333
 49
0.0
 49
0.0
 49
0.0
 49
0.0
 49
0.0208333333333333
 49
0.0
 49
0.0
 49
0.0
 49
0.0
 49
1.0
 49
0.0
 49
0.0
 49
0.0
 49
0.0
 49
1.0
175
     0
142
0.0208333333333333
142
0.0
142
0.0
142
0.0
142
0.0
142
0.0208333333333333
142
0.0
142
0.0
142
0.0
142
0.0
142
1.0
142
0.0
142
0.0
142
0.0
142
0.0
142
1.0
179
     0
144
0.0208333333333333
144
0.0
144
0.0
144
0.0
144
0.0
144
0.0208333333333333
144
0.0
144
0.0
144
0.0
144
0.0
144
1.0
144
0.0
144
0.0
144
0.0
144
0.0
144
1.0
147
0.0208333333333333
147
0.0
147
0.0
147
0.0
147
0.0
147
0.0208333333333333
147
0.0
147
0.0
147
0.0
147
0.0
147
1.0
147
0.0
147
0.0
147
0.0
147
0.0
147
1.0
  0
MLEADERSTYLE
  5
335C
102
{ACAD_REACTORS
330
335B
102
}
330
335B
100
AcDbMLeaderStyle
170
     2
171
     1
172
     0
 90
        2
 40
0.0
 41
0.0
173
     1
 91
-1056964608
340
12
 92
       -2
290
     1
 42
0.09
291
     1
 43
0.36
  3
Standard
 44
0.18
300

342
F
174
     1
178
     6
175
     1
176
     0
 93
-1056964608
 45
0.18
292
     0
297
     0
 46
0.18
 94
-1056964608
 47
1.0
 49
1.0
140
1.0
293
     1
141
0.0
294
     1
177
     0
142
1.0
295
     0
296
     0
143
0.125
1001
ACAD_MLEADERVER
1070
     2
  0
MLINESTYLE
  5
1C
102
{ACAD_REACTORS
330
1B
102
}
330
1B
100
AcDbMlineStyle
  2
STANDARD
 70
     0
  3

 62
   256
 51
90.0
 52
90.0
 71
     2
 49
0.5
 62
   256
  6
BYLAYER
 49
-0.5
 62
   256
  6
BYLAYER
  0
ACDBPLACEHOLDER
  5
3313
102
{ACAD_REACTORS
330
3312
102
}
330
3312
  0
SCALE
  5
334A
102
{ACAD_REACTORS
330
3349
102
}
330
3349
100
AcDbScale
 70
     0
300
1:1
140
1.0
141
1.0
290
     1
  0
SCALE
  5
334B
102
{ACAD_REACTORS
330
3349
102
}
330
3349
100
AcDbScale
 70
     0
300
1/128" = 1'-0"
140
0.0078125
141
12.0
290
     0
  0
SCALE
  5
334C
102
{ACAD_REACTORS
330
3349
102
}
330
3349
100
AcDbScale
 70
     0
300
1/64" = 1'-0"
140
0.015625
141
12.0
290
     0
  0
SCALE
  5
334D
102
{ACAD_REACTORS
330
3349
102
}
330
3349
100
AcDbScale
 70
     0
300
1/32" = 1'-0"
140
0.03125
141
12.0
290
     0
  0
SCALE
  5
334E
102
{ACAD_REACTORS
330
3349
102
}
330
3349
100
AcDbScale
 70
     0
300
1/16" = 1'-0"
140
0.0625
141
12.0
290
     0
  0
SCALE
  5
334F
102
{ACAD_REACTORS
330
3349
102
}
330
3349
100
AcDbScale
 70
     0
300
3/32" = 1'-0"
140
0.09375
141
12.0
290
     0
  0
SCALE
  5
3350
102
{ACAD_REACTORS
330
3349
102
}
330
3349
100
AcDbScale
 70
     0
300
1/8" = 1'-0"
140
0.125
141
12.0
290
     0
  0
SCALE
  5
3351
102
{ACAD_REACTORS
330
3349
102
}
330
3349
100
AcDbScale
 70
     0
300
3/16" = 1'-0"
140
0.1875
141
12.0
290
     0
  0
SCALE
  5
3352
102
{ACAD_REACTORS
330
3349
102
}
330
3349
100
AcDbScale
 70
     0
300
1/4" = 1'-0"
140
0.25
141
12.0
290
     0
  0
SCALE
  5
3353
102
{ACAD_REACTORS
330
3349
102
}
330
3349
100
AcDbScale
 70
     0
300
3/8" = 1'-0"
140
0.375
141
12.0
290
     0
  0
SCALE
  5
3354
102
{ACAD_REACTORS
330
3349
102
}
330
3349
100
AcDbScale
 70
     0
300
1/2" = 1'-0"
140
0.5
141
12.0
290
     0
  0
SCALE
  5
3355
102
{ACAD_REACTORS
330
3349
102
}
330
3349
100
AcDbScale
 70
     0
300
3/4" = 1'-0"
140
0.75
141
12.0
290
     0
  0
SCALE
  5
3356
102
{ACAD_REACTORS
330
3349
102
}
330
3349
100
AcDbScale
 70
     0
300
1" = 1'-0"
140
1.0
141
12.0
290
     0
  0
SCALE
  5
3357
102
{ACAD_REACTORS
330
3349
102
}
330
3349
100
AcDbScale
 70
     0
300
1-1/2" = 1'-0"
140
1.5
141
12.0
290
     0
  0
SCALE
  5
3358
102
{ACAD_REACTORS
330
3349
102
}
330
3349
100
AcDbScale
 70
     0
300
3" = 1'-0"
140
3.0
141
12.0
290
     0
  0
SCALE
  5
3359
102
{ACAD_REACTORS
330
3349
102
}
330
3349
100
AcDbScale
 70
     0
300
6" = 1'-0"
140
6.0
141
12.0
290
     0
  0
SCALE
  5
335A
102
{ACAD_REACTORS
330
3349
102
}
330
3349
100
AcDbScale
 70
     0
300
1'-0" = 1'-0"
140
12.0
141
12.0
290
     0
  0
ACDBSECTIONVIEWSTYLE
  5
335E
102
{ACAD_XDICTIONARY
360
33B8
102
}
102
{ACAD_REACTORS
330
335D
102
}
330
335D
100
AcDbModelDocViewStyle
 70
     0
  3
Imperial24
290
     0
100
AcDbSectionViewStyle
 70
     0
 71
     0
 90
       78
 71
     1
340
F
 40
0.24
340
0
340
0
 40
0.24
300
I, O, Q, S, X, Z
 40
0.48
 90
        3
 40
0.18
 90
        1
 71
     2
340
14
 90
       25
340
14
 90
       50
 40
0.24
 40
0.0
 40
0.24
 71
     3
340
F
 40
0.24
 90
        1
 40
0.75
 90
        1
300
%<\AcVar ViewType \f "%tc1">% %<\AcVar ViewSectionStartId>%-%<\AcVar ViewSectionEndId>%\PSCALE %<\AcVar ViewScale \f "%sn">%
 71
     4
300
ANSI31
 40
1.0
 90
        0
290
     0
290
     0
 90
        6
 40
0.0
 40
1.570796326794896
 40
0.2617993877991494
 40
1.308996938995747
 40
-0.2617993877991494
 40
1.832595714594046
  0
TABLESTYLE
  5
3348
102
{ACAD_XDICTIONARY
360
337F
102
}
102
{ACAD_REACTORS
330
3347
102
}
330
3347
100
AcDbTableStyle
  3
Standard
 70
     0
 71
     0
 40
0.06
 41
0.06
280
     0
281
     0
  7
STANDARD
140
0.18
170
     2
 62
     0
 63
     7
283
     0
274
    -2
284
     1
 64
     0
275
    -2
285
     1
 65
     0
276
    -2
286
     1
 66
     0
277
    -2
287
     1
 67
     0
278
    -2
288
     1
 68
     0
279
    -2
289
     1
 69
     0
  7
STANDARD
140
0.25
170
     5
 62
     0
 63
     7
283
     0
274
    -2
284
     1
 64
     0
275
    -2
285
     1
 65
     0
276
    -2
286
     1
 66
     0
277
    -2
287
     1
 67
     0
278
    -2
288
     1
 68
     0
279
    -2
289
     1
 69
     0
  7
STANDARD
140
0.18
170
     5
 62
     0
 63
     7
283
     0
274
    -2
284
     1
 64
     0
275
    -2
285
     1
 65
     0
276
    -2
286
     1
 66
     0
277
    -2
287
     1
 67
     0
278
    -2
288
     1
 68
     0
279
    -2
289
     1
 69
     0
  0
VISUALSTYLE
  5
3333
102
{ACAD_XDICTIONARY
360
3390
102
}
102
{ACAD_REACTORS
330
332D
102
}
330
332D
100
AcDbVisualStyle
  2
2dWireframe
 70
     4
 71
     0
 72
     2
 73
     0
 90
        0
 40
-0.6
 41
-30.0
 62
     5
 63
     7
 74
     1
 91
        4
 64
     7
 65
   257
 75
     1
175
     1
 42
1.0
 92
        0
 66
   257
 43
1.0
 76
     1
 77
     6
 78
     2
 67
     7
 79
     5
170
     0
171
     0
290
     0
174
     0
 93
        1
 44
0.0
173
     0
291
     0
 45
0.0
1001
ACAD
1000
AcDbSavedByObjectVersion
1070
     0
  0
VISUALSTYLE
  5
3332
102
{ACAD_XDICTIONARY
360
338E
102
}
102
{ACAD_REACTORS
330
332D
102
}
330
332D
100
AcDbVisualStyle
  2
Basic
 70
     7
 71
     1
 72
     0
 73
     1
 90
        0
 40
-0.6
 41
-30.0
 62
     5
 63
     7
 74
     0
 91
        4
 64
     7
 65
   257
 75
     1
175
     1
 42
1.0
 92
        8
 66
     7
 43
1.0
 76
     1
 77
     6
 78
     2
 67
     7
 79
     5
170
     0
171
     0
290
     0
174
     0
 93
        1
 44
0.0
173
     0
291
     1
 45
0.0
1001
ACAD
1000
AcDbSavedByObjectVersion
1070
     0
  0
VISUALSTYLE
  5
3339
102
{ACAD_XDICTIONARY
360
339C
102
}
102
{ACAD_REACTORS
330
332D
102
}
330
332D
100
AcDbVisualStyle
  2
Brighten
 70
    12
 71
     2
 72
     2
 73
     0
 90
        0
 40
-0.6
 41
-30.0
 62
     5
 63
     7
 74
     1
 91
        4
 64
     7
 65
   257
 75
     1
175
     1
 42
1.0
 92
        8
 66
     7
 43
1.0
 76
     1
 77
     6
 78
     2
 67
     7
 79
     5
170
     0
171
     0
290
     0
174
     0
 93
        1
 44
50.0
173
     0
291
     1
 45
0.0
1001
ACAD
1000
AcDbSavedByObjectVersion
1070
     0
  0
VISUALSTYLE
  5
333D
102
{ACAD_XDICTIONARY
360
33A4
102
}
102
{ACAD_REACTORS
330
332D
102
}
330
332D
100
AcDbVisualStyle
  2
ColorChange
 70
    16
 71
     2
 72
     2
 73
     3
 90
        0
 40
-0.6
 41
-30.0
 62
     5
 63
     8
 74
     1
 91
        4
 64
     7
 65
   257
 75
     1
175
     1
 42
1.0
 92
        8
 66
     8
 43
1.0
 76
     1
 77
     6
 78
     2
 67
     7
 79
     5
170
     0
171
     0
290
     0
174
     0
 93
        1
 44
0.0
173
     0
291
     1
 45
0.0
1001
ACAD
1000
AcDbSavedByObjectVersion
1070
     0
  0
VISUALSTYLE
  5
3336
102
{ACAD_XDICTIONARY
360
3396
102
}
102
{ACAD_REACTORS
330
332D
102
}
330
332D
100
AcDbVisualStyle
  2
Conceptual
 70
     9
 71
     3
 72
     2
 73
     0
 90
        0
 40
-0.6
 41
-30.0
 62
     5
 63
     7
 74
     2
 91
        2
 64
     7
 65
   257
 75
     1
175
     1
 42
179.0
 92
        8
 66
     7
 43
1.0
 76
     1
 77
     6
 78
     2
 67
     7
 79
     3
170
     0
171
     0
290
     0
174
     0
 93
        1
 44
0.0
173
     0
291
     0
 45
0.0
1001
ACAD
1000
AcDbSavedByObjectVersion
1070
     0
  0
VISUALSTYLE
  5
3338
102
{ACAD_XDICTIONARY
360
339A
102
}
102
{ACAD_REACTORS
330
332D
102
}
330
332D
100
AcDbVisualStyle
  2
Dim
 70
    11
 71
     2
 72
     2
 73
     0
 90
        0
 40
-0.6
 41
-30.0
 62
     5
 63
     7
 74
     1
 91
        4
 64
     7
 65
   257
 75
     1
175
     1
 42
1.0
 92
        8
 66
     7
 43
1.0
 76
     1
 77
     6
 78
     2
 67
     7
 79
     5
170
     0
171
     0
290
     0
174
     0
 93
        1
 44
-50.0
173
     0
291
     1
 45
0.0
1001
ACAD
1000
AcDbSavedByObjectVersion
1070
     0
  0
VISUALSTYLE
  5
3345
102
{ACAD_XDICTIONARY
360
33B4
102
}
102
{ACAD_REACTORS
330
332D
102
}
330
332D
100
AcDbVisualStyle
  2
EdgeColorOff
 70
    22
 71
     2
 72
     2
 73
     0
 90
        0
 40
-0.6
 41
-30.0
 62
     5
 63
     7
 74
     1
 91
        4
 64
     7
 65
   257
 75
     1
175
     1
 42
1.0
 92
        8
 66
     7
 43
1.0
 76
     1
 77
     6
 78
     2
 67
     7
 79
     5
170
     0
171
     0
290
     0
174
     0
 93
        1
 44
0.0
173
     0
291
     1
 45
0.0
1001
ACAD
1000
AcDbSavedByObjectVersion
1070
     0
  0
VISUALSTYLE
  5
333C
102
{ACAD_XDICTIONARY
360
33A2
102
}
102
{ACAD_REACTORS
330
332D
102
}
330
332D
100
AcDbVisualStyle
  2
Facepattern
 70
    15
 71
     2
 72
     2
 73
     0
 90
        0
 40
-0.6
 41
-30.0
 62
     5
 63
     7
 74
     1
 91
        4
 64
     7
 65
   257
 75
     1
175
     1
 42
1.0
 92
        8
 66
     7
 43
1.0
 76
     1
 77
     6
 78
     2
 67
     7
 79
     5
170
     0
171
     0
290
     0
174
     0
 93
        1
 44
0.0
173
     0
291
     1
 45
0.0
1001
ACAD
1000
AcDbSavedByObjectVersion
1070
     0
  0
VISUALSTYLE
  5
332E
102
{ACAD_XDICTIONARY
360
3386
102
}
102
{ACAD_REACTORS
330
332D
102
}
330
332D
100
AcDbVisualStyle
  2
Flat
 70
     0
 71
     2
 72
     1
 73
     1
 90
        2
 40
-0.6
 41
30.0
 62
     5
 63
     7
 74
     0
 91
        0
 64
     7
 65
   257
 75
     1
175
     1
 42
1.0
 92
        8
 66
     7
 43
1.0
 76
     1
 77
     6
 78
     2
 67
     7
 79
     5
170
     0
171
     0
290
     0
174
     0
 93
       13
 44
0.0
173
     0
291
     1
 45
0.0
1001
ACAD
1000
AcDbSavedByObjectVersion
1070
     0
  0
VISUALSTYLE
  5
332F
102
{ACAD_XDICTIONARY
360
3388
102
}
102
{ACAD_REACTORS
330
332D
102
}
330
332D
100
AcDbVisualStyle
  2
FlatWithEdges
 70
     1
 71
     2
 72
     1
 73
     1
 90
        2
 40
-0.6
 41
30.0
 62
     5
 63
     7
 74
     1
 91
        0
 64
     7
 65
   257
 75
     1
175
     1
 42
1.0
 92
        0
 66
   257
 43
1.0
 76
     1
 77
     6
 78
     2
 67
     7
 79
     5
170
     0
171
     0
290
     0
174
     0
 93
       13
 44
0.0
173
     0
291
     1
 45
0.0
1001
ACAD
1000
AcDbSavedByObjectVersion
1070
     0
  0
VISUALSTYLE
  5
3330
102
{ACAD_XDICTIONARY
360
338A
102
}
102
{ACAD_REACTORS
330
332D
102
}
330
332D
100
AcDbVisualStyle
  2
Gouraud
 70
     2
 71
     2
 72
     2
 73
     1
 90
        2
 40
-0.6
 41
30.0
 62
     5
 63
     7
 74
     0
 91
        0
 64
     7
 65
   257
 75
     1
175
     1
 42
1.0
 92
        0
 66
     7
 43
1.0
 76
     1
 77
     6
 78
     2
 67
     7
 79
     5
170
     0
171
     0
290
     0
174
     0
 93
       13
 44
0.0
173
     0
291
     1
 45
0.0
1001
ACAD
1000
AcDbSavedByObjectVersion
1070
     0
  0
VISUALSTYLE
  5
3331
102
{ACAD_XDICTIONARY
360
338C
102
}
102
{ACAD_REACTORS
330
332D
102
}
330
332D
100
AcDbVisualStyle
  2
GouraudWithEdges
 70
     3
 71
     2
 72
     2
 73
     1
 90
        2
 40
-0.6
 41
30.0
 62
     5
 63
     7
 74
     1
 91
        0
 64
     7
 65
   257
 75
     1
175
     1
 42
1.0
 92
        0
 66
   257
 43
1.0
 76
     1
 77
     6
 78
     2
 67
     7
 79
     5
170
     0
171
     0
290
     0
174
     0
 93
       13
 44
0.0
173
     0
291
     1
 45
0.0
1001
ACAD
1000
AcDbSavedByObjectVersion
1070
     0
  0
VISUALSTYLE
  5
3335
102
{ACAD_XDICTIONARY
360
3394
102
}
102
{ACAD_REACTORS
330
332D
102
}
330
332D
100
AcDbVisualStyle
  2
Hidden
 70
     6
 71
     1
 72
     2
 73
     2
 90
        0
 40
-0.6
 41
-30.0
 62
     5
 63
     7
 74
     2
 91
        2
 64
     7
 65
   257
 75
     2
175
     1
 42
40.0
 92
        0
 66
   257
 43
1.0
 76
     1
 77
     6
 78
     2
 67
     7
 79
     3
170
     0
171
     0
290
     0
174
     0
 93
        1
 44
0.0
173
     0
291
     0
 45
0.0
1001
ACAD
1000
AcDbSavedByObjectVersion
1070
     0
  0
VISUALSTYLE
  5
3343
102
{ACAD_XDICTIONARY
360
33B0
102
}
102
{ACAD_REACTORS
330
332D
102
}
330
332D
100
AcDbVisualStyle
  2
JitterOff
 70
    20
 71
     2
 72
     2
 73
     0
 90
        0
 40
-0.6
 41
-30.0
 62
     5
 63
     7
 74
     1
 91
        4
 64
     7
 65
   257
 75
     1
175
     1
 42
1.0
 92
       10
 66
     7
 43
1.0
 76
     1
 77
     6
 78
     2
 67
     7
 79
     5
170
     0
171
     0
290
     0
174
     0
 93
        1
 44
0.0
173
     0
291
     1
 45
0.0
1001
ACAD
1000
AcDbSavedByObjectVersion
1070
     0
  0
VISUALSTYLE
  5
333B
102
{ACAD_XDICTIONARY
360
33A0
102
}
102
{ACAD_REACTORS
330
332D
102
}
330
332D
100
AcDbVisualStyle
  2
Linepattern
 70
    14
 71
     2
 72
     2
 73
     0
 90
        0
 40
-0.6
 41
-30.0
 62
     5
 63
     7
 74
     1
 91
        4
 64
     7
 65
   257
 75
     7
175
     7
 42
1.0
 92
        8
 66
     7
 43
1.0
 76
     1
 77
     6
 78
     2
 67
     7
 79
     5
170
     0
171
     0
290
     0
174
     0
 93
        1
 44
0.0
173
     0
291
     1
 45
0.0
1001
ACAD
1000
AcDbSavedByObjectVersion
1070
     0
  0
VISUALSTYLE
  5
3344
102
{ACAD_XDICTIONARY
360
33B2
102
}
102
{ACAD_REACTORS
330
332D
102
}
330
332D
100
AcDbVisualStyle
  2
OverhangOff
 70
    21
 71
     2
 72
     2
 73
     0
 90
        0
 40
-0.6
 41
-30.0
 62
     5
 63
     7
 74
     1
 91
        4
 64
     7
 65
   257
 75
     1
175
     1
 42
1.0
 92
        9
 66
     7
 43
1.0
 76
     1
 77
     6
 78
     2
 67
     7
 79
     5
170
     0
171
     0
290
     0
174
     0
 93
        1
 44
0.0
173
     0
291
     1
 45
0.0
1001
ACAD
1000
AcDbSavedByObjectVersion
1070
     0
  0
VISUALSTYLE
  5
3337
102
{ACAD_XDICTIONARY
360
3398
102
}
102
{ACAD_REACTORS
330
332D
102
}
330
332D
100
AcDbVisualStyle
  2
Realistic
 70
     8
 71
     2
 72
     3
 73
     0
 90
        2
 40
-0.6
 41
30.0
 62
     5
 63
     7
 74
     0
 91
        0
 64
     7
 65
   257
 75
     1
175
     1
 42
1.0
 92
        8
 66
   257
 43
1.0
 76
     1
 77
     6
 78
     2
 67
     7
 79
     3
170
     0
171
     0
290
     0
174
     0
 93
       13
 44
0.0
173
     0
291
     0
 45
0.0
1001
ACAD
1000
AcDbSavedByObjectVersion
1070
     0
  0
VISUALSTYLE
  5
3342
102
{ACAD_XDICTIONARY
360
33AE
102
}
102
{ACAD_REACTORS
330
332D
102
}
330
332D
100
AcDbVisualStyle
  2
Shaded
 70
    27
 71
     2
 72
     2
 73
     1
 90
        2
 40
-0.6
 41
30.0
 62
     5
 63
     7
 74
     0
 91
        4
 64
     7
 65
   257
 75
     1
175
     1
 42
1.0
 92
        8
 66
   257
 43
1.0
 76
     1
 77
     6
 78
     2
 67
     8
 79
     3
170
     0
171
     0
290
     0
174
     0
 93
        5
 44
0.0
173
     0
291
     0
 45
0.0
1001
ACAD
1000
AcDbSavedByObjectVersion
1070
     0
  0
VISUALSTYLE
  5
3341
102
{ACAD_XDICTIONARY
360
33AC
102
}
102
{ACAD_REACTORS
330
332D
102
}
330
332D
100
AcDbVisualStyle
  2
Shaded with edges
 70
    26
 71
     2
 72
     2
 73
     1
 90
        2
 40
-0.6
 41
30.0
 62
     5
 63
     7
 74
     1
 91
       10
 64
     7
 65
   257
 75
     2
175
     1
 42
1.0
 92
        8
 66
   257
 43
1.0
 76
     1
 77
     6
 78
     2
 67
     7
 79
     3
170
     0
171
     0
290
     0
174
     0
 93
        5
 44
0.0
173
     0
291
     0
 45
0.0
1001
ACAD
1000
AcDbSavedByObjectVersion
1070
     0
  0
VISUALSTYLE
  5
333E
102
{ACAD_XDICTIONARY
360
33A6
102
}
102
{ACAD_REACTORS
330
332D
102
}
330
332D
100
AcDbVisualStyle
  2
Shades of Gray
 70
    23
 71
     2
 72
     2
 73
     3
 90
        0
 40
-0.6
 41
-30.0
 62
     5
 63
     7
 74
     2
 91
        2
 64
     7
 65
     7
 75
     1
175
     1
 42
40.0
 92
        8
 66
     7
 43
1.0
 76
     1
 77
     6
 78
     2
 67
     7
 79
     3
170
     0
171
     0
290
     0
174
     0
 93
        1
 44
0.0
173
     0
291
     0
 45
0.0
1001
ACAD
1000
AcDbSavedByObjectVersion
1070
     0
  0
VISUALSTYLE
  5
333F
102
{ACAD_XDICTIONARY
360
33A8
102
}
102
{ACAD_REACTORS
330
332D
102
}
330
332D
100
AcDbVisualStyle
  2
Sketchy
 70
    24
 71
     1
 72
     2
 73
     2
 90
        0
 40
-0.6
 41
-30.0
 62
     5
 63
     7
 74
     2
 91
        2
 64
     7
 65
     7
 75
     1
175
     1
 42
40.0
 92
       11
 66
     7
 43
1.0
 76
     1
 77
     6
 78
     2
 67
     7
 79
     6
170
     0
171
     0
290
     0
174
     0
 93
        1
 44
0.0
173
     0
291
     0
 45
0.0
1001
ACAD
1000
AcDbSavedByObjectVersion
1070
     0
  0
VISUALSTYLE
  5
333A
102
{ACAD_XDICTIONARY
360
339E
102
}
102
{ACAD_REACTORS
330
332D
102
}
330
332D
100
AcDbVisualStyle
  2
Thicken
 70
    13
 71
     2
 72
     2
 73
     0
 90
        0
 40
-0.6
 41
-30.0
 62
     5
 63
     7
 74
     1
 91
        4
 64
     7
 65
   257
 75
     1
175
     1
 42
1.0
 92
       12
 66
     7
 43
1.0
 76
     1
 77
     6
 78
     2
 67
     7
 79
     5
170
     0
171
     0
290
     0
174
     0
 93
        1
 44
0.0
173
     0
291
     1
 45
0.0
1001
ACAD
1000
AcDbSavedByObjectVersion
1070
     0
  0
VISUALSTYLE
  5
3334
102
{ACAD_XDICTIONARY
360
3392
102
}
102
{ACAD_REACTORS
330
332D
102
}
330
332D
100
AcDbVisualStyle
  2
Wireframe
 70
     5
 71
     0
 72
     2
 73
     0
 90
        0
 40
-0.6
 41
-30.0
 62
     5
 63
     7
 74
     1
 91
        4
 64
     7
 65
   257
 75
     1
175
     1
 42
1.0
 92
        0
 66
   257
 43
1.0
 76
     1
 77
     6
 78
     2
 67
     7
 79
     3
170
     0
171
     0
290
     0
174
     0
 93
        1
 44
0.0
173
     0
291
     0
 45
0.0
1001
ACAD
1000
AcDbSavedByObjectVersion
1070
     0
  0
VISUALSTYLE
  5
3340
102
{ACAD_XDICTIONARY
360
33AA
102
}
102
{ACAD_REACTORS
330
332D
102
}
330
332D
100
AcDbVisualStyle
  2
X-Ray
 70
    25
 71
     2
 72
     2
 73
     1
 90
        1
 40
0.5
 41
-30.0
 62
     5
 63
     7
 74
     1
 91
        0
 64
     7
 65
   257
 75
     1
175
     1
 42
1.0
 92
        8
 66
     7
 43
1.0
 76
     1
 77
     6
 78
     2
 67
     7
 79
     3
170
     0
171
     0
290
     0
174
     0
 93
       13
 44
0.0
173
     0
291
     0
 45
0.0
1001
ACAD
1000
AcDbSavedByObjectVersion
1070
     0
  0
DICTIONARYVAR
  5
3379
102
{ACAD_REACTORS
330
3374
102
}
330
3374
100
DictionaryVariables
280
     0
  1
1:1
  0
DICTIONARYVAR
  5
3376
102
{ACAD_REACTORS
330
3374
102
}
330
3374
100
DictionaryVariables
280
     0
  1
STANDARD
  0
DICTIONARYVAR
  5
3375
102
{ACAD_REACTORS
330
3374
102
}
330
3374
100
DictionaryVariables
280
     0
  1
STANDARD
  0
DICTIONARYVAR
  5
3377
102
{ACAD_REACTORS
330
3374
102
}
330
3374
100
DictionaryVariables
280
     0
  1
Imperial24
  0
DICTIONARYVAR
  5
3378
102
{ACAD_REACTORS
330
3374
102
}
330
3374
100
DictionaryVariables
280
     0
  1
Imperial24
  0
DICTIONARYVAR
  5
337C
102
{ACAD_REACTORS
330
3374
102
}
330
3374
100
DictionaryVariables
280
     0
  1
1
  0
DICTIONARYVAR
  5
337B
102
{ACAD_REACTORS
330
3374
102
}
330
3374
100
DictionaryVariables
280
     0
  1
0
  0
DICTIONARYVAR
  5
337A
102
{ACAD_REACTORS
330
3374
102
}
330
3374
100
DictionaryVariables
280
     0
  1
127
  0
DICTIONARYVAR
  5
337D
102
{ACAD_REACTORS
330
3374
102
}
330
3374
100
DictionaryVariables
280
     0
  1
2
  0
DICTIONARY
  5
33BA
330
3360
100
AcDbDictionary
280
     1
281
     1
  3
ACAD_XREC_ROUNDTRIP
360
33BB
  0
DICTIONARY
  5
33BC
330
3361
100
AcDbDictionary
280
     1
281
     1
  3
ACAD_XREC_ROUNDTRIP
360
33BD
  0
DICTIONARY
  5
33BE
330
3362
100
AcDbDictionary
280
     1
281
     1
  3
ACAD_XREC_ROUNDTRIP
360
33BF
  0
DICTIONARY
  5
331E
330
331D
100
AcDbDictionary
280
     1
281
     1
  3
ACAD_XREC_ROUNDTRIP
360
3384
  3
BUMPTILE
360
3320
  3
DIFFUSETILE
360
331F
  3
OPACITYTILE
360
3323
  3
REFLECTIONTILE
360
3322
  3
REFRACTIONTILE
360
3324
  3
SPECULARTILE
360
3321
  0
DICTIONARY
  5
3316
330
3315
100
AcDbDictionary
280
     1
281
     1
  3
ACAD_XREC_ROUNDTRIP
360
3383
  3
BUMPTILE
360
3318
  3
DIFFUSETILE
360
3317
  3
OPACITYTILE
360
331B
  3
REFLECTIONTILE
360
331A
  3
REFRACTIONTILE
360
331C
  3
SPECULARTILE
360
3319
  0
DICTIONARY
  5
3326
330
3325
100
AcDbDictionary
280
     1
281
     1
  3
ACAD_XREC_ROUNDTRIP
360
3385
  3
BUMPTILE
360
3328
  3
DIFFUSETILE
360
3327
  3
OPACITYTILE
360
332B
  3
REFLECTIONTILE
360
332A
  3
REFRACTIONTILE
360
332C
  3
SPECULARTILE
360
3329
  0
DICTIONARY
  5
33B8
330
335E
100
AcDbDictionary
280
     1
281
     1
  3
ACAD_XREC_ROUNDTRIP
360
33B9
  0
DICTIONARY
  5
337F
330
3348
100
AcDbDictionary
280
     1
281
     1
  3
ACAD_ROUNDTRIP_2008_TABLESTYLE_CELLSTYLEMAP
360
3380
  3
ACAD_XREC_ROUNDTRIP
360
33B6
  0
DICTIONARY
  5
3390
330
3333
100
AcDbDictionary
280
     1
281
     1
  3
ACAD_XREC_ROUNDTRIP
360
3391
  0
DICTIONARY
  5
338E
330
3332
100
AcDbDictionary
280
     1
281
     1
  3
ACAD_XREC_ROUNDTRIP
360
338F
  0
DICTIONARY
  5
339C
330
3339
100
AcDbDictionary
280
     1
281
     1
  3
ACAD_XREC_ROUNDTRIP
360
339D
  0
DICTIONARY
  5
33A4
330
333D
100
AcDbDictionary
280
     1
281
     1
  3
ACAD_XREC_ROUNDTRIP
360
33A5
  0
DICTIONARY
  5
3396
330
3336
100
AcDbDictionary
280
     1
281
     1
  3
ACAD_XREC_ROUNDTRIP
360
3397
  0
DICTIONARY
  5
339A
330
3338
100
AcDbDictionary
280
     1
281
     1
  3
ACAD_XREC_ROUNDTRIP
360
339B
  0
DICTIONARY
  5
33B4
330
3345
100
AcDbDictionary
280
     1
281
     1
  3
ACAD_XREC_ROUNDTRIP
360
33B5
  0
DICTIONARY
  5
33A2
330
333C
100
AcDbDictionary
280
     1
281
     1
  3
ACAD_XREC_ROUNDTRIP
360
33A3
  0
DICTIONARY
  5
3386
330
332E
100
AcDbDictionary
280
     1
281
     1
  3
ACAD_XREC_ROUNDTRIP
360
3387
  0
DICTIONARY
  5
3388
330
332F
100
AcDbDictionary
280
     1
281
     1
  3
ACAD_XREC_ROUNDTRIP
360
3389
  0
DICTIONARY
  5
338A
330
3330
100
AcDbDictionary
280
     1
281
     1
  3
ACAD_XREC_ROUNDTRIP
360
338B
  0
DICTIONARY
  5
338C
330
3331
100
AcDbDictionary
280
     1
281
     1
  3
ACAD_XREC_ROUNDTRIP
360
338D
  0
DICTIONARY
  5
3394
330
3335
100
AcDbDictionary
280
     1
281
     1
  3
ACAD_XREC_ROUNDTRIP
360
3395
  0
DICTIONARY
  5
33B0
330
3343
100
AcDbDictionary
280
     1
281
     1
  3
ACAD_XREC_ROUNDTRIP
360
33B1
  0
DICTIONARY
  5
33A0
330
333B
100
AcDbDictionary
280
     1
281
     1
  3
ACAD_XREC_ROUNDTRIP
360
33A1
  0
DICTIONARY
  5
33B2
330
3344
100
AcDbDictionary
280
     1
281
     1
  3
ACAD_XREC_ROUNDTRIP
360
33B3
  0
DICTIONARY
  5
3398
330
3337
100
AcDbDictionary
280
     1
281
     1
  3
ACAD_XREC_ROUNDTRIP
360
3399
  0
DICTIONARY
  5
33AE
330
3342
100
AcDbDictionary
280
     1
281
     1
  3
ACAD_XREC_ROUNDTRIP
360
33AF
  0
DICTIONARY
  5
33AC
330
3341
100
AcDbDictionary
280
     1
281
     1
  3
ACAD_XREC_ROUNDTRIP
360
33AD
  0
DICTIONARY
  5
33A6
330
333E
100
AcDbDictionary
280
     1
281
     1
  3
ACAD_XREC_ROUNDTRIP
360
33A7
  0
DICTIONARY
  5
33A8
330
333F
100
AcDbDictionary
280
     1
281
     1
  3
ACAD_XREC_ROUNDTRIP
360
33A9
  0
DICTIONARY
  5
339E
330
333A
100
AcDbDictionary
280
     1
281
     1
  3
ACAD_XREC_ROUNDTRIP
360
339F
  0
DICTIONARY
  5
3392
330
3334
100
AcDbDictionary
280
     1
281
     1
  3
ACAD_XREC_ROUNDTRIP
360
3393
  0
DICTIONARY
  5
33AA
330
3340
100
AcDbDictionary
280
     1
281
     1
  3
ACAD_XREC_ROUNDTRIP
360
33AB
  0
XRECORD
  5
33BB
102
{ACAD_REACTORS
330
33BA
102
}
330
33BA
100
AcDbXrecord
280
     1
102
DISPLAYNAME
  1
Imperial24
102
FLAGS
 90
        0
  0
XRECORD
  5
33BD
102
{ACAD_REACTORS
330
33BC
102
}
330
33BC
100
AcDbXrecord
280
     1
102
SHADEPLOT
 70
     0
102
SHADEPLOTRESLEVEL
 70
     2
102
SHADEPLOTCUSTOMDPI
 70
   300
  0
XRECORD
  5
33BF
102
{ACAD_REACTORS
330
33BE
102
}
330
33BE
100
AcDbXrecord
280
     1
102
SHADEPLOT
 70
     0
102
SHADEPLOTRESLEVEL
 70
     2
102
SHADEPLOTCUSTOMDPI
 70
   300
  0
XRECORD
  5
3384
102
{ACAD_REACTORS
330
331E
102
}
330
331E
100
AcDbXrecord
280
     1
102
MATERIAL
148
0.0
149
0.0
149
0.0
 93
        0
 94
      127
282
     0
 72
     0
 77
     0
171
     0
175
     0
179
     0
273
     0
  0
XRECORD
  5
3320
102
{ACAD_REACTORS
330
331E
102
}
330
331E
100
AcDbXrecord
280
     1
270
     1
271
     1
  0
XRECORD
  5
331F
102
{ACAD_REACTORS
330
331E
102
}
330
331E
100
AcDbXrecord
280
     1
270
     1
271
     1
  0
XRECORD
  5
3323
102
{ACAD_REACTORS
330
331E
102
}
330
331E
100
AcDbXrecord
280
     1
270
     1
271
     1
  0
XRECORD
  5
3322
102
{ACAD_REACTORS
330
331E
102
}
330
331E
100
AcDbXrecord
280
     1
270
     1
271
     1
  0
XRECORD
  5
3324
102
{ACAD_REACTORS
330
331E
102
}
330
331E
100
AcDbXrecord
280
     1
270
     1
271
     1
  0
XRECORD
  5
3321
102
{ACAD_REACTORS
330
331E
102
}
330
331E
100
AcDbXrecord
280
     1
270
     1
271
     1
  0
XRECORD
  5
3383
102
{ACAD_REACTORS
330
3316
102
}
330
3316
100
AcDbXrecord
280
     1
102
MATERIAL
148
0.0
149
0.0
149
0.0
 93
        0
 94
      127
282
     0
 72
     0
 77
     0
171
     0
175
     0
179
     0
273
     0
  0
XRECORD
  5
3318
102
{ACAD_REACTORS
330
3316
102
}
330
3316
100
AcDbXrecord
280
     1
270
     1
271
     1
  0
XRECORD
  5
3317
102
{ACAD_REACTORS
330
3316
102
}
330
3316
100
AcDbXrecord
280
     1
270
     1
271
     1
  0
XRECORD
  5
331B
102
{ACAD_REACTORS
330
3316
102
}
330
3316
100
AcDbXrecord
280
     1
270
     1
271
     1
  0
XRECORD
  5
331A
102
{ACAD_REACTORS
330
3316
102
}
330
3316
100
AcDbXrecord
280
     1
270
     1
271
     1
  0
XRECORD
  5
331C
102
{ACAD_REACTORS
330
3316
102
}
330
3316
100
AcDbXrecord
280
     1
270
     1
271
     1
  0
XRECORD
  5
3319
102
{ACAD_REACTORS
330
3316
102
}
330
3316
100
AcDbXrecord
280
     1
270
     1
271
     1
  0
XRECORD
  5
3385
102
{ACAD_REACTORS
330
3326
102
}
330
3326
100
AcDbXrecord
280
     1
102
MATERIAL
148
0.0
149
0.0
149
0.0
 93
        0
 94
      127
282
     0
 72
     0
 77
     0
171
     0
175
     0
179
     0
273
     0
  0
XRECORD
  5
3328
102
{ACAD_REACTORS
330
3326
102
}
330
3326
100
AcDbXrecord
280
     1
270
     1
271
     1
  0
XRECORD
  5
3327
102
{ACAD_REACTORS
330
3326
102
}
330
3326
100
AcDbXrecord
280
     1
270
     1
271
     1
  0
XRECORD
  5
332B
102
{ACAD_REACTORS
330
3326
102
}
330
3326
100
AcDbXrecord
280
     1
270
     1
271
     1
  0
XRECORD
  5
332A
102
{ACAD_REACTORS
330
3326
102
}
330
3326
100
AcDbXrecord
280
     1
270
     1
271
     1
  0
XRECORD
  5
332C
102
{ACAD_REACTORS
330
3326
102
}
330
3326
100
AcDbXrecord
280
     1
270
     1
271
     1
  0
XRECORD
  5
3329
102
{ACAD_REACTORS
330
3326
102
}
330
3326
100
AcDbXrecord
280
     1
270
     1
271
     1
  0
XRECORD
  5
33B9
102
{ACAD_REACTORS
330
33B8
102
}
330
33B8
100
AcDbXrecord
280
     1
102
DISPLAYNAME
  1
Imperial24
102
FLAGS
 90
        0
  0
CELLSTYLEMAP
  5
3380
102
{ACAD_REACTORS
330
337F
102
}
330
337F
100
AcDbCellStyleMap
 90
        3
300
CELLSTYLE
  1
TABLEFORMAT_BEGIN
 90
        5
170
     1
 91
        0
 92
    32768
 62
   257
 93
        1
300
CONTENTFORMAT
  1
CONTENTFORMAT_BEGIN
 90
        0
 91
        0
 92
      512
 93
        0
300

 40
0.0
140
1.0
 94
        5
 62
     0
340
F
144
0.25
309
CONTENTFORMAT_END
171
     0
 94
        0
309
TABLEFORMAT_END
  1
CELLSTYLE_BEGIN
 90
        1
 91
        1
300
_TITLE
309
CELLSTYLE_END
300
CELLSTYLE
  1
TABLEFORMAT_BEGIN
 90
        5
170
     1
 91
        0
 92
        0
 62
   257
 93
        1
300
CONTENTFORMAT
  1
CONTENTFORMAT_BEGIN
 90
        0
 91
        0
 92
      512
 93
        0
300

 40
0.0
140
1.0
 94
        5
 62
     0
340
F
144
0.18
309
CONTENTFORMAT_END
171
     0
 94
        0
309
TABLEFORMAT_END
  1
CELLSTYLE_BEGIN
 90
        2
 91
        1
300
_HEADER
309
CELLSTYLE_END
300
CELLSTYLE
  1
TABLEFORMAT_BEGIN
 90
        5
170
     1
 91
        0
 92
        0
 62
   257
 93
        1
300
CONTENTFORMAT
  1
CONTENTFORMAT_BEGIN
 90
        0
 91
        0
 92
      512
 93
        0
300

 40
0.0
140
1.0
 94
        2
 62
     0
340
F
144
0.18
309
CONTENTFORMAT_END
171
     0
 94
        0
309
TABLEFORMAT_END
  1
CELLSTYLE_BEGIN
 90
        3
 91
        2
300
_DATA
309
CELLSTYLE_END
  0
XRECORD
  5
33B6
102
{ACAD_REACTORS
330
337F
102
}
330
337F
100
AcDbXrecord
280
     1
102
ACAD_ROUNDTRIP_PRE2007_TABLESTYLE
 90
      512
 91
        0
  1

 92
      512
 93
        0
  2

 94
      512
 95
        0
  3

  0
XRECORD
  5
3391
102
{ACAD_REACTORS
330
3390
102
}
330
3390
100
AcDbXrecord
280
     1
102
RTVSPost2010Prop28
280
     1
102
RTVSPost2010PropOp28
 70
     1
102
RTVSPost2010Prop29
280
     1
102
RTVSPost2010PropOp29
 70
     1
102
RTVSPost2010Prop30
280
     0
102
RTVSPost2010PropOp30
 70
     1
102
RTVSPost2010Prop31
280
     0
102
RTVSPost2010PropOp31
 70
     1
102
RTVSPost2010Prop32
280
     0
102
RTVSPost2010PropOp32
 70
     1
102
RTVSPost2010Prop33
280
     0
102
RTVSPost2010PropOp33
 70
     1
102
RTVSPost2010Prop34
280
     0
102
RTVSPost2010PropOp34
 70
     1
102
RTVSPost2010Prop35
280
     0
102
RTVSPost2010PropOp35
 70
     1
102
RTVSPost2010Prop36
280
     0
102
RTVSPost2010PropOp36
 70
     1
102
RTVSPost2010Prop37
 90
       50
102
RTVSPost2010PropOp37
 70
     1
102
RTVSPost2010Prop38
140
0.0
102
RTVSPost2010PropOp38
 70
     1
102
RTVSPost2010Prop39
140
1.0
102
RTVSPost2010PropOp39
 70
     1
102
RTVSPost2010Prop40
 90
        0
102
RTVSPost2010PropOp40
 70
     1
102
RTVSPost2010Prop41ColorIndex
 90
       18
102
RTVSPost2010Prop41ColorRGB
 90
        0
102
RTVSPost2010PropOp41
 70
     1
102
RTVSPost2010Prop42
 90
       50
102
RTVSPost2010PropOp42
 70
     1
102
RTVSPost2010Prop43
 90
        3
102
RTVSPost2010PropOp43
 70
     1
102
RTVSPost2010Prop44ColorIndex
 90
        5
102
RTVSPost2010Prop44ColorRGB
 90
      255
102
RTVSPost2010PropOp44
 70
     1
102
RTVSPost2010Prop45
280
     0
102
RTVSPost2010PropOp45
 70
     1
102
RTVSPost2010Prop46
 90
       50
102
RTVSPost2010PropOp46
 70
     1
102
RTVSPost2010Prop47
 90
       50
102
RTVSPost2010PropOp47
 70
     1
102
RTVSPost2010Prop48
 90
       50
102
RTVSPost2010PropOp48
 70
     1
102
RTVSPost2010Prop49
280
     0
102
RTVSPost2010PropOp49
 70
     1
102
RTVSPost2010Prop50
 90
       50
102
RTVSPost2010PropOp50
 70
     1
102
RTVSPost2010Prop51ColorIndex
 90
      256
102
RTVSPost2010Prop51ColorRGB
 90
-16777216
102
RTVSPost2010PropOp51
 70
     0
102
RTVSPost2010Prop52
140
1.0
102
RTVSPost2010PropOp52
 70
     0
102
RTVSPost2010Prop53
 90
        2
102
RTVSPost2010PropOp53
 70
     1
102
RTVSPost2010Prop54
  1
strokes_ogs.tif
102
RTVSPost2010PropOp54
 70
     1
102
RTVSPost2010Prop55
280
     0
102
RTVSPost2010PropOp55
 70
     1
102
RTVSPost2010Prop56
140
1.0
102
RTVSPost2010PropOp56
 70
     1
102
RTVSPost2010Prop57
140
1.0
102
RTVSPost2010PropOp57
 70
     1
102
RTVSPropertyOp0
 70
     1
102
RTVSPropertyOp1
 70
     1
102
RTVSPropertyOp2
 70
     1
102
RTVSPropertyOp3
 70
     1
102
RTVSPropertyOp4
 70
     1
102
RTVSPropertyOp5
 70
     1
102
RTVSPropertyOp6
 70
     1
102
RTVSPropertyOp7
 70
     1
102
RTVSPropertyOp8
 70
     1
102
RTVSPropertyOp9
 70
     1
102
RTVSPropertyOp10
 70
     1
102
RTVSPropertyOp11
 70
     1
102
RTVSPropertyOp12
 70
     1
102
RTVSPropertyOp13
 70
     1
102
RTVSPropertyOp14
 70
     1
102
RTVSPropertyOp15
 70
     1
102
RTVSPropertyOp16
 70
     1
102
RTVSPropertyOp17
 70
     1
102
RTVSPropertyOp18
 70
     1
102
RTVSPropertyOp19
 70
     1
102
RTVSPropertyOp20
 70
     1
102
RTVSPropertyOp21
 70
     1
102
RTVSPropertyOp22
 70
     1
102
RTVSPropertyOp23
 70
     1
102
RTVSPropertyOp24
 70
     1
102
RTVSPropertyOp25
 70
     1
102
RTVSPropertyOp26
 70
     1
102
RTVSPropertyOp27
 70
     1
102
RTVSPropertyOp28
 70
     1
102
RTVSPropertyOp29
 70
     1
102
RTVSPropertyOp30
 70
     1
102
RTVSPropertyOp31
 70
     1
102
RTVSPropertyOp32
 70
     1
102
RTVSPropertyOp33
 70
     1
102
RTVSPropertyOp34
 70
     1
102
RTVSPropertyOp35
 70
     1
102
RTVSPropertyOp36
 70
     1
102
RTVSPropertyOp37
 70
     1
102
RTVSPropertyOp38
 70
     1
102
RTVSPropertyOp39
 70
     1
102
RTVSPropertyOp40
 70
     1
102
RTVSPropertyOp41
 70
     1
102
RTVSPropertyOp42
 70
     1
102
RTVSPropertyOp43
 70
     1
102
RTVSPropertyOp44
 70
     1
102
RTVSPropertyOp45
 70
     1
102
RTVSPropertyOp46
 70
     1
102
RTVSPropertyOp47
 70
     1
102
RTVSPropertyOp48
 70
     1
102
RTVSPropertyOp49
 70
     1
102
RTVSPropertyOp50
 70
     1
102
RTVSPropertyOp51
 70
     0
102
RTVSPropertyOp52
 70
     0
102
RTVSPropertyOp53
 70
     1
102
RTVSPropertyOp54
 70
     1
102
RTVSPropertyOp55
 70
     1
102
RTVSPropertyOp56
 70
     1
102
RTVSPropertyOp57
 70
     1
102
RTVSPropertyOp58
 70
     1
102
RTVSPropertyOp59
 70
     1
102
RTVSPropertyOp60
 70
     1
102
RTVSPropertyOp61
 70
     1
102
RTVSPropertyOp62
 70
     1
  0
XRECORD
  5
338F
102
{ACAD_REACTORS
330
338E
102
}
330
338E
100
AcDbXrecord
280
     1
102
RTVSPost2010Prop28
280
     0
102
RTVSPost2010PropOp28
 70
     1
102
RTVSPost2010Prop29
280
     1
102
RTVSPost2010PropOp29
 70
     1
102
RTVSPost2010Prop30
280
     1
102
RTVSPost2010PropOp30
 70
     1
102
RTVSPost2010Prop31
280
     0
102
RTVSPost2010PropOp31
 70
     1
102
RTVSPost2010Prop32
280
     0
102
RTVSPost2010PropOp32
 70
     1
102
RTVSPost2010Prop33
280
     0
102
RTVSPost2010PropOp33
 70
     1
102
RTVSPost2010Prop34
280
     0
102
RTVSPost2010PropOp34
 70
     1
102
RTVSPost2010Prop35
280
     0
102
RTVSPost2010PropOp35
 70
     1
102
RTVSPost2010Prop36
280
     0
102
RTVSPost2010PropOp36
 70
     1
102
RTVSPost2010Prop37
 90
       50
102
RTVSPost2010PropOp37
 70
     1
102
RTVSPost2010Prop38
140
0.0
102
RTVSPost2010PropOp38
 70
     1
102
RTVSPost2010Prop39
140
1.0
102
RTVSPost2010PropOp39
 70
     1
102
RTVSPost2010Prop40
 90
        0
102
RTVSPost2010PropOp40
 70
     1
102
RTVSPost2010Prop41ColorIndex
 90
       18
102
RTVSPost2010Prop41ColorRGB
 90
        0
102
RTVSPost2010PropOp41
 70
     1
102
RTVSPost2010Prop42
 90
       50
102
RTVSPost2010PropOp42
 70
     1
102
RTVSPost2010Prop43
 90
        3
102
RTVSPost2010PropOp43
 70
     1
102
RTVSPost2010Prop44ColorIndex
 90
        5
102
RTVSPost2010Prop44ColorRGB
 90
      255
102
RTVSPost2010PropOp44
 70
     1
102
RTVSPost2010Prop45
280
     0
102
RTVSPost2010PropOp45
 70
     1
102
RTVSPost2010Prop46
 90
       50
102
RTVSPost2010PropOp46
 70
     1
102
RTVSPost2010Prop47
 90
       50
102
RTVSPost2010PropOp47
 70
     1
102
RTVSPost2010Prop48
 90
       50
102
RTVSPost2010PropOp48
 70
     1
102
RTVSPost2010Prop49
280
     0
102
RTVSPost2010PropOp49
 70
     1
102
RTVSPost2010Prop50
 90
       50
102
RTVSPost2010PropOp50
 70
     1
102
RTVSPost2010Prop51ColorIndex
 90
      256
102
RTVSPost2010Prop51ColorRGB
 90
-16777216
102
RTVSPost2010PropOp51
 70
     0
102
RTVSPost2010Prop52
140
1.0
102
RTVSPost2010PropOp52
 70
     0
102
RTVSPost2010Prop53
 90
        2
102
RTVSPost2010PropOp53
 70
     1
102
RTVSPost2010Prop54
  1
strokes_ogs.tif
102
RTVSPost2010PropOp54
 70
     1
102
RTVSPost2010Prop55
280
     0
102
RTVSPost2010PropOp55
 70
     1
102
RTVSPost2010Prop56
140
1.0
102
RTVSPost2010PropOp56
 70
     1
102
RTVSPost2010Prop57
140
1.0
102
RTVSPost2010PropOp57
 70
     1
102
RTVSPropertyOp0
 70
     1
102
RTVSPropertyOp1
 70
     1
102
RTVSPropertyOp2
 70
     1
102
RTVSPropertyOp3
 70
     1
102
RTVSPropertyOp4
 70
     1
102
RTVSPropertyOp5
 70
     1
102
RTVSPropertyOp6
 70
     1
102
RTVSPropertyOp7
 70
     1
102
RTVSPropertyOp8
 70
     1
102
RTVSPropertyOp9
 70
     1
102
RTVSPropertyOp10
 70
     1
102
RTVSPropertyOp11
 70
     1
102
RTVSPropertyOp12
 70
     1
102
RTVSPropertyOp13
 70
     1
102
RTVSPropertyOp14
 70
     1
102
RTVSPropertyOp15
 70
     1
102
RTVSPropertyOp16
 70
     1
102
RTVSPropertyOp17
 70
     1
102
RTVSPropertyOp18
 70
     1
102
RTVSPropertyOp19
 70
     1
102
RTVSPropertyOp20
 70
     1
102
RTVSPropertyOp21
 70
     1
102
RTVSPropertyOp22
 70
     1
102
RTVSPropertyOp23
 70
     1
102
RTVSPropertyOp24
 70
     1
102
RTVSPropertyOp25
 70
     1
102
RTVSPropertyOp26
 70
     1
102
RTVSPropertyOp27
 70
     1
102
RTVSPropertyOp28
 70
     1
102
RTVSPropertyOp29
 70
     1
102
RTVSPropertyOp30
 70
     1
102
RTVSPropertyOp31
 70
     1
102
RTVSPropertyOp32
 70
     1
102
RTVSPropertyOp33
 70
     1
102
RTVSPropertyOp34
 70
     1
102
RTVSPropertyOp35
 70
     1
102
RTVSPropertyOp36
 70
     1
102
RTVSPropertyOp37
 70
     1
102
RTVSPropertyOp38
 70
     1
102
RTVSPropertyOp39
 70
     1
102
RTVSPropertyOp40
 70
     1
102
RTVSPropertyOp41
 70
     1
102
RTVSPropertyOp42
 70
     1
102
RTVSPropertyOp43
 70
     1
102
RTVSPropertyOp44
 70
     1
102
RTVSPropertyOp45
 70
     1
102
RTVSPropertyOp46
 70
     1
102
RTVSPropertyOp47
 70
     1
102
RTVSPropertyOp48
 70
     1
102
RTVSPropertyOp49
 70
     1
102
RTVSPropertyOp50
 70
     1
102
RTVSPropertyOp51
 70
     0
102
RTVSPropertyOp52
 70
     0
102
RTVSPropertyOp53
 70
     1
102
RTVSPropertyOp54
 70
     1
102
RTVSPropertyOp55
 70
     1
102
RTVSPropertyOp56
 70
     1
102
RTVSPropertyOp57
 70
     1
102
RTVSPropertyOp58
 70
     1
102
RTVSPropertyOp59
 70
     1
102
RTVSPropertyOp60
 70
     1
102
RTVSPropertyOp61
 70
     1
102
RTVSPropertyOp62
 70
     1
  0
XRECORD
  5
339D
102
{ACAD_REACTORS
330
339C
102
}
330
339C
100
AcDbXrecord
280
     1
102
RTVSPost2010Prop28
280
     0
102
RTVSPost2010PropOp28
 70
     1
102
RTVSPost2010Prop29
280
     1
102
RTVSPost2010PropOp29
 70
     1
102
RTVSPost2010Prop30
280
     1
102
RTVSPost2010PropOp30
 70
     1
102
RTVSPost2010Prop31
280
     0
102
RTVSPost2010PropOp31
 70
     1
102
RTVSPost2010Prop32
280
     0
102
RTVSPost2010PropOp32
 70
     1
102
RTVSPost2010Prop33
280
     0
102
RTVSPost2010PropOp33
 70
     1
102
RTVSPost2010Prop34
280
     0
102
RTVSPost2010PropOp34
 70
     1
102
RTVSPost2010Prop35
280
     0
102
RTVSPost2010PropOp35
 70
     1
102
RTVSPost2010Prop36
280
     0
102
RTVSPost2010PropOp36
 70
     1
102
RTVSPost2010Prop37
 90
       50
102
RTVSPost2010PropOp37
 70
     1
102
RTVSPost2010Prop38
140
0.0
102
RTVSPost2010PropOp38
 70
     1
102
RTVSPost2010Prop39
140
1.0
102
RTVSPost2010PropOp39
 70
     1
102
RTVSPost2010Prop40
 90
        0
102
RTVSPost2010PropOp40
 70
     1
102
RTVSPost2010Prop41ColorIndex
 90
       18
102
RTVSPost2010Prop41ColorRGB
 90
        0
102
RTVSPost2010PropOp41
 70
     1
102
RTVSPost2010Prop42
 90
       50
102
RTVSPost2010PropOp42
 70
     1
102
RTVSPost2010Prop43
 90
        3
102
RTVSPost2010PropOp43
 70
     1
102
RTVSPost2010Prop44ColorIndex
 90
        5
102
RTVSPost2010Prop44ColorRGB
 90
      255
102
RTVSPost2010PropOp44
 70
     1
102
RTVSPost2010Prop45
280
     0
102
RTVSPost2010PropOp45
 70
     1
102
RTVSPost2010Prop46
 90
       50
102
RTVSPost2010PropOp46
 70
     1
102
RTVSPost2010Prop47
 90
       50
102
RTVSPost2010PropOp47
 70
     1
102
RTVSPost2010Prop48
 90
       50
102
RTVSPost2010PropOp48
 70
     1
102
RTVSPost2010Prop49
280
     0
102
RTVSPost2010PropOp49
 70
     1
102
RTVSPost2010Prop50
 90
       50
102
RTVSPost2010PropOp50
 70
     1
102
RTVSPost2010Prop51ColorIndex
 90
      256
102
RTVSPost2010Prop51ColorRGB
 90
-16777216
102
RTVSPost2010PropOp51
 70
     0
102
RTVSPost2010Prop52
140
1.0
102
RTVSPost2010PropOp52
 70
     0
102
RTVSPost2010Prop53
 90
        2
102
RTVSPost2010PropOp53
 70
     1
102
RTVSPost2010Prop54
  1
strokes_ogs.tif
102
RTVSPost2010PropOp54
 70
     1
102
RTVSPost2010Prop55
280
     0
102
RTVSPost2010PropOp55
 70
     1
102
RTVSPost2010Prop56
140
1.0
102
RTVSPost2010PropOp56
 70
     1
102
RTVSPost2010Prop57
140
1.0
102
RTVSPost2010PropOp57
 70
     1
102
RTVSPropertyOp0
 70
     1
102
RTVSPropertyOp1
 70
     1
102
RTVSPropertyOp2
 70
     1
102
RTVSPropertyOp3
 70
     1
102
RTVSPropertyOp4
 70
     1
102
RTVSPropertyOp5
 70
     1
102
RTVSPropertyOp6
 70
     1
102
RTVSPropertyOp7
 70
     1
102
RTVSPropertyOp8
 70
     1
102
RTVSPropertyOp9
 70
     1
102
RTVSPropertyOp10
 70
     1
102
RTVSPropertyOp11
 70
     1
102
RTVSPropertyOp12
 70
     1
102
RTVSPropertyOp13
 70
     1
102
RTVSPropertyOp14
 70
     1
102
RTVSPropertyOp15
 70
     1
102
RTVSPropertyOp16
 70
     1
102
RTVSPropertyOp17
 70
     1
102
RTVSPropertyOp18
 70
     1
102
RTVSPropertyOp19
 70
     1
102
RTVSPropertyOp20
 70
     1
102
RTVSPropertyOp21
 70
     1
102
RTVSPropertyOp22
 70
     1
102
RTVSPropertyOp23
 70
     1
102
RTVSPropertyOp24
 70
     1
102
RTVSPropertyOp25
 70
     1
102
RTVSPropertyOp26
 70
     1
102
RTVSPropertyOp27
 70
     1
102
RTVSPropertyOp28
 70
     1
102
RTVSPropertyOp29
 70
     1
102
RTVSPropertyOp30
 70
     1
102
RTVSPropertyOp31
 70
     1
102
RTVSPropertyOp32
 70
     1
102
RTVSPropertyOp33
 70
     1
102
RTVSPropertyOp34
 70
     1
102
RTVSPropertyOp35
 70
     1
102
RTVSPropertyOp36
 70
     1
102
RTVSPropertyOp37
 70
     1
102
RTVSPropertyOp38
 70
     1
102
RTVSPropertyOp39
 70
     1
102
RTVSPropertyOp40
 70
     1
102
RTVSPropertyOp41
 70
     1
102
RTVSPropertyOp42
 70
     1
102
RTVSPropertyOp43
 70
     1
102
RTVSPropertyOp44
 70
     1
102
RTVSPropertyOp45
 70
     1
102
RTVSPropertyOp46
 70
     1
102
RTVSPropertyOp47
 70
     1
102
RTVSPropertyOp48
 70
     1
102
RTVSPropertyOp49
 70
     1
102
RTVSPropertyOp50
 70
     1
102
RTVSPropertyOp51
 70
     0
102
RTVSPropertyOp52
 70
     0
102
RTVSPropertyOp53
 70
     1
102
RTVSPropertyOp54
 70
     1
102
RTVSPropertyOp55
 70
     1
102
RTVSPropertyOp56
 70
     1
102
RTVSPropertyOp57
 70
     1
102
RTVSPropertyOp58
 70
     1
102
RTVSPropertyOp59
 70
     1
102
RTVSPropertyOp60
 70
     1
102
RTVSPropertyOp61
 70
     1
102
RTVSPropertyOp62
 70
     1
  0
XRECORD
  5
33A5
102
{ACAD_REACTORS
330
33A4
102
}
330
33A4
100
AcDbXrecord
280
     1
102
RTVSPost2010Prop28
280
     0
102
RTVSPost2010PropOp28
 70
     1
102
RTVSPost2010Prop29
280
     1
102
RTVSPost2010PropOp29
 70
     1
102
RTVSPost2010Prop30
280
     1
102
RTVSPost2010PropOp30
 70
     1
102
RTVSPost2010Prop31
280
     0
102
RTVSPost2010PropOp31
 70
     1
102
RTVSPost2010Prop32
280
     0
102
RTVSPost2010PropOp32
 70
     1
102
RTVSPost2010Prop33
280
     0
102
RTVSPost2010PropOp33
 70
     1
102
RTVSPost2010Prop34
280
     0
102
RTVSPost2010PropOp34
 70
     1
102
RTVSPost2010Prop35
280
     0
102
RTVSPost2010PropOp35
 70
     1
102
RTVSPost2010Prop36
280
     0
102
RTVSPost2010PropOp36
 70
     1
102
RTVSPost2010Prop37
 90
       50
102
RTVSPost2010PropOp37
 70
     1
102
RTVSPost2010Prop38
140
0.0
102
RTVSPost2010PropOp38
 70
     1
102
RTVSPost2010Prop39
140
1.0
102
RTVSPost2010PropOp39
 70
     1
102
RTVSPost2010Prop40
 90
        0
102
RTVSPost2010PropOp40
 70
     1
102
RTVSPost2010Prop41ColorIndex
 90
       18
102
RTVSPost2010Prop41ColorRGB
 90
        0
102
RTVSPost2010PropOp41
 70
     1
102
RTVSPost2010Prop42
 90
       50
102
RTVSPost2010PropOp42
 70
     1
102
RTVSPost2010Prop43
 90
        3
102
RTVSPost2010PropOp43
 70
     1
102
RTVSPost2010Prop44ColorIndex
 90
        5
102
RTVSPost2010Prop44ColorRGB
 90
      255
102
RTVSPost2010PropOp44
 70
     1
102
RTVSPost2010Prop45
280
     0
102
RTVSPost2010PropOp45
 70
     1
102
RTVSPost2010Prop46
 90
       50
102
RTVSPost2010PropOp46
 70
     1
102
RTVSPost2010Prop47
 90
       50
102
RTVSPost2010PropOp47
 70
     1
102
RTVSPost2010Prop48
 90
       50
102
RTVSPost2010PropOp48
 70
     1
102
RTVSPost2010Prop49
280
     0
102
RTVSPost2010PropOp49
 70
     1
102
RTVSPost2010Prop50
 90
       50
102
RTVSPost2010PropOp50
 70
     1
102
RTVSPost2010Prop51ColorIndex
 90
      256
102
RTVSPost2010Prop51ColorRGB
 90
-16777216
102
RTVSPost2010PropOp51
 70
     0
102
RTVSPost2010Prop52
140
1.0
102
RTVSPost2010PropOp52
 70
     0
102
RTVSPost2010Prop53
 90
        2
102
RTVSPost2010PropOp53
 70
     1
102
RTVSPost2010Prop54
  1
strokes_ogs.tif
102
RTVSPost2010PropOp54
 70
     1
102
RTVSPost2010Prop55
280
     0
102
RTVSPost2010PropOp55
 70
     1
102
RTVSPost2010Prop56
140
1.0
102
RTVSPost2010PropOp56
 70
     1
102
RTVSPost2010Prop57
140
1.0
102
RTVSPost2010PropOp57
 70
     1
102
RTVSPropertyOp0
 70
     1
102
RTVSPropertyOp1
 70
     1
102
RTVSPropertyOp2
 70
     1
102
RTVSPropertyOp3
 70
     1
102
RTVSPropertyOp4
 70
     1
102
RTVSPropertyOp5
 70
     1
102
RTVSPropertyOp6
 70
     1
102
RTVSPropertyOp7
 70
     1
102
RTVSPropertyOp8
 70
     1
102
RTVSPropertyOp9
 70
     1
102
RTVSPropertyOp10
 70
     1
102
RTVSPropertyOp11
 70
     1
102
RTVSPropertyOp12
 70
     1
102
RTVSPropertyOp13
 70
     1
102
RTVSPropertyOp14
 70
     1
102
RTVSPropertyOp15
 70
     1
102
RTVSPropertyOp16
 70
     1
102
RTVSPropertyOp17
 70
     1
102
RTVSPropertyOp18
 70
     1
102
RTVSPropertyOp19
 70
     1
102
RTVSPropertyOp20
 70
     1
102
RTVSPropertyOp21
 70
     1
102
RTVSPropertyOp22
 70
     1
102
RTVSPropertyOp23
 70
     1
102
RTVSPropertyOp24
 70
     1
102
RTVSPropertyOp25
 70
     1
102
RTVSPropertyOp26
 70
     1
102
RTVSPropertyOp27
 70
     1
102
RTVSPropertyOp28
 70
     1
102
RTVSPropertyOp29
 70
     1
102
RTVSPropertyOp30
 70
     1
102
RTVSPropertyOp31
 70
     1
102
RTVSPropertyOp32
 70
     1
102
RTVSPropertyOp33
 70
     1
102
RTVSPropertyOp34
 70
     1
102
RTVSPropertyOp35
 70
     1
102
RTVSPropertyOp36
 70
     1
102
RTVSPropertyOp37
 70
     1
102
RTVSPropertyOp38
 70
     1
102
RTVSPropertyOp39
 70
     1
102
RTVSPropertyOp40
 70
     1
102
RTVSPropertyOp41
 70
     1
102
RTVSPropertyOp42
 70
     1
102
RTVSPropertyOp43
 70
     1
102
RTVSPropertyOp44
 70
     1
102
RTVSPropertyOp45
 70
     1
102
RTVSPropertyOp46
 70
     1
102
RTVSPropertyOp47
 70
     1
102
RTVSPropertyOp48
 70
     1
102
RTVSPropertyOp49
 70
     1
102
RTVSPropertyOp50
 70
     1
102
RTVSPropertyOp51
 70
     0
102
RTVSPropertyOp52
 70
     0
102
RTVSPropertyOp53
 70
     1
102
RTVSPropertyOp54
 70
     1
102
RTVSPropertyOp55
 70
     1
102
RTVSPropertyOp56
 70
     1
102
RTVSPropertyOp57
 70
     1
102
RTVSPropertyOp58
 70
     1
102
RTVSPropertyOp59
 70
     1
102
RTVSPropertyOp60
 70
     1
102
RTVSPropertyOp61
 70
     1
102
RTVSPropertyOp62
 70
     1
  0
XRECORD
  5
3397
102
{ACAD_REACTORS
330
3396
102
}
330
3396
100
AcDbXrecord
280
     1
102
RTVSPost2010Prop28
280
     0
102
RTVSPost2010PropOp28
 70
     1
102
RTVSPost2010Prop29
280
     1
102
RTVSPost2010PropOp29
 70
     1
102
RTVSPost2010Prop30
280
     1
102
RTVSPost2010PropOp30
 70
     1
102
RTVSPost2010Prop31
280
     0
102
RTVSPost2010PropOp31
 70
     1
102
RTVSPost2010Prop32
280
     0
102
RTVSPost2010PropOp32
 70
     1
102
RTVSPost2010Prop33
280
     0
102
RTVSPost2010PropOp33
 70
     1
102
RTVSPost2010Prop34
280
     0
102
RTVSPost2010PropOp34
 70
     1
102
RTVSPost2010Prop35
280
     0
102
RTVSPost2010PropOp35
 70
     1
102
RTVSPost2010Prop36
280
     0
102
RTVSPost2010PropOp36
 70
     1
102
RTVSPost2010Prop37
 90
       50
102
RTVSPost2010PropOp37
 70
     1
102
RTVSPost2010Prop38
140
0.0
102
RTVSPost2010PropOp38
 70
     1
102
RTVSPost2010Prop39
140
1.0
102
RTVSPost2010PropOp39
 70
     1
102
RTVSPost2010Prop40
 90
        0
102
RTVSPost2010PropOp40
 70
     1
102
RTVSPost2010Prop41ColorIndex
 90
       18
102
RTVSPost2010Prop41ColorRGB
 90
        0
102
RTVSPost2010PropOp41
 70
     1
102
RTVSPost2010Prop42
 90
       50
102
RTVSPost2010PropOp42
 70
     1
102
RTVSPost2010Prop43
 90
        3
102
RTVSPost2010PropOp43
 70
     1
102
RTVSPost2010Prop44ColorIndex
 90
        5
102
RTVSPost2010Prop44ColorRGB
 90
      255
102
RTVSPost2010PropOp44
 70
     1
102
RTVSPost2010Prop45
280
     0
102
RTVSPost2010PropOp45
 70
     1
102
RTVSPost2010Prop46
 90
       50
102
RTVSPost2010PropOp46
 70
     1
102
RTVSPost2010Prop47
 90
       50
102
RTVSPost2010PropOp47
 70
     1
102
RTVSPost2010Prop48
 90
       50
102
RTVSPost2010PropOp48
 70
     1
102
RTVSPost2010Prop49
280
     0
102
RTVSPost2010PropOp49
 70
     1
102
RTVSPost2010Prop50
 90
       50
102
RTVSPost2010PropOp50
 70
     1
102
RTVSPost2010Prop51ColorIndex
 90
      256
102
RTVSPost2010Prop51ColorRGB
 90
-16777216
102
RTVSPost2010PropOp51
 70
     0
102
RTVSPost2010Prop52
140
1.0
102
RTVSPost2010PropOp52
 70
     0
102
RTVSPost2010Prop53
 90
        2
102
RTVSPost2010PropOp53
 70
     1
102
RTVSPost2010Prop54
  1
strokes_ogs.tif
102
RTVSPost2010PropOp54
 70
     1
102
RTVSPost2010Prop55
280
     0
102
RTVSPost2010PropOp55
 70
     1
102
RTVSPost2010Prop56
140
1.0
102
RTVSPost2010PropOp56
 70
     1
102
RTVSPost2010Prop57
140
1.0
102
RTVSPost2010PropOp57
 70
     1
102
RTVSPropertyOp0
 70
     1
102
RTVSPropertyOp1
 70
     1
102
RTVSPropertyOp2
 70
     1
102
RTVSPropertyOp3
 70
     1
102
RTVSPropertyOp4
 70
     1
102
RTVSPropertyOp5
 70
     1
102
RTVSPropertyOp6
 70
     1
102
RTVSPropertyOp7
 70
     1
102
RTVSPropertyOp8
 70
     1
102
RTVSPropertyOp9
 70
     1
102
RTVSPropertyOp10
 70
     1
102
RTVSPropertyOp11
 70
     1
102
RTVSPropertyOp12
 70
     1
102
RTVSPropertyOp13
 70
     1
102
RTVSPropertyOp14
 70
     1
102
RTVSPropertyOp15
 70
     1
102
RTVSPropertyOp16
 70
     1
102
RTVSPropertyOp17
 70
     1
102
RTVSPropertyOp18
 70
     1
102
RTVSPropertyOp19
 70
     1
102
RTVSPropertyOp20
 70
     1
102
RTVSPropertyOp21
 70
     1
102
RTVSPropertyOp22
 70
     1
102
RTVSPropertyOp23
 70
     1
102
RTVSPropertyOp24
 70
     1
102
RTVSPropertyOp25
 70
     1
102
RTVSPropertyOp26
 70
     1
102
RTVSPropertyOp27
 70
     1
102
RTVSPropertyOp28
 70
     1
102
RTVSPropertyOp29
 70
     1
102
RTVSPropertyOp30
 70
     1
102
RTVSPropertyOp31
 70
     1
102
RTVSPropertyOp32
 70
     1
102
RTVSPropertyOp33
 70
     1
102
RTVSPropertyOp34
 70
     1
102
RTVSPropertyOp35
 70
     1
102
RTVSPropertyOp36
 70
     1
102
RTVSPropertyOp37
 70
     1
102
RTVSPropertyOp38
 70
     1
102
RTVSPropertyOp39
 70
     1
102
RTVSPropertyOp40
 70
     1
102
RTVSPropertyOp41
 70
     1
102
RTVSPropertyOp42
 70
     1
102
RTVSPropertyOp43
 70
     1
102
RTVSPropertyOp44
 70
     1
102
RTVSPropertyOp45
 70
     1
102
RTVSPropertyOp46
 70
     1
102
RTVSPropertyOp47
 70
     1
102
RTVSPropertyOp48
 70
     1
102
RTVSPropertyOp49
 70
     1
102
RTVSPropertyOp50
 70
     1
102
RTVSPropertyOp51
 70
     0
102
RTVSPropertyOp52
 70
     0
102
RTVSPropertyOp53
 70
     1
102
RTVSPropertyOp54
 70
     1
102
RTVSPropertyOp55
 70
     1
102
RTVSPropertyOp56
 70
     1
102
RTVSPropertyOp57
 70
     1
102
RTVSPropertyOp58
 70
     1
102
RTVSPropertyOp59
 70
     1
102
RTVSPropertyOp60
 70
     1
102
RTVSPropertyOp61
 70
     1
102
RTVSPropertyOp62
 70
     1
  0
XRECORD
  5
339B
102
{ACAD_REACTORS
330
339A
102
}
330
339A
100
AcDbXrecord
280
     1
102
RTVSPost2010Prop28
280
     0
102
RTVSPost2010PropOp28
 70
     1
102
RTVSPost2010Prop29
280
     1
102
RTVSPost2010PropOp29
 70
     1
102
RTVSPost2010Prop30
280
     1
102
RTVSPost2010PropOp30
 70
     1
102
RTVSPost2010Prop31
280
     0
102
RTVSPost2010PropOp31
 70
     1
102
RTVSPost2010Prop32
280
     0
102
RTVSPost2010PropOp32
 70
     1
102
RTVSPost2010Prop33
280
     0
102
RTVSPost2010PropOp33
 70
     1
102
RTVSPost2010Prop34
280
     0
102
RTVSPost2010PropOp34
 70
     1
102
RTVSPost2010Prop35
280
     0
102
RTVSPost2010PropOp35
 70
     1
102
RTVSPost2010Prop36
280
     0
102
RTVSPost2010PropOp36
 70
     1
102
RTVSPost2010Prop37
 90
       50
102
RTVSPost2010PropOp37
 70
     1
102
RTVSPost2010Prop38
140
0.0
102
RTVSPost2010PropOp38
 70
     1
102
RTVSPost2010Prop39
140
1.0
102
RTVSPost2010PropOp39
 70
     1
102
RTVSPost2010Prop40
 90
        0
102
RTVSPost2010PropOp40
 70
     1
102
RTVSPost2010Prop41ColorIndex
 90
       18
102
RTVSPost2010Prop41ColorRGB
 90
        0
102
RTVSPost2010PropOp41
 70
     1
102
RTVSPost2010Prop42
 90
       50
102
RTVSPost2010PropOp42
 70
     1
102
RTVSPost2010Prop43
 90
        3
102
RTVSPost2010PropOp43
 70
     1
102
RTVSPost2010Prop44ColorIndex
 90
        5
102
RTVSPost2010Prop44ColorRGB
 90
      255
102
RTVSPost2010PropOp44
 70
     1
102
RTVSPost2010Prop45
280
     0
102
RTVSPost2010PropOp45
 70
     1
102
RTVSPost2010Prop46
 90
       50
102
RTVSPost2010PropOp46
 70
     1
102
RTVSPost2010Prop47
 90
       50
102
RTVSPost2010PropOp47
 70
     1
102
RTVSPost2010Prop48
 90
       50
102
RTVSPost2010PropOp48
 70
     1
102
RTVSPost2010Prop49
280
     0
102
RTVSPost2010PropOp49
 70
     1
102
RTVSPost2010Prop50
 90
       50
102
RTVSPost2010PropOp50
 70
     1
102
RTVSPost2010Prop51ColorIndex
 90
      256
102
RTVSPost2010Prop51ColorRGB
 90
-16777216
102
RTVSPost2010PropOp51
 70
     0
102
RTVSPost2010Prop52
140
1.0
102
RTVSPost2010PropOp52
 70
     0
102
RTVSPost2010Prop53
 90
        2
102
RTVSPost2010PropOp53
 70
     1
102
RTVSPost2010Prop54
  1
strokes_ogs.tif
102
RTVSPost2010PropOp54
 70
     1
102
RTVSPost2010Prop55
280
     0
102
RTVSPost2010PropOp55
 70
     1
102
RTVSPost2010Prop56
140
1.0
102
RTVSPost2010PropOp56
 70
     1
102
RTVSPost2010Prop57
140
1.0
102
RTVSPost2010PropOp57
 70
     1
102
RTVSPropertyOp0
 70
     1
102
RTVSPropertyOp1
 70
     1
102
RTVSPropertyOp2
 70
     1
102
RTVSPropertyOp3
 70
     1
102
RTVSPropertyOp4
 70
     1
102
RTVSPropertyOp5
 70
     1
102
RTVSPropertyOp6
 70
     1
102
RTVSPropertyOp7
 70
     1
102
RTVSPropertyOp8
 70
     1
102
RTVSPropertyOp9
 70
     1
102
RTVSPropertyOp10
 70
     1
102
RTVSPropertyOp11
 70
     1
102
RTVSPropertyOp12
 70
     1
102
RTVSPropertyOp13
 70
     1
102
RTVSPropertyOp14
 70
     1
102
RTVSPropertyOp15
 70
     1
102
RTVSPropertyOp16
 70
     1
102
RTVSPropertyOp17
 70
     1
102
RTVSPropertyOp18
 70
     1
102
RTVSPropertyOp19
 70
     1
102
RTVSPropertyOp20
 70
     1
102
RTVSPropertyOp21
 70
     1
102
RTVSPropertyOp22
 70
     1
102
RTVSPropertyOp23
 70
     1
102
RTVSPropertyOp24
 70
     1
102
RTVSPropertyOp25
 70
     1
102
RTVSPropertyOp26
 70
     1
102
RTVSPropertyOp27
 70
     1
102
RTVSPropertyOp28
 70
     1
102
RTVSPropertyOp29
 70
     1
102
RTVSPropertyOp30
 70
     1
102
RTVSPropertyOp31
 70
     1
102
RTVSPropertyOp32
 70
     1
102
RTVSPropertyOp33
 70
     1
102
RTVSPropertyOp34
 70
     1
102
RTVSPropertyOp35
 70
     1
102
RTVSPropertyOp36
 70
     1
102
RTVSPropertyOp37
 70
     1
102
RTVSPropertyOp38
 70
     1
102
RTVSPropertyOp39
 70
     1
102
RTVSPropertyOp40
 70
     1
102
RTVSPropertyOp41
 70
     1
102
RTVSPropertyOp42
 70
     1
102
RTVSPropertyOp43
 70
     1
102
RTVSPropertyOp44
 70
     1
102
RTVSPropertyOp45
 70
     1
102
RTVSPropertyOp46
 70
     1
102
RTVSPropertyOp47
 70
     1
102
RTVSPropertyOp48
 70
     1
102
RTVSPropertyOp49
 70
     1
102
RTVSPropertyOp50
 70
     1
102
RTVSPropertyOp51
 70
     0
102
RTVSPropertyOp52
 70
     0
102
RTVSPropertyOp53
 70
     1
102
RTVSPropertyOp54
 70
     1
102
RTVSPropertyOp55
 70
     1
102
RTVSPropertyOp56
 70
     1
102
RTVSPropertyOp57
 70
     1
102
RTVSPropertyOp58
 70
     1
102
RTVSPropertyOp59
 70
     1
102
RTVSPropertyOp60
 70
     1
102
RTVSPropertyOp61
 70
     1
102
RTVSPropertyOp62
 70
     1
  0
XRECORD
  5
33B5
102
{ACAD_REACTORS
330
33B4
102
}
330
33B4
100
AcDbXrecord
280
     1
102
RTVSPost2010Prop28
280
     0
102
RTVSPost2010PropOp28
 70
     1
102
RTVSPost2010Prop29
280
     1
102
RTVSPost2010PropOp29
 70
     1
102
RTVSPost2010Prop30
280
     1
102
RTVSPost2010PropOp30
 70
     1
102
RTVSPost2010Prop31
280
     0
102
RTVSPost2010PropOp31
 70
     1
102
RTVSPost2010Prop32
280
     0
102
RTVSPost2010PropOp32
 70
     1
102
RTVSPost2010Prop33
280
     0
102
RTVSPost2010PropOp33
 70
     1
102
RTVSPost2010Prop34
280
     0
102
RTVSPost2010PropOp34
 70
     1
102
RTVSPost2010Prop35
280
     0
102
RTVSPost2010PropOp35
 70
     1
102
RTVSPost2010Prop36
280
     0
102
RTVSPost2010PropOp36
 70
     1
102
RTVSPost2010Prop37
 90
       50
102
RTVSPost2010PropOp37
 70
     0
102
RTVSPost2010Prop38
140
0.0
102
RTVSPost2010PropOp38
 70
     0
102
RTVSPost2010Prop39
140
1.0
102
RTVSPost2010PropOp39
 70
     0
102
RTVSPost2010Prop40
 90
        0
102
RTVSPost2010PropOp40
 70
     0
102
RTVSPost2010Prop41ColorIndex
 90
       18
102
RTVSPost2010Prop41ColorRGB
 90
        0
102
RTVSPost2010PropOp41
 70
     0
102
RTVSPost2010Prop42
 90
       50
102
RTVSPost2010PropOp42
 70
     0
102
RTVSPost2010Prop43
 90
        3
102
RTVSPost2010PropOp43
 70
     0
102
RTVSPost2010Prop44ColorIndex
 90
        5
102
RTVSPost2010Prop44ColorRGB
 90
      255
102
RTVSPost2010PropOp44
 70
     0
102
RTVSPost2010Prop45
280
     0
102
RTVSPost2010PropOp45
 70
     1
102
RTVSPost2010Prop46
 90
       50
102
RTVSPost2010PropOp46
 70
     0
102
RTVSPost2010Prop47
 90
       50
102
RTVSPost2010PropOp47
 70
     0
102
RTVSPost2010Prop48
 90
       50
102
RTVSPost2010PropOp48
 70
     0
102
RTVSPost2010Prop49
280
     0
102
RTVSPost2010PropOp49
 70
     1
102
RTVSPost2010Prop50
 90
       50
102
RTVSPost2010PropOp50
 70
     0
102
RTVSPost2010Prop51ColorIndex
 90
      256
102
RTVSPost2010Prop51ColorRGB
 90
-16777216
102
RTVSPost2010PropOp51
 70
     0
102
RTVSPost2010Prop52
140
1.0
102
RTVSPost2010PropOp52
 70
     0
102
RTVSPost2010Prop53
 90
        2
102
RTVSPost2010PropOp53
 70
     0
102
RTVSPost2010Prop54
  1
strokes_ogs.tif
102
RTVSPost2010PropOp54
 70
     0
102
RTVSPost2010Prop55
280
     0
102
RTVSPost2010PropOp55
 70
     1
102
RTVSPost2010Prop56
140
1.0
102
RTVSPost2010PropOp56
 70
     0
102
RTVSPost2010Prop57
140
1.0
102
RTVSPost2010PropOp57
 70
     0
102
RTVSPropertyOp0
 70
     0
102
RTVSPropertyOp1
 70
     0
102
RTVSPropertyOp2
 70
     0
102
RTVSPropertyOp3
 70
     0
102
RTVSPropertyOp4
 70
     0
102
RTVSPropertyOp5
 70
     0
102
RTVSPropertyOp6
 70
     0
102
RTVSPropertyOp7
 70
     0
102
RTVSPropertyOp8
 70
     0
102
RTVSPropertyOp9
 70
     0
102
RTVSPropertyOp10
 70
     0
102
RTVSPropertyOp11
 70
     0
102
RTVSPropertyOp12
 70
     0
102
RTVSPropertyOp13
 70
     0
102
RTVSPropertyOp14
 70
     2
102
RTVSPropertyOp15
 70
     0
102
RTVSPropertyOp16
 70
     0
102
RTVSPropertyOp17
 70
     0
102
RTVSPropertyOp18
 70
     0
102
RTVSPropertyOp19
 70
     0
102
RTVSPropertyOp20
 70
     0
102
RTVSPropertyOp21
 70
     0
102
RTVSPropertyOp22
 70
     0
102
RTVSPropertyOp23
 70
     0
102
RTVSPropertyOp24
 70
     0
102
RTVSPropertyOp25
 70
     0
102
RTVSPropertyOp26
 70
     0
102
RTVSPropertyOp27
 70
     0
102
RTVSPropertyOp28
 70
     1
102
RTVSPropertyOp29
 70
     1
102
RTVSPropertyOp30
 70
     1
102
RTVSPropertyOp31
 70
     1
102
RTVSPropertyOp32
 70
     1
102
RTVSPropertyOp33
 70
     1
102
RTVSPropertyOp34
 70
     1
102
RTVSPropertyOp35
 70
     1
102
RTVSPropertyOp36
 70
     1
102
RTVSPropertyOp37
 70
     0
102
RTVSPropertyOp38
 70
     0
102
RTVSPropertyOp39
 70
     0
102
RTVSPropertyOp40
 70
     0
102
RTVSPropertyOp41
 70
     0
102
RTVSPropertyOp42
 70
     0
102
RTVSPropertyOp43
 70
     0
102
RTVSPropertyOp44
 70
     0
102
RTVSPropertyOp45
 70
     1
102
RTVSPropertyOp46
 70
     0
102
RTVSPropertyOp47
 70
     0
102
RTVSPropertyOp48
 70
     0
102
RTVSPropertyOp49
 70
     1
102
RTVSPropertyOp50
 70
     0
102
RTVSPropertyOp51
 70
     0
102
RTVSPropertyOp52
 70
     0
102
RTVSPropertyOp53
 70
     0
102
RTVSPropertyOp54
 70
     0
102
RTVSPropertyOp55
 70
     1
102
RTVSPropertyOp56
 70
     0
102
RTVSPropertyOp57
 70
     0
102
RTVSPropertyOp58
 70
     0
102
RTVSPropertyOp59
 70
     0
102
RTVSPropertyOp60
 70
     0
102
RTVSPropertyOp61
 70
     0
102
RTVSPropertyOp62
 70
     0
  0
XRECORD
  5
33A3
102
{ACAD_REACTORS
330
33A2
102
}
330
33A2
100
AcDbXrecord
280
     1
102
RTVSPost2010Prop28
280
     0
102
RTVSPost2010PropOp28
 70
     1
102
RTVSPost2010Prop29
280
     1
102
RTVSPost2010PropOp29
 70
     1
102
RTVSPost2010Prop30
280
     1
102
RTVSPost2010PropOp30
 70
     1
102
RTVSPost2010Prop31
280
     0
102
RTVSPost2010PropOp31
 70
     1
102
RTVSPost2010Prop32
280
     0
102
RTVSPost2010PropOp32
 70
     1
102
RTVSPost2010Prop33
280
     0
102
RTVSPost2010PropOp33
 70
     1
102
RTVSPost2010Prop34
280
     0
102
RTVSPost2010PropOp34
 70
     1
102
RTVSPost2010Prop35
280
     0
102
RTVSPost2010PropOp35
 70
     1
102
RTVSPost2010Prop36
280
     0
102
RTVSPost2010PropOp36
 70
     1
102
RTVSPost2010Prop37
 90
       50
102
RTVSPost2010PropOp37
 70
     1
102
RTVSPost2010Prop38
140
0.0
102
RTVSPost2010PropOp38
 70
     1
102
RTVSPost2010Prop39
140
1.0
102
RTVSPost2010PropOp39
 70
     1
102
RTVSPost2010Prop40
 90
        0
102
RTVSPost2010PropOp40
 70
     1
102
RTVSPost2010Prop41ColorIndex
 90
       18
102
RTVSPost2010Prop41ColorRGB
 90
        0
102
RTVSPost2010PropOp41
 70
     1
102
RTVSPost2010Prop42
 90
       50
102
RTVSPost2010PropOp42
 70
     1
102
RTVSPost2010Prop43
 90
        3
102
RTVSPost2010PropOp43
 70
     1
102
RTVSPost2010Prop44ColorIndex
 90
        5
102
RTVSPost2010Prop44ColorRGB
 90
      255
102
RTVSPost2010PropOp44
 70
     1
102
RTVSPost2010Prop45
280
     0
102
RTVSPost2010PropOp45
 70
     1
102
RTVSPost2010Prop46
 90
       50
102
RTVSPost2010PropOp46
 70
     1
102
RTVSPost2010Prop47
 90
       50
102
RTVSPost2010PropOp47
 70
     1
102
RTVSPost2010Prop48
 90
       50
102
RTVSPost2010PropOp48
 70
     1
102
RTVSPost2010Prop49
280
     0
102
RTVSPost2010PropOp49
 70
     1
102
RTVSPost2010Prop50
 90
       50
102
RTVSPost2010PropOp50
 70
     1
102
RTVSPost2010Prop51ColorIndex
 90
      256
102
RTVSPost2010Prop51ColorRGB
 90
-16777216
102
RTVSPost2010PropOp51
 70
     0
102
RTVSPost2010Prop52
140
1.0
102
RTVSPost2010PropOp52
 70
     0
102
RTVSPost2010Prop53
 90
        2
102
RTVSPost2010PropOp53
 70
     1
102
RTVSPost2010Prop54
  1
strokes_ogs.tif
102
RTVSPost2010PropOp54
 70
     1
102
RTVSPost2010Prop55
280
     0
102
RTVSPost2010PropOp55
 70
     1
102
RTVSPost2010Prop56
140
1.0
102
RTVSPost2010PropOp56
 70
     1
102
RTVSPost2010Prop57
140
1.0
102
RTVSPost2010PropOp57
 70
     1
102
RTVSPropertyOp0
 70
     1
102
RTVSPropertyOp1
 70
     1
102
RTVSPropertyOp2
 70
     1
102
RTVSPropertyOp3
 70
     1
102
RTVSPropertyOp4
 70
     1
102
RTVSPropertyOp5
 70
     1
102
RTVSPropertyOp6
 70
     1
102
RTVSPropertyOp7
 70
     1
102
RTVSPropertyOp8
 70
     1
102
RTVSPropertyOp9
 70
     1
102
RTVSPropertyOp10
 70
     1
102
RTVSPropertyOp11
 70
     1
102
RTVSPropertyOp12
 70
     1
102
RTVSPropertyOp13
 70
     1
102
RTVSPropertyOp14
 70
     1
102
RTVSPropertyOp15
 70
     1
102
RTVSPropertyOp16
 70
     1
102
RTVSPropertyOp17
 70
     1
102
RTVSPropertyOp18
 70
     1
102
RTVSPropertyOp19
 70
     1
102
RTVSPropertyOp20
 70
     1
102
RTVSPropertyOp21
 70
     1
102
RTVSPropertyOp22
 70
     1
102
RTVSPropertyOp23
 70
     1
102
RTVSPropertyOp24
 70
     1
102
RTVSPropertyOp25
 70
     1
102
RTVSPropertyOp26
 70
     1
102
RTVSPropertyOp27
 70
     1
102
RTVSPropertyOp28
 70
     1
102
RTVSPropertyOp29
 70
     1
102
RTVSPropertyOp30
 70
     1
102
RTVSPropertyOp31
 70
     1
102
RTVSPropertyOp32
 70
     1
102
RTVSPropertyOp33
 70
     1
102
RTVSPropertyOp34
 70
     1
102
RTVSPropertyOp35
 70
     1
102
RTVSPropertyOp36
 70
     1
102
RTVSPropertyOp37
 70
     1
102
RTVSPropertyOp38
 70
     1
102
RTVSPropertyOp39
 70
     1
102
RTVSPropertyOp40
 70
     1
102
RTVSPropertyOp41
 70
     1
102
RTVSPropertyOp42
 70
     1
102
RTVSPropertyOp43
 70
     1
102
RTVSPropertyOp44
 70
     1
102
RTVSPropertyOp45
 70
     1
102
RTVSPropertyOp46
 70
     1
102
RTVSPropertyOp47
 70
     1
102
RTVSPropertyOp48
 70
     1
102
RTVSPropertyOp49
 70
     1
102
RTVSPropertyOp50
 70
     1
102
RTVSPropertyOp51
 70
     0
102
RTVSPropertyOp52
 70
     0
102
RTVSPropertyOp53
 70
     1
102
RTVSPropertyOp54
 70
     1
102
RTVSPropertyOp55
 70
     1
102
RTVSPropertyOp56
 70
     1
102
RTVSPropertyOp57
 70
     1
102
RTVSPropertyOp58
 70
     1
102
RTVSPropertyOp59
 70
     1
102
RTVSPropertyOp60
 70
     1
102
RTVSPropertyOp61
 70
     1
102
RTVSPropertyOp62
 70
     1
  0
XRECORD
  5
3387
102
{ACAD_REACTORS
330
3386
102
}
330
3386
100
AcDbXrecord
280
     1
102
RTVSPost2010Prop28
280
     0
102
RTVSPost2010PropOp28
 70
     1
102
RTVSPost2010Prop29
280
     1
102
RTVSPost2010PropOp29
 70
     1
102
RTVSPost2010Prop30
280
     1
102
RTVSPost2010PropOp30
 70
     1
102
RTVSPost2010Prop31
280
     0
102
RTVSPost2010PropOp31
 70
     1
102
RTVSPost2010Prop32
280
     0
102
RTVSPost2010PropOp32
 70
     1
102
RTVSPost2010Prop33
280
     0
102
RTVSPost2010PropOp33
 70
     1
102
RTVSPost2010Prop34
280
     0
102
RTVSPost2010PropOp34
 70
     1
102
RTVSPost2010Prop35
280
     0
102
RTVSPost2010PropOp35
 70
     1
102
RTVSPost2010Prop36
280
     0
102
RTVSPost2010PropOp36
 70
     1
102
RTVSPost2010Prop37
 90
       50
102
RTVSPost2010PropOp37
 70
     1
102
RTVSPost2010Prop38
140
0.0
102
RTVSPost2010PropOp38
 70
     1
102
RTVSPost2010Prop39
140
1.0
102
RTVSPost2010PropOp39
 70
     1
102
RTVSPost2010Prop40
 90
        0
102
RTVSPost2010PropOp40
 70
     1
102
RTVSPost2010Prop41ColorIndex
 90
       18
102
RTVSPost2010Prop41ColorRGB
 90
        0
102
RTVSPost2010PropOp41
 70
     1
102
RTVSPost2010Prop42
 90
       50
102
RTVSPost2010PropOp42
 70
     1
102
RTVSPost2010Prop43
 90
        3
102
RTVSPost2010PropOp43
 70
     1
102
RTVSPost2010Prop44ColorIndex
 90
        5
102
RTVSPost2010Prop44ColorRGB
 90
      255
102
RTVSPost2010PropOp44
 70
     1
102
RTVSPost2010Prop45
280
     0
102
RTVSPost2010PropOp45
 70
     1
102
RTVSPost2010Prop46
 90
       50
102
RTVSPost2010PropOp46
 70
     1
102
RTVSPost2010Prop47
 90
       50
102
RTVSPost2010PropOp47
 70
     1
102
RTVSPost2010Prop48
 90
       50
102
RTVSPost2010PropOp48
 70
     1
102
RTVSPost2010Prop49
280
     0
102
RTVSPost2010PropOp49
 70
     1
102
RTVSPost2010Prop50
 90
       50
102
RTVSPost2010PropOp50
 70
     1
102
RTVSPost2010Prop51ColorIndex
 90
      256
102
RTVSPost2010Prop51ColorRGB
 90
-16777216
102
RTVSPost2010PropOp51
 70
     0
102
RTVSPost2010Prop52
140
1.0
102
RTVSPost2010PropOp52
 70
     0
102
RTVSPost2010Prop53
 90
        2
102
RTVSPost2010PropOp53
 70
     1
102
RTVSPost2010Prop54
  1
strokes_ogs.tif
102
RTVSPost2010PropOp54
 70
     1
102
RTVSPost2010Prop55
280
     0
102
RTVSPost2010PropOp55
 70
     1
102
RTVSPost2010Prop56
140
1.0
102
RTVSPost2010PropOp56
 70
     1
102
RTVSPost2010Prop57
140
1.0
102
RTVSPost2010PropOp57
 70
     1
102
RTVSPropertyOp0
 70
     1
102
RTVSPropertyOp1
 70
     1
102
RTVSPropertyOp2
 70
     1
102
RTVSPropertyOp3
 70
     1
102
RTVSPropertyOp4
 70
     1
102
RTVSPropertyOp5
 70
     1
102
RTVSPropertyOp6
 70
     1
102
RTVSPropertyOp7
 70
     1
102
RTVSPropertyOp8
 70
     1
102
RTVSPropertyOp9
 70
     1
102
RTVSPropertyOp10
 70
     1
102
RTVSPropertyOp11
 70
     1
102
RTVSPropertyOp12
 70
     1
102
RTVSPropertyOp13
 70
     1
102
RTVSPropertyOp14
 70
     1
102
RTVSPropertyOp15
 70
     1
102
RTVSPropertyOp16
 70
     1
102
RTVSPropertyOp17
 70
     1
102
RTVSPropertyOp18
 70
     1
102
RTVSPropertyOp19
 70
     1
102
RTVSPropertyOp20
 70
     1
102
RTVSPropertyOp21
 70
     1
102
RTVSPropertyOp22
 70
     1
102
RTVSPropertyOp23
 70
     1
102
RTVSPropertyOp24
 70
     1
102
RTVSPropertyOp25
 70
     1
102
RTVSPropertyOp26
 70
     1
102
RTVSPropertyOp27
 70
     1
102
RTVSPropertyOp28
 70
     1
102
RTVSPropertyOp29
 70
     1
102
RTVSPropertyOp30
 70
     1
102
RTVSPropertyOp31
 70
     1
102
RTVSPropertyOp32
 70
     1
102
RTVSPropertyOp33
 70
     1
102
RTVSPropertyOp34
 70
     1
102
RTVSPropertyOp35
 70
     1
102
RTVSPropertyOp36
 70
     1
102
RTVSPropertyOp37
 70
     1
102
RTVSPropertyOp38
 70
     1
102
RTVSPropertyOp39
 70
     1
102
RTVSPropertyOp40
 70
     1
102
RTVSPropertyOp41
 70
     1
102
RTVSPropertyOp42
 70
     1
102
RTVSPropertyOp43
 70
     1
102
RTVSPropertyOp44
 70
     1
102
RTVSPropertyOp45
 70
     1
102
RTVSPropertyOp46
 70
     1
102
RTVSPropertyOp47
 70
     1
102
RTVSPropertyOp48
 70
     1
102
RTVSPropertyOp49
 70
     1
102
RTVSPropertyOp50
 70
     1
102
RTVSPropertyOp51
 70
     0
102
RTVSPropertyOp52
 70
     0
102
RTVSPropertyOp53
 70
     1
102
RTVSPropertyOp54
 70
     1
102
RTVSPropertyOp55
 70
     1
102
RTVSPropertyOp56
 70
     1
102
RTVSPropertyOp57
 70
     1
102
RTVSPropertyOp58
 70
     1
102
RTVSPropertyOp59
 70
     1
102
RTVSPropertyOp60
 70
     1
102
RTVSPropertyOp61
 70
     1
102
RTVSPropertyOp62
 70
     1
  0
XRECORD
  5
3389
102
{ACAD_REACTORS
330
3388
102
}
330
3388
100
AcDbXrecord
280
     1
102
RTVSPost2010Prop28
280
     0
102
RTVSPost2010PropOp28
 70
     1
102
RTVSPost2010Prop29
280
     1
102
RTVSPost2010PropOp29
 70
     1
102
RTVSPost2010Prop30
280
     1
102
RTVSPost2010PropOp30
 70
     1
102
RTVSPost2010Prop31
280
     0
102
RTVSPost2010PropOp31
 70
     1
102
RTVSPost2010Prop32
280
     0
102
RTVSPost2010PropOp32
 70
     1
102
RTVSPost2010Prop33
280
     0
102
RTVSPost2010PropOp33
 70
     1
102
RTVSPost2010Prop34
280
     0
102
RTVSPost2010PropOp34
 70
     1
102
RTVSPost2010Prop35
280
     0
102
RTVSPost2010PropOp35
 70
     1
102
RTVSPost2010Prop36
280
     0
102
RTVSPost2010PropOp36
 70
     1
102
RTVSPost2010Prop37
 90
       50
102
RTVSPost2010PropOp37
 70
     1
102
RTVSPost2010Prop38
140
0.0
102
RTVSPost2010PropOp38
 70
     1
102
RTVSPost2010Prop39
140
1.0
102
RTVSPost2010PropOp39
 70
     1
102
RTVSPost2010Prop40
 90
        0
102
RTVSPost2010PropOp40
 70
     1
102
RTVSPost2010Prop41ColorIndex
 90
       18
102
RTVSPost2010Prop41ColorRGB
 90
        0
102
RTVSPost2010PropOp41
 70
     1
102
RTVSPost2010Prop42
 90
       50
102
RTVSPost2010PropOp42
 70
     1
102
RTVSPost2010Prop43
 90
        3
102
RTVSPost2010PropOp43
 70
     1
102
RTVSPost2010Prop44ColorIndex
 90
        5
102
RTVSPost2010Prop44ColorRGB
 90
      255
102
RTVSPost2010PropOp44
 70
     1
102
RTVSPost2010Prop45
280
     0
102
RTVSPost2010PropOp45
 70
     1
102
RTVSPost2010Prop46
 90
       50
102
RTVSPost2010PropOp46
 70
     1
102
RTVSPost2010Prop47
 90
       50
102
RTVSPost2010PropOp47
 70
     1
102
RTVSPost2010Prop48
 90
       50
102
RTVSPost2010PropOp48
 70
     1
102
RTVSPost2010Prop49
280
     0
102
RTVSPost2010PropOp49
 70
     1
102
RTVSPost2010Prop50
 90
       50
102
RTVSPost2010PropOp50
 70
     1
102
RTVSPost2010Prop51ColorIndex
 90
      256
102
RTVSPost2010Prop51ColorRGB
 90
-16777216
102
RTVSPost2010PropOp51
 70
     0
102
RTVSPost2010Prop52
140
1.0
102
RTVSPost2010PropOp52
 70
     0
102
RTVSPost2010Prop53
 90
        2
102
RTVSPost2010PropOp53
 70
     1
102
RTVSPost2010Prop54
  1
strokes_ogs.tif
102
RTVSPost2010PropOp54
 70
     1
102
RTVSPost2010Prop55
280
     0
102
RTVSPost2010PropOp55
 70
     1
102
RTVSPost2010Prop56
140
1.0
102
RTVSPost2010PropOp56
 70
     1
102
RTVSPost2010Prop57
140
1.0
102
RTVSPost2010PropOp57
 70
     1
102
RTVSPropertyOp0
 70
     1
102
RTVSPropertyOp1
 70
     1
102
RTVSPropertyOp2
 70
     1
102
RTVSPropertyOp3
 70
     1
102
RTVSPropertyOp4
 70
     1
102
RTVSPropertyOp5
 70
     1
102
RTVSPropertyOp6
 70
     1
102
RTVSPropertyOp7
 70
     1
102
RTVSPropertyOp8
 70
     1
102
RTVSPropertyOp9
 70
     1
102
RTVSPropertyOp10
 70
     1
102
RTVSPropertyOp11
 70
     1
102
RTVSPropertyOp12
 70
     1
102
RTVSPropertyOp13
 70
     1
102
RTVSPropertyOp14
 70
     1
102
RTVSPropertyOp15
 70
     1
102
RTVSPropertyOp16
 70
     1
102
RTVSPropertyOp17
 70
     1
102
RTVSPropertyOp18
 70
     1
102
RTVSPropertyOp19
 70
     1
102
RTVSPropertyOp20
 70
     1
102
RTVSPropertyOp21
 70
     1
102
RTVSPropertyOp22
 70
     1
102
RTVSPropertyOp23
 70
     1
102
RTVSPropertyOp24
 70
     1
102
RTVSPropertyOp25
 70
     1
102
RTVSPropertyOp26
 70
     1
102
RTVSPropertyOp27
 70
     1
102
RTVSPropertyOp28
 70
     1
102
RTVSPropertyOp29
 70
     1
102
RTVSPropertyOp30
 70
     1
102
RTVSPropertyOp31
 70
     1
102
RTVSPropertyOp32
 70
     1
102
RTVSPropertyOp33
 70
     1
102
RTVSPropertyOp34
 70
     1
102
RTVSPropertyOp35
 70
     1
102
RTVSPropertyOp36
 70
     1
102
RTVSPropertyOp37
 70
     1
102
RTVSPropertyOp38
 70
     1
102
RTVSPropertyOp39
 70
     1
102
RTVSPropertyOp40
 70
     1
102
RTVSPropertyOp41
 70
     1
102
RTVSPropertyOp42
 70
     1
102
RTVSPropertyOp43
 70
     1
102
RTVSPropertyOp44
 70
     1
102
RTVSPropertyOp45
 70
     1
102
RTVSPropertyOp46
 70
     1
102
RTVSPropertyOp47
 70
     1
102
RTVSPropertyOp48
 70
     1
102
RTVSPropertyOp49
 70
     1
102
RTVSPropertyOp50
 70
     1
102
RTVSPropertyOp51
 70
     0
102
RTVSPropertyOp52
 70
     0
102
RTVSPropertyOp53
 70
     1
102
RTVSPropertyOp54
 70
     1
102
RTVSPropertyOp55
 70
     1
102
RTVSPropertyOp56
 70
     1
102
RTVSPropertyOp57
 70
     1
102
RTVSPropertyOp58
 70
     1
102
RTVSPropertyOp59
 70
     1
102
RTVSPropertyOp60
 70
     1
102
RTVSPropertyOp61
 70
     1
102
RTVSPropertyOp62
 70
     1
  0
XRECORD
  5
338B
102
{ACAD_REACTORS
330
338A
102
}
330
338A
100
AcDbXrecord
280
     1
102
RTVSPost2010Prop28
280
     0
102
RTVSPost2010PropOp28
 70
     1
102
RTVSPost2010Prop29
280
     1
102
RTVSPost2010PropOp29
 70
     1
102
RTVSPost2010Prop30
280
     1
102
RTVSPost2010PropOp30
 70
     1
102
RTVSPost2010Prop31
280
     0
102
RTVSPost2010PropOp31
 70
     1
102
RTVSPost2010Prop32
280
     0
102
RTVSPost2010PropOp32
 70
     1
102
RTVSPost2010Prop33
280
     0
102
RTVSPost2010PropOp33
 70
     1
102
RTVSPost2010Prop34
280
     0
102
RTVSPost2010PropOp34
 70
     1
102
RTVSPost2010Prop35
280
     0
102
RTVSPost2010PropOp35
 70
     1
102
RTVSPost2010Prop36
280
     0
102
RTVSPost2010PropOp36
 70
     1
102
RTVSPost2010Prop37
 90
       50
102
RTVSPost2010PropOp37
 70
     1
102
RTVSPost2010Prop38
140
0.0
102
RTVSPost2010PropOp38
 70
     1
102
RTVSPost2010Prop39
140
1.0
102
RTVSPost2010PropOp39
 70
     1
102
RTVSPost2010Prop40
 90
        0
102
RTVSPost2010PropOp40
 70
     1
102
RTVSPost2010Prop41ColorIndex
 90
       18
102
RTVSPost2010Prop41ColorRGB
 90
        0
102
RTVSPost2010PropOp41
 70
     1
102
RTVSPost2010Prop42
 90
       50
102
RTVSPost2010PropOp42
 70
     1
102
RTVSPost2010Prop43
 90
        3
102
RTVSPost2010PropOp43
 70
     1
102
RTVSPost2010Prop44ColorIndex
 90
        5
102
RTVSPost2010Prop44ColorRGB
 90
      255
102
RTVSPost2010PropOp44
 70
     1
102
RTVSPost2010Prop45
280
     0
102
RTVSPost2010PropOp45
 70
     1
102
RTVSPost2010Prop46
 90
       50
102
RTVSPost2010PropOp46
 70
     1
102
RTVSPost2010Prop47
 90
       50
102
RTVSPost2010PropOp47
 70
     1
102
RTVSPost2010Prop48
 90
       50
102
RTVSPost2010PropOp48
 70
     1
102
RTVSPost2010Prop49
280
     0
102
RTVSPost2010PropOp49
 70
     1
102
RTVSPost2010Prop50
 90
       50
102
RTVSPost2010PropOp50
 70
     1
102
RTVSPost2010Prop51ColorIndex
 90
      256
102
RTVSPost2010Prop51ColorRGB
 90
-16777216
102
RTVSPost2010PropOp51
 70
     0
102
RTVSPost2010Prop52
140
1.0
102
RTVSPost2010PropOp52
 70
     0
102
RTVSPost2010Prop53
 90
        2
102
RTVSPost2010PropOp53
 70
     1
102
RTVSPost2010Prop54
  1
strokes_ogs.tif
102
RTVSPost2010PropOp54
 70
     1
102
RTVSPost2010Prop55
280
     0
102
RTVSPost2010PropOp55
 70
     1
102
RTVSPost2010Prop56
140
1.0
102
RTVSPost2010PropOp56
 70
     1
102
RTVSPost2010Prop57
140
1.0
102
RTVSPost2010PropOp57
 70
     1
102
RTVSPropertyOp0
 70
     1
102
RTVSPropertyOp1
 70
     1
102
RTVSPropertyOp2
 70
     1
102
RTVSPropertyOp3
 70
     1
102
RTVSPropertyOp4
 70
     1
102
RTVSPropertyOp5
 70
     1
102
RTVSPropertyOp6
 70
     1
102
RTVSPropertyOp7
 70
     1
102
RTVSPropertyOp8
 70
     1
102
RTVSPropertyOp9
 70
     1
102
RTVSPropertyOp10
 70
     1
102
RTVSPropertyOp11
 70
     1
102
RTVSPropertyOp12
 70
     1
102
RTVSPropertyOp13
 70
     1
102
RTVSPropertyOp14
 70
     1
102
RTVSPropertyOp15
 70
     1
102
RTVSPropertyOp16
 70
     1
102
RTVSPropertyOp17
 70
     1
102
RTVSPropertyOp18
 70
     1
102
RTVSPropertyOp19
 70
     1
102
RTVSPropertyOp20
 70
     1
102
RTVSPropertyOp21
 70
     1
102
RTVSPropertyOp22
 70
     1
102
RTVSPropertyOp23
 70
     1
102
RTVSPropertyOp24
 70
     1
102
RTVSPropertyOp25
 70
     1
102
RTVSPropertyOp26
 70
     1
102
RTVSPropertyOp27
 70
     1
102
RTVSPropertyOp28
 70
     1
102
RTVSPropertyOp29
 70
     1
102
RTVSPropertyOp30
 70
     1
102
RTVSPropertyOp31
 70
     1
102
RTVSPropertyOp32
 70
     1
102
RTVSPropertyOp33
 70
     1
102
RTVSPropertyOp34
 70
     1
102
RTVSPropertyOp35
 70
     1
102
RTVSPropertyOp36
 70
     1
102
RTVSPropertyOp37
 70
     1
102
RTVSPropertyOp38
 70
     1
102
RTVSPropertyOp39
 70
     1
102
RTVSPropertyOp40
 70
     1
102
RTVSPropertyOp41
 70
     1
102
RTVSPropertyOp42
 70
     1
102
RTVSPropertyOp43
 70
     1
102
RTVSPropertyOp44
 70
     1
102
RTVSPropertyOp45
 70
     1
102
RTVSPropertyOp46
 70
     1
102
RTVSPropertyOp47
 70
     1
102
RTVSPropertyOp48
 70
     1
102
RTVSPropertyOp49
 70
     1
102
RTVSPropertyOp50
 70
     1
102
RTVSPropertyOp51
 70
     0
102
RTVSPropertyOp52
 70
     0
102
RTVSPropertyOp53
 70
     1
102
RTVSPropertyOp54
 70
     1
102
RTVSPropertyOp55
 70
     1
102
RTVSPropertyOp56
 70
     1
102
RTVSPropertyOp57
 70
     1
102
RTVSPropertyOp58
 70
     1
102
RTVSPropertyOp59
 70
     1
102
RTVSPropertyOp60
 70
     1
102
RTVSPropertyOp61
 70
     1
102
RTVSPropertyOp62
 70
     1
  0
XRECORD
  5
338D
102
{ACAD_REACTORS
330
338C
102
}
330
338C
100
AcDbXrecord
280
     1
102
RTVSPost2010Prop28
280
     0
102
RTVSPost2010PropOp28
 70
     1
102
RTVSPost2010Prop29
280
     1
102
RTVSPost2010PropOp29
 70
     1
102
RTVSPost2010Prop30
280
     1
102
RTVSPost2010PropOp30
 70
     1
102
RTVSPost2010Prop31
280
     0
102
RTVSPost2010PropOp31
 70
     1
102
RTVSPost2010Prop32
280
     0
102
RTVSPost2010PropOp32
 70
     1
102
RTVSPost2010Prop33
280
     0
102
RTVSPost2010PropOp33
 70
     1
102
RTVSPost2010Prop34
280
     0
102
RTVSPost2010PropOp34
 70
     1
102
RTVSPost2010Prop35
280
     0
102
RTVSPost2010PropOp35
 70
     1
102
RTVSPost2010Prop36
280
     0
102
RTVSPost2010PropOp36
 70
     1
102
RTVSPost2010Prop37
 90
       50
102
RTVSPost2010PropOp37
 70
     1
102
RTVSPost2010Prop38
140
0.0
102
RTVSPost2010PropOp38
 70
     1
102
RTVSPost2010Prop39
140
1.0
102
RTVSPost2010PropOp39
 70
     1
102
RTVSPost2010Prop40
 90
        0
102
RTVSPost2010PropOp40
 70
     1
102
RTVSPost2010Prop41ColorIndex
 90
       18
102
RTVSPost2010Prop41ColorRGB
 90
        0
102
RTVSPost2010PropOp41
 70
     1
102
RTVSPost2010Prop42
 90
       50
102
RTVSPost2010PropOp42
 70
     1
102
RTVSPost2010Prop43
 90
        3
102
RTVSPost2010PropOp43
 70
     1
102
RTVSPost2010Prop44ColorIndex
 90
        5
102
RTVSPost2010Prop44ColorRGB
 90
      255
102
RTVSPost2010PropOp44
 70
     1
102
RTVSPost2010Prop45
280
     0
102
RTVSPost2010PropOp45
 70
     1
102
RTVSPost2010Prop46
 90
       50
102
RTVSPost2010PropOp46
 70
     1
102
RTVSPost2010Prop47
 90
       50
102
RTVSPost2010PropOp47
 70
     1
102
RTVSPost2010Prop48
 90
       50
102
RTVSPost2010PropOp48
 70
     1
102
RTVSPost2010Prop49
280
     0
102
RTVSPost2010PropOp49
 70
     1
102
RTVSPost2010Prop50
 90
       50
102
RTVSPost2010PropOp50
 70
     1
102
RTVSPost2010Prop51ColorIndex
 90
      256
102
RTVSPost2010Prop51ColorRGB
 90
-16777216
102
RTVSPost2010PropOp51
 70
     0
102
RTVSPost2010Prop52
140
1.0
102
RTVSPost2010PropOp52
 70
     0
102
RTVSPost2010Prop53
 90
        2
102
RTVSPost2010PropOp53
 70
     1
102
RTVSPost2010Prop54
  1
strokes_ogs.tif
102
RTVSPost2010PropOp54
 70
     1
102
RTVSPost2010Prop55
280
     0
102
RTVSPost2010PropOp55
 70
     1
102
RTVSPost2010Prop56
140
1.0
102
RTVSPost2010PropOp56
 70
     1
102
RTVSPost2010Prop57
140
1.0
102
RTVSPost2010PropOp57
 70
     1
102
RTVSPropertyOp0
 70
     1
102
RTVSPropertyOp1
 70
     1
102
RTVSPropertyOp2
 70
     1
102
RTVSPropertyOp3
 70
     1
102
RTVSPropertyOp4
 70
     1
102
RTVSPropertyOp5
 70
     1
102
RTVSPropertyOp6
 70
     1
102
RTVSPropertyOp7
 70
     1
102
RTVSPropertyOp8
 70
     1
102
RTVSPropertyOp9
 70
     1
102
RTVSPropertyOp10
 70
     1
102
RTVSPropertyOp11
 70
     1
102
RTVSPropertyOp12
 70
     1
102
RTVSPropertyOp13
 70
     1
102
RTVSPropertyOp14
 70
     1
102
RTVSPropertyOp15
 70
     1
102
RTVSPropertyOp16
 70
     1
102
RTVSPropertyOp17
 70
     1
102
RTVSPropertyOp18
 70
     1
102
RTVSPropertyOp19
 70
     1
102
RTVSPropertyOp20
 70
     1
102
RTVSPropertyOp21
 70
     1
102
RTVSPropertyOp22
 70
     1
102
RTVSPropertyOp23
 70
     1
102
RTVSPropertyOp24
 70
     1
102
RTVSPropertyOp25
 70
     1
102
RTVSPropertyOp26
 70
     1
102
RTVSPropertyOp27
 70
     1
102
RTVSPropertyOp28
 70
     1
102
RTVSPropertyOp29
 70
     1
102
RTVSPropertyOp30
 70
     1
102
RTVSPropertyOp31
 70
     1
102
RTVSPropertyOp32
 70
     1
102
RTVSPropertyOp33
 70
     1
102
RTVSPropertyOp34
 70
     1
102
RTVSPropertyOp35
 70
     1
102
RTVSPropertyOp36
 70
     1
102
RTVSPropertyOp37
 70
     1
102
RTVSPropertyOp38
 70
     1
102
RTVSPropertyOp39
 70
     1
102
RTVSPropertyOp40
 70
     1
102
RTVSPropertyOp41
 70
     1
102
RTVSPropertyOp42
 70
     1
102
RTVSPropertyOp43
 70
     1
102
RTVSPropertyOp44
 70
     1
102
RTVSPropertyOp45
 70
     1
102
RTVSPropertyOp46
 70
     1
102
RTVSPropertyOp47
 70
     1
102
RTVSPropertyOp48
 70
     1
102
RTVSPropertyOp49
 70
     1
102
RTVSPropertyOp50
 70
     1
102
RTVSPropertyOp51
 70
     0
102
RTVSPropertyOp52
 70
     0
102
RTVSPropertyOp53
 70
     1
102
RTVSPropertyOp54
 70
     1
102
RTVSPropertyOp55
 70
     1
102
RTVSPropertyOp56
 70
     1
102
RTVSPropertyOp57
 70
     1
102
RTVSPropertyOp58
 70
     1
102
RTVSPropertyOp59
 70
     1
102
RTVSPropertyOp60
 70
     1
102
RTVSPropertyOp61
 70
     1
102
RTVSPropertyOp62
 70
     1
  0
XRECORD
  5
3395
102
{ACAD_REACTORS
330
3394
102
}
330
3394
100
AcDbXrecord
280
     1
102
RTVSPost2010Prop28
280
     0
102
RTVSPost2010PropOp28
 70
     1
102
RTVSPost2010Prop29
280
     1
102
RTVSPost2010PropOp29
 70
     1
102
RTVSPost2010Prop30
280
     1
102
RTVSPost2010PropOp30
 70
     1
102
RTVSPost2010Prop31
280
     0
102
RTVSPost2010PropOp31
 70
     1
102
RTVSPost2010Prop32
280
     0
102
RTVSPost2010PropOp32
 70
     1
102
RTVSPost2010Prop33
280
     0
102
RTVSPost2010PropOp33
 70
     1
102
RTVSPost2010Prop34
280
     0
102
RTVSPost2010PropOp34
 70
     1
102
RTVSPost2010Prop35
280
     0
102
RTVSPost2010PropOp35
 70
     1
102
RTVSPost2010Prop36
280
     0
102
RTVSPost2010PropOp36
 70
     1
102
RTVSPost2010Prop37
 90
       50
102
RTVSPost2010PropOp37
 70
     1
102
RTVSPost2010Prop38
140
0.0
102
RTVSPost2010PropOp38
 70
     1
102
RTVSPost2010Prop39
140
1.0
102
RTVSPost2010PropOp39
 70
     1
102
RTVSPost2010Prop40
 90
        0
102
RTVSPost2010PropOp40
 70
     1
102
RTVSPost2010Prop41ColorIndex
 90
       18
102
RTVSPost2010Prop41ColorRGB
 90
        0
102
RTVSPost2010PropOp41
 70
     1
102
RTVSPost2010Prop42
 90
       50
102
RTVSPost2010PropOp42
 70
     1
102
RTVSPost2010Prop43
 90
        3
102
RTVSPost2010PropOp43
 70
     1
102
RTVSPost2010Prop44ColorIndex
 90
        5
102
RTVSPost2010Prop44ColorRGB
 90
      255
102
RTVSPost2010PropOp44
 70
     1
102
RTVSPost2010Prop45
280
     0
102
RTVSPost2010PropOp45
 70
     1
102
RTVSPost2010Prop46
 90
       50
102
RTVSPost2010PropOp46
 70
     1
102
RTVSPost2010Prop47
 90
       50
102
RTVSPost2010PropOp47
 70
     1
102
RTVSPost2010Prop48
 90
       50
102
RTVSPost2010PropOp48
 70
     1
102
RTVSPost2010Prop49
280
     0
102
RTVSPost2010PropOp49
 70
     1
102
RTVSPost2010Prop50
 90
       50
102
RTVSPost2010PropOp50
 70
     1
102
RTVSPost2010Prop51ColorIndex
 90
      256
102
RTVSPost2010Prop51ColorRGB
 90
-16777216
102
RTVSPost2010PropOp51
 70
     0
102
RTVSPost2010Prop52
140
1.0
102
RTVSPost2010PropOp52
 70
     0
102
RTVSPost2010Prop53
 90
        2
102
RTVSPost2010PropOp53
 70
     1
102
RTVSPost2010Prop54
  1
strokes_ogs.tif
102
RTVSPost2010PropOp54
 70
     1
102
RTVSPost2010Prop55
280
     0
102
RTVSPost2010PropOp55
 70
     1
102
RTVSPost2010Prop56
140
1.0
102
RTVSPost2010PropOp56
 70
     1
102
RTVSPost2010Prop57
140
1.0
102
RTVSPost2010PropOp57
 70
     1
102
RTVSPropertyOp0
 70
     1
102
RTVSPropertyOp1
 70
     1
102
RTVSPropertyOp2
 70
     1
102
RTVSPropertyOp3
 70
     1
102
RTVSPropertyOp4
 70
     1
102
RTVSPropertyOp5
 70
     1
102
RTVSPropertyOp6
 70
     1
102
RTVSPropertyOp7
 70
     1
102
RTVSPropertyOp8
 70
     1
102
RTVSPropertyOp9
 70
     1
102
RTVSPropertyOp10
 70
     1
102
RTVSPropertyOp11
 70
     1
102
RTVSPropertyOp12
 70
     1
102
RTVSPropertyOp13
 70
     1
102
RTVSPropertyOp14
 70
     1
102
RTVSPropertyOp15
 70
     1
102
RTVSPropertyOp16
 70
     1
102
RTVSPropertyOp17
 70
     1
102
RTVSPropertyOp18
 70
     1
102
RTVSPropertyOp19
 70
     1
102
RTVSPropertyOp20
 70
     1
102
RTVSPropertyOp21
 70
     1
102
RTVSPropertyOp22
 70
     1
102
RTVSPropertyOp23
 70
     1
102
RTVSPropertyOp24
 70
     1
102
RTVSPropertyOp25
 70
     1
102
RTVSPropertyOp26
 70
     1
102
RTVSPropertyOp27
 70
     1
102
RTVSPropertyOp28
 70
     1
102
RTVSPropertyOp29
 70
     1
102
RTVSPropertyOp30
 70
     1
102
RTVSPropertyOp31
 70
     1
102
RTVSPropertyOp32
 70
     1
102
RTVSPropertyOp33
 70
     1
102
RTVSPropertyOp34
 70
     1
102
RTVSPropertyOp35
 70
     1
102
RTVSPropertyOp36
 70
     1
102
RTVSPropertyOp37
 70
     1
102
RTVSPropertyOp38
 70
     1
102
RTVSPropertyOp39
 70
     1
102
RTVSPropertyOp40
 70
     1
102
RTVSPropertyOp41
 70
     1
102
RTVSPropertyOp42
 70
     1
102
RTVSPropertyOp43
 70
     1
102
RTVSPropertyOp44
 70
     1
102
RTVSPropertyOp45
 70
     1
102
RTVSPropertyOp46
 70
     1
102
RTVSPropertyOp47
 70
     1
102
RTVSPropertyOp48
 70
     1
102
RTVSPropertyOp49
 70
     1
102
RTVSPropertyOp50
 70
     1
102
RTVSPropertyOp51
 70
     0
102
RTVSPropertyOp52
 70
     0
102
RTVSPropertyOp53
 70
     1
102
RTVSPropertyOp54
 70
     1
102
RTVSPropertyOp55
 70
     1
102
RTVSPropertyOp56
 70
     1
102
RTVSPropertyOp57
 70
     1
102
RTVSPropertyOp58
 70
     1
102
RTVSPropertyOp59
 70
     1
102
RTVSPropertyOp60
 70
     1
102
RTVSPropertyOp61
 70
     1
102
RTVSPropertyOp62
 70
     1
  0
XRECORD
  5
33B1
102
{ACAD_REACTORS
330
33B0
102
}
330
33B0
100
AcDbXrecord
280
     1
102
RTVSPost2010Prop28
280
     0
102
RTVSPost2010PropOp28
 70
     1
102
RTVSPost2010Prop29
280
     1
102
RTVSPost2010PropOp29
 70
     1
102
RTVSPost2010Prop30
280
     1
102
RTVSPost2010PropOp30
 70
     1
102
RTVSPost2010Prop31
280
     0
102
RTVSPost2010PropOp31
 70
     1
102
RTVSPost2010Prop32
280
     0
102
RTVSPost2010PropOp32
 70
     1
102
RTVSPost2010Prop33
280
     0
102
RTVSPost2010PropOp33
 70
     1
102
RTVSPost2010Prop34
280
     0
102
RTVSPost2010PropOp34
 70
     1
102
RTVSPost2010Prop35
280
     0
102
RTVSPost2010PropOp35
 70
     1
102
RTVSPost2010Prop36
280
     0
102
RTVSPost2010PropOp36
 70
     1
102
RTVSPost2010Prop37
 90
       50
102
RTVSPost2010PropOp37
 70
     0
102
RTVSPost2010Prop38
140
0.0
102
RTVSPost2010PropOp38
 70
     0
102
RTVSPost2010Prop39
140
1.0
102
RTVSPost2010PropOp39
 70
     0
102
RTVSPost2010Prop40
 90
        0
102
RTVSPost2010PropOp40
 70
     0
102
RTVSPost2010Prop41ColorIndex
 90
       18
102
RTVSPost2010Prop41ColorRGB
 90
        0
102
RTVSPost2010PropOp41
 70
     0
102
RTVSPost2010Prop42
 90
       50
102
RTVSPost2010PropOp42
 70
     0
102
RTVSPost2010Prop43
 90
        3
102
RTVSPost2010PropOp43
 70
     0
102
RTVSPost2010Prop44ColorIndex
 90
        5
102
RTVSPost2010Prop44ColorRGB
 90
      255
102
RTVSPost2010PropOp44
 70
     0
102
RTVSPost2010Prop45
280
     0
102
RTVSPost2010PropOp45
 70
     1
102
RTVSPost2010Prop46
 90
       50
102
RTVSPost2010PropOp46
 70
     0
102
RTVSPost2010Prop47
 90
       50
102
RTVSPost2010PropOp47
 70
     0
102
RTVSPost2010Prop48
 90
       50
102
RTVSPost2010PropOp48
 70
     0
102
RTVSPost2010Prop49
280
     0
102
RTVSPost2010PropOp49
 70
     1
102
RTVSPost2010Prop50
 90
       50
102
RTVSPost2010PropOp50
 70
     0
102
RTVSPost2010Prop51ColorIndex
 90
      256
102
RTVSPost2010Prop51ColorRGB
 90
-16777216
102
RTVSPost2010PropOp51
 70
     0
102
RTVSPost2010Prop52
140
1.0
102
RTVSPost2010PropOp52
 70
     0
102
RTVSPost2010Prop53
 90
        2
102
RTVSPost2010PropOp53
 70
     0
102
RTVSPost2010Prop54
  1
strokes_ogs.tif
102
RTVSPost2010PropOp54
 70
     0
102
RTVSPost2010Prop55
280
     0
102
RTVSPost2010PropOp55
 70
     1
102
RTVSPost2010Prop56
140
1.0
102
RTVSPost2010PropOp56
 70
     0
102
RTVSPost2010Prop57
140
1.0
102
RTVSPost2010PropOp57
 70
     0
102
RTVSPropertyOp0
 70
     0
102
RTVSPropertyOp1
 70
     0
102
RTVSPropertyOp2
 70
     0
102
RTVSPropertyOp3
 70
     0
102
RTVSPropertyOp4
 70
     0
102
RTVSPropertyOp5
 70
     0
102
RTVSPropertyOp6
 70
     0
102
RTVSPropertyOp7
 70
     0
102
RTVSPropertyOp8
 70
     0
102
RTVSPropertyOp9
 70
     0
102
RTVSPropertyOp10
 70
     0
102
RTVSPropertyOp11
 70
     0
102
RTVSPropertyOp12
 70
     0
102
RTVSPropertyOp13
 70
     0
102
RTVSPropertyOp14
 70
     2
102
RTVSPropertyOp15
 70
     0
102
RTVSPropertyOp16
 70
     0
102
RTVSPropertyOp17
 70
     0
102
RTVSPropertyOp18
 70
     0
102
RTVSPropertyOp19
 70
     0
102
RTVSPropertyOp20
 70
     0
102
RTVSPropertyOp21
 70
     0
102
RTVSPropertyOp22
 70
     0
102
RTVSPropertyOp23
 70
     0
102
RTVSPropertyOp24
 70
     0
102
RTVSPropertyOp25
 70
     0
102
RTVSPropertyOp26
 70
     0
102
RTVSPropertyOp27
 70
     0
102
RTVSPropertyOp28
 70
     1
102
RTVSPropertyOp29
 70
     1
102
RTVSPropertyOp30
 70
     1
102
RTVSPropertyOp31
 70
     1
102
RTVSPropertyOp32
 70
     1
102
RTVSPropertyOp33
 70
     1
102
RTVSPropertyOp34
 70
     1
102
RTVSPropertyOp35
 70
     1
102
RTVSPropertyOp36
 70
     1
102
RTVSPropertyOp37
 70
     0
102
RTVSPropertyOp38
 70
     0
102
RTVSPropertyOp39
 70
     0
102
RTVSPropertyOp40
 70
     0
102
RTVSPropertyOp41
 70
     0
102
RTVSPropertyOp42
 70
     0
102
RTVSPropertyOp43
 70
     0
102
RTVSPropertyOp44
 70
     0
102
RTVSPropertyOp45
 70
     1
102
RTVSPropertyOp46
 70
     0
102
RTVSPropertyOp47
 70
     0
102
RTVSPropertyOp48
 70
     0
102
RTVSPropertyOp49
 70
     1
102
RTVSPropertyOp50
 70
     0
102
RTVSPropertyOp51
 70
     0
102
RTVSPropertyOp52
 70
     0
102
RTVSPropertyOp53
 70
     0
102
RTVSPropertyOp54
 70
     0
102
RTVSPropertyOp55
 70
     1
102
RTVSPropertyOp56
 70
     0
102
RTVSPropertyOp57
 70
     0
102
RTVSPropertyOp58
 70
     0
102
RTVSPropertyOp59
 70
     0
102
RTVSPropertyOp60
 70
     0
102
RTVSPropertyOp61
 70
     0
102
RTVSPropertyOp62
 70
     0
  0
XRECORD
  5
33A1
102
{ACAD_REACTORS
330
33A0
102
}
330
33A0
100
AcDbXrecord
280
     1
102
RTVSPost2010Prop28
280
     0
102
RTVSPost2010PropOp28
 70
     1
102
RTVSPost2010Prop29
280
     1
102
RTVSPost2010PropOp29
 70
     1
102
RTVSPost2010Prop30
280
     1
102
RTVSPost2010PropOp30
 70
     1
102
RTVSPost2010Prop31
280
     0
102
RTVSPost2010PropOp31
 70
     1
102
RTVSPost2010Prop32
280
     0
102
RTVSPost2010PropOp32
 70
     1
102
RTVSPost2010Prop33
280
     0
102
RTVSPost2010PropOp33
 70
     1
102
RTVSPost2010Prop34
280
     0
102
RTVSPost2010PropOp34
 70
     1
102
RTVSPost2010Prop35
280
     0
102
RTVSPost2010PropOp35
 70
     1
102
RTVSPost2010Prop36
280
     0
102
RTVSPost2010PropOp36
 70
     1
102
RTVSPost2010Prop37
 90
       50
102
RTVSPost2010PropOp37
 70
     1
102
RTVSPost2010Prop38
140
0.0
102
RTVSPost2010PropOp38
 70
     1
102
RTVSPost2010Prop39
140
1.0
102
RTVSPost2010PropOp39
 70
     1
102
RTVSPost2010Prop40
 90
        0
102
RTVSPost2010PropOp40
 70
     1
102
RTVSPost2010Prop41ColorIndex
 90
       18
102
RTVSPost2010Prop41ColorRGB
 90
        0
102
RTVSPost2010PropOp41
 70
     1
102
RTVSPost2010Prop42
 90
       50
102
RTVSPost2010PropOp42
 70
     1
102
RTVSPost2010Prop43
 90
        3
102
RTVSPost2010PropOp43
 70
     1
102
RTVSPost2010Prop44ColorIndex
 90
        5
102
RTVSPost2010Prop44ColorRGB
 90
      255
102
RTVSPost2010PropOp44
 70
     1
102
RTVSPost2010Prop45
280
     0
102
RTVSPost2010PropOp45
 70
     1
102
RTVSPost2010Prop46
 90
       50
102
RTVSPost2010PropOp46
 70
     1
102
RTVSPost2010Prop47
 90
       50
102
RTVSPost2010PropOp47
 70
     1
102
RTVSPost2010Prop48
 90
       50
102
RTVSPost2010PropOp48
 70
     1
102
RTVSPost2010Prop49
280
     0
102
RTVSPost2010PropOp49
 70
     1
102
RTVSPost2010Prop50
 90
       50
102
RTVSPost2010PropOp50
 70
     1
102
RTVSPost2010Prop51ColorIndex
 90
      256
102
RTVSPost2010Prop51ColorRGB
 90
-16777216
102
RTVSPost2010PropOp51
 70
     0
102
RTVSPost2010Prop52
140
1.0
102
RTVSPost2010PropOp52
 70
     0
102
RTVSPost2010Prop53
 90
        2
102
RTVSPost2010PropOp53
 70
     1
102
RTVSPost2010Prop54
  1
strokes_ogs.tif
102
RTVSPost2010PropOp54
 70
     1
102
RTVSPost2010Prop55
280
     0
102
RTVSPost2010PropOp55
 70
     1
102
RTVSPost2010Prop56
140
1.0
102
RTVSPost2010PropOp56
 70
     1
102
RTVSPost2010Prop57
140
1.0
102
RTVSPost2010PropOp57
 70
     1
102
RTVSPropertyOp0
 70
     1
102
RTVSPropertyOp1
 70
     1
102
RTVSPropertyOp2
 70
     1
102
RTVSPropertyOp3
 70
     1
102
RTVSPropertyOp4
 70
     1
102
RTVSPropertyOp5
 70
     1
102
RTVSPropertyOp6
 70
     1
102
RTVSPropertyOp7
 70
     1
102
RTVSPropertyOp8
 70
     1
102
RTVSPropertyOp9
 70
     1
102
RTVSPropertyOp10
 70
     1
102
RTVSPropertyOp11
 70
     1
102
RTVSPropertyOp12
 70
     1
102
RTVSPropertyOp13
 70
     1
102
RTVSPropertyOp14
 70
     1
102
RTVSPropertyOp15
 70
     1
102
RTVSPropertyOp16
 70
     1
102
RTVSPropertyOp17
 70
     1
102
RTVSPropertyOp18
 70
     1
102
RTVSPropertyOp19
 70
     1
102
RTVSPropertyOp20
 70
     1
102
RTVSPropertyOp21
 70
     1
102
RTVSPropertyOp22
 70
     1
102
RTVSPropertyOp23
 70
     1
102
RTVSPropertyOp24
 70
     1
102
RTVSPropertyOp25
 70
     1
102
RTVSPropertyOp26
 70
     1
102
RTVSPropertyOp27
 70
     1
102
RTVSPropertyOp28
 70
     1
102
RTVSPropertyOp29
 70
     1
102
RTVSPropertyOp30
 70
     1
102
RTVSPropertyOp31
 70
     1
102
RTVSPropertyOp32
 70
     1
102
RTVSPropertyOp33
 70
     1
102
RTVSPropertyOp34
 70
     1
102
RTVSPropertyOp35
 70
     1
102
RTVSPropertyOp36
 70
     1
102
RTVSPropertyOp37
 70
     1
102
RTVSPropertyOp38
 70
     1
102
RTVSPropertyOp39
 70
     1
102
RTVSPropertyOp40
 70
     1
102
RTVSPropertyOp41
 70
     1
102
RTVSPropertyOp42
 70
     1
102
RTVSPropertyOp43
 70
     1
102
RTVSPropertyOp44
 70
     1
102
RTVSPropertyOp45
 70
     1
102
RTVSPropertyOp46
 70
     1
102
RTVSPropertyOp47
 70
     1
102
RTVSPropertyOp48
 70
     1
102
RTVSPropertyOp49
 70
     1
102
RTVSPropertyOp50
 70
     1
102
RTVSPropertyOp51
 70
     0
102
RTVSPropertyOp52
 70
     0
102
RTVSPropertyOp53
 70
     1
102
RTVSPropertyOp54
 70
     1
102
RTVSPropertyOp55
 70
     1
102
RTVSPropertyOp56
 70
     1
102
RTVSPropertyOp57
 70
     1
102
RTVSPropertyOp58
 70
     1
102
RTVSPropertyOp59
 70
     1
102
RTVSPropertyOp60
 70
     1
102
RTVSPropertyOp61
 70
     1
102
RTVSPropertyOp62
 70
     1
  0
XRECORD
  5
33B3
102
{ACAD_REACTORS
330
33B2
102
}
330
33B2
100
AcDbXrecord
280
     1
102
RTVSPost2010Prop28
280
     0
102
RTVSPost2010PropOp28
 70
     1
102
RTVSPost2010Prop29
280
     1
102
RTVSPost2010PropOp29
 70
     1
102
RTVSPost2010Prop30
280
     1
102
RTVSPost2010PropOp30
 70
     1
102
RTVSPost2010Prop31
280
     0
102
RTVSPost2010PropOp31
 70
     1
102
RTVSPost2010Prop32
280
     0
102
RTVSPost2010PropOp32
 70
     1
102
RTVSPost2010Prop33
280
     0
102
RTVSPost2010PropOp33
 70
     1
102
RTVSPost2010Prop34
280
     0
102
RTVSPost2010PropOp34
 70
     1
102
RTVSPost2010Prop35
280
     0
102
RTVSPost2010PropOp35
 70
     1
102
RTVSPost2010Prop36
280
     0
102
RTVSPost2010PropOp36
 70
     1
102
RTVSPost2010Prop37
 90
       50
102
RTVSPost2010PropOp37
 70
     0
102
RTVSPost2010Prop38
140
0.0
102
RTVSPost2010PropOp38
 70
     0
102
RTVSPost2010Prop39
140
1.0
102
RTVSPost2010PropOp39
 70
     0
102
RTVSPost2010Prop40
 90
        0
102
RTVSPost2010PropOp40
 70
     0
102
RTVSPost2010Prop41ColorIndex
 90
       18
102
RTVSPost2010Prop41ColorRGB
 90
        0
102
RTVSPost2010PropOp41
 70
     0
102
RTVSPost2010Prop42
 90
       50
102
RTVSPost2010PropOp42
 70
     0
102
RTVSPost2010Prop43
 90
        3
102
RTVSPost2010PropOp43
 70
     0
102
RTVSPost2010Prop44ColorIndex
 90
        5
102
RTVSPost2010Prop44ColorRGB
 90
      255
102
RTVSPost2010PropOp44
 70
     0
102
RTVSPost2010Prop45
280
     0
102
RTVSPost2010PropOp45
 70
     1
102
RTVSPost2010Prop46
 90
       50
102
RTVSPost2010PropOp46
 70
     0
102
RTVSPost2010Prop47
 90
       50
102
RTVSPost2010PropOp47
 70
     0
102
RTVSPost2010Prop48
 90
       50
102
RTVSPost2010PropOp48
 70
     0
102
RTVSPost2010Prop49
280
     0
102
RTVSPost2010PropOp49
 70
     1
102
RTVSPost2010Prop50
 90
       50
102
RTVSPost2010PropOp50
 70
     0
102
RTVSPost2010Prop51ColorIndex
 90
      256
102
RTVSPost2010Prop51ColorRGB
 90
-16777216
102
RTVSPost2010PropOp51
 70
     0
102
RTVSPost2010Prop52
140
1.0
102
RTVSPost2010PropOp52
 70
     0
102
RTVSPost2010Prop53
 90
        2
102
RTVSPost2010PropOp53
 70
     0
102
RTVSPost2010Prop54
  1
strokes_ogs.tif
102
RTVSPost2010PropOp54
 70
     0
102
RTVSPost2010Prop55
280
     0
102
RTVSPost2010PropOp55
 70
     1
102
RTVSPost2010Prop56
140
1.0
102
RTVSPost2010PropOp56
 70
     0
102
RTVSPost2010Prop57
140
1.0
102
RTVSPost2010PropOp57
 70
     0
102
RTVSPropertyOp0
 70
     0
102
RTVSPropertyOp1
 70
     0
102
RTVSPropertyOp2
 70
     0
102
RTVSPropertyOp3
 70
     0
102
RTVSPropertyOp4
 70
     0
102
RTVSPropertyOp5
 70
     0
102
RTVSPropertyOp6
 70
     0
102
RTVSPropertyOp7
 70
     0
102
RTVSPropertyOp8
 70
     0
102
RTVSPropertyOp9
 70
     0
102
RTVSPropertyOp10
 70
     0
102
RTVSPropertyOp11
 70
     0
102
RTVSPropertyOp12
 70
     0
102
RTVSPropertyOp13
 70
     0
102
RTVSPropertyOp14
 70
     2
102
RTVSPropertyOp15
 70
     0
102
RTVSPropertyOp16
 70
     0
102
RTVSPropertyOp17
 70
     0
102
RTVSPropertyOp18
 70
     0
102
RTVSPropertyOp19
 70
     0
102
RTVSPropertyOp20
 70
     0
102
RTVSPropertyOp21
 70
     0
102
RTVSPropertyOp22
 70
     0
102
RTVSPropertyOp23
 70
     0
102
RTVSPropertyOp24
 70
     0
102
RTVSPropertyOp25
 70
     0
102
RTVSPropertyOp26
 70
     0
102
RTVSPropertyOp27
 70
     0
102
RTVSPropertyOp28
 70
     1
102
RTVSPropertyOp29
 70
     1
102
RTVSPropertyOp30
 70
     1
102
RTVSPropertyOp31
 70
     1
102
RTVSPropertyOp32
 70
     1
102
RTVSPropertyOp33
 70
     1
102
RTVSPropertyOp34
 70
     1
102
RTVSPropertyOp35
 70
     1
102
RTVSPropertyOp36
 70
     1
102
RTVSPropertyOp37
 70
     0
102
RTVSPropertyOp38
 70
     0
102
RTVSPropertyOp39
 70
     0
102
RTVSPropertyOp40
 70
     0
102
RTVSPropertyOp41
 70
     0
102
RTVSPropertyOp42
 70
     0
102
RTVSPropertyOp43
 70
     0
102
RTVSPropertyOp44
 70
     0
102
RTVSPropertyOp45
 70
     1
102
RTVSPropertyOp46
 70
     0
102
RTVSPropertyOp47
 70
     0
102
RTVSPropertyOp48
 70
     0
102
RTVSPropertyOp49
 70
     1
102
RTVSPropertyOp50
 70
     0
102
RTVSPropertyOp51
 70
     0
102
RTVSPropertyOp52
 70
     0
102
RTVSPropertyOp53
 70
     0
102
RTVSPropertyOp54
 70
     0
102
RTVSPropertyOp55
 70
     1
102
RTVSPropertyOp56
 70
     0
102
RTVSPropertyOp57
 70
     0
102
RTVSPropertyOp58
 70
     0
102
RTVSPropertyOp59
 70
     0
102
RTVSPropertyOp60
 70
     0
102
RTVSPropertyOp61
 70
     0
102
RTVSPropertyOp62
 70
     0
  0
XRECORD
  5
3399
102
{ACAD_REACTORS
330
3398
102
}
330
3398
100
AcDbXrecord
280
     1
102
RTVSPost2010Prop28
280
     0
102
RTVSPost2010PropOp28
 70
     1
102
RTVSPost2010Prop29
280
     1
102
RTVSPost2010PropOp29
 70
     1
102
RTVSPost2010Prop30
280
     1
102
RTVSPost2010PropOp30
 70
     1
102
RTVSPost2010Prop31
280
     0
102
RTVSPost2010PropOp31
 70
     1
102
RTVSPost2010Prop32
280
     0
102
RTVSPost2010PropOp32
 70
     1
102
RTVSPost2010Prop33
280
     0
102
RTVSPost2010PropOp33
 70
     1
102
RTVSPost2010Prop34
280
     0
102
RTVSPost2010PropOp34
 70
     1
102
RTVSPost2010Prop35
280
     0
102
RTVSPost2010PropOp35
 70
     1
102
RTVSPost2010Prop36
280
     0
102
RTVSPost2010PropOp36
 70
     1
102
RTVSPost2010Prop37
 90
       50
102
RTVSPost2010PropOp37
 70
     1
102
RTVSPost2010Prop38
140
0.0
102
RTVSPost2010PropOp38
 70
     1
102
RTVSPost2010Prop39
140
1.0
102
RTVSPost2010PropOp39
 70
     1
102
RTVSPost2010Prop40
 90
        0
102
RTVSPost2010PropOp40
 70
     1
102
RTVSPost2010Prop41ColorIndex
 90
       18
102
RTVSPost2010Prop41ColorRGB
 90
        0
102
RTVSPost2010PropOp41
 70
     1
102
RTVSPost2010Prop42
 90
       50
102
RTVSPost2010PropOp42
 70
     1
102
RTVSPost2010Prop43
 90
        3
102
RTVSPost2010PropOp43
 70
     1
102
RTVSPost2010Prop44ColorIndex
 90
        5
102
RTVSPost2010Prop44ColorRGB
 90
      255
102
RTVSPost2010PropOp44
 70
     1
102
RTVSPost2010Prop45
280
     0
102
RTVSPost2010PropOp45
 70
     1
102
RTVSPost2010Prop46
 90
       50
102
RTVSPost2010PropOp46
 70
     1
102
RTVSPost2010Prop47
 90
       50
102
RTVSPost2010PropOp47
 70
     1
102
RTVSPost2010Prop48
 90
       50
102
RTVSPost2010PropOp48
 70
     1
102
RTVSPost2010Prop49
280
     0
102
RTVSPost2010PropOp49
 70
     1
102
RTVSPost2010Prop50
 90
       50
102
RTVSPost2010PropOp50
 70
     1
102
RTVSPost2010Prop51ColorIndex
 90
      256
102
RTVSPost2010Prop51ColorRGB
 90
-16777216
102
RTVSPost2010PropOp51
 70
     0
102
RTVSPost2010Prop52
140
1.0
102
RTVSPost2010PropOp52
 70
     0
102
RTVSPost2010Prop53
 90
        2
102
RTVSPost2010PropOp53
 70
     1
102
RTVSPost2010Prop54
  1
strokes_ogs.tif
102
RTVSPost2010PropOp54
 70
     1
102
RTVSPost2010Prop55
280
     0
102
RTVSPost2010PropOp55
 70
     1
102
RTVSPost2010Prop56
140
1.0
102
RTVSPost2010PropOp56
 70
     1
102
RTVSPost2010Prop57
140
1.0
102
RTVSPost2010PropOp57
 70
     1
102
RTVSPropertyOp0
 70
     1
102
RTVSPropertyOp1
 70
     1
102
RTVSPropertyOp2
 70
     1
102
RTVSPropertyOp3
 70
     1
102
RTVSPropertyOp4
 70
     1
102
RTVSPropertyOp5
 70
     1
102
RTVSPropertyOp6
 70
     1
102
RTVSPropertyOp7
 70
     1
102
RTVSPropertyOp8
 70
     1
102
RTVSPropertyOp9
 70
     1
102
RTVSPropertyOp10
 70
     1
102
RTVSPropertyOp11
 70
     1
102
RTVSPropertyOp12
 70
     1
102
RTVSPropertyOp13
 70
     1
102
RTVSPropertyOp14
 70
     1
102
RTVSPropertyOp15
 70
     1
102
RTVSPropertyOp16
 70
     1
102
RTVSPropertyOp17
 70
     1
102
RTVSPropertyOp18
 70
     1
102
RTVSPropertyOp19
 70
     1
102
RTVSPropertyOp20
 70
     1
102
RTVSPropertyOp21
 70
     1
102
RTVSPropertyOp22
 70
     1
102
RTVSPropertyOp23
 70
     1
102
RTVSPropertyOp24
 70
     1
102
RTVSPropertyOp25
 70
     1
102
RTVSPropertyOp26
 70
     1
102
RTVSPropertyOp27
 70
     1
102
RTVSPropertyOp28
 70
     1
102
RTVSPropertyOp29
 70
     1
102
RTVSPropertyOp30
 70
     1
102
RTVSPropertyOp31
 70
     1
102
RTVSPropertyOp32
 70
     1
102
RTVSPropertyOp33
 70
     1
102
RTVSPropertyOp34
 70
     1
102
RTVSPropertyOp35
 70
     1
102
RTVSPropertyOp36
 70
     1
102
RTVSPropertyOp37
 70
     1
102
RTVSPropertyOp38
 70
     1
102
RTVSPropertyOp39
 70
     1
102
RTVSPropertyOp40
 70
     1
102
RTVSPropertyOp41
 70
     1
102
RTVSPropertyOp42
 70
     1
102
RTVSPropertyOp43
 70
     1
102
RTVSPropertyOp44
 70
     1
102
RTVSPropertyOp45
 70
     1
102
RTVSPropertyOp46
 70
     1
102
RTVSPropertyOp47
 70
     1
102
RTVSPropertyOp48
 70
     1
102
RTVSPropertyOp49
 70
     1
102
RTVSPropertyOp50
 70
     1
102
RTVSPropertyOp51
 70
     0
102
RTVSPropertyOp52
 70
     0
102
RTVSPropertyOp53
 70
     1
102
RTVSPropertyOp54
 70
     1
102
RTVSPropertyOp55
 70
     1
102
RTVSPropertyOp56
 70
     1
102
RTVSPropertyOp57
 70
     1
102
RTVSPropertyOp58
 70
     1
102
RTVSPropertyOp59
 70
     1
102
RTVSPropertyOp60
 70
     1
102
RTVSPropertyOp61
 70
     1
102
RTVSPropertyOp62
 70
     1
  0
XRECORD
  5
33AF
102
{ACAD_REACTORS
330
33AE
102
}
330
33AE
100
AcDbXrecord
280
     1
102
RTVSPost2010Prop28
280
     0
102
RTVSPost2010PropOp28
 70
     1
102
RTVSPost2010Prop29
280
     1
102
RTVSPost2010PropOp29
 70
     1
102
RTVSPost2010Prop30
280
     1
102
RTVSPost2010PropOp30
 70
     1
102
RTVSPost2010Prop31
280
     0
102
RTVSPost2010PropOp31
 70
     1
102
RTVSPost2010Prop32
280
     0
102
RTVSPost2010PropOp32
 70
     1
102
RTVSPost2010Prop33
280
     0
102
RTVSPost2010PropOp33
 70
     1
102
RTVSPost2010Prop34
280
     0
102
RTVSPost2010PropOp34
 70
     1
102
RTVSPost2010Prop35
280
     0
102
RTVSPost2010PropOp35
 70
     1
102
RTVSPost2010Prop36
280
     0
102
RTVSPost2010PropOp36
 70
     1
102
RTVSPost2010Prop37
 90
       50
102
RTVSPost2010PropOp37
 70
     1
102
RTVSPost2010Prop38
140
0.0
102
RTVSPost2010PropOp38
 70
     1
102
RTVSPost2010Prop39
140
1.0
102
RTVSPost2010PropOp39
 70
     1
102
RTVSPost2010Prop40
 90
        0
102
RTVSPost2010PropOp40
 70
     1
102
RTVSPost2010Prop41ColorIndex
 90
       18
102
RTVSPost2010Prop41ColorRGB
 90
        0
102
RTVSPost2010PropOp41
 70
     1
102
RTVSPost2010Prop42
 90
       50
102
RTVSPost2010PropOp42
 70
     1
102
RTVSPost2010Prop43
 90
        3
102
RTVSPost2010PropOp43
 70
     1
102
RTVSPost2010Prop44ColorIndex
 90
        5
102
RTVSPost2010Prop44ColorRGB
 90
      255
102
RTVSPost2010PropOp44
 70
     1
102
RTVSPost2010Prop45
280
     0
102
RTVSPost2010PropOp45
 70
     1
102
RTVSPost2010Prop46
 90
       50
102
RTVSPost2010PropOp46
 70
     1
102
RTVSPost2010Prop47
 90
       50
102
RTVSPost2010PropOp47
 70
     1
102
RTVSPost2010Prop48
 90
       50
102
RTVSPost2010PropOp48
 70
     1
102
RTVSPost2010Prop49
280
     0
102
RTVSPost2010PropOp49
 70
     1
102
RTVSPost2010Prop50
 90
       50
102
RTVSPost2010PropOp50
 70
     1
102
RTVSPost2010Prop51ColorIndex
 90
      256
102
RTVSPost2010Prop51ColorRGB
 90
-16777216
102
RTVSPost2010PropOp51
 70
     0
102
RTVSPost2010Prop52
140
1.0
102
RTVSPost2010PropOp52
 70
     0
102
RTVSPost2010Prop53
 90
        2
102
RTVSPost2010PropOp53
 70
     1
102
RTVSPost2010Prop54
  1
strokes_ogs.tif
102
RTVSPost2010PropOp54
 70
     1
102
RTVSPost2010Prop55
280
     0
102
RTVSPost2010PropOp55
 70
     1
102
RTVSPost2010Prop56
140
1.0
102
RTVSPost2010PropOp56
 70
     1
102
RTVSPost2010Prop57
140
1.0
102
RTVSPost2010PropOp57
 70
     1
102
RTVSPropertyOp0
 70
     1
102
RTVSPropertyOp1
 70
     1
102
RTVSPropertyOp2
 70
     1
102
RTVSPropertyOp3
 70
     1
102
RTVSPropertyOp4
 70
     1
102
RTVSPropertyOp5
 70
     1
102
RTVSPropertyOp6
 70
     1
102
RTVSPropertyOp7
 70
     1
102
RTVSPropertyOp8
 70
     1
102
RTVSPropertyOp9
 70
     1
102
RTVSPropertyOp10
 70
     1
102
RTVSPropertyOp11
 70
     1
102
RTVSPropertyOp12
 70
     1
102
RTVSPropertyOp13
 70
     1
102
RTVSPropertyOp14
 70
     1
102
RTVSPropertyOp15
 70
     1
102
RTVSPropertyOp16
 70
     1
102
RTVSPropertyOp17
 70
     1
102
RTVSPropertyOp18
 70
     1
102
RTVSPropertyOp19
 70
     1
102
RTVSPropertyOp20
 70
     1
102
RTVSPropertyOp21
 70
     1
102
RTVSPropertyOp22
 70
     1
102
RTVSPropertyOp23
 70
     1
102
RTVSPropertyOp24
 70
     1
102
RTVSPropertyOp25
 70
     1
102
RTVSPropertyOp26
 70
     1
102
RTVSPropertyOp27
 70
     1
102
RTVSPropertyOp28
 70
     1
102
RTVSPropertyOp29
 70
     1
102
RTVSPropertyOp30
 70
     1
102
RTVSPropertyOp31
 70
     1
102
RTVSPropertyOp32
 70
     1
102
RTVSPropertyOp33
 70
     1
102
RTVSPropertyOp34
 70
     1
102
RTVSPropertyOp35
 70
     1
102
RTVSPropertyOp36
 70
     1
102
RTVSPropertyOp37
 70
     1
102
RTVSPropertyOp38
 70
     1
102
RTVSPropertyOp39
 70
     1
102
RTVSPropertyOp40
 70
     1
102
RTVSPropertyOp41
 70
     1
102
RTVSPropertyOp42
 70
     1
102
RTVSPropertyOp43
 70
     1
102
RTVSPropertyOp44
 70
     1
102
RTVSPropertyOp45
 70
     1
102
RTVSPropertyOp46
 70
     1
102
RTVSPropertyOp47
 70
     1
102
RTVSPropertyOp48
 70
     1
102
RTVSPropertyOp49
 70
     1
102
RTVSPropertyOp50
 70
     1
102
RTVSPropertyOp51
 70
     0
102
RTVSPropertyOp52
 70
     0
102
RTVSPropertyOp53
 70
     1
102
RTVSPropertyOp54
 70
     1
102
RTVSPropertyOp55
 70
     1
102
RTVSPropertyOp56
 70
     1
102
RTVSPropertyOp57
 70
     1
102
RTVSPropertyOp58
 70
     1
102
RTVSPropertyOp59
 70
     1
102
RTVSPropertyOp60
 70
     1
102
RTVSPropertyOp61
 70
     1
102
RTVSPropertyOp62
 70
     1
  0
XRECORD
  5
33AD
102
{ACAD_REACTORS
330
33AC
102
}
330
33AC
100
AcDbXrecord
280
     1
102
RTVSPost2010Prop28
280
     0
102
RTVSPost2010PropOp28
 70
     1
102
RTVSPost2010Prop29
280
     1
102
RTVSPost2010PropOp29
 70
     1
102
RTVSPost2010Prop30
280
     1
102
RTVSPost2010PropOp30
 70
     1
102
RTVSPost2010Prop31
280
     0
102
RTVSPost2010PropOp31
 70
     1
102
RTVSPost2010Prop32
280
     0
102
RTVSPost2010PropOp32
 70
     1
102
RTVSPost2010Prop33
280
     0
102
RTVSPost2010PropOp33
 70
     1
102
RTVSPost2010Prop34
280
     0
102
RTVSPost2010PropOp34
 70
     1
102
RTVSPost2010Prop35
280
     0
102
RTVSPost2010PropOp35
 70
     1
102
RTVSPost2010Prop36
280
     0
102
RTVSPost2010PropOp36
 70
     1
102
RTVSPost2010Prop37
 90
       50
102
RTVSPost2010PropOp37
 70
     1
102
RTVSPost2010Prop38
140
0.0
102
RTVSPost2010PropOp38
 70
     1
102
RTVSPost2010Prop39
140
1.0
102
RTVSPost2010PropOp39
 70
     1
102
RTVSPost2010Prop40
 90
        0
102
RTVSPost2010PropOp40
 70
     1
102
RTVSPost2010Prop41ColorIndex
 90
       18
102
RTVSPost2010Prop41ColorRGB
 90
        0
102
RTVSPost2010PropOp41
 70
     1
102
RTVSPost2010Prop42
 90
       50
102
RTVSPost2010PropOp42
 70
     1
102
RTVSPost2010Prop43
 90
        3
102
RTVSPost2010PropOp43
 70
     1
102
RTVSPost2010Prop44ColorIndex
 90
        5
102
RTVSPost2010Prop44ColorRGB
 90
      255
102
RTVSPost2010PropOp44
 70
     1
102
RTVSPost2010Prop45
280
     0
102
RTVSPost2010PropOp45
 70
     1
102
RTVSPost2010Prop46
 90
       50
102
RTVSPost2010PropOp46
 70
     1
102
RTVSPost2010Prop47
 90
       50
102
RTVSPost2010PropOp47
 70
     1
102
RTVSPost2010Prop48
 90
       50
102
RTVSPost2010PropOp48
 70
     1
102
RTVSPost2010Prop49
280
     0
102
RTVSPost2010PropOp49
 70
     1
102
RTVSPost2010Prop50
 90
       50
102
RTVSPost2010PropOp50
 70
     1
102
RTVSPost2010Prop51ColorIndex
 90
      256
102
RTVSPost2010Prop51ColorRGB
 90
-16777216
102
RTVSPost2010PropOp51
 70
     0
102
RTVSPost2010Prop52
140
1.0
102
RTVSPost2010PropOp52
 70
     0
102
RTVSPost2010Prop53
 90
        2
102
RTVSPost2010PropOp53
 70
     1
102
RTVSPost2010Prop54
  1
strokes_ogs.tif
102
RTVSPost2010PropOp54
 70
     1
102
RTVSPost2010Prop55
280
     0
102
RTVSPost2010PropOp55
 70
     1
102
RTVSPost2010Prop56
140
1.0
102
RTVSPost2010PropOp56
 70
     1
102
RTVSPost2010Prop57
140
1.0
102
RTVSPost2010PropOp57
 70
     1
102
RTVSPropertyOp0
 70
     1
102
RTVSPropertyOp1
 70
     1
102
RTVSPropertyOp2
 70
     1
102
RTVSPropertyOp3
 70
     1
102
RTVSPropertyOp4
 70
     1
102
RTVSPropertyOp5
 70
     1
102
RTVSPropertyOp6
 70
     1
102
RTVSPropertyOp7
 70
     1
102
RTVSPropertyOp8
 70
     1
102
RTVSPropertyOp9
 70
     1
102
RTVSPropertyOp10
 70
     1
102
RTVSPropertyOp11
 70
     1
102
RTVSPropertyOp12
 70
     1
102
RTVSPropertyOp13
 70
     1
102
RTVSPropertyOp14
 70
     1
102
RTVSPropertyOp15
 70
     1
102
RTVSPropertyOp16
 70
     1
102
RTVSPropertyOp17
 70
     1
102
RTVSPropertyOp18
 70
     1
102
RTVSPropertyOp19
 70
     1
102
RTVSPropertyOp20
 70
     1
102
RTVSPropertyOp21
 70
     1
102
RTVSPropertyOp22
 70
     1
102
RTVSPropertyOp23
 70
     1
102
RTVSPropertyOp24
 70
     1
102
RTVSPropertyOp25
 70
     1
102
RTVSPropertyOp26
 70
     1
102
RTVSPropertyOp27
 70
     1
102
RTVSPropertyOp28
 70
     1
102
RTVSPropertyOp29
 70
     1
102
RTVSPropertyOp30
 70
     1
102
RTVSPropertyOp31
 70
     1
102
RTVSPropertyOp32
 70
     1
102
RTVSPropertyOp33
 70
     1
102
RTVSPropertyOp34
 70
     1
102
RTVSPropertyOp35
 70
     1
102
RTVSPropertyOp36
 70
     1
102
RTVSPropertyOp37
 70
     1
102
RTVSPropertyOp38
 70
     1
102
RTVSPropertyOp39
 70
     1
102
RTVSPropertyOp40
 70
     1
102
RTVSPropertyOp41
 70
     1
102
RTVSPropertyOp42
 70
     1
102
RTVSPropertyOp43
 70
     1
102
RTVSPropertyOp44
 70
     1
102
RTVSPropertyOp45
 70
     1
102
RTVSPropertyOp46
 70
     1
102
RTVSPropertyOp47
 70
     1
102
RTVSPropertyOp48
 70
     1
102
RTVSPropertyOp49
 70
     1
102
RTVSPropertyOp50
 70
     1
102
RTVSPropertyOp51
 70
     0
102
RTVSPropertyOp52
 70
     0
102
RTVSPropertyOp53
 70
     1
102
RTVSPropertyOp54
 70
     1
102
RTVSPropertyOp55
 70
     1
102
RTVSPropertyOp56
 70
     1
102
RTVSPropertyOp57
 70
     1
102
RTVSPropertyOp58
 70
     1
102
RTVSPropertyOp59
 70
     1
102
RTVSPropertyOp60
 70
     1
102
RTVSPropertyOp61
 70
     1
102
RTVSPropertyOp62
 70
     1
  0
XRECORD
  5
33A7
102
{ACAD_REACTORS
330
33A6
102
}
330
33A6
100
AcDbXrecord
280
     1
102
RTVSPost2010Prop28
280
     0
102
RTVSPost2010PropOp28
 70
     1
102
RTVSPost2010Prop29
280
     1
102
RTVSPost2010PropOp29
 70
     1
102
RTVSPost2010Prop30
280
     1
102
RTVSPost2010PropOp30
 70
     1
102
RTVSPost2010Prop31
280
     0
102
RTVSPost2010PropOp31
 70
     1
102
RTVSPost2010Prop32
280
     0
102
RTVSPost2010PropOp32
 70
     1
102
RTVSPost2010Prop33
280
     0
102
RTVSPost2010PropOp33
 70
     1
102
RTVSPost2010Prop34
280
     0
102
RTVSPost2010PropOp34
 70
     1
102
RTVSPost2010Prop35
280
     0
102
RTVSPost2010PropOp35
 70
     1
102
RTVSPost2010Prop36
280
     0
102
RTVSPost2010PropOp36
 70
     1
102
RTVSPost2010Prop37
 90
       50
102
RTVSPost2010PropOp37
 70
     1
102
RTVSPost2010Prop38
140
0.0
102
RTVSPost2010PropOp38
 70
     1
102
RTVSPost2010Prop39
140
1.0
102
RTVSPost2010PropOp39
 70
     1
102
RTVSPost2010Prop40
 90
        0
102
RTVSPost2010PropOp40
 70
     1
102
RTVSPost2010Prop41ColorIndex
 90
       18
102
RTVSPost2010Prop41ColorRGB
 90
        0
102
RTVSPost2010PropOp41
 70
     1
102
RTVSPost2010Prop42
 90
       50
102
RTVSPost2010PropOp42
 70
     1
102
RTVSPost2010Prop43
 90
        3
102
RTVSPost2010PropOp43
 70
     1
102
RTVSPost2010Prop44ColorIndex
 90
        5
102
RTVSPost2010Prop44ColorRGB
 90
      255
102
RTVSPost2010PropOp44
 70
     1
102
RTVSPost2010Prop45
280
     0
102
RTVSPost2010PropOp45
 70
     1
102
RTVSPost2010Prop46
 90
       50
102
RTVSPost2010PropOp46
 70
     1
102
RTVSPost2010Prop47
 90
       50
102
RTVSPost2010PropOp47
 70
     1
102
RTVSPost2010Prop48
 90
       50
102
RTVSPost2010PropOp48
 70
     1
102
RTVSPost2010Prop49
280
     0
102
RTVSPost2010PropOp49
 70
     1
102
RTVSPost2010Prop50
 90
       50
102
RTVSPost2010PropOp50
 70
     1
102
RTVSPost2010Prop51ColorIndex
 90
      256
102
RTVSPost2010Prop51ColorRGB
 90
-16777216
102
RTVSPost2010PropOp51
 70
     0
102
RTVSPost2010Prop52
140
1.0
102
RTVSPost2010PropOp52
 70
     0
102
RTVSPost2010Prop53
 90
        2
102
RTVSPost2010PropOp53
 70
     1
102
RTVSPost2010Prop54
  1
strokes_ogs.tif
102
RTVSPost2010PropOp54
 70
     1
102
RTVSPost2010Prop55
280
     0
102
RTVSPost2010PropOp55
 70
     1
102
RTVSPost2010Prop56
140
1.0
102
RTVSPost2010PropOp56
 70
     1
102
RTVSPost2010Prop57
140
1.0
102
RTVSPost2010PropOp57
 70
     1
102
RTVSPropertyOp0
 70
     1
102
RTVSPropertyOp1
 70
     1
102
RTVSPropertyOp2
 70
     1
102
RTVSPropertyOp3
 70
     1
102
RTVSPropertyOp4
 70
     1
102
RTVSPropertyOp5
 70
     1
102
RTVSPropertyOp6
 70
     1
102
RTVSPropertyOp7
 70
     1
102
RTVSPropertyOp8
 70
     1
102
RTVSPropertyOp9
 70
     1
102
RTVSPropertyOp10
 70
     1
102
RTVSPropertyOp11
 70
     1
102
RTVSPropertyOp12
 70
     1
102
RTVSPropertyOp13
 70
     1
102
RTVSPropertyOp14
 70
     1
102
RTVSPropertyOp15
 70
     1
102
RTVSPropertyOp16
 70
     1
102
RTVSPropertyOp17
 70
     1
102
RTVSPropertyOp18
 70
     1
102
RTVSPropertyOp19
 70
     1
102
RTVSPropertyOp20
 70
     1
102
RTVSPropertyOp21
 70
     1
102
RTVSPropertyOp22
 70
     1
102
RTVSPropertyOp23
 70
     1
102
RTVSPropertyOp24
 70
     1
102
RTVSPropertyOp25
 70
     1
102
RTVSPropertyOp26
 70
     1
102
RTVSPropertyOp27
 70
     1
102
RTVSPropertyOp28
 70
     1
102
RTVSPropertyOp29
 70
     1
102
RTVSPropertyOp30
 70
     1
102
RTVSPropertyOp31
 70
     1
102
RTVSPropertyOp32
 70
     1
102
RTVSPropertyOp33
 70
     1
102
RTVSPropertyOp34
 70
     1
102
RTVSPropertyOp35
 70
     1
102
RTVSPropertyOp36
 70
     1
102
RTVSPropertyOp37
 70
     1
102
RTVSPropertyOp38
 70
     1
102
RTVSPropertyOp39
 70
     1
102
RTVSPropertyOp40
 70
     1
102
RTVSPropertyOp41
 70
     1
102
RTVSPropertyOp42
 70
     1
102
RTVSPropertyOp43
 70
     1
102
RTVSPropertyOp44
 70
     1
102
RTVSPropertyOp45
 70
     1
102
RTVSPropertyOp46
 70
     1
102
RTVSPropertyOp47
 70
     1
102
RTVSPropertyOp48
 70
     1
102
RTVSPropertyOp49
 70
     1
102
RTVSPropertyOp50
 70
     1
102
RTVSPropertyOp51
 70
     0
102
RTVSPropertyOp52
 70
     0
102
RTVSPropertyOp53
 70
     1
102
RTVSPropertyOp54
 70
     1
102
RTVSPropertyOp55
 70
     1
102
RTVSPropertyOp56
 70
     1
102
RTVSPropertyOp57
 70
     1
102
RTVSPropertyOp58
 70
     1
102
RTVSPropertyOp59
 70
     1
102
RTVSPropertyOp60
 70
     1
102
RTVSPropertyOp61
 70
     1
102
RTVSPropertyOp62
 70
     1
  0
XRECORD
  5
33A9
102
{ACAD_REACTORS
330
33A8
102
}
330
33A8
100
AcDbXrecord
280
     1
102
RTVSPost2010Prop28
280
     0
102
RTVSPost2010PropOp28
 70
     1
102
RTVSPost2010Prop29
280
     1
102
RTVSPost2010PropOp29
 70
     1
102
RTVSPost2010Prop30
280
     1
102
RTVSPost2010PropOp30
 70
     1
102
RTVSPost2010Prop31
280
     0
102
RTVSPost2010PropOp31
 70
     1
102
RTVSPost2010Prop32
280
     0
102
RTVSPost2010PropOp32
 70
     1
102
RTVSPost2010Prop33
280
     0
102
RTVSPost2010PropOp33
 70
     1
102
RTVSPost2010Prop34
280
     0
102
RTVSPost2010PropOp34
 70
     1
102
RTVSPost2010Prop35
280
     0
102
RTVSPost2010PropOp35
 70
     1
102
RTVSPost2010Prop36
280
     0
102
RTVSPost2010PropOp36
 70
     1
102
RTVSPost2010Prop37
 90
       50
102
RTVSPost2010PropOp37
 70
     1
102
RTVSPost2010Prop38
140
0.0
102
RTVSPost2010PropOp38
 70
     1
102
RTVSPost2010Prop39
140
1.0
102
RTVSPost2010PropOp39
 70
     1
102
RTVSPost2010Prop40
 90
        0
102
RTVSPost2010PropOp40
 70
     1
102
RTVSPost2010Prop41ColorIndex
 90
       18
102
RTVSPost2010Prop41ColorRGB
 90
        0
102
RTVSPost2010PropOp41
 70
     1
102
RTVSPost2010Prop42
 90
       50
102
RTVSPost2010PropOp42
 70
     1
102
RTVSPost2010Prop43
 90
        3
102
RTVSPost2010PropOp43
 70
     1
102
RTVSPost2010Prop44ColorIndex
 90
        5
102
RTVSPost2010Prop44ColorRGB
 90
      255
102
RTVSPost2010PropOp44
 70
     1
102
RTVSPost2010Prop45
280
     0
102
RTVSPost2010PropOp45
 70
     1
102
RTVSPost2010Prop46
 90
       50
102
RTVSPost2010PropOp46
 70
     1
102
RTVSPost2010Prop47
 90
       50
102
RTVSPost2010PropOp47
 70
     1
102
RTVSPost2010Prop48
 90
       50
102
RTVSPost2010PropOp48
 70
     1
102
RTVSPost2010Prop49
280
     0
102
RTVSPost2010PropOp49
 70
     1
102
RTVSPost2010Prop50
 90
       50
102
RTVSPost2010PropOp50
 70
     1
102
RTVSPost2010Prop51ColorIndex
 90
      256
102
RTVSPost2010Prop51ColorRGB
 90
-16777216
102
RTVSPost2010PropOp51
 70
     0
102
RTVSPost2010Prop52
140
1.0
102
RTVSPost2010PropOp52
 70
     0
102
RTVSPost2010Prop53
 90
        2
102
RTVSPost2010PropOp53
 70
     1
102
RTVSPost2010Prop54
  1
strokes_ogs.tif
102
RTVSPost2010PropOp54
 70
     1
102
RTVSPost2010Prop55
280
     0
102
RTVSPost2010PropOp55
 70
     1
102
RTVSPost2010Prop56
140
1.0
102
RTVSPost2010PropOp56
 70
     1
102
RTVSPost2010Prop57
140
1.0
102
RTVSPost2010PropOp57
 70
     1
102
RTVSPropertyOp0
 70
     1
102
RTVSPropertyOp1
 70
     1
102
RTVSPropertyOp2
 70
     1
102
RTVSPropertyOp3
 70
     1
102
RTVSPropertyOp4
 70
     1
102
RTVSPropertyOp5
 70
     1
102
RTVSPropertyOp6
 70
     1
102
RTVSPropertyOp7
 70
     1
102
RTVSPropertyOp8
 70
     1
102
RTVSPropertyOp9
 70
     1
102
RTVSPropertyOp10
 70
     1
102
RTVSPropertyOp11
 70
     1
102
RTVSPropertyOp12
 70
     1
102
RTVSPropertyOp13
 70
     1
102
RTVSPropertyOp14
 70
     1
102
RTVSPropertyOp15
 70
     1
102
RTVSPropertyOp16
 70
     1
102
RTVSPropertyOp17
 70
     1
102
RTVSPropertyOp18
 70
     1
102
RTVSPropertyOp19
 70
     1
102
RTVSPropertyOp20
 70
     1
102
RTVSPropertyOp21
 70
     1
102
RTVSPropertyOp22
 70
     1
102
RTVSPropertyOp23
 70
     1
102
RTVSPropertyOp24
 70
     1
102
RTVSPropertyOp25
 70
     1
102
RTVSPropertyOp26
 70
     1
102
RTVSPropertyOp27
 70
     1
102
RTVSPropertyOp28
 70
     1
102
RTVSPropertyOp29
 70
     1
102
RTVSPropertyOp30
 70
     1
102
RTVSPropertyOp31
 70
     1
102
RTVSPropertyOp32
 70
     1
102
RTVSPropertyOp33
 70
     1
102
RTVSPropertyOp34
 70
     1
102
RTVSPropertyOp35
 70
     1
102
RTVSPropertyOp36
 70
     1
102
RTVSPropertyOp37
 70
     1
102
RTVSPropertyOp38
 70
     1
102
RTVSPropertyOp39
 70
     1
102
RTVSPropertyOp40
 70
     1
102
RTVSPropertyOp41
 70
     1
102
RTVSPropertyOp42
 70
     1
102
RTVSPropertyOp43
 70
     1
102
RTVSPropertyOp44
 70
     1
102
RTVSPropertyOp45
 70
     1
102
RTVSPropertyOp46
 70
     1
102
RTVSPropertyOp47
 70
     1
102
RTVSPropertyOp48
 70
     1
102
RTVSPropertyOp49
 70
     1
102
RTVSPropertyOp50
 70
     1
102
RTVSPropertyOp51
 70
     0
102
RTVSPropertyOp52
 70
     0
102
RTVSPropertyOp53
 70
     1
102
RTVSPropertyOp54
 70
     1
102
RTVSPropertyOp55
 70
     1
102
RTVSPropertyOp56
 70
     1
102
RTVSPropertyOp57
 70
     1
102
RTVSPropertyOp58
 70
     1
102
RTVSPropertyOp59
 70
     1
102
RTVSPropertyOp60
 70
     1
102
RTVSPropertyOp61
 70
     1
102
RTVSPropertyOp62
 70
     1
  0
XRECORD
  5
339F
102
{ACAD_REACTORS
330
339E
102
}
330
339E
100
AcDbXrecord
280
     1
102
RTVSPost2010Prop28
280
     0
102
RTVSPost2010PropOp28
 70
     1
102
RTVSPost2010Prop29
280
     1
102
RTVSPost2010PropOp29
 70
     1
102
RTVSPost2010Prop30
280
     1
102
RTVSPost2010PropOp30
 70
     1
102
RTVSPost2010Prop31
280
     0
102
RTVSPost2010PropOp31
 70
     1
102
RTVSPost2010Prop32
280
     0
102
RTVSPost2010PropOp32
 70
     1
102
RTVSPost2010Prop33
280
     0
102
RTVSPost2010PropOp33
 70
     1
102
RTVSPost2010Prop34
280
     0
102
RTVSPost2010PropOp34
 70
     1
102
RTVSPost2010Prop35
280
     0
102
RTVSPost2010PropOp35
 70
     1
102
RTVSPost2010Prop36
280
     0
102
RTVSPost2010PropOp36
 70
     1
102
RTVSPost2010Prop37
 90
       50
102
RTVSPost2010PropOp37
 70
     1
102
RTVSPost2010Prop38
140
0.0
102
RTVSPost2010PropOp38
 70
     1
102
RTVSPost2010Prop39
140
1.0
102
RTVSPost2010PropOp39
 70
     1
102
RTVSPost2010Prop40
 90
        0
102
RTVSPost2010PropOp40
 70
     1
102
RTVSPost2010Prop41ColorIndex
 90
       18
102
RTVSPost2010Prop41ColorRGB
 90
        0
102
RTVSPost2010PropOp41
 70
     1
102
RTVSPost2010Prop42
 90
       50
102
RTVSPost2010PropOp42
 70
     1
102
RTVSPost2010Prop43
 90
        3
102
RTVSPost2010PropOp43
 70
     1
102
RTVSPost2010Prop44ColorIndex
 90
        5
102
RTVSPost2010Prop44ColorRGB
 90
      255
102
RTVSPost2010PropOp44
 70
     1
102
RTVSPost2010Prop45
280
     0
102
RTVSPost2010PropOp45
 70
     1
102
RTVSPost2010Prop46
 90
       50
102
RTVSPost2010PropOp46
 70
     1
102
RTVSPost2010Prop47
 90
       50
102
RTVSPost2010PropOp47
 70
     1
102
RTVSPost2010Prop48
 90
       50
102
RTVSPost2010PropOp48
 70
     1
102
RTVSPost2010Prop49
280
     0
102
RTVSPost2010PropOp49
 70
     1
102
RTVSPost2010Prop50
 90
       50
102
RTVSPost2010PropOp50
 70
     1
102
RTVSPost2010Prop51ColorIndex
 90
      256
102
RTVSPost2010Prop51ColorRGB
 90
-16777216
102
RTVSPost2010PropOp51
 70
     0
102
RTVSPost2010Prop52
140
1.0
102
RTVSPost2010PropOp52
 70
     0
102
RTVSPost2010Prop53
 90
        2
102
RTVSPost2010PropOp53
 70
     1
102
RTVSPost2010Prop54
  1
strokes_ogs.tif
102
RTVSPost2010PropOp54
 70
     1
102
RTVSPost2010Prop55
280
     0
102
RTVSPost2010PropOp55
 70
     1
102
RTVSPost2010Prop56
140
1.0
102
RTVSPost2010PropOp56
 70
     1
102
RTVSPost2010Prop57
140
1.0
102
RTVSPost2010PropOp57
 70
     1
102
RTVSPropertyOp0
 70
     1
102
RTVSPropertyOp1
 70
     1
102
RTVSPropertyOp2
 70
     1
102
RTVSPropertyOp3
 70
     1
102
RTVSPropertyOp4
 70
     1
102
RTVSPropertyOp5
 70
     1
102
RTVSPropertyOp6
 70
     1
102
RTVSPropertyOp7
 70
     1
102
RTVSPropertyOp8
 70
     1
102
RTVSPropertyOp9
 70
     1
102
RTVSPropertyOp10
 70
     1
102
RTVSPropertyOp11
 70
     1
102
RTVSPropertyOp12
 70
     1
102
RTVSPropertyOp13
 70
     1
102
RTVSPropertyOp14
 70
     1
102
RTVSPropertyOp15
 70
     1
102
RTVSPropertyOp16
 70
     1
102
RTVSPropertyOp17
 70
     1
102
RTVSPropertyOp18
 70
     1
102
RTVSPropertyOp19
 70
     1
102
RTVSPropertyOp20
 70
     1
102
RTVSPropertyOp21
 70
     1
102
RTVSPropertyOp22
 70
     1
102
RTVSPropertyOp23
 70
     1
102
RTVSPropertyOp24
 70
     1
102
RTVSPropertyOp25
 70
     1
102
RTVSPropertyOp26
 70
     1
102
RTVSPropertyOp27
 70
     1
102
RTVSPropertyOp28
 70
     1
102
RTVSPropertyOp29
 70
     1
102
RTVSPropertyOp30
 70
     1
102
RTVSPropertyOp31
 70
     1
102
RTVSPropertyOp32
 70
     1
102
RTVSPropertyOp33
 70
     1
102
RTVSPropertyOp34
 70
     1
102
RTVSPropertyOp35
 70
     1
102
RTVSPropertyOp36
 70
     1
102
RTVSPropertyOp37
 70
     1
102
RTVSPropertyOp38
 70
     1
102
RTVSPropertyOp39
 70
     1
102
RTVSPropertyOp40
 70
     1
102
RTVSPropertyOp41
 70
     1
102
RTVSPropertyOp42
 70
     1
102
RTVSPropertyOp43
 70
     1
102
RTVSPropertyOp44
 70
     1
102
RTVSPropertyOp45
 70
     1
102
RTVSPropertyOp46
 70
     1
102
RTVSPropertyOp47
 70
     1
102
RTVSPropertyOp48
 70
     1
102
RTVSPropertyOp49
 70
     1
102
RTVSPropertyOp50
 70
     1
102
RTVSPropertyOp51
 70
     0
102
RTVSPropertyOp52
 70
     0
102
RTVSPropertyOp53
 70
     1
102
RTVSPropertyOp54
 70
     1
102
RTVSPropertyOp55
 70
     1
102
RTVSPropertyOp56
 70
     1
102
RTVSPropertyOp57
 70
     1
102
RTVSPropertyOp58
 70
     1
102
RTVSPropertyOp59
 70
     1
102
RTVSPropertyOp60
 70
     1
102
RTVSPropertyOp61
 70
     1
102
RTVSPropertyOp62
 70
     1
  0
XRECORD
  5
3393
102
{ACAD_REACTORS
330
3392
102
}
330
3392
100
AcDbXrecord
280
     1
102
RTVSPost2010Prop28
280
     0
102
RTVSPost2010PropOp28
 70
     1
102
RTVSPost2010Prop29
280
     1
102
RTVSPost2010PropOp29
 70
     1
102
RTVSPost2010Prop30
280
     1
102
RTVSPost2010PropOp30
 70
     1
102
RTVSPost2010Prop31
280
     0
102
RTVSPost2010PropOp31
 70
     1
102
RTVSPost2010Prop32
280
     0
102
RTVSPost2010PropOp32
 70
     1
102
RTVSPost2010Prop33
280
     0
102
RTVSPost2010PropOp33
 70
     1
102
RTVSPost2010Prop34
280
     0
102
RTVSPost2010PropOp34
 70
     1
102
RTVSPost2010Prop35
280
     0
102
RTVSPost2010PropOp35
 70
     1
102
RTVSPost2010Prop36
280
     0
102
RTVSPost2010PropOp36
 70
     1
102
RTVSPost2010Prop37
 90
       50
102
RTVSPost2010PropOp37
 70
     1
102
RTVSPost2010Prop38
140
0.0
102
RTVSPost2010PropOp38
 70
     1
102
RTVSPost2010Prop39
140
1.0
102
RTVSPost2010PropOp39
 70
     1
102
RTVSPost2010Prop40
 90
        0
102
RTVSPost2010PropOp40
 70
     1
102
RTVSPost2010Prop41ColorIndex
 90
       18
102
RTVSPost2010Prop41ColorRGB
 90
        0
102
RTVSPost2010PropOp41
 70
     1
102
RTVSPost2010Prop42
 90
       50
102
RTVSPost2010PropOp42
 70
     1
102
RTVSPost2010Prop43
 90
        3
102
RTVSPost2010PropOp43
 70
     1
102
RTVSPost2010Prop44ColorIndex
 90
        5
102
RTVSPost2010Prop44ColorRGB
 90
      255
102
RTVSPost2010PropOp44
 70
     1
102
RTVSPost2010Prop45
280
     0
102
RTVSPost2010PropOp45
 70
     1
102
RTVSPost2010Prop46
 90
       50
102
RTVSPost2010PropOp46
 70
     1
102
RTVSPost2010Prop47
 90
       50
102
RTVSPost2010PropOp47
 70
     1
102
RTVSPost2010Prop48
 90
       50
102
RTVSPost2010PropOp48
 70
     1
102
RTVSPost2010Prop49
280
     0
102
RTVSPost2010PropOp49
 70
     1
102
RTVSPost2010Prop50
 90
       50
102
RTVSPost2010PropOp50
 70
     1
102
RTVSPost2010Prop51ColorIndex
 90
      256
102
RTVSPost2010Prop51ColorRGB
 90
-16777216
102
RTVSPost2010PropOp51
 70
     0
102
RTVSPost2010Prop52
140
1.0
102
RTVSPost2010PropOp52
 70
     0
102
RTVSPost2010Prop53
 90
        2
102
RTVSPost2010PropOp53
 70
     1
102
RTVSPost2010Prop54
  1
strokes_ogs.tif
102
RTVSPost2010PropOp54
 70
     1
102
RTVSPost2010Prop55
280
     0
102
RTVSPost2010PropOp55
 70
     1
102
RTVSPost2010Prop56
140
1.0
102
RTVSPost2010PropOp56
 70
     1
102
RTVSPost2010Prop57
140
1.0
102
RTVSPost2010PropOp57
 70
     1
102
RTVSPropertyOp0
 70
     1
102
RTVSPropertyOp1
 70
     1
102
RTVSPropertyOp2
 70
     1
102
RTVSPropertyOp3
 70
     1
102
RTVSPropertyOp4
 70
     1
102
RTVSPropertyOp5
 70
     1
102
RTVSPropertyOp6
 70
     1
102
RTVSPropertyOp7
 70
     1
102
RTVSPropertyOp8
 70
     1
102
RTVSPropertyOp9
 70
     1
102
RTVSPropertyOp10
 70
     1
102
RTVSPropertyOp11
 70
     1
102
RTVSPropertyOp12
 70
     1
102
RTVSPropertyOp13
 70
     1
102
RTVSPropertyOp14
 70
     1
102
RTVSPropertyOp15
 70
     1
102
RTVSPropertyOp16
 70
     1
102
RTVSPropertyOp17
 70
     1
102
RTVSPropertyOp18
 70
     1
102
RTVSPropertyOp19
 70
     1
102
RTVSPropertyOp20
 70
     1
102
RTVSPropertyOp21
 70
     1
102
RTVSPropertyOp22
 70
     1
102
RTVSPropertyOp23
 70
     1
102
RTVSPropertyOp24
 70
     1
102
RTVSPropertyOp25
 70
     1
102
RTVSPropertyOp26
 70
     1
102
RTVSPropertyOp27
 70
     1
102
RTVSPropertyOp28
 70
     1
102
RTVSPropertyOp29
 70
     1
102
RTVSPropertyOp30
 70
     1
102
RTVSPropertyOp31
 70
     1
102
RTVSPropertyOp32
 70
     1
102
RTVSPropertyOp33
 70
     1
102
RTVSPropertyOp34
 70
     1
102
RTVSPropertyOp35
 70
     1
102
RTVSPropertyOp36
 70
     1
102
RTVSPropertyOp37
 70
     1
102
RTVSPropertyOp38
 70
     1
102
RTVSPropertyOp39
 70
     1
102
RTVSPropertyOp40
 70
     1
102
RTVSPropertyOp41
 70
     1
102
RTVSPropertyOp42
 70
     1
102
RTVSPropertyOp43
 70
     1
102
RTVSPropertyOp44
 70
     1
102
RTVSPropertyOp45
 70
     1
102
RTVSPropertyOp46
 70
     1
102
RTVSPropertyOp47
 70
     1
102
RTVSPropertyOp48
 70
     1
102
RTVSPropertyOp49
 70
     1
102
RTVSPropertyOp50
 70
     1
102
RTVSPropertyOp51
 70
     0
102
RTVSPropertyOp52
 70
     0
102
RTVSPropertyOp53
 70
     1
102
RTVSPropertyOp54
 70
     1
102
RTVSPropertyOp55
 70
     1
102
RTVSPropertyOp56
 70
     1
102
RTVSPropertyOp57
 70
     1
102
RTVSPropertyOp58
 70
     1
102
RTVSPropertyOp59
 70
     1
102
RTVSPropertyOp60
 70
     1
102
RTVSPropertyOp61
 70
     1
102
RTVSPropertyOp62
 70
     1
  0
XRECORD
  5
33AB
102
{ACAD_REACTORS
330
33AA
102
}
330
33AA
100
AcDbXrecord
280
     1
102
RTVSPost2010Prop28
280
     0
102
RTVSPost2010PropOp28
 70
     1
102
RTVSPost2010Prop29
280
     1
102
RTVSPost2010PropOp29
 70
     1
102
RTVSPost2010Prop30
280
     1
102
RTVSPost2010PropOp30
 70
     1
102
RTVSPost2010Prop31
280
     0
102
RTVSPost2010PropOp31
 70
     1
102
RTVSPost2010Prop32
280
     0
102
RTVSPost2010PropOp32
 70
     1
102
RTVSPost2010Prop33
280
     0
102
RTVSPost2010PropOp33
 70
     1
102
RTVSPost2010Prop34
280
     0
102
RTVSPost2010PropOp34
 70
     1
102
RTVSPost2010Prop35
280
     0
102
RTVSPost2010PropOp35
 70
     1
102
RTVSPost2010Prop36
280
     0
102
RTVSPost2010PropOp36
 70
     1
102
RTVSPost2010Prop37
 90
       50
102
RTVSPost2010PropOp37
 70
     1
102
RTVSPost2010Prop38
140
0.0
102
RTVSPost2010PropOp38
 70
     1
102
RTVSPost2010Prop39
140
1.0
102
RTVSPost2010PropOp39
 70
     1
102
RTVSPost2010Prop40
 90
        0
102
RTVSPost2010PropOp40
 70
     1
102
RTVSPost2010Prop41ColorIndex
 90
       18
102
RTVSPost2010Prop41ColorRGB
 90
        0
102
RTVSPost2010PropOp41
 70
     1
102
RTVSPost2010Prop42
 90
       50
102
RTVSPost2010PropOp42
 70
     1
102
RTVSPost2010Prop43
 90
        3
102
RTVSPost2010PropOp43
 70
     1
102
RTVSPost2010Prop44ColorIndex
 90
        5
102
RTVSPost2010Prop44ColorRGB
 90
      255
102
RTVSPost2010PropOp44
 70
     1
102
RTVSPost2010Prop45
280
     0
102
RTVSPost2010PropOp45
 70
     1
102
RTVSPost2010Prop46
 90
       50
102
RTVSPost2010PropOp46
 70
     1
102
RTVSPost2010Prop47
 90
       50
102
RTVSPost2010PropOp47
 70
     1
102
RTVSPost2010Prop48
 90
       50
102
RTVSPost2010PropOp48
 70
     1
102
RTVSPost2010Prop49
280
     0
102
RTVSPost2010PropOp49
 70
     1
102
RTVSPost2010Prop50
 90
       50
102
RTVSPost2010PropOp50
 70
     1
102
RTVSPost2010Prop51ColorIndex
 90
      256
102
RTVSPost2010Prop51ColorRGB
 90
-16777216
102
RTVSPost2010PropOp51
 70
     0
102
RTVSPost2010Prop52
140
1.0
102
RTVSPost2010PropOp52
 70
     0
102
RTVSPost2010Prop53
 90
        2
102
RTVSPost2010PropOp53
 70
     1
102
RTVSPost2010Prop54
  1
strokes_ogs.tif
102
RTVSPost2010PropOp54
 70
     1
102
RTVSPost2010Prop55
280
     0
102
RTVSPost2010PropOp55
 70
     1
102
RTVSPost2010Prop56
140
1.0
102
RTVSPost2010PropOp56
 70
     1
102
RTVSPost2010Prop57
140
1.0
102
RTVSPost2010PropOp57
 70
     1
102
RTVSPropertyOp0
 70
     1
102
RTVSPropertyOp1
 70
     1
102
RTVSPropertyOp2
 70
     1
102
RTVSPropertyOp3
 70
     1
102
RTVSPropertyOp4
 70
     1
102
RTVSPropertyOp5
 70
     1
102
RTVSPropertyOp6
 70
     1
102
RTVSPropertyOp7
 70
     1
102
RTVSPropertyOp8
 70
     1
102
RTVSPropertyOp9
 70
     1
102
RTVSPropertyOp10
 70
     1
102
RTVSPropertyOp11
 70
     1
102
RTVSPropertyOp12
 70
     1
102
RTVSPropertyOp13
 70
     1
102
RTVSPropertyOp14
 70
     1
102
RTVSPropertyOp15
 70
     1
102
RTVSPropertyOp16
 70
     1
102
RTVSPropertyOp17
 70
     1
102
RTVSPropertyOp18
 70
     1
102
RTVSPropertyOp19
 70
     1
102
RTVSPropertyOp20
 70
     1
102
RTVSPropertyOp21
 70
     1
102
RTVSPropertyOp22
 70
     1
102
RTVSPropertyOp23
 70
     1
102
RTVSPropertyOp24
 70
     1
102
RTVSPropertyOp25
 70
     1
102
RTVSPropertyOp26
 70
     1
102
RTVSPropertyOp27
 70
     1
102
RTVSPropertyOp28
 70
     1
102
RTVSPropertyOp29
 70
     1
102
RTVSPropertyOp30
 70
     1
102
RTVSPropertyOp31
 70
     1
102
RTVSPropertyOp32
 70
     1
102
RTVSPropertyOp33
 70
     1
102
RTVSPropertyOp34
 70
     1
102
RTVSPropertyOp35
 70
     1
102
RTVSPropertyOp36
 70
     1
102
RTVSPropertyOp37
 70
     1
102
RTVSPropertyOp38
 70
     1
102
RTVSPropertyOp39
 70
     1
102
RTVSPropertyOp40
 70
     1
102
RTVSPropertyOp41
 70
     1
102
RTVSPropertyOp42
 70
     1
102
RTVSPropertyOp43
 70
     1
102
RTVSPropertyOp44
 70
     1
102
RTVSPropertyOp45
 70
     1
102
RTVSPropertyOp46
 70
     1
102
RTVSPropertyOp47
 70
     1
102
RTVSPropertyOp48
 70
     1
102
RTVSPropertyOp49
 70
     1
102
RTVSPropertyOp50
 70
     1
102
RTVSPropertyOp51
 70
     0
102
RTVSPropertyOp52
 70
     0
102
RTVSPropertyOp53
 70
     1
102
RTVSPropertyOp54
 70
     1
102
RTVSPropertyOp55
 70
     1
102
RTVSPropertyOp56
 70
     1
102
RTVSPropertyOp57
 70
     1
102
RTVSPropertyOp58
 70
     1
102
RTVSPropertyOp59
 70
     1
102
RTVSPropertyOp60
 70
     1
102
RTVSPropertyOp61
 70
     1
102
RTVSPropertyOp62
 70
     1
  0
ENDSEC
  0
EOF
