  0
SECTION
  2
HEADER
  9
$ACADVER
  1
AC1015
  9
$ACADMAINTVER
 70
    20
  9
$DWGCODEPAGE
  3
ANSI_932
  9
$INSBASE
 10
0.0
 20
0.0
 30
0.0
  9
$EXTMIN
 10
9.9999975266385
 20
10.0
 30
0.0
  9
$EXTMAX
 10
291.6379565258889
 20
217.5416374639656
 30
0.0
  9
$LIMMIN
 10
0.0000015376081137
 20
-0.0000001931532552
  9
$LIMMAX
 10
396.0000015376081
 20
272.9999998068465
  9
$ORTHOMODE
 70
     1
  9
$REGENMODE
 70
     1
  9
$FILLMODE
 70
     1
  9
$QTEXTMODE
 70
     0
  9
$MIRRTEXT
 70
     1
  9
$LTSCALE
 40
1.0
  9
$ATTMODE
 70
     1
  9
$TEXTSIZE
 40
2.5
  9
$TRACEWID
 40
1.0
  9
$TEXTSTYLE
  7
STANDARD
  9
$CLAYER
  8
0
  9
$CELTYPE
  6
BYLAYER
  9
$CECOLOR
 62
   256
  9
$CELTSCALE
 40
1.0
  9
$DISPSILH
 70
     0
  9
$DIMSCALE
 40
1.0
  9
$DIMASZ
 40
3.0
  9
$DIMEXO
 40
1.0
  9
$DIMDLI
 40
10.0
  9
$DIMRND
 40
0.0
  9
$DIMDLE
 40
0.0
  9
$DIMEXE
 40
1.0
  9
$DIMTP
 40
0.0
  9
$DIMTM
 40
0.0
  9
$DIMTXT
 40
2.5
  9
$DIMCEN
 40
0.0
  9
$DIMTSZ
 40
0.0
  9
$DIMTOL
 70
     0
  9
$DIMLIM
 70
     0
  9
$DIMTIH
 70
     0
  9
$DIMTOH
 70
     0
  9
$DIMSE1
 70
     0
  9
$DIMSE2
 70
     0
  9
$DIMTAD
 70
     3
  9
$DIMZIN
 70
     8
  9
$DIMBLK
  1

  9
$DIMASO
 70
     1
  9
$DIMSHO
 70
     1
  9
$DIMPOST
  1

  9
$DIMAPOST
  1

  9
$DIMALT
 70
     0
  9
$DIMALTD
 70
     2
  9
$DIMALTF
 40
25.4
  9
$DIMLFAC
 40
1.0
  9
$DIMTOFL
 70
     1
  9
$DIMTVP
 40
0.0
  9
$DIMTIX
 70
     0
  9
$DIMSOXD
 70
     0
  9
$DIMSAH
 70
     1
  9
$DIMBLK1
  1
OPEN
  9
$DIMBLK2
  1
OPEN
  9
$DIMSTYLE
  2
STANDARD
  9
$DIMCLRD
 70
     0
  9
$DIMCLRE
 70
     0
  9
$DIMCLRT
 70
     0
  9
$DIMTFAC
 40
1.0
  9
$DIMGAP
 40
1.0
  9
$DIMJUST
 70
     0
  9
$DIMSD1
 70
     0
  9
$DIMSD2
 70
     0
  9
$DIMTOLJ
 70
     1
  9
$DIMTZIN
 70
     0
  9
$DIMALTZ
 70
     0
  9
$DIMALTTZ
 70
     0
  9
$DIMUPT
 70
     0
  9
$DIMDEC
 70
     4
  9
$DIMTDEC
 70
     4
  9
$DIMALTU
 70
     2
  9
$DIMALTTD
 70
     2
  9
$DIMTXSTY
  7
STANDARD
  9
$DIMAUNIT
 70
     0
  9
$DIMADEC
 70
     0
  9
$DIMALTRND
 40
0.0
  9
$DIMAZIN
 70
     0
  9
$DIMDSEP
 70
    46
  9
$DIMATFIT
 70
     3
  9
$DIMFRAC
 70
     0
  9
$DIMLDRBLK
  1
OPEN
  9
$DIMLUNIT
 70
     2
  9
$DIMLWD
 70
    -2
  9
$DIMLWE
 70
    -2
  9
$DIMTMOVE
 70
     0
  9
$LUNITS
 70
     2
  9
$LUPREC
 70
     4
  9
$SKETCHINC
 40
1.0
  9
$FILLETRAD
 40
0.0
  9
$AUNITS
 70
     0
  9
$AUPREC
 70
     0
  9
$MENU
  1
.
  9
$ELEVATION
 40
0.0
  9
$PELEVATION
 40
0.0
  9
$THICKNESS
 40
0.0
  9
$LIMCHECK
 70
     0
  9
$CHAMFERA
 40
10.0
  9
$CHAMFERB
 40
10.0
  9
$CHAMFERC
 40
20.0
  9
$CHAMFERD
 40
0.0
  9
$SKPOLY
 70
     0
  9
$TDCREATE
 40
2454525.396254514
  9
$TDUCREATE
 40
2454525.021254514
  9
$TDUPDATE
 40
2457192.602419572
  9
$TDUUPDATE
 40
2457192.227419572
  9
$TDINDWG
 40
0.2400431597
  9
$TDUSRTIMER
 40
0.2400431366
  9
$USRTIMER
 70
     1
  9
$ANGBASE
 50
0.0
  9
$ANGDIR
 70
     0
  9
$PDMODE
 70
     0
  9
$PDSIZE
 40
0.0
  9
$PLINEWID
 40
0.0
  9
$SPLFRAME
 70
     0
  9
$SPLINETYPE
 70
     6
  9
$SPLINESEGS
 70
     8
  9
$HANDSEED
  5
55B3
  9
$SURFTAB1
 70
     6
  9
$SURFTAB2
 70
     6
  9
$SURFTYPE
 70
     6
  9
$SURFU
 70
     6
  9
$SURFV
 70
     6
  9
$UCSBASE
  2

  9
$UCSNAME
  2

  9
$UCSORG
 10
0.0
 20
0.0
 30
0.0
  9
$UCSXDIR
 10
1.0
 20
0.0
 30
0.0
  9
$UCSYDIR
 10
0.0
 20
1.0
 30
0.0
  9
$UCSORTHOREF
  2

  9
$UCSORTHOVIEW
 70
     0
  9
$UCSORGTOP
 10
0.0
 20
0.0
 30
0.0
  9
$UCSORGBOTTOM
 10
0.0
 20
0.0
 30
0.0
  9
$UCSORGLEFT
 10
0.0
 20
0.0
 30
0.0
  9
$UCSORGRIGHT
 10
0.0
 20
0.0
 30
0.0
  9
$UCSORGFRONT
 10
0.0
 20
0.0
 30
0.0
  9
$UCSORGBACK
 10
0.0
 20
0.0
 30
0.0
  9
$PUCSBASE
  2

  9
$PUCSNAME
  2

  9
$PUCSORG
 10
0.0
 20
0.0
 30
0.0
  9
$PUCSXDIR
 10
1.0
 20
0.0
 30
0.0
  9
$PUCSYDIR
 10
0.0
 20
1.0
 30
0.0
  9
$PUCSORTHOREF
  2

  9
$PUCSORTHOVIEW
 70
     0
  9
$PUCSORGTOP
 10
0.0
 20
0.0
 30
0.0
  9
$PUCSORGBOTTOM
 10
0.0
 20
0.0
 30
0.0
  9
$PUCSORGLEFT
 10
0.0
 20
0.0
 30
0.0
  9
$PUCSORGRIGHT
 10
0.0
 20
0.0
 30
0.0
  9
$PUCSORGFRONT
 10
0.0
 20
0.0
 30
0.0
  9
$PUCSORGBACK
 10
0.0
 20
0.0
 30
0.0
  9
$USERI1
 70
     0
  9
$USERI2
 70
     0
  9
$USERI3
 70
     0
  9
$USERI4
 70
     0
  9
$USERI5
 70
     0
  9
$USERR1
 40
0.0
  9
$USERR2
 40
0.0
  9
$USERR3
 40
0.0
  9
$USERR4
 40
0.0
  9
$USERR5
 40
0.0
  9
$WORLDVIEW
 70
     1
  9
$SHADEDGE
 70
     3
  9
$SHADEDIF
 70
    70
  9
$TILEMODE
 70
     1
  9
$MAXACTVP
 70
    48
  9
$PINSBASE
 10
0.0
 20
0.0
 30
0.0
  9
$PLIMCHECK
 70
     0
  9
$PEXTMIN
 10
1.000000000000000E+20
 20
1.000000000000000E+20
 30
1.000000000000000E+20
  9
$PEXTMAX
 10
-1.000000000000000E+20
 20
-1.000000000000000E+20
 30
-1.000000000000000E+20
  9
$PLIMMIN
 10
0.0
 20
0.0
  9
$PLIMMAX
 10
420.0
 20
297.0
  9
$UNITMODE
 70
     0
  9
$VISRETAIN
 70
     1
  9
$PLINEGEN
 70
     0
  9
$PSLTSCALE
 70
     1
  9
$TREEDEPTH
 70
  3020
  9
$CMLSTYLE
  2
STANDARD
  9
$CMLJUST
 70
     0
  9
$CMLSCALE
 40
20.0
  9
$PROXYGRAPHICS
 70
     1
  9
$MEASUREMENT
 70
     0
  9
$CELWEIGHT
370
    -1
  9
$ENDCAPS
280
     0
  9
$JOINSTYLE
280
     0
  9
$LWDISPLAY
290
     0
  9
$INSUNITS
 70
     0
  9
$HYPERLINKBASE
  1

  9
$STYLESHEET
  1

  9
$XEDIT
290
     1
  9
$CEPSNTYPE
380
     0
  9
$PSTYLEMODE
290
     1
  9
$FINGERPRINTGUID
  2
{B3E6B45D-DC89-4052-AD65-9FA3ADEAEE26}
  9
$VERSIONGUID
  2
{250FF765-4941-4666-BD06-838E81996C9C}
  9
$EXTNAMES
290
     1
  9
$PSVPSCALE
 40
0.0
  9
$OLESTARTUP
290
     0
  0
ENDSEC
  0
SECTION
  2
CLASSES
  0
CLASS
  1
ACDBDICTIONARYWDFLT
  2
AcDbDictionaryWithDefault
  3
ObjectDBX Classes
 90
        0
280
     0
281
     0
  0
CLASS
  1
ACDBPLACEHOLDER
  2
AcDbPlaceHolder
  3
ObjectDBX Classes
 90
        0
280
     0
281
     0
  0
CLASS
  1
LAYOUT
  2
AcDbLayout
  3
ObjectDBX Classes
 90
        0
280
     0
281
     0
  0
CLASS
  1
DICTIONARYVAR
  2
AcDbDictionaryVar
  3
ObjectDBX Classes
 90
        0
280
     0
281
     0
  0
CLASS
  1
MATERIAL
  2
AcDbMaterial
  3
ObjectDBX Classes
 90
     1153
280
     0
281
     0
  0
CLASS
  1
VISUALSTYLE
  2
AcDbVisualStyle
  3
ObjectDBX Classes
 90
     4095
280
     0
281
     0
  0
CLASS
  1
TABLESTYLE
  2
AcDbTableStyle
  3
ObjectDBX Classes
 90
     4095
280
     0
281
     0
  0
CLASS
  1
SCALE
  2
AcDbScale
  3
ObjectDBX Classes
 90
     1153
280
     0
281
     0
  0
CLASS
  1
MLEADERSTYLE
  2
AcDbMLeaderStyle
  3
ACDB_MLEADERSTYLE_CLASS
 90
     4095
280
     0
281
     0
  0
CLASS
  1
ACDBSECTIONVIEWSTYLE
  2
AcDbSectionViewStyle
  3
ObjectDBX Classes
 90
     1025
280
     0
281
     0
  0
CLASS
  1
ACDBDETAILVIEWSTYLE
  2
AcDbDetailViewStyle
  3
ObjectDBX Classes
 90
     1025
280
     0
281
     0
  0
CLASS
  1
CELLSTYLEMAP
  2
AcDbCellStyleMap
  3
ObjectDBX Classes
 90
     1152
280
     0
281
     0
  0
ENDSEC
  0
SECTION
  2
TABLES
  0
TABLE
  2
VPORT
  5
8
330
0
100
AcDbSymbolTable
 70
     1
  0
VPORT
  5
54FD
330
8
100
AcDbSymbolTableRecord
100
AcDbViewportTableRecord
  2
*ACTIVE
 70
     0
 10
0.0
 20
0.0
 11
1.0
 21
1.0
 12
230.7104679195922
 22
113.7659687387623
 13
0.0
 23
0.0
 14
10.0
 24
10.0
 15
10.0
 25
10.0
 16
0.0
 26
0.0
 36
1.0
 17
0.0
 27
0.0
 37
0.0
 40
209.2199310558336
 41
1.899603698811096
 42
50.0
 43
0.0
 44
0.0
 50
0.0
 51
0.0
 71
     0
 72
   100
 73
     1
 74
     0
 75
     0
 76
     0
 77
     0
 78
     0
281
     0
 65
     1
110
0.0
120
0.0
130
0.0
111
1.0
121
0.0
131
0.0
112
0.0
122
1.0
132
0.0
 79
     0
146
0.0
1001
ACAD_NAV_VCDISPLAY
1070
     3
  0
ENDTAB
  0
TABLE
  2
LTYPE
  5
5
330
0
100
AcDbSymbolTable
 70
     4
  0
LTYPE
  5
12
330
5
100
AcDbSymbolTableRecord
100
AcDbLinetypeTableRecord
  2
BYBLOCK
 70
     0
  3

 72
    65
 73
     0
 40
0.0
  0
LTYPE
  5
13
330
5
100
AcDbSymbolTableRecord
100
AcDbLinetypeTableRecord
  2
BYLAYER
 70
     0
  3

 72
    65
 73
     0
 40
0.0
  0
LTYPE
  5
14
330
5
100
AcDbSymbolTableRecord
100
AcDbLinetypeTableRecord
  2
CONTINUOUS
 70
     0
  3
Solid line
 72
    65
 73
     0
 40
0.0
  0
LTYPE
  5
4B
330
5
100
AcDbSymbolTableRecord
100
AcDbLinetypeTableRecord
  2
DASHED
 70
     0
  3
Dashed __ __ __ __ __ __ __ __ __ __ __ __ __ _
 72
    65
 73
     2
 40
19.04999999999999
 49
12.7
 74
     0
 49
-6.349999999999998
 74
     0
  0
LTYPE
  5
4C
330
5
100
AcDbSymbolTableRecord
100
AcDbLinetypeTableRecord
  2
CENTER
 70
     0
  3
Center ____ _ ____ _ ____ _ ____ _ ____ _ ____
 72
    65
 73
     4
 40
50.8
 49
31.75
 74
     0
 49
-6.349999999999998
 74
     0
 49
6.349999999999998
 74
     0
 49
-6.349999999999998
 74
     0
  0
LTYPE
  5
4D
330
5
100
AcDbSymbolTableRecord
100
AcDbLinetypeTableRecord
  2
PHANTOM
 70
     0
  3
Phantom ______  __  __  ______  __  __  ______
 72
    65
 73
     6
 40
63.5
 49
31.75
 74
     0
 49
-6.349999999999998
 74
     0
 49
6.349999999999998
 74
     0
 49
-6.349999999999998
 74
     0
 49
6.349999999999998
 74
     0
 49
-6.349999999999998
 74
     0
  0
ENDTAB
  0
TABLE
  2
LAYER
  5
2
330
0
100
AcDbSymbolTable
 70
     8
  0
LAYER
  5
E
102
{ACAD_XDICTIONARY
360
5557
102
}
330
2
100
AcDbSymbolTableRecord
100
AcDbLayerTableRecord
  2
0
 70
     0
 62
     7
  6
CONTINUOUS
370
    -3
390
5506
  0
LAYER
  5
4E
102
{ACAD_XDICTIONARY
360
5559
102
}
330
2
100
AcDbSymbolTableRecord
100
AcDbLayerTableRecord
  2
4
 70
     0
 62
     1
  6
CENTER
370
    -3
390
5506
  0
LAYER
  5
4F
102
{ACAD_XDICTIONARY
360
555B
102
}
330
2
100
AcDbSymbolTableRecord
100
AcDbLayerTableRecord
  2
5
 70
     0
 62
     6
  6
PHANTOM
370
    -3
390
5506
  0
LAYER
  5
50
102
{ACAD_XDICTIONARY
360
555D
102
}
330
2
100
AcDbSymbolTableRecord
100
AcDbLayerTableRecord
  2
1
 70
     0
 62
     7
  6
CONTINUOUS
370
    -3
390
5506
  0
LAYER
  5
51
102
{ACAD_XDICTIONARY
360
555F
102
}
330
2
100
AcDbSymbolTableRecord
100
AcDbLayerTableRecord
  2
2
 70
     0
 62
     4
  6
CONTINUOUS
370
    -3
390
5506
  0
LAYER
  5
52
102
{ACAD_XDICTIONARY
360
5561
102
}
330
2
100
AcDbSymbolTableRecord
100
AcDbLayerTableRecord
  2
3
 70
     0
 62
     2
  6
DASHED
370
    -3
390
5506
  0
LAYER
  5
53
102
{ACAD_XDICTIONARY
360
5563
102
}
330
2
100
AcDbSymbolTableRecord
100
AcDbLayerTableRecord
  2
6
 70
     0
 62
     5
  6
CONTINUOUS
370
    -3
390
5506
  0
LAYER
  5
54
102
{ACAD_XDICTIONARY
360
5565
102
}
330
2
100
AcDbSymbolTableRecord
100
AcDbLayerTableRecord
  2
7
 70
     0
 62
     3
  6
CONTINUOUS
370
    -3
390
5506
  0
ENDTAB
  0
TABLE
  2
STYLE
  5
3
330
0
100
AcDbSymbolTable
 70
     1
  0
STYLE
  5
F
330
3
100
AcDbSymbolTableRecord
100
AcDbTextStyleTableRecord
  2
STANDARD
 70
     0
 40
0.0
 41
1.0
 50
0.0
 71
     0
 42
2.5
  3
simplex.shx
  4

  0
ENDTAB
  0
TABLE
  2
VIEW
  5
6
330
0
100
AcDbSymbolTable
 70
     0
  0
ENDTAB
  0
TABLE
  2
UCS
  5
7
330
0
100
AcDbSymbolTable
 70
     0
  0
ENDTAB
  0
TABLE
  2
APPID
  5
9
330
0
100
AcDbSymbolTable
 70
     5
  0
APPID
  5
10
330
9
100
AcDbSymbolTableRecord
100
AcDbRegAppTableRecord
  2
ACAD
 70
     0
  0
APPID
  5
3E
330
9
100
AcDbSymbolTableRecord
100
AcDbRegAppTableRecord
  2
CONTENTTABDATA
 70
     0
  0
APPID
  5
3F
330
9
100
AcDbSymbolTableRecord
100
AcDbRegAppTableRecord
  2
CONTENTCURRENTTAB
 70
     0
  0
APPID
  5
5571
330
9
100
AcDbSymbolTableRecord
100
AcDbRegAppTableRecord
  2
ACAD_NAV_VCDISPLAY
 70
     0
  0
APPID
  5
55AA
330
9
100
AcDbSymbolTableRecord
100
AcDbRegAppTableRecord
  2
ACAD_MLEADERVER
 70
     0
  0
ENDTAB
  0
TABLE
  2
DIMSTYLE
  5
A
330
0
100
AcDbSymbolTable
 70
     1
100
AcDbDimStyleTable
 71
     0
  0
DIMSTYLE
105
1D
330
A
100
AcDbSymbolTableRecord
100
AcDbDimStyleTableRecord
  2
STANDARD
 70
     0
 41
3.0
 42
1.0
 43
10.0
 44
1.0
 73
     0
 74
     0
 77
     3
 78
     8
140
2.5
141
0.0
147
1.0
172
     1
173
     1
340
F
341
2E
343
2E
344
2E
  0
ENDTAB
  0
TABLE
  2
BLOCK_RECORD
  5
1
330
0
100
AcDbSymbolTable
 70
     1
  0
BLOCK_RECORD
  5
18
102
{ACAD_XDICTIONARY
360
5500
102
}
330
1
100
AcDbSymbolTableRecord
100
AcDbBlockTableRecord
  2
*MODEL_SPACE
340
5554
  0
BLOCK_RECORD
  5
15
102
{ACAD_XDICTIONARY
360
54FE
102
}
330
1
100
AcDbSymbolTableRecord
100
AcDbBlockTableRecord
  2
*PAPER_SPACE
340
5555
  0
BLOCK_RECORD
  5
2E
330
1
100
AcDbSymbolTableRecord
100
AcDbBlockTableRecord
  2
_OPEN
340
0
  0
ENDTAB
  0
ENDSEC
  0
SECTION
  2
BLOCKS
  0
BLOCK
  5
19
330
18
100
AcDbEntity
  8
0
100
AcDbBlockBegin
  2
*MODEL_SPACE
 70
     0
 10
0.0
 20
0.0
 30
0.0
  3
*MODEL_SPACE
  1

  0
ENDBLK
  5
1A
330
18
100
AcDbEntity
  8
0
100
AcDbBlockEnd
  0
BLOCK
  5
16
330
15
100
AcDbEntity
 67
     1
  8
0
100
AcDbBlockBegin
  2
*PAPER_SPACE
 70
     0
 10
0.0
 20
0.0
 30
0.0
  3
*PAPER_SPACE
  1

  0
ENDBLK
  5
17
330
15
100
AcDbEntity
 67
     1
  8
0
100
AcDbBlockEnd
  0
BLOCK
  5
2F
330
2E
100
AcDbEntity
  8
0
100
AcDbBlockBegin
  2
_OPEN
 70
     0
 10
0.0
 20
0.0
 30
0.0
  3
_OPEN
  1

  0
LINE
  5
30
330
2E
100
AcDbEntity
  8
0
  6
ByBlock
 62
     0
100
AcDbLine
 10
-1.0
 20
0.1666666666666666
 30
0.0
 11
0.0
 21
0.0
 31
0.0
  0
LINE
  5
31
330
2E
100
AcDbEntity
  8
0
  6
ByBlock
 62
     0
100
AcDbLine
 10
0.0
 20
0.0
 30
0.0
 11
-1.0
 21
-0.1666666666666666
 31
0.0
  0
LINE
  5
32
330
2E
100
AcDbEntity
  8
0
  6
ByBlock
 62
     0
100
AcDbLine
 10
0.0
 20
0.0
 30
0.0
 11
-1.0
 21
0.0
 31
0.0
  0
ENDBLK
  5
33
330
2E
100
AcDbEntity
  8
0
100
AcDbBlockEnd
  0
ENDSEC
  0
SECTION
  2
ENTITIES
  0
TEXT
  5
63
330
18
100
AcDbEntity
  8
4
  6
CENTER
 48
0.25
100
AcDbText
 10
23.97950852663849
 20
10.0
 30
0.0
 40
1.399999999999999
  1
4
100
AcDbText
  0
TEXT
  5
64
330
18
100
AcDbEntity
  8
7
  6
Continuous
 48
0.25
100
AcDbText
 10
9.999997526638502
 20
26.0000007607689
 30
0.0
 40
3.0
  1
CODE No.11036
100
AcDbText
  0
TEXT
  5
65
330
18
100
AcDbEntity
  8
7
  6
Continuous
 48
0.25
100
AcDbText
 10
9.999997526638502
 20
18.00000076076889
 30
0.0
 40
3.0
  1
TYPE No.TL-371
100
AcDbText
  0
TEXT
  5
66
330
18
100
AcDbEntity
  8
1
  6
Continuous
 48
0.25
100
AcDbText
 10
9.999997526638502
 20
10.00000076076889
 30
0.0
 40
1.399999999999999
  1
LAYER
100
AcDbText
  0
TEXT
  5
67
330
18
100
AcDbEntity
  8
2
  6
Continuous
 48
0.25
100
AcDbText
 10
19.9795085266385
 20
10.0
 30
0.0
 40
1.399999999999999
  1
2
100
AcDbText
  0
TEXT
  5
68
330
18
100
AcDbEntity
  8
3
  6
DASHED
 48
0.25
100
AcDbText
 10
21.9795085266385
 20
10.0
 30
0.0
 40
1.399999999999999
  1
3
100
AcDbText
  0
TEXT
  5
69
330
18
100
AcDbEntity
  8
1
  6
Continuous
 48
0.25
100
AcDbText
 10
17.9795085266385
 20
10.0
 30
0.0
 40
1.399999999999999
  1
1
100
AcDbText
  0
TEXT
  5
6A
330
18
100
AcDbEntity
  8
5
  6
PHANTOM
 48
0.25
100
AcDbText
 10
25.9795085266385
 20
10.0
 30
0.0
 40
1.399999999999999
  1
5
100
AcDbText
  0
TEXT
  5
6B
330
18
100
AcDbEntity
  8
6
  6
Continuous
 48
0.25
100
AcDbText
 10
27.9795085266385
 20
10.0
 30
0.0
 40
1.399999999999999
  1
6
100
AcDbText
  0
TEXT
  5
6C
330
18
100
AcDbEntity
  8
7
  6
Continuous
 48
0.25
100
AcDbText
 10
29.9795085266385
 20
10.0
 30
0.0
 40
1.399999999999999
  1
7
100
AcDbText
  0
CIRCLE
  5
504
330
18
100
AcDbEntity
  8
1
  6
Continuous
100
AcDbCircle
 10
197.9477118826944
 20
125.5416374639457
 30
0.0
 40
11.0
  0
LINE
  5
505
330
18
100
AcDbEntity
  8
1
  6
Continuous
100
AcDbLine
 10
197.9477118827044
 20
138.2433433861222
 30
0.0
 11
186.9477118827043
 21
131.8924904250377
 31
0.0
  0
LINE
  5
506
330
18
100
AcDbEntity
  8
1
  6
Continuous
100
AcDbLine
 10
208.9477118827043
 20
131.8924904250272
 30
0.0
 11
197.9477118827044
 21
138.2433433861121
 31
0.0
  0
LINE
  5
50B
330
18
100
AcDbEntity
  8
1
  6
Continuous
100
AcDbLine
 10
197.9477118826841
 20
112.8399315417697
 30
0.0
 11
208.9477118826843
 21
119.1907845028542
 31
0.0
  0
ARC
  5
50D
330
18
100
AcDbEntity
  8
1
  6
Continuous
100
AcDbCircle
 10
197.9477118826944
 20
125.5416374639457
 30
0.0
 40
9.5
100
AcDbArc
 50
213.7387226487371
 51
326.2612773512617
  0
ARC
  5
50E
330
18
100
AcDbEntity
  8
1
  6
Continuous
100
AcDbCircle
 10
197.9477118826944
 20
125.5416374639858
 30
0.0
 40
9.5
100
AcDbArc
 50
33.73872264873821
 51
146.2612773512629
  0
LINE
  5
50F
330
18
100
AcDbEntity
  8
1
  6
Continuous
100
AcDbLine
 10
186.9477118826844
 20
119.1907845028647
 30
0.0
 11
197.9477118826844
 21
112.8399315417798
 31
0.0
  0
ARC
  5
511
330
18
100
AcDbEntity
  8
2
  6
Continuous
100
AcDbCircle
 10
197.9477118826944
 20
125.5416374639258
 30
0.0
 40
3.4999999999999
100
AcDbArc
 50
140.4823472028211
 51
219.5176527968957
  0
CIRCLE
  5
512
330
18
100
AcDbEntity
  8
1
  6
Continuous
100
AcDbCircle
 10
197.9477118826944
 20
125.5416374639457
 30
0.0
 40
5.499999999940895
  0
LINE
  5
513
330
18
100
AcDbEntity
  8
1
  6
Continuous
100
AcDbLine
 10
192.4477118826945
 20
128.7170639445459
 30
0.0
 11
197.9477118825944
 21
131.8924904250259
 31
0.0
  0
ARC
  5
515
330
18
100
AcDbEntity
  8
1
  6
Continuous
100
AcDbCircle
 10
197.9477118826894
 20
125.5416374639457
 30
0.0
 40
3.093999999999998
100
AcDbArc
 50
150.7688548602239
 51
209.2311451397727
  0
LINE
  5
518
330
18
100
AcDbEntity
  8
1
  6
Continuous
100
AcDbLine
 10
192.4477118826943
 20
122.3662109833958
 30
0.0
 11
197.9477118826943
 21
119.1907845028559
 31
0.0
  0
ARC
  5
519
330
18
100
AcDbEntity
  8
2
  6
Continuous
100
AcDbCircle
 10
197.9477118826893
 20
125.5416374639457
 30
0.0
 40
8.9585
100
AcDbArc
 50
208.134382499142
 51
331.8656175009927
  0
ARC
  5
51A
330
18
100
AcDbEntity
  8
1
  6
Continuous
100
AcDbCircle
 10
197.9477118826943
 20
125.5416374639557
 30
0.0
 40
8.799999999877
100
AcDbArc
 50
206.1390829635597
 51
333.8609170365227
  0
CIRCLE
  5
51F
330
18
100
AcDbEntity
  8
1
  6
Continuous
100
AcDbCircle
 10
197.9477118826943
 20
125.5416374639457
 30
0.0
 40
6.5
  0
LINE
  5
520
330
18
100
AcDbEntity
  8
1
  6
Continuous
100
AcDbLine
 10
186.9477118826944
 20
131.8924904250412
 30
0.0
 11
186.9477118826944
 21
119.1907845028712
 31
0.0
  0
ARC
  5
521
330
18
100
AcDbEntity
  8
1
  6
Continuous
100
AcDbCircle
 10
197.9477118826943
 20
125.5416374638958
 30
0.0
 40
7.299999999939498
100
AcDbArc
 50
154.9999999995304
 51
295.0000000001077
  0
LINE
  5
522
330
18
100
AcDbEntity
  8
1
  6
Continuous
100
AcDbLine
 10
194.2286711794465
 20
117.5661289381362
 30
0.0
 11
194.8625985719943
 21
118.9255906185757
 31
0.0
  0
ARC
  5
525
330
18
100
AcDbEntity
  8
1
  6
Continuous
100
AcDbCircle
 10
197.9477118826944
 20
125.5416374639457
 30
0.0
 40
8.9585
100
AcDbArc
 50
151.865617500926
 51
208.1343824990739
  0
ARC
  5
526
330
18
100
AcDbEntity
  8
2
  6
Continuous
100
AcDbCircle
 10
197.9477118826944
 20
125.5416374639457
 30
0.0
 40
9.5
100
AcDbArc
 50
146.2612773512629
 51
213.7387226487371
  0
LINE
  5
527
330
18
100
AcDbEntity
  8
1
  6
Continuous
100
AcDbLine
 10
190.0477118826943
 20
120.2652750806358
 30
0.0
 11
190.0477118826943
 21
130.8179998472948
 31
0.0
  0
LINE
  5
529
330
18
100
AcDbEntity
  8
1
  6
Continuous
100
AcDbLine
 10
192.4477118826944
 20
122.3662109833957
 30
0.0
 11
192.4477118826944
 21
128.7170639445458
 31
0.0
  0
LINE
  5
52F
330
18
100
AcDbEntity
  8
1
  6
Continuous
100
AcDbLine
 10
197.9477118826943
 20
119.1907845028558
 30
0.0
 11
203.4477118826944
 21
122.3662109833958
 31
0.0
  0
LINE
  5
537
330
18
100
AcDbEntity
  8
1
  6
Continuous
100
AcDbLine
 10
197.9477118825943
 20
131.8924904250257
 30
0.0
 11
203.4477118826943
 21
128.7170639444157
 31
0.0
  0
LINE
  5
539
330
18
100
AcDbEntity
  8
1
  6
Continuous
100
AcDbLine
 10
200.6477118826943
 20
123.3145317188158
 30
0.0
 11
200.6477118826942
 21
127.7687432090756
 31
0.0
  0
ARC
  5
545
330
18
100
AcDbEntity
  8
1
  6
Continuous
100
AcDbCircle
 10
197.9477118826944
 20
125.5416374639457
 30
0.0
 40
8.9585
100
AcDbArc
 50
331.8656175009235
 51
28.13438249907639
  0
ARC
  5
546
330
18
100
AcDbEntity
  8
2
  6
Continuous
100
AcDbCircle
 10
197.9477118826944
 20
125.5416374639457
 30
0.0
 40
9.5
100
AcDbArc
 50
326.2612773512617
 51
33.73872264873821
  0
LINE
  5
548
330
18
100
AcDbEntity
  8
1
  6
Continuous
100
AcDbLine
 10
205.8477118826943
 20
120.2652750806358
 30
0.0
 11
205.8477118826943
 21
130.8179998472558
 31
0.0
  0
LINE
  5
549
330
18
100
AcDbEntity
  8
1
  6
Continuous
100
AcDbLine
 10
203.4477118826943
 20
122.3662109833957
 30
0.0
 11
203.4477118826943
 21
128.7170639444157
 31
0.0
  0
LINE
  5
55E
330
18
100
AcDbEntity
  8
1
  6
Continuous
100
AcDbLine
 10
208.9477118826942
 20
119.1907845028507
 30
0.0
 11
208.9477118826942
 21
131.8924904250207
 31
0.0
  0
LINE
  5
6FA
330
18
100
AcDbEntity
  8
1
  6
Continuous
100
AcDbLine
 10
195.2477118826944
 20
123.3145317188158
 30
0.0
 11
195.2477118826946
 21
127.7687432090756
 31
0.0
  0
ARC
  5
6FB
330
18
100
AcDbEntity
  8
2
  6
Continuous
100
AcDbCircle
 10
197.9477118826894
 20
125.5416374639457
 30
0.0
 40
3.093999999999998
100
AcDbArc
 50
209.2311451397373
 51
330.768854860642
  0
ARC
  5
6FC
330
18
100
AcDbEntity
  8
1
  6
Continuous
100
AcDbCircle
 10
197.9477118826944
 20
125.5416374639258
 30
0.0
 40
3.4999999999999
100
AcDbArc
 50
219.5176527968957
 51
320.4823472028259
  0
ARC
  5
6FD
330
18
100
AcDbEntity
  8
2
  6
Continuous
100
AcDbCircle
 10
197.9477118826894
 20
125.5416374639457
 30
0.0
 40
3.093999999999998
100
AcDbArc
 50
29.23114513936132
 51
150.7688548602593
  0
ARC
  5
6FE
330
18
100
AcDbEntity
  8
1
  6
Continuous
100
AcDbCircle
 10
197.9477118826944
 20
125.5416374639258
 30
0.0
 40
3.4999999999999
100
AcDbArc
 50
39.51765279717705
 51
140.4823472028325
  0
ARC
  5
6FF
330
18
100
AcDbEntity
  8
1
  6
Continuous
100
AcDbCircle
 10
197.9477118826994
 20
125.5416374639457
 30
0.0
 40
3.093999999999998
100
AcDbArc
 50
330.7688548602272
 51
29.23114513977605
  0
ARC
  5
700
330
18
100
AcDbEntity
  8
2
  6
Continuous
100
AcDbCircle
 10
197.9477118826944
 20
125.5416374639258
 30
0.0
 40
3.4999999999999
100
AcDbArc
 50
320.4823472031043
 51
39.51765279717885
  0
ARC
  5
FDC
330
18
100
AcDbEntity
  8
2
  6
Continuous
100
AcDbCircle
 10
197.9477118826894
 20
125.5416374639457
 30
0.0
 40
8.9585
100
AcDbArc
 50
28.13438249900841
 51
151.8656175008583
  0
ARC
  5
140E
330
18
100
AcDbEntity
  8
1
  6
Continuous
100
AcDbCircle
 10
197.9477118826943
 20
125.5416374639757
 30
0.0
 40
8.799999999877
100
AcDbArc
 50
26.13908296347801
 51
153.860917036523
  0
LINE
  5
1562
330
18
100
AcDbEntity
  8
1
  6
Continuous
100
AcDbLine
 10
121.4574672394998
 20
49.26067816719356
 30
0.0
 11
119.9574672394998
 21
49.26067816719355
 31
0.0
  0
LINE
  5
25B0
330
18
100
AcDbEntity
  8
1
  6
Continuous
100
AcDbLine
 10
121.4574672394998
 20
41.82259676069769
 30
0.0
 11
119.9574672394998
 21
41.82259676069771
 31
0.0
  0
LINE
  5
25BD
330
18
100
AcDbEntity
  8
1
  6
Continuous
100
AcDbLine
 10
57.56722259630523
 20
119.1907845029053
 30
0.0
 11
57.567222596305
 21
131.8924904250875
 31
0.0
  0
LINE
  5
25BF
330
18
100
AcDbEntity
  8
1
  6
Continuous
100
AcDbLine
 10
46.56722259631535
 20
138.2433433861768
 30
0.0
 11
35.56722259630535
 21
131.8924904250864
 31
0.0
  0
LINE
  5
25C0
330
18
100
AcDbEntity
  8
1
  6
Continuous
100
AcDbLine
 10
35.56722259630535
 20
131.8924904250959
 30
0.0
 11
35.56722259630535
 21
119.1907845029136
 31
0.0
  0
LINE
  5
25C1
330
18
100
AcDbEntity
  8
1
  6
Continuous
100
AcDbLine
 10
35.56722259630535
 20
119.1907845029136
 30
0.0
 11
46.56722259630386
 21
112.8399315418288
 31
0.0
  0
LINE
  5
25C5
330
18
100
AcDbEntity
  8
1
  6
Continuous
100
AcDbLine
 10
57.567222596305
 20
131.8924904250875
 30
0.0
 11
46.56722259631535
 21
138.2433433861668
 31
0.0
  0
LINE
  5
25C7
330
18
100
AcDbEntity
  8
1
  6
Continuous
100
AcDbLine
 10
46.56722259630386
 20
112.8399315418288
 30
0.0
 11
57.56722259629528
 21
119.1907845029089
 31
0.0
  0
LINE
  5
25CC
330
18
100
AcDbEntity
  8
4
  6
CENTER
 48
0.3
100
AcDbLine
 10
212.4477118826944
 20
125.5416374639457
 30
0.0
 11
183.4477118826944
 21
125.5416374639457
 31
0.0
  0
LINE
  5
25CD
330
18
100
AcDbEntity
  8
4
  6
CENTER
 48
0.3
100
AcDbLine
 10
197.9477118826944
 20
140.0416374639458
 30
0.0
 11
197.9477118826944
 21
111.0416374639457
 31
0.0
  0
LINE
  5
289B
330
18
100
AcDbEntity
  8
4
  6
CENTER
 48
0.3
100
AcDbLine
 10
46.56722259630536
 20
140.0416374639456
 30
0.0
 11
46.56722259630528
 21
111.0416374640157
 31
0.0
  0
CIRCLE
  5
289C
330
18
100
AcDbEntity
  8
1
  6
Continuous
100
AcDbCircle
 10
46.56722259630529
 20
125.5416374639806
 30
0.0
 40
11.0
  0
LINE
  5
289D
330
18
100
AcDbEntity
  8
4
  6
CENTER
 48
0.3
100
AcDbLine
 10
61.06722259627034
 20
125.5416374639806
 30
0.0
 11
32.06722259634041
 21
125.5416374639806
 31
0.0
  0
LINE
  5
289E
330
18
100
AcDbEntity
  8
1
  6
Continuous
100
AcDbLine
 10
45.87779348464532
 20
127.7159908161307
 30
0.0
 11
51.30718393481529
 21
122.2866003659606
 31
0.0
  0
LINE
  5
289F
330
18
100
AcDbEntity
  8
1
  6
Continuous
100
AcDbLine
 10
44.39286924415532
 20
126.2310665756406
 30
0.0
 11
49.82225969432533
 21
120.8016761254705
 31
0.0
  0
LINE
  5
28A0
330
18
100
AcDbEntity
  8
1
  6
Continuous
100
AcDbLine
 10
42.63359924154529
 20
127.7782045438904
 30
0.0
 11
48.80378967621531
 21
121.6080141092205
 31
0.0
  0
LINE
  5
28A1
330
18
100
AcDbEntity
  8
1
  6
Continuous
100
AcDbLine
 10
44.33065551639525
 20
129.4752608187404
 30
0.0
 11
50.50084595106525
 21
123.3050703840704
 31
0.0
  0
LINE
  5
28A2
330
18
100
AcDbEntity
  8
4
  6
CENTER
 48
0.3
100
AcDbLine
 10
36.31417426912512
 20
135.7946857911607
 30
0.0
 11
56.82027092348548
 21
115.2885891368004
 31
0.0
  0
LINE
  5
28A3
330
18
100
AcDbEntity
  8
4
  6
CENTER
 48
0.3
100
AcDbLine
 10
56.82027092348556
 20
135.7946857911608
 30
0.0
 11
36.31417426912521
 21
115.2885891368005
 31
0.0
  0
CIRCLE
  5
28A4
330
18
100
AcDbEntity
  8
1
  6
Continuous
100
AcDbCircle
 10
46.56722259630529
 20
125.5416374639806
 30
0.0
 40
5.9
  0
CIRCLE
  5
28A6
330
18
100
AcDbEntity
  8
1
  6
Continuous
100
AcDbCircle
 10
46.56722259630529
 20
125.5416374639806
 30
0.0
 40
10.0
  0
ARC
  5
28A7
330
18
100
AcDbEntity
  8
1
  6
Continuous
100
AcDbCircle
 10
46.56722259630529
 20
125.5416374639806
 30
0.0
 40
5.75
100
AcDbArc
 50
325.5217459659557
 51
304.4782540340443
  0
ARC
  5
28A8
330
18
100
AcDbEntity
  8
1
  6
Continuous
100
AcDbCircle
 10
46.56722259630529
 20
125.5416374639806
 30
0.0
 40
4.0
100
AcDbArc
 50
332.4576031237603
 51
117.5423968762301
  0
ARC
  5
28A9
330
18
100
AcDbEntity
  8
1
  6
Continuous
100
AcDbCircle
 10
46.56722259630529
 20
125.5416374639806
 30
0.0
 40
4.0000000000001
100
AcDbArc
 50
152.4576031237399
 51
297.5423968762505
  0
ARC
  5
28AB
330
18
100
AcDbEntity
  8
1
  6
Continuous
100
AcDbCircle
 10
46.56722259630529
 20
125.5416374639806
 30
0.0
 40
4.525
100
AcDbArc
 50
119.6215568024498
 51
150.3784431976507
  0
LINE
  5
28AC
330
18
100
AcDbEntity
  8
1
  6
Continuous
100
AcDbLine
 10
44.39286924415532
 20
126.2310665756406
 30
0.0
 11
45.87779348464525
 21
127.7159908161304
 31
0.0
  0
ARC
  5
28AF
330
18
100
AcDbEntity
  8
1
  6
Continuous
100
AcDbCircle
 10
46.56722259630529
 20
125.5416374639806
 30
0.0
 40
5.2
100
AcDbArc
 50
303.3168303260794
 51
326.6714780271494
  0
ARC
  5
28B3
330
18
100
AcDbEntity
  8
1
  6
Continuous
100
AcDbCircle
 10
46.56722259623731
 20
125.5416374639456
 30
0.0
 40
4.525
100
AcDbArc
 50
299.6215568033803
 51
301.5825477875998
  0
ARC
  5
28B4
330
18
100
AcDbEntity
  8
1
  6
Continuous
100
AcDbCircle
 10
46.56722259629382
 20
125.5416374639506
 30
0.0
 40
4.525
100
AcDbArc
 50
328.4174522137994
 51
330.3784431980103
  0
LINE
  5
36A5
330
18
100
AcDbEntity
  8
1
  6
Continuous
100
AcDbLine
 10
201.2203255170944
 20
132.8416374639458
 30
0.0
 11
193.9980283510944
 21
132.8416374639458
 31
0.0
  0
ARC
  5
36A6
330
18
100
AcDbEntity
  8
1
  6
Continuous
100
AcDbCircle
 10
197.9477118826944
 20
125.5416374639457
 30
0.0
 40
7.0
100
AcDbArc
 50
154.9999999999896
 51
295.0000000000102
  0
ARC
  5
36B5
330
18
100
AcDbEntity
  8
1
  6
Continuous
100
AcDbCircle
 10
197.9477118826993
 20
125.5416374639457
 30
0.0
 40
8.3
100
AcDbArc
 50
118.4157166857698
 51
153.5851456058099
  0
LINE
  5
36B7
330
18
100
AcDbEntity
  8
1
  6
Continuous
100
AcDbLine
 10
190.6088569458944
 20
128.9638017230658
 30
0.0
 11
191.6035573733994
 21
128.4999652961258
 31
0.0
  0
ARC
  5
36BB
330
18
100
AcDbEntity
  8
1
  6
Continuous
100
AcDbCircle
 10
190.6933805980994
 20
129.1450632805207
 30
0.0
 40
0.19999999999992
100
AcDbArc
 50
153.5851456050095
 51
245.0000000295106
  0
ARC
  5
36C4
330
18
100
AcDbEntity
  8
1
  6
Continuous
100
AcDbCircle
 10
197.9477118826944
 20
125.5416374639658
 30
0.0
 40
8.3
100
AcDbArc
 50
296.4148543941099
 51
331.5842833141303
  0
ARC
  5
36C6
330
18
100
AcDbEntity
  8
1
  6
Continuous
100
AcDbCircle
 10
201.5511376991944
 20
118.2873061794708
 30
0.0
 40
0.20000000000009
100
AcDbArc
 50
204.9999999998303
 51
296.4148544007706
  0
ARC
  5
36CB
330
18
100
AcDbEntity
  8
1
  6
Continuous
100
AcDbCircle
 10
197.9477118826944
 20
125.5416374639357
 30
0.0
 40
8.0
100
AcDbArc
 50
24.14684799657326
 51
65.85315200359291
  0
LINE
  5
36D2
330
18
100
AcDbEntity
  8
1
  6
Continuous
100
AcDbLine
 10
205.2477118826943
 20
121.5919539323157
 30
0.0
 11
205.2477118826943
 21
128.8142510983357
 31
0.0
  0
LINE
  5
3AC0
330
18
100
AcDbEntity
  8
1
  6
Continuous
100
AcDbLine
 10
201.6667525859423
 20
117.5661289381362
 30
0.0
 11
200.9060397148741
 21
119.1974829546868
 31
0.0
  0
ARC
  5
3ACD
330
18
100
AcDbEntity
  8
1
  6
Continuous
100
AcDbCircle
 10
128.1324672390246
 20
211.0416374640319
 30
0.0
 40
15.62500000047528
100
AcDbArc
 50
339.390307062785
 51
20.60969293653748
  0
LINE
  5
3ACE
330
18
100
AcDbEntity
  8
1
  6
Continuous
100
AcDbLine
 10
139.7574672394998
 20
216.5416374639456
 30
0.0
 11
139.7574672394999
 21
194.5416374639458
 31
0.0
  0
LINE
  5
3AD4
330
18
100
AcDbEntity
  8
1
  6
Continuous
100
AcDbLine
 10
143.7574672394999
 20
194.541637463946
 30
0.0
 11
143.7574672394999
 21
216.5416374639456
 31
0.0
  0
ARC
  5
3AD8
330
18
100
AcDbEntity
  8
1
  6
Continuous
100
AcDbCircle
 10
128.1324672390246
 20
200.0416374638592
 30
0.0
 40
15.62500000047528
100
AcDbArc
 50
339.3903070634625
 51
20.60969293721502
  0
LINE
  5
3ADD
330
18
100
AcDbEntity
  8
1
  6
Continuous
100
AcDbLine
 10
139.7574672394999
 20
194.5416374639458
 30
0.0
 11
143.7574672394999
 21
194.5416374639458
 31
0.0
  0
LINE
  5
3AE0
330
18
100
AcDbEntity
  8
1
  6
Continuous
100
AcDbLine
 10
139.7574672394999
 20
205.5416374639456
 30
0.0
 11
142.7574672394999
 21
205.5416374639456
 31
0.0
  0
LINE
  5
3AE7
330
18
100
AcDbEntity
  8
1
  6
Continuous
100
AcDbLine
 10
143.7574672394999
 20
216.5416374639456
 30
0.0
 11
139.7574672394998
 21
216.5416374639456
 31
0.0
  0
LINE
  5
3C04
330
18
100
AcDbEntity
  8
1
  6
Continuous
100
AcDbLine
 10
106.5574672394998
 20
209.4752608187058
 30
0.0
 11
106.2574672394998
 21
209.0883131140157
 31
0.0
  0
LINE
  5
3C05
330
18
100
AcDbEntity
  8
1
  6
Continuous
100
AcDbLine
 10
106.2574672394999
 20
207.3912568391656
 30
0.0
 11
106.5574672394998
 21
207.7782045438556
 31
0.0
  0
LINE
  5
3C06
330
18
100
AcDbEntity
  8
1
  6
Continuous
100
AcDbLine
 10
106.5574672394999
 20
207.7782045438556
 30
0.0
 11
106.5574672394999
 21
209.4752608187059
 31
0.0
  0
LINE
  5
3C28
330
18
100
AcDbEntity
  8
1
  6
Continuous
100
AcDbLine
 10
154.7574672394999
 20
211.041637463951
 30
0.0
 11
154.7574672394999
 21
200.0416374639515
 31
0.0
  0
LINE
  5
3C6A
330
18
100
AcDbEntity
  8
1
  6
Continuous
100
AcDbLine
 10
153.2487074256071
 20
205.5416374639449
 30
0.0
 11
154.2662270533926
 21
205.5416374639457
 31
0.0
  0
LINE
  5
3DD8
330
18
100
AcDbEntity
  8
1
  6
Continuous
100
AcDbLine
 10
152.7574672394999
 20
211.0416374639439
 30
0.0
 11
154.7574672394999
 21
211.041637463951
 31
0.0
  0
LINE
  5
3DD9
330
18
100
AcDbEntity
  8
1
  6
Continuous
100
AcDbLine
 10
152.7574672394999
 20
200.0416374639438
 30
0.0
 11
154.7574672394999
 21
200.0416374639515
 31
0.0
  0
ARC
  5
3DDC
330
18
100
AcDbEntity
  8
1
  6
Continuous
100
AcDbCircle
 10
146.814492355589
 20
202.7916374639477
 30
0.0
 40
7.942974883910919
100
AcDbArc
 50
339.7438420002327
 51
20.25615799976616
  0
ARC
  5
3DDD
330
18
100
AcDbEntity
  8
1
  6
Continuous
100
AcDbCircle
 10
160.7004421234107
 20
202.7916374639477
 30
0.0
 40
7.942974883910919
100
AcDbArc
 50
159.7438420002338
 51
200.2561579997673
  0
ARC
  5
3DDE
330
18
100
AcDbEntity
  8
1
  6
Continuous
100
AcDbCircle
 10
146.814492355589
 20
208.2916374639422
 30
0.0
 40
7.942974883910919
100
AcDbArc
 50
339.7438420002338
 51
20.25615799976728
  0
ARC
  5
3DDF
330
18
100
AcDbEntity
  8
1
  6
Continuous
100
AcDbCircle
 10
160.7004421234107
 20
208.2916374639422
 30
0.0
 40
7.942974883910919
100
AcDbArc
 50
159.7438420002326
 51
200.2561579997661
  0
LINE
  5
3DFD
330
18
100
AcDbEntity
  8
1
  6
Continuous
100
AcDbLine
 10
106.5574672394999
 20
47.91149963592565
 30
0.0
 11
106.9807307507599
 21
48.44781987691565
 31
0.0
  0
LINE
  5
3DFE
330
18
100
AcDbEntity
  8
1
  6
Continuous
100
AcDbLine
 10
106.9807307507598
 20
48.44781987691565
 30
0.0
 11
107.2574672394999
 21
48.79667456196568
 31
0.0
  0
LINE
  5
3E01
330
18
100
AcDbEntity
  8
1
  6
Continuous
100
AcDbLine
 10
106.5574672394999
 20
49.39642387642571
 30
0.0
 11
106.9807307507598
 21
49.93274411740564
 31
0.0
  0
LINE
  5
3E02
330
18
100
AcDbEntity
  8
1
  6
Continuous
100
AcDbLine
 10
106.9807307507598
 20
49.93274411740564
 30
0.0
 11
107.2574672394998
 21
50.28159880245565
 31
0.0
  0
LINE
  5
3E03
330
18
100
AcDbEntity
  8
1
  6
Continuous
100
AcDbLine
 10
106.5574672394999
 20
47.77820454385571
 30
0.0
 11
106.5574672394999
 21
49.47526081870586
 31
0.0
  0
LINE
  5
3E04
330
18
100
AcDbEntity
  8
1
  6
Continuous
100
AcDbLine
 10
106.2574672394999
 20
47.39125683916562
 30
0.0
 11
106.5574672394998
 21
47.77820454385561
 31
0.0
  0
LINE
  5
3E05
330
18
100
AcDbEntity
  8
1
  6
Continuous
100
AcDbLine
 10
106.5574672394998
 20
49.47526081870578
 30
0.0
 11
106.2574672394998
 21
49.08831311401568
 31
0.0
  0
LINE
  5
40B5
330
18
100
AcDbEntity
  8
1
  6
Continuous
100
AcDbLine
 10
275.337956525889
 20
128.8142510983357
 30
0.0
 11
274.137956525889
 21
128.8142510983357
 31
0.0
  0
LINE
  5
40B6
330
18
100
AcDbEntity
  8
1
  6
Continuous
100
AcDbLine
 10
274.1379565258891
 20
121.5919539323157
 30
0.0
 11
275.337956525889
 21
121.5919539323157
 31
0.0
  0
LINE
  5
40EC
330
18
100
AcDbEntity
  8
1
  6
Continuous
100
AcDbLine
 10
121.4574672394998
 20
42.58330963175961
 30
0.0
 11
121.7574672394998
 21
42.58330963175961
 31
0.0
  0
LINE
  5
40ED
330
18
100
AcDbEntity
  8
1
  6
Continuous
100
AcDbLine
 10
121.4574672394998
 20
41.93821164744558
 30
0.0
 11
121.7574672394998
 21
41.93821164744558
 31
0.0
  0
LINE
  5
40EE
330
18
100
AcDbEntity
  8
1
  6
Continuous
100
AcDbLine
 10
121.7574672394998
 20
52.04163746394571
 30
0.0
 11
120.5574672394998
 21
52.04163746394571
 31
0.0
  0
LINE
  5
410F
330
18
100
AcDbEntity
  8
1
  6
Continuous
100
AcDbLine
 10
121.7574672394998
 20
208.8142510983357
 30
0.0
 11
120.5574672394998
 21
208.8142510983357
 31
0.0
  0
LINE
  5
4110
330
18
100
AcDbEntity
  8
1
  6
Continuous
100
AcDbLine
 10
120.5574672394998
 20
201.5919539323157
 30
0.0
 11
121.7574672394998
 21
201.5919539323157
 31
0.0
  0
LINE
  5
4447
330
18
100
AcDbEntity
  8
4
  6
CENTER
 48
0.3
100
AcDbLine
 10
104.2574672394999
 20
125.5416374639456
 30
0.0
 11
130.2574672394999
 21
125.5416374639456
 31
0.0
  0
LINE
  5
4448
330
18
100
AcDbEntity
  8
1
  6
Continuous
100
AcDbLine
 10
107.2574672394999
 20
115.5416374639406
 30
0.0
 11
108.7574672394999
 21
114.5416374639406
 31
0.0
  0
LINE
  5
4449
330
18
100
AcDbEntity
  8
1
  6
Continuous
100
AcDbLine
 10
108.7574672394999
 20
136.5416374639407
 30
0.0
 11
107.2574672394999
 21
135.5416374639407
 31
0.0
  0
LINE
  5
446C
330
18
100
AcDbEntity
  8
1
  6
Continuous
100
AcDbLine
 10
107.2574672394999
 20
115.5416374639406
 30
0.0
 11
107.2574672394999
 21
135.5416374639406
 31
0.0
  0
LINE
  5
446D
330
18
100
AcDbEntity
  8
1
  6
Continuous
100
AcDbLine
 10
106.2574672394999
 20
121.5416374639406
 30
0.0
 11
106.2574672394999
 21
129.5416374639406
 31
0.0
  0
LINE
  5
446E
330
18
100
AcDbEntity
  8
1
  6
Continuous
100
AcDbLine
 10
106.2574672394998
 20
121.9949618138705
 30
0.0
 11
106.5574672394998
 21
121.6080141091805
 31
0.0
  0
LINE
  5
446F
330
18
100
AcDbEntity
  8
1
  6
Continuous
100
AcDbLine
 10
106.5574672394997
 20
123.3050703840305
 30
0.0
 11
106.2574672394997
 21
123.6920180887205
 31
0.0
  0
LINE
  5
4470
330
18
100
AcDbEntity
  8
1
  6
Continuous
100
AcDbLine
 10
106.2574672395
 20
121.5416374639407
 30
0.0
 11
107.2574672394999
 21
119.7916374639408
 31
0.0
  0
LINE
  5
4471
330
18
100
AcDbEntity
  8
1
  6
Continuous
100
AcDbLine
 10
106.5574672394998
 20
121.6080141091805
 30
0.0
 11
106.5574672394998
 21
123.3050703840307
 31
0.0
  0
LINE
  5
4472
330
18
100
AcDbEntity
  8
1
  6
Continuous
100
AcDbLine
 10
106.9280420099798
 20
122.7020148027406
 30
0.0
 11
107.2574672394999
 21
122.2866003659207
 31
0.0
  0
LINE
  5
4473
330
18
100
AcDbEntity
  8
1
  6
Continuous
100
AcDbLine
 10
106.5574672394999
 20
121.6868510514607
 30
0.0
 11
106.9280420099799
 21
121.2170905622507
 31
0.0
  0
LINE
  5
4474
330
18
100
AcDbEntity
  8
1
  6
Continuous
100
AcDbLine
 10
107.2574672394999
 20
120.8016761254307
 30
0.0
 11
106.9280420099799
 21
121.2170905622507
 31
0.0
  0
LINE
  5
4476
330
18
100
AcDbEntity
  8
1
  6
Continuous
100
AcDbLine
 10
106.9280420099797
 20
122.7020148027405
 30
0.0
 11
106.5574672394997
 21
123.1717752919605
 31
0.0
  0
LINE
  5
4477
330
18
100
AcDbEntity
  8
1
  6
Continuous
100
AcDbLine
 10
107.2574672394999
 20
131.2916374639407
 30
0.0
 11
106.2574672394999
 21
129.5416374639408
 31
0.0
  0
LINE
  5
447F
330
18
100
AcDbEntity
  8
1
  6
Continuous
100
AcDbLine
 10
143.7574672394999
 20
114.541637463946
 30
0.0
 11
143.7574672394999
 21
136.5416374639456
 31
0.0
  0
LINE
  5
4480
330
18
100
AcDbEntity
  8
1
  6
Continuous
100
AcDbLine
 10
139.7574672394999
 20
138.2433433861065
 30
0.0
 11
139.7574672394999
 21
112.8399315418977
 31
0.0
  0
LINE
  5
4482
330
18
100
AcDbEntity
  8
1
  6
Continuous
100
AcDbLine
 10
108.7574672394999
 20
114.5416374639406
 30
0.0
 11
108.7574672394999
 21
136.5416374639406
 31
0.0
  0
LINE
  5
448C
330
18
100
AcDbEntity
  8
1
  6
Continuous
100
AcDbLine
 10
121.4574672394998
 20
118.9255906186207
 30
0.0
 11
119.9574672394998
 21
118.9255906186207
 31
0.0
  0
LINE
  5
448D
330
18
100
AcDbEntity
  8
1
  6
Continuous
100
AcDbLine
 10
119.9574672394998
 20
117.5661289380206
 30
0.0
 11
121.2574672394998
 21
117.5661289380206
 31
0.0
  0
LINE
  5
4490
330
18
100
AcDbEntity
  8
1
  6
Continuous
100
AcDbLine
 10
118.5574672395798
 20
116.7416374639406
 30
0.0
 11
121.2574672394998
 21
116.7416374639406
 31
0.0
  0
LINE
  5
4491
330
18
100
AcDbEntity
  8
1
  6
Continuous
100
AcDbLine
 10
120.3574672394998
 20
130.5166374639406
 30
0.0
 11
119.9574672394998
 21
130.5166374639406
 31
0.0
  0
LINE
  5
4492
330
18
100
AcDbEntity
  8
1
  6
Continuous
100
AcDbLine
 10
119.9574672394998
 20
120.5666374639406
 30
0.0
 11
120.3574672394998
 21
120.5666374639406
 31
0.0
  0
ARC
  5
4493
330
18
100
AcDbEntity
  8
1
  6
Continuous
100
AcDbCircle
 10
123.0908005736798
 20
125.5416374640356
 30
0.0
 40
20.66666666581749
100
AcDbArc
 50
342.1034488703798
 51
17.89655112962332
  0
LINE
  5
4494
330
18
100
AcDbEntity
  8
1
  6
Continuous
100
AcDbLine
 10
119.9574672394998
 20
117.5661289380206
 30
0.0
 11
119.9574672394998
 21
134.3416374639406
 31
0.0
  0
LINE
  5
4495
330
18
100
AcDbEntity
  8
1
  6
Continuous
100
AcDbLine
 10
110.7574672394999
 20
120.2652750806306
 30
0.0
 11
110.7574672394999
 21
116.0416374639406
 31
0.0
  0
LINE
  5
4496
330
18
100
AcDbEntity
  8
1
  6
Continuous
100
AcDbLine
 10
117.8574672395799
 20
116.0416374639406
 30
0.0
 11
117.8574672395799
 21
120.2652750806306
 31
0.0
  0
LINE
  5
4497
330
18
100
AcDbEntity
  8
1
  6
Continuous
100
AcDbLine
 10
118.5574672395798
 20
116.7416374639406
 30
0.0
 11
118.5574672395798
 21
121.6647830689406
 31
0.0
  0
LINE
  5
4498
330
18
100
AcDbEntity
  8
1
  6
Continuous
100
AcDbLine
 10
109.7574672394999
 20
136.3416374639405
 30
0.0
 11
109.7574672394999
 21
114.7416374639407
 31
0.0
  0
LINE
  5
449B
330
18
100
AcDbEntity
  8
1
  6
Continuous
100
AcDbLine
 10
139.7574672394999
 20
112.8399315418975
 30
0.0
 11
142.7574672395649
 21
112.8399315418975
 31
0.0
  0
LINE
  5
449C
330
18
100
AcDbEntity
  8
1
  6
Continuous
100
AcDbLine
 10
139.7574672394999
 20
119.1907845030837
 30
0.0
 11
142.7574672394999
 21
119.1907845029042
 31
0.0
  0
LINE
  5
449F
330
18
100
AcDbEntity
  8
1
  6
Continuous
100
AcDbLine
 10
108.7574672394999
 20
114.5416374639406
 30
0.0
 11
109.5574672394998
 21
114.5416374639406
 31
0.0
  0
LINE
  5
44A0
330
18
100
AcDbEntity
  8
1
  6
Continuous
100
AcDbLine
 10
109.5574672394997
 20
114.5416374639405
 30
0.0
 11
109.7574672394999
 21
114.7416374639405
 31
0.0
  0
LINE
  5
44A1
330
18
100
AcDbEntity
  8
1
  6
Continuous
100
AcDbLine
 10
109.7574672394999
 20
116.0416374639405
 30
0.0
 11
117.8574672395798
 21
116.0416374639405
 31
0.0
  0
LINE
  5
44A3
330
18
100
AcDbEntity
  8
1
  6
Continuous
100
AcDbLine
 10
142.7574672394999
 20
112.8399315417851
 30
0.0
 11
143.7574672395
 21
114.5416374639457
 31
0.0
  0
ARC
  5
44A4
330
18
100
AcDbEntity
  8
1
  6
Continuous
100
AcDbCircle
 10
127.6541506640048
 20
112.6893008853101
 30
0.0
 40
16.4432192957905
100
AcDbArc
 50
11.67004408717873
 51
23.29029631822757
  0
LINE
  5
44A5
330
18
100
AcDbEntity
  8
1
  6
Continuous
100
AcDbLine
 10
117.8574672395799
 20
116.0416374639406
 30
0.0
 11
118.5574672395798
 21
116.7416374639405
 31
0.0
  0
LINE
  5
44A6
330
18
100
AcDbEntity
  8
1
  6
Continuous
100
AcDbLine
 10
139.7574672394999
 20
131.8924904249876
 30
0.0
 11
142.7574672394999
 21
131.8924904249876
 31
0.0
  0
LINE
  5
44B8
330
18
100
AcDbEntity
  8
1
  6
Continuous
100
AcDbLine
 10
110.7574672394999
 20
130.8179998472505
 30
0.0
 11
110.7574672394999
 21
135.0416374639456
 31
0.0
  0
LINE
  5
44BC
330
18
100
AcDbEntity
  8
2
  6
Continuous
100
AcDbLine
 10
109.7574672394999
 20
120.2652750806305
 30
0.0
 11
119.9574672394999
 21
129.4184918589406
 31
0.0
  0
LINE
  5
44BE
330
18
100
AcDbEntity
  8
1
  6
Continuous
100
AcDbLine
 10
109.7574672394999
 20
120.2652750806305
 30
0.0
 11
117.8574672395798
 21
120.2652750806305
 31
0.0
  0
LINE
  5
44BF
330
18
100
AcDbEntity
  8
2
  6
Continuous
100
AcDbLine
 10
119.9574672394999
 20
121.6647830689407
 30
0.0
 11
109.7574672394999
 21
130.8179998472607
 31
0.0
  0
LINE
  5
44C0
330
18
100
AcDbEntity
  8
1
  6
Continuous
100
AcDbLine
 10
118.5574672395798
 20
121.6647830689406
 30
0.0
 11
119.9574672394998
 21
121.6647830689406
 31
0.0
  0
LINE
  5
44C1
330
18
100
AcDbEntity
  8
1
  6
Continuous
100
AcDbLine
 10
118.2231758486698
 20
120.9563044101505
 30
0.0
 11
118.5574672395798
 21
121.6647830689406
 31
0.0
  0
LINE
  5
44C2
330
18
100
AcDbEntity
  8
1
  6
Continuous
100
AcDbLine
 10
117.8574672395798
 20
120.2652750806307
 30
0.0
 11
118.2231758486698
 21
120.9563044101505
 31
0.0
  0
LINE
  5
44C9
330
18
100
AcDbEntity
  8
1
  6
Continuous
100
AcDbLine
 10
117.8574672395798
 20
135.0416374639405
 30
0.0
 11
109.7574672394999
 21
135.0416374639405
 31
0.0
  0
ARC
  5
44CA
330
18
100
AcDbEntity
  8
1
  6
Continuous
100
AcDbCircle
 10
127.6541506640048
 20
138.3939740425817
 30
0.0
 40
16.4432192957905
100
AcDbArc
 50
336.7097036817694
 51
348.3299559128192
  0
LINE
  5
44D9
330
18
100
AcDbEntity
  8
1
  6
Continuous
100
AcDbLine
 10
119.9574672394998
 20
134.3416374639406
 30
0.0
 11
118.5574672395798
 21
134.3416374639406
 31
0.0
  0
LINE
  5
44DB
330
18
100
AcDbEntity
  8
1
  6
Continuous
100
AcDbLine
 10
118.5574672395798
 20
129.4184918589409
 30
0.0
 11
118.5574672395798
 21
134.3416374639406
 31
0.0
  0
LINE
  5
44DF
330
18
100
AcDbEntity
  8
1
  6
Continuous
100
AcDbLine
 10
118.5574672395798
 20
134.3416374639406
 30
0.0
 11
117.8574672395799
 21
135.0416374639406
 31
0.0
  0
LINE
  5
44E0
330
18
100
AcDbEntity
  8
1
  6
Continuous
100
AcDbLine
 10
152.7574672394998
 20
119.0416374639406
 30
0.0
 11
152.7574672394998
 21
132.0416374639406
 31
0.0
  0
LINE
  5
44E1
330
18
100
AcDbEntity
  8
1
  6
Continuous
100
AcDbLine
 10
151.9574672394998
 20
119.0416374639406
 30
0.0
 11
151.9574672394998
 21
132.0416374639406
 31
0.0
  0
ARC
  5
44E2
330
18
100
AcDbEntity
  8
1
  6
Continuous
100
AcDbCircle
 10
155.568872262764
 20
120.7784977431161
 30
0.0
 40
2.811405023276311
100
AcDbArc
 50
145.6157525321848
 51
205.6157525325908
  0
ARC
  5
44E3
330
18
100
AcDbEntity
  8
1
  6
Continuous
100
AcDbCircle
 10
151.9460622162356
 20
120.7784977431161
 30
0.0
 40
2.811405023276311
100
AcDbArc
 50
334.3842474674091
 51
34.38424746781511
  0
LINE
  5
44E4
330
18
100
AcDbEntity
  8
1
  6
Continuous
100
AcDbLine
 10
152.7574672394877
 20
120.0416374639191
 30
0.0
 11
153.248707425606
 21
119.1907845028491
 31
0.0
  0
LINE
  5
44E5
330
18
100
AcDbEntity
  8
1
  6
Continuous
100
AcDbLine
 10
154.7574672395118
 20
120.0416374639192
 30
0.0
 11
154.2662270533935
 21
119.1907845028491
 31
0.0
  0
LINE
  5
44E6
330
18
100
AcDbEntity
  8
1
  6
Continuous
100
AcDbLine
 10
121.7574672394998
 20
118.0873061794806
 30
0.0
 11
121.7574672394998
 21
132.8416374639405
 31
0.0
  0
LINE
  5
44E7
330
18
100
AcDbEntity
  8
1
  6
Continuous
100
AcDbLine
 10
120.5574672394998
 20
118.9255906186207
 30
0.0
 11
120.5574672394998
 21
132.8416374639406
 31
0.0
  0
LINE
  5
44E8
330
18
100
AcDbEntity
  8
1
  6
Continuous
100
AcDbLine
 10
153.248707425606
 20
119.1907845028492
 30
0.0
 11
154.2662270533919
 21
119.1907845028465
 31
0.0
  0
LINE
  5
44EA
330
18
100
AcDbEntity
  8
1
  6
Continuous
100
AcDbLine
 10
121.4574672394998
 20
118.0873061794806
 30
0.0
 11
121.7574672394998
 21
118.0873061794806
 31
0.0
  0
LINE
  5
44EB
330
18
100
AcDbEntity
  8
1
  6
Continuous
100
AcDbLine
 10
121.4574672394998
 20
118.5416374639406
 30
0.0
 11
121.7574672394998
 21
118.5416374639406
 31
0.0
  0
LINE
  5
44EC
330
18
100
AcDbEntity
  8
1
  6
Continuous
100
AcDbLine
 10
121.4574672394998
 20
116.9416374639405
 30
0.0
 11
121.4574672394998
 21
118.9255906186206
 31
0.0
  0
LINE
  5
44ED
330
18
100
AcDbEntity
  8
1
  6
Continuous
100
AcDbLine
 10
121.2574672394998
 20
117.5661289380206
 30
0.0
 11
121.4574672394998
 21
117.7473904954207
 31
0.0
  0
LINE
  5
44EF
330
18
100
AcDbEntity
  8
1
  6
Continuous
100
AcDbLine
 10
121.2574672394998
 20
116.7416374639406
 30
0.0
 11
121.4574672394998
 21
116.9416374639406
 31
0.0
  0
LINE
  5
44F1
330
18
100
AcDbEntity
  8
1
  6
Continuous
100
AcDbLine
 10
151.9574672394998
 20
119.0416374639406
 30
0.0
 11
152.7574672394998
 21
119.0416374639406
 31
0.0
  0
LINE
  5
44F3
330
18
100
AcDbEntity
  8
1
  6
Continuous
100
AcDbLine
 10
153.248707425607
 20
122.3662109834116
 30
0.0
 11
154.2662270533926
 21
122.36621098341
 31
0.0
  0
LINE
  5
44F4
330
18
100
AcDbEntity
  8
1
  6
Continuous
100
AcDbLine
 10
153.248707425607
 20
128.7170639445071
 30
0.0
 11
154.2662270533926
 21
128.7170639445078
 31
0.0
  0
LINE
  5
44F5
330
18
100
AcDbEntity
  8
1
  6
Continuous
100
AcDbLine
 10
153.2487074256065
 20
131.8924904250436
 30
0.0
 11
154.2662270533935
 21
131.8924904250432
 31
0.0
  0
ARC
  5
44F6
330
18
100
AcDbEntity
  8
1
  6
Continuous
100
AcDbCircle
 10
163.2662270537327
 20
125.5416374639617
 30
0.0
 40
10.50875981423296
100
AcDbArc
 50
162.4120462266054
 51
197.5879537734275
  0
LINE
  5
4502
330
18
100
AcDbEntity
  8
1
  6
Continuous
100
AcDbLine
 10
120.3574672394998
 20
120.5666374639406
 30
0.0
 11
120.5574672394998
 21
120.7666374639406
 31
0.0
  0
LINE
  5
4505
330
18
100
AcDbEntity
  8
1
  6
Continuous
100
AcDbLine
 10
121.7574672394998
 20
129.0493690364256
 30
0.0
 11
120.5574672394998
 21
129.0493690364256
 31
0.0
  0
LINE
  5
4506
330
18
100
AcDbEntity
  8
1
  6
Continuous
100
AcDbLine
 10
121.7574672394998
 20
128.4999652961206
 30
0.0
 11
120.5574672394998
 21
128.4999652961206
 31
0.0
  0
LINE
  5
4507
330
18
100
AcDbEntity
  8
1
  6
Continuous
100
AcDbLine
 10
120.5574672394999
 20
130.3166374639407
 30
0.0
 11
120.3574672394999
 21
130.5166374639407
 31
0.0
  0
LINE
  5
4508
330
18
100
AcDbEntity
  8
1
  6
Continuous
100
AcDbLine
 10
121.7574672394998
 20
132.8416374639407
 30
0.0
 11
120.5574672394998
 21
132.8416374639407
 31
0.0
  0
ARC
  5
4509
330
18
100
AcDbEntity
  8
1
  6
Continuous
100
AcDbCircle
 10
155.568872262764
 20
130.3047771847763
 30
0.0
 40
2.811405023276311
100
AcDbArc
 50
154.3842474674091
 51
214.3842474678151
  0
LINE
  5
450A
330
18
100
AcDbEntity
  8
1
  6
Continuous
100
AcDbLine
 10
152.7574672394877
 20
131.0416374639731
 30
0.0
 11
153.248707425606
 21
131.892490425043
 31
0.0
  0
LINE
  5
450B
330
18
100
AcDbEntity
  8
1
  6
Continuous
100
AcDbLine
 10
152.7574672394998
 20
132.0416374639406
 30
0.0
 11
151.9574672394998
 21
132.0416374639406
 31
0.0
  0
ARC
  5
450C
330
18
100
AcDbEntity
  8
1
  6
Continuous
100
AcDbCircle
 10
144.2487074252669
 20
125.5416374639617
 30
0.0
 40
10.50875981423296
100
AcDbArc
 50
342.4120462265724
 51
17.58795377339458
  0
LINE
  5
450D
330
18
100
AcDbEntity
  8
1
  6
Continuous
100
AcDbLine
 10
154.7574672394999
 20
131.041637463994
 30
0.0
 11
154.7574672394999
 21
120.0416374638984
 31
0.0
  0
LINE
  5
450E
330
18
100
AcDbEntity
  8
1
  6
Continuous
100
AcDbLine
 10
127.2574672394999
 20
127.7687432090706
 30
0.0
 11
127.2574672394999
 21
129.0416374639406
 31
0.0
  0
LINE
  5
450F
330
18
100
AcDbEntity
  8
1
  6
Continuous
100
AcDbLine
 10
128.2574672394999
 20
128.0416374639406
 30
0.0
 11
128.2574672394999
 21
123.0416374639406
 31
0.0
  0
LINE
  5
4514
330
18
100
AcDbEntity
  8
1
  6
Continuous
100
AcDbLine
 10
121.7574672394998
 20
122.0416374639406
 30
0.0
 11
127.2574672394999
 21
122.0416374639406
 31
0.0
  0
LINE
  5
4516
330
18
100
AcDbEntity
  8
1
  6
Continuous
100
AcDbLine
 10
127.2574672394999
 20
122.0416374639406
 30
0.0
 11
127.2574672394998
 21
123.3145317188207
 31
0.0
  0
LINE
  5
4517
330
18
100
AcDbEntity
  8
1
  6
Continuous
100
AcDbLine
 10
127.2574672394999
 20
122.0416374639406
 30
0.0
 11
128.2574672394999
 21
123.0416374639406
 31
0.0
  0
LINE
  5
451B
330
18
100
AcDbEntity
  8
1
  6
Continuous
100
AcDbLine
 10
127.2574672394999
 20
127.7687432090706
 30
0.0
 11
121.7574672394998
 21
127.7687432090706
 31
0.0
  0
ARC
  5
451C
330
18
100
AcDbEntity
  8
1
  6
Continuous
100
AcDbCircle
 10
124.5082581978663
 20
125.5416374639456
 30
0.0
 40
3.538099822583881
100
AcDbArc
 50
320.9894265483435
 51
39.01057345165812
  0
LINE
  5
451F
330
18
100
AcDbEntity
  8
1
  6
Continuous
100
AcDbLine
 10
127.2574672394999
 20
129.0416374639406
 30
0.0
 11
121.7574672394998
 21
129.0416374639406
 31
0.0
  0
ARC
  5
4520
330
18
100
AcDbEntity
  8
1
  6
Continuous
100
AcDbCircle
 10
151.9460622162356
 20
130.3047771847763
 30
0.0
 40
2.811405023276311
100
AcDbArc
 50
325.6157525321849
 51
25.61575253259088
  0
LINE
  5
4521
330
18
100
AcDbEntity
  8
1
  6
Continuous
100
AcDbLine
 10
154.7574672395118
 20
131.0416374639731
 30
0.0
 11
154.2662270533935
 21
131.892490425043
 31
0.0
  0
LINE
  5
4522
330
18
100
AcDbEntity
  8
1
  6
Continuous
100
AcDbLine
 10
128.2574672394999
 20
128.0416374639406
 30
0.0
 11
127.2574672394998
 21
129.0416374639406
 31
0.0
  0
LINE
  5
4578
330
18
100
AcDbEntity
  8
1
  6
Continuous
100
AcDbLine
 10
142.7574672394999
 20
138.2433433861065
 30
0.0
 11
139.7574672394999
 21
138.2433433861065
 31
0.0
  0
LINE
  5
4579
330
18
100
AcDbEntity
  8
1
  6
Continuous
100
AcDbLine
 10
109.5574672394998
 20
136.5416374639406
 30
0.0
 11
108.7574672394999
 21
136.5416374639406
 31
0.0
  0
LINE
  5
457A
330
18
100
AcDbEntity
  8
1
  6
Continuous
100
AcDbLine
 10
109.7574672394997
 20
136.3416374639406
 30
0.0
 11
109.5574672394998
 21
136.5416374639406
 31
0.0
  0
LINE
  5
457B
330
18
100
AcDbEntity
  8
1
  6
Continuous
100
AcDbLine
 10
142.7574672395
 20
138.2433433861067
 30
0.0
 11
143.7574672395
 21
136.5416374639456
 31
0.0
  0
LINE
  5
4587
330
18
100
AcDbEntity
  8
4
  6
CENTER
 48
0.3
100
AcDbLine
 10
64.73948321985409
 20
205.5416374639456
 30
0.0
 11
16.73948321985454
 21
205.5416374639456
 31
0.0
  0
LINE
  5
4588
330
18
100
AcDbEntity
  8
1
  6
Continuous
100
AcDbLine
 10
47.53948321985457
 20
211.0416374639457
 30
0.0
 11
39.43948321985459
 21
211.0416374639457
 31
0.0
  0
LINE
  5
4589
330
18
100
AcDbEntity
  8
1
  6
Continuous
100
AcDbLine
 10
39.43948321985459
 20
200.0416374639456
 30
0.0
 11
47.53948321985457
 21
200.0416374639456
 31
0.0
  0
LINE
  5
4591
330
18
100
AcDbEntity
  8
1
  6
Continuous
100
AcDbLine
 10
24.14575014808446
 20
216.6510378564057
 30
0.0
 11
20.0753826311745
 21
210.5454865809956
 31
0.0
  0
LINE
  5
4592
330
18
100
AcDbEntity
  8
1
  6
Continuous
100
AcDbLine
 10
20.07538263117464
 20
200.537788346895
 30
0.0
 11
24.14575014808463
 21
194.4322370714856
 31
0.0
  0
ARC
  5
459D
330
18
100
AcDbEntity
  8
1
  6
Continuous
100
AcDbCircle
 10
21.73948321985454
 20
201.6471887393457
 30
0.0
 40
2.0
100
AcDbArc
 50
180.0000000001188
 51
213.6900675259097
  0
ARC
  5
459E
330
18
100
AcDbEntity
  8
1
  6
Continuous
100
AcDbCircle
 10
21.73948321985454
 20
209.4360861885557
 30
0.0
 40
2.0
100
AcDbArc
 50
146.3099324742501
 51
180.0000000000195
  0
LINE
  5
45A7
330
18
100
AcDbEntity
  8
1
  6
Continuous
100
AcDbLine
 10
19.73948321985455
 20
209.4360861885557
 30
0.0
 11
19.73948321985455
 21
201.6471887393457
 31
0.0
  0
LINE
  5
45B2
330
18
100
AcDbEntity
  8
1
  6
Continuous
100
AcDbLine
 10
30.93949549457557
 20
194.9414160072598
 30
0.0
 11
39.40948321985459
 21
201.2914644748852
 31
0.0
  0
LINE
  5
45B7
330
18
100
AcDbEntity
  8
1
  6
Continuous
100
AcDbLine
 10
39.40948321985459
 20
209.7918104529986
 30
0.0
 11
30.93949549456647
 21
216.1418589206312
 31
0.0
  0
LINE
  5
45BA
330
18
100
AcDbEntity
  8
1
  6
Continuous
100
AcDbLine
 10
39.43948321985454
 20
211.0416374639457
 30
0.0
 11
31.27191354550461
 21
217.1438446917355
 31
0.0
  0
LINE
  5
45BB
330
18
100
AcDbEntity
  8
1
  6
Continuous
100
AcDbLine
 10
31.27191354550456
 20
193.9394302361552
 30
0.0
 11
39.43948321985459
 21
200.0416374639457
 31
0.0
  0
ARC
  5
45BE
330
18
100
AcDbEntity
  8
1
  6
Continuous
100
AcDbCircle
 10
22.73948321985455
 20
201.9499643770966
 30
0.0
 40
2.0
100
AcDbArc
 50
180.0
 51
213.6900675259802
  0
ARC
  5
45BF
330
18
100
AcDbEntity
  8
1
  6
Continuous
100
AcDbCircle
 10
25.23948321984454
 20
202.0416374639556
 30
0.0
 40
0.5
100
AcDbArc
 50
270.0
 51
359.9999999999983
  0
ARC
  5
45C0
330
18
100
AcDbEntity
  8
1
  6
Continuous
100
AcDbCircle
 10
22.73948321982453
 20
202.0416374639456
 30
0.0
 40
0.5
100
AcDbArc
 50
180.0
 51
270.0000000019215
  0
LINE
  5
45C8
330
18
100
AcDbEntity
  8
1
  6
Continuous
100
AcDbLine
 10
26.34503449528853
 20
194.5416374639456
 30
0.0
 11
29.73979082693352
 21
194.5416374639456
 31
0.0
  0
LINE
  5
45CB
330
18
100
AcDbEntity
  8
1
  6
Continuous
100
AcDbLine
 10
25.80985073676453
 20
193.5416374639257
 30
0.0
 11
30.07486216847456
 21
193.5416374639257
 31
0.0
  0
ARC
  5
45CC
330
18
100
AcDbEntity
  8
1
  6
Continuous
100
AcDbCircle
 10
25.80985073676453
 20
195.5416374639257
 30
0.0
 40
1.999999999999899
100
AcDbArc
 50
213.6900675257792
 51
270.0000000000096
  0
LINE
  5
45D0
330
18
100
AcDbEntity
  8
1
  6
Continuous
100
AcDbLine
 10
21.07538263117896
 20
200.8405639846462
 30
0.0
 11
24.68093390661306
 21
195.4322370714951
 31
0.0
  0
LINE
  5
45D2
330
18
100
AcDbEntity
  8
1
  6
Continuous
100
AcDbLine
 10
22.73948321984454
 20
201.5416374639456
 30
0.0
 11
25.23948321984454
 21
201.5416374639456
 31
0.0
  0
ARC
  5
45D7
330
18
100
AcDbEntity
  8
1
  6
Continuous
100
AcDbCircle
 10
26.34503449528853
 20
196.5416374639456
 30
0.0
 40
2.0
100
AcDbArc
 50
213.6900675259802
 51
270.0000000000016
  0
ARC
  5
45D8
330
18
100
AcDbEntity
  8
1
  6
Continuous
100
AcDbCircle
 10
30.07486216846459
 20
195.5416374639257
 30
0.0
 40
1.999999999999899
100
AcDbArc
 50
270.000000000039
 51
306.7643806750883
  0
ARC
  5
45E1
330
18
100
AcDbEntity
  8
1
  6
Continuous
100
AcDbCircle
 10
29.73979082693352
 20
196.5416374639456
 30
0.0
 40
2.0
100
AcDbArc
 50
270.0
 51
306.8593225666859
  0
LINE
  5
45E2
330
18
100
AcDbEntity
  8
1
  6
Continuous
100
AcDbLine
 10
26.34503449528853
 20
216.5416374639457
 30
0.0
 11
29.73979082693352
 21
216.5416374639457
 31
0.0
  0
LINE
  5
45E5
330
18
100
AcDbEntity
  8
1
  6
Continuous
100
AcDbLine
 10
30.07486216847456
 20
217.5416374639656
 30
0.0
 11
25.80985073676453
 21
217.5416374639656
 31
0.0
  0
ARC
  5
45E6
330
18
100
AcDbEntity
  8
1
  6
Continuous
100
AcDbCircle
 10
22.73948321985455
 20
209.1333105506412
 30
0.0
 40
2.0
100
AcDbArc
 50
146.3099324740197
 51
180.0
  0
LINE
  5
45ED
330
18
100
AcDbEntity
  8
1
  6
Continuous
100
AcDbLine
 10
25.23948321984454
 20
209.5416374639457
 30
0.0
 11
22.73948321984454
 21
209.5416374639457
 31
0.0
  0
LINE
  5
45F2
330
18
100
AcDbEntity
  8
1
  6
Continuous
100
AcDbLine
 10
20.73948321985449
 20
201.9499643770966
 30
0.0
 11
20.73948321985452
 21
209.1333105506407
 31
0.0
  0
ARC
  5
45F5
330
18
100
AcDbEntity
  8
1
  6
Continuous
100
AcDbCircle
 10
22.73948321984454
 20
209.0416374639257
 30
0.0
 40
0.5
100
AcDbArc
 50
90.0
 51
179.9999999980898
  0
ARC
  5
45F8
330
18
100
AcDbEntity
  8
1
  6
Continuous
100
AcDbCircle
 10
25.23948321985455
 20
209.0416374639457
 30
0.0
 40
0.5
100
AcDbArc
 50
0.0
 51
90.00000000120994
  0
LINE
  5
45F9
330
18
100
AcDbEntity
  8
1
  6
Continuous
100
AcDbLine
 10
25.73948321984454
 20
202.0416374639456
 30
0.0
 11
25.73948321984454
 21
209.0416374639457
 31
0.0
  0
LINE
  5
45FA
330
18
100
AcDbEntity
  8
1
  6
Continuous
100
AcDbLine
 10
24.68093390671555
 20
215.6510378563956
 30
0.0
 11
21.07538263117908
 21
210.2427109430911
 31
0.0
  0
ARC
  5
45FB
330
18
100
AcDbEntity
  8
1
  6
Continuous
100
AcDbCircle
 10
26.34503449539107
 20
214.5416374639457
 30
0.0
 40
2.0
100
AcDbArc
 50
90.0
 51
146.3099324740197
  0
ARC
  5
45FC
330
18
100
AcDbEntity
  8
1
  6
Continuous
100
AcDbCircle
 10
25.80985073675452
 20
215.5416374639556
 30
0.0
 40
1.999999999999899
100
AcDbArc
 50
89.99999999988926
 51
146.3099324740409
  0
ARC
  5
4602
330
18
100
AcDbEntity
  8
1
  6
Continuous
100
AcDbCircle
 10
29.73979082692455
 20
214.5416374639457
 30
0.0
 40
2.0
100
AcDbArc
 50
53.1406774333095
 51
90.0
  0
ARC
  5
4607
330
18
100
AcDbEntity
  8
1
  6
Continuous
100
AcDbCircle
 10
30.07486216847456
 20
215.5416374639656
 30
0.0
 40
2.0
100
AcDbArc
 50
53.23561932502923
 51
90.00000000007981
  0
LINE
  5
460A
330
18
100
AcDbEntity
  8
1
  6
Continuous
100
AcDbLine
 10
39.40948321985459
 20
201.2914644748851
 30
0.0
 11
39.40948321985459
 21
209.7918104529986
 31
0.0
  0
LINE
  5
4625
330
18
100
AcDbEntity
  8
1
  6
Continuous
100
AcDbLine
 10
57.05689181495404
 20
202.0916374639457
 30
0.0
 11
47.53948321985457
 21
202.0916374639457
 31
0.0
  0
LINE
  5
4627
330
18
100
AcDbEntity
  8
1
  6
Continuous
100
AcDbLine
 10
57.05689181495404
 20
208.9916374639457
 30
0.0
 11
47.53948321985457
 21
208.9916374639457
 31
0.0
  0
LINE
  5
4628
330
18
100
AcDbEntity
  8
1
  6
Continuous
100
AcDbLine
 10
47.33948321985457
 20
201.8916374639457
 30
0.0
 11
47.33948321985457
 21
201.5532838664357
 31
0.0
  0
LINE
  5
4632
330
18
100
AcDbEntity
  8
1
  6
Continuous
100
AcDbLine
 10
47.40269499407457
 20
201.4073764256152
 30
0.0
 11
47.67627144563459
 21
201.1508985022758
 31
0.0
  0
ARC
  5
4633
330
18
100
AcDbEntity
  8
1
  6
Continuous
100
AcDbCircle
 10
47.5394832197951
 20
201.5532838664947
 30
0.0
 40
0.20000000000005
100
AcDbArc
 50
180.0000000167094
 51
226.8476102904597
  0
ARC
  5
4634
330
18
100
AcDbEntity
  8
1
  6
Continuous
100
AcDbCircle
 10
47.53948321985457
 20
200.2416374639252
 30
0.0
 40
0.19999999999999
100
AcDbArc
 50
270.0
 51
0.0000000059145086
  0
ARC
  5
4635
330
18
100
AcDbEntity
  8
1
  6
Continuous
100
AcDbCircle
 10
47.5394832198246
 20
201.0049910614852
 30
0.0
 40
0.20000000000005
100
AcDbArc
 50
0.0000000000488533
 51
46.84761025276007
  0
LINE
  5
4636
330
18
100
AcDbEntity
  8
1
  6
Continuous
100
AcDbLine
 10
47.7394832198546
 20
200.2416374639457
 30
0.0
 11
47.7394832198546
 21
201.0049910614552
 31
0.0
  0
LINE
  5
4639
330
18
100
AcDbEntity
  8
1
  6
Continuous
100
AcDbLine
 10
47.40269499407445
 20
209.6758985022757
 30
0.0
 11
47.67627144563459
 21
209.9323764256151
 31
0.0
  0
ARC
  5
463A
330
18
100
AcDbEntity
  8
1
  6
Continuous
100
AcDbCircle
 10
47.53948321985457
 20
201.8916374639857
 30
0.0
 40
0.19999999999999
100
AcDbArc
 50
90.0
 51
180.0000000119202
  0
ARC
  5
463B
330
18
100
AcDbEntity
  8
1
  6
Continuous
100
AcDbCircle
 10
47.53948321985506
 20
209.1916374639457
 30
0.0
 40
0.19999999999999
100
AcDbArc
 50
180.0
 51
270.0000000010373
  0
ARC
  5
463C
330
18
100
AcDbEntity
  8
1
  6
Continuous
100
AcDbCircle
 10
47.53948321985457
 20
209.5299910614256
 30
0.0
 40
0.19999999999999
100
AcDbArc
 50
133.1523897282005
 51
179.9999999915597
  0
LINE
  5
463D
330
18
100
AcDbEntity
  8
1
  6
Continuous
100
AcDbLine
 10
47.33948321985457
 20
209.1916374639457
 30
0.0
 11
47.33948321985457
 21
209.5299910614552
 31
0.0
  0
ARC
  5
463E
330
18
100
AcDbEntity
  8
1
  6
Continuous
100
AcDbCircle
 10
47.53948321985457
 20
210.0782838665053
 30
0.0
 40
0.19999999999997
100
AcDbArc
 50
313.152389720265
 51
0.0000000000553671
  0
ARC
  5
463F
330
18
100
AcDbEntity
  8
1
  6
Continuous
100
AcDbCircle
 10
47.53948321983506
 20
210.8416374639458
 30
0.0
 40
0.20000000000005
100
AcDbArc
 50
0.0
 51
89.99999999410015
  0
LINE
  5
4640
330
18
100
AcDbEntity
  8
1
  6
Continuous
100
AcDbLine
 10
47.7394832198546
 20
210.0782838664351
 30
0.0
 11
47.7394832198546
 21
210.8416374639458
 31
0.0
  0
ARC
  5
4643
330
18
100
AcDbEntity
  8
1
  6
Continuous
100
AcDbCircle
 10
60.73948321985409
 20
204.4828386613521
 30
0.0
 40
1.0
100
AcDbArc
 50
290.6954507340747
 51
0.0
  0
ARC
  5
4644
330
18
100
AcDbEntity
  8
1
  6
Continuous
100
AcDbCircle
 10
60.73948321985409
 20
206.6004362665395
 30
0.0
 40
1.0
100
AcDbArc
 50
0.0
 51
69.30454926589168
  0
LINE
  5
4645
330
18
100
AcDbEntity
  8
1
  6
Continuous
100
AcDbLine
 10
57.410292383674
 20
202.1561653702756
 30
0.0
 11
61.09288378857411
 21
203.5473665676858
 31
0.0
  0
LINE
  5
4646
330
18
100
AcDbEntity
  8
1
  6
Continuous
100
AcDbLine
 10
57.41029238367406
 20
208.9271095576157
 30
0.0
 11
61.09288378857411
 21
207.5359083602057
 31
0.0
  0
ARC
  5
4647
330
18
100
AcDbEntity
  8
1
  6
Continuous
100
AcDbCircle
 10
57.0568918149441
 20
203.0916374639352
 30
0.0
 40
1.0
100
AcDbArc
 50
270.0000000009168
 51
290.6954507350411
  0
ARC
  5
4648
330
18
100
AcDbEntity
  8
1
  6
Continuous
100
AcDbCircle
 10
57.0568918149641
 20
207.9916374639457
 30
0.0
 40
1.0
100
AcDbArc
 50
69.30454926629058
 51
90.00000000037942
  0
LINE
  5
464A
330
18
100
AcDbEntity
  8
1
  6
Continuous
100
AcDbLine
 10
59.2394832198541
 20
202.847193019501
 30
0.0
 11
59.2394832198541
 21
208.2360819083857
 31
0.0
  0
LINE
  5
464B
330
18
100
AcDbEntity
  8
1
  6
Continuous
100
AcDbLine
 10
61.7394832198541
 20
204.4828386613457
 30
0.0
 11
61.7394832198541
 21
206.6004362665458
 31
0.0
  0
LINE
  5
46CE
330
18
100
AcDbEntity
  8
1
  6
Continuous
100
AcDbLine
 10
22.23948321984454
 20
202.0416374639423
 30
0.0
 11
22.23948321984454
 21
209.0416374639423
 31
0.0
  0
LINE
  5
48C0
330
18
100
AcDbEntity
  8
1
  6
Continuous
100
AcDbLine
 10
127.2574672394999
 20
123.3145317188207
 30
0.0
 11
121.7574672394998
 21
123.3145317188207
 31
0.0
  0
LINE
  5
48C3
330
18
100
AcDbEntity
  8
2
  6
Continuous
100
AcDbLine
 10
127.2574672394999
 20
127.7687432090706
 30
0.0
 11
121.7574672394998
 21
124.112300940955
 31
0.0
  0
LINE
  5
48C4
330
18
100
AcDbEntity
  8
2
  6
Continuous
100
AcDbLine
 10
127.2574672394999
 20
123.3145317188207
 30
0.0
 11
121.7574672394998
 21
126.9709739869363
 31
0.0
  0
LINE
  5
48C5
330
18
100
AcDbEntity
  8
1
  6
Continuous
100
AcDbLine
 10
109.7574672394999
 20
130.8179998472607
 30
0.0
 11
117.8574672395798
 21
130.8179998472607
 31
0.0
  0
LINE
  5
48C7
330
18
100
AcDbEntity
  8
1
  6
Continuous
100
AcDbLine
 10
117.8574672395799
 20
135.0416374639506
 30
0.0
 11
117.8574672395799
 21
130.8179998472606
 31
0.0
  0
LINE
  5
48C8
330
18
100
AcDbEntity
  8
1
  6
Continuous
100
AcDbLine
 10
118.5574672395798
 20
129.4184918589506
 30
0.0
 11
119.9574672394998
 21
129.4184918589506
 31
0.0
  0
LINE
  5
48C9
330
18
100
AcDbEntity
  8
1
  6
Continuous
100
AcDbLine
 10
118.2231758486698
 20
130.1269705177406
 30
0.0
 11
118.5574672395798
 21
129.4184918589506
 31
0.0
  0
LINE
  5
48CA
330
18
100
AcDbEntity
  8
1
  6
Continuous
100
AcDbLine
 10
117.8574672395798
 20
130.8179998472605
 30
0.0
 11
118.2231758486698
 21
130.1269705177406
 31
0.0
  0
LINE
  5
48CB
330
18
100
AcDbEntity
  8
2
  6
Continuous
100
AcDbLine
 10
118.3989672395748
 20
134.5001374639456
 30
0.0
 11
110.7574672394999
 21
134.5001374639456
 31
0.0
  0
LINE
  5
48CC
330
18
100
AcDbEntity
  8
2
  6
Continuous
100
AcDbLine
 10
118.3989672395848
 20
116.5831374639456
 30
0.0
 11
110.7574672394999
 21
116.5831374639456
 31
0.0
  0
LINE
  5
48CD
330
18
100
AcDbEntity
  8
2
  6
Continuous
100
AcDbLine
 10
127.6634672395043
 20
122.4476374639451
 30
0.0
 11
121.7574672394998
 21
122.4476374639454
 31
0.0
  0
LINE
  5
48CE
330
18
100
AcDbEntity
  8
2
  6
Continuous
100
AcDbLine
 10
127.6634672394953
 20
128.6356374639452
 30
0.0
 11
121.7574672394998
 21
128.6356374639455
 31
0.0
  0
LINE
  5
4A9B
330
18
100
AcDbEntity
  8
4
  6
CENTER
 48
0.3
100
AcDbLine
 10
104.2574672394999
 20
205.5416374639456
 30
0.0
 11
130.2574672394999
 21
205.5416374639456
 31
0.0
  0
LINE
  5
4AA4
330
18
100
AcDbEntity
  8
1
  6
Continuous
100
AcDbLine
 10
106.2574672394999
 20
201.5416374639406
 30
0.0
 11
106.2574672394999
 21
209.5416374639406
 31
0.0
  0
LINE
  5
4AA5
330
18
100
AcDbEntity
  8
1
  6
Continuous
100
AcDbLine
 10
107.2574672394999
 20
195.5416374639406
 30
0.0
 11
107.2574672394999
 21
215.5416374639406
 31
0.0
  0
LINE
  5
4AA8
330
18
100
AcDbEntity
  8
1
  6
Continuous
100
AcDbLine
 10
108.7574672394999
 20
194.5416374639406
 30
0.0
 11
108.7574672394999
 21
216.5416374639406
 31
0.0
  0
LINE
  5
4AAA
330
18
100
AcDbEntity
  8
1
  6
Continuous
100
AcDbLine
 10
109.7574672394999
 20
216.3416374639405
 30
0.0
 11
109.7574672394999
 21
194.7416374639406
 31
0.0
  0
LINE
  5
4ABB
330
18
100
AcDbEntity
  8
1
  6
Continuous
100
AcDbLine
 10
107.2574672394999
 20
195.5416374639406
 30
0.0
 11
108.7574672394999
 21
194.5416374639406
 31
0.0
  0
LINE
  5
4ABC
330
18
100
AcDbEntity
  8
1
  6
Continuous
100
AcDbLine
 10
108.7574672394999
 20
194.5416374639406
 30
0.0
 11
109.5574672394998
 21
194.5416374639406
 31
0.0
  0
LINE
  5
4ABD
330
18
100
AcDbEntity
  8
1
  6
Continuous
100
AcDbLine
 10
109.5574672394997
 20
194.5416374639405
 30
0.0
 11
109.7574672394999
 21
194.7416374639405
 31
0.0
  0
LINE
  5
4ABE
330
18
100
AcDbEntity
  8
1
  6
Continuous
100
AcDbLine
 10
106.2574672395
 20
201.5416374639407
 30
0.0
 11
107.2574672394999
 21
199.7916374639408
 31
0.0
  0
LINE
  5
4AC6
330
18
100
AcDbEntity
  8
1
  6
Continuous
100
AcDbLine
 10
117.8574672395799
 20
213.4416374639457
 30
0.0
 11
117.8574672395798
 21
197.6416374639457
 31
0.0
  0
LINE
  5
4AC7
330
18
100
AcDbEntity
  8
1
  6
Continuous
100
AcDbLine
 10
110.7574672394999
 20
197.6416374639457
 30
0.0
 11
110.7574672394999
 21
213.4416374639457
 31
0.0
  0
LINE
  5
4ACA
330
18
100
AcDbEntity
  8
1
  6
Continuous
100
AcDbLine
 10
107.2574672394999
 20
211.2916374639406
 30
0.0
 11
106.2574672394999
 21
209.5416374639408
 31
0.0
  0
LINE
  5
4ACF
330
18
100
AcDbEntity
  8
1
  6
Continuous
100
AcDbLine
 10
109.5574672394998
 20
216.5416374639406
 30
0.0
 11
108.7574672394999
 21
216.5416374639406
 31
0.0
  0
LINE
  5
4AD0
330
18
100
AcDbEntity
  8
1
  6
Continuous
100
AcDbLine
 10
109.7574672394997
 20
216.3416374639406
 30
0.0
 11
109.5574672394998
 21
216.5416374639406
 31
0.0
  0
LINE
  5
4AD1
330
18
100
AcDbEntity
  8
1
  6
Continuous
100
AcDbLine
 10
108.7574672394999
 20
216.5416374639407
 30
0.0
 11
107.2574672394999
 21
215.5416374639407
 31
0.0
  0
LINE
  5
4ADA
330
18
100
AcDbEntity
  8
1
  6
Continuous
100
AcDbLine
 10
119.9574672394998
 20
197.6416374639457
 30
0.0
 11
119.9574672394998
 21
213.4416374639457
 31
0.0
  0
LINE
  5
4ADB
330
18
100
AcDbEntity
  8
1
  6
Continuous
100
AcDbLine
 10
152.7574672394998
 20
199.0416374639406
 30
0.0
 11
152.7574672394998
 21
212.0416374639406
 31
0.0
  0
LINE
  5
4ADC
330
18
100
AcDbEntity
  8
1
  6
Continuous
100
AcDbLine
 10
151.9574672394998
 20
199.0416374639406
 30
0.0
 11
151.9574672394998
 21
212.0416374639406
 31
0.0
  0
LINE
  5
4ADD
330
18
100
AcDbEntity
  8
1
  6
Continuous
100
AcDbLine
 10
121.7574672394998
 20
198.0873061794806
 30
0.0
 11
121.7574672394998
 21
212.8416374639406
 31
0.0
  0
LINE
  5
4ADE
330
18
100
AcDbEntity
  8
1
  6
Continuous
100
AcDbLine
 10
120.5574672394998
 20
198.0873061794806
 30
0.0
 11
120.5574672394998
 21
212.8416374639406
 31
0.0
  0
LINE
  5
4AE3
330
18
100
AcDbEntity
  8
1
  6
Continuous
100
AcDbLine
 10
119.9574672394998
 20
200.5666374639406
 30
0.0
 11
120.3574672394998
 21
200.5666374639406
 31
0.0
  0
LINE
  5
4AE7
330
18
100
AcDbEntity
  8
1
  6
Continuous
100
AcDbLine
 10
120.3574672394998
 20
200.5666374639406
 30
0.0
 11
120.5574672394998
 21
200.7666374639406
 31
0.0
  0
LINE
  5
4AED
330
18
100
AcDbEntity
  8
1
  6
Continuous
100
AcDbLine
 10
120.5574672394998
 20
198.0873061794806
 30
0.0
 11
121.7574672394998
 21
198.0873061794806
 31
0.0
  0
LINE
  5
4AF2
330
18
100
AcDbEntity
  8
1
  6
Continuous
100
AcDbLine
 10
151.9574672394998
 20
199.0416374639406
 30
0.0
 11
152.7574672394998
 21
199.0416374639406
 31
0.0
  0
LINE
  5
4B00
330
18
100
AcDbEntity
  8
1
  6
Continuous
100
AcDbLine
 10
121.7574672394998
 20
212.8416374639407
 30
0.0
 11
120.5574672394998
 21
212.8416374639407
 31
0.0
  0
LINE
  5
4B01
330
18
100
AcDbEntity
  8
1
  6
Continuous
100
AcDbLine
 10
152.7574672394998
 20
212.0416374639406
 30
0.0
 11
151.9574672394998
 21
212.0416374639406
 31
0.0
  0
LINE
  5
4B06
330
18
100
AcDbEntity
  8
1
  6
Continuous
100
AcDbLine
 10
120.3574672394998
 20
210.5166374639406
 30
0.0
 11
119.9574672394998
 21
210.5166374639406
 31
0.0
  0
LINE
  5
4B0B
330
18
100
AcDbEntity
  8
1
  6
Continuous
100
AcDbLine
 10
120.5574672394999
 20
210.3166374639407
 30
0.0
 11
120.3574672394999
 21
210.5166374639408
 31
0.0
  0
LINE
  5
4B0D
330
18
100
AcDbEntity
  8
1
  6
Continuous
100
AcDbLine
 10
118.5574672395798
 20
197.6416374639457
 30
0.0
 11
118.5574672395798
 21
213.4416374639457
 31
0.0
  0
LINE
  5
4C14
330
18
100
AcDbEntity
  8
1
  6
Continuous
100
AcDbLine
 10
109.7574672394999
 20
213.4416374639457
 30
0.0
 11
119.9574672394998
 21
213.4416374639457
 31
0.0
  0
LINE
  5
4C15
330
18
100
AcDbEntity
  8
1
  6
Continuous
100
AcDbLine
 10
109.7574672394998
 20
197.6416374639457
 30
0.0
 11
119.9574672394998
 21
197.6416374639457
 31
0.0
  0
LINE
  5
4C2D
330
18
100
AcDbEntity
  8
1
  6
Continuous
100
AcDbLine
 10
128.2574672394999
 20
208.0416374639457
 30
0.0
 11
128.0574672394999
 21
208.2416374639457
 31
0.0
  0
LINE
  5
4C2E
330
18
100
AcDbEntity
  8
1
  6
Continuous
100
AcDbLine
 10
128.0574672395001
 20
202.841637463946
 30
0.0
 11
128.2574672394998
 21
203.0416374639457
 31
0.0
  0
LINE
  5
4C2F
330
18
100
AcDbEntity
  8
1
  6
Continuous
100
AcDbLine
 10
128.0574672394999
 20
208.2416374639457
 30
0.0
 11
121.7574672394998
 21
208.2416374639457
 31
0.0
  0
LINE
  5
4C30
330
18
100
AcDbEntity
  8
1
  6
Continuous
100
AcDbLine
 10
121.7574672394998
 20
202.841637463946
 30
0.0
 11
128.0574672395001
 21
202.841637463946
 31
0.0
  0
LINE
  5
4C31
330
18
100
AcDbEntity
  8
1
  6
Continuous
100
AcDbLine
 10
127.2574672394998
 20
202.841637463946
 30
0.0
 11
127.2574672394999
 21
208.2416374639457
 31
0.0
  0
LINE
  5
4C32
330
18
100
AcDbEntity
  8
1
  6
Continuous
100
AcDbLine
 10
128.2574672394999
 20
203.0416374639457
 30
0.0
 11
128.2574672394999
 21
208.0416374639457
 31
0.0
  0
LINE
  5
4CA1
330
18
100
AcDbEntity
  8
1
  6
Continuous
100
AcDbLine
 10
109.7574672394999
 20
53.44163746394556
 30
0.0
 11
119.9574672394998
 21
53.44163746394556
 31
0.0
  0
LINE
  5
4CA2
330
18
100
AcDbEntity
  8
1
  6
Continuous
100
AcDbLine
 10
109.7574672394999
 20
37.6416374639455
 30
0.0
 11
119.9574672394998
 21
37.6416374639455
 31
0.0
  0
LINE
  5
4CA3
330
18
100
AcDbEntity
  8
4
  6
CENTER
 48
0.3
100
AcDbLine
 10
104.2574672394999
 20
45.54163746394563
 30
0.0
 11
130.2574672394999
 21
45.54163746394563
 31
0.0
  0
LINE
  5
4CA5
330
18
100
AcDbEntity
  8
1
  6
Continuous
100
AcDbLine
 10
110.7574672394999
 20
53.44163746394554
 30
0.0
 11
110.7574672394999
 21
37.6416374639455
 31
0.0
  0
LINE
  5
4CA6
330
18
100
AcDbEntity
  8
1
  6
Continuous
100
AcDbLine
 10
117.8574672395799
 20
37.6416374639455
 30
0.0
 11
117.8574672395798
 21
53.4416374639455
 31
0.0
  0
ARC
  5
4CA7
330
18
100
AcDbEntity
  8
1
  6
Continuous
100
AcDbCircle
 10
128.1324672390246
 20
40.04163746385933
 30
0.0
 40
15.62500000047528
100
AcDbArc
 50
339.3903070634625
 51
20.60969293721502
  0
LINE
  5
4CA8
330
18
100
AcDbEntity
  8
1
  6
Continuous
100
AcDbLine
 10
143.7574672394999
 20
56.5416374639452
 30
0.0
 11
143.7574672394999
 21
34.54163746394562
 31
0.0
  0
LINE
  5
4CA9
330
18
100
AcDbEntity
  8
1
  6
Continuous
100
AcDbLine
 10
139.7574672394998
 20
34.54163746394562
 30
0.0
 11
139.7574672394999
 21
56.54163746394548
 31
0.0
  0
LINE
  5
4CAB
330
18
100
AcDbEntity
  8
1
  6
Continuous
100
AcDbLine
 10
109.7574672394999
 20
34.74163746395078
 30
0.0
 11
109.7574672394999
 21
56.3416374639506
 31
0.0
  0
LINE
  5
4CAC
330
18
100
AcDbEntity
  8
1
  6
Continuous
100
AcDbLine
 10
108.7574672394999
 20
56.54163746395065
 30
0.0
 11
108.7574672394999
 21
34.54163746395065
 31
0.0
  0
LINE
  5
4CAD
330
18
100
AcDbEntity
  8
1
  6
Continuous
100
AcDbLine
 10
107.2574672394999
 20
55.54163746395065
 30
0.0
 11
107.2574672394999
 21
35.54163746395065
 31
0.0
  0
LINE
  5
4CAE
330
18
100
AcDbEntity
  8
1
  6
Continuous
100
AcDbLine
 10
106.2574672394999
 20
49.54163746395065
 30
0.0
 11
106.2574672394999
 21
41.54163746395065
 31
0.0
  0
ARC
  5
4CAF
330
18
100
AcDbEntity
  8
1
  6
Continuous
100
AcDbCircle
 10
128.1324672390246
 20
51.04163746403205
 30
0.0
 40
15.62500000047528
100
AcDbArc
 50
339.390307062785
 51
20.60969293653748
  0
LINE
  5
4CB1
330
18
100
AcDbEntity
  8
1
  6
Continuous
100
AcDbLine
 10
109.5574672394997
 20
56.54163746395076
 30
0.0
 11
109.7574672394999
 21
56.34163746395072
 31
0.0
  0
LINE
  5
4CB2
330
18
100
AcDbEntity
  8
1
  6
Continuous
100
AcDbLine
 10
108.7574672394999
 20
56.54163746395065
 30
0.0
 11
109.5574672394998
 21
56.54163746395065
 31
0.0
  0
LINE
  5
4CB3
330
18
100
AcDbEntity
  8
1
  6
Continuous
100
AcDbLine
 10
107.2574672394999
 20
55.54163746395065
 30
0.0
 11
108.7574672394999
 21
56.54163746395065
 31
0.0
  0
LINE
  5
4CB4
330
18
100
AcDbEntity
  8
1
  6
Continuous
100
AcDbLine
 10
139.7574672394999
 20
56.54163746394548
 30
0.0
 11
143.7574672394999
 21
56.54163746394548
 31
0.0
  0
LINE
  5
4CB7
330
18
100
AcDbEntity
  8
1
  6
Continuous
100
AcDbLine
 10
106.2574672395
 20
49.54163746395053
 30
0.0
 11
107.2574672394999
 21
51.29163746395047
 31
0.0
  0
LINE
  5
4CB8
330
18
100
AcDbEntity
  8
1
  6
Continuous
100
AcDbLine
 10
139.7574672394999
 20
45.54163746394563
 30
0.0
 11
142.7574672394999
 21
45.54163746394563
 31
0.0
  0
LINE
  5
4CBC
330
18
100
AcDbEntity
  8
1
  6
Continuous
100
AcDbLine
 10
108.7574672394999
 20
34.54163746395059
 30
0.0
 11
107.2574672394999
 21
35.54163746395059
 31
0.0
  0
LINE
  5
4CBD
330
18
100
AcDbEntity
  8
1
  6
Continuous
100
AcDbLine
 10
109.7574672394997
 20
34.74163746395063
 30
0.0
 11
109.5574672394998
 21
34.54163746395065
 31
0.0
  0
LINE
  5
4CBE
330
18
100
AcDbEntity
  8
1
  6
Continuous
100
AcDbLine
 10
109.5574672394998
 20
34.54163746395065
 30
0.0
 11
108.7574672394999
 21
34.54163746395065
 31
0.0
  0
LINE
  5
4CBF
330
18
100
AcDbEntity
  8
1
  6
Continuous
100
AcDbLine
 10
107.2574672394999
 20
39.79163746395059
 30
0.0
 11
106.2574672394999
 21
41.54163746395048
 31
0.0
  0
LINE
  5
4CC0
330
18
100
AcDbEntity
  8
1
  6
Continuous
100
AcDbLine
 10
143.7574672394999
 20
34.54163746394562
 30
0.0
 11
139.7574672394998
 21
34.54163746394562
 31
0.0
  0
ARC
  5
4CC2
330
18
100
AcDbEntity
  8
1
  6
Continuous
100
AcDbCircle
 10
160.7004421234107
 20
42.79163746394902
 30
0.0
 40
7.942974883910919
100
AcDbArc
 50
159.7438420002338
 51
200.2561579997673
  0
ARC
  5
4CC3
330
18
100
AcDbEntity
  8
1
  6
Continuous
100
AcDbCircle
 10
146.814492355589
 20
42.79163746394902
 30
0.0
 40
7.942974883910919
100
AcDbArc
 50
339.7438420002327
 51
20.25615799976616
  0
LINE
  5
4CC4
330
18
100
AcDbEntity
  8
1
  6
Continuous
100
AcDbLine
 10
154.7574672394999
 20
40.04163746394022
 30
0.0
 11
154.7574672394999
 21
51.04163746393972
 31
0.0
  0
LINE
  5
4CC5
330
18
100
AcDbEntity
  8
1
  6
Continuous
100
AcDbLine
 10
120.5574672394998
 20
52.99596874841061
 30
0.0
 11
120.5574672394998
 21
49.26067816719356
 31
0.0
  0
LINE
  5
4CC6
330
18
100
AcDbEntity
  8
1
  6
Continuous
100
AcDbLine
 10
119.9574672394998
 20
53.44163746394556
 30
0.0
 11
119.9574672394998
 21
49.26067816719355
 31
0.0
  0
LINE
  5
4CC7
330
18
100
AcDbEntity
  8
1
  6
Continuous
100
AcDbLine
 10
118.5574672395798
 20
53.44163746394554
 30
0.0
 11
118.5574672395798
 21
37.6416374639455
 31
0.0
  0
LINE
  5
4CC8
330
18
100
AcDbEntity
  8
1
  6
Continuous
100
AcDbLine
 10
121.7574672394998
 20
52.99596874841065
 30
0.0
 11
121.7574672394998
 21
38.24163746395069
 31
0.0
  0
LINE
  5
4CC9
330
18
100
AcDbEntity
  8
1
  6
Continuous
100
AcDbLine
 10
151.9574672394998
 20
52.04163746395065
 30
0.0
 11
151.9574672394998
 21
39.04163746395065
 31
0.0
  0
LINE
  5
4CCA
330
18
100
AcDbEntity
  8
1
  6
Continuous
100
AcDbLine
 10
152.7574672394998
 20
52.04163746395065
 30
0.0
 11
152.7574672394998
 21
39.04163746395065
 31
0.0
  0
LINE
  5
4CCB
330
18
100
AcDbEntity
  8
1
  6
Continuous
100
AcDbLine
 10
120.5574672394998
 20
52.99596874841061
 30
0.0
 11
121.7574672394998
 21
52.99596874841061
 31
0.0
  0
LINE
  5
4CCC
330
18
100
AcDbEntity
  8
1
  6
Continuous
100
AcDbLine
 10
152.7574672394999
 20
51.04163746394741
 30
0.0
 11
154.7574672394999
 21
51.04163746393972
 31
0.0
  0
LINE
  5
4CCD
330
18
100
AcDbEntity
  8
1
  6
Continuous
100
AcDbLine
 10
153.2487074256071
 20
45.54163746394629
 30
0.0
 11
154.2662270533926
 21
45.5416374639455
 31
0.0
  0
ARC
  5
4CD0
330
18
100
AcDbEntity
  8
1
  6
Continuous
100
AcDbCircle
 10
160.7004421234107
 20
48.29163746394357
 30
0.0
 40
7.942974883910919
100
AcDbArc
 50
159.7438420002327
 51
200.2561579997661
  0
LINE
  5
4CD3
330
18
100
AcDbEntity
  8
1
  6
Continuous
100
AcDbLine
 10
151.9574672394998
 20
52.04163746395065
 30
0.0
 11
152.7574672394998
 21
52.04163746395065
 31
0.0
  0
LINE
  5
4CD4
330
18
100
AcDbEntity
  8
1
  6
Continuous
100
AcDbLine
 10
120.3574672394998
 20
50.5166374639506
 30
0.0
 11
120.5574672394998
 21
50.31663746395063
 31
0.0
  0
LINE
  5
4CD5
330
18
100
AcDbEntity
  8
1
  6
Continuous
100
AcDbLine
 10
119.9574672394998
 20
50.5166374639506
 30
0.0
 11
120.3574672394998
 21
50.5166374639506
 31
0.0
  0
LINE
  5
4CD6
330
18
100
AcDbEntity
  8
1
  6
Continuous
100
AcDbLine
 10
121.7574672394998
 20
48.24163746394527
 30
0.0
 11
128.0574672395001
 21
48.24163746394527
 31
0.0
  0
LINE
  5
4CD7
330
18
100
AcDbEntity
  8
1
  6
Continuous
100
AcDbLine
 10
128.0574672394999
 20
42.84163746394557
 30
0.0
 11
121.7574672394998
 21
42.84163746394557
 31
0.0
  0
ARC
  5
4CD8
330
18
100
AcDbEntity
  8
1
  6
Continuous
100
AcDbCircle
 10
146.814492355589
 20
48.29163746394357
 30
0.0
 40
7.942974883910919
100
AcDbArc
 50
339.7438420002338
 51
20.25615799976728
  0
LINE
  5
4CD9
330
18
100
AcDbEntity
  8
1
  6
Continuous
100
AcDbLine
 10
128.2574672394999
 20
48.0416374639455
 30
0.0
 11
128.2574672394999
 21
43.0416374639455
 31
0.0
  0
LINE
  5
4CDA
330
18
100
AcDbEntity
  8
1
  6
Continuous
100
AcDbLine
 10
127.2574672394998
 20
48.24163746394527
 30
0.0
 11
127.2574672394999
 21
42.84163746394557
 31
0.0
  0
LINE
  5
4CDB
330
18
100
AcDbEntity
  8
1
  6
Continuous
100
AcDbLine
 10
128.0574672395001
 20
48.24163746394527
 30
0.0
 11
128.2574672394998
 21
48.0416374639455
 31
0.0
  0
LINE
  5
4CDC
330
18
100
AcDbEntity
  8
1
  6
Continuous
100
AcDbLine
 10
128.2574672394999
 20
43.0416374639455
 30
0.0
 11
128.0574672394999
 21
42.84163746394557
 31
0.0
  0
LINE
  5
4CDD
330
18
100
AcDbEntity
  8
1
  6
Continuous
100
AcDbLine
 10
152.7574672394999
 20
40.04163746394731
 30
0.0
 11
154.7574672394999
 21
40.04163746394022
 31
0.0
  0
LINE
  5
4CDE
330
18
100
AcDbEntity
  8
1
  6
Continuous
100
AcDbLine
 10
120.5574672394999
 20
40.76663746395055
 30
0.0
 11
120.3574672394999
 21
40.56663746395051
 31
0.0
  0
LINE
  5
4CDF
330
18
100
AcDbEntity
  8
1
  6
Continuous
100
AcDbLine
 10
120.3574672394998
 20
40.56663746395061
 30
0.0
 11
119.9574672394998
 21
40.56663746395061
 31
0.0
  0
LINE
  5
4CE0
330
18
100
AcDbEntity
  8
1
  6
Continuous
100
AcDbLine
 10
152.7574672394998
 20
39.04163746395065
 30
0.0
 11
151.9574672394998
 21
39.04163746395065
 31
0.0
  0
LINE
  5
4CE1
330
18
100
AcDbEntity
  8
1
  6
Continuous
100
AcDbLine
 10
121.7574672394998
 20
38.24163746395058
 30
0.0
 11
120.5574672394998
 21
38.24163746395058
 31
0.0
  0
LINE
  5
4DCC
330
18
100
AcDbEntity
  8
4
  6
CENTER
 48
0.3
100
AcDbLine
 10
291.6379565258889
 20
125.5416374639456
 30
0.0
 11
265.6379565258889
 21
125.5416374639456
 31
0.0
  0
LINE
  5
4DCD
330
18
100
AcDbEntity
  8
2
  6
Continuous
100
AcDbLine
 10
286.1379565258888
 20
120.2652750806305
 30
0.0
 11
275.9379565258889
 21
129.4184918589406
 31
0.0
  0
LINE
  5
4DCE
330
18
100
AcDbEntity
  8
2
  6
Continuous
100
AcDbLine
 10
275.9379565258889
 20
121.6647830689407
 30
0.0
 11
286.1379565258888
 21
130.8179998472607
 31
0.0
  0
LINE
  5
4DCF
330
18
100
AcDbEntity
  8
1
  6
Continuous
100
AcDbLine
 10
278.037956525809
 20
130.8179998472605
 30
0.0
 11
277.672247916719
 21
130.1269705177406
 31
0.0
  0
LINE
  5
4DD0
330
18
100
AcDbEntity
  8
1
  6
Continuous
100
AcDbLine
 10
278.0379565258089
 20
116.0416374639406
 30
0.0
 11
277.337956525809
 21
116.7416374639405
 31
0.0
  0
LINE
  5
4DD1
330
18
100
AcDbEntity
  8
1
  6
Continuous
100
AcDbLine
 10
278.037956525809
 20
120.2652750806307
 30
0.0
 11
277.672247916719
 21
120.9563044101505
 31
0.0
  0
LINE
  5
4DD2
330
18
100
AcDbEntity
  8
1
  6
Continuous
100
AcDbLine
 10
277.3379565258089
 20
134.3416374639406
 30
0.0
 11
278.0379565258089
 21
135.0416374639406
 31
0.0
  0
LINE
  5
4DD3
330
18
100
AcDbEntity
  8
2
  6
Continuous
100
AcDbLine
 10
277.496456525814
 20
134.5001374639456
 30
0.0
 11
285.1379565258889
 21
134.5001374639456
 31
0.0
  0
LINE
  5
4DD4
330
18
100
AcDbEntity
  8
2
  6
Continuous
100
AcDbLine
 10
277.4964565258039
 20
116.5831374639456
 30
0.0
 11
285.1379565258889
 21
116.5831374639456
 31
0.0
  0
LINE
  5
4DD5
330
18
100
AcDbEntity
  8
1
  6
Continuous
100
AcDbLine
 10
289.6379565258889
 20
121.5416374639406
 30
0.0
 11
289.6379565258889
 21
129.5416374639406
 31
0.0
  0
LINE
  5
4DD6
330
18
100
AcDbEntity
  8
1
  6
Continuous
100
AcDbLine
 10
288.6379565258888
 20
115.5416374639406
 30
0.0
 11
288.6379565258888
 21
135.5416374639406
 31
0.0
  0
LINE
  5
4DD9
330
18
100
AcDbEntity
  8
1
  6
Continuous
100
AcDbLine
 10
287.1379565258889
 20
114.5416374639406
 30
0.0
 11
287.1379565258889
 21
136.5416374639406
 31
0.0
  0
LINE
  5
4DDB
330
18
100
AcDbEntity
  8
1
  6
Continuous
100
AcDbLine
 10
286.1379565258888
 20
136.3416374639405
 30
0.0
 11
286.1379565258888
 21
114.7416374639407
 31
0.0
  0
LINE
  5
4DEC
330
18
100
AcDbEntity
  8
1
  6
Continuous
100
AcDbLine
 10
288.6379565258888
 20
115.5416374639406
 30
0.0
 11
287.1379565258889
 21
114.5416374639406
 31
0.0
  0
LINE
  5
4DED
330
18
100
AcDbEntity
  8
1
  6
Continuous
100
AcDbLine
 10
287.1379565258889
 20
114.5416374639406
 30
0.0
 11
286.337956525889
 21
114.5416374639406
 31
0.0
  0
LINE
  5
4DEE
330
18
100
AcDbEntity
  8
1
  6
Continuous
100
AcDbLine
 10
286.337956525889
 20
114.5416374639405
 30
0.0
 11
286.1379565258888
 21
114.7416374639405
 31
0.0
  0
LINE
  5
4DEF
330
18
100
AcDbEntity
  8
1
  6
Continuous
100
AcDbLine
 10
289.6379565258888
 20
121.5416374639407
 30
0.0
 11
288.6379565258888
 21
119.7916374639408
 31
0.0
  0
LINE
  5
4DF0
330
18
100
AcDbEntity
  8
1
  6
Continuous
100
AcDbLine
 10
285.1379565258889
 20
120.2652750806306
 30
0.0
 11
285.1379565258889
 21
116.0416374639406
 31
0.0
  0
LINE
  5
4DF1
330
18
100
AcDbEntity
  8
1
  6
Continuous
100
AcDbLine
 10
278.0379565258089
 20
116.0416374639406
 30
0.0
 11
278.0379565258089
 21
120.2652750806306
 31
0.0
  0
LINE
  5
4DF3
330
18
100
AcDbEntity
  8
1
  6
Continuous
100
AcDbLine
 10
286.1379565258888
 20
116.0416374639405
 30
0.0
 11
278.037956525809
 21
116.0416374639405
 31
0.0
  0
LINE
  5
4DF5
330
18
100
AcDbEntity
  8
1
  6
Continuous
100
AcDbLine
 10
286.1379565258888
 20
120.2652750806305
 30
0.0
 11
278.037956525809
 21
120.2652750806305
 31
0.0
  0
LINE
  5
4DF7
330
18
100
AcDbEntity
  8
1
  6
Continuous
100
AcDbLine
 10
278.0379565258089
 20
135.0416374639506
 30
0.0
 11
278.0379565258089
 21
130.8179998472606
 31
0.0
  0
LINE
  5
4DF8
330
18
100
AcDbEntity
  8
1
  6
Continuous
100
AcDbLine
 10
285.1379565258889
 20
130.8179998472505
 30
0.0
 11
285.1379565258889
 21
135.0416374639456
 31
0.0
  0
LINE
  5
4DFB
330
18
100
AcDbEntity
  8
1
  6
Continuous
100
AcDbLine
 10
288.6379565258888
 20
131.2916374639407
 30
0.0
 11
289.6379565258888
 21
129.5416374639408
 31
0.0
  0
LINE
  5
4DFD
330
18
100
AcDbEntity
  8
1
  6
Continuous
100
AcDbLine
 10
286.1379565258888
 20
130.8179998472607
 30
0.0
 11
278.037956525809
 21
130.8179998472607
 31
0.0
  0
LINE
  5
4E00
330
18
100
AcDbEntity
  8
1
  6
Continuous
100
AcDbLine
 10
286.337956525889
 20
136.5416374639406
 30
0.0
 11
287.1379565258889
 21
136.5416374639406
 31
0.0
  0
LINE
  5
4E01
330
18
100
AcDbEntity
  8
1
  6
Continuous
100
AcDbLine
 10
286.137956525889
 20
136.3416374639406
 30
0.0
 11
286.337956525889
 21
136.5416374639406
 31
0.0
  0
LINE
  5
4E02
330
18
100
AcDbEntity
  8
1
  6
Continuous
100
AcDbLine
 10
287.1379565258888
 20
136.5416374639407
 30
0.0
 11
288.6379565258888
 21
135.5416374639407
 31
0.0
  0
LINE
  5
4E05
330
18
100
AcDbEntity
  8
1
  6
Continuous
100
AcDbLine
 10
278.037956525809
 20
135.0416374639405
 30
0.0
 11
286.1379565258888
 21
135.0416374639405
 31
0.0
  0
LINE
  5
4E07
330
18
100
AcDbEntity
  8
1
  6
Continuous
100
AcDbLine
 10
267.6379565258889
 20
128.0416374639406
 30
0.0
 11
267.6379565258889
 21
123.0416374639406
 31
0.0
  0
ARC
  5
4E08
330
18
100
AcDbEntity
  8
1
  6
Continuous
100
AcDbCircle
 10
271.3871655675225
 20
125.5416374639456
 30
0.0
 40
3.538099822583881
100
AcDbArc
 50
140.9894265483418
 51
219.0105734516564
  0
LINE
  5
4E0B
330
18
100
AcDbEntity
  8
1
  6
Continuous
100
AcDbLine
 10
275.937956525889
 20
117.5661289380206
 30
0.0
 11
275.937956525889
 21
134.3416374639406
 31
0.0
  0
LINE
  5
4E0E
330
18
100
AcDbEntity
  8
1
  6
Continuous
100
AcDbLine
 10
274.137956525889
 20
118.0873061794806
 30
0.0
 11
274.137956525889
 21
132.8416374639405
 31
0.0
  0
LINE
  5
4E0F
330
18
100
AcDbEntity
  8
1
  6
Continuous
100
AcDbLine
 10
275.3379565258888
 20
118.0873061794806
 30
0.0
 11
275.337956525889
 21
132.8416374639406
 31
0.0
  0
LINE
  5
4E14
330
18
100
AcDbEntity
  8
1
  6
Continuous
100
AcDbLine
 10
275.937956525889
 20
120.5666374639406
 30
0.0
 11
275.5379565258889
 21
120.5666374639406
 31
0.0
  0
LINE
  5
4E15
330
18
100
AcDbEntity
  8
1
  6
Continuous
100
AcDbLine
 10
277.3379565258089
 20
121.6647830689406
 30
0.0
 11
275.937956525889
 21
121.6647830689406
 31
0.0
  0
LINE
  5
4E16
330
18
100
AcDbEntity
  8
1
  6
Continuous
100
AcDbLine
 10
277.672247916719
 20
120.9563044101505
 30
0.0
 11
277.3379565258089
 21
121.6647830689406
 31
0.0
  0
LINE
  5
4E18
330
18
100
AcDbEntity
  8
1
  6
Continuous
100
AcDbLine
 10
275.5379565258889
 20
120.5666374639406
 30
0.0
 11
275.3379565258889
 21
120.7666374639406
 31
0.0
  0
LINE
  5
4E1A
330
18
100
AcDbEntity
  8
1
  6
Continuous
100
AcDbLine
 10
275.3379565258888
 20
118.9255906186206
 30
0.0
 11
275.937956525889
 21
118.9255906186207
 31
0.0
  0
LINE
  5
4E1B
330
18
100
AcDbEntity
  8
1
  6
Continuous
100
AcDbLine
 10
275.937956525889
 20
117.5661289380206
 30
0.0
 11
274.6379565258889
 21
117.5661289380206
 31
0.0
  0
LINE
  5
4E1C
330
18
100
AcDbEntity
  8
1
  6
Continuous
100
AcDbLine
 10
277.3379565258089
 20
116.7416374639406
 30
0.0
 11
274.6379565258889
 21
116.7416374639406
 31
0.0
  0
LINE
  5
4E1E
330
18
100
AcDbEntity
  8
1
  6
Continuous
100
AcDbLine
 10
275.3379565258888
 20
118.0873061794806
 30
0.0
 11
274.1379565258889
 21
118.0873061794806
 31
0.0
  0
LINE
  5
4E20
330
18
100
AcDbEntity
  8
1
  6
Continuous
100
AcDbLine
 10
274.4379565258889
 20
116.9416374639405
 30
0.0
 11
274.437956525889
 21
118.0873061794806
 31
0.0
  0
LINE
  5
4E21
330
18
100
AcDbEntity
  8
1
  6
Continuous
100
AcDbLine
 10
274.6379565258889
 20
117.5661289380206
 30
0.0
 11
274.4379565258889
 21
117.7473904954207
 31
0.0
  0
LINE
  5
4E22
330
18
100
AcDbEntity
  8
1
  6
Continuous
100
AcDbLine
 10
274.6379565258889
 20
116.7416374639406
 30
0.0
 11
274.4379565258889
 21
116.9416374639406
 31
0.0
  0
LINE
  5
4E24
330
18
100
AcDbEntity
  8
1
  6
Continuous
100
AcDbLine
 10
277.3379565258089
 20
116.7416374639406
 30
0.0
 11
277.3379565258089
 21
121.6647830689406
 31
0.0
  0
LINE
  5
4E26
330
18
100
AcDbEntity
  8
2
  6
Continuous
100
AcDbLine
 10
268.637956525889
 20
123.3145317188208
 30
0.0
 11
274.137956525889
 21
126.9709739869363
 31
0.0
  0
LINE
  5
4E27
330
18
100
AcDbEntity
  8
1
  6
Continuous
100
AcDbLine
 10
268.6379565258889
 20
123.3145317188207
 30
0.0
 11
274.137956525889
 21
123.3145317188207
 31
0.0
  0
LINE
  5
4E28
330
18
100
AcDbEntity
  8
1
  6
Continuous
100
AcDbLine
 10
274.137956525889
 20
122.0416374639406
 30
0.0
 11
268.6379565258889
 21
122.0416374639406
 31
0.0
  0
LINE
  5
4E29
330
18
100
AcDbEntity
  8
1
  6
Continuous
100
AcDbLine
 10
268.6379565258889
 20
122.0416374639406
 30
0.0
 11
268.6379565258889
 21
123.3145317188207
 31
0.0
  0
LINE
  5
4E2A
330
18
100
AcDbEntity
  8
1
  6
Continuous
100
AcDbLine
 10
268.6379565258889
 20
122.0416374639406
 30
0.0
 11
267.6379565258889
 21
123.0416374639406
 31
0.0
  0
LINE
  5
4E2B
330
18
100
AcDbEntity
  8
2
  6
Continuous
100
AcDbLine
 10
268.2319565258844
 20
122.4476374639451
 30
0.0
 11
274.137956525889
 21
122.4476374639453
 31
0.0
  0
LINE
  5
4E30
330
18
100
AcDbEntity
  8
1
  6
Continuous
100
AcDbLine
 10
275.937956525889
 20
134.3416374639406
 30
0.0
 11
277.3379565258089
 21
134.3416374639406
 31
0.0
  0
LINE
  5
4E31
330
18
100
AcDbEntity
  8
1
  6
Continuous
100
AcDbLine
 10
274.1379565258889
 20
132.8416374639407
 30
0.0
 11
275.3379565258889
 21
132.8416374639407
 31
0.0
  0
LINE
  5
4E35
330
18
100
AcDbEntity
  8
1
  6
Continuous
100
AcDbLine
 10
277.3379565258089
 20
129.4184918589506
 30
0.0
 11
275.937956525889
 21
129.4184918589506
 31
0.0
  0
LINE
  5
4E36
330
18
100
AcDbEntity
  8
1
  6
Continuous
100
AcDbLine
 10
277.672247916719
 20
130.1269705177406
 30
0.0
 11
277.3379565258089
 21
129.4184918589506
 31
0.0
  0
LINE
  5
4E37
330
18
100
AcDbEntity
  8
1
  6
Continuous
100
AcDbLine
 10
275.5379565258889
 20
130.5166374639406
 30
0.0
 11
275.937956525889
 21
130.5166374639406
 31
0.0
  0
LINE
  5
4E3C
330
18
100
AcDbEntity
  8
1
  6
Continuous
100
AcDbLine
 10
275.3379565258888
 20
130.3166374639407
 30
0.0
 11
275.5379565258889
 21
130.5166374639407
 31
0.0
  0
LINE
  5
4E3E
330
18
100
AcDbEntity
  8
1
  6
Continuous
100
AcDbLine
 10
277.3379565258089
 20
129.4184918589409
 30
0.0
 11
277.3379565258089
 21
134.3416374639406
 31
0.0
  0
LINE
  5
4E41
330
18
100
AcDbEntity
  8
2
  6
Continuous
100
AcDbLine
 10
268.637956525889
 20
127.7687432090808
 30
0.0
 11
274.1379565258891
 21
124.1123009409568
 31
0.0
  0
LINE
  5
4E42
330
18
100
AcDbEntity
  8
1
  6
Continuous
100
AcDbLine
 10
268.6379565258889
 20
127.7687432090706
 30
0.0
 11
268.6379565258889
 21
129.0416374639406
 31
0.0
  0
LINE
  5
4E43
330
18
100
AcDbEntity
  8
1
  6
Continuous
100
AcDbLine
 10
268.6379565258889
 20
127.7687432090706
 30
0.0
 11
274.137956525889
 21
127.7687432090706
 31
0.0
  0
LINE
  5
4E44
330
18
100
AcDbEntity
  8
1
  6
Continuous
100
AcDbLine
 10
268.6379565258889
 20
129.0416374639406
 30
0.0
 11
274.137956525889
 21
129.0416374639406
 31
0.0
  0
LINE
  5
4E45
330
18
100
AcDbEntity
  8
1
  6
Continuous
100
AcDbLine
 10
267.6379565258889
 20
128.0416374639406
 30
0.0
 11
268.6379565258889
 21
129.0416374639406
 31
0.0
  0
LINE
  5
4E46
330
18
100
AcDbEntity
  8
2
  6
Continuous
100
AcDbLine
 10
268.2319565258935
 20
128.6356374639452
 30
0.0
 11
274.137956525889
 21
128.6356374639455
 31
0.0
  0
LINE
  5
4F44
330
18
100
AcDbEntity
  8
1
  6
Continuous
100
AcDbLine
 10
121.4574672394998
 20
49.26067816719356
 30
0.0
 11
121.4574672394998
 21
41.82259676069769
 31
0.0
  0
LINE
  5
4F45
330
18
100
AcDbEntity
  8
1
  6
Continuous
100
AcDbLine
 10
120.5574672394998
 20
41.82259676069769
 30
0.0
 11
120.5574672394998
 21
38.24163746395063
 31
0.0
  0
LINE
  5
4F46
330
18
100
AcDbEntity
  8
1
  6
Continuous
100
AcDbLine
 10
119.9574672394998
 20
41.82259676069771
 30
0.0
 11
119.9574672394998
 21
37.6416374639455
 31
0.0
  0
LINE
  5
4F47
330
18
100
AcDbEntity
  8
1
  6
Continuous
100
AcDbLine
 10
289.337956525889
 20
127.7782045438607
 30
0.0
 11
289.637956525889
 21
127.3912568391707
 31
0.0
  0
LINE
  5
4F48
330
18
100
AcDbEntity
  8
1
  6
Continuous
100
AcDbLine
 10
289.337956525889
 20
129.4752608187107
 30
0.0
 11
289.337956525889
 21
127.7782045438605
 31
0.0
  0
LINE
  5
4F49
330
18
100
AcDbEntity
  8
1
  6
Continuous
100
AcDbLine
 10
289.6379565258889
 20
129.0883131140207
 30
0.0
 11
289.337956525889
 21
129.4752608187107
 31
0.0
  0
LINE
  5
54D2
330
18
100
AcDbEntity
  8
4
  6
CENTER
 48
0.3
100
AcDbLine
 10
136.7574672394999
 20
205.5416374639456
 30
0.0
 11
157.7574672394999
 21
205.5416374639456
 31
0.0
  0
LINE
  5
54D3
330
18
100
AcDbEntity
  8
4
  6
CENTER
 48
0.3
100
AcDbLine
 10
136.7574672394999
 20
45.54163746394563
 30
0.0
 11
157.7574672394999
 21
45.5416374639457
 31
0.0
  0
LINE
  5
54D4
330
18
100
AcDbEntity
  8
4
  6
CENTER
 48
0.3
100
AcDbLine
 10
136.7574672394999
 20
125.5416374640021
 30
0.0
 11
157.7574672394999
 21
125.5416374640022
 31
0.0
  0
LINE
  5
54D5
330
18
100
AcDbEntity
  8
4
  6
CENTER
 48
0.3
100
AcDbLine
 10
259.1379565258889
 20
125.5416374640021
 30
0.0
 11
238.1379565258888
 21
125.5416374640022
 31
0.0
  0
LINE
  5
54D6
330
18
100
AcDbEntity
  8
1
  6
Continuous
100
AcDbLine
 10
256.1379565258889
 20
138.2433433861065
 30
0.0
 11
256.1379565258889
 21
112.8399315418977
 31
0.0
  0
LINE
  5
54D7
330
18
100
AcDbEntity
  8
1
  6
Continuous
100
AcDbLine
 10
252.1379565258889
 20
114.541637463946
 30
0.0
 11
252.1379565258889
 21
136.5416374639456
 31
0.0
  0
ARC
  5
54D8
330
18
100
AcDbEntity
  8
1
  6
Continuous
100
AcDbCircle
 10
272.8046231917089
 20
125.5416374640356
 30
0.0
 40
20.66666666581749
100
AcDbArc
 50
162.1034488703766
 51
197.8965511296202
  0
LINE
  5
54D9
330
18
100
AcDbEntity
  8
1
  6
Continuous
100
AcDbLine
 10
253.1379565258888
 20
112.8399315417851
 30
0.0
 11
252.1379565258888
 21
114.5416374639457
 31
0.0
  0
LINE
  5
54DA
330
18
100
AcDbEntity
  8
1
  6
Continuous
100
AcDbLine
 10
256.1379565258889
 20
112.8399315418975
 30
0.0
 11
253.1379565258239
 21
112.8399315418975
 31
0.0
  0
LINE
  5
54DB
330
18
100
AcDbEntity
  8
1
  6
Continuous
100
AcDbLine
 10
256.1379565258888
 20
119.1907845030837
 30
0.0
 11
253.1379565258888
 21
119.1907845029042
 31
0.0
  0
ARC
  5
54DC
330
18
100
AcDbEntity
  8
1
  6
Continuous
100
AcDbCircle
 10
268.2412731013839
 20
112.6893008853101
 30
0.0
 40
16.4432192957905
100
AcDbArc
 50
156.7097036817724
 51
168.3299559128212
  0
ARC
  5
54DD
330
18
100
AcDbEntity
  8
1
  6
Continuous
100
AcDbCircle
 10
268.2412731013839
 20
138.3939740425817
 30
0.0
 40
16.4432192957905
100
AcDbArc
 50
191.6700440871806
 51
203.2902963182305
  0
LINE
  5
54DE
330
18
100
AcDbEntity
  8
1
  6
Continuous
100
AcDbLine
 10
256.1379565258889
 20
131.8924904249876
 30
0.0
 11
253.1379565258889
 21
131.8924904249876
 31
0.0
  0
LINE
  5
54DF
330
18
100
AcDbEntity
  8
1
  6
Continuous
100
AcDbLine
 10
253.1379565258889
 20
138.2433433861065
 30
0.0
 11
256.1379565258889
 21
138.2433433861065
 31
0.0
  0
LINE
  5
54E0
330
18
100
AcDbEntity
  8
1
  6
Continuous
100
AcDbLine
 10
253.1379565258888
 20
138.2433433861067
 30
0.0
 11
252.1379565258888
 21
136.5416374639456
 31
0.0
  0
LINE
  5
54E1
330
18
100
AcDbEntity
  8
1
  6
Continuous
100
AcDbLine
 10
243.1379565258889
 20
119.0416374639406
 30
0.0
 11
243.1379565258889
 21
132.0416374639406
 31
0.0
  0
LINE
  5
54E2
330
18
100
AcDbEntity
  8
1
  6
Continuous
100
AcDbLine
 10
243.9379565258889
 20
119.0416374639406
 30
0.0
 11
243.9379565258889
 21
132.0416374639406
 31
0.0
  0
ARC
  5
54E3
330
18
100
AcDbEntity
  8
1
  6
Continuous
100
AcDbCircle
 10
232.629196711656
 20
125.5416374639617
 30
0.0
 40
10.50875981423296
100
AcDbArc
 50
342.4120462265725
 51
17.58795377339459
  0
ARC
  5
54E4
330
18
100
AcDbEntity
  8
1
  6
Continuous
100
AcDbCircle
 10
251.6467163401219
 20
125.5416374639617
 30
0.0
 40
10.50875981423296
100
AcDbArc
 50
162.4120462266054
 51
197.5879537734275
  0
LINE
  5
54E5
330
18
100
AcDbEntity
  8
1
  6
Continuous
100
AcDbLine
 10
241.1379565258889
 20
131.041637463994
 30
0.0
 11
241.1379565258889
 21
120.0416374638984
 31
0.0
  0
ARC
  5
54E6
330
18
100
AcDbEntity
  8
1
  6
Continuous
100
AcDbCircle
 10
243.9493615491531
 20
120.7784977431161
 30
0.0
 40
2.811405023276311
100
AcDbArc
 50
145.6157525321848
 51
205.6157525325908
  0
LINE
  5
54E7
330
18
100
AcDbEntity
  8
1
  6
Continuous
100
AcDbLine
 10
241.1379565258769
 20
120.0416374639192
 30
0.0
 11
241.6291967119953
 21
119.1907845028491
 31
0.0
  0
ARC
  5
54E8
330
18
100
AcDbEntity
  8
1
  6
Continuous
100
AcDbCircle
 10
240.3265515026248
 20
120.7784977431161
 30
0.0
 40
2.811405023276311
100
AcDbArc
 50
334.3842474674092
 51
34.38424746781511
  0
LINE
  5
54E9
330
18
100
AcDbEntity
  8
1
  6
Continuous
100
AcDbLine
 10
243.137956525901
 20
120.0416374639191
 30
0.0
 11
242.6467163397827
 21
119.1907845028491
 31
0.0
  0
LINE
  5
54EA
330
18
100
AcDbEntity
  8
1
  6
Continuous
100
AcDbLine
 10
243.9379565258889
 20
119.0416374639406
 30
0.0
 11
243.1379565258889
 21
119.0416374639406
 31
0.0
  0
LINE
  5
54EB
330
18
100
AcDbEntity
  8
1
  6
Continuous
100
AcDbLine
 10
242.6467163397828
 20
119.1907845028492
 30
0.0
 11
241.6291967119969
 21
119.1907845028465
 31
0.0
  0
LINE
  5
54EC
330
18
100
AcDbEntity
  8
1
  6
Continuous
100
AcDbLine
 10
242.6467163397818
 20
122.3662109834116
 30
0.0
 11
241.6291967119962
 21
122.36621098341
 31
0.0
  0
ARC
  5
54ED
330
18
100
AcDbEntity
  8
1
  6
Continuous
100
AcDbCircle
 10
243.9493615491531
 20
130.3047771847763
 30
0.0
 40
2.811405023276311
100
AcDbArc
 50
154.3842474674091
 51
214.3842474678151
  0
LINE
  5
54EE
330
18
100
AcDbEntity
  8
1
  6
Continuous
100
AcDbLine
 10
241.137956525877
 20
131.0416374639731
 30
0.0
 11
241.6291967119953
 21
131.892490425043
 31
0.0
  0
ARC
  5
54EF
330
18
100
AcDbEntity
  8
1
  6
Continuous
100
AcDbCircle
 10
240.3265515026248
 20
130.3047771847763
 30
0.0
 40
2.811405023276311
100
AcDbArc
 50
325.6157525321849
 51
25.61575253259089
  0
LINE
  5
54F0
330
18
100
AcDbEntity
  8
1
  6
Continuous
100
AcDbLine
 10
243.137956525901
 20
131.0416374639731
 30
0.0
 11
242.6467163397827
 21
131.892490425043
 31
0.0
  0
LINE
  5
54F1
330
18
100
AcDbEntity
  8
1
  6
Continuous
100
AcDbLine
 10
243.1379565258889
 20
132.0416374639406
 30
0.0
 11
243.9379565258889
 21
132.0416374639406
 31
0.0
  0
LINE
  5
54F2
330
18
100
AcDbEntity
  8
1
  6
Continuous
100
AcDbLine
 10
242.6467163397818
 20
128.7170639445071
 30
0.0
 11
241.6291967119962
 21
128.7170639445078
 31
0.0
  0
LINE
  5
54F3
330
18
100
AcDbEntity
  8
1
  6
Continuous
100
AcDbLine
 10
242.6467163397823
 20
131.8924904250436
 30
0.0
 11
241.6291967119953
 21
131.8924904250432
 31
0.0
  0
ENDSEC
  0
SECTION
  2
OBJECTS
  0
DICTIONARY
  5
C
330
0
100
AcDbDictionary
281
     1
  3
ACAD_CIP_PREVIOUS_PRODUCT_INFO
350
5556
  3
ACAD_COLOR
350
5539
  3
ACAD_DETAILVIEWSTYLE
350
5552
  3
ACAD_GROUP
350
D
  3
ACAD_LAYOUT
350
94
  3
ACAD_MATERIAL
350
5507
  3
ACAD_MLEADERSTYLE
350
554E
  3
ACAD_MLINESTYLE
350
1B
  3
ACAD_PLOTSETTINGS
350
95
  3
ACAD_PLOTSTYLENAME
350
5505
  3
ACAD_SCALELIST
350
553C
  3
ACAD_SECTIONVIEWSTYLE
350
5550
  3
ACAD_TABLESTYLE
350
553A
  3
ACAD_VISUALSTYLE
350
5520
  3
ACDB_RECOMPOSE_DATA
350
5574
  3
AcDbVariableDictionary
350
5567
  3
CONTENTDICTIONARY
350
3D
  3
DWGPROPS
350
5575
  0
DICTIONARY
  5
5557
330
E
100
AcDbDictionary
280
     1
281
     1
  3
ADSK_XREC_LAYER_RECONCILED
360
5558
  0
DICTIONARY
  5
5559
330
4E
100
AcDbDictionary
280
     1
281
     1
  3
ADSK_XREC_LAYER_RECONCILED
360
555A
  0
DICTIONARY
  5
555B
330
4F
100
AcDbDictionary
280
     1
281
     1
  3
ADSK_XREC_LAYER_RECONCILED
360
555C
  0
DICTIONARY
  5
555D
330
50
100
AcDbDictionary
280
     1
281
     1
  3
ADSK_XREC_LAYER_RECONCILED
360
555E
  0
DICTIONARY
  5
555F
330
51
100
AcDbDictionary
280
     1
281
     1
  3
ADSK_XREC_LAYER_RECONCILED
360
5560
  0
DICTIONARY
  5
5561
330
52
100
AcDbDictionary
280
     1
281
     1
  3
ADSK_XREC_LAYER_RECONCILED
360
5562
  0
DICTIONARY
  5
5563
330
53
100
AcDbDictionary
280
     1
281
     1
  3
ADSK_XREC_LAYER_RECONCILED
360
5564
  0
DICTIONARY
  5
5565
330
54
100
AcDbDictionary
280
     1
281
     1
  3
ADSK_XREC_LAYER_RECONCILED
360
5566
  0
DICTIONARY
  5
5500
330
18
100
AcDbDictionary
281
     1
  3
ACAD_LAYOUTSELFREF
350
5501
  0
DICTIONARY
  5
54FE
330
15
100
AcDbDictionary
281
     1
  3
ACAD_LAYOUTSELFREF
350
54FF
  0
XRECORD
  5
5556
102
{ACAD_REACTORS
330
C
102
}
330
C
100
AcDbXrecord
280
     1
300
ACDLT
300
2014
300
ACDLT_F_S
  0
DICTIONARY
  5
5539
102
{ACAD_REACTORS
330
C
102
}
330
C
100
AcDbDictionary
281
     1
  0
DICTIONARY
  5
5552
102
{ACAD_REACTORS
330
C
102
}
330
C
100
AcDbDictionary
281
     1
  3
Imperial24
350
5553
  0
DICTIONARY
  5
D
102
{ACAD_REACTORS
330
C
102
}
330
C
100
AcDbDictionary
281
     1
  0
DICTIONARY
  5
94
102
{ACAD_REACTORS
330
C
102
}
330
C
100
AcDbDictionary
281
     1
  3
Model
350
5554
  3
レイアウト1
350
5555
  0
DICTIONARY
  5
5507
102
{ACAD_REACTORS
330
C
102
}
330
C
100
AcDbDictionary
281
     1
  3
ByBlock
350
5510
  3
ByLayer
350
5508
  3
Global
350
5518
  0
DICTIONARY
  5
554E
102
{ACAD_REACTORS
330
C
102
}
330
C
100
AcDbDictionary
281
     1
  3
Standard
350
554F
  0
DICTIONARY
  5
1B
102
{ACAD_REACTORS
330
C
102
}
330
C
100
AcDbDictionary
281
     1
  3
STANDARD
350
1C
  0
DICTIONARY
  5
95
102
{ACAD_REACTORS
330
C
102
}
330
C
100
AcDbDictionary
281
     1
  0
ACDBDICTIONARYWDFLT
  5
5505
102
{ACAD_REACTORS
330
C
102
}
330
C
100
AcDbDictionary
281
     1
  3
Normal
350
5506
100
AcDbDictionaryWithDefault
340
5506
  0
DICTIONARY
  5
553C
102
{ACAD_REACTORS
330
C
102
}
330
C
100
AcDbDictionary
281
     1
  3
A0
350
553D
  3
A1
350
553E
  3
A2
350
553F
  3
A3
350
5540
  3
A4
350
5541
  3
A5
350
5542
  3
A6
350
5543
  3
A7
350
5544
  3
A8
350
5545
  3
A9
350
5546
  3
B0
350
5547
  3
B1
350
5548
  3
B2
350
5549
  3
B3
350
554A
  3
B4
350
554B
  3
B5
350
554C
  3
B6
350
554D
  0
DICTIONARY
  5
5550
102
{ACAD_REACTORS
330
C
102
}
330
C
100
AcDbDictionary
281
     1
  3
Imperial24
350
5551
  0
DICTIONARY
  5
553A
102
{ACAD_REACTORS
330
C
102
}
330
C
100
AcDbDictionary
281
     1
  3
Standard
350
553B
  0
DICTIONARY
  5
5520
102
{ACAD_REACTORS
330
C
102
}
330
C
100
AcDbDictionary
281
     1
  3
2dWireframe
350
5526
  3
Basic
350
5525
  3
Brighten
350
552C
  3
ColorChange
350
5530
  3
Conceptual
350
5529
  3
Dim
350
552B
  3
EdgeColorOff
350
5538
  3
Facepattern
350
552F
  3
Flat
350
5521
  3
FlatWithEdges
350
5522
  3
Gouraud
350
5523
  3
GouraudWithEdges
350
5524
  3
Hidden
350
5528
  3
JitterOff
350
5536
  3
Linepattern
350
552E
  3
OverhangOff
350
5537
  3
Realistic
350
552A
  3
Shaded
350
5535
  3
Shaded with edges
350
5534
  3
Shades of Gray
350
5531
  3
Sketchy
350
5532
  3
Thicken
350
552D
  3
Wireframe
350
5527
  3
X-Ray
350
5533
  0
XRECORD
  5
5574
102
{ACAD_REACTORS
330
C
102
}
330
C
100
AcDbXrecord
280
     1
 90
        1
330
553B
  0
DICTIONARY
  5
5567
102
{ACAD_REACTORS
330
C
102
}
330
C
100
AcDbDictionary
281
     1
  3
CANNOSCALE
350
556C
  3
CMLEADERSTYLE
350
5569
  3
CTABLESTYLE
350
5568
  3
CVIEWDETAILSTYLE
350
556A
  3
CVIEWSECTIONSTYLE
350
556B
  3
DIMASSOC
350
556F
  3
INDEXCTL
350
556E
  3
SORTENTS
350
556D
  3
XCLIPFRAME
350
5570
  0
DICTIONARY
  5
3D
102
{ACAD_REACTORS
330
C
102
}
330
C
100
AcDbDictionary
281
     1
  0
XRECORD
  5
5575
102
{ACAD_REACTORS
330
C
102
}
330
C
100
AcDbXrecord
280
     1
  1
DWGPROPS COOKIE
  2

  3

  4

  6

  7

  8
Yoshitsune
  9

300
=
301
=
302
=
303
=
304
=
305
=
306
=
307
=
308
=
309
=
 40
0.2400425
 41
2454525.396254514
 42
2457192.602419572
  1

 90
        0
  0
XRECORD
  5
5558
102
{ACAD_REACTORS
330
5557
102
}
330
5557
100
AcDbXrecord
280
     1
290
     1
  0
XRECORD
  5
555A
102
{ACAD_REACTORS
330
5559
102
}
330
5559
100
AcDbXrecord
280
     1
290
     1
  0
XRECORD
  5
555C
102
{ACAD_REACTORS
330
555B
102
}
330
555B
100
AcDbXrecord
280
     1
290
     1
  0
XRECORD
  5
555E
102
{ACAD_REACTORS
330
555D
102
}
330
555D
100
AcDbXrecord
280
     1
290
     1
  0
XRECORD
  5
5560
102
{ACAD_REACTORS
330
555F
102
}
330
555F
100
AcDbXrecord
280
     1
290
     1
  0
XRECORD
  5
5562
102
{ACAD_REACTORS
330
5561
102
}
330
5561
100
AcDbXrecord
280
     1
290
     1
  0
XRECORD
  5
5564
102
{ACAD_REACTORS
330
5563
102
}
330
5563
100
AcDbXrecord
280
     1
290
     1
  0
XRECORD
  5
5566
102
{ACAD_REACTORS
330
5565
102
}
330
5565
100
AcDbXrecord
280
     1
290
     1
  0
XRECORD
  5
5501
102
{ACAD_REACTORS
330
5500
102
}
330
5500
100
AcDbXrecord
280
     1
340
18
  0
XRECORD
  5
54FF
102
{ACAD_REACTORS
330
54FE
102
}
330
54FE
100
AcDbXrecord
280
     1
340
15
  0
ACDBDETAILVIEWSTYLE
  5
5553
102
{ACAD_XDICTIONARY
360
55AD
102
}
102
{ACAD_REACTORS
330
5552
102
}
330
5552
100
AcDbModelDocViewStyle
 70
     0
  3
Imperial24
290
     0
100
AcDbDetailViewStyle
 70
     0
 71
     0
 90
        3
 71
     1
340
F
 40
0.24
340
0
 40
0.24
300

 40
0.36
280
     3
 71
     2
340
14
 90
       25
 71
     3
340
F
 40
0.24
 90
        1
 40
0.75
 90
        1
300
%<\AcVar ViewType \f "%tc1">% %<\AcVar ViewDetailId>%\PSCALE %<\AcVar ViewScale \f "%sn">%
 71
     4
340
14
 90
       25
340
14
 90
       25
280
     0
  0
LAYOUT
  5
5554
102
{ACAD_XDICTIONARY
360
55AF
102
}
102
{ACAD_REACTORS
330
94
102
}
330
94
100
AcDbPlotSettings
  1

  2
Canon LBP9100C
  4

  6

 40
0.0
 41
0.0
 42
0.0
 43
0.0
 44
0.0
 45
0.0
 46
0.0
 47
0.0
 48
0.0
 49
0.0
140
0.0
141
0.0
142
1.0
143
1.0
 70
  1712
 72
     0
 73
     0
 74
     0
  7

 75
     0
147
1.0
148
0.0
149
0.0
100
AcDbLayout
  1
Model
 70
     1
 71
     0
 10
0.0
 20
0.0
 11
12.0
 21
9.0
 12
0.0
 22
0.0
 32
0.0
 14
0.0
 24
0.0
 34
0.0
 15
0.0
 25
0.0
 35
0.0
146
0.0
 13
0.0
 23
0.0
 33
0.0
 16
1.0
 26
0.0
 36
0.0
 17
0.0
 27
1.0
 37
0.0
 76
     0
330
18
331
54FD
  0
LAYOUT
  5
5555
102
{ACAD_XDICTIONARY
360
55B1
102
}
102
{ACAD_REACTORS
330
94
102
}
330
94
100
AcDbPlotSettings
  1

  2
Canon LBP9100C
  4

  6

 40
0.0
 41
0.0
 42
0.0
 43
0.0
 44
0.0
 45
0.0
 46
0.0
 47
0.0
 48
0.0
 49
0.0
140
0.0
141
0.0
142
1.0
143
1.0
 70
   688
 72
     0
 73
     0
 74
     5
  7

 75
    16
147
1.0
148
0.0
149
0.0
100
AcDbLayout
  1
レイアウト1
 70
     1
 71
     1
 10
0.0
 20
0.0
 11
420.0
 21
297.0
 12
0.0
 22
0.0
 32
0.0
 14
1.000000000000000E+20
 24
1.000000000000000E+20
 34
1.000000000000000E+20
 15
-1.000000000000000E+20
 25
-1.000000000000000E+20
 35
-1.000000000000000E+20
146
0.0
 13
0.0
 23
0.0
 33
0.0
 16
1.0
 26
0.0
 36
0.0
 17
0.0
 27
1.0
 37
0.0
 76
     0
330
15
  0
MATERIAL
  5
5510
102
{ACAD_XDICTIONARY
360
5511
102
}
102
{ACAD_REACTORS
330
5507
102
}
330
5507
100
AcDbMaterial
  1
ByBlock
 72
     0
 43
0.0208333333333333
 43
0.0
 43
0.0
 43
0.0
 43
0.0
 43
0.0208333333333333
 43
0.0
 43
0.0
 43
0.0
 43
0.0
 43
1.0
 43
0.0
 43
0.0
 43
0.0
 43
0.0
 43
1.0
 77
     0
 47
0.0208333333333333
 47
0.0
 47
0.0
 47
0.0
 47
0.0
 47
0.0208333333333333
 47
0.0
 47
0.0
 47
0.0
 47
0.0
 47
1.0
 47
0.0
 47
0.0
 47
0.0
 47
0.0
 47
1.0
171
     0
 49
0.0208333333333333
 49
0.0
 49
0.0
 49
0.0
 49
0.0
 49
0.0208333333333333
 49
0.0
 49
0.0
 49
0.0
 49
0.0
 49
1.0
 49
0.0
 49
0.0
 49
0.0
 49
0.0
 49
1.0
175
     0
142
0.0208333333333333
142
0.0
142
0.0
142
0.0
142
0.0
142
0.0208333333333333
142
0.0
142
0.0
142
0.0
142
0.0
142
1.0
142
0.0
142
0.0
142
0.0
142
0.0
142
1.0
179
     0
144
0.0208333333333333
144
0.0
144
0.0
144
0.0
144
0.0
144
0.0208333333333333
144
0.0
144
0.0
144
0.0
144
0.0
144
1.0
144
0.0
144
0.0
144
0.0
144
0.0
144
1.0
147
0.0208333333333333
147
0.0
147
0.0
147
0.0
147
0.0
147
0.0208333333333333
147
0.0
147
0.0
147
0.0
147
0.0
147
1.0
147
0.0
147
0.0
147
0.0
147
0.0
147
1.0
  0
MATERIAL
  5
5508
102
{ACAD_XDICTIONARY
360
5509
102
}
102
{ACAD_REACTORS
330
5507
102
}
330
5507
100
AcDbMaterial
  1
ByLayer
 72
     0
 43
0.0208333333333333
 43
0.0
 43
0.0
 43
0.0
 43
0.0
 43
0.0208333333333333
 43
0.0
 43
0.0
 43
0.0
 43
0.0
 43
1.0
 43
0.0
 43
0.0
 43
0.0
 43
0.0
 43
1.0
 77
     0
 47
0.0208333333333333
 47
0.0
 47
0.0
 47
0.0
 47
0.0
 47
0.0208333333333333
 47
0.0
 47
0.0
 47
0.0
 47
0.0
 47
1.0
 47
0.0
 47
0.0
 47
0.0
 47
0.0
 47
1.0
171
     0
 49
0.0208333333333333
 49
0.0
 49
0.0
 49
0.0
 49
0.0
 49
0.0208333333333333
 49
0.0
 49
0.0
 49
0.0
 49
0.0
 49
1.0
 49
0.0
 49
0.0
 49
0.0
 49
0.0
 49
1.0
175
     0
142
0.0208333333333333
142
0.0
142
0.0
142
0.0
142
0.0
142
0.0208333333333333
142
0.0
142
0.0
142
0.0
142
0.0
142
1.0
142
0.0
142
0.0
142
0.0
142
0.0
142
1.0
179
     0
144
0.0208333333333333
144
0.0
144
0.0
144
0.0
144
0.0
144
0.0208333333333333
144
0.0
144
0.0
144
0.0
144
0.0
144
1.0
144
0.0
144
0.0
144
0.0
144
0.0
144
1.0
147
0.0208333333333333
147
0.0
147
0.0
147
0.0
147
0.0
147
0.0208333333333333
147
0.0
147
0.0
147
0.0
147
0.0
147
1.0
147
0.0
147
0.0
147
0.0
147
0.0
147
1.0
  0
MATERIAL
  5
5518
102
{ACAD_XDICTIONARY
360
5519
102
}
102
{ACAD_REACTORS
330
5507
102
}
330
5507
100
AcDbMaterial
  1
Global
 72
     0
 43
0.0208333333333333
 43
0.0
 43
0.0
 43
0.0
 43
0.0
 43
0.0208333333333333
 43
0.0
 43
0.0
 43
0.0
 43
0.0
 43
1.0
 43
0.0
 43
0.0
 43
0.0
 43
0.0
 43
1.0
 77
     0
 47
0.0208333333333333
 47
0.0
 47
0.0
 47
0.0
 47
0.0
 47
0.0208333333333333
 47
0.0
 47
0.0
 47
0.0
 47
0.0
 47
1.0
 47
0.0
 47
0.0
 47
0.0
 47
0.0
 47
1.0
171
     0
 49
0.0208333333333333
 49
0.0
 49
0.0
 49
0.0
 49
0.0
 49
0.0208333333333333
 49
0.0
 49
0.0
 49
0.0
 49
0.0
 49
1.0
 49
0.0
 49
0.0
 49
0.0
 49
0.0
 49
1.0
175
     0
142
0.0208333333333333
142
0.0
142
0.0
142
0.0
142
0.0
142
0.0208333333333333
142
0.0
142
0.0
142
0.0
142
0.0
142
1.0
142
0.0
142
0.0
142
0.0
142
0.0
142
1.0
179
     0
144
0.0208333333333333
144
0.0
144
0.0
144
0.0
144
0.0
144
0.0208333333333333
144
0.0
144
0.0
144
0.0
144
0.0
144
1.0
144
0.0
144
0.0
144
0.0
144
0.0
144
1.0
147
0.0208333333333333
147
0.0
147
0.0
147
0.0
147
0.0
147
0.0208333333333333
147
0.0
147
0.0
147
0.0
147
0.0
147
1.0
147
0.0
147
0.0
147
0.0
147
0.0
147
1.0
  0
MLEADERSTYLE
  5
554F
102
{ACAD_REACTORS
330
554E
102
}
330
554E
100
AcDbMLeaderStyle
170
     2
171
     1
172
     0
 90
        2
 40
0.0
 41
0.0
173
     1
 91
-1056964608
340
12
 92
       -2
290
     1
 42
0.09
291
     1
 43
0.36
  3
Standard
 44
0.18
300

342
F
174
     1
178
     6
175
     1
176
     0
 93
-1056964608
 45
0.18
292
     0
297
     0
 46
0.18
 94
-1056964608
 47
1.0
 49
1.0
140
1.0
293
     1
141
0.0
294
     1
177
     0
142
1.0
295
     0
296
     0
143
0.125
1001
ACAD_MLEADERVER
1070
     2
  0
MLINESTYLE
  5
1C
102
{ACAD_REACTORS
330
1B
102
}
330
1B
100
AcDbMlineStyle
  2
STANDARD
 70
     0
  3

 62
   256
 51
90.0
 52
90.0
 71
     2
 49
0.5
 62
   256
  6
BYLAYER
 49
-0.5
 62
   256
  6
BYLAYER
  0
ACDBPLACEHOLDER
  5
5506
102
{ACAD_REACTORS
330
5505
102
}
330
5505
  0
SCALE
  5
553D
102
{ACAD_REACTORS
330
553C
102
}
330
553C
100
AcDbScale
 70
     0
300
1:1
140
1.0
141
1.0
290
     1
  0
SCALE
  5
553E
102
{ACAD_REACTORS
330
553C
102
}
330
553C
100
AcDbScale
 70
     0
300
1/128" = 1'-0"
140
0.0078125
141
12.0
290
     0
  0
SCALE
  5
553F
102
{ACAD_REACTORS
330
553C
102
}
330
553C
100
AcDbScale
 70
     0
300
1/64" = 1'-0"
140
0.015625
141
12.0
290
     0
  0
SCALE
  5
5540
102
{ACAD_REACTORS
330
553C
102
}
330
553C
100
AcDbScale
 70
     0
300
1/32" = 1'-0"
140
0.03125
141
12.0
290
     0
  0
SCALE
  5
5541
102
{ACAD_REACTORS
330
553C
102
}
330
553C
100
AcDbScale
 70
     0
300
1/16" = 1'-0"
140
0.0625
141
12.0
290
     0
  0
SCALE
  5
5542
102
{ACAD_REACTORS
330
553C
102
}
330
553C
100
AcDbScale
 70
     0
300
3/32" = 1'-0"
140
0.09375
141
12.0
290
     0
  0
SCALE
  5
5543
102
{ACAD_REACTORS
330
553C
102
}
330
553C
100
AcDbScale
 70
     0
300
1/8" = 1'-0"
140
0.125
141
12.0
290
     0
  0
SCALE
  5
5544
102
{ACAD_REACTORS
330
553C
102
}
330
553C
100
AcDbScale
 70
     0
300
3/16" = 1'-0"
140
0.1875
141
12.0
290
     0
  0
SCALE
  5
5545
102
{ACAD_REACTORS
330
553C
102
}
330
553C
100
AcDbScale
 70
     0
300
1/4" = 1'-0"
140
0.25
141
12.0
290
     0
  0
SCALE
  5
5546
102
{ACAD_REACTORS
330
553C
102
}
330
553C
100
AcDbScale
 70
     0
300
3/8" = 1'-0"
140
0.375
141
12.0
290
     0
  0
SCALE
  5
5547
102
{ACAD_REACTORS
330
553C
102
}
330
553C
100
AcDbScale
 70
     0
300
1/2" = 1'-0"
140
0.5
141
12.0
290
     0
  0
SCALE
  5
5548
102
{ACAD_REACTORS
330
553C
102
}
330
553C
100
AcDbScale
 70
     0
300
3/4" = 1'-0"
140
0.75
141
12.0
290
     0
  0
SCALE
  5
5549
102
{ACAD_REACTORS
330
553C
102
}
330
553C
100
AcDbScale
 70
     0
300
1" = 1'-0"
140
1.0
141
12.0
290
     0
  0
SCALE
  5
554A
102
{ACAD_REACTORS
330
553C
102
}
330
553C
100
AcDbScale
 70
     0
300
1-1/2" = 1'-0"
140
1.5
141
12.0
290
     0
  0
SCALE
  5
554B
102
{ACAD_REACTORS
330
553C
102
}
330
553C
100
AcDbScale
 70
     0
300
3" = 1'-0"
140
3.0
141
12.0
290
     0
  0
SCALE
  5
554C
102
{ACAD_REACTORS
330
553C
102
}
330
553C
100
AcDbScale
 70
     0
300
6" = 1'-0"
140
6.0
141
12.0
290
     0
  0
SCALE
  5
554D
102
{ACAD_REACTORS
330
553C
102
}
330
553C
100
AcDbScale
 70
     0
300
1'-0" = 1'-0"
140
12.0
141
12.0
290
     0
  0
ACDBSECTIONVIEWSTYLE
  5
5551
102
{ACAD_XDICTIONARY
360
55AB
102
}
102
{ACAD_REACTORS
330
5550
102
}
330
5550
100
AcDbModelDocViewStyle
 70
     0
  3
Imperial24
290
     0
100
AcDbSectionViewStyle
 70
     0
 71
     0
 90
       78
 71
     1
340
F
 40
0.24
340
0
340
0
 40
0.24
300
I, O, Q, S, X, Z
 40
0.48
 90
        3
 40
0.18
 90
        1
 71
     2
340
14
 90
       25
340
14
 90
       50
 40
0.24
 40
0.0
 40
0.24
 71
     3
340
F
 40
0.24
 90
        1
 40
0.75
 90
        1
300
%<\AcVar ViewType \f "%tc1">% %<\AcVar ViewSectionStartId>%-%<\AcVar ViewSectionEndId>%\PSCALE %<\AcVar ViewScale \f "%sn">%
 71
     4
300
ANSI31
 40
1.0
 90
        0
290
     0
290
     0
 90
        6
 40
0.0
 40
1.570796326794896
 40
0.2617993877991494
 40
1.308996938995747
 40
-0.2617993877991494
 40
1.832595714594046
  0
TABLESTYLE
  5
553B
102
{ACAD_XDICTIONARY
360
5572
102
}
102
{ACAD_REACTORS
330
553A
102
}
330
553A
100
AcDbTableStyle
  3
Standard
 70
     0
 71
     0
 40
0.06
 41
0.06
280
     0
281
     0
  7
STANDARD
140
0.18
170
     2
 62
     0
 63
     7
283
     0
274
    -2
284
     1
 64
     0
275
    -2
285
     1
 65
     0
276
    -2
286
     1
 66
     0
277
    -2
287
     1
 67
     0
278
    -2
288
     1
 68
     0
279
    -2
289
     1
 69
     0
  7
STANDARD
140
0.25
170
     5
 62
     0
 63
     7
283
     0
274
    -2
284
     1
 64
     0
275
    -2
285
     1
 65
     0
276
    -2
286
     1
 66
     0
277
    -2
287
     1
 67
     0
278
    -2
288
     1
 68
     0
279
    -2
289
     1
 69
     0
  7
STANDARD
140
0.18
170
     5
 62
     0
 63
     7
283
     0
274
    -2
284
     1
 64
     0
275
    -2
285
     1
 65
     0
276
    -2
286
     1
 66
     0
277
    -2
287
     1
 67
     0
278
    -2
288
     1
 68
     0
279
    -2
289
     1
 69
     0
  0
VISUALSTYLE
  5
5526
102
{ACAD_XDICTIONARY
360
5583
102
}
102
{ACAD_REACTORS
330
5520
102
}
330
5520
100
AcDbVisualStyle
  2
2dWireframe
 70
     4
 71
     0
 72
     2
 73
     0
 90
        0
 40
-0.6
 41
-30.0
 62
     5
 63
     7
 74
     1
 91
        4
 64
     7
 65
   257
 75
     1
175
     1
 42
1.0
 92
        0
 66
   257
 43
1.0
 76
     1
 77
     6
 78
     2
 67
     7
 79
     5
170
     0
171
     0
290
     0
174
     0
 93
        1
 44
0.0
173
     0
291
     0
 45
0.0
1001
ACAD
1000
AcDbSavedByObjectVersion
1070
     0
  0
VISUALSTYLE
  5
5525
102
{ACAD_XDICTIONARY
360
5581
102
}
102
{ACAD_REACTORS
330
5520
102
}
330
5520
100
AcDbVisualStyle
  2
Basic
 70
     7
 71
     1
 72
     0
 73
     1
 90
        0
 40
-0.6
 41
-30.0
 62
     5
 63
     7
 74
     0
 91
        4
 64
     7
 65
   257
 75
     1
175
     1
 42
1.0
 92
        8
 66
     7
 43
1.0
 76
     1
 77
     6
 78
     2
 67
     7
 79
     5
170
     0
171
     0
290
     0
174
     0
 93
        1
 44
0.0
173
     0
291
     1
 45
0.0
1001
ACAD
1000
AcDbSavedByObjectVersion
1070
     0
  0
VISUALSTYLE
  5
552C
102
{ACAD_XDICTIONARY
360
558F
102
}
102
{ACAD_REACTORS
330
5520
102
}
330
5520
100
AcDbVisualStyle
  2
Brighten
 70
    12
 71
     2
 72
     2
 73
     0
 90
        0
 40
-0.6
 41
-30.0
 62
     5
 63
     7
 74
     1
 91
        4
 64
     7
 65
   257
 75
     1
175
     1
 42
1.0
 92
        8
 66
     7
 43
1.0
 76
     1
 77
     6
 78
     2
 67
     7
 79
     5
170
     0
171
     0
290
     0
174
     0
 93
        1
 44
50.0
173
     0
291
     1
 45
0.0
1001
ACAD
1000
AcDbSavedByObjectVersion
1070
     0
  0
VISUALSTYLE
  5
5530
102
{ACAD_XDICTIONARY
360
5597
102
}
102
{ACAD_REACTORS
330
5520
102
}
330
5520
100
AcDbVisualStyle
  2
ColorChange
 70
    16
 71
     2
 72
     2
 73
     3
 90
        0
 40
-0.6
 41
-30.0
 62
     5
 63
     8
 74
     1
 91
        4
 64
     7
 65
   257
 75
     1
175
     1
 42
1.0
 92
        8
 66
     8
 43
1.0
 76
     1
 77
     6
 78
     2
 67
     7
 79
     5
170
     0
171
     0
290
     0
174
     0
 93
        1
 44
0.0
173
     0
291
     1
 45
0.0
1001
ACAD
1000
AcDbSavedByObjectVersion
1070
     0
  0
VISUALSTYLE
  5
5529
102
{ACAD_XDICTIONARY
360
5589
102
}
102
{ACAD_REACTORS
330
5520
102
}
330
5520
100
AcDbVisualStyle
  2
Conceptual
 70
     9
 71
     3
 72
     2
 73
     0
 90
        0
 40
-0.6
 41
-30.0
 62
     5
 63
     7
 74
     2
 91
        2
 64
     7
 65
   257
 75
     1
175
     1
 42
179.0
 92
        8
 66
     7
 43
1.0
 76
     1
 77
     6
 78
     2
 67
     7
 79
     3
170
     0
171
     0
290
     0
174
     0
 93
        1
 44
0.0
173
     0
291
     0
 45
0.0
1001
ACAD
1000
AcDbSavedByObjectVersion
1070
     0
  0
VISUALSTYLE
  5
552B
102
{ACAD_XDICTIONARY
360
558D
102
}
102
{ACAD_REACTORS
330
5520
102
}
330
5520
100
AcDbVisualStyle
  2
Dim
 70
    11
 71
     2
 72
     2
 73
     0
 90
        0
 40
-0.6
 41
-30.0
 62
     5
 63
     7
 74
     1
 91
        4
 64
     7
 65
   257
 75
     1
175
     1
 42
1.0
 92
        8
 66
     7
 43
1.0
 76
     1
 77
     6
 78
     2
 67
     7
 79
     5
170
     0
171
     0
290
     0
174
     0
 93
        1
 44
-50.0
173
     0
291
     1
 45
0.0
1001
ACAD
1000
AcDbSavedByObjectVersion
1070
     0
  0
VISUALSTYLE
  5
5538
102
{ACAD_XDICTIONARY
360
55A7
102
}
102
{ACAD_REACTORS
330
5520
102
}
330
5520
100
AcDbVisualStyle
  2
EdgeColorOff
 70
    22
 71
     2
 72
     2
 73
     0
 90
        0
 40
-0.6
 41
-30.0
 62
     5
 63
     7
 74
     1
 91
        4
 64
     7
 65
   257
 75
     1
175
     1
 42
1.0
 92
        8
 66
     7
 43
1.0
 76
     1
 77
     6
 78
     2
 67
     7
 79
     5
170
     0
171
     0
290
     0
174
     0
 93
        1
 44
0.0
173
     0
291
     1
 45
0.0
1001
ACAD
1000
AcDbSavedByObjectVersion
1070
     0
  0
VISUALSTYLE
  5
552F
102
{ACAD_XDICTIONARY
360
5595
102
}
102
{ACAD_REACTORS
330
5520
102
}
330
5520
100
AcDbVisualStyle
  2
Facepattern
 70
    15
 71
     2
 72
     2
 73
     0
 90
        0
 40
-0.6
 41
-30.0
 62
     5
 63
     7
 74
     1
 91
        4
 64
     7
 65
   257
 75
     1
175
     1
 42
1.0
 92
        8
 66
     7
 43
1.0
 76
     1
 77
     6
 78
     2
 67
     7
 79
     5
170
     0
171
     0
290
     0
174
     0
 93
        1
 44
0.0
173
     0
291
     1
 45
0.0
1001
ACAD
1000
AcDbSavedByObjectVersion
1070
     0
  0
VISUALSTYLE
  5
5521
102
{ACAD_XDICTIONARY
360
5579
102
}
102
{ACAD_REACTORS
330
5520
102
}
330
5520
100
AcDbVisualStyle
  2
Flat
 70
     0
 71
     2
 72
     1
 73
     1
 90
        2
 40
-0.6
 41
30.0
 62
     5
 63
     7
 74
     0
 91
        0
 64
     7
 65
   257
 75
     1
175
     1
 42
1.0
 92
        8
 66
     7
 43
1.0
 76
     1
 77
     6
 78
     2
 67
     7
 79
     5
170
     0
171
     0
290
     0
174
     0
 93
       13
 44
0.0
173
     0
291
     1
 45
0.0
1001
ACAD
1000
AcDbSavedByObjectVersion
1070
     0
  0
VISUALSTYLE
  5
5522
102
{ACAD_XDICTIONARY
360
557B
102
}
102
{ACAD_REACTORS
330
5520
102
}
330
5520
100
AcDbVisualStyle
  2
FlatWithEdges
 70
     1
 71
     2
 72
     1
 73
     1
 90
        2
 40
-0.6
 41
30.0
 62
     5
 63
     7
 74
     1
 91
        0
 64
     7
 65
   257
 75
     1
175
     1
 42
1.0
 92
        0
 66
   257
 43
1.0
 76
     1
 77
     6
 78
     2
 67
     7
 79
     5
170
     0
171
     0
290
     0
174
     0
 93
       13
 44
0.0
173
     0
291
     1
 45
0.0
1001
ACAD
1000
AcDbSavedByObjectVersion
1070
     0
  0
VISUALSTYLE
  5
5523
102
{ACAD_XDICTIONARY
360
557D
102
}
102
{ACAD_REACTORS
330
5520
102
}
330
5520
100
AcDbVisualStyle
  2
Gouraud
 70
     2
 71
     2
 72
     2
 73
     1
 90
        2
 40
-0.6
 41
30.0
 62
     5
 63
     7
 74
     0
 91
        0
 64
     7
 65
   257
 75
     1
175
     1
 42
1.0
 92
        0
 66
     7
 43
1.0
 76
     1
 77
     6
 78
     2
 67
     7
 79
     5
170
     0
171
     0
290
     0
174
     0
 93
       13
 44
0.0
173
     0
291
     1
 45
0.0
1001
ACAD
1000
AcDbSavedByObjectVersion
1070
     0
  0
VISUALSTYLE
  5
5524
102
{ACAD_XDICTIONARY
360
557F
102
}
102
{ACAD_REACTORS
330
5520
102
}
330
5520
100
AcDbVisualStyle
  2
GouraudWithEdges
 70
     3
 71
     2
 72
     2
 73
     1
 90
        2
 40
-0.6
 41
30.0
 62
     5
 63
     7
 74
     1
 91
        0
 64
     7
 65
   257
 75
     1
175
     1
 42
1.0
 92
        0
 66
   257
 43
1.0
 76
     1
 77
     6
 78
     2
 67
     7
 79
     5
170
     0
171
     0
290
     0
174
     0
 93
       13
 44
0.0
173
     0
291
     1
 45
0.0
1001
ACAD
1000
AcDbSavedByObjectVersion
1070
     0
  0
VISUALSTYLE
  5
5528
102
{ACAD_XDICTIONARY
360
5587
102
}
102
{ACAD_REACTORS
330
5520
102
}
330
5520
100
AcDbVisualStyle
  2
Hidden
 70
     6
 71
     1
 72
     2
 73
     2
 90
        0
 40
-0.6
 41
-30.0
 62
     5
 63
     7
 74
     2
 91
        2
 64
     7
 65
   257
 75
     2
175
     1
 42
40.0
 92
        0
 66
   257
 43
1.0
 76
     1
 77
     6
 78
     2
 67
     7
 79
     3
170
     0
171
     0
290
     0
174
     0
 93
        1
 44
0.0
173
     0
291
     0
 45
0.0
1001
ACAD
1000
AcDbSavedByObjectVersion
1070
     0
  0
VISUALSTYLE
  5
5536
102
{ACAD_XDICTIONARY
360
55A3
102
}
102
{ACAD_REACTORS
330
5520
102
}
330
5520
100
AcDbVisualStyle
  2
JitterOff
 70
    20
 71
     2
 72
     2
 73
     0
 90
        0
 40
-0.6
 41
-30.0
 62
     5
 63
     7
 74
     1
 91
        4
 64
     7
 65
   257
 75
     1
175
     1
 42
1.0
 92
       10
 66
     7
 43
1.0
 76
     1
 77
     6
 78
     2
 67
     7
 79
     5
170
     0
171
     0
290
     0
174
     0
 93
        1
 44
0.0
173
     0
291
     1
 45
0.0
1001
ACAD
1000
AcDbSavedByObjectVersion
1070
     0
  0
VISUALSTYLE
  5
552E
102
{ACAD_XDICTIONARY
360
5593
102
}
102
{ACAD_REACTORS
330
5520
102
}
330
5520
100
AcDbVisualStyle
  2
Linepattern
 70
    14
 71
     2
 72
     2
 73
     0
 90
        0
 40
-0.6
 41
-30.0
 62
     5
 63
     7
 74
     1
 91
        4
 64
     7
 65
   257
 75
     7
175
     7
 42
1.0
 92
        8
 66
     7
 43
1.0
 76
     1
 77
     6
 78
     2
 67
     7
 79
     5
170
     0
171
     0
290
     0
174
     0
 93
        1
 44
0.0
173
     0
291
     1
 45
0.0
1001
ACAD
1000
AcDbSavedByObjectVersion
1070
     0
  0
VISUALSTYLE
  5
5537
102
{ACAD_XDICTIONARY
360
55A5
102
}
102
{ACAD_REACTORS
330
5520
102
}
330
5520
100
AcDbVisualStyle
  2
OverhangOff
 70
    21
 71
     2
 72
     2
 73
     0
 90
        0
 40
-0.6
 41
-30.0
 62
     5
 63
     7
 74
     1
 91
        4
 64
     7
 65
   257
 75
     1
175
     1
 42
1.0
 92
        9
 66
     7
 43
1.0
 76
     1
 77
     6
 78
     2
 67
     7
 79
     5
170
     0
171
     0
290
     0
174
     0
 93
        1
 44
0.0
173
     0
291
     1
 45
0.0
1001
ACAD
1000
AcDbSavedByObjectVersion
1070
     0
  0
VISUALSTYLE
  5
552A
102
{ACAD_XDICTIONARY
360
558B
102
}
102
{ACAD_REACTORS
330
5520
102
}
330
5520
100
AcDbVisualStyle
  2
Realistic
 70
     8
 71
     2
 72
     3
 73
     0
 90
        2
 40
-0.6
 41
30.0
 62
     5
 63
     7
 74
     0
 91
        0
 64
     7
 65
   257
 75
     1
175
     1
 42
1.0
 92
        8
 66
   257
 43
1.0
 76
     1
 77
     6
 78
     2
 67
     7
 79
     3
170
     0
171
     0
290
     0
174
     0
 93
       13
 44
0.0
173
     0
291
     0
 45
0.0
1001
ACAD
1000
AcDbSavedByObjectVersion
1070
     0
  0
VISUALSTYLE
  5
5535
102
{ACAD_XDICTIONARY
360
55A1
102
}
102
{ACAD_REACTORS
330
5520
102
}
330
5520
100
AcDbVisualStyle
  2
Shaded
 70
    27
 71
     2
 72
     2
 73
     1
 90
        2
 40
-0.6
 41
30.0
 62
     5
 63
     7
 74
     0
 91
        4
 64
     7
 65
   257
 75
     1
175
     1
 42
1.0
 92
        8
 66
   257
 43
1.0
 76
     1
 77
     6
 78
     2
 67
     8
 79
     3
170
     0
171
     0
290
     0
174
     0
 93
        5
 44
0.0
173
     0
291
     0
 45
0.0
1001
ACAD
1000
AcDbSavedByObjectVersion
1070
     0
  0
VISUALSTYLE
  5
5534
102
{ACAD_XDICTIONARY
360
559F
102
}
102
{ACAD_REACTORS
330
5520
102
}
330
5520
100
AcDbVisualStyle
  2
Shaded with edges
 70
    26
 71
     2
 72
     2
 73
     1
 90
        2
 40
-0.6
 41
30.0
 62
     5
 63
     7
 74
     1
 91
       10
 64
     7
 65
   257
 75
     2
175
     1
 42
1.0
 92
        8
 66
   257
 43
1.0
 76
     1
 77
     6
 78
     2
 67
     7
 79
     3
170
     0
171
     0
290
     0
174
     0
 93
        5
 44
0.0
173
     0
291
     0
 45
0.0
1001
ACAD
1000
AcDbSavedByObjectVersion
1070
     0
  0
VISUALSTYLE
  5
5531
102
{ACAD_XDICTIONARY
360
5599
102
}
102
{ACAD_REACTORS
330
5520
102
}
330
5520
100
AcDbVisualStyle
  2
Shades of Gray
 70
    23
 71
     2
 72
     2
 73
     3
 90
        0
 40
-0.6
 41
-30.0
 62
     5
 63
     7
 74
     2
 91
        2
 64
     7
 65
     7
 75
     1
175
     1
 42
40.0
 92
        8
 66
     7
 43
1.0
 76
     1
 77
     6
 78
     2
 67
     7
 79
     3
170
     0
171
     0
290
     0
174
     0
 93
        1
 44
0.0
173
     0
291
     0
 45
0.0
1001
ACAD
1000
AcDbSavedByObjectVersion
1070
     0
  0
VISUALSTYLE
  5
5532
102
{ACAD_XDICTIONARY
360
559B
102
}
102
{ACAD_REACTORS
330
5520
102
}
330
5520
100
AcDbVisualStyle
  2
Sketchy
 70
    24
 71
     1
 72
     2
 73
     2
 90
        0
 40
-0.6
 41
-30.0
 62
     5
 63
     7
 74
     2
 91
        2
 64
     7
 65
     7
 75
     1
175
     1
 42
40.0
 92
       11
 66
     7
 43
1.0
 76
     1
 77
     6
 78
     2
 67
     7
 79
     6
170
     0
171
     0
290
     0
174
     0
 93
        1
 44
0.0
173
     0
291
     0
 45
0.0
1001
ACAD
1000
AcDbSavedByObjectVersion
1070
     0
  0
VISUALSTYLE
  5
552D
102
{ACAD_XDICTIONARY
360
5591
102
}
102
{ACAD_REACTORS
330
5520
102
}
330
5520
100
AcDbVisualStyle
  2
Thicken
 70
    13
 71
     2
 72
     2
 73
     0
 90
        0
 40
-0.6
 41
-30.0
 62
     5
 63
     7
 74
     1
 91
        4
 64
     7
 65
   257
 75
     1
175
     1
 42
1.0
 92
       12
 66
     7
 43
1.0
 76
     1
 77
     6
 78
     2
 67
     7
 79
     5
170
     0
171
     0
290
     0
174
     0
 93
        1
 44
0.0
173
     0
291
     1
 45
0.0
1001
ACAD
1000
AcDbSavedByObjectVersion
1070
     0
  0
VISUALSTYLE
  5
5527
102
{ACAD_XDICTIONARY
360
5585
102
}
102
{ACAD_REACTORS
330
5520
102
}
330
5520
100
AcDbVisualStyle
  2
Wireframe
 70
     5
 71
     0
 72
     2
 73
     0
 90
        0
 40
-0.6
 41
-30.0
 62
     5
 63
     7
 74
     1
 91
        4
 64
     7
 65
   257
 75
     1
175
     1
 42
1.0
 92
        0
 66
   257
 43
1.0
 76
     1
 77
     6
 78
     2
 67
     7
 79
     3
170
     0
171
     0
290
     0
174
     0
 93
        1
 44
0.0
173
     0
291
     0
 45
0.0
1001
ACAD
1000
AcDbSavedByObjectVersion
1070
     0
  0
VISUALSTYLE
  5
5533
102
{ACAD_XDICTIONARY
360
559D
102
}
102
{ACAD_REACTORS
330
5520
102
}
330
5520
100
AcDbVisualStyle
  2
X-Ray
 70
    25
 71
     2
 72
     2
 73
     1
 90
        1
 40
0.5
 41
-30.0
 62
     5
 63
     7
 74
     1
 91
        0
 64
     7
 65
   257
 75
     1
175
     1
 42
1.0
 92
        8
 66
     7
 43
1.0
 76
     1
 77
     6
 78
     2
 67
     7
 79
     3
170
     0
171
     0
290
     0
174
     0
 93
       13
 44
0.0
173
     0
291
     0
 45
0.0
1001
ACAD
1000
AcDbSavedByObjectVersion
1070
     0
  0
DICTIONARYVAR
  5
556C
102
{ACAD_REACTORS
330
5567
102
}
330
5567
100
DictionaryVariables
280
     0
  1
1:1
  0
DICTIONARYVAR
  5
5569
102
{ACAD_REACTORS
330
5567
102
}
330
5567
100
DictionaryVariables
280
     0
  1
STANDARD
  0
DICTIONARYVAR
  5
5568
102
{ACAD_REACTORS
330
5567
102
}
330
5567
100
DictionaryVariables
280
     0
  1
STANDARD
  0
DICTIONARYVAR
  5
556A
102
{ACAD_REACTORS
330
5567
102
}
330
5567
100
DictionaryVariables
280
     0
  1
Imperial24
  0
DICTIONARYVAR
  5
556B
102
{ACAD_REACTORS
330
5567
102
}
330
5567
100
DictionaryVariables
280
     0
  1
Imperial24
  0
DICTIONARYVAR
  5
556F
102
{ACAD_REACTORS
330
5567
102
}
330
5567
100
DictionaryVariables
280
     0
  1
1
  0
DICTIONARYVAR
  5
556E
102
{ACAD_REACTORS
330
5567
102
}
330
5567
100
DictionaryVariables
280
     0
  1
0
  0
DICTIONARYVAR
  5
556D
102
{ACAD_REACTORS
330
5567
102
}
330
5567
100
DictionaryVariables
280
     0
  1
127
  0
DICTIONARYVAR
  5
5570
102
{ACAD_REACTORS
330
5567
102
}
330
5567
100
DictionaryVariables
280
     0
  1
2
  0
DICTIONARY
  5
55AD
330
5553
100
AcDbDictionary
280
     1
281
     1
  3
ACAD_XREC_ROUNDTRIP
360
55AE
  0
DICTIONARY
  5
55AF
330
5554
100
AcDbDictionary
280
     1
281
     1
  3
ACAD_XREC_ROUNDTRIP
360
55B0
  0
DICTIONARY
  5
55B1
330
5555
100
AcDbDictionary
280
     1
281
     1
  3
ACAD_XREC_ROUNDTRIP
360
55B2
  0
DICTIONARY
  5
5511
330
5510
100
AcDbDictionary
280
     1
281
     1
  3
ACAD_XREC_ROUNDTRIP
360
5577
  3
BUMPTILE
360
5513
  3
DIFFUSETILE
360
5512
  3
OPACITYTILE
360
5516
  3
REFLECTIONTILE
360
5515
  3
REFRACTIONTILE
360
5517
  3
SPECULARTILE
360
5514
  0
DICTIONARY
  5
5509
330
5508
100
AcDbDictionary
280
     1
281
     1
  3
ACAD_XREC_ROUNDTRIP
360
5576
  3
BUMPTILE
360
550B
  3
DIFFUSETILE
360
550A
  3
OPACITYTILE
360
550E
  3
REFLECTIONTILE
360
550D
  3
REFRACTIONTILE
360
550F
  3
SPECULARTILE
360
550C
  0
DICTIONARY
  5
5519
330
5518
100
AcDbDictionary
280
     1
281
     1
  3
ACAD_XREC_ROUNDTRIP
360
5578
  3
BUMPTILE
360
551B
  3
DIFFUSETILE
360
551A
  3
OPACITYTILE
360
551E
  3
REFLECTIONTILE
360
551D
  3
REFRACTIONTILE
360
551F
  3
SPECULARTILE
360
551C
  0
DICTIONARY
  5
55AB
330
5551
100
AcDbDictionary
280
     1
281
     1
  3
ACAD_XREC_ROUNDTRIP
360
55AC
  0
DICTIONARY
  5
5572
330
553B
100
AcDbDictionary
280
     1
281
     1
  3
ACAD_ROUNDTRIP_2008_TABLESTYLE_CELLSTYLEMAP
360
5573
  3
ACAD_XREC_ROUNDTRIP
360
55A9
  0
DICTIONARY
  5
5583
330
5526
100
AcDbDictionary
280
     1
281
     1
  3
ACAD_XREC_ROUNDTRIP
360
5584
  0
DICTIONARY
  5
5581
330
5525
100
AcDbDictionary
280
     1
281
     1
  3
ACAD_XREC_ROUNDTRIP
360
5582
  0
DICTIONARY
  5
558F
330
552C
100
AcDbDictionary
280
     1
281
     1
  3
ACAD_XREC_ROUNDTRIP
360
5590
  0
DICTIONARY
  5
5597
330
5530
100
AcDbDictionary
280
     1
281
     1
  3
ACAD_XREC_ROUNDTRIP
360
5598
  0
DICTIONARY
  5
5589
330
5529
100
AcDbDictionary
280
     1
281
     1
  3
ACAD_XREC_ROUNDTRIP
360
558A
  0
DICTIONARY
  5
558D
330
552B
100
AcDbDictionary
280
     1
281
     1
  3
ACAD_XREC_ROUNDTRIP
360
558E
  0
DICTIONARY
  5
55A7
330
5538
100
AcDbDictionary
280
     1
281
     1
  3
ACAD_XREC_ROUNDTRIP
360
55A8
  0
DICTIONARY
  5
5595
330
552F
100
AcDbDictionary
280
     1
281
     1
  3
ACAD_XREC_ROUNDTRIP
360
5596
  0
DICTIONARY
  5
5579
330
5521
100
AcDbDictionary
280
     1
281
     1
  3
ACAD_XREC_ROUNDTRIP
360
557A
  0
DICTIONARY
  5
557B
330
5522
100
AcDbDictionary
280
     1
281
     1
  3
ACAD_XREC_ROUNDTRIP
360
557C
  0
DICTIONARY
  5
557D
330
5523
100
AcDbDictionary
280
     1
281
     1
  3
ACAD_XREC_ROUNDTRIP
360
557E
  0
DICTIONARY
  5
557F
330
5524
100
AcDbDictionary
280
     1
281
     1
  3
ACAD_XREC_ROUNDTRIP
360
5580
  0
DICTIONARY
  5
5587
330
5528
100
AcDbDictionary
280
     1
281
     1
  3
ACAD_XREC_ROUNDTRIP
360
5588
  0
DICTIONARY
  5
55A3
330
5536
100
AcDbDictionary
280
     1
281
     1
  3
ACAD_XREC_ROUNDTRIP
360
55A4
  0
DICTIONARY
  5
5593
330
552E
100
AcDbDictionary
280
     1
281
     1
  3
ACAD_XREC_ROUNDTRIP
360
5594
  0
DICTIONARY
  5
55A5
330
5537
100
AcDbDictionary
280
     1
281
     1
  3
ACAD_XREC_ROUNDTRIP
360
55A6
  0
DICTIONARY
  5
558B
330
552A
100
AcDbDictionary
280
     1
281
     1
  3
ACAD_XREC_ROUNDTRIP
360
558C
  0
DICTIONARY
  5
55A1
330
5535
100
AcDbDictionary
280
     1
281
     1
  3
ACAD_XREC_ROUNDTRIP
360
55A2
  0
DICTIONARY
  5
559F
330
5534
100
AcDbDictionary
280
     1
281
     1
  3
ACAD_XREC_ROUNDTRIP
360
55A0
  0
DICTIONARY
  5
5599
330
5531
100
AcDbDictionary
280
     1
281
     1
  3
ACAD_XREC_ROUNDTRIP
360
559A
  0
DICTIONARY
  5
559B
330
5532
100
AcDbDictionary
280
     1
281
     1
  3
ACAD_XREC_ROUNDTRIP
360
559C
  0
DICTIONARY
  5
5591
330
552D
100
AcDbDictionary
280
     1
281
     1
  3
ACAD_XREC_ROUNDTRIP
360
5592
  0
DICTIONARY
  5
5585
330
5527
100
AcDbDictionary
280
     1
281
     1
  3
ACAD_XREC_ROUNDTRIP
360
5586
  0
DICTIONARY
  5
559D
330
5533
100
AcDbDictionary
280
     1
281
     1
  3
ACAD_XREC_ROUNDTRIP
360
559E
  0
XRECORD
  5
55AE
102
{ACAD_REACTORS
330
55AD
102
}
330
55AD
100
AcDbXrecord
280
     1
102
DISPLAYNAME
  1
Imperial24
102
FLAGS
 90
        0
  0
XRECORD
  5
55B0
102
{ACAD_REACTORS
330
55AF
102
}
330
55AF
100
AcDbXrecord
280
     1
102
SHADEPLOT
 70
     0
102
SHADEPLOTRESLEVEL
 70
     2
102
SHADEPLOTCUSTOMDPI
 70
   300
  0
XRECORD
  5
55B2
102
{ACAD_REACTORS
330
55B1
102
}
330
55B1
100
AcDbXrecord
280
     1
102
SHADEPLOT
 70
     0
102
SHADEPLOTRESLEVEL
 70
     2
102
SHADEPLOTCUSTOMDPI
 70
   300
  0
XRECORD
  5
5577
102
{ACAD_REACTORS
330
5511
102
}
330
5511
100
AcDbXrecord
280
     1
102
MATERIAL
148
0.0
149
0.0
149
0.0
 93
        0
 94
      127
282
     0
 72
     0
 77
     0
171
     0
175
     0
179
     0
273
     0
  0
XRECORD
  5
5513
102
{ACAD_REACTORS
330
5511
102
}
330
5511
100
AcDbXrecord
280
     1
270
     1
271
     1
  0
XRECORD
  5
5512
102
{ACAD_REACTORS
330
5511
102
}
330
5511
100
AcDbXrecord
280
     1
270
     1
271
     1
  0
XRECORD
  5
5516
102
{ACAD_REACTORS
330
5511
102
}
330
5511
100
AcDbXrecord
280
     1
270
     1
271
     1
  0
XRECORD
  5
5515
102
{ACAD_REACTORS
330
5511
102
}
330
5511
100
AcDbXrecord
280
     1
270
     1
271
     1
  0
XRECORD
  5
5517
102
{ACAD_REACTORS
330
5511
102
}
330
5511
100
AcDbXrecord
280
     1
270
     1
271
     1
  0
XRECORD
  5
5514
102
{ACAD_REACTORS
330
5511
102
}
330
5511
100
AcDbXrecord
280
     1
270
     1
271
     1
  0
XRECORD
  5
5576
102
{ACAD_REACTORS
330
5509
102
}
330
5509
100
AcDbXrecord
280
     1
102
MATERIAL
148
0.0
149
0.0
149
0.0
 93
        0
 94
      127
282
     0
 72
     0
 77
     0
171
     0
175
     0
179
     0
273
     0
  0
XRECORD
  5
550B
102
{ACAD_REACTORS
330
5509
102
}
330
5509
100
AcDbXrecord
280
     1
270
     1
271
     1
  0
XRECORD
  5
550A
102
{ACAD_REACTORS
330
5509
102
}
330
5509
100
AcDbXrecord
280
     1
270
     1
271
     1
  0
XRECORD
  5
550E
102
{ACAD_REACTORS
330
5509
102
}
330
5509
100
AcDbXrecord
280
     1
270
     1
271
     1
  0
XRECORD
  5
550D
102
{ACAD_REACTORS
330
5509
102
}
330
5509
100
AcDbXrecord
280
     1
270
     1
271
     1
  0
XRECORD
  5
550F
102
{ACAD_REACTORS
330
5509
102
}
330
5509
100
AcDbXrecord
280
     1
270
     1
271
     1
  0
XRECORD
  5
550C
102
{ACAD_REACTORS
330
5509
102
}
330
5509
100
AcDbXrecord
280
     1
270
     1
271
     1
  0
XRECORD
  5
5578
102
{ACAD_REACTORS
330
5519
102
}
330
5519
100
AcDbXrecord
280
     1
102
MATERIAL
148
0.0
149
0.0
149
0.0
 93
        0
 94
      127
282
     0
 72
     0
 77
     0
171
     0
175
     0
179
     0
273
     0
  0
XRECORD
  5
551B
102
{ACAD_REACTORS
330
5519
102
}
330
5519
100
AcDbXrecord
280
     1
270
     1
271
     1
  0
XRECORD
  5
551A
102
{ACAD_REACTORS
330
5519
102
}
330
5519
100
AcDbXrecord
280
     1
270
     1
271
     1
  0
XRECORD
  5
551E
102
{ACAD_REACTORS
330
5519
102
}
330
5519
100
AcDbXrecord
280
     1
270
     1
271
     1
  0
XRECORD
  5
551D
102
{ACAD_REACTORS
330
5519
102
}
330
5519
100
AcDbXrecord
280
     1
270
     1
271
     1
  0
XRECORD
  5
551F
102
{ACAD_REACTORS
330
5519
102
}
330
5519
100
AcDbXrecord
280
     1
270
     1
271
     1
  0
XRECORD
  5
551C
102
{ACAD_REACTORS
330
5519
102
}
330
5519
100
AcDbXrecord
280
     1
270
     1
271
     1
  0
XRECORD
  5
55AC
102
{ACAD_REACTORS
330
55AB
102
}
330
55AB
100
AcDbXrecord
280
     1
102
DISPLAYNAME
  1
Imperial24
102
FLAGS
 90
        0
  0
CELLSTYLEMAP
  5
5573
102
{ACAD_REACTORS
330
5572
102
}
330
5572
100
AcDbCellStyleMap
 90
        3
300
CELLSTYLE
  1
TABLEFORMAT_BEGIN
 90
        5
170
     1
 91
        0
 92
    32768
 62
   257
 93
        1
300
CONTENTFORMAT
  1
CONTENTFORMAT_BEGIN
 90
        0
 91
        0
 92
      512
 93
        0
300

 40
0.0
140
1.0
 94
        5
 62
     0
340
F
144
0.25
309
CONTENTFORMAT_END
171
     0
 94
        0
309
TABLEFORMAT_END
  1
CELLSTYLE_BEGIN
 90
        1
 91
        1
300
_TITLE
309
CELLSTYLE_END
300
CELLSTYLE
  1
TABLEFORMAT_BEGIN
 90
        5
170
     1
 91
        0
 92
        0
 62
   257
 93
        1
300
CONTENTFORMAT
  1
CONTENTFORMAT_BEGIN
 90
        0
 91
        0
 92
      512
 93
        0
300

 40
0.0
140
1.0
 94
        5
 62
     0
340
F
144
0.18
309
CONTENTFORMAT_END
171
     0
 94
        0
309
TABLEFORMAT_END
  1
CELLSTYLE_BEGIN
 90
        2
 91
        1
300
_HEADER
309
CELLSTYLE_END
300
CELLSTYLE
  1
TABLEFORMAT_BEGIN
 90
        5
170
     1
 91
        0
 92
        0
 62
   257
 93
        1
300
CONTENTFORMAT
  1
CONTENTFORMAT_BEGIN
 90
        0
 91
        0
 92
      512
 93
        0
300

 40
0.0
140
1.0
 94
        2
 62
     0
340
F
144
0.18
309
CONTENTFORMAT_END
171
     0
 94
        0
309
TABLEFORMAT_END
  1
CELLSTYLE_BEGIN
 90
        3
 91
        2
300
_DATA
309
CELLSTYLE_END
  0
XRECORD
  5
55A9
102
{ACAD_REACTORS
330
5572
102
}
330
5572
100
AcDbXrecord
280
     1
102
ACAD_ROUNDTRIP_PRE2007_TABLESTYLE
 90
      512
 91
        0
  1

 92
      512
 93
        0
  2

 94
      512
 95
        0
  3

  0
XRECORD
  5
5584
102
{ACAD_REACTORS
330
5583
102
}
330
5583
100
AcDbXrecord
280
     1
102
RTVSPost2010Prop28
280
     1
102
RTVSPost2010PropOp28
 70
     1
102
RTVSPost2010Prop29
280
     1
102
RTVSPost2010PropOp29
 70
     1
102
RTVSPost2010Prop30
280
     0
102
RTVSPost2010PropOp30
 70
     1
102
RTVSPost2010Prop31
280
     0
102
RTVSPost2010PropOp31
 70
     1
102
RTVSPost2010Prop32
280
     0
102
RTVSPost2010PropOp32
 70
     1
102
RTVSPost2010Prop33
280
     0
102
RTVSPost2010PropOp33
 70
     1
102
RTVSPost2010Prop34
280
     0
102
RTVSPost2010PropOp34
 70
     1
102
RTVSPost2010Prop35
280
     0
102
RTVSPost2010PropOp35
 70
     1
102
RTVSPost2010Prop36
280
     0
102
RTVSPost2010PropOp36
 70
     1
102
RTVSPost2010Prop37
 90
       50
102
RTVSPost2010PropOp37
 70
     1
102
RTVSPost2010Prop38
140
0.0
102
RTVSPost2010PropOp38
 70
     1
102
RTVSPost2010Prop39
140
1.0
102
RTVSPost2010PropOp39
 70
     1
102
RTVSPost2010Prop40
 90
        0
102
RTVSPost2010PropOp40
 70
     1
102
RTVSPost2010Prop41ColorIndex
 90
       18
102
RTVSPost2010Prop41ColorRGB
 90
        0
102
RTVSPost2010PropOp41
 70
     1
102
RTVSPost2010Prop42
 90
       50
102
RTVSPost2010PropOp42
 70
     1
102
RTVSPost2010Prop43
 90
        3
102
RTVSPost2010PropOp43
 70
     1
102
RTVSPost2010Prop44ColorIndex
 90
        5
102
RTVSPost2010Prop44ColorRGB
 90
      255
102
RTVSPost2010PropOp44
 70
     1
102
RTVSPost2010Prop45
280
     0
102
RTVSPost2010PropOp45
 70
     1
102
RTVSPost2010Prop46
 90
       50
102
RTVSPost2010PropOp46
 70
     1
102
RTVSPost2010Prop47
 90
       50
102
RTVSPost2010PropOp47
 70
     1
102
RTVSPost2010Prop48
 90
       50
102
RTVSPost2010PropOp48
 70
     1
102
RTVSPost2010Prop49
280
     0
102
RTVSPost2010PropOp49
 70
     1
102
RTVSPost2010Prop50
 90
       50
102
RTVSPost2010PropOp50
 70
     1
102
RTVSPost2010Prop51ColorIndex
 90
      256
102
RTVSPost2010Prop51ColorRGB
 90
-16777216
102
RTVSPost2010PropOp51
 70
     0
102
RTVSPost2010Prop52
140
1.0
102
RTVSPost2010PropOp52
 70
     0
102
RTVSPost2010Prop53
 90
        2
102
RTVSPost2010PropOp53
 70
     1
102
RTVSPost2010Prop54
  1
strokes_ogs.tif
102
RTVSPost2010PropOp54
 70
     1
102
RTVSPost2010Prop55
280
     0
102
RTVSPost2010PropOp55
 70
     1
102
RTVSPost2010Prop56
140
1.0
102
RTVSPost2010PropOp56
 70
     1
102
RTVSPost2010Prop57
140
1.0
102
RTVSPost2010PropOp57
 70
     1
102
RTVSPropertyOp0
 70
     1
102
RTVSPropertyOp1
 70
     1
102
RTVSPropertyOp2
 70
     1
102
RTVSPropertyOp3
 70
     1
102
RTVSPropertyOp4
 70
     1
102
RTVSPropertyOp5
 70
     1
102
RTVSPropertyOp6
 70
     1
102
RTVSPropertyOp7
 70
     1
102
RTVSPropertyOp8
 70
     1
102
RTVSPropertyOp9
 70
     1
102
RTVSPropertyOp10
 70
     1
102
RTVSPropertyOp11
 70
     1
102
RTVSPropertyOp12
 70
     1
102
RTVSPropertyOp13
 70
     1
102
RTVSPropertyOp14
 70
     1
102
RTVSPropertyOp15
 70
     1
102
RTVSPropertyOp16
 70
     1
102
RTVSPropertyOp17
 70
     1
102
RTVSPropertyOp18
 70
     1
102
RTVSPropertyOp19
 70
     1
102
RTVSPropertyOp20
 70
     1
102
RTVSPropertyOp21
 70
     1
102
RTVSPropertyOp22
 70
     1
102
RTVSPropertyOp23
 70
     1
102
RTVSPropertyOp24
 70
     1
102
RTVSPropertyOp25
 70
     1
102
RTVSPropertyOp26
 70
     1
102
RTVSPropertyOp27
 70
     1
102
RTVSPropertyOp28
 70
     1
102
RTVSPropertyOp29
 70
     1
102
RTVSPropertyOp30
 70
     1
102
RTVSPropertyOp31
 70
     1
102
RTVSPropertyOp32
 70
     1
102
RTVSPropertyOp33
 70
     1
102
RTVSPropertyOp34
 70
     1
102
RTVSPropertyOp35
 70
     1
102
RTVSPropertyOp36
 70
     1
102
RTVSPropertyOp37
 70
     1
102
RTVSPropertyOp38
 70
     1
102
RTVSPropertyOp39
 70
     1
102
RTVSPropertyOp40
 70
     1
102
RTVSPropertyOp41
 70
     1
102
RTVSPropertyOp42
 70
     1
102
RTVSPropertyOp43
 70
     1
102
RTVSPropertyOp44
 70
     1
102
RTVSPropertyOp45
 70
     1
102
RTVSPropertyOp46
 70
     1
102
RTVSPropertyOp47
 70
     1
102
RTVSPropertyOp48
 70
     1
102
RTVSPropertyOp49
 70
     1
102
RTVSPropertyOp50
 70
     1
102
RTVSPropertyOp51
 70
     0
102
RTVSPropertyOp52
 70
     0
102
RTVSPropertyOp53
 70
     1
102
RTVSPropertyOp54
 70
     1
102
RTVSPropertyOp55
 70
     1
102
RTVSPropertyOp56
 70
     1
102
RTVSPropertyOp57
 70
     1
102
RTVSPropertyOp58
 70
     1
102
RTVSPropertyOp59
 70
     1
102
RTVSPropertyOp60
 70
     1
102
RTVSPropertyOp61
 70
     1
102
RTVSPropertyOp62
 70
     1
  0
XRECORD
  5
5582
102
{ACAD_REACTORS
330
5581
102
}
330
5581
100
AcDbXrecord
280
     1
102
RTVSPost2010Prop28
280
     0
102
RTVSPost2010PropOp28
 70
     1
102
RTVSPost2010Prop29
280
     1
102
RTVSPost2010PropOp29
 70
     1
102
RTVSPost2010Prop30
280
     1
102
RTVSPost2010PropOp30
 70
     1
102
RTVSPost2010Prop31
280
     0
102
RTVSPost2010PropOp31
 70
     1
102
RTVSPost2010Prop32
280
     0
102
RTVSPost2010PropOp32
 70
     1
102
RTVSPost2010Prop33
280
     0
102
RTVSPost2010PropOp33
 70
     1
102
RTVSPost2010Prop34
280
     0
102
RTVSPost2010PropOp34
 70
     1
102
RTVSPost2010Prop35
280
     0
102
RTVSPost2010PropOp35
 70
     1
102
RTVSPost2010Prop36
280
     0
102
RTVSPost2010PropOp36
 70
     1
102
RTVSPost2010Prop37
 90
       50
102
RTVSPost2010PropOp37
 70
     1
102
RTVSPost2010Prop38
140
0.0
102
RTVSPost2010PropOp38
 70
     1
102
RTVSPost2010Prop39
140
1.0
102
RTVSPost2010PropOp39
 70
     1
102
RTVSPost2010Prop40
 90
        0
102
RTVSPost2010PropOp40
 70
     1
102
RTVSPost2010Prop41ColorIndex
 90
       18
102
RTVSPost2010Prop41ColorRGB
 90
        0
102
RTVSPost2010PropOp41
 70
     1
102
RTVSPost2010Prop42
 90
       50
102
RTVSPost2010PropOp42
 70
     1
102
RTVSPost2010Prop43
 90
        3
102
RTVSPost2010PropOp43
 70
     1
102
RTVSPost2010Prop44ColorIndex
 90
        5
102
RTVSPost2010Prop44ColorRGB
 90
      255
102
RTVSPost2010PropOp44
 70
     1
102
RTVSPost2010Prop45
280
     0
102
RTVSPost2010PropOp45
 70
     1
102
RTVSPost2010Prop46
 90
       50
102
RTVSPost2010PropOp46
 70
     1
102
RTVSPost2010Prop47
 90
       50
102
RTVSPost2010PropOp47
 70
     1
102
RTVSPost2010Prop48
 90
       50
102
RTVSPost2010PropOp48
 70
     1
102
RTVSPost2010Prop49
280
     0
102
RTVSPost2010PropOp49
 70
     1
102
RTVSPost2010Prop50
 90
       50
102
RTVSPost2010PropOp50
 70
     1
102
RTVSPost2010Prop51ColorIndex
 90
      256
102
RTVSPost2010Prop51ColorRGB
 90
-16777216
102
RTVSPost2010PropOp51
 70
     0
102
RTVSPost2010Prop52
140
1.0
102
RTVSPost2010PropOp52
 70
     0
102
RTVSPost2010Prop53
 90
        2
102
RTVSPost2010PropOp53
 70
     1
102
RTVSPost2010Prop54
  1
strokes_ogs.tif
102
RTVSPost2010PropOp54
 70
     1
102
RTVSPost2010Prop55
280
     0
102
RTVSPost2010PropOp55
 70
     1
102
RTVSPost2010Prop56
140
1.0
102
RTVSPost2010PropOp56
 70
     1
102
RTVSPost2010Prop57
140
1.0
102
RTVSPost2010PropOp57
 70
     1
102
RTVSPropertyOp0
 70
     1
102
RTVSPropertyOp1
 70
     1
102
RTVSPropertyOp2
 70
     1
102
RTVSPropertyOp3
 70
     1
102
RTVSPropertyOp4
 70
     1
102
RTVSPropertyOp5
 70
     1
102
RTVSPropertyOp6
 70
     1
102
RTVSPropertyOp7
 70
     1
102
RTVSPropertyOp8
 70
     1
102
RTVSPropertyOp9
 70
     1
102
RTVSPropertyOp10
 70
     1
102
RTVSPropertyOp11
 70
     1
102
RTVSPropertyOp12
 70
     1
102
RTVSPropertyOp13
 70
     1
102
RTVSPropertyOp14
 70
     1
102
RTVSPropertyOp15
 70
     1
102
RTVSPropertyOp16
 70
     1
102
RTVSPropertyOp17
 70
     1
102
RTVSPropertyOp18
 70
     1
102
RTVSPropertyOp19
 70
     1
102
RTVSPropertyOp20
 70
     1
102
RTVSPropertyOp21
 70
     1
102
RTVSPropertyOp22
 70
     1
102
RTVSPropertyOp23
 70
     1
102
RTVSPropertyOp24
 70
     1
102
RTVSPropertyOp25
 70
     1
102
RTVSPropertyOp26
 70
     1
102
RTVSPropertyOp27
 70
     1
102
RTVSPropertyOp28
 70
     1
102
RTVSPropertyOp29
 70
     1
102
RTVSPropertyOp30
 70
     1
102
RTVSPropertyOp31
 70
     1
102
RTVSPropertyOp32
 70
     1
102
RTVSPropertyOp33
 70
     1
102
RTVSPropertyOp34
 70
     1
102
RTVSPropertyOp35
 70
     1
102
RTVSPropertyOp36
 70
     1
102
RTVSPropertyOp37
 70
     1
102
RTVSPropertyOp38
 70
     1
102
RTVSPropertyOp39
 70
     1
102
RTVSPropertyOp40
 70
     1
102
RTVSPropertyOp41
 70
     1
102
RTVSPropertyOp42
 70
     1
102
RTVSPropertyOp43
 70
     1
102
RTVSPropertyOp44
 70
     1
102
RTVSPropertyOp45
 70
     1
102
RTVSPropertyOp46
 70
     1
102
RTVSPropertyOp47
 70
     1
102
RTVSPropertyOp48
 70
     1
102
RTVSPropertyOp49
 70
     1
102
RTVSPropertyOp50
 70
     1
102
RTVSPropertyOp51
 70
     0
102
RTVSPropertyOp52
 70
     0
102
RTVSPropertyOp53
 70
     1
102
RTVSPropertyOp54
 70
     1
102
RTVSPropertyOp55
 70
     1
102
RTVSPropertyOp56
 70
     1
102
RTVSPropertyOp57
 70
     1
102
RTVSPropertyOp58
 70
     1
102
RTVSPropertyOp59
 70
     1
102
RTVSPropertyOp60
 70
     1
102
RTVSPropertyOp61
 70
     1
102
RTVSPropertyOp62
 70
     1
  0
XRECORD
  5
5590
102
{ACAD_REACTORS
330
558F
102
}
330
558F
100
AcDbXrecord
280
     1
102
RTVSPost2010Prop28
280
     0
102
RTVSPost2010PropOp28
 70
     1
102
RTVSPost2010Prop29
280
     1
102
RTVSPost2010PropOp29
 70
     1
102
RTVSPost2010Prop30
280
     1
102
RTVSPost2010PropOp30
 70
     1
102
RTVSPost2010Prop31
280
     0
102
RTVSPost2010PropOp31
 70
     1
102
RTVSPost2010Prop32
280
     0
102
RTVSPost2010PropOp32
 70
     1
102
RTVSPost2010Prop33
280
     0
102
RTVSPost2010PropOp33
 70
     1
102
RTVSPost2010Prop34
280
     0
102
RTVSPost2010PropOp34
 70
     1
102
RTVSPost2010Prop35
280
     0
102
RTVSPost2010PropOp35
 70
     1
102
RTVSPost2010Prop36
280
     0
102
RTVSPost2010PropOp36
 70
     1
102
RTVSPost2010Prop37
 90
       50
102
RTVSPost2010PropOp37
 70
     1
102
RTVSPost2010Prop38
140
0.0
102
RTVSPost2010PropOp38
 70
     1
102
RTVSPost2010Prop39
140
1.0
102
RTVSPost2010PropOp39
 70
     1
102
RTVSPost2010Prop40
 90
        0
102
RTVSPost2010PropOp40
 70
     1
102
RTVSPost2010Prop41ColorIndex
 90
       18
102
RTVSPost2010Prop41ColorRGB
 90
        0
102
RTVSPost2010PropOp41
 70
     1
102
RTVSPost2010Prop42
 90
       50
102
RTVSPost2010PropOp42
 70
     1
102
RTVSPost2010Prop43
 90
        3
102
RTVSPost2010PropOp43
 70
     1
102
RTVSPost2010Prop44ColorIndex
 90
        5
102
RTVSPost2010Prop44ColorRGB
 90
      255
102
RTVSPost2010PropOp44
 70
     1
102
RTVSPost2010Prop45
280
     0
102
RTVSPost2010PropOp45
 70
     1
102
RTVSPost2010Prop46
 90
       50
102
RTVSPost2010PropOp46
 70
     1
102
RTVSPost2010Prop47
 90
       50
102
RTVSPost2010PropOp47
 70
     1
102
RTVSPost2010Prop48
 90
       50
102
RTVSPost2010PropOp48
 70
     1
102
RTVSPost2010Prop49
280
     0
102
RTVSPost2010PropOp49
 70
     1
102
RTVSPost2010Prop50
 90
       50
102
RTVSPost2010PropOp50
 70
     1
102
RTVSPost2010Prop51ColorIndex
 90
      256
102
RTVSPost2010Prop51ColorRGB
 90
-16777216
102
RTVSPost2010PropOp51
 70
     0
102
RTVSPost2010Prop52
140
1.0
102
RTVSPost2010PropOp52
 70
     0
102
RTVSPost2010Prop53
 90
        2
102
RTVSPost2010PropOp53
 70
     1
102
RTVSPost2010Prop54
  1
strokes_ogs.tif
102
RTVSPost2010PropOp54
 70
     1
102
RTVSPost2010Prop55
280
     0
102
RTVSPost2010PropOp55
 70
     1
102
RTVSPost2010Prop56
140
1.0
102
RTVSPost2010PropOp56
 70
     1
102
RTVSPost2010Prop57
140
1.0
102
RTVSPost2010PropOp57
 70
     1
102
RTVSPropertyOp0
 70
     1
102
RTVSPropertyOp1
 70
     1
102
RTVSPropertyOp2
 70
     1
102
RTVSPropertyOp3
 70
     1
102
RTVSPropertyOp4
 70
     1
102
RTVSPropertyOp5
 70
     1
102
RTVSPropertyOp6
 70
     1
102
RTVSPropertyOp7
 70
     1
102
RTVSPropertyOp8
 70
     1
102
RTVSPropertyOp9
 70
     1
102
RTVSPropertyOp10
 70
     1
102
RTVSPropertyOp11
 70
     1
102
RTVSPropertyOp12
 70
     1
102
RTVSPropertyOp13
 70
     1
102
RTVSPropertyOp14
 70
     1
102
RTVSPropertyOp15
 70
     1
102
RTVSPropertyOp16
 70
     1
102
RTVSPropertyOp17
 70
     1
102
RTVSPropertyOp18
 70
     1
102
RTVSPropertyOp19
 70
     1
102
RTVSPropertyOp20
 70
     1
102
RTVSPropertyOp21
 70
     1
102
RTVSPropertyOp22
 70
     1
102
RTVSPropertyOp23
 70
     1
102
RTVSPropertyOp24
 70
     1
102
RTVSPropertyOp25
 70
     1
102
RTVSPropertyOp26
 70
     1
102
RTVSPropertyOp27
 70
     1
102
RTVSPropertyOp28
 70
     1
102
RTVSPropertyOp29
 70
     1
102
RTVSPropertyOp30
 70
     1
102
RTVSPropertyOp31
 70
     1
102
RTVSPropertyOp32
 70
     1
102
RTVSPropertyOp33
 70
     1
102
RTVSPropertyOp34
 70
     1
102
RTVSPropertyOp35
 70
     1
102
RTVSPropertyOp36
 70
     1
102
RTVSPropertyOp37
 70
     1
102
RTVSPropertyOp38
 70
     1
102
RTVSPropertyOp39
 70
     1
102
RTVSPropertyOp40
 70
     1
102
RTVSPropertyOp41
 70
     1
102
RTVSPropertyOp42
 70
     1
102
RTVSPropertyOp43
 70
     1
102
RTVSPropertyOp44
 70
     1
102
RTVSPropertyOp45
 70
     1
102
RTVSPropertyOp46
 70
     1
102
RTVSPropertyOp47
 70
     1
102
RTVSPropertyOp48
 70
     1
102
RTVSPropertyOp49
 70
     1
102
RTVSPropertyOp50
 70
     1
102
RTVSPropertyOp51
 70
     0
102
RTVSPropertyOp52
 70
     0
102
RTVSPropertyOp53
 70
     1
102
RTVSPropertyOp54
 70
     1
102
RTVSPropertyOp55
 70
     1
102
RTVSPropertyOp56
 70
     1
102
RTVSPropertyOp57
 70
     1
102
RTVSPropertyOp58
 70
     1
102
RTVSPropertyOp59
 70
     1
102
RTVSPropertyOp60
 70
     1
102
RTVSPropertyOp61
 70
     1
102
RTVSPropertyOp62
 70
     1
  0
XRECORD
  5
5598
102
{ACAD_REACTORS
330
5597
102
}
330
5597
100
AcDbXrecord
280
     1
102
RTVSPost2010Prop28
280
     0
102
RTVSPost2010PropOp28
 70
     1
102
RTVSPost2010Prop29
280
     1
102
RTVSPost2010PropOp29
 70
     1
102
RTVSPost2010Prop30
280
     1
102
RTVSPost2010PropOp30
 70
     1
102
RTVSPost2010Prop31
280
     0
102
RTVSPost2010PropOp31
 70
     1
102
RTVSPost2010Prop32
280
     0
102
RTVSPost2010PropOp32
 70
     1
102
RTVSPost2010Prop33
280
     0
102
RTVSPost2010PropOp33
 70
     1
102
RTVSPost2010Prop34
280
     0
102
RTVSPost2010PropOp34
 70
     1
102
RTVSPost2010Prop35
280
     0
102
RTVSPost2010PropOp35
 70
     1
102
RTVSPost2010Prop36
280
     0
102
RTVSPost2010PropOp36
 70
     1
102
RTVSPost2010Prop37
 90
       50
102
RTVSPost2010PropOp37
 70
     1
102
RTVSPost2010Prop38
140
0.0
102
RTVSPost2010PropOp38
 70
     1
102
RTVSPost2010Prop39
140
1.0
102
RTVSPost2010PropOp39
 70
     1
102
RTVSPost2010Prop40
 90
        0
102
RTVSPost2010PropOp40
 70
     1
102
RTVSPost2010Prop41ColorIndex
 90
       18
102
RTVSPost2010Prop41ColorRGB
 90
        0
102
RTVSPost2010PropOp41
 70
     1
102
RTVSPost2010Prop42
 90
       50
102
RTVSPost2010PropOp42
 70
     1
102
RTVSPost2010Prop43
 90
        3
102
RTVSPost2010PropOp43
 70
     1
102
RTVSPost2010Prop44ColorIndex
 90
        5
102
RTVSPost2010Prop44ColorRGB
 90
      255
102
RTVSPost2010PropOp44
 70
     1
102
RTVSPost2010Prop45
280
     0
102
RTVSPost2010PropOp45
 70
     1
102
RTVSPost2010Prop46
 90
       50
102
RTVSPost2010PropOp46
 70
     1
102
RTVSPost2010Prop47
 90
       50
102
RTVSPost2010PropOp47
 70
     1
102
RTVSPost2010Prop48
 90
       50
102
RTVSPost2010PropOp48
 70
     1
102
RTVSPost2010Prop49
280
     0
102
RTVSPost2010PropOp49
 70
     1
102
RTVSPost2010Prop50
 90
       50
102
RTVSPost2010PropOp50
 70
     1
102
RTVSPost2010Prop51ColorIndex
 90
      256
102
RTVSPost2010Prop51ColorRGB
 90
-16777216
102
RTVSPost2010PropOp51
 70
     0
102
RTVSPost2010Prop52
140
1.0
102
RTVSPost2010PropOp52
 70
     0
102
RTVSPost2010Prop53
 90
        2
102
RTVSPost2010PropOp53
 70
     1
102
RTVSPost2010Prop54
  1
strokes_ogs.tif
102
RTVSPost2010PropOp54
 70
     1
102
RTVSPost2010Prop55
280
     0
102
RTVSPost2010PropOp55
 70
     1
102
RTVSPost2010Prop56
140
1.0
102
RTVSPost2010PropOp56
 70
     1
102
RTVSPost2010Prop57
140
1.0
102
RTVSPost2010PropOp57
 70
     1
102
RTVSPropertyOp0
 70
     1
102
RTVSPropertyOp1
 70
     1
102
RTVSPropertyOp2
 70
     1
102
RTVSPropertyOp3
 70
     1
102
RTVSPropertyOp4
 70
     1
102
RTVSPropertyOp5
 70
     1
102
RTVSPropertyOp6
 70
     1
102
RTVSPropertyOp7
 70
     1
102
RTVSPropertyOp8
 70
     1
102
RTVSPropertyOp9
 70
     1
102
RTVSPropertyOp10
 70
     1
102
RTVSPropertyOp11
 70
     1
102
RTVSPropertyOp12
 70
     1
102
RTVSPropertyOp13
 70
     1
102
RTVSPropertyOp14
 70
     1
102
RTVSPropertyOp15
 70
     1
102
RTVSPropertyOp16
 70
     1
102
RTVSPropertyOp17
 70
     1
102
RTVSPropertyOp18
 70
     1
102
RTVSPropertyOp19
 70
     1
102
RTVSPropertyOp20
 70
     1
102
RTVSPropertyOp21
 70
     1
102
RTVSPropertyOp22
 70
     1
102
RTVSPropertyOp23
 70
     1
102
RTVSPropertyOp24
 70
     1
102
RTVSPropertyOp25
 70
     1
102
RTVSPropertyOp26
 70
     1
102
RTVSPropertyOp27
 70
     1
102
RTVSPropertyOp28
 70
     1
102
RTVSPropertyOp29
 70
     1
102
RTVSPropertyOp30
 70
     1
102
RTVSPropertyOp31
 70
     1
102
RTVSPropertyOp32
 70
     1
102
RTVSPropertyOp33
 70
     1
102
RTVSPropertyOp34
 70
     1
102
RTVSPropertyOp35
 70
     1
102
RTVSPropertyOp36
 70
     1
102
RTVSPropertyOp37
 70
     1
102
RTVSPropertyOp38
 70
     1
102
RTVSPropertyOp39
 70
     1
102
RTVSPropertyOp40
 70
     1
102
RTVSPropertyOp41
 70
     1
102
RTVSPropertyOp42
 70
     1
102
RTVSPropertyOp43
 70
     1
102
RTVSPropertyOp44
 70
     1
102
RTVSPropertyOp45
 70
     1
102
RTVSPropertyOp46
 70
     1
102
RTVSPropertyOp47
 70
     1
102
RTVSPropertyOp48
 70
     1
102
RTVSPropertyOp49
 70
     1
102
RTVSPropertyOp50
 70
     1
102
RTVSPropertyOp51
 70
     0
102
RTVSPropertyOp52
 70
     0
102
RTVSPropertyOp53
 70
     1
102
RTVSPropertyOp54
 70
     1
102
RTVSPropertyOp55
 70
     1
102
RTVSPropertyOp56
 70
     1
102
RTVSPropertyOp57
 70
     1
102
RTVSPropertyOp58
 70
     1
102
RTVSPropertyOp59
 70
     1
102
RTVSPropertyOp60
 70
     1
102
RTVSPropertyOp61
 70
     1
102
RTVSPropertyOp62
 70
     1
  0
XRECORD
  5
558A
102
{ACAD_REACTORS
330
5589
102
}
330
5589
100
AcDbXrecord
280
     1
102
RTVSPost2010Prop28
280
     0
102
RTVSPost2010PropOp28
 70
     1
102
RTVSPost2010Prop29
280
     1
102
RTVSPost2010PropOp29
 70
     1
102
RTVSPost2010Prop30
280
     1
102
RTVSPost2010PropOp30
 70
     1
102
RTVSPost2010Prop31
280
     0
102
RTVSPost2010PropOp31
 70
     1
102
RTVSPost2010Prop32
280
     0
102
RTVSPost2010PropOp32
 70
     1
102
RTVSPost2010Prop33
280
     0
102
RTVSPost2010PropOp33
 70
     1
102
RTVSPost2010Prop34
280
     0
102
RTVSPost2010PropOp34
 70
     1
102
RTVSPost2010Prop35
280
     0
102
RTVSPost2010PropOp35
 70
     1
102
RTVSPost2010Prop36
280
     0
102
RTVSPost2010PropOp36
 70
     1
102
RTVSPost2010Prop37
 90
       50
102
RTVSPost2010PropOp37
 70
     1
102
RTVSPost2010Prop38
140
0.0
102
RTVSPost2010PropOp38
 70
     1
102
RTVSPost2010Prop39
140
1.0
102
RTVSPost2010PropOp39
 70
     1
102
RTVSPost2010Prop40
 90
        0
102
RTVSPost2010PropOp40
 70
     1
102
RTVSPost2010Prop41ColorIndex
 90
       18
102
RTVSPost2010Prop41ColorRGB
 90
        0
102
RTVSPost2010PropOp41
 70
     1
102
RTVSPost2010Prop42
 90
       50
102
RTVSPost2010PropOp42
 70
     1
102
RTVSPost2010Prop43
 90
        3
102
RTVSPost2010PropOp43
 70
     1
102
RTVSPost2010Prop44ColorIndex
 90
        5
102
RTVSPost2010Prop44ColorRGB
 90
      255
102
RTVSPost2010PropOp44
 70
     1
102
RTVSPost2010Prop45
280
     0
102
RTVSPost2010PropOp45
 70
     1
102
RTVSPost2010Prop46
 90
       50
102
RTVSPost2010PropOp46
 70
     1
102
RTVSPost2010Prop47
 90
       50
102
RTVSPost2010PropOp47
 70
     1
102
RTVSPost2010Prop48
 90
       50
102
RTVSPost2010PropOp48
 70
     1
102
RTVSPost2010Prop49
280
     0
102
RTVSPost2010PropOp49
 70
     1
102
RTVSPost2010Prop50
 90
       50
102
RTVSPost2010PropOp50
 70
     1
102
RTVSPost2010Prop51ColorIndex
 90
      256
102
RTVSPost2010Prop51ColorRGB
 90
-16777216
102
RTVSPost2010PropOp51
 70
     0
102
RTVSPost2010Prop52
140
1.0
102
RTVSPost2010PropOp52
 70
     0
102
RTVSPost2010Prop53
 90
        2
102
RTVSPost2010PropOp53
 70
     1
102
RTVSPost2010Prop54
  1
strokes_ogs.tif
102
RTVSPost2010PropOp54
 70
     1
102
RTVSPost2010Prop55
280
     0
102
RTVSPost2010PropOp55
 70
     1
102
RTVSPost2010Prop56
140
1.0
102
RTVSPost2010PropOp56
 70
     1
102
RTVSPost2010Prop57
140
1.0
102
RTVSPost2010PropOp57
 70
     1
102
RTVSPropertyOp0
 70
     1
102
RTVSPropertyOp1
 70
     1
102
RTVSPropertyOp2
 70
     1
102
RTVSPropertyOp3
 70
     1
102
RTVSPropertyOp4
 70
     1
102
RTVSPropertyOp5
 70
     1
102
RTVSPropertyOp6
 70
     1
102
RTVSPropertyOp7
 70
     1
102
RTVSPropertyOp8
 70
     1
102
RTVSPropertyOp9
 70
     1
102
RTVSPropertyOp10
 70
     1
102
RTVSPropertyOp11
 70
     1
102
RTVSPropertyOp12
 70
     1
102
RTVSPropertyOp13
 70
     1
102
RTVSPropertyOp14
 70
     1
102
RTVSPropertyOp15
 70
     1
102
RTVSPropertyOp16
 70
     1
102
RTVSPropertyOp17
 70
     1
102
RTVSPropertyOp18
 70
     1
102
RTVSPropertyOp19
 70
     1
102
RTVSPropertyOp20
 70
     1
102
RTVSPropertyOp21
 70
     1
102
RTVSPropertyOp22
 70
     1
102
RTVSPropertyOp23
 70
     1
102
RTVSPropertyOp24
 70
     1
102
RTVSPropertyOp25
 70
     1
102
RTVSPropertyOp26
 70
     1
102
RTVSPropertyOp27
 70
     1
102
RTVSPropertyOp28
 70
     1
102
RTVSPropertyOp29
 70
     1
102
RTVSPropertyOp30
 70
     1
102
RTVSPropertyOp31
 70
     1
102
RTVSPropertyOp32
 70
     1
102
RTVSPropertyOp33
 70
     1
102
RTVSPropertyOp34
 70
     1
102
RTVSPropertyOp35
 70
     1
102
RTVSPropertyOp36
 70
     1
102
RTVSPropertyOp37
 70
     1
102
RTVSPropertyOp38
 70
     1
102
RTVSPropertyOp39
 70
     1
102
RTVSPropertyOp40
 70
     1
102
RTVSPropertyOp41
 70
     1
102
RTVSPropertyOp42
 70
     1
102
RTVSPropertyOp43
 70
     1
102
RTVSPropertyOp44
 70
     1
102
RTVSPropertyOp45
 70
     1
102
RTVSPropertyOp46
 70
     1
102
RTVSPropertyOp47
 70
     1
102
RTVSPropertyOp48
 70
     1
102
RTVSPropertyOp49
 70
     1
102
RTVSPropertyOp50
 70
     1
102
RTVSPropertyOp51
 70
     0
102
RTVSPropertyOp52
 70
     0
102
RTVSPropertyOp53
 70
     1
102
RTVSPropertyOp54
 70
     1
102
RTVSPropertyOp55
 70
     1
102
RTVSPropertyOp56
 70
     1
102
RTVSPropertyOp57
 70
     1
102
RTVSPropertyOp58
 70
     1
102
RTVSPropertyOp59
 70
     1
102
RTVSPropertyOp60
 70
     1
102
RTVSPropertyOp61
 70
     1
102
RTVSPropertyOp62
 70
     1
  0
XRECORD
  5
558E
102
{ACAD_REACTORS
330
558D
102
}
330
558D
100
AcDbXrecord
280
     1
102
RTVSPost2010Prop28
280
     0
102
RTVSPost2010PropOp28
 70
     1
102
RTVSPost2010Prop29
280
     1
102
RTVSPost2010PropOp29
 70
     1
102
RTVSPost2010Prop30
280
     1
102
RTVSPost2010PropOp30
 70
     1
102
RTVSPost2010Prop31
280
     0
102
RTVSPost2010PropOp31
 70
     1
102
RTVSPost2010Prop32
280
     0
102
RTVSPost2010PropOp32
 70
     1
102
RTVSPost2010Prop33
280
     0
102
RTVSPost2010PropOp33
 70
     1
102
RTVSPost2010Prop34
280
     0
102
RTVSPost2010PropOp34
 70
     1
102
RTVSPost2010Prop35
280
     0
102
RTVSPost2010PropOp35
 70
     1
102
RTVSPost2010Prop36
280
     0
102
RTVSPost2010PropOp36
 70
     1
102
RTVSPost2010Prop37
 90
       50
102
RTVSPost2010PropOp37
 70
     1
102
RTVSPost2010Prop38
140
0.0
102
RTVSPost2010PropOp38
 70
     1
102
RTVSPost2010Prop39
140
1.0
102
RTVSPost2010PropOp39
 70
     1
102
RTVSPost2010Prop40
 90
        0
102
RTVSPost2010PropOp40
 70
     1
102
RTVSPost2010Prop41ColorIndex
 90
       18
102
RTVSPost2010Prop41ColorRGB
 90
        0
102
RTVSPost2010PropOp41
 70
     1
102
RTVSPost2010Prop42
 90
       50
102
RTVSPost2010PropOp42
 70
     1
102
RTVSPost2010Prop43
 90
        3
102
RTVSPost2010PropOp43
 70
     1
102
RTVSPost2010Prop44ColorIndex
 90
        5
102
RTVSPost2010Prop44ColorRGB
 90
      255
102
RTVSPost2010PropOp44
 70
     1
102
RTVSPost2010Prop45
280
     0
102
RTVSPost2010PropOp45
 70
     1
102
RTVSPost2010Prop46
 90
       50
102
RTVSPost2010PropOp46
 70
     1
102
RTVSPost2010Prop47
 90
       50
102
RTVSPost2010PropOp47
 70
     1
102
RTVSPost2010Prop48
 90
       50
102
RTVSPost2010PropOp48
 70
     1
102
RTVSPost2010Prop49
280
     0
102
RTVSPost2010PropOp49
 70
     1
102
RTVSPost2010Prop50
 90
       50
102
RTVSPost2010PropOp50
 70
     1
102
RTVSPost2010Prop51ColorIndex
 90
      256
102
RTVSPost2010Prop51ColorRGB
 90
-16777216
102
RTVSPost2010PropOp51
 70
     0
102
RTVSPost2010Prop52
140
1.0
102
RTVSPost2010PropOp52
 70
     0
102
RTVSPost2010Prop53
 90
        2
102
RTVSPost2010PropOp53
 70
     1
102
RTVSPost2010Prop54
  1
strokes_ogs.tif
102
RTVSPost2010PropOp54
 70
     1
102
RTVSPost2010Prop55
280
     0
102
RTVSPost2010PropOp55
 70
     1
102
RTVSPost2010Prop56
140
1.0
102
RTVSPost2010PropOp56
 70
     1
102
RTVSPost2010Prop57
140
1.0
102
RTVSPost2010PropOp57
 70
     1
102
RTVSPropertyOp0
 70
     1
102
RTVSPropertyOp1
 70
     1
102
RTVSPropertyOp2
 70
     1
102
RTVSPropertyOp3
 70
     1
102
RTVSPropertyOp4
 70
     1
102
RTVSPropertyOp5
 70
     1
102
RTVSPropertyOp6
 70
     1
102
RTVSPropertyOp7
 70
     1
102
RTVSPropertyOp8
 70
     1
102
RTVSPropertyOp9
 70
     1
102
RTVSPropertyOp10
 70
     1
102
RTVSPropertyOp11
 70
     1
102
RTVSPropertyOp12
 70
     1
102
RTVSPropertyOp13
 70
     1
102
RTVSPropertyOp14
 70
     1
102
RTVSPropertyOp15
 70
     1
102
RTVSPropertyOp16
 70
     1
102
RTVSPropertyOp17
 70
     1
102
RTVSPropertyOp18
 70
     1
102
RTVSPropertyOp19
 70
     1
102
RTVSPropertyOp20
 70
     1
102
RTVSPropertyOp21
 70
     1
102
RTVSPropertyOp22
 70
     1
102
RTVSPropertyOp23
 70
     1
102
RTVSPropertyOp24
 70
     1
102
RTVSPropertyOp25
 70
     1
102
RTVSPropertyOp26
 70
     1
102
RTVSPropertyOp27
 70
     1
102
RTVSPropertyOp28
 70
     1
102
RTVSPropertyOp29
 70
     1
102
RTVSPropertyOp30
 70
     1
102
RTVSPropertyOp31
 70
     1
102
RTVSPropertyOp32
 70
     1
102
RTVSPropertyOp33
 70
     1
102
RTVSPropertyOp34
 70
     1
102
RTVSPropertyOp35
 70
     1
102
RTVSPropertyOp36
 70
     1
102
RTVSPropertyOp37
 70
     1
102
RTVSPropertyOp38
 70
     1
102
RTVSPropertyOp39
 70
     1
102
RTVSPropertyOp40
 70
     1
102
RTVSPropertyOp41
 70
     1
102
RTVSPropertyOp42
 70
     1
102
RTVSPropertyOp43
 70
     1
102
RTVSPropertyOp44
 70
     1
102
RTVSPropertyOp45
 70
     1
102
RTVSPropertyOp46
 70
     1
102
RTVSPropertyOp47
 70
     1
102
RTVSPropertyOp48
 70
     1
102
RTVSPropertyOp49
 70
     1
102
RTVSPropertyOp50
 70
     1
102
RTVSPropertyOp51
 70
     0
102
RTVSPropertyOp52
 70
     0
102
RTVSPropertyOp53
 70
     1
102
RTVSPropertyOp54
 70
     1
102
RTVSPropertyOp55
 70
     1
102
RTVSPropertyOp56
 70
     1
102
RTVSPropertyOp57
 70
     1
102
RTVSPropertyOp58
 70
     1
102
RTVSPropertyOp59
 70
     1
102
RTVSPropertyOp60
 70
     1
102
RTVSPropertyOp61
 70
     1
102
RTVSPropertyOp62
 70
     1
  0
XRECORD
  5
55A8
102
{ACAD_REACTORS
330
55A7
102
}
330
55A7
100
AcDbXrecord
280
     1
102
RTVSPost2010Prop28
280
     0
102
RTVSPost2010PropOp28
 70
     1
102
RTVSPost2010Prop29
280
     1
102
RTVSPost2010PropOp29
 70
     1
102
RTVSPost2010Prop30
280
     1
102
RTVSPost2010PropOp30
 70
     1
102
RTVSPost2010Prop31
280
     0
102
RTVSPost2010PropOp31
 70
     1
102
RTVSPost2010Prop32
280
     0
102
RTVSPost2010PropOp32
 70
     1
102
RTVSPost2010Prop33
280
     0
102
RTVSPost2010PropOp33
 70
     1
102
RTVSPost2010Prop34
280
     0
102
RTVSPost2010PropOp34
 70
     1
102
RTVSPost2010Prop35
280
     0
102
RTVSPost2010PropOp35
 70
     1
102
RTVSPost2010Prop36
280
     0
102
RTVSPost2010PropOp36
 70
     1
102
RTVSPost2010Prop37
 90
       50
102
RTVSPost2010PropOp37
 70
     0
102
RTVSPost2010Prop38
140
0.0
102
RTVSPost2010PropOp38
 70
     0
102
RTVSPost2010Prop39
140
1.0
102
RTVSPost2010PropOp39
 70
     0
102
RTVSPost2010Prop40
 90
        0
102
RTVSPost2010PropOp40
 70
     0
102
RTVSPost2010Prop41ColorIndex
 90
       18
102
RTVSPost2010Prop41ColorRGB
 90
        0
102
RTVSPost2010PropOp41
 70
     0
102
RTVSPost2010Prop42
 90
       50
102
RTVSPost2010PropOp42
 70
     0
102
RTVSPost2010Prop43
 90
        3
102
RTVSPost2010PropOp43
 70
     0
102
RTVSPost2010Prop44ColorIndex
 90
        5
102
RTVSPost2010Prop44ColorRGB
 90
      255
102
RTVSPost2010PropOp44
 70
     0
102
RTVSPost2010Prop45
280
     0
102
RTVSPost2010PropOp45
 70
     1
102
RTVSPost2010Prop46
 90
       50
102
RTVSPost2010PropOp46
 70
     0
102
RTVSPost2010Prop47
 90
       50
102
RTVSPost2010PropOp47
 70
     0
102
RTVSPost2010Prop48
 90
       50
102
RTVSPost2010PropOp48
 70
     0
102
RTVSPost2010Prop49
280
     0
102
RTVSPost2010PropOp49
 70
     1
102
RTVSPost2010Prop50
 90
       50
102
RTVSPost2010PropOp50
 70
     0
102
RTVSPost2010Prop51ColorIndex
 90
      256
102
RTVSPost2010Prop51ColorRGB
 90
-16777216
102
RTVSPost2010PropOp51
 70
     0
102
RTVSPost2010Prop52
140
1.0
102
RTVSPost2010PropOp52
 70
     0
102
RTVSPost2010Prop53
 90
        2
102
RTVSPost2010PropOp53
 70
     0
102
RTVSPost2010Prop54
  1
strokes_ogs.tif
102
RTVSPost2010PropOp54
 70
     0
102
RTVSPost2010Prop55
280
     0
102
RTVSPost2010PropOp55
 70
     1
102
RTVSPost2010Prop56
140
1.0
102
RTVSPost2010PropOp56
 70
     0
102
RTVSPost2010Prop57
140
1.0
102
RTVSPost2010PropOp57
 70
     0
102
RTVSPropertyOp0
 70
     0
102
RTVSPropertyOp1
 70
     0
102
RTVSPropertyOp2
 70
     0
102
RTVSPropertyOp3
 70
     0
102
RTVSPropertyOp4
 70
     0
102
RTVSPropertyOp5
 70
     0
102
RTVSPropertyOp6
 70
     0
102
RTVSPropertyOp7
 70
     0
102
RTVSPropertyOp8
 70
     0
102
RTVSPropertyOp9
 70
     0
102
RTVSPropertyOp10
 70
     0
102
RTVSPropertyOp11
 70
     0
102
RTVSPropertyOp12
 70
     0
102
RTVSPropertyOp13
 70
     0
102
RTVSPropertyOp14
 70
     2
102
RTVSPropertyOp15
 70
     0
102
RTVSPropertyOp16
 70
     0
102
RTVSPropertyOp17
 70
     0
102
RTVSPropertyOp18
 70
     0
102
RTVSPropertyOp19
 70
     0
102
RTVSPropertyOp20
 70
     0
102
RTVSPropertyOp21
 70
     0
102
RTVSPropertyOp22
 70
     0
102
RTVSPropertyOp23
 70
     0
102
RTVSPropertyOp24
 70
     0
102
RTVSPropertyOp25
 70
     0
102
RTVSPropertyOp26
 70
     0
102
RTVSPropertyOp27
 70
     0
102
RTVSPropertyOp28
 70
     1
102
RTVSPropertyOp29
 70
     1
102
RTVSPropertyOp30
 70
     1
102
RTVSPropertyOp31
 70
     1
102
RTVSPropertyOp32
 70
     1
102
RTVSPropertyOp33
 70
     1
102
RTVSPropertyOp34
 70
     1
102
RTVSPropertyOp35
 70
     1
102
RTVSPropertyOp36
 70
     1
102
RTVSPropertyOp37
 70
     0
102
RTVSPropertyOp38
 70
     0
102
RTVSPropertyOp39
 70
     0
102
RTVSPropertyOp40
 70
     0
102
RTVSPropertyOp41
 70
     0
102
RTVSPropertyOp42
 70
     0
102
RTVSPropertyOp43
 70
     0
102
RTVSPropertyOp44
 70
     0
102
RTVSPropertyOp45
 70
     1
102
RTVSPropertyOp46
 70
     0
102
RTVSPropertyOp47
 70
     0
102
RTVSPropertyOp48
 70
     0
102
RTVSPropertyOp49
 70
     1
102
RTVSPropertyOp50
 70
     0
102
RTVSPropertyOp51
 70
     0
102
RTVSPropertyOp52
 70
     0
102
RTVSPropertyOp53
 70
     0
102
RTVSPropertyOp54
 70
     0
102
RTVSPropertyOp55
 70
     1
102
RTVSPropertyOp56
 70
     0
102
RTVSPropertyOp57
 70
     0
102
RTVSPropertyOp58
 70
     0
102
RTVSPropertyOp59
 70
     0
102
RTVSPropertyOp60
 70
     0
102
RTVSPropertyOp61
 70
     0
102
RTVSPropertyOp62
 70
     0
  0
XRECORD
  5
5596
102
{ACAD_REACTORS
330
5595
102
}
330
5595
100
AcDbXrecord
280
     1
102
RTVSPost2010Prop28
280
     0
102
RTVSPost2010PropOp28
 70
     1
102
RTVSPost2010Prop29
280
     1
102
RTVSPost2010PropOp29
 70
     1
102
RTVSPost2010Prop30
280
     1
102
RTVSPost2010PropOp30
 70
     1
102
RTVSPost2010Prop31
280
     0
102
RTVSPost2010PropOp31
 70
     1
102
RTVSPost2010Prop32
280
     0
102
RTVSPost2010PropOp32
 70
     1
102
RTVSPost2010Prop33
280
     0
102
RTVSPost2010PropOp33
 70
     1
102
RTVSPost2010Prop34
280
     0
102
RTVSPost2010PropOp34
 70
     1
102
RTVSPost2010Prop35
280
     0
102
RTVSPost2010PropOp35
 70
     1
102
RTVSPost2010Prop36
280
     0
102
RTVSPost2010PropOp36
 70
     1
102
RTVSPost2010Prop37
 90
       50
102
RTVSPost2010PropOp37
 70
     1
102
RTVSPost2010Prop38
140
0.0
102
RTVSPost2010PropOp38
 70
     1
102
RTVSPost2010Prop39
140
1.0
102
RTVSPost2010PropOp39
 70
     1
102
RTVSPost2010Prop40
 90
        0
102
RTVSPost2010PropOp40
 70
     1
102
RTVSPost2010Prop41ColorIndex
 90
       18
102
RTVSPost2010Prop41ColorRGB
 90
        0
102
RTVSPost2010PropOp41
 70
     1
102
RTVSPost2010Prop42
 90
       50
102
RTVSPost2010PropOp42
 70
     1
102
RTVSPost2010Prop43
 90
        3
102
RTVSPost2010PropOp43
 70
     1
102
RTVSPost2010Prop44ColorIndex
 90
        5
102
RTVSPost2010Prop44ColorRGB
 90
      255
102
RTVSPost2010PropOp44
 70
     1
102
RTVSPost2010Prop45
280
     0
102
RTVSPost2010PropOp45
 70
     1
102
RTVSPost2010Prop46
 90
       50
102
RTVSPost2010PropOp46
 70
     1
102
RTVSPost2010Prop47
 90
       50
102
RTVSPost2010PropOp47
 70
     1
102
RTVSPost2010Prop48
 90
       50
102
RTVSPost2010PropOp48
 70
     1
102
RTVSPost2010Prop49
280
     0
102
RTVSPost2010PropOp49
 70
     1
102
RTVSPost2010Prop50
 90
       50
102
RTVSPost2010PropOp50
 70
     1
102
RTVSPost2010Prop51ColorIndex
 90
      256
102
RTVSPost2010Prop51ColorRGB
 90
-16777216
102
RTVSPost2010PropOp51
 70
     0
102
RTVSPost2010Prop52
140
1.0
102
RTVSPost2010PropOp52
 70
     0
102
RTVSPost2010Prop53
 90
        2
102
RTVSPost2010PropOp53
 70
     1
102
RTVSPost2010Prop54
  1
strokes_ogs.tif
102
RTVSPost2010PropOp54
 70
     1
102
RTVSPost2010Prop55
280
     0
102
RTVSPost2010PropOp55
 70
     1
102
RTVSPost2010Prop56
140
1.0
102
RTVSPost2010PropOp56
 70
     1
102
RTVSPost2010Prop57
140
1.0
102
RTVSPost2010PropOp57
 70
     1
102
RTVSPropertyOp0
 70
     1
102
RTVSPropertyOp1
 70
     1
102
RTVSPropertyOp2
 70
     1
102
RTVSPropertyOp3
 70
     1
102
RTVSPropertyOp4
 70
     1
102
RTVSPropertyOp5
 70
     1
102
RTVSPropertyOp6
 70
     1
102
RTVSPropertyOp7
 70
     1
102
RTVSPropertyOp8
 70
     1
102
RTVSPropertyOp9
 70
     1
102
RTVSPropertyOp10
 70
     1
102
RTVSPropertyOp11
 70
     1
102
RTVSPropertyOp12
 70
     1
102
RTVSPropertyOp13
 70
     1
102
RTVSPropertyOp14
 70
     1
102
RTVSPropertyOp15
 70
     1
102
RTVSPropertyOp16
 70
     1
102
RTVSPropertyOp17
 70
     1
102
RTVSPropertyOp18
 70
     1
102
RTVSPropertyOp19
 70
     1
102
RTVSPropertyOp20
 70
     1
102
RTVSPropertyOp21
 70
     1
102
RTVSPropertyOp22
 70
     1
102
RTVSPropertyOp23
 70
     1
102
RTVSPropertyOp24
 70
     1
102
RTVSPropertyOp25
 70
     1
102
RTVSPropertyOp26
 70
     1
102
RTVSPropertyOp27
 70
     1
102
RTVSPropertyOp28
 70
     1
102
RTVSPropertyOp29
 70
     1
102
RTVSPropertyOp30
 70
     1
102
RTVSPropertyOp31
 70
     1
102
RTVSPropertyOp32
 70
     1
102
RTVSPropertyOp33
 70
     1
102
RTVSPropertyOp34
 70
     1
102
RTVSPropertyOp35
 70
     1
102
RTVSPropertyOp36
 70
     1
102
RTVSPropertyOp37
 70
     1
102
RTVSPropertyOp38
 70
     1
102
RTVSPropertyOp39
 70
     1
102
RTVSPropertyOp40
 70
     1
102
RTVSPropertyOp41
 70
     1
102
RTVSPropertyOp42
 70
     1
102
RTVSPropertyOp43
 70
     1
102
RTVSPropertyOp44
 70
     1
102
RTVSPropertyOp45
 70
     1
102
RTVSPropertyOp46
 70
     1
102
RTVSPropertyOp47
 70
     1
102
RTVSPropertyOp48
 70
     1
102
RTVSPropertyOp49
 70
     1
102
RTVSPropertyOp50
 70
     1
102
RTVSPropertyOp51
 70
     0
102
RTVSPropertyOp52
 70
     0
102
RTVSPropertyOp53
 70
     1
102
RTVSPropertyOp54
 70
     1
102
RTVSPropertyOp55
 70
     1
102
RTVSPropertyOp56
 70
     1
102
RTVSPropertyOp57
 70
     1
102
RTVSPropertyOp58
 70
     1
102
RTVSPropertyOp59
 70
     1
102
RTVSPropertyOp60
 70
     1
102
RTVSPropertyOp61
 70
     1
102
RTVSPropertyOp62
 70
     1
  0
XRECORD
  5
557A
102
{ACAD_REACTORS
330
5579
102
}
330
5579
100
AcDbXrecord
280
     1
102
RTVSPost2010Prop28
280
     0
102
RTVSPost2010PropOp28
 70
     1
102
RTVSPost2010Prop29
280
     1
102
RTVSPost2010PropOp29
 70
     1
102
RTVSPost2010Prop30
280
     1
102
RTVSPost2010PropOp30
 70
     1
102
RTVSPost2010Prop31
280
     0
102
RTVSPost2010PropOp31
 70
     1
102
RTVSPost2010Prop32
280
     0
102
RTVSPost2010PropOp32
 70
     1
102
RTVSPost2010Prop33
280
     0
102
RTVSPost2010PropOp33
 70
     1
102
RTVSPost2010Prop34
280
     0
102
RTVSPost2010PropOp34
 70
     1
102
RTVSPost2010Prop35
280
     0
102
RTVSPost2010PropOp35
 70
     1
102
RTVSPost2010Prop36
280
     0
102
RTVSPost2010PropOp36
 70
     1
102
RTVSPost2010Prop37
 90
       50
102
RTVSPost2010PropOp37
 70
     1
102
RTVSPost2010Prop38
140
0.0
102
RTVSPost2010PropOp38
 70
     1
102
RTVSPost2010Prop39
140
1.0
102
RTVSPost2010PropOp39
 70
     1
102
RTVSPost2010Prop40
 90
        0
102
RTVSPost2010PropOp40
 70
     1
102
RTVSPost2010Prop41ColorIndex
 90
       18
102
RTVSPost2010Prop41ColorRGB
 90
        0
102
RTVSPost2010PropOp41
 70
     1
102
RTVSPost2010Prop42
 90
       50
102
RTVSPost2010PropOp42
 70
     1
102
RTVSPost2010Prop43
 90
        3
102
RTVSPost2010PropOp43
 70
     1
102
RTVSPost2010Prop44ColorIndex
 90
        5
102
RTVSPost2010Prop44ColorRGB
 90
      255
102
RTVSPost2010PropOp44
 70
     1
102
RTVSPost2010Prop45
280
     0
102
RTVSPost2010PropOp45
 70
     1
102
RTVSPost2010Prop46
 90
       50
102
RTVSPost2010PropOp46
 70
     1
102
RTVSPost2010Prop47
 90
       50
102
RTVSPost2010PropOp47
 70
     1
102
RTVSPost2010Prop48
 90
       50
102
RTVSPost2010PropOp48
 70
     1
102
RTVSPost2010Prop49
280
     0
102
RTVSPost2010PropOp49
 70
     1
102
RTVSPost2010Prop50
 90
       50
102
RTVSPost2010PropOp50
 70
     1
102
RTVSPost2010Prop51ColorIndex
 90
      256
102
RTVSPost2010Prop51ColorRGB
 90
-16777216
102
RTVSPost2010PropOp51
 70
     0
102
RTVSPost2010Prop52
140
1.0
102
RTVSPost2010PropOp52
 70
     0
102
RTVSPost2010Prop53
 90
        2
102
RTVSPost2010PropOp53
 70
     1
102
RTVSPost2010Prop54
  1
strokes_ogs.tif
102
RTVSPost2010PropOp54
 70
     1
102
RTVSPost2010Prop55
280
     0
102
RTVSPost2010PropOp55
 70
     1
102
RTVSPost2010Prop56
140
1.0
102
RTVSPost2010PropOp56
 70
     1
102
RTVSPost2010Prop57
140
1.0
102
RTVSPost2010PropOp57
 70
     1
102
RTVSPropertyOp0
 70
     1
102
RTVSPropertyOp1
 70
     1
102
RTVSPropertyOp2
 70
     1
102
RTVSPropertyOp3
 70
     1
102
RTVSPropertyOp4
 70
     1
102
RTVSPropertyOp5
 70
     1
102
RTVSPropertyOp6
 70
     1
102
RTVSPropertyOp7
 70
     1
102
RTVSPropertyOp8
 70
     1
102
RTVSPropertyOp9
 70
     1
102
RTVSPropertyOp10
 70
     1
102
RTVSPropertyOp11
 70
     1
102
RTVSPropertyOp12
 70
     1
102
RTVSPropertyOp13
 70
     1
102
RTVSPropertyOp14
 70
     1
102
RTVSPropertyOp15
 70
     1
102
RTVSPropertyOp16
 70
     1
102
RTVSPropertyOp17
 70
     1
102
RTVSPropertyOp18
 70
     1
102
RTVSPropertyOp19
 70
     1
102
RTVSPropertyOp20
 70
     1
102
RTVSPropertyOp21
 70
     1
102
RTVSPropertyOp22
 70
     1
102
RTVSPropertyOp23
 70
     1
102
RTVSPropertyOp24
 70
     1
102
RTVSPropertyOp25
 70
     1
102
RTVSPropertyOp26
 70
     1
102
RTVSPropertyOp27
 70
     1
102
RTVSPropertyOp28
 70
     1
102
RTVSPropertyOp29
 70
     1
102
RTVSPropertyOp30
 70
     1
102
RTVSPropertyOp31
 70
     1
102
RTVSPropertyOp32
 70
     1
102
RTVSPropertyOp33
 70
     1
102
RTVSPropertyOp34
 70
     1
102
RTVSPropertyOp35
 70
     1
102
RTVSPropertyOp36
 70
     1
102
RTVSPropertyOp37
 70
     1
102
RTVSPropertyOp38
 70
     1
102
RTVSPropertyOp39
 70
     1
102
RTVSPropertyOp40
 70
     1
102
RTVSPropertyOp41
 70
     1
102
RTVSPropertyOp42
 70
     1
102
RTVSPropertyOp43
 70
     1
102
RTVSPropertyOp44
 70
     1
102
RTVSPropertyOp45
 70
     1
102
RTVSPropertyOp46
 70
     1
102
RTVSPropertyOp47
 70
     1
102
RTVSPropertyOp48
 70
     1
102
RTVSPropertyOp49
 70
     1
102
RTVSPropertyOp50
 70
     1
102
RTVSPropertyOp51
 70
     0
102
RTVSPropertyOp52
 70
     0
102
RTVSPropertyOp53
 70
     1
102
RTVSPropertyOp54
 70
     1
102
RTVSPropertyOp55
 70
     1
102
RTVSPropertyOp56
 70
     1
102
RTVSPropertyOp57
 70
     1
102
RTVSPropertyOp58
 70
     1
102
RTVSPropertyOp59
 70
     1
102
RTVSPropertyOp60
 70
     1
102
RTVSPropertyOp61
 70
     1
102
RTVSPropertyOp62
 70
     1
  0
XRECORD
  5
557C
102
{ACAD_REACTORS
330
557B
102
}
330
557B
100
AcDbXrecord
280
     1
102
RTVSPost2010Prop28
280
     0
102
RTVSPost2010PropOp28
 70
     1
102
RTVSPost2010Prop29
280
     1
102
RTVSPost2010PropOp29
 70
     1
102
RTVSPost2010Prop30
280
     1
102
RTVSPost2010PropOp30
 70
     1
102
RTVSPost2010Prop31
280
     0
102
RTVSPost2010PropOp31
 70
     1
102
RTVSPost2010Prop32
280
     0
102
RTVSPost2010PropOp32
 70
     1
102
RTVSPost2010Prop33
280
     0
102
RTVSPost2010PropOp33
 70
     1
102
RTVSPost2010Prop34
280
     0
102
RTVSPost2010PropOp34
 70
     1
102
RTVSPost2010Prop35
280
     0
102
RTVSPost2010PropOp35
 70
     1
102
RTVSPost2010Prop36
280
     0
102
RTVSPost2010PropOp36
 70
     1
102
RTVSPost2010Prop37
 90
       50
102
RTVSPost2010PropOp37
 70
     1
102
RTVSPost2010Prop38
140
0.0
102
RTVSPost2010PropOp38
 70
     1
102
RTVSPost2010Prop39
140
1.0
102
RTVSPost2010PropOp39
 70
     1
102
RTVSPost2010Prop40
 90
        0
102
RTVSPost2010PropOp40
 70
     1
102
RTVSPost2010Prop41ColorIndex
 90
       18
102
RTVSPost2010Prop41ColorRGB
 90
        0
102
RTVSPost2010PropOp41
 70
     1
102
RTVSPost2010Prop42
 90
       50
102
RTVSPost2010PropOp42
 70
     1
102
RTVSPost2010Prop43
 90
        3
102
RTVSPost2010PropOp43
 70
     1
102
RTVSPost2010Prop44ColorIndex
 90
        5
102
RTVSPost2010Prop44ColorRGB
 90
      255
102
RTVSPost2010PropOp44
 70
     1
102
RTVSPost2010Prop45
280
     0
102
RTVSPost2010PropOp45
 70
     1
102
RTVSPost2010Prop46
 90
       50
102
RTVSPost2010PropOp46
 70
     1
102
RTVSPost2010Prop47
 90
       50
102
RTVSPost2010PropOp47
 70
     1
102
RTVSPost2010Prop48
 90
       50
102
RTVSPost2010PropOp48
 70
     1
102
RTVSPost2010Prop49
280
     0
102
RTVSPost2010PropOp49
 70
     1
102
RTVSPost2010Prop50
 90
       50
102
RTVSPost2010PropOp50
 70
     1
102
RTVSPost2010Prop51ColorIndex
 90
      256
102
RTVSPost2010Prop51ColorRGB
 90
-16777216
102
RTVSPost2010PropOp51
 70
     0
102
RTVSPost2010Prop52
140
1.0
102
RTVSPost2010PropOp52
 70
     0
102
RTVSPost2010Prop53
 90
        2
102
RTVSPost2010PropOp53
 70
     1
102
RTVSPost2010Prop54
  1
strokes_ogs.tif
102
RTVSPost2010PropOp54
 70
     1
102
RTVSPost2010Prop55
280
     0
102
RTVSPost2010PropOp55
 70
     1
102
RTVSPost2010Prop56
140
1.0
102
RTVSPost2010PropOp56
 70
     1
102
RTVSPost2010Prop57
140
1.0
102
RTVSPost2010PropOp57
 70
     1
102
RTVSPropertyOp0
 70
     1
102
RTVSPropertyOp1
 70
     1
102
RTVSPropertyOp2
 70
     1
102
RTVSPropertyOp3
 70
     1
102
RTVSPropertyOp4
 70
     1
102
RTVSPropertyOp5
 70
     1
102
RTVSPropertyOp6
 70
     1
102
RTVSPropertyOp7
 70
     1
102
RTVSPropertyOp8
 70
     1
102
RTVSPropertyOp9
 70
     1
102
RTVSPropertyOp10
 70
     1
102
RTVSPropertyOp11
 70
     1
102
RTVSPropertyOp12
 70
     1
102
RTVSPropertyOp13
 70
     1
102
RTVSPropertyOp14
 70
     1
102
RTVSPropertyOp15
 70
     1
102
RTVSPropertyOp16
 70
     1
102
RTVSPropertyOp17
 70
     1
102
RTVSPropertyOp18
 70
     1
102
RTVSPropertyOp19
 70
     1
102
RTVSPropertyOp20
 70
     1
102
RTVSPropertyOp21
 70
     1
102
RTVSPropertyOp22
 70
     1
102
RTVSPropertyOp23
 70
     1
102
RTVSPropertyOp24
 70
     1
102
RTVSPropertyOp25
 70
     1
102
RTVSPropertyOp26
 70
     1
102
RTVSPropertyOp27
 70
     1
102
RTVSPropertyOp28
 70
     1
102
RTVSPropertyOp29
 70
     1
102
RTVSPropertyOp30
 70
     1
102
RTVSPropertyOp31
 70
     1
102
RTVSPropertyOp32
 70
     1
102
RTVSPropertyOp33
 70
     1
102
RTVSPropertyOp34
 70
     1
102
RTVSPropertyOp35
 70
     1
102
RTVSPropertyOp36
 70
     1
102
RTVSPropertyOp37
 70
     1
102
RTVSPropertyOp38
 70
     1
102
RTVSPropertyOp39
 70
     1
102
RTVSPropertyOp40
 70
     1
102
RTVSPropertyOp41
 70
     1
102
RTVSPropertyOp42
 70
     1
102
RTVSPropertyOp43
 70
     1
102
RTVSPropertyOp44
 70
     1
102
RTVSPropertyOp45
 70
     1
102
RTVSPropertyOp46
 70
     1
102
RTVSPropertyOp47
 70
     1
102
RTVSPropertyOp48
 70
     1
102
RTVSPropertyOp49
 70
     1
102
RTVSPropertyOp50
 70
     1
102
RTVSPropertyOp51
 70
     0
102
RTVSPropertyOp52
 70
     0
102
RTVSPropertyOp53
 70
     1
102
RTVSPropertyOp54
 70
     1
102
RTVSPropertyOp55
 70
     1
102
RTVSPropertyOp56
 70
     1
102
RTVSPropertyOp57
 70
     1
102
RTVSPropertyOp58
 70
     1
102
RTVSPropertyOp59
 70
     1
102
RTVSPropertyOp60
 70
     1
102
RTVSPropertyOp61
 70
     1
102
RTVSPropertyOp62
 70
     1
  0
XRECORD
  5
557E
102
{ACAD_REACTORS
330
557D
102
}
330
557D
100
AcDbXrecord
280
     1
102
RTVSPost2010Prop28
280
     0
102
RTVSPost2010PropOp28
 70
     1
102
RTVSPost2010Prop29
280
     1
102
RTVSPost2010PropOp29
 70
     1
102
RTVSPost2010Prop30
280
     1
102
RTVSPost2010PropOp30
 70
     1
102
RTVSPost2010Prop31
280
     0
102
RTVSPost2010PropOp31
 70
     1
102
RTVSPost2010Prop32
280
     0
102
RTVSPost2010PropOp32
 70
     1
102
RTVSPost2010Prop33
280
     0
102
RTVSPost2010PropOp33
 70
     1
102
RTVSPost2010Prop34
280
     0
102
RTVSPost2010PropOp34
 70
     1
102
RTVSPost2010Prop35
280
     0
102
RTVSPost2010PropOp35
 70
     1
102
RTVSPost2010Prop36
280
     0
102
RTVSPost2010PropOp36
 70
     1
102
RTVSPost2010Prop37
 90
       50
102
RTVSPost2010PropOp37
 70
     1
102
RTVSPost2010Prop38
140
0.0
102
RTVSPost2010PropOp38
 70
     1
102
RTVSPost2010Prop39
140
1.0
102
RTVSPost2010PropOp39
 70
     1
102
RTVSPost2010Prop40
 90
        0
102
RTVSPost2010PropOp40
 70
     1
102
RTVSPost2010Prop41ColorIndex
 90
       18
102
RTVSPost2010Prop41ColorRGB
 90
        0
102
RTVSPost2010PropOp41
 70
     1
102
RTVSPost2010Prop42
 90
       50
102
RTVSPost2010PropOp42
 70
     1
102
RTVSPost2010Prop43
 90
        3
102
RTVSPost2010PropOp43
 70
     1
102
RTVSPost2010Prop44ColorIndex
 90
        5
102
RTVSPost2010Prop44ColorRGB
 90
      255
102
RTVSPost2010PropOp44
 70
     1
102
RTVSPost2010Prop45
280
     0
102
RTVSPost2010PropOp45
 70
     1
102
RTVSPost2010Prop46
 90
       50
102
RTVSPost2010PropOp46
 70
     1
102
RTVSPost2010Prop47
 90
       50
102
RTVSPost2010PropOp47
 70
     1
102
RTVSPost2010Prop48
 90
       50
102
RTVSPost2010PropOp48
 70
     1
102
RTVSPost2010Prop49
280
     0
102
RTVSPost2010PropOp49
 70
     1
102
RTVSPost2010Prop50
 90
       50
102
RTVSPost2010PropOp50
 70
     1
102
RTVSPost2010Prop51ColorIndex
 90
      256
102
RTVSPost2010Prop51ColorRGB
 90
-16777216
102
RTVSPost2010PropOp51
 70
     0
102
RTVSPost2010Prop52
140
1.0
102
RTVSPost2010PropOp52
 70
     0
102
RTVSPost2010Prop53
 90
        2
102
RTVSPost2010PropOp53
 70
     1
102
RTVSPost2010Prop54
  1
strokes_ogs.tif
102
RTVSPost2010PropOp54
 70
     1
102
RTVSPost2010Prop55
280
     0
102
RTVSPost2010PropOp55
 70
     1
102
RTVSPost2010Prop56
140
1.0
102
RTVSPost2010PropOp56
 70
     1
102
RTVSPost2010Prop57
140
1.0
102
RTVSPost2010PropOp57
 70
     1
102
RTVSPropertyOp0
 70
     1
102
RTVSPropertyOp1
 70
     1
102
RTVSPropertyOp2
 70
     1
102
RTVSPropertyOp3
 70
     1
102
RTVSPropertyOp4
 70
     1
102
RTVSPropertyOp5
 70
     1
102
RTVSPropertyOp6
 70
     1
102
RTVSPropertyOp7
 70
     1
102
RTVSPropertyOp8
 70
     1
102
RTVSPropertyOp9
 70
     1
102
RTVSPropertyOp10
 70
     1
102
RTVSPropertyOp11
 70
     1
102
RTVSPropertyOp12
 70
     1
102
RTVSPropertyOp13
 70
     1
102
RTVSPropertyOp14
 70
     1
102
RTVSPropertyOp15
 70
     1
102
RTVSPropertyOp16
 70
     1
102
RTVSPropertyOp17
 70
     1
102
RTVSPropertyOp18
 70
     1
102
RTVSPropertyOp19
 70
     1
102
RTVSPropertyOp20
 70
     1
102
RTVSPropertyOp21
 70
     1
102
RTVSPropertyOp22
 70
     1
102
RTVSPropertyOp23
 70
     1
102
RTVSPropertyOp24
 70
     1
102
RTVSPropertyOp25
 70
     1
102
RTVSPropertyOp26
 70
     1
102
RTVSPropertyOp27
 70
     1
102
RTVSPropertyOp28
 70
     1
102
RTVSPropertyOp29
 70
     1
102
RTVSPropertyOp30
 70
     1
102
RTVSPropertyOp31
 70
     1
102
RTVSPropertyOp32
 70
     1
102
RTVSPropertyOp33
 70
     1
102
RTVSPropertyOp34
 70
     1
102
RTVSPropertyOp35
 70
     1
102
RTVSPropertyOp36
 70
     1
102
RTVSPropertyOp37
 70
     1
102
RTVSPropertyOp38
 70
     1
102
RTVSPropertyOp39
 70
     1
102
RTVSPropertyOp40
 70
     1
102
RTVSPropertyOp41
 70
     1
102
RTVSPropertyOp42
 70
     1
102
RTVSPropertyOp43
 70
     1
102
RTVSPropertyOp44
 70
     1
102
RTVSPropertyOp45
 70
     1
102
RTVSPropertyOp46
 70
     1
102
RTVSPropertyOp47
 70
     1
102
RTVSPropertyOp48
 70
     1
102
RTVSPropertyOp49
 70
     1
102
RTVSPropertyOp50
 70
     1
102
RTVSPropertyOp51
 70
     0
102
RTVSPropertyOp52
 70
     0
102
RTVSPropertyOp53
 70
     1
102
RTVSPropertyOp54
 70
     1
102
RTVSPropertyOp55
 70
     1
102
RTVSPropertyOp56
 70
     1
102
RTVSPropertyOp57
 70
     1
102
RTVSPropertyOp58
 70
     1
102
RTVSPropertyOp59
 70
     1
102
RTVSPropertyOp60
 70
     1
102
RTVSPropertyOp61
 70
     1
102
RTVSPropertyOp62
 70
     1
  0
XRECORD
  5
5580
102
{ACAD_REACTORS
330
557F
102
}
330
557F
100
AcDbXrecord
280
     1
102
RTVSPost2010Prop28
280
     0
102
RTVSPost2010PropOp28
 70
     1
102
RTVSPost2010Prop29
280
     1
102
RTVSPost2010PropOp29
 70
     1
102
RTVSPost2010Prop30
280
     1
102
RTVSPost2010PropOp30
 70
     1
102
RTVSPost2010Prop31
280
     0
102
RTVSPost2010PropOp31
 70
     1
102
RTVSPost2010Prop32
280
     0
102
RTVSPost2010PropOp32
 70
     1
102
RTVSPost2010Prop33
280
     0
102
RTVSPost2010PropOp33
 70
     1
102
RTVSPost2010Prop34
280
     0
102
RTVSPost2010PropOp34
 70
     1
102
RTVSPost2010Prop35
280
     0
102
RTVSPost2010PropOp35
 70
     1
102
RTVSPost2010Prop36
280
     0
102
RTVSPost2010PropOp36
 70
     1
102
RTVSPost2010Prop37
 90
       50
102
RTVSPost2010PropOp37
 70
     1
102
RTVSPost2010Prop38
140
0.0
102
RTVSPost2010PropOp38
 70
     1
102
RTVSPost2010Prop39
140
1.0
102
RTVSPost2010PropOp39
 70
     1
102
RTVSPost2010Prop40
 90
        0
102
RTVSPost2010PropOp40
 70
     1
102
RTVSPost2010Prop41ColorIndex
 90
       18
102
RTVSPost2010Prop41ColorRGB
 90
        0
102
RTVSPost2010PropOp41
 70
     1
102
RTVSPost2010Prop42
 90
       50
102
RTVSPost2010PropOp42
 70
     1
102
RTVSPost2010Prop43
 90
        3
102
RTVSPost2010PropOp43
 70
     1
102
RTVSPost2010Prop44ColorIndex
 90
        5
102
RTVSPost2010Prop44ColorRGB
 90
      255
102
RTVSPost2010PropOp44
 70
     1
102
RTVSPost2010Prop45
280
     0
102
RTVSPost2010PropOp45
 70
     1
102
RTVSPost2010Prop46
 90
       50
102
RTVSPost2010PropOp46
 70
     1
102
RTVSPost2010Prop47
 90
       50
102
RTVSPost2010PropOp47
 70
     1
102
RTVSPost2010Prop48
 90
       50
102
RTVSPost2010PropOp48
 70
     1
102
RTVSPost2010Prop49
280
     0
102
RTVSPost2010PropOp49
 70
     1
102
RTVSPost2010Prop50
 90
       50
102
RTVSPost2010PropOp50
 70
     1
102
RTVSPost2010Prop51ColorIndex
 90
      256
102
RTVSPost2010Prop51ColorRGB
 90
-16777216
102
RTVSPost2010PropOp51
 70
     0
102
RTVSPost2010Prop52
140
1.0
102
RTVSPost2010PropOp52
 70
     0
102
RTVSPost2010Prop53
 90
        2
102
RTVSPost2010PropOp53
 70
     1
102
RTVSPost2010Prop54
  1
strokes_ogs.tif
102
RTVSPost2010PropOp54
 70
     1
102
RTVSPost2010Prop55
280
     0
102
RTVSPost2010PropOp55
 70
     1
102
RTVSPost2010Prop56
140
1.0
102
RTVSPost2010PropOp56
 70
     1
102
RTVSPost2010Prop57
140
1.0
102
RTVSPost2010PropOp57
 70
     1
102
RTVSPropertyOp0
 70
     1
102
RTVSPropertyOp1
 70
     1
102
RTVSPropertyOp2
 70
     1
102
RTVSPropertyOp3
 70
     1
102
RTVSPropertyOp4
 70
     1
102
RTVSPropertyOp5
 70
     1
102
RTVSPropertyOp6
 70
     1
102
RTVSPropertyOp7
 70
     1
102
RTVSPropertyOp8
 70
     1
102
RTVSPropertyOp9
 70
     1
102
RTVSPropertyOp10
 70
     1
102
RTVSPropertyOp11
 70
     1
102
RTVSPropertyOp12
 70
     1
102
RTVSPropertyOp13
 70
     1
102
RTVSPropertyOp14
 70
     1
102
RTVSPropertyOp15
 70
     1
102
RTVSPropertyOp16
 70
     1
102
RTVSPropertyOp17
 70
     1
102
RTVSPropertyOp18
 70
     1
102
RTVSPropertyOp19
 70
     1
102
RTVSPropertyOp20
 70
     1
102
RTVSPropertyOp21
 70
     1
102
RTVSPropertyOp22
 70
     1
102
RTVSPropertyOp23
 70
     1
102
RTVSPropertyOp24
 70
     1
102
RTVSPropertyOp25
 70
     1
102
RTVSPropertyOp26
 70
     1
102
RTVSPropertyOp27
 70
     1
102
RTVSPropertyOp28
 70
     1
102
RTVSPropertyOp29
 70
     1
102
RTVSPropertyOp30
 70
     1
102
RTVSPropertyOp31
 70
     1
102
RTVSPropertyOp32
 70
     1
102
RTVSPropertyOp33
 70
     1
102
RTVSPropertyOp34
 70
     1
102
RTVSPropertyOp35
 70
     1
102
RTVSPropertyOp36
 70
     1
102
RTVSPropertyOp37
 70
     1
102
RTVSPropertyOp38
 70
     1
102
RTVSPropertyOp39
 70
     1
102
RTVSPropertyOp40
 70
     1
102
RTVSPropertyOp41
 70
     1
102
RTVSPropertyOp42
 70
     1
102
RTVSPropertyOp43
 70
     1
102
RTVSPropertyOp44
 70
     1
102
RTVSPropertyOp45
 70
     1
102
RTVSPropertyOp46
 70
     1
102
RTVSPropertyOp47
 70
     1
102
RTVSPropertyOp48
 70
     1
102
RTVSPropertyOp49
 70
     1
102
RTVSPropertyOp50
 70
     1
102
RTVSPropertyOp51
 70
     0
102
RTVSPropertyOp52
 70
     0
102
RTVSPropertyOp53
 70
     1
102
RTVSPropertyOp54
 70
     1
102
RTVSPropertyOp55
 70
     1
102
RTVSPropertyOp56
 70
     1
102
RTVSPropertyOp57
 70
     1
102
RTVSPropertyOp58
 70
     1
102
RTVSPropertyOp59
 70
     1
102
RTVSPropertyOp60
 70
     1
102
RTVSPropertyOp61
 70
     1
102
RTVSPropertyOp62
 70
     1
  0
XRECORD
  5
5588
102
{ACAD_REACTORS
330
5587
102
}
330
5587
100
AcDbXrecord
280
     1
102
RTVSPost2010Prop28
280
     0
102
RTVSPost2010PropOp28
 70
     1
102
RTVSPost2010Prop29
280
     1
102
RTVSPost2010PropOp29
 70
     1
102
RTVSPost2010Prop30
280
     1
102
RTVSPost2010PropOp30
 70
     1
102
RTVSPost2010Prop31
280
     0
102
RTVSPost2010PropOp31
 70
     1
102
RTVSPost2010Prop32
280
     0
102
RTVSPost2010PropOp32
 70
     1
102
RTVSPost2010Prop33
280
     0
102
RTVSPost2010PropOp33
 70
     1
102
RTVSPost2010Prop34
280
     0
102
RTVSPost2010PropOp34
 70
     1
102
RTVSPost2010Prop35
280
     0
102
RTVSPost2010PropOp35
 70
     1
102
RTVSPost2010Prop36
280
     0
102
RTVSPost2010PropOp36
 70
     1
102
RTVSPost2010Prop37
 90
       50
102
RTVSPost2010PropOp37
 70
     1
102
RTVSPost2010Prop38
140
0.0
102
RTVSPost2010PropOp38
 70
     1
102
RTVSPost2010Prop39
140
1.0
102
RTVSPost2010PropOp39
 70
     1
102
RTVSPost2010Prop40
 90
        0
102
RTVSPost2010PropOp40
 70
     1
102
RTVSPost2010Prop41ColorIndex
 90
       18
102
RTVSPost2010Prop41ColorRGB
 90
        0
102
RTVSPost2010PropOp41
 70
     1
102
RTVSPost2010Prop42
 90
       50
102
RTVSPost2010PropOp42
 70
     1
102
RTVSPost2010Prop43
 90
        3
102
RTVSPost2010PropOp43
 70
     1
102
RTVSPost2010Prop44ColorIndex
 90
        5
102
RTVSPost2010Prop44ColorRGB
 90
      255
102
RTVSPost2010PropOp44
 70
     1
102
RTVSPost2010Prop45
280
     0
102
RTVSPost2010PropOp45
 70
     1
102
RTVSPost2010Prop46
 90
       50
102
RTVSPost2010PropOp46
 70
     1
102
RTVSPost2010Prop47
 90
       50
102
RTVSPost2010PropOp47
 70
     1
102
RTVSPost2010Prop48
 90
       50
102
RTVSPost2010PropOp48
 70
     1
102
RTVSPost2010Prop49
280
     0
102
RTVSPost2010PropOp49
 70
     1
102
RTVSPost2010Prop50
 90
       50
102
RTVSPost2010PropOp50
 70
     1
102
RTVSPost2010Prop51ColorIndex
 90
      256
102
RTVSPost2010Prop51ColorRGB
 90
-16777216
102
RTVSPost2010PropOp51
 70
     0
102
RTVSPost2010Prop52
140
1.0
102
RTVSPost2010PropOp52
 70
     0
102
RTVSPost2010Prop53
 90
        2
102
RTVSPost2010PropOp53
 70
     1
102
RTVSPost2010Prop54
  1
strokes_ogs.tif
102
RTVSPost2010PropOp54
 70
     1
102
RTVSPost2010Prop55
280
     0
102
RTVSPost2010PropOp55
 70
     1
102
RTVSPost2010Prop56
140
1.0
102
RTVSPost2010PropOp56
 70
     1
102
RTVSPost2010Prop57
140
1.0
102
RTVSPost2010PropOp57
 70
     1
102
RTVSPropertyOp0
 70
     1
102
RTVSPropertyOp1
 70
     1
102
RTVSPropertyOp2
 70
     1
102
RTVSPropertyOp3
 70
     1
102
RTVSPropertyOp4
 70
     1
102
RTVSPropertyOp5
 70
     1
102
RTVSPropertyOp6
 70
     1
102
RTVSPropertyOp7
 70
     1
102
RTVSPropertyOp8
 70
     1
102
RTVSPropertyOp9
 70
     1
102
RTVSPropertyOp10
 70
     1
102
RTVSPropertyOp11
 70
     1
102
RTVSPropertyOp12
 70
     1
102
RTVSPropertyOp13
 70
     1
102
RTVSPropertyOp14
 70
     1
102
RTVSPropertyOp15
 70
     1
102
RTVSPropertyOp16
 70
     1
102
RTVSPropertyOp17
 70
     1
102
RTVSPropertyOp18
 70
     1
102
RTVSPropertyOp19
 70
     1
102
RTVSPropertyOp20
 70
     1
102
RTVSPropertyOp21
 70
     1
102
RTVSPropertyOp22
 70
     1
102
RTVSPropertyOp23
 70
     1
102
RTVSPropertyOp24
 70
     1
102
RTVSPropertyOp25
 70
     1
102
RTVSPropertyOp26
 70
     1
102
RTVSPropertyOp27
 70
     1
102
RTVSPropertyOp28
 70
     1
102
RTVSPropertyOp29
 70
     1
102
RTVSPropertyOp30
 70
     1
102
RTVSPropertyOp31
 70
     1
102
RTVSPropertyOp32
 70
     1
102
RTVSPropertyOp33
 70
     1
102
RTVSPropertyOp34
 70
     1
102
RTVSPropertyOp35
 70
     1
102
RTVSPropertyOp36
 70
     1
102
RTVSPropertyOp37
 70
     1
102
RTVSPropertyOp38
 70
     1
102
RTVSPropertyOp39
 70
     1
102
RTVSPropertyOp40
 70
     1
102
RTVSPropertyOp41
 70
     1
102
RTVSPropertyOp42
 70
     1
102
RTVSPropertyOp43
 70
     1
102
RTVSPropertyOp44
 70
     1
102
RTVSPropertyOp45
 70
     1
102
RTVSPropertyOp46
 70
     1
102
RTVSPropertyOp47
 70
     1
102
RTVSPropertyOp48
 70
     1
102
RTVSPropertyOp49
 70
     1
102
RTVSPropertyOp50
 70
     1
102
RTVSPropertyOp51
 70
     0
102
RTVSPropertyOp52
 70
     0
102
RTVSPropertyOp53
 70
     1
102
RTVSPropertyOp54
 70
     1
102
RTVSPropertyOp55
 70
     1
102
RTVSPropertyOp56
 70
     1
102
RTVSPropertyOp57
 70
     1
102
RTVSPropertyOp58
 70
     1
102
RTVSPropertyOp59
 70
     1
102
RTVSPropertyOp60
 70
     1
102
RTVSPropertyOp61
 70
     1
102
RTVSPropertyOp62
 70
     1
  0
XRECORD
  5
55A4
102
{ACAD_REACTORS
330
55A3
102
}
330
55A3
100
AcDbXrecord
280
     1
102
RTVSPost2010Prop28
280
     0
102
RTVSPost2010PropOp28
 70
     1
102
RTVSPost2010Prop29
280
     1
102
RTVSPost2010PropOp29
 70
     1
102
RTVSPost2010Prop30
280
     1
102
RTVSPost2010PropOp30
 70
     1
102
RTVSPost2010Prop31
280
     0
102
RTVSPost2010PropOp31
 70
     1
102
RTVSPost2010Prop32
280
     0
102
RTVSPost2010PropOp32
 70
     1
102
RTVSPost2010Prop33
280
     0
102
RTVSPost2010PropOp33
 70
     1
102
RTVSPost2010Prop34
280
     0
102
RTVSPost2010PropOp34
 70
     1
102
RTVSPost2010Prop35
280
     0
102
RTVSPost2010PropOp35
 70
     1
102
RTVSPost2010Prop36
280
     0
102
RTVSPost2010PropOp36
 70
     1
102
RTVSPost2010Prop37
 90
       50
102
RTVSPost2010PropOp37
 70
     0
102
RTVSPost2010Prop38
140
0.0
102
RTVSPost2010PropOp38
 70
     0
102
RTVSPost2010Prop39
140
1.0
102
RTVSPost2010PropOp39
 70
     0
102
RTVSPost2010Prop40
 90
        0
102
RTVSPost2010PropOp40
 70
     0
102
RTVSPost2010Prop41ColorIndex
 90
       18
102
RTVSPost2010Prop41ColorRGB
 90
        0
102
RTVSPost2010PropOp41
 70
     0
102
RTVSPost2010Prop42
 90
       50
102
RTVSPost2010PropOp42
 70
     0
102
RTVSPost2010Prop43
 90
        3
102
RTVSPost2010PropOp43
 70
     0
102
RTVSPost2010Prop44ColorIndex
 90
        5
102
RTVSPost2010Prop44ColorRGB
 90
      255
102
RTVSPost2010PropOp44
 70
     0
102
RTVSPost2010Prop45
280
     0
102
RTVSPost2010PropOp45
 70
     1
102
RTVSPost2010Prop46
 90
       50
102
RTVSPost2010PropOp46
 70
     0
102
RTVSPost2010Prop47
 90
       50
102
RTVSPost2010PropOp47
 70
     0
102
RTVSPost2010Prop48
 90
       50
102
RTVSPost2010PropOp48
 70
     0
102
RTVSPost2010Prop49
280
     0
102
RTVSPost2010PropOp49
 70
     1
102
RTVSPost2010Prop50
 90
       50
102
RTVSPost2010PropOp50
 70
     0
102
RTVSPost2010Prop51ColorIndex
 90
      256
102
RTVSPost2010Prop51ColorRGB
 90
-16777216
102
RTVSPost2010PropOp51
 70
     0
102
RTVSPost2010Prop52
140
1.0
102
RTVSPost2010PropOp52
 70
     0
102
RTVSPost2010Prop53
 90
        2
102
RTVSPost2010PropOp53
 70
     0
102
RTVSPost2010Prop54
  1
strokes_ogs.tif
102
RTVSPost2010PropOp54
 70
     0
102
RTVSPost2010Prop55
280
     0
102
RTVSPost2010PropOp55
 70
     1
102
RTVSPost2010Prop56
140
1.0
102
RTVSPost2010PropOp56
 70
     0
102
RTVSPost2010Prop57
140
1.0
102
RTVSPost2010PropOp57
 70
     0
102
RTVSPropertyOp0
 70
     0
102
RTVSPropertyOp1
 70
     0
102
RTVSPropertyOp2
 70
     0
102
RTVSPropertyOp3
 70
     0
102
RTVSPropertyOp4
 70
     0
102
RTVSPropertyOp5
 70
     0
102
RTVSPropertyOp6
 70
     0
102
RTVSPropertyOp7
 70
     0
102
RTVSPropertyOp8
 70
     0
102
RTVSPropertyOp9
 70
     0
102
RTVSPropertyOp10
 70
     0
102
RTVSPropertyOp11
 70
     0
102
RTVSPropertyOp12
 70
     0
102
RTVSPropertyOp13
 70
     0
102
RTVSPropertyOp14
 70
     2
102
RTVSPropertyOp15
 70
     0
102
RTVSPropertyOp16
 70
     0
102
RTVSPropertyOp17
 70
     0
102
RTVSPropertyOp18
 70
     0
102
RTVSPropertyOp19
 70
     0
102
RTVSPropertyOp20
 70
     0
102
RTVSPropertyOp21
 70
     0
102
RTVSPropertyOp22
 70
     0
102
RTVSPropertyOp23
 70
     0
102
RTVSPropertyOp24
 70
     0
102
RTVSPropertyOp25
 70
     0
102
RTVSPropertyOp26
 70
     0
102
RTVSPropertyOp27
 70
     0
102
RTVSPropertyOp28
 70
     1
102
RTVSPropertyOp29
 70
     1
102
RTVSPropertyOp30
 70
     1
102
RTVSPropertyOp31
 70
     1
102
RTVSPropertyOp32
 70
     1
102
RTVSPropertyOp33
 70
     1
102
RTVSPropertyOp34
 70
     1
102
RTVSPropertyOp35
 70
     1
102
RTVSPropertyOp36
 70
     1
102
RTVSPropertyOp37
 70
     0
102
RTVSPropertyOp38
 70
     0
102
RTVSPropertyOp39
 70
     0
102
RTVSPropertyOp40
 70
     0
102
RTVSPropertyOp41
 70
     0
102
RTVSPropertyOp42
 70
     0
102
RTVSPropertyOp43
 70
     0
102
RTVSPropertyOp44
 70
     0
102
RTVSPropertyOp45
 70
     1
102
RTVSPropertyOp46
 70
     0
102
RTVSPropertyOp47
 70
     0
102
RTVSPropertyOp48
 70
     0
102
RTVSPropertyOp49
 70
     1
102
RTVSPropertyOp50
 70
     0
102
RTVSPropertyOp51
 70
     0
102
RTVSPropertyOp52
 70
     0
102
RTVSPropertyOp53
 70
     0
102
RTVSPropertyOp54
 70
     0
102
RTVSPropertyOp55
 70
     1
102
RTVSPropertyOp56
 70
     0
102
RTVSPropertyOp57
 70
     0
102
RTVSPropertyOp58
 70
     0
102
RTVSPropertyOp59
 70
     0
102
RTVSPropertyOp60
 70
     0
102
RTVSPropertyOp61
 70
     0
102
RTVSPropertyOp62
 70
     0
  0
XRECORD
  5
5594
102
{ACAD_REACTORS
330
5593
102
}
330
5593
100
AcDbXrecord
280
     1
102
RTVSPost2010Prop28
280
     0
102
RTVSPost2010PropOp28
 70
     1
102
RTVSPost2010Prop29
280
     1
102
RTVSPost2010PropOp29
 70
     1
102
RTVSPost2010Prop30
280
     1
102
RTVSPost2010PropOp30
 70
     1
102
RTVSPost2010Prop31
280
     0
102
RTVSPost2010PropOp31
 70
     1
102
RTVSPost2010Prop32
280
     0
102
RTVSPost2010PropOp32
 70
     1
102
RTVSPost2010Prop33
280
     0
102
RTVSPost2010PropOp33
 70
     1
102
RTVSPost2010Prop34
280
     0
102
RTVSPost2010PropOp34
 70
     1
102
RTVSPost2010Prop35
280
     0
102
RTVSPost2010PropOp35
 70
     1
102
RTVSPost2010Prop36
280
     0
102
RTVSPost2010PropOp36
 70
     1
102
RTVSPost2010Prop37
 90
       50
102
RTVSPost2010PropOp37
 70
     1
102
RTVSPost2010Prop38
140
0.0
102
RTVSPost2010PropOp38
 70
     1
102
RTVSPost2010Prop39
140
1.0
102
RTVSPost2010PropOp39
 70
     1
102
RTVSPost2010Prop40
 90
        0
102
RTVSPost2010PropOp40
 70
     1
102
RTVSPost2010Prop41ColorIndex
 90
       18
102
RTVSPost2010Prop41ColorRGB
 90
        0
102
RTVSPost2010PropOp41
 70
     1
102
RTVSPost2010Prop42
 90
       50
102
RTVSPost2010PropOp42
 70
     1
102
RTVSPost2010Prop43
 90
        3
102
RTVSPost2010PropOp43
 70
     1
102
RTVSPost2010Prop44ColorIndex
 90
        5
102
RTVSPost2010Prop44ColorRGB
 90
      255
102
RTVSPost2010PropOp44
 70
     1
102
RTVSPost2010Prop45
280
     0
102
RTVSPost2010PropOp45
 70
     1
102
RTVSPost2010Prop46
 90
       50
102
RTVSPost2010PropOp46
 70
     1
102
RTVSPost2010Prop47
 90
       50
102
RTVSPost2010PropOp47
 70
     1
102
RTVSPost2010Prop48
 90
       50
102
RTVSPost2010PropOp48
 70
     1
102
RTVSPost2010Prop49
280
     0
102
RTVSPost2010PropOp49
 70
     1
102
RTVSPost2010Prop50
 90
       50
102
RTVSPost2010PropOp50
 70
     1
102
RTVSPost2010Prop51ColorIndex
 90
      256
102
RTVSPost2010Prop51ColorRGB
 90
-16777216
102
RTVSPost2010PropOp51
 70
     0
102
RTVSPost2010Prop52
140
1.0
102
RTVSPost2010PropOp52
 70
     0
102
RTVSPost2010Prop53
 90
        2
102
RTVSPost2010PropOp53
 70
     1
102
RTVSPost2010Prop54
  1
strokes_ogs.tif
102
RTVSPost2010PropOp54
 70
     1
102
RTVSPost2010Prop55
280
     0
102
RTVSPost2010PropOp55
 70
     1
102
RTVSPost2010Prop56
140
1.0
102
RTVSPost2010PropOp56
 70
     1
102
RTVSPost2010Prop57
140
1.0
102
RTVSPost2010PropOp57
 70
     1
102
RTVSPropertyOp0
 70
     1
102
RTVSPropertyOp1
 70
     1
102
RTVSPropertyOp2
 70
     1
102
RTVSPropertyOp3
 70
     1
102
RTVSPropertyOp4
 70
     1
102
RTVSPropertyOp5
 70
     1
102
RTVSPropertyOp6
 70
     1
102
RTVSPropertyOp7
 70
     1
102
RTVSPropertyOp8
 70
     1
102
RTVSPropertyOp9
 70
     1
102
RTVSPropertyOp10
 70
     1
102
RTVSPropertyOp11
 70
     1
102
RTVSPropertyOp12
 70
     1
102
RTVSPropertyOp13
 70
     1
102
RTVSPropertyOp14
 70
     1
102
RTVSPropertyOp15
 70
     1
102
RTVSPropertyOp16
 70
     1
102
RTVSPropertyOp17
 70
     1
102
RTVSPropertyOp18
 70
     1
102
RTVSPropertyOp19
 70
     1
102
RTVSPropertyOp20
 70
     1
102
RTVSPropertyOp21
 70
     1
102
RTVSPropertyOp22
 70
     1
102
RTVSPropertyOp23
 70
     1
102
RTVSPropertyOp24
 70
     1
102
RTVSPropertyOp25
 70
     1
102
RTVSPropertyOp26
 70
     1
102
RTVSPropertyOp27
 70
     1
102
RTVSPropertyOp28
 70
     1
102
RTVSPropertyOp29
 70
     1
102
RTVSPropertyOp30
 70
     1
102
RTVSPropertyOp31
 70
     1
102
RTVSPropertyOp32
 70
     1
102
RTVSPropertyOp33
 70
     1
102
RTVSPropertyOp34
 70
     1
102
RTVSPropertyOp35
 70
     1
102
RTVSPropertyOp36
 70
     1
102
RTVSPropertyOp37
 70
     1
102
RTVSPropertyOp38
 70
     1
102
RTVSPropertyOp39
 70
     1
102
RTVSPropertyOp40
 70
     1
102
RTVSPropertyOp41
 70
     1
102
RTVSPropertyOp42
 70
     1
102
RTVSPropertyOp43
 70
     1
102
RTVSPropertyOp44
 70
     1
102
RTVSPropertyOp45
 70
     1
102
RTVSPropertyOp46
 70
     1
102
RTVSPropertyOp47
 70
     1
102
RTVSPropertyOp48
 70
     1
102
RTVSPropertyOp49
 70
     1
102
RTVSPropertyOp50
 70
     1
102
RTVSPropertyOp51
 70
     0
102
RTVSPropertyOp52
 70
     0
102
RTVSPropertyOp53
 70
     1
102
RTVSPropertyOp54
 70
     1
102
RTVSPropertyOp55
 70
     1
102
RTVSPropertyOp56
 70
     1
102
RTVSPropertyOp57
 70
     1
102
RTVSPropertyOp58
 70
     1
102
RTVSPropertyOp59
 70
     1
102
RTVSPropertyOp60
 70
     1
102
RTVSPropertyOp61
 70
     1
102
RTVSPropertyOp62
 70
     1
  0
XRECORD
  5
55A6
102
{ACAD_REACTORS
330
55A5
102
}
330
55A5
100
AcDbXrecord
280
     1
102
RTVSPost2010Prop28
280
     0
102
RTVSPost2010PropOp28
 70
     1
102
RTVSPost2010Prop29
280
     1
102
RTVSPost2010PropOp29
 70
     1
102
RTVSPost2010Prop30
280
     1
102
RTVSPost2010PropOp30
 70
     1
102
RTVSPost2010Prop31
280
     0
102
RTVSPost2010PropOp31
 70
     1
102
RTVSPost2010Prop32
280
     0
102
RTVSPost2010PropOp32
 70
     1
102
RTVSPost2010Prop33
280
     0
102
RTVSPost2010PropOp33
 70
     1
102
RTVSPost2010Prop34
280
     0
102
RTVSPost2010PropOp34
 70
     1
102
RTVSPost2010Prop35
280
     0
102
RTVSPost2010PropOp35
 70
     1
102
RTVSPost2010Prop36
280
     0
102
RTVSPost2010PropOp36
 70
     1
102
RTVSPost2010Prop37
 90
       50
102
RTVSPost2010PropOp37
 70
     0
102
RTVSPost2010Prop38
140
0.0
102
RTVSPost2010PropOp38
 70
     0
102
RTVSPost2010Prop39
140
1.0
102
RTVSPost2010PropOp39
 70
     0
102
RTVSPost2010Prop40
 90
        0
102
RTVSPost2010PropOp40
 70
     0
102
RTVSPost2010Prop41ColorIndex
 90
       18
102
RTVSPost2010Prop41ColorRGB
 90
        0
102
RTVSPost2010PropOp41
 70
     0
102
RTVSPost2010Prop42
 90
       50
102
RTVSPost2010PropOp42
 70
     0
102
RTVSPost2010Prop43
 90
        3
102
RTVSPost2010PropOp43
 70
     0
102
RTVSPost2010Prop44ColorIndex
 90
        5
102
RTVSPost2010Prop44ColorRGB
 90
      255
102
RTVSPost2010PropOp44
 70
     0
102
RTVSPost2010Prop45
280
     0
102
RTVSPost2010PropOp45
 70
     1
102
RTVSPost2010Prop46
 90
       50
102
RTVSPost2010PropOp46
 70
     0
102
RTVSPost2010Prop47
 90
       50
102
RTVSPost2010PropOp47
 70
     0
102
RTVSPost2010Prop48
 90
       50
102
RTVSPost2010PropOp48
 70
     0
102
RTVSPost2010Prop49
280
     0
102
RTVSPost2010PropOp49
 70
     1
102
RTVSPost2010Prop50
 90
       50
102
RTVSPost2010PropOp50
 70
     0
102
RTVSPost2010Prop51ColorIndex
 90
      256
102
RTVSPost2010Prop51ColorRGB
 90
-16777216
102
RTVSPost2010PropOp51
 70
     0
102
RTVSPost2010Prop52
140
1.0
102
RTVSPost2010PropOp52
 70
     0
102
RTVSPost2010Prop53
 90
        2
102
RTVSPost2010PropOp53
 70
     0
102
RTVSPost2010Prop54
  1
strokes_ogs.tif
102
RTVSPost2010PropOp54
 70
     0
102
RTVSPost2010Prop55
280
     0
102
RTVSPost2010PropOp55
 70
     1
102
RTVSPost2010Prop56
140
1.0
102
RTVSPost2010PropOp56
 70
     0
102
RTVSPost2010Prop57
140
1.0
102
RTVSPost2010PropOp57
 70
     0
102
RTVSPropertyOp0
 70
     0
102
RTVSPropertyOp1
 70
     0
102
RTVSPropertyOp2
 70
     0
102
RTVSPropertyOp3
 70
     0
102
RTVSPropertyOp4
 70
     0
102
RTVSPropertyOp5
 70
     0
102
RTVSPropertyOp6
 70
     0
102
RTVSPropertyOp7
 70
     0
102
RTVSPropertyOp8
 70
     0
102
RTVSPropertyOp9
 70
     0
102
RTVSPropertyOp10
 70
     0
102
RTVSPropertyOp11
 70
     0
102
RTVSPropertyOp12
 70
     0
102
RTVSPropertyOp13
 70
     0
102
RTVSPropertyOp14
 70
     2
102
RTVSPropertyOp15
 70
     0
102
RTVSPropertyOp16
 70
     0
102
RTVSPropertyOp17
 70
     0
102
RTVSPropertyOp18
 70
     0
102
RTVSPropertyOp19
 70
     0
102
RTVSPropertyOp20
 70
     0
102
RTVSPropertyOp21
 70
     0
102
RTVSPropertyOp22
 70
     0
102
RTVSPropertyOp23
 70
     0
102
RTVSPropertyOp24
 70
     0
102
RTVSPropertyOp25
 70
     0
102
RTVSPropertyOp26
 70
     0
102
RTVSPropertyOp27
 70
     0
102
RTVSPropertyOp28
 70
     1
102
RTVSPropertyOp29
 70
     1
102
RTVSPropertyOp30
 70
     1
102
RTVSPropertyOp31
 70
     1
102
RTVSPropertyOp32
 70
     1
102
RTVSPropertyOp33
 70
     1
102
RTVSPropertyOp34
 70
     1
102
RTVSPropertyOp35
 70
     1
102
RTVSPropertyOp36
 70
     1
102
RTVSPropertyOp37
 70
     0
102
RTVSPropertyOp38
 70
     0
102
RTVSPropertyOp39
 70
     0
102
RTVSPropertyOp40
 70
     0
102
RTVSPropertyOp41
 70
     0
102
RTVSPropertyOp42
 70
     0
102
RTVSPropertyOp43
 70
     0
102
RTVSPropertyOp44
 70
     0
102
RTVSPropertyOp45
 70
     1
102
RTVSPropertyOp46
 70
     0
102
RTVSPropertyOp47
 70
     0
102
RTVSPropertyOp48
 70
     0
102
RTVSPropertyOp49
 70
     1
102
RTVSPropertyOp50
 70
     0
102
RTVSPropertyOp51
 70
     0
102
RTVSPropertyOp52
 70
     0
102
RTVSPropertyOp53
 70
     0
102
RTVSPropertyOp54
 70
     0
102
RTVSPropertyOp55
 70
     1
102
RTVSPropertyOp56
 70
     0
102
RTVSPropertyOp57
 70
     0
102
RTVSPropertyOp58
 70
     0
102
RTVSPropertyOp59
 70
     0
102
RTVSPropertyOp60
 70
     0
102
RTVSPropertyOp61
 70
     0
102
RTVSPropertyOp62
 70
     0
  0
XRECORD
  5
558C
102
{ACAD_REACTORS
330
558B
102
}
330
558B
100
AcDbXrecord
280
     1
102
RTVSPost2010Prop28
280
     0
102
RTVSPost2010PropOp28
 70
     1
102
RTVSPost2010Prop29
280
     1
102
RTVSPost2010PropOp29
 70
     1
102
RTVSPost2010Prop30
280
     1
102
RTVSPost2010PropOp30
 70
     1
102
RTVSPost2010Prop31
280
     0
102
RTVSPost2010PropOp31
 70
     1
102
RTVSPost2010Prop32
280
     0
102
RTVSPost2010PropOp32
 70
     1
102
RTVSPost2010Prop33
280
     0
102
RTVSPost2010PropOp33
 70
     1
102
RTVSPost2010Prop34
280
     0
102
RTVSPost2010PropOp34
 70
     1
102
RTVSPost2010Prop35
280
     0
102
RTVSPost2010PropOp35
 70
     1
102
RTVSPost2010Prop36
280
     0
102
RTVSPost2010PropOp36
 70
     1
102
RTVSPost2010Prop37
 90
       50
102
RTVSPost2010PropOp37
 70
     1
102
RTVSPost2010Prop38
140
0.0
102
RTVSPost2010PropOp38
 70
     1
102
RTVSPost2010Prop39
140
1.0
102
RTVSPost2010PropOp39
 70
     1
102
RTVSPost2010Prop40
 90
        0
102
RTVSPost2010PropOp40
 70
     1
102
RTVSPost2010Prop41ColorIndex
 90
       18
102
RTVSPost2010Prop41ColorRGB
 90
        0
102
RTVSPost2010PropOp41
 70
     1
102
RTVSPost2010Prop42
 90
       50
102
RTVSPost2010PropOp42
 70
     1
102
RTVSPost2010Prop43
 90
        3
102
RTVSPost2010PropOp43
 70
     1
102
RTVSPost2010Prop44ColorIndex
 90
        5
102
RTVSPost2010Prop44ColorRGB
 90
      255
102
RTVSPost2010PropOp44
 70
     1
102
RTVSPost2010Prop45
280
     0
102
RTVSPost2010PropOp45
 70
     1
102
RTVSPost2010Prop46
 90
       50
102
RTVSPost2010PropOp46
 70
     1
102
RTVSPost2010Prop47
 90
       50
102
RTVSPost2010PropOp47
 70
     1
102
RTVSPost2010Prop48
 90
       50
102
RTVSPost2010PropOp48
 70
     1
102
RTVSPost2010Prop49
280
     0
102
RTVSPost2010PropOp49
 70
     1
102
RTVSPost2010Prop50
 90
       50
102
RTVSPost2010PropOp50
 70
     1
102
RTVSPost2010Prop51ColorIndex
 90
      256
102
RTVSPost2010Prop51ColorRGB
 90
-16777216
102
RTVSPost2010PropOp51
 70
     0
102
RTVSPost2010Prop52
140
1.0
102
RTVSPost2010PropOp52
 70
     0
102
RTVSPost2010Prop53
 90
        2
102
RTVSPost2010PropOp53
 70
     1
102
RTVSPost2010Prop54
  1
strokes_ogs.tif
102
RTVSPost2010PropOp54
 70
     1
102
RTVSPost2010Prop55
280
     0
102
RTVSPost2010PropOp55
 70
     1
102
RTVSPost2010Prop56
140
1.0
102
RTVSPost2010PropOp56
 70
     1
102
RTVSPost2010Prop57
140
1.0
102
RTVSPost2010PropOp57
 70
     1
102
RTVSPropertyOp0
 70
     1
102
RTVSPropertyOp1
 70
     1
102
RTVSPropertyOp2
 70
     1
102
RTVSPropertyOp3
 70
     1
102
RTVSPropertyOp4
 70
     1
102
RTVSPropertyOp5
 70
     1
102
RTVSPropertyOp6
 70
     1
102
RTVSPropertyOp7
 70
     1
102
RTVSPropertyOp8
 70
     1
102
RTVSPropertyOp9
 70
     1
102
RTVSPropertyOp10
 70
     1
102
RTVSPropertyOp11
 70
     1
102
RTVSPropertyOp12
 70
     1
102
RTVSPropertyOp13
 70
     1
102
RTVSPropertyOp14
 70
     1
102
RTVSPropertyOp15
 70
     1
102
RTVSPropertyOp16
 70
     1
102
RTVSPropertyOp17
 70
     1
102
RTVSPropertyOp18
 70
     1
102
RTVSPropertyOp19
 70
     1
102
RTVSPropertyOp20
 70
     1
102
RTVSPropertyOp21
 70
     1
102
RTVSPropertyOp22
 70
     1
102
RTVSPropertyOp23
 70
     1
102
RTVSPropertyOp24
 70
     1
102
RTVSPropertyOp25
 70
     1
102
RTVSPropertyOp26
 70
     1
102
RTVSPropertyOp27
 70
     1
102
RTVSPropertyOp28
 70
     1
102
RTVSPropertyOp29
 70
     1
102
RTVSPropertyOp30
 70
     1
102
RTVSPropertyOp31
 70
     1
102
RTVSPropertyOp32
 70
     1
102
RTVSPropertyOp33
 70
     1
102
RTVSPropertyOp34
 70
     1
102
RTVSPropertyOp35
 70
     1
102
RTVSPropertyOp36
 70
     1
102
RTVSPropertyOp37
 70
     1
102
RTVSPropertyOp38
 70
     1
102
RTVSPropertyOp39
 70
     1
102
RTVSPropertyOp40
 70
     1
102
RTVSPropertyOp41
 70
     1
102
RTVSPropertyOp42
 70
     1
102
RTVSPropertyOp43
 70
     1
102
RTVSPropertyOp44
 70
     1
102
RTVSPropertyOp45
 70
     1
102
RTVSPropertyOp46
 70
     1
102
RTVSPropertyOp47
 70
     1
102
RTVSPropertyOp48
 70
     1
102
RTVSPropertyOp49
 70
     1
102
RTVSPropertyOp50
 70
     1
102
RTVSPropertyOp51
 70
     0
102
RTVSPropertyOp52
 70
     0
102
RTVSPropertyOp53
 70
     1
102
RTVSPropertyOp54
 70
     1
102
RTVSPropertyOp55
 70
     1
102
RTVSPropertyOp56
 70
     1
102
RTVSPropertyOp57
 70
     1
102
RTVSPropertyOp58
 70
     1
102
RTVSPropertyOp59
 70
     1
102
RTVSPropertyOp60
 70
     1
102
RTVSPropertyOp61
 70
     1
102
RTVSPropertyOp62
 70
     1
  0
XRECORD
  5
55A2
102
{ACAD_REACTORS
330
55A1
102
}
330
55A1
100
AcDbXrecord
280
     1
102
RTVSPost2010Prop28
280
     0
102
RTVSPost2010PropOp28
 70
     1
102
RTVSPost2010Prop29
280
     1
102
RTVSPost2010PropOp29
 70
     1
102
RTVSPost2010Prop30
280
     1
102
RTVSPost2010PropOp30
 70
     1
102
RTVSPost2010Prop31
280
     0
102
RTVSPost2010PropOp31
 70
     1
102
RTVSPost2010Prop32
280
     0
102
RTVSPost2010PropOp32
 70
     1
102
RTVSPost2010Prop33
280
     0
102
RTVSPost2010PropOp33
 70
     1
102
RTVSPost2010Prop34
280
     0
102
RTVSPost2010PropOp34
 70
     1
102
RTVSPost2010Prop35
280
     0
102
RTVSPost2010PropOp35
 70
     1
102
RTVSPost2010Prop36
280
     0
102
RTVSPost2010PropOp36
 70
     1
102
RTVSPost2010Prop37
 90
       50
102
RTVSPost2010PropOp37
 70
     1
102
RTVSPost2010Prop38
140
0.0
102
RTVSPost2010PropOp38
 70
     1
102
RTVSPost2010Prop39
140
1.0
102
RTVSPost2010PropOp39
 70
     1
102
RTVSPost2010Prop40
 90
        0
102
RTVSPost2010PropOp40
 70
     1
102
RTVSPost2010Prop41ColorIndex
 90
       18
102
RTVSPost2010Prop41ColorRGB
 90
        0
102
RTVSPost2010PropOp41
 70
     1
102
RTVSPost2010Prop42
 90
       50
102
RTVSPost2010PropOp42
 70
     1
102
RTVSPost2010Prop43
 90
        3
102
RTVSPost2010PropOp43
 70
     1
102
RTVSPost2010Prop44ColorIndex
 90
        5
102
RTVSPost2010Prop44ColorRGB
 90
      255
102
RTVSPost2010PropOp44
 70
     1
102
RTVSPost2010Prop45
280
     0
102
RTVSPost2010PropOp45
 70
     1
102
RTVSPost2010Prop46
 90
       50
102
RTVSPost2010PropOp46
 70
     1
102
RTVSPost2010Prop47
 90
       50
102
RTVSPost2010PropOp47
 70
     1
102
RTVSPost2010Prop48
 90
       50
102
RTVSPost2010PropOp48
 70
     1
102
RTVSPost2010Prop49
280
     0
102
RTVSPost2010PropOp49
 70
     1
102
RTVSPost2010Prop50
 90
       50
102
RTVSPost2010PropOp50
 70
     1
102
RTVSPost2010Prop51ColorIndex
 90
      256
102
RTVSPost2010Prop51ColorRGB
 90
-16777216
102
RTVSPost2010PropOp51
 70
     0
102
RTVSPost2010Prop52
140
1.0
102
RTVSPost2010PropOp52
 70
     0
102
RTVSPost2010Prop53
 90
        2
102
RTVSPost2010PropOp53
 70
     1
102
RTVSPost2010Prop54
  1
strokes_ogs.tif
102
RTVSPost2010PropOp54
 70
     1
102
RTVSPost2010Prop55
280
     0
102
RTVSPost2010PropOp55
 70
     1
102
RTVSPost2010Prop56
140
1.0
102
RTVSPost2010PropOp56
 70
     1
102
RTVSPost2010Prop57
140
1.0
102
RTVSPost2010PropOp57
 70
     1
102
RTVSPropertyOp0
 70
     1
102
RTVSPropertyOp1
 70
     1
102
RTVSPropertyOp2
 70
     1
102
RTVSPropertyOp3
 70
     1
102
RTVSPropertyOp4
 70
     1
102
RTVSPropertyOp5
 70
     1
102
RTVSPropertyOp6
 70
     1
102
RTVSPropertyOp7
 70
     1
102
RTVSPropertyOp8
 70
     1
102
RTVSPropertyOp9
 70
     1
102
RTVSPropertyOp10
 70
     1
102
RTVSPropertyOp11
 70
     1
102
RTVSPropertyOp12
 70
     1
102
RTVSPropertyOp13
 70
     1
102
RTVSPropertyOp14
 70
     1
102
RTVSPropertyOp15
 70
     1
102
RTVSPropertyOp16
 70
     1
102
RTVSPropertyOp17
 70
     1
102
RTVSPropertyOp18
 70
     1
102
RTVSPropertyOp19
 70
     1
102
RTVSPropertyOp20
 70
     1
102
RTVSPropertyOp21
 70
     1
102
RTVSPropertyOp22
 70
     1
102
RTVSPropertyOp23
 70
     1
102
RTVSPropertyOp24
 70
     1
102
RTVSPropertyOp25
 70
     1
102
RTVSPropertyOp26
 70
     1
102
RTVSPropertyOp27
 70
     1
102
RTVSPropertyOp28
 70
     1
102
RTVSPropertyOp29
 70
     1
102
RTVSPropertyOp30
 70
     1
102
RTVSPropertyOp31
 70
     1
102
RTVSPropertyOp32
 70
     1
102
RTVSPropertyOp33
 70
     1
102
RTVSPropertyOp34
 70
     1
102
RTVSPropertyOp35
 70
     1
102
RTVSPropertyOp36
 70
     1
102
RTVSPropertyOp37
 70
     1
102
RTVSPropertyOp38
 70
     1
102
RTVSPropertyOp39
 70
     1
102
RTVSPropertyOp40
 70
     1
102
RTVSPropertyOp41
 70
     1
102
RTVSPropertyOp42
 70
     1
102
RTVSPropertyOp43
 70
     1
102
RTVSPropertyOp44
 70
     1
102
RTVSPropertyOp45
 70
     1
102
RTVSPropertyOp46
 70
     1
102
RTVSPropertyOp47
 70
     1
102
RTVSPropertyOp48
 70
     1
102
RTVSPropertyOp49
 70
     1
102
RTVSPropertyOp50
 70
     1
102
RTVSPropertyOp51
 70
     0
102
RTVSPropertyOp52
 70
     0
102
RTVSPropertyOp53
 70
     1
102
RTVSPropertyOp54
 70
     1
102
RTVSPropertyOp55
 70
     1
102
RTVSPropertyOp56
 70
     1
102
RTVSPropertyOp57
 70
     1
102
RTVSPropertyOp58
 70
     1
102
RTVSPropertyOp59
 70
     1
102
RTVSPropertyOp60
 70
     1
102
RTVSPropertyOp61
 70
     1
102
RTVSPropertyOp62
 70
     1
  0
XRECORD
  5
55A0
102
{ACAD_REACTORS
330
559F
102
}
330
559F
100
AcDbXrecord
280
     1
102
RTVSPost2010Prop28
280
     0
102
RTVSPost2010PropOp28
 70
     1
102
RTVSPost2010Prop29
280
     1
102
RTVSPost2010PropOp29
 70
     1
102
RTVSPost2010Prop30
280
     1
102
RTVSPost2010PropOp30
 70
     1
102
RTVSPost2010Prop31
280
     0
102
RTVSPost2010PropOp31
 70
     1
102
RTVSPost2010Prop32
280
     0
102
RTVSPost2010PropOp32
 70
     1
102
RTVSPost2010Prop33
280
     0
102
RTVSPost2010PropOp33
 70
     1
102
RTVSPost2010Prop34
280
     0
102
RTVSPost2010PropOp34
 70
     1
102
RTVSPost2010Prop35
280
     0
102
RTVSPost2010PropOp35
 70
     1
102
RTVSPost2010Prop36
280
     0
102
RTVSPost2010PropOp36
 70
     1
102
RTVSPost2010Prop37
 90
       50
102
RTVSPost2010PropOp37
 70
     1
102
RTVSPost2010Prop38
140
0.0
102
RTVSPost2010PropOp38
 70
     1
102
RTVSPost2010Prop39
140
1.0
102
RTVSPost2010PropOp39
 70
     1
102
RTVSPost2010Prop40
 90
        0
102
RTVSPost2010PropOp40
 70
     1
102
RTVSPost2010Prop41ColorIndex
 90
       18
102
RTVSPost2010Prop41ColorRGB
 90
        0
102
RTVSPost2010PropOp41
 70
     1
102
RTVSPost2010Prop42
 90
       50
102
RTVSPost2010PropOp42
 70
     1
102
RTVSPost2010Prop43
 90
        3
102
RTVSPost2010PropOp43
 70
     1
102
RTVSPost2010Prop44ColorIndex
 90
        5
102
RTVSPost2010Prop44ColorRGB
 90
      255
102
RTVSPost2010PropOp44
 70
     1
102
RTVSPost2010Prop45
280
     0
102
RTVSPost2010PropOp45
 70
     1
102
RTVSPost2010Prop46
 90
       50
102
RTVSPost2010PropOp46
 70
     1
102
RTVSPost2010Prop47
 90
       50
102
RTVSPost2010PropOp47
 70
     1
102
RTVSPost2010Prop48
 90
       50
102
RTVSPost2010PropOp48
 70
     1
102
RTVSPost2010Prop49
280
     0
102
RTVSPost2010PropOp49
 70
     1
102
RTVSPost2010Prop50
 90
       50
102
RTVSPost2010PropOp50
 70
     1
102
RTVSPost2010Prop51ColorIndex
 90
      256
102
RTVSPost2010Prop51ColorRGB
 90
-16777216
102
RTVSPost2010PropOp51
 70
     0
102
RTVSPost2010Prop52
140
1.0
102
RTVSPost2010PropOp52
 70
     0
102
RTVSPost2010Prop53
 90
        2
102
RTVSPost2010PropOp53
 70
     1
102
RTVSPost2010Prop54
  1
strokes_ogs.tif
102
RTVSPost2010PropOp54
 70
     1
102
RTVSPost2010Prop55
280
     0
102
RTVSPost2010PropOp55
 70
     1
102
RTVSPost2010Prop56
140
1.0
102
RTVSPost2010PropOp56
 70
     1
102
RTVSPost2010Prop57
140
1.0
102
RTVSPost2010PropOp57
 70
     1
102
RTVSPropertyOp0
 70
     1
102
RTVSPropertyOp1
 70
     1
102
RTVSPropertyOp2
 70
     1
102
RTVSPropertyOp3
 70
     1
102
RTVSPropertyOp4
 70
     1
102
RTVSPropertyOp5
 70
     1
102
RTVSPropertyOp6
 70
     1
102
RTVSPropertyOp7
 70
     1
102
RTVSPropertyOp8
 70
     1
102
RTVSPropertyOp9
 70
     1
102
RTVSPropertyOp10
 70
     1
102
RTVSPropertyOp11
 70
     1
102
RTVSPropertyOp12
 70
     1
102
RTVSPropertyOp13
 70
     1
102
RTVSPropertyOp14
 70
     1
102
RTVSPropertyOp15
 70
     1
102
RTVSPropertyOp16
 70
     1
102
RTVSPropertyOp17
 70
     1
102
RTVSPropertyOp18
 70
     1
102
RTVSPropertyOp19
 70
     1
102
RTVSPropertyOp20
 70
     1
102
RTVSPropertyOp21
 70
     1
102
RTVSPropertyOp22
 70
     1
102
RTVSPropertyOp23
 70
     1
102
RTVSPropertyOp24
 70
     1
102
RTVSPropertyOp25
 70
     1
102
RTVSPropertyOp26
 70
     1
102
RTVSPropertyOp27
 70
     1
102
RTVSPropertyOp28
 70
     1
102
RTVSPropertyOp29
 70
     1
102
RTVSPropertyOp30
 70
     1
102
RTVSPropertyOp31
 70
     1
102
RTVSPropertyOp32
 70
     1
102
RTVSPropertyOp33
 70
     1
102
RTVSPropertyOp34
 70
     1
102
RTVSPropertyOp35
 70
     1
102
RTVSPropertyOp36
 70
     1
102
RTVSPropertyOp37
 70
     1
102
RTVSPropertyOp38
 70
     1
102
RTVSPropertyOp39
 70
     1
102
RTVSPropertyOp40
 70
     1
102
RTVSPropertyOp41
 70
     1
102
RTVSPropertyOp42
 70
     1
102
RTVSPropertyOp43
 70
     1
102
RTVSPropertyOp44
 70
     1
102
RTVSPropertyOp45
 70
     1
102
RTVSPropertyOp46
 70
     1
102
RTVSPropertyOp47
 70
     1
102
RTVSPropertyOp48
 70
     1
102
RTVSPropertyOp49
 70
     1
102
RTVSPropertyOp50
 70
     1
102
RTVSPropertyOp51
 70
     0
102
RTVSPropertyOp52
 70
     0
102
RTVSPropertyOp53
 70
     1
102
RTVSPropertyOp54
 70
     1
102
RTVSPropertyOp55
 70
     1
102
RTVSPropertyOp56
 70
     1
102
RTVSPropertyOp57
 70
     1
102
RTVSPropertyOp58
 70
     1
102
RTVSPropertyOp59
 70
     1
102
RTVSPropertyOp60
 70
     1
102
RTVSPropertyOp61
 70
     1
102
RTVSPropertyOp62
 70
     1
  0
XRECORD
  5
559A
102
{ACAD_REACTORS
330
5599
102
}
330
5599
100
AcDbXrecord
280
     1
102
RTVSPost2010Prop28
280
     0
102
RTVSPost2010PropOp28
 70
     1
102
RTVSPost2010Prop29
280
     1
102
RTVSPost2010PropOp29
 70
     1
102
RTVSPost2010Prop30
280
     1
102
RTVSPost2010PropOp30
 70
     1
102
RTVSPost2010Prop31
280
     0
102
RTVSPost2010PropOp31
 70
     1
102
RTVSPost2010Prop32
280
     0
102
RTVSPost2010PropOp32
 70
     1
102
RTVSPost2010Prop33
280
     0
102
RTVSPost2010PropOp33
 70
     1
102
RTVSPost2010Prop34
280
     0
102
RTVSPost2010PropOp34
 70
     1
102
RTVSPost2010Prop35
280
     0
102
RTVSPost2010PropOp35
 70
     1
102
RTVSPost2010Prop36
280
     0
102
RTVSPost2010PropOp36
 70
     1
102
RTVSPost2010Prop37
 90
       50
102
RTVSPost2010PropOp37
 70
     1
102
RTVSPost2010Prop38
140
0.0
102
RTVSPost2010PropOp38
 70
     1
102
RTVSPost2010Prop39
140
1.0
102
RTVSPost2010PropOp39
 70
     1
102
RTVSPost2010Prop40
 90
        0
102
RTVSPost2010PropOp40
 70
     1
102
RTVSPost2010Prop41ColorIndex
 90
       18
102
RTVSPost2010Prop41ColorRGB
 90
        0
102
RTVSPost2010PropOp41
 70
     1
102
RTVSPost2010Prop42
 90
       50
102
RTVSPost2010PropOp42
 70
     1
102
RTVSPost2010Prop43
 90
        3
102
RTVSPost2010PropOp43
 70
     1
102
RTVSPost2010Prop44ColorIndex
 90
        5
102
RTVSPost2010Prop44ColorRGB
 90
      255
102
RTVSPost2010PropOp44
 70
     1
102
RTVSPost2010Prop45
280
     0
102
RTVSPost2010PropOp45
 70
     1
102
RTVSPost2010Prop46
 90
       50
102
RTVSPost2010PropOp46
 70
     1
102
RTVSPost2010Prop47
 90
       50
102
RTVSPost2010PropOp47
 70
     1
102
RTVSPost2010Prop48
 90
       50
102
RTVSPost2010PropOp48
 70
     1
102
RTVSPost2010Prop49
280
     0
102
RTVSPost2010PropOp49
 70
     1
102
RTVSPost2010Prop50
 90
       50
102
RTVSPost2010PropOp50
 70
     1
102
RTVSPost2010Prop51ColorIndex
 90
      256
102
RTVSPost2010Prop51ColorRGB
 90
-16777216
102
RTVSPost2010PropOp51
 70
     0
102
RTVSPost2010Prop52
140
1.0
102
RTVSPost2010PropOp52
 70
     0
102
RTVSPost2010Prop53
 90
        2
102
RTVSPost2010PropOp53
 70
     1
102
RTVSPost2010Prop54
  1
strokes_ogs.tif
102
RTVSPost2010PropOp54
 70
     1
102
RTVSPost2010Prop55
280
     0
102
RTVSPost2010PropOp55
 70
     1
102
RTVSPost2010Prop56
140
1.0
102
RTVSPost2010PropOp56
 70
     1
102
RTVSPost2010Prop57
140
1.0
102
RTVSPost2010PropOp57
 70
     1
102
RTVSPropertyOp0
 70
     1
102
RTVSPropertyOp1
 70
     1
102
RTVSPropertyOp2
 70
     1
102
RTVSPropertyOp3
 70
     1
102
RTVSPropertyOp4
 70
     1
102
RTVSPropertyOp5
 70
     1
102
RTVSPropertyOp6
 70
     1
102
RTVSPropertyOp7
 70
     1
102
RTVSPropertyOp8
 70
     1
102
RTVSPropertyOp9
 70
     1
102
RTVSPropertyOp10
 70
     1
102
RTVSPropertyOp11
 70
     1
102
RTVSPropertyOp12
 70
     1
102
RTVSPropertyOp13
 70
     1
102
RTVSPropertyOp14
 70
     1
102
RTVSPropertyOp15
 70
     1
102
RTVSPropertyOp16
 70
     1
102
RTVSPropertyOp17
 70
     1
102
RTVSPropertyOp18
 70
     1
102
RTVSPropertyOp19
 70
     1
102
RTVSPropertyOp20
 70
     1
102
RTVSPropertyOp21
 70
     1
102
RTVSPropertyOp22
 70
     1
102
RTVSPropertyOp23
 70
     1
102
RTVSPropertyOp24
 70
     1
102
RTVSPropertyOp25
 70
     1
102
RTVSPropertyOp26
 70
     1
102
RTVSPropertyOp27
 70
     1
102
RTVSPropertyOp28
 70
     1
102
RTVSPropertyOp29
 70
     1
102
RTVSPropertyOp30
 70
     1
102
RTVSPropertyOp31
 70
     1
102
RTVSPropertyOp32
 70
     1
102
RTVSPropertyOp33
 70
     1
102
RTVSPropertyOp34
 70
     1
102
RTVSPropertyOp35
 70
     1
102
RTVSPropertyOp36
 70
     1
102
RTVSPropertyOp37
 70
     1
102
RTVSPropertyOp38
 70
     1
102
RTVSPropertyOp39
 70
     1
102
RTVSPropertyOp40
 70
     1
102
RTVSPropertyOp41
 70
     1
102
RTVSPropertyOp42
 70
     1
102
RTVSPropertyOp43
 70
     1
102
RTVSPropertyOp44
 70
     1
102
RTVSPropertyOp45
 70
     1
102
RTVSPropertyOp46
 70
     1
102
RTVSPropertyOp47
 70
     1
102
RTVSPropertyOp48
 70
     1
102
RTVSPropertyOp49
 70
     1
102
RTVSPropertyOp50
 70
     1
102
RTVSPropertyOp51
 70
     0
102
RTVSPropertyOp52
 70
     0
102
RTVSPropertyOp53
 70
     1
102
RTVSPropertyOp54
 70
     1
102
RTVSPropertyOp55
 70
     1
102
RTVSPropertyOp56
 70
     1
102
RTVSPropertyOp57
 70
     1
102
RTVSPropertyOp58
 70
     1
102
RTVSPropertyOp59
 70
     1
102
RTVSPropertyOp60
 70
     1
102
RTVSPropertyOp61
 70
     1
102
RTVSPropertyOp62
 70
     1
  0
XRECORD
  5
559C
102
{ACAD_REACTORS
330
559B
102
}
330
559B
100
AcDbXrecord
280
     1
102
RTVSPost2010Prop28
280
     0
102
RTVSPost2010PropOp28
 70
     1
102
RTVSPost2010Prop29
280
     1
102
RTVSPost2010PropOp29
 70
     1
102
RTVSPost2010Prop30
280
     1
102
RTVSPost2010PropOp30
 70
     1
102
RTVSPost2010Prop31
280
     0
102
RTVSPost2010PropOp31
 70
     1
102
RTVSPost2010Prop32
280
     0
102
RTVSPost2010PropOp32
 70
     1
102
RTVSPost2010Prop33
280
     0
102
RTVSPost2010PropOp33
 70
     1
102
RTVSPost2010Prop34
280
     0
102
RTVSPost2010PropOp34
 70
     1
102
RTVSPost2010Prop35
280
     0
102
RTVSPost2010PropOp35
 70
     1
102
RTVSPost2010Prop36
280
     0
102
RTVSPost2010PropOp36
 70
     1
102
RTVSPost2010Prop37
 90
       50
102
RTVSPost2010PropOp37
 70
     1
102
RTVSPost2010Prop38
140
0.0
102
RTVSPost2010PropOp38
 70
     1
102
RTVSPost2010Prop39
140
1.0
102
RTVSPost2010PropOp39
 70
     1
102
RTVSPost2010Prop40
 90
        0
102
RTVSPost2010PropOp40
 70
     1
102
RTVSPost2010Prop41ColorIndex
 90
       18
102
RTVSPost2010Prop41ColorRGB
 90
        0
102
RTVSPost2010PropOp41
 70
     1
102
RTVSPost2010Prop42
 90
       50
102
RTVSPost2010PropOp42
 70
     1
102
RTVSPost2010Prop43
 90
        3
102
RTVSPost2010PropOp43
 70
     1
102
RTVSPost2010Prop44ColorIndex
 90
        5
102
RTVSPost2010Prop44ColorRGB
 90
      255
102
RTVSPost2010PropOp44
 70
     1
102
RTVSPost2010Prop45
280
     0
102
RTVSPost2010PropOp45
 70
     1
102
RTVSPost2010Prop46
 90
       50
102
RTVSPost2010PropOp46
 70
     1
102
RTVSPost2010Prop47
 90
       50
102
RTVSPost2010PropOp47
 70
     1
102
RTVSPost2010Prop48
 90
       50
102
RTVSPost2010PropOp48
 70
     1
102
RTVSPost2010Prop49
280
     0
102
RTVSPost2010PropOp49
 70
     1
102
RTVSPost2010Prop50
 90
       50
102
RTVSPost2010PropOp50
 70
     1
102
RTVSPost2010Prop51ColorIndex
 90
      256
102
RTVSPost2010Prop51ColorRGB
 90
-16777216
102
RTVSPost2010PropOp51
 70
     0
102
RTVSPost2010Prop52
140
1.0
102
RTVSPost2010PropOp52
 70
     0
102
RTVSPost2010Prop53
 90
        2
102
RTVSPost2010PropOp53
 70
     1
102
RTVSPost2010Prop54
  1
strokes_ogs.tif
102
RTVSPost2010PropOp54
 70
     1
102
RTVSPost2010Prop55
280
     0
102
RTVSPost2010PropOp55
 70
     1
102
RTVSPost2010Prop56
140
1.0
102
RTVSPost2010PropOp56
 70
     1
102
RTVSPost2010Prop57
140
1.0
102
RTVSPost2010PropOp57
 70
     1
102
RTVSPropertyOp0
 70
     1
102
RTVSPropertyOp1
 70
     1
102
RTVSPropertyOp2
 70
     1
102
RTVSPropertyOp3
 70
     1
102
RTVSPropertyOp4
 70
     1
102
RTVSPropertyOp5
 70
     1
102
RTVSPropertyOp6
 70
     1
102
RTVSPropertyOp7
 70
     1
102
RTVSPropertyOp8
 70
     1
102
RTVSPropertyOp9
 70
     1
102
RTVSPropertyOp10
 70
     1
102
RTVSPropertyOp11
 70
     1
102
RTVSPropertyOp12
 70
     1
102
RTVSPropertyOp13
 70
     1
102
RTVSPropertyOp14
 70
     1
102
RTVSPropertyOp15
 70
     1
102
RTVSPropertyOp16
 70
     1
102
RTVSPropertyOp17
 70
     1
102
RTVSPropertyOp18
 70
     1
102
RTVSPropertyOp19
 70
     1
102
RTVSPropertyOp20
 70
     1
102
RTVSPropertyOp21
 70
     1
102
RTVSPropertyOp22
 70
     1
102
RTVSPropertyOp23
 70
     1
102
RTVSPropertyOp24
 70
     1
102
RTVSPropertyOp25
 70
     1
102
RTVSPropertyOp26
 70
     1
102
RTVSPropertyOp27
 70
     1
102
RTVSPropertyOp28
 70
     1
102
RTVSPropertyOp29
 70
     1
102
RTVSPropertyOp30
 70
     1
102
RTVSPropertyOp31
 70
     1
102
RTVSPropertyOp32
 70
     1
102
RTVSPropertyOp33
 70
     1
102
RTVSPropertyOp34
 70
     1
102
RTVSPropertyOp35
 70
     1
102
RTVSPropertyOp36
 70
     1
102
RTVSPropertyOp37
 70
     1
102
RTVSPropertyOp38
 70
     1
102
RTVSPropertyOp39
 70
     1
102
RTVSPropertyOp40
 70
     1
102
RTVSPropertyOp41
 70
     1
102
RTVSPropertyOp42
 70
     1
102
RTVSPropertyOp43
 70
     1
102
RTVSPropertyOp44
 70
     1
102
RTVSPropertyOp45
 70
     1
102
RTVSPropertyOp46
 70
     1
102
RTVSPropertyOp47
 70
     1
102
RTVSPropertyOp48
 70
     1
102
RTVSPropertyOp49
 70
     1
102
RTVSPropertyOp50
 70
     1
102
RTVSPropertyOp51
 70
     0
102
RTVSPropertyOp52
 70
     0
102
RTVSPropertyOp53
 70
     1
102
RTVSPropertyOp54
 70
     1
102
RTVSPropertyOp55
 70
     1
102
RTVSPropertyOp56
 70
     1
102
RTVSPropertyOp57
 70
     1
102
RTVSPropertyOp58
 70
     1
102
RTVSPropertyOp59
 70
     1
102
RTVSPropertyOp60
 70
     1
102
RTVSPropertyOp61
 70
     1
102
RTVSPropertyOp62
 70
     1
  0
XRECORD
  5
5592
102
{ACAD_REACTORS
330
5591
102
}
330
5591
100
AcDbXrecord
280
     1
102
RTVSPost2010Prop28
280
     0
102
RTVSPost2010PropOp28
 70
     1
102
RTVSPost2010Prop29
280
     1
102
RTVSPost2010PropOp29
 70
     1
102
RTVSPost2010Prop30
280
     1
102
RTVSPost2010PropOp30
 70
     1
102
RTVSPost2010Prop31
280
     0
102
RTVSPost2010PropOp31
 70
     1
102
RTVSPost2010Prop32
280
     0
102
RTVSPost2010PropOp32
 70
     1
102
RTVSPost2010Prop33
280
     0
102
RTVSPost2010PropOp33
 70
     1
102
RTVSPost2010Prop34
280
     0
102
RTVSPost2010PropOp34
 70
     1
102
RTVSPost2010Prop35
280
     0
102
RTVSPost2010PropOp35
 70
     1
102
RTVSPost2010Prop36
280
     0
102
RTVSPost2010PropOp36
 70
     1
102
RTVSPost2010Prop37
 90
       50
102
RTVSPost2010PropOp37
 70
     1
102
RTVSPost2010Prop38
140
0.0
102
RTVSPost2010PropOp38
 70
     1
102
RTVSPost2010Prop39
140
1.0
102
RTVSPost2010PropOp39
 70
     1
102
RTVSPost2010Prop40
 90
        0
102
RTVSPost2010PropOp40
 70
     1
102
RTVSPost2010Prop41ColorIndex
 90
       18
102
RTVSPost2010Prop41ColorRGB
 90
        0
102
RTVSPost2010PropOp41
 70
     1
102
RTVSPost2010Prop42
 90
       50
102
RTVSPost2010PropOp42
 70
     1
102
RTVSPost2010Prop43
 90
        3
102
RTVSPost2010PropOp43
 70
     1
102
RTVSPost2010Prop44ColorIndex
 90
        5
102
RTVSPost2010Prop44ColorRGB
 90
      255
102
RTVSPost2010PropOp44
 70
     1
102
RTVSPost2010Prop45
280
     0
102
RTVSPost2010PropOp45
 70
     1
102
RTVSPost2010Prop46
 90
       50
102
RTVSPost2010PropOp46
 70
     1
102
RTVSPost2010Prop47
 90
       50
102
RTVSPost2010PropOp47
 70
     1
102
RTVSPost2010Prop48
 90
       50
102
RTVSPost2010PropOp48
 70
     1
102
RTVSPost2010Prop49
280
     0
102
RTVSPost2010PropOp49
 70
     1
102
RTVSPost2010Prop50
 90
       50
102
RTVSPost2010PropOp50
 70
     1
102
RTVSPost2010Prop51ColorIndex
 90
      256
102
RTVSPost2010Prop51ColorRGB
 90
-16777216
102
RTVSPost2010PropOp51
 70
     0
102
RTVSPost2010Prop52
140
1.0
102
RTVSPost2010PropOp52
 70
     0
102
RTVSPost2010Prop53
 90
        2
102
RTVSPost2010PropOp53
 70
     1
102
RTVSPost2010Prop54
  1
strokes_ogs.tif
102
RTVSPost2010PropOp54
 70
     1
102
RTVSPost2010Prop55
280
     0
102
RTVSPost2010PropOp55
 70
     1
102
RTVSPost2010Prop56
140
1.0
102
RTVSPost2010PropOp56
 70
     1
102
RTVSPost2010Prop57
140
1.0
102
RTVSPost2010PropOp57
 70
     1
102
RTVSPropertyOp0
 70
     1
102
RTVSPropertyOp1
 70
     1
102
RTVSPropertyOp2
 70
     1
102
RTVSPropertyOp3
 70
     1
102
RTVSPropertyOp4
 70
     1
102
RTVSPropertyOp5
 70
     1
102
RTVSPropertyOp6
 70
     1
102
RTVSPropertyOp7
 70
     1
102
RTVSPropertyOp8
 70
     1
102
RTVSPropertyOp9
 70
     1
102
RTVSPropertyOp10
 70
     1
102
RTVSPropertyOp11
 70
     1
102
RTVSPropertyOp12
 70
     1
102
RTVSPropertyOp13
 70
     1
102
RTVSPropertyOp14
 70
     1
102
RTVSPropertyOp15
 70
     1
102
RTVSPropertyOp16
 70
     1
102
RTVSPropertyOp17
 70
     1
102
RTVSPropertyOp18
 70
     1
102
RTVSPropertyOp19
 70
     1
102
RTVSPropertyOp20
 70
     1
102
RTVSPropertyOp21
 70
     1
102
RTVSPropertyOp22
 70
     1
102
RTVSPropertyOp23
 70
     1
102
RTVSPropertyOp24
 70
     1
102
RTVSPropertyOp25
 70
     1
102
RTVSPropertyOp26
 70
     1
102
RTVSPropertyOp27
 70
     1
102
RTVSPropertyOp28
 70
     1
102
RTVSPropertyOp29
 70
     1
102
RTVSPropertyOp30
 70
     1
102
RTVSPropertyOp31
 70
     1
102
RTVSPropertyOp32
 70
     1
102
RTVSPropertyOp33
 70
     1
102
RTVSPropertyOp34
 70
     1
102
RTVSPropertyOp35
 70
     1
102
RTVSPropertyOp36
 70
     1
102
RTVSPropertyOp37
 70
     1
102
RTVSPropertyOp38
 70
     1
102
RTVSPropertyOp39
 70
     1
102
RTVSPropertyOp40
 70
     1
102
RTVSPropertyOp41
 70
     1
102
RTVSPropertyOp42
 70
     1
102
RTVSPropertyOp43
 70
     1
102
RTVSPropertyOp44
 70
     1
102
RTVSPropertyOp45
 70
     1
102
RTVSPropertyOp46
 70
     1
102
RTVSPropertyOp47
 70
     1
102
RTVSPropertyOp48
 70
     1
102
RTVSPropertyOp49
 70
     1
102
RTVSPropertyOp50
 70
     1
102
RTVSPropertyOp51
 70
     0
102
RTVSPropertyOp52
 70
     0
102
RTVSPropertyOp53
 70
     1
102
RTVSPropertyOp54
 70
     1
102
RTVSPropertyOp55
 70
     1
102
RTVSPropertyOp56
 70
     1
102
RTVSPropertyOp57
 70
     1
102
RTVSPropertyOp58
 70
     1
102
RTVSPropertyOp59
 70
     1
102
RTVSPropertyOp60
 70
     1
102
RTVSPropertyOp61
 70
     1
102
RTVSPropertyOp62
 70
     1
  0
XRECORD
  5
5586
102
{ACAD_REACTORS
330
5585
102
}
330
5585
100
AcDbXrecord
280
     1
102
RTVSPost2010Prop28
280
     0
102
RTVSPost2010PropOp28
 70
     1
102
RTVSPost2010Prop29
280
     1
102
RTVSPost2010PropOp29
 70
     1
102
RTVSPost2010Prop30
280
     1
102
RTVSPost2010PropOp30
 70
     1
102
RTVSPost2010Prop31
280
     0
102
RTVSPost2010PropOp31
 70
     1
102
RTVSPost2010Prop32
280
     0
102
RTVSPost2010PropOp32
 70
     1
102
RTVSPost2010Prop33
280
     0
102
RTVSPost2010PropOp33
 70
     1
102
RTVSPost2010Prop34
280
     0
102
RTVSPost2010PropOp34
 70
     1
102
RTVSPost2010Prop35
280
     0
102
RTVSPost2010PropOp35
 70
     1
102
RTVSPost2010Prop36
280
     0
102
RTVSPost2010PropOp36
 70
     1
102
RTVSPost2010Prop37
 90
       50
102
RTVSPost2010PropOp37
 70
     1
102
RTVSPost2010Prop38
140
0.0
102
RTVSPost2010PropOp38
 70
     1
102
RTVSPost2010Prop39
140
1.0
102
RTVSPost2010PropOp39
 70
     1
102
RTVSPost2010Prop40
 90
        0
102
RTVSPost2010PropOp40
 70
     1
102
RTVSPost2010Prop41ColorIndex
 90
       18
102
RTVSPost2010Prop41ColorRGB
 90
        0
102
RTVSPost2010PropOp41
 70
     1
102
RTVSPost2010Prop42
 90
       50
102
RTVSPost2010PropOp42
 70
     1
102
RTVSPost2010Prop43
 90
        3
102
RTVSPost2010PropOp43
 70
     1
102
RTVSPost2010Prop44ColorIndex
 90
        5
102
RTVSPost2010Prop44ColorRGB
 90
      255
102
RTVSPost2010PropOp44
 70
     1
102
RTVSPost2010Prop45
280
     0
102
RTVSPost2010PropOp45
 70
     1
102
RTVSPost2010Prop46
 90
       50
102
RTVSPost2010PropOp46
 70
     1
102
RTVSPost2010Prop47
 90
       50
102
RTVSPost2010PropOp47
 70
     1
102
RTVSPost2010Prop48
 90
       50
102
RTVSPost2010PropOp48
 70
     1
102
RTVSPost2010Prop49
280
     0
102
RTVSPost2010PropOp49
 70
     1
102
RTVSPost2010Prop50
 90
       50
102
RTVSPost2010PropOp50
 70
     1
102
RTVSPost2010Prop51ColorIndex
 90
      256
102
RTVSPost2010Prop51ColorRGB
 90
-16777216
102
RTVSPost2010PropOp51
 70
     0
102
RTVSPost2010Prop52
140
1.0
102
RTVSPost2010PropOp52
 70
     0
102
RTVSPost2010Prop53
 90
        2
102
RTVSPost2010PropOp53
 70
     1
102
RTVSPost2010Prop54
  1
strokes_ogs.tif
102
RTVSPost2010PropOp54
 70
     1
102
RTVSPost2010Prop55
280
     0
102
RTVSPost2010PropOp55
 70
     1
102
RTVSPost2010Prop56
140
1.0
102
RTVSPost2010PropOp56
 70
     1
102
RTVSPost2010Prop57
140
1.0
102
RTVSPost2010PropOp57
 70
     1
102
RTVSPropertyOp0
 70
     1
102
RTVSPropertyOp1
 70
     1
102
RTVSPropertyOp2
 70
     1
102
RTVSPropertyOp3
 70
     1
102
RTVSPropertyOp4
 70
     1
102
RTVSPropertyOp5
 70
     1
102
RTVSPropertyOp6
 70
     1
102
RTVSPropertyOp7
 70
     1
102
RTVSPropertyOp8
 70
     1
102
RTVSPropertyOp9
 70
     1
102
RTVSPropertyOp10
 70
     1
102
RTVSPropertyOp11
 70
     1
102
RTVSPropertyOp12
 70
     1
102
RTVSPropertyOp13
 70
     1
102
RTVSPropertyOp14
 70
     1
102
RTVSPropertyOp15
 70
     1
102
RTVSPropertyOp16
 70
     1
102
RTVSPropertyOp17
 70
     1
102
RTVSPropertyOp18
 70
     1
102
RTVSPropertyOp19
 70
     1
102
RTVSPropertyOp20
 70
     1
102
RTVSPropertyOp21
 70
     1
102
RTVSPropertyOp22
 70
     1
102
RTVSPropertyOp23
 70
     1
102
RTVSPropertyOp24
 70
     1
102
RTVSPropertyOp25
 70
     1
102
RTVSPropertyOp26
 70
     1
102
RTVSPropertyOp27
 70
     1
102
RTVSPropertyOp28
 70
     1
102
RTVSPropertyOp29
 70
     1
102
RTVSPropertyOp30
 70
     1
102
RTVSPropertyOp31
 70
     1
102
RTVSPropertyOp32
 70
     1
102
RTVSPropertyOp33
 70
     1
102
RTVSPropertyOp34
 70
     1
102
RTVSPropertyOp35
 70
     1
102
RTVSPropertyOp36
 70
     1
102
RTVSPropertyOp37
 70
     1
102
RTVSPropertyOp38
 70
     1
102
RTVSPropertyOp39
 70
     1
102
RTVSPropertyOp40
 70
     1
102
RTVSPropertyOp41
 70
     1
102
RTVSPropertyOp42
 70
     1
102
RTVSPropertyOp43
 70
     1
102
RTVSPropertyOp44
 70
     1
102
RTVSPropertyOp45
 70
     1
102
RTVSPropertyOp46
 70
     1
102
RTVSPropertyOp47
 70
     1
102
RTVSPropertyOp48
 70
     1
102
RTVSPropertyOp49
 70
     1
102
RTVSPropertyOp50
 70
     1
102
RTVSPropertyOp51
 70
     0
102
RTVSPropertyOp52
 70
     0
102
RTVSPropertyOp53
 70
     1
102
RTVSPropertyOp54
 70
     1
102
RTVSPropertyOp55
 70
     1
102
RTVSPropertyOp56
 70
     1
102
RTVSPropertyOp57
 70
     1
102
RTVSPropertyOp58
 70
     1
102
RTVSPropertyOp59
 70
     1
102
RTVSPropertyOp60
 70
     1
102
RTVSPropertyOp61
 70
     1
102
RTVSPropertyOp62
 70
     1
  0
XRECORD
  5
559E
102
{ACAD_REACTORS
330
559D
102
}
330
559D
100
AcDbXrecord
280
     1
102
RTVSPost2010Prop28
280
     0
102
RTVSPost2010PropOp28
 70
     1
102
RTVSPost2010Prop29
280
     1
102
RTVSPost2010PropOp29
 70
     1
102
RTVSPost2010Prop30
280
     1
102
RTVSPost2010PropOp30
 70
     1
102
RTVSPost2010Prop31
280
     0
102
RTVSPost2010PropOp31
 70
     1
102
RTVSPost2010Prop32
280
     0
102
RTVSPost2010PropOp32
 70
     1
102
RTVSPost2010Prop33
280
     0
102
RTVSPost2010PropOp33
 70
     1
102
RTVSPost2010Prop34
280
     0
102
RTVSPost2010PropOp34
 70
     1
102
RTVSPost2010Prop35
280
     0
102
RTVSPost2010PropOp35
 70
     1
102
RTVSPost2010Prop36
280
     0
102
RTVSPost2010PropOp36
 70
     1
102
RTVSPost2010Prop37
 90
       50
102
RTVSPost2010PropOp37
 70
     1
102
RTVSPost2010Prop38
140
0.0
102
RTVSPost2010PropOp38
 70
     1
102
RTVSPost2010Prop39
140
1.0
102
RTVSPost2010PropOp39
 70
     1
102
RTVSPost2010Prop40
 90
        0
102
RTVSPost2010PropOp40
 70
     1
102
RTVSPost2010Prop41ColorIndex
 90
       18
102
RTVSPost2010Prop41ColorRGB
 90
        0
102
RTVSPost2010PropOp41
 70
     1
102
RTVSPost2010Prop42
 90
       50
102
RTVSPost2010PropOp42
 70
     1
102
RTVSPost2010Prop43
 90
        3
102
RTVSPost2010PropOp43
 70
     1
102
RTVSPost2010Prop44ColorIndex
 90
        5
102
RTVSPost2010Prop44ColorRGB
 90
      255
102
RTVSPost2010PropOp44
 70
     1
102
RTVSPost2010Prop45
280
     0
102
RTVSPost2010PropOp45
 70
     1
102
RTVSPost2010Prop46
 90
       50
102
RTVSPost2010PropOp46
 70
     1
102
RTVSPost2010Prop47
 90
       50
102
RTVSPost2010PropOp47
 70
     1
102
RTVSPost2010Prop48
 90
       50
102
RTVSPost2010PropOp48
 70
     1
102
RTVSPost2010Prop49
280
     0
102
RTVSPost2010PropOp49
 70
     1
102
RTVSPost2010Prop50
 90
       50
102
RTVSPost2010PropOp50
 70
     1
102
RTVSPost2010Prop51ColorIndex
 90
      256
102
RTVSPost2010Prop51ColorRGB
 90
-16777216
102
RTVSPost2010PropOp51
 70
     0
102
RTVSPost2010Prop52
140
1.0
102
RTVSPost2010PropOp52
 70
     0
102
RTVSPost2010Prop53
 90
        2
102
RTVSPost2010PropOp53
 70
     1
102
RTVSPost2010Prop54
  1
strokes_ogs.tif
102
RTVSPost2010PropOp54
 70
     1
102
RTVSPost2010Prop55
280
     0
102
RTVSPost2010PropOp55
 70
     1
102
RTVSPost2010Prop56
140
1.0
102
RTVSPost2010PropOp56
 70
     1
102
RTVSPost2010Prop57
140
1.0
102
RTVSPost2010PropOp57
 70
     1
102
RTVSPropertyOp0
 70
     1
102
RTVSPropertyOp1
 70
     1
102
RTVSPropertyOp2
 70
     1
102
RTVSPropertyOp3
 70
     1
102
RTVSPropertyOp4
 70
     1
102
RTVSPropertyOp5
 70
     1
102
RTVSPropertyOp6
 70
     1
102
RTVSPropertyOp7
 70
     1
102
RTVSPropertyOp8
 70
     1
102
RTVSPropertyOp9
 70
     1
102
RTVSPropertyOp10
 70
     1
102
RTVSPropertyOp11
 70
     1
102
RTVSPropertyOp12
 70
     1
102
RTVSPropertyOp13
 70
     1
102
RTVSPropertyOp14
 70
     1
102
RTVSPropertyOp15
 70
     1
102
RTVSPropertyOp16
 70
     1
102
RTVSPropertyOp17
 70
     1
102
RTVSPropertyOp18
 70
     1
102
RTVSPropertyOp19
 70
     1
102
RTVSPropertyOp20
 70
     1
102
RTVSPropertyOp21
 70
     1
102
RTVSPropertyOp22
 70
     1
102
RTVSPropertyOp23
 70
     1
102
RTVSPropertyOp24
 70
     1
102
RTVSPropertyOp25
 70
     1
102
RTVSPropertyOp26
 70
     1
102
RTVSPropertyOp27
 70
     1
102
RTVSPropertyOp28
 70
     1
102
RTVSPropertyOp29
 70
     1
102
RTVSPropertyOp30
 70
     1
102
RTVSPropertyOp31
 70
     1
102
RTVSPropertyOp32
 70
     1
102
RTVSPropertyOp33
 70
     1
102
RTVSPropertyOp34
 70
     1
102
RTVSPropertyOp35
 70
     1
102
RTVSPropertyOp36
 70
     1
102
RTVSPropertyOp37
 70
     1
102
RTVSPropertyOp38
 70
     1
102
RTVSPropertyOp39
 70
     1
102
RTVSPropertyOp40
 70
     1
102
RTVSPropertyOp41
 70
     1
102
RTVSPropertyOp42
 70
     1
102
RTVSPropertyOp43
 70
     1
102
RTVSPropertyOp44
 70
     1
102
RTVSPropertyOp45
 70
     1
102
RTVSPropertyOp46
 70
     1
102
RTVSPropertyOp47
 70
     1
102
RTVSPropertyOp48
 70
     1
102
RTVSPropertyOp49
 70
     1
102
RTVSPropertyOp50
 70
     1
102
RTVSPropertyOp51
 70
     0
102
RTVSPropertyOp52
 70
     0
102
RTVSPropertyOp53
 70
     1
102
RTVSPropertyOp54
 70
     1
102
RTVSPropertyOp55
 70
     1
102
RTVSPropertyOp56
 70
     1
102
RTVSPropertyOp57
 70
     1
102
RTVSPropertyOp58
 70
     1
102
RTVSPropertyOp59
 70
     1
102
RTVSPropertyOp60
 70
     1
102
RTVSPropertyOp61
 70
     1
102
RTVSPropertyOp62
 70
     1
  0
ENDSEC
  0
EOF
