  0
SECTION
  2
HEADER
  9
$ACADVER
  1
AC1015
  9
$ACADMAINTVER
 70
    20
  9
$DWGCODEPAGE
  3
ANSI_932
  9
$INSBASE
 10
0.0
 20
0.0
 30
0.0
  9
$EXTMIN
 10
9.9999975266385
 20
10.0
 30
0.0
  9
$EXTMAX
 10
366.8337412451915
 20
246.7490855231869
 30
0.0
  9
$LIMMIN
 10
0.0000015376081137
 20
-0.0000001931532552
  9
$LIMMAX
 10
396.0000015376081
 20
272.9999998068465
  9
$ORTHOMODE
 70
     1
  9
$REGENMODE
 70
     1
  9
$FILLMODE
 70
     1
  9
$QTEXTMODE
 70
     0
  9
$MIRRTEXT
 70
     1
  9
$LTSCALE
 40
1.0
  9
$ATTMODE
 70
     1
  9
$TEXTSIZE
 40
2.5
  9
$TRACEWID
 40
1.0
  9
$TEXTSTYLE
  7
STANDARD
  9
$CLAYER
  8
0
  9
$CELTYPE
  6
BYLAYER
  9
$CECOLOR
 62
   256
  9
$CELTSCALE
 40
1.0
  9
$DISPSILH
 70
     0
  9
$DIMSCALE
 40
1.0
  9
$DIMASZ
 40
3.0
  9
$DIMEXO
 40
1.0
  9
$DIMDLI
 40
10.0
  9
$DIMRND
 40
0.0
  9
$DIMDLE
 40
0.0
  9
$DIMEXE
 40
1.0
  9
$DIMTP
 40
0.0
  9
$DIMTM
 40
0.0
  9
$DIMTXT
 40
2.5
  9
$DIMCEN
 40
0.0
  9
$DIMTSZ
 40
0.0
  9
$DIMTOL
 70
     0
  9
$DIMLIM
 70
     0
  9
$DIMTIH
 70
     0
  9
$DIMTOH
 70
     0
  9
$DIMSE1
 70
     0
  9
$DIMSE2
 70
     0
  9
$DIMTAD
 70
     3
  9
$DIMZIN
 70
     8
  9
$DIMBLK
  1

  9
$DIMASO
 70
     1
  9
$DIMSHO
 70
     1
  9
$DIMPOST
  1

  9
$DIMAPOST
  1

  9
$DIMALT
 70
     0
  9
$DIMALTD
 70
     2
  9
$DIMALTF
 40
25.4
  9
$DIMLFAC
 40
1.0
  9
$DIMTOFL
 70
     1
  9
$DIMTVP
 40
0.0
  9
$DIMTIX
 70
     0
  9
$DIMSOXD
 70
     0
  9
$DIMSAH
 70
     1
  9
$DIMBLK1
  1
OPEN
  9
$DIMBLK2
  1
OPEN
  9
$DIMSTYLE
  2
STANDARD
  9
$DIMCLRD
 70
     0
  9
$DIMCLRE
 70
     0
  9
$DIMCLRT
 70
     0
  9
$DIMTFAC
 40
1.0
  9
$DIMGAP
 40
1.0
  9
$DIMJUST
 70
     0
  9
$DIMSD1
 70
     0
  9
$DIMSD2
 70
     0
  9
$DIMTOLJ
 70
     1
  9
$DIMTZIN
 70
     0
  9
$DIMALTZ
 70
     0
  9
$DIMALTTZ
 70
     0
  9
$DIMUPT
 70
     0
  9
$DIMDEC
 70
     4
  9
$DIMTDEC
 70
     4
  9
$DIMALTU
 70
     2
  9
$DIMALTTD
 70
     2
  9
$DIMTXSTY
  7
STANDARD
  9
$DIMAUNIT
 70
     0
  9
$DIMADEC
 70
     0
  9
$DIMALTRND
 40
0.0
  9
$DIMAZIN
 70
     0
  9
$DIMDSEP
 70
    46
  9
$DIMATFIT
 70
     3
  9
$DIMFRAC
 70
     0
  9
$DIMLDRBLK
  1
OPEN
  9
$DIMLUNIT
 70
     2
  9
$DIMLWD
 70
    -2
  9
$DIMLWE
 70
    -2
  9
$DIMTMOVE
 70
     0
  9
$LUNITS
 70
     2
  9
$LUPREC
 70
     4
  9
$SKETCHINC
 40
1.0
  9
$FILLETRAD
 40
0.0
  9
$AUNITS
 70
     0
  9
$AUPREC
 70
     0
  9
$MENU
  1
.
  9
$ELEVATION
 40
0.0
  9
$PELEVATION
 40
0.0
  9
$THICKNESS
 40
0.0
  9
$LIMCHECK
 70
     0
  9
$CHAMFERA
 40
10.0
  9
$CHAMFERB
 40
10.0
  9
$CHAMFERC
 40
20.0
  9
$CHAMFERD
 40
0.0
  9
$SKPOLY
 70
     0
  9
$TDCREATE
 40
2456440.474367905
  9
$TDUCREATE
 40
2456440.099367905
  9
$TDUPDATE
 40
2457192.602668982
  9
$TDUUPDATE
 40
2457192.227668981
  9
$TDINDWG
 40
0.5345272917
  9
$TDUSRTIMER
 40
0.5345272685
  9
$USRTIMER
 70
     1
  9
$ANGBASE
 50
0.0
  9
$ANGDIR
 70
     0
  9
$PDMODE
 70
     0
  9
$PDSIZE
 40
0.0
  9
$PLINEWID
 40
0.0
  9
$SPLFRAME
 70
     0
  9
$SPLINETYPE
 70
     6
  9
$SPLINESEGS
 70
     8
  9
$HANDSEED
  5
1EE0
  9
$SURFTAB1
 70
     6
  9
$SURFTAB2
 70
     6
  9
$SURFTYPE
 70
     6
  9
$SURFU
 70
     6
  9
$SURFV
 70
     6
  9
$UCSBASE
  2

  9
$UCSNAME
  2

  9
$UCSORG
 10
0.0
 20
0.0
 30
0.0
  9
$UCSXDIR
 10
1.0
 20
0.0
 30
0.0
  9
$UCSYDIR
 10
0.0
 20
1.0
 30
0.0
  9
$UCSORTHOREF
  2

  9
$UCSORTHOVIEW
 70
     0
  9
$UCSORGTOP
 10
0.0
 20
0.0
 30
0.0
  9
$UCSORGBOTTOM
 10
0.0
 20
0.0
 30
0.0
  9
$UCSORGLEFT
 10
0.0
 20
0.0
 30
0.0
  9
$UCSORGRIGHT
 10
0.0
 20
0.0
 30
0.0
  9
$UCSORGFRONT
 10
0.0
 20
0.0
 30
0.0
  9
$UCSORGBACK
 10
0.0
 20
0.0
 30
0.0
  9
$PUCSBASE
  2

  9
$PUCSNAME
  2

  9
$PUCSORG
 10
0.0
 20
0.0
 30
0.0
  9
$PUCSXDIR
 10
1.0
 20
0.0
 30
0.0
  9
$PUCSYDIR
 10
0.0
 20
1.0
 30
0.0
  9
$PUCSORTHOREF
  2

  9
$PUCSORTHOVIEW
 70
     0
  9
$PUCSORGTOP
 10
0.0
 20
0.0
 30
0.0
  9
$PUCSORGBOTTOM
 10
0.0
 20
0.0
 30
0.0
  9
$PUCSORGLEFT
 10
0.0
 20
0.0
 30
0.0
  9
$PUCSORGRIGHT
 10
0.0
 20
0.0
 30
0.0
  9
$PUCSORGFRONT
 10
0.0
 20
0.0
 30
0.0
  9
$PUCSORGBACK
 10
0.0
 20
0.0
 30
0.0
  9
$USERI1
 70
     0
  9
$USERI2
 70
     0
  9
$USERI3
 70
     0
  9
$USERI4
 70
     0
  9
$USERI5
 70
     0
  9
$USERR1
 40
0.0
  9
$USERR2
 40
0.0
  9
$USERR3
 40
0.0
  9
$USERR4
 40
0.0
  9
$USERR5
 40
0.0
  9
$WORLDVIEW
 70
     1
  9
$SHADEDGE
 70
     3
  9
$SHADEDIF
 70
    70
  9
$TILEMODE
 70
     1
  9
$MAXACTVP
 70
    48
  9
$PINSBASE
 10
0.0
 20
0.0
 30
0.0
  9
$PLIMCHECK
 70
     0
  9
$PEXTMIN
 10
1.000000000000000E+20
 20
1.000000000000000E+20
 30
1.000000000000000E+20
  9
$PEXTMAX
 10
-1.000000000000000E+20
 20
-1.000000000000000E+20
 30
-1.000000000000000E+20
  9
$PLIMMIN
 10
0.0
 20
0.0
  9
$PLIMMAX
 10
420.0
 20
297.0
  9
$UNITMODE
 70
     0
  9
$VISRETAIN
 70
     1
  9
$PLINEGEN
 70
     0
  9
$PSLTSCALE
 70
     1
  9
$TREEDEPTH
 70
  3020
  9
$CMLSTYLE
  2
STANDARD
  9
$CMLJUST
 70
     0
  9
$CMLSCALE
 40
20.0
  9
$PROXYGRAPHICS
 70
     1
  9
$MEASUREMENT
 70
     0
  9
$CELWEIGHT
370
    -1
  9
$ENDCAPS
280
     0
  9
$JOINSTYLE
280
     0
  9
$LWDISPLAY
290
     0
  9
$INSUNITS
 70
     0
  9
$HYPERLINKBASE
  1

  9
$STYLESHEET
  1

  9
$XEDIT
290
     1
  9
$CEPSNTYPE
380
     0
  9
$PSTYLEMODE
290
     1
  9
$FINGERPRINTGUID
  2
{73ED5B9D-891A-4E38-8ABA-D0D6E4CCBEA4}
  9
$VERSIONGUID
  2
{B52E2BD3-062B-4D55-B020-0EB44586FE31}
  9
$EXTNAMES
290
     1
  9
$PSVPSCALE
 40
0.0
  9
$OLESTARTUP
290
     0
  0
ENDSEC
  0
SECTION
  2
CLASSES
  0
CLASS
  1
ACDBDICTIONARYWDFLT
  2
AcDbDictionaryWithDefault
  3
ObjectDBX Classes
 90
        0
280
     0
281
     0
  0
CLASS
  1
ACDBPLACEHOLDER
  2
AcDbPlaceHolder
  3
ObjectDBX Classes
 90
        0
280
     0
281
     0
  0
CLASS
  1
LAYOUT
  2
AcDbLayout
  3
ObjectDBX Classes
 90
        0
280
     0
281
     0
  0
CLASS
  1
MATERIAL
  2
AcDbMaterial
  3
ObjectDBX Classes
 90
     1153
280
     0
281
     0
  0
CLASS
  1
VISUALSTYLE
  2
AcDbVisualStyle
  3
ObjectDBX Classes
 90
     4095
280
     0
281
     0
  0
CLASS
  1
TABLESTYLE
  2
AcDbTableStyle
  3
ObjectDBX Classes
 90
     4095
280
     0
281
     0
  0
CLASS
  1
SCALE
  2
AcDbScale
  3
ObjectDBX Classes
 90
     1153
280
     0
281
     0
  0
CLASS
  1
MLEADERSTYLE
  2
AcDbMLeaderStyle
  3
ACDB_MLEADERSTYLE_CLASS
 90
     4095
280
     0
281
     0
  0
CLASS
  1
ACDBSECTIONVIEWSTYLE
  2
AcDbSectionViewStyle
  3
ObjectDBX Classes
 90
     1025
280
     0
281
     0
  0
CLASS
  1
ACDBDETAILVIEWSTYLE
  2
AcDbDetailViewStyle
  3
ObjectDBX Classes
 90
     1025
280
     0
281
     0
  0
CLASS
  1
DICTIONARYVAR
  2
AcDbDictionaryVar
  3
ObjectDBX Classes
 90
        0
280
     0
281
     0
  0
CLASS
  1
CELLSTYLEMAP
  2
AcDbCellStyleMap
  3
ObjectDBX Classes
 90
     1152
280
     0
281
     0
  0
ENDSEC
  0
SECTION
  2
TABLES
  0
TABLE
  2
VPORT
  5
8
330
0
100
AcDbSymbolTable
 70
     1
  0
VPORT
  5
1E2A
330
8
100
AcDbSymbolTableRecord
100
AcDbViewportTableRecord
  2
*ACTIVE
 70
     0
 10
0.0
 20
0.0
 11
1.0
 21
1.0
 12
308.0829180817555
 22
140.7434229112063
 13
0.0
 23
0.0
 14
10.0
 24
10.0
 15
10.0
 25
10.0
 16
0.0
 26
0.0
 36
1.0
 17
0.0
 27
0.0
 37
0.0
 40
288.4594148609667
 41
1.899603698811096
 42
50.0
 43
0.0
 44
0.0
 50
0.0
 51
0.0
 71
     0
 72
   100
 73
     1
 74
     0
 75
     0
 76
     0
 77
     0
 78
     0
281
     0
 65
     1
110
0.0
120
0.0
130
0.0
111
1.0
121
0.0
131
0.0
112
0.0
122
1.0
132
0.0
 79
     0
146
0.0
1001
ACAD_NAV_VCDISPLAY
1070
     3
  0
ENDTAB
  0
TABLE
  2
LTYPE
  5
5
330
0
100
AcDbSymbolTable
 70
     4
  0
LTYPE
  5
12
330
5
100
AcDbSymbolTableRecord
100
AcDbLinetypeTableRecord
  2
BYBLOCK
 70
     0
  3

 72
    65
 73
     0
 40
0.0
  0
LTYPE
  5
13
330
5
100
AcDbSymbolTableRecord
100
AcDbLinetypeTableRecord
  2
BYLAYER
 70
     0
  3

 72
    65
 73
     0
 40
0.0
  0
LTYPE
  5
14
330
5
100
AcDbSymbolTableRecord
100
AcDbLinetypeTableRecord
  2
CONTINUOUS
 70
     0
  3
Solid line
 72
    65
 73
     0
 40
0.0
  0
LTYPE
  5
4B
330
5
100
AcDbSymbolTableRecord
100
AcDbLinetypeTableRecord
  2
DASHED
 70
     0
  3
Dashed __ __ __ __ __ __ __ __ __ __ __ __ __ _
 72
    65
 73
     2
 40
19.04999999999999
 49
12.7
 74
     0
 49
-6.349999999999998
 74
     0
  0
LTYPE
  5
4C
330
5
100
AcDbSymbolTableRecord
100
AcDbLinetypeTableRecord
  2
CENTER
 70
     0
  3
Center ____ _ ____ _ ____ _ ____ _ ____ _ ____
 72
    65
 73
     4
 40
50.8
 49
31.75
 74
     0
 49
-6.349999999999998
 74
     0
 49
6.349999999999998
 74
     0
 49
-6.349999999999998
 74
     0
  0
LTYPE
  5
4D
330
5
100
AcDbSymbolTableRecord
100
AcDbLinetypeTableRecord
  2
PHANTOM
 70
     0
  3
Phantom ______  __  __  ______  __  __  ______
 72
    65
 73
     6
 40
63.5
 49
31.75
 74
     0
 49
-6.349999999999998
 74
     0
 49
6.349999999999998
 74
     0
 49
-6.349999999999998
 74
     0
 49
6.349999999999998
 74
     0
 49
-6.349999999999998
 74
     0
  0
ENDTAB
  0
TABLE
  2
LAYER
  5
2
330
0
100
AcDbSymbolTable
 70
     8
  0
LAYER
  5
E
102
{ACAD_XDICTIONARY
360
1E84
102
}
330
2
100
AcDbSymbolTableRecord
100
AcDbLayerTableRecord
  2
0
 70
     0
 62
     7
  6
CONTINUOUS
370
    -3
390
1E33
  0
LAYER
  5
4E
102
{ACAD_XDICTIONARY
360
1E86
102
}
330
2
100
AcDbSymbolTableRecord
100
AcDbLayerTableRecord
  2
4
 70
     0
 62
     1
  6
CENTER
370
    -3
390
1E33
  0
LAYER
  5
4F
102
{ACAD_XDICTIONARY
360
1E88
102
}
330
2
100
AcDbSymbolTableRecord
100
AcDbLayerTableRecord
  2
5
 70
     0
 62
     6
  6
PHANTOM
370
    -3
390
1E33
  0
LAYER
  5
50
102
{ACAD_XDICTIONARY
360
1E8A
102
}
330
2
100
AcDbSymbolTableRecord
100
AcDbLayerTableRecord
  2
1
 70
     0
 62
     7
  6
CONTINUOUS
370
    -3
390
1E33
  0
LAYER
  5
51
102
{ACAD_XDICTIONARY
360
1E8C
102
}
330
2
100
AcDbSymbolTableRecord
100
AcDbLayerTableRecord
  2
2
 70
     0
 62
     4
  6
CONTINUOUS
370
    -3
390
1E33
  0
LAYER
  5
52
102
{ACAD_XDICTIONARY
360
1E8E
102
}
330
2
100
AcDbSymbolTableRecord
100
AcDbLayerTableRecord
  2
3
 70
     0
 62
     2
  6
DASHED
370
    -3
390
1E33
  0
LAYER
  5
53
102
{ACAD_XDICTIONARY
360
1E90
102
}
330
2
100
AcDbSymbolTableRecord
100
AcDbLayerTableRecord
  2
6
 70
     0
 62
     5
  6
CONTINUOUS
370
    -3
390
1E33
  0
LAYER
  5
54
102
{ACAD_XDICTIONARY
360
1E92
102
}
330
2
100
AcDbSymbolTableRecord
100
AcDbLayerTableRecord
  2
7
 70
     0
 62
     3
  6
CONTINUOUS
370
    -3
390
1E33
  0
ENDTAB
  0
TABLE
  2
STYLE
  5
3
330
0
100
AcDbSymbolTable
 70
     1
  0
STYLE
  5
F
330
3
100
AcDbSymbolTableRecord
100
AcDbTextStyleTableRecord
  2
STANDARD
 70
     0
 40
0.0
 41
1.0
 50
0.0
 71
     0
 42
2.5
  3
simplex.shx
  4

  0
ENDTAB
  0
TABLE
  2
VIEW
  5
6
330
0
100
AcDbSymbolTable
 70
     0
  0
ENDTAB
  0
TABLE
  2
UCS
  5
7
330
0
100
AcDbSymbolTable
 70
     0
  0
ENDTAB
  0
TABLE
  2
APPID
  5
9
330
0
100
AcDbSymbolTable
 70
     5
  0
APPID
  5
10
330
9
100
AcDbSymbolTableRecord
100
AcDbRegAppTableRecord
  2
ACAD
 70
     0
  0
APPID
  5
3E
330
9
100
AcDbSymbolTableRecord
100
AcDbRegAppTableRecord
  2
CONTENTTABDATA
 70
     0
  0
APPID
  5
3F
330
9
100
AcDbSymbolTableRecord
100
AcDbRegAppTableRecord
  2
CONTENTCURRENTTAB
 70
     0
  0
APPID
  5
1E9E
330
9
100
AcDbSymbolTableRecord
100
AcDbRegAppTableRecord
  2
ACAD_NAV_VCDISPLAY
 70
     0
  0
APPID
  5
1ED7
330
9
100
AcDbSymbolTableRecord
100
AcDbRegAppTableRecord
  2
ACAD_MLEADERVER
 70
     0
  0
ENDTAB
  0
TABLE
  2
DIMSTYLE
  5
A
330
0
100
AcDbSymbolTable
 70
     1
100
AcDbDimStyleTable
 71
     0
  0
DIMSTYLE
105
1D
330
A
100
AcDbSymbolTableRecord
100
AcDbDimStyleTableRecord
  2
STANDARD
 70
     0
 41
3.0
 42
1.0
 43
10.0
 44
1.0
 73
     0
 74
     0
 77
     3
 78
     8
140
2.5
141
0.0
147
1.0
172
     1
173
     1
340
F
341
2E
343
2E
344
2E
  0
ENDTAB
  0
TABLE
  2
BLOCK_RECORD
  5
1
330
0
100
AcDbSymbolTable
 70
     1
  0
BLOCK_RECORD
  5
18
102
{ACAD_XDICTIONARY
360
1E2D
102
}
330
1
100
AcDbSymbolTableRecord
100
AcDbBlockTableRecord
  2
*MODEL_SPACE
340
1E81
  0
BLOCK_RECORD
  5
15
102
{ACAD_XDICTIONARY
360
1E2B
102
}
330
1
100
AcDbSymbolTableRecord
100
AcDbBlockTableRecord
  2
*PAPER_SPACE
340
1E82
  0
BLOCK_RECORD
  5
2E
330
1
100
AcDbSymbolTableRecord
100
AcDbBlockTableRecord
  2
_OPEN
340
0
  0
ENDTAB
  0
ENDSEC
  0
SECTION
  2
BLOCKS
  0
BLOCK
  5
19
330
18
100
AcDbEntity
  8
0
100
AcDbBlockBegin
  2
*MODEL_SPACE
 70
     0
 10
0.0
 20
0.0
 30
0.0
  3
*MODEL_SPACE
  1

  0
ENDBLK
  5
1A
330
18
100
AcDbEntity
  8
0
100
AcDbBlockEnd
  0
BLOCK
  5
16
330
15
100
AcDbEntity
 67
     1
  8
0
100
AcDbBlockBegin
  2
*PAPER_SPACE
 70
     0
 10
0.0
 20
0.0
 30
0.0
  3
*PAPER_SPACE
  1

  0
ENDBLK
  5
17
330
15
100
AcDbEntity
 67
     1
  8
0
100
AcDbBlockEnd
  0
BLOCK
  5
2F
330
2E
100
AcDbEntity
  8
0
100
AcDbBlockBegin
  2
_OPEN
 70
     0
 10
0.0
 20
0.0
 30
0.0
  3
_OPEN
  1

  0
LINE
  5
30
330
2E
100
AcDbEntity
  8
0
  6
ByBlock
 62
     0
100
AcDbLine
 10
-1.0
 20
0.1666666666666666
 30
0.0
 11
0.0
 21
0.0
 31
0.0
  0
LINE
  5
31
330
2E
100
AcDbEntity
  8
0
  6
ByBlock
 62
     0
100
AcDbLine
 10
0.0
 20
0.0
 30
0.0
 11
-1.0
 21
-0.1666666666666666
 31
0.0
  0
LINE
  5
32
330
2E
100
AcDbEntity
  8
0
  6
ByBlock
 62
     0
100
AcDbLine
 10
0.0
 20
0.0
 30
0.0
 11
-1.0
 21
0.0
 31
0.0
  0
ENDBLK
  5
33
330
2E
100
AcDbEntity
  8
0
100
AcDbBlockEnd
  0
ENDSEC
  0
SECTION
  2
ENTITIES
  0
TEXT
  5
63
330
18
100
AcDbEntity
  8
4
  6
CENTER
 48
0.2
100
AcDbText
 10
23.97950852663849
 20
10.0
 30
0.0
 40
1.399999999999999
  1
4
100
AcDbText
  0
TEXT
  5
64
330
18
100
AcDbEntity
  8
7
  6
Continuous
 48
0.25
100
AcDbText
 10
9.999997526638502
 20
26.0000007607689
 30
0.0
 40
3.0
  1
CODE No.11058
100
AcDbText
  0
TEXT
  5
65
330
18
100
AcDbEntity
  8
7
  6
Continuous
 48
0.25
100
AcDbText
 10
9.999997526638502
 20
18.00000076076889
 30
0.0
 40
3.0
  1
TYPE No.TL-390
100
AcDbText
  0
TEXT
  5
66
330
18
100
AcDbEntity
  8
1
  6
Continuous
 48
0.25
100
AcDbText
 10
9.999997526638502
 20
10.00000076076889
 30
0.0
 40
1.399999999999999
  1
LAYER
100
AcDbText
  0
TEXT
  5
67
330
18
100
AcDbEntity
  8
2
  6
Continuous
 48
0.25
100
AcDbText
 10
19.9795085266385
 20
10.0
 30
0.0
 40
1.399999999999999
  1
2
100
AcDbText
  0
TEXT
  5
68
330
18
100
AcDbEntity
  8
3
  6
DASHED
 48
0.25
100
AcDbText
 10
21.9795085266385
 20
10.0
 30
0.0
 40
1.399999999999999
  1
3
100
AcDbText
  0
TEXT
  5
69
330
18
100
AcDbEntity
  8
1
  6
Continuous
 48
0.25
100
AcDbText
 10
17.9795085266385
 20
10.0
 30
0.0
 40
1.399999999999999
  1
1
100
AcDbText
  0
TEXT
  5
6A
330
18
100
AcDbEntity
  8
5
  6
PHANTOM
 48
0.2
100
AcDbText
 10
25.9795085266385
 20
10.0
 30
0.0
 40
1.399999999999999
  1
5
100
AcDbText
  0
TEXT
  5
6B
330
18
100
AcDbEntity
  8
6
  6
Continuous
 48
0.25
100
AcDbText
 10
27.9795085266385
 20
10.0
 30
0.0
 40
1.399999999999999
  1
6
100
AcDbText
  0
TEXT
  5
6C
330
18
100
AcDbEntity
  8
7
  6
Continuous
 48
0.25
100
AcDbText
 10
29.9795085266385
 20
10.0
 30
0.0
 40
1.399999999999999
  1
7
100
AcDbText
  0
ARC
  5
1C9
330
18
100
AcDbEntity
  8
1
  6
Continuous
100
AcDbCircle
 10
125.9701332688329
 20
170.0830922320337
 30
0.0
 40
4.0
100
AcDbArc
 50
34.50852298775638
 51
90.0
  0
ARC
  5
1CA
330
18
100
AcDbEntity
  8
1
  6
Continuous
100
AcDbCircle
 10
112.1586637587659
 20
170.0830922320337
 30
0.0
 40
4.0
100
AcDbArc
 50
90.0
 51
145.4914770123366
  0
LINE
  5
1CB
330
18
100
AcDbEntity
  8
1
  6
Continuous
100
AcDbLine
 10
112.1586637587659
 20
174.0830922320337
 30
0.0
 11
125.9701332688329
 21
174.0830922320337
 31
0.0
  0
ARC
  5
1CC
330
18
100
AcDbEntity
  8
1
  6
Continuous
100
AcDbCircle
 10
60.65095003004725
 20
172.2738329727765
 30
0.0
 40
1.80925925925726
100
AcDbArc
 50
17.70475871938623
 51
168.2952412803613
  0
LINE
  5
1CD
330
18
100
AcDbEntity
  8
1
  6
Continuous
100
AcDbLine
 10
61.7612326885539
 20
165.4188697602212
 30
0.0
 11
60.26328838642206
 21
165.3403658258568
 31
0.0
  0
ARC
  5
1CE
330
18
100
AcDbEntity
  8
1
  6
Continuous
100
AcDbCircle
 10
130.0643985138024
 20
164.127797330282
 30
0.0
 40
0.5
100
AcDbArc
 50
0.0
 51
34.5085229877417
  0
ARC
  5
1CF
330
18
100
AcDbEntity
  8
1
  6
Continuous
100
AcDbCircle
 10
108.0643985137995
 20
164.1277973302646
 30
0.0
 40
0.5
100
AcDbArc
 50
145.4914770123484
 51
180.0
  0
LINE
  5
1D0
330
18
100
AcDbEntity
  8
1
  6
Continuous
100
AcDbLine
 10
107.6523775517
 20
164.4110617417081
 30
0.0
 11
111.9643985138341
 21
170.6830922320858
 31
0.0
  0
LINE
  5
1D1
330
18
100
AcDbEntity
  8
1
  6
Continuous
100
AcDbLine
 10
130.4764194759014
 20
164.4110617417259
 30
0.0
 11
126.1643985137574
 21
170.6830922320968
 31
0.0
  0
ARC
  5
1D2
330
18
100
AcDbEntity
  8
1
  6
Continuous
100
AcDbCircle
 10
130.0643985138048
 20
164.1277973302775
 30
0.0
 40
4.0
100
AcDbArc
 50
0.0
 51
34.50852298775751
  0
LINE
  5
1D3
330
18
100
AcDbEntity
  8
1
  6
Continuous
100
AcDbLine
 10
133.3605662105984
 20
166.39391262183
 30
0.0
 11
129.2663009656269
 21
172.349207523587
 31
0.0
  0
ARC
  5
1D4
330
18
100
AcDbEntity
  8
1
  6
Continuous
100
AcDbCircle
 10
108.0643985137973
 20
164.1277973302602
 30
0.0
 40
4.0
100
AcDbArc
 50
145.4914770123326
 51
180.0
  0
LINE
  5
1D5
330
18
100
AcDbEntity
  8
1
  6
Continuous
100
AcDbLine
 10
104.7682308169997
 20
166.3939126218081
 30
0.0
 11
108.8624960619683
 21
172.3492075235816
 31
0.0
  0
LINE
  5
1D8
330
18
100
AcDbEntity
  8
4
  6
CENTER
 48
0.2
100
AcDbLine
 10
132.264398513852
 20
147.9807504802866
 30
0.0
 11
126.3643985138187
 21
147.9807504802866
 31
0.0
  0
LINE
  5
1D9
330
18
100
AcDbEntity
  8
4
  6
CENTER
 48
0.2
100
AcDbLine
 10
111.7643985138183
 20
147.9807504802866
 30
0.0
 11
105.3643985138514
 21
147.9807504802866
 31
0.0
  0
LINE
  5
1DF
330
18
100
AcDbEntity
  8
1
  6
Continuous
100
AcDbLine
 10
126.0643985138185
 20
158.4807504802867
 30
0.0
 11
126.5143985138346
 21
158.4807504802867
 31
0.0
  0
LINE
  5
1E0
330
18
100
AcDbEntity
  8
1
  6
Continuous
100
AcDbLine
 10
111.6143985138341
 20
158.4807504802867
 30
0.0
 11
112.4621541108663
 21
158.4807504802867
 31
0.0
  0
LINE
  5
1E1
330
18
100
AcDbEntity
  8
1
  6
Continuous
100
AcDbLine
 10
110.2643985138183
 20
158.4807504802867
 30
0.0
 11
110.4143985138343
 21
158.4807504802867
 31
0.0
  0
LINE
  5
1E2
330
18
100
AcDbEntity
  8
1
  6
Continuous
100
AcDbLine
 10
127.7143985138345
 20
158.4807504802867
 30
0.0
 11
127.8643985138191
 21
158.4807504802867
 31
0.0
  0
LINE
  5
1E3
330
18
100
AcDbEntity
  8
1
  6
Continuous
100
AcDbLine
 10
129.5643985138186
 20
158.7307504802776
 30
0.0
 11
129.5643985138186
 21
155.2307504802866
 31
0.0
  0
ARC
  5
1E4
330
18
100
AcDbEntity
  8
1
  6
Continuous
100
AcDbCircle
 10
129.3143985138185
 20
155.2307504802866
 30
0.0
 40
0.2500000000000568
100
AcDbArc
 50
180.0
 51
0.0
  0
ARC
  5
1E5
330
18
100
AcDbEntity
  8
1
  6
Continuous
100
AcDbCircle
 10
129.3143985138185
 20
158.7307504802775
 30
0.0
 40
0.2500000000000568
100
AcDbArc
 50
0.0
 51
180.0
  0
LINE
  5
1E7
330
18
100
AcDbEntity
  8
1
  6
Continuous
100
AcDbLine
 10
109.0147953642153
 20
154.6807504802863
 30
0.0
 11
109.0147953642153
 21
159.2807504802856
 31
0.0
  0
ARC
  5
1E8
330
18
100
AcDbEntity
  8
1
  6
Continuous
100
AcDbCircle
 10
112.1643985138189
 20
156.9807504802866
 30
0.0
 40
3.9
100
AcDbArc
 50
143.861185336868
 51
216.1388146631319
  0
LINE
  5
1E9
330
18
100
AcDbEntity
  8
1
  6
Continuous
100
AcDbLine
 10
109.0147953642144
 20
154.6807504802864
 30
0.0
 11
109.0643985138185
 21
154.6807504802864
 31
0.0
  0
LINE
  5
1EA
330
18
100
AcDbEntity
  8
1
  6
Continuous
100
AcDbLine
 10
109.0147953642144
 20
159.2807504802868
 30
0.0
 11
109.0643985138185
 21
159.2807504802868
 31
0.0
  0
ARC
  5
1EC
330
18
100
AcDbEntity
  8
1
  6
Continuous
100
AcDbCircle
 10
62.92409653542017
 20
156.9807504802866
 30
0.0
 40
2.299999999999614
100
AcDbArc
 50
285.8107872710802
 51
85.99881111250153
  0
LINE
  5
1ED
330
18
100
AcDbEntity
  8
4
  6
CENTER
 48
0.2
100
AcDbLine
 10
106.7643985138194
 20
156.9807504802866
 30
0.0
 11
131.0643985138185
 21
156.9807504802866
 31
0.0
  0
ARC
  5
1EE
330
18
100
AcDbEntity
  8
1
  6
Continuous
100
AcDbCircle
 10
61.81093349261415
 20
150.1400299680839
 30
0.0
 40
4.926562500021691
100
AcDbArc
 50
280.8280993274294
 51
304.7962997492972
  0
ARC
  5
1EF
330
18
100
AcDbEntity
  8
1
  6
Continuous
100
AcDbCircle
 10
61.81093349261415
 20
150.1400299680839
 30
0.0
 40
4.926562500021691
100
AcDbArc
 50
241.2037002506211
 51
265.1719006724559
  0
LINE
  5
1F1
330
18
100
AcDbEntity
  8
1
  6
Continuous
100
AcDbLine
 10
130.764398513852
 20
149.7307504802776
 30
0.0
 11
130.764398513852
 21
146.2307504802866
 31
0.0
  0
ARC
  5
1F2
330
18
100
AcDbEntity
  8
1
  6
Continuous
100
AcDbCircle
 10
130.514398513852
 20
149.7307504802775
 30
0.0
 40
0.2500000000000568
100
AcDbArc
 50
0.0
 51
180.0
  0
ARC
  5
1F3
330
18
100
AcDbEntity
  8
1
  6
Continuous
100
AcDbCircle
 10
130.514398513852
 20
146.2307504802866
 30
0.0
 40
0.2500000000000568
100
AcDbArc
 50
180.0
 51
0.0
  0
LINE
  5
1F6
330
18
100
AcDbEntity
  8
4
  6
CENTER
 48
0.2
100
AcDbLine
 10
61.92409653541836
 20
152.2807504802868
 30
0.0
 11
61.92409653541836
 21
143.6807504802864
 31
0.0
  0
LINE
  5
1F7
330
18
100
AcDbEntity
  8
4
  6
CENTER
 48
0.2
100
AcDbLine
 10
66.22409653541763
 20
147.9807504802866
 30
0.0
 11
57.62409653541817
 21
147.9807504802866
 31
0.0
  0
CIRCLE
  5
1F8
330
18
100
AcDbEntity
  8
1
  6
Continuous
100
AcDbCircle
 10
61.92409653541882
 20
147.9807504802871
 30
0.0
 40
2.799999999999998
  0
ARC
  5
1F9
330
18
100
AcDbEntity
  8
1
  6
Continuous
100
AcDbCircle
 10
107.3643985138519
 20
145.6807504802864
 30
0.0
 40
0.4999999999999858
100
AcDbArc
 50
180.0
 51
0.0
  0
ARC
  5
1FA
330
18
100
AcDbEntity
  8
1
  6
Continuous
100
AcDbCircle
 10
107.3643985138519
 20
150.2807504802859
 30
0.0
 40
0.4999999999999858
100
AcDbArc
 50
0.0
 51
180.0
  0
LINE
  5
1FC
330
18
100
AcDbEntity
  8
1
  6
Continuous
100
AcDbLine
 10
106.8643985138514
 20
145.6807504802864
 30
0.0
 11
106.8643985138514
 21
150.2807504802868
 31
0.0
  0
LINE
  5
1FF
330
18
100
AcDbEntity
  8
1
  6
Continuous
100
AcDbLine
 10
127.7143985138339
 20
160.3807504802868
 30
0.0
 11
112.9893985138169
 21
160.3807504802868
 31
0.0
  0
LINE
  5
200
330
18
100
AcDbEntity
  8
1
  6
Continuous
100
AcDbLine
 10
112.0893985138172
 20
160.3807504802868
 30
0.0
 11
110.4143985138343
 21
160.3807504802868
 31
0.0
  0
LINE
  5
201
330
18
100
AcDbEntity
  8
1
  6
Continuous
100
AcDbLine
 10
127.7143985138345
 20
160.3807504802868
 30
0.0
 11
127.7143985138345
 21
155.4807504802866
 31
0.0
  0
LINE
  5
203
330
18
100
AcDbEntity
  8
1
  6
Continuous
100
AcDbLine
 10
126.5143985138346
 20
160.3807504802868
 30
0.0
 11
126.5143985138346
 21
155.6455858258514
 31
0.0
  0
LINE
  5
205
330
18
100
AcDbEntity
  8
1
  6
Continuous
100
AcDbLine
 10
111.6143985138341
 20
160.3807504802868
 30
0.0
 11
111.6143985138341
 21
155.4807504802868
 31
0.0
  0
LINE
  5
207
330
18
100
AcDbEntity
  8
1
  6
Continuous
100
AcDbLine
 10
110.4143985138343
 20
160.3807504802868
 30
0.0
 11
110.4143985138343
 21
155.4807504802868
 31
0.0
  0
ARC
  5
209
330
18
100
AcDbEntity
  8
1
  6
Continuous
100
AcDbCircle
 10
119.0643985138189
 20
130.8807504802867
 30
0.0
 40
3.75
100
AcDbArc
 50
11.53695903281813
 51
64.74379633844013
  0
ARC
  5
20A
330
18
100
AcDbEntity
  8
1
  6
Continuous
100
AcDbCircle
 10
119.0643985138189
 20
130.8807504802867
 30
0.0
 40
3.75
100
AcDbArc
 50
295.2562036615598
 51
348.4630409671853
  0
ARC
  5
20B
330
18
100
AcDbEntity
  8
1
  6
Continuous
100
AcDbCircle
 10
119.064398513818
 20
130.8807504802867
 30
0.0
 40
2.6
100
AcDbArc
 50
16.76587297267401
 51
163.234127027326
  0
ARC
  5
20C
330
18
100
AcDbEntity
  8
1
  6
Continuous
100
AcDbCircle
 10
119.064398513818
 20
130.8807504802867
 30
0.0
 40
2.6
100
AcDbArc
 50
196.7658729726691
 51
343.2341270273308
  0
ARC
  5
20D
330
18
100
AcDbEntity
  8
1
  6
Continuous
100
AcDbCircle
 10
119.0643985138189
 20
130.8807504802867
 30
0.0
 40
3.75
100
AcDbArc
 50
191.536959032814
 51
244.7437963384401
  0
ARC
  5
20E
330
18
100
AcDbEntity
  8
1
  6
Continuous
100
AcDbCircle
 10
119.0643985138189
 20
130.8807504802867
 30
0.0
 40
3.75
100
AcDbArc
 50
115.2562036615598
 51
168.4630409671818
  0
LINE
  5
20F
330
18
100
AcDbEntity
  8
1
  6
Continuous
100
AcDbLine
 10
121.464398513819
 20
131.8807504802867
 30
0.0
 11
121.464398513819
 21
131.6307504802867
 31
0.0
  0
LINE
  5
210
330
18
100
AcDbEntity
  8
1
  6
Continuous
100
AcDbLine
 10
121.464398513819
 20
130.1307504802867
 30
0.0
 11
121.464398513819
 21
129.8807504802867
 31
0.0
  0
LINE
  5
211
330
18
100
AcDbEntity
  8
1
  6
Continuous
100
AcDbLine
 10
116.6643985138189
 20
131.8807504802867
 30
0.0
 11
116.6643985138189
 21
131.6307504802867
 31
0.0
  0
LINE
  5
212
330
18
100
AcDbEntity
  8
1
  6
Continuous
100
AcDbLine
 10
116.6643985138189
 20
130.1307504802868
 30
0.0
 11
116.6643985138189
 21
129.8807504802867
 31
0.0
  0
ARC
  5
214
330
18
100
AcDbEntity
  8
1
  6
Continuous
100
AcDbCircle
 10
38.06637142852378
 20
156.5795983114291
 30
0.0
 40
21.62499999995298
100
AcDbArc
 50
345.5076754749614
 51
3.000000000180803
  0
LINE
  5
215
330
18
100
AcDbEntity
  8
1
  6
Continuous
100
AcDbLine
 10
61.33083286902643
 20
159.3008955907238
 30
0.0
 11
60.33414734210186
 21
153.2404274396817
 31
0.0
  0
LINE
  5
216
330
18
100
AcDbEntity
  8
1
  6
Continuous
100
AcDbLine
 10
60.33414734210163
 20
153.2404274396816
 30
0.0
 11
59.22760268853243
 21
151.1796911997145
 31
0.0
  0
LINE
  5
217
330
18
100
AcDbEntity
  8
1
  6
Continuous
100
AcDbLine
 10
62.95554987083503
 20
153.377809324819
 30
0.0
 11
64.27143834937609
 21
151.4440274257676
 31
0.0
  0
LINE
  5
218
330
18
100
AcDbEntity
  8
1
  6
Continuous
100
AcDbLine
 10
61.33083286900085
 20
159.3008955907214
 30
0.0
 11
62.9555498708354
 21
153.3778093248184
 31
0.0
  0
LINE
  5
219
330
18
100
AcDbEntity
  8
1
  6
Continuous
100
AcDbLine
 10
59.43782272266588
 20
145.8226970714711
 30
0.0
 11
59.29113705773055
 21
145.6754729919244
 31
0.0
  0
LINE
  5
21A
330
18
100
AcDbEntity
  8
1
  6
Continuous
100
AcDbLine
 10
64.62232828655372
 20
146.0944054947509
 30
0.0
 11
64.78359949886447
 21
145.9633207512687
 31
0.0
  0
ARC
  5
21B
330
18
100
AcDbEntity
  8
1
  6
Continuous
100
AcDbCircle
 10
64.63199385350927
 20
148.7091493875713
 30
0.0
 40
5.94230769226924
100
AcDbArc
 50
155.4331531920896
 51
209.0613612306996
  0
ARC
  5
21C
330
18
100
AcDbEntity
  8
1
  6
Continuous
100
AcDbCircle
 10
59.15489494374138
 20
148.422106796788
 30
0.0
 40
5.94230769226924
100
AcDbArc
 50
336.9386387693556
 51
30.56684680800754
  0
ARC
  5
21D
330
18
100
AcDbEntity
  8
1
  6
Continuous
100
AcDbCircle
 10
84.75230217820437
 20
159.0263042658565
 30
0.0
 40
21.62499999995298
100
AcDbArc
 50
183.0000000000016
 51
200.4923245252211
  0
LINE
  5
21E
330
18
100
AcDbEntity
  8
1
  6
Continuous
100
AcDbLine
 10
59.2276026885346
 20
151.1796911997151
 30
0.0
 11
64.27143834937614
 21
151.4440274257686
 31
0.0
  0
ARC
  5
21F
330
18
100
AcDbEntity
  8
1
  6
Continuous
100
AcDbCircle
 10
61.81093349261415
 20
150.1400299680839
 30
0.0
 40
5.126562500021691
100
AcDbArc
 50
240.5596126090529
 51
305.4403873910025
  0
ARC
  5
220
330
18
100
AcDbEntity
  8
1
  6
Continuous
100
AcDbCircle
 10
64.63199385350927
 20
148.7091493875713
 30
0.0
 40
6.14230769226924
100
AcDbArc
 50
156.4028593390145
 51
209.5971406613469
  0
ARC
  5
221
330
18
100
AcDbEntity
  8
1
  6
Continuous
100
AcDbCircle
 10
59.15489494374138
 20
148.422106796788
 30
0.0
 40
6.14230769226924
100
AcDbArc
 50
336.4028593388362
 51
29.59714066116737
  0
ARC
  5
222
330
18
100
AcDbEntity
  8
1
  6
Continuous
100
AcDbCircle
 10
123.7433458823715
 20
159.2830922320583
 30
0.0
 40
10.32105263143808
100
AcDbArc
 50
309.1845637815813
 51
0.0000000000903786
  0
LINE
  5
223
330
18
100
AcDbEntity
  8
1
  6
Continuous
100
AcDbLine
 10
130.2643985137886
 20
145.0134674680622
 30
0.0
 11
129.0643985137882
 21
145.0134674680603
 31
0.0
  0
LINE
  5
224
330
18
100
AcDbEntity
  8
1
  6
Continuous
100
AcDbLine
 10
130.2643985137887
 20
145.0134674680624
 30
0.0
 11
130.2643985137889
 21
151.2830922321077
 31
0.0
  0
ARC
  5
225
330
18
100
AcDbEntity
  8
1
  6
Continuous
100
AcDbCircle
 10
120.564398513814
 20
157.550919108503
 30
0.0
 40
10.0
100
AcDbArc
 50
328.2116693826696
 51
0.0000000000903786
  0
LINE
  5
227
330
18
100
AcDbEntity
  8
1
  6
Continuous
100
AcDbLine
 10
126.1643985137643
 20
170.683092232098
 30
0.0
 11
126.1643985137643
 21
171.2830922320952
 31
0.0
  0
LINE
  5
229
330
18
100
AcDbEntity
  8
1
  6
Continuous
100
AcDbLine
 10
130.5643985138093
 20
157.5509191085027
 30
0.0
 11
130.5643985138095
 21
164.127797330282
 31
0.0
  0
LINE
  5
22A
330
18
100
AcDbEntity
  8
1
  6
Continuous
100
AcDbLine
 10
134.0643985138095
 20
159.2830922320584
 30
0.0
 11
134.0643985138095
 21
164.1277973302775
 31
0.0
  0
LINE
  5
22B
330
18
100
AcDbEntity
  8
1
  6
Continuous
100
AcDbLine
 10
62.37451594333187
 20
172.8240507566059
 30
0.0
 11
63.15693848918527
 21
157.8945392120706
 31
0.0
  0
LINE
  5
22C
330
18
100
AcDbEntity
  8
1
  6
Continuous
100
AcDbLine
 10
58.87931257169114
 20
172.6408749097501
 30
0.0
 11
59.66173511754459
 21
157.7113633652143
 31
0.0
  0
ARC
  5
22E
330
18
100
AcDbEntity
  8
1
  6
Continuous
100
AcDbCircle
 10
114.38545114525
 20
159.2830922320505
 30
0.0
 40
10.32105263143808
100
AcDbArc
 50
180.0
 51
230.8154362185089
  0
LINE
  5
22F
330
18
100
AcDbEntity
  8
1
  6
Continuous
100
AcDbLine
 10
107.8643985138558
 20
145.0134674680622
 30
0.0
 11
109.0643985138561
 21
145.0134674680623
 31
0.0
  0
LINE
  5
230
330
18
100
AcDbEntity
  8
1
  6
Continuous
100
AcDbLine
 10
107.864398513856
 20
145.0134674680628
 30
0.0
 11
107.8643985138458
 21
151.2830922320899
 31
0.0
  0
ARC
  5
231
330
18
100
AcDbEntity
  8
1
  6
Continuous
100
AcDbCircle
 10
117.5643985138103
 20
157.5509191085008
 30
0.0
 40
10.0
100
AcDbArc
 50
180.0
 51
211.7883306174203
  0
LINE
  5
233
330
18
100
AcDbEntity
  8
1
  6
Continuous
100
AcDbLine
 10
111.9643985138388
 20
170.6830922320853
 30
0.0
 11
111.9643985138379
 21
171.2830922320839
 31
0.0
  0
LINE
  5
234
330
18
100
AcDbEntity
  8
1
  6
Continuous
100
AcDbLine
 10
111.9643985138379
 20
171.2830922320837
 30
0.0
 11
126.1643985137643
 21
171.2830922321067
 31
0.0
  0
LINE
  5
235
330
18
100
AcDbEntity
  8
1
  6
Continuous
100
AcDbLine
 10
107.5643985138146
 20
157.5509191084845
 30
0.0
 11
107.5643985138041
 21
164.1277973302639
 31
0.0
  0
LINE
  5
236
330
18
100
AcDbEntity
  8
1
  6
Continuous
100
AcDbLine
 10
104.0643985138118
 20
159.2830922320348
 30
0.0
 11
104.0643985138042
 21
164.1277973302539
 31
0.0
  0
ARC
  5
238
330
18
100
AcDbEntity
  8
1
  6
Continuous
100
AcDbCircle
 10
62.22409653542036
 20
117.1000169414874
 30
0.0
 40
7.2
100
AcDbArc
 50
0.0
 51
46.01703686963927
  0
LINE
  5
239
330
18
100
AcDbEntity
  8
1
  6
Continuous
100
AcDbLine
 10
123.1273108008872
 20
110.3807504802866
 30
0.0
 11
123.1273108008896
 21
116.3436627673513
 31
0.0
  0
ARC
  5
23A
330
18
100
AcDbEntity
  8
1
  6
Continuous
100
AcDbCircle
 10
121.9273108008895
 20
116.3436627673523
 30
0.0
 40
1.199999999999999
100
AcDbArc
 50
0.0
 51
90.0
  0
LINE
  5
23B
330
18
100
AcDbEntity
  8
1
  6
Continuous
100
AcDbLine
 10
116.2014862267479
 20
117.5436627673522
 30
0.0
 11
121.9273108008892
 21
117.5436627673522
 31
0.0
  0
ARC
  5
23C
330
18
100
AcDbEntity
  8
1
  6
Continuous
100
AcDbCircle
 10
116.2014862267483
 20
116.3436627673518
 30
0.0
 40
1.199999999999999
100
AcDbArc
 50
90.0
 51
180.0
  0
LINE
  5
23D
330
18
100
AcDbEntity
  8
1
  6
Continuous
100
AcDbLine
 10
115.001486226748
 20
110.3807504802868
 30
0.0
 11
115.001486226748
 21
116.3436627673519
 31
0.0
  0
LINE
  5
23E
330
18
100
AcDbEntity
  8
1
  6
Continuous
100
AcDbLine
 10
110.2643985138184
 20
122.2807504802833
 30
0.0
 11
127.8643985138187
 21
122.2807504802833
 31
0.0
  0
LINE
  5
23F
330
18
100
AcDbEntity
  8
1
  6
Continuous
100
AcDbLine
 10
69.42409653542023
 20
117.1000169414875
 30
0.0
 11
69.42409653542023
 21
109.3807504802873
 31
0.0
  0
LINE
  5
240
330
18
100
AcDbEntity
  8
1
  6
Continuous
100
AcDbLine
 10
69.42409653542023
 20
109.3807504802868
 30
0.0
 11
68.22409653542042
 21
109.3807504802868
 31
0.0
  0
LINE
  5
241
330
18
100
AcDbEntity
  8
1
  6
Continuous
100
AcDbLine
 10
68.22409653542042
 20
109.5219288609188
 30
0.0
 11
68.22409653542042
 21
109.3807504802868
 31
0.0
  0
LINE
  5
244
330
18
100
AcDbEntity
  8
1
  6
Continuous
100
AcDbLine
 10
109.0643985138185
 20
155.4807504802867
 30
0.0
 11
112.8643985138187
 21
155.4807504802867
 31
0.0
  0
ARC
  5
245
330
18
100
AcDbEntity
  8
1
  6
Continuous
100
AcDbCircle
 10
112.8643985138187
 20
156.4807504802866
 30
0.0
 40
1.0
100
AcDbArc
 50
270.0
 51
0.0
  0
ARC
  5
246
330
18
100
AcDbEntity
  8
1
  6
Continuous
100
AcDbCircle
 10
127.0643985138185
 20
156.4807504802866
 30
0.0
 40
1.0
100
AcDbArc
 50
180.0
 51
270.0
  0
LINE
  5
247
330
18
100
AcDbEntity
  8
1
  6
Continuous
100
AcDbLine
 10
113.8643985138187
 20
159.0213096393892
 30
0.0
 11
113.8643985138187
 21
156.4807504802867
 31
0.0
  0
ARC
  5
248
330
18
100
AcDbEntity
  8
1
  6
Continuous
100
AcDbCircle
 10
114.8643985138196
 20
159.0213096393891
 30
0.0
 40
1.0
100
AcDbArc
 50
90.0
 51
180.0
  0
LINE
  5
249
330
18
100
AcDbEntity
  8
1
  6
Continuous
100
AcDbLine
 10
114.8643985138196
 20
160.0213096393892
 30
0.0
 11
125.0643985138185
 21
160.0213096393892
 31
0.0
  0
ARC
  5
24A
330
18
100
AcDbEntity
  8
1
  6
Continuous
100
AcDbCircle
 10
125.0643985138185
 20
159.0213096393891
 30
0.0
 40
1.0
100
AcDbArc
 50
0.0
 51
90.0
  0
LINE
  5
24B
330
18
100
AcDbEntity
  8
1
  6
Continuous
100
AcDbLine
 10
126.0643985138185
 20
159.0213096393892
 30
0.0
 11
126.0643985138185
 21
156.4807504802867
 31
0.0
  0
LINE
  5
24C
330
18
100
AcDbEntity
  8
1
  6
Continuous
100
AcDbLine
 10
127.0643985138185
 20
155.4807504802867
 30
0.0
 11
129.0643985138185
 21
155.4807504802867
 31
0.0
  0
ARC
  5
24D
330
18
100
AcDbEntity
  8
1
  6
Continuous
100
AcDbCircle
 10
63.02409653542054
 20
157.9807504802861
 30
0.0
 40
3.0
100
AcDbArc
 50
0.0
 51
90.55180954776123
  0
LINE
  5
24E
330
18
100
AcDbEntity
  8
1
  6
Continuous
100
AcDbLine
 10
67.22409653542041
 20
155.4807504802867
 30
0.0
 11
66.0240965354206
 21
155.4807504802867
 31
0.0
  0
LINE
  5
24F
330
18
100
AcDbEntity
  8
1
  6
Continuous
100
AcDbLine
 10
66.0240965354206
 20
157.9807504802866
 30
0.0
 11
66.0240965354206
 21
155.4807504802867
 31
0.0
  0
ARC
  5
250
330
18
100
AcDbEntity
  8
1
  6
Continuous
100
AcDbCircle
 10
62.92409653542017
 20
156.9807504802866
 30
0.0
 40
4.299999999999955
100
AcDbArc
 50
0.0
 51
45.00000000000173
  0
LINE
  5
251
330
18
100
AcDbEntity
  8
1
  6
Continuous
100
AcDbLine
 10
65.54713777958368
 20
159.6037917244493
 30
0.0
 11
65.9646556945231
 21
160.0213096393886
 31
0.0
  0
LINE
  5
252
330
18
100
AcDbEntity
  8
1
  6
Continuous
100
AcDbLine
 10
109.0643985138185
 20
114.3807504802868
 30
0.0
 11
110.2643985138184
 21
114.3807504802868
 31
0.0
  0
ARC
  5
253
330
18
100
AcDbEntity
  8
1
  6
Continuous
100
AcDbCircle
 10
115.2643985138183
 20
114.3807504802867
 30
0.0
 40
5.0
100
AcDbArc
 50
180.0
 51
270.0
  0
ARC
  5
254
330
18
100
AcDbEntity
  8
1
  6
Continuous
100
AcDbCircle
 10
122.8643985138187
 20
114.3807504802867
 30
0.0
 40
5.0
100
AcDbArc
 50
270.0
 51
0.0
  0
LINE
  5
255
330
18
100
AcDbEntity
  8
1
  6
Continuous
100
AcDbLine
 10
129.0643985138185
 20
114.3807504802868
 30
0.0
 11
127.8643985138187
 21
114.3807504802868
 31
0.0
  0
LINE
  5
256
330
18
100
AcDbEntity
  8
1
  6
Continuous
100
AcDbLine
 10
117.4643985138192
 20
123.2807504802833
 30
0.0
 11
117.4643985138192
 21
127.4892169038644
 31
0.0
  0
LINE
  5
257
330
18
100
AcDbEntity
  8
1
  6
Continuous
100
AcDbLine
 10
117.4643985138192
 20
123.2807504802833
 30
0.0
 11
120.6643985138185
 21
123.2807504802833
 31
0.0
  0
LINE
  5
258
330
18
100
AcDbEntity
  8
1
  6
Continuous
100
AcDbLine
 10
120.6643985138185
 20
123.2807504802833
 30
0.0
 11
120.6643985138185
 21
127.4892169038644
 31
0.0
  0
LINE
  5
259
330
18
100
AcDbEntity
  8
1
  6
Continuous
100
AcDbLine
 10
117.4643985138192
 20
137.3807504802868
 30
0.0
 11
120.6643985138185
 21
137.3807504802868
 31
0.0
  0
LINE
  5
25A
330
18
100
AcDbEntity
  8
1
  6
Continuous
100
AcDbLine
 10
120.6643985138185
 20
137.3807504802873
 30
0.0
 11
120.6643985138185
 21
134.2722840567091
 31
0.0
  0
LINE
  5
25B
330
18
100
AcDbEntity
  8
1
  6
Continuous
100
AcDbLine
 10
117.4643985138192
 20
137.3807504802868
 30
0.0
 11
117.4643985138192
 21
134.2722840567091
 31
0.0
  0
LINE
  5
25C
330
18
100
AcDbEntity
  8
1
  6
Continuous
100
AcDbLine
 10
127.8643985138187
 20
160.9807504802867
 30
0.0
 11
129.0643985138185
 21
160.9807504802867
 31
0.0
  0
LINE
  5
25D
330
18
100
AcDbEntity
  8
1
  6
Continuous
100
AcDbLine
 10
109.0643985138185
 20
160.9807504802867
 30
0.0
 11
110.2643985138184
 21
160.9807504802867
 31
0.0
  0
LINE
  5
25E
330
18
100
AcDbEntity
  8
1
  6
Continuous
100
AcDbLine
 10
110.2643985138184
 20
155.4807504802867
 30
0.0
 11
110.2643985138184
 21
160.9807504802867
 31
0.0
  0
LINE
  5
25F
330
18
100
AcDbEntity
  8
1
  6
Continuous
100
AcDbLine
 10
127.8643985138187
 20
155.4807504802867
 30
0.0
 11
127.8643985138187
 21
160.9807504802867
 31
0.0
  0
LINE
  5
260
330
18
100
AcDbEntity
  8
1
  6
Continuous
100
AcDbLine
 10
129.0643985138185
 20
160.9807504802867
 30
0.0
 11
129.0643985138185
 21
114.3807504802868
 31
0.0
  0
LINE
  5
261
330
18
100
AcDbEntity
  8
1
  6
Continuous
100
AcDbLine
 10
109.0643985138185
 20
160.9807504802867
 30
0.0
 11
109.0643985138185
 21
114.3807504802868
 31
0.0
  0
LINE
  5
262
330
18
100
AcDbEntity
  8
4
  6
CENTER
 48
0.2
100
AcDbLine
 10
119.0643985138185
 20
175.7807504802866
 30
0.0
 11
119.0643985138185
 21
107.8807504802868
 31
0.0
  0
LINE
  5
263
330
18
100
AcDbEntity
  8
1
  6
Continuous
100
AcDbLine
 10
115.2643985138184
 20
109.3807504802868
 30
0.0
 11
122.8643985138187
 21
109.3807504802868
 31
0.0
  0
ARC
  5
264
330
18
100
AcDbEntity
  8
1
  6
Continuous
100
AcDbCircle
 10
62.42409653542064
 20
156.9807504802866
 30
0.0
 40
4.0
100
AcDbArc
 50
135.8502538235436
 51
180.0
  0
ARC
  5
265
330
18
100
AcDbEntity
  8
1
  6
Continuous
100
AcDbCircle
 10
62.42409653542018
 20
118.3807504802871
 30
0.0
 40
4.0
100
AcDbArc
 50
180.0
 51
270.0
  0
LINE
  5
266
330
18
100
AcDbEntity
  8
1
  6
Continuous
100
AcDbLine
 10
58.42409653542024
 20
156.9807504802866
 30
0.0
 11
58.42409653542024
 21
118.3807504802873
 31
0.0
  0
LINE
  5
267
330
18
100
AcDbEntity
  8
1
  6
Continuous
100
AcDbLine
 10
67.22409653542036
 20
156.9807504802866
 30
0.0
 11
67.22409653542036
 21
122.2807504802829
 31
0.0
  0
LINE
  5
268
330
18
100
AcDbEntity
  8
1
  6
Continuous
100
AcDbLine
 10
62.42409653542022
 20
114.3807504802868
 30
0.0
 11
67.22409653542041
 21
114.3807504802868
 31
0.0
  0
LINE
  5
269
330
18
100
AcDbEntity
  8
1
  6
Continuous
100
AcDbLine
 10
162.0643985137986
 20
169.7076405429283
 30
0.0
 11
176.0643985138767
 21
169.7076405429283
 31
0.0
  0
ARC
  5
26A
330
18
100
AcDbEntity
  8
1
  6
Continuous
100
AcDbCircle
 10
29.22409653541945
 20
171.7076405429274
 30
0.0
 40
2.0
100
AcDbArc
 50
255.5224878140709
 51
273.0000000000015
  0
ARC
  5
26B
330
18
100
AcDbEntity
  8
1
  6
Continuous
100
AcDbCircle
 10
32.50075565760381
 20
171.8793629709884
 30
0.0
 40
2.0
100
AcDbArc
 50
272.9999999999991
 51
349.9999999999956
  0
ARC
  5
26C
330
18
100
AcDbEntity
  8
1
  6
Continuous
100
AcDbCircle
 10
32.50075565760381
 20
171.8793629709875
 30
0.0
 40
0.5
100
AcDbArc
 50
272.9999999999933
 51
349.9999999999964
  0
ARC
  5
26D
330
18
100
AcDbEntity
  8
1
  6
Continuous
100
AcDbCircle
 10
29.22409653541945
 20
171.7076405429265
 30
0.0
 40
0.5
100
AcDbArc
 50
180.0
 51
272.9999999999933
  0
LINE
  5
26E
330
18
100
AcDbEntity
  8
1
  6
Continuous
100
AcDbLine
 10
33.97851201276788
 20
177.3807504802848
 30
0.0
 11
35.45572364228616
 21
177.1202782137843
 31
0.0
  0
LINE
  5
26F
330
18
100
AcDbEntity
  8
1
  6
Continuous
100
AcDbLine
 10
34.47037116362884
 20
171.5320666156545
 30
0.0
 11
35.45572364228721
 21
177.1202782137851
 31
0.0
  0
LINE
  5
270
330
18
100
AcDbEntity
  8
1
  6
Continuous
100
AcDbLine
 10
29.32876844790655
 20
169.7103814734191
 30
0.0
 11
32.60542757009005
 21
169.8821039014805
 31
0.0
  0
LINE
  5
271
330
18
100
AcDbEntity
  8
1
  6
Continuous
100
AcDbLine
 10
32.99315953410894
 20
171.7925388821544
 30
0.0
 11
33.97851201276762
 21
177.3807504802876
 31
0.0
  0
LINE
  5
272
330
18
100
AcDbEntity
  8
1
  6
Continuous
100
AcDbLine
 10
29.25026451354048
 20
171.2083257755495
 30
0.0
 11
32.52692363572495
 21
171.3800482036105
 31
0.0
  0
LINE
  5
273
330
18
100
AcDbEntity
  8
1
  6
Continuous
100
AcDbLine
 10
28.7240965354195
 20
177.3807504802868
 30
0.0
 11
27.2240965354195
 21
177.3807504802868
 31
0.0
  0
LINE
  5
274
330
18
100
AcDbEntity
  8
4
  6
CENTER
 48
0.2
100
AcDbLine
 10
30.2240965354195
 20
173.3807504802868
 30
0.0
 11
25.7240965354195
 21
173.3807504802868
 31
0.0
  0
LINE
  5
275
330
18
100
AcDbEntity
  8
1
  6
Continuous
100
AcDbLine
 10
27.2240965354195
 20
177.3807504802868
 30
0.0
 11
27.2240965354195
 21
169.3807504802868
 31
0.0
  0
LINE
  5
276
330
18
100
AcDbEntity
  8
1
  6
Continuous
100
AcDbLine
 10
28.7240965354195
 20
169.3807504802868
 30
0.0
 11
27.2240965354195
 21
169.3807504802868
 31
0.0
  0
LINE
  5
277
330
18
100
AcDbEntity
  8
1
  6
Continuous
100
AcDbLine
 10
28.7240965354195
 20
177.3807504802868
 30
0.0
 11
28.7240965354195
 21
169.3807504802876
 31
0.0
  0
ARC
  5
278
330
18
100
AcDbEntity
  8
1
  6
Continuous
100
AcDbCircle
 10
174.0643985138771
 20
175.1202782137865
 30
0.0
 40
2.0
100
AcDbArc
 50
0.0
 51
90.0
  0
LINE
  5
279
330
18
100
AcDbEntity
  8
1
  6
Continuous
100
AcDbLine
 10
164.0643985137991
 20
177.1202782137866
 30
0.0
 11
174.0643985138771
 21
177.1202782137866
 31
0.0
  0
ARC
  5
27A
330
18
100
AcDbEntity
  8
1
  6
Continuous
100
AcDbCircle
 10
164.064398513799
 20
175.1202782137865
 30
0.0
 40
2.0
100
AcDbArc
 50
90.0
 51
180.0
  0
ARC
  5
27B
330
18
100
AcDbEntity
  8
1
  6
Continuous
100
AcDbCircle
 10
164.064398513799
 20
175.3807504802866
 30
0.0
 40
2.0
100
AcDbArc
 50
90.0
 51
180.0
  0
ARC
  5
27C
330
18
100
AcDbEntity
  8
1
  6
Continuous
100
AcDbCircle
 10
174.0643985138771
 20
175.3807504802866
 30
0.0
 40
2.0
100
AcDbArc
 50
0.0
 51
90.0
  0
LINE
  5
27D
330
18
100
AcDbEntity
  8
4
  6
CENTER
 48
0.2
100
AcDbLine
 10
179.5643985139677
 20
167.8807504802868
 30
0.0
 11
179.5643985139677
 21
178.8807504802868
 31
0.0
  0
CIRCLE
  5
27E
330
18
100
AcDbEntity
  8
1
  6
Continuous
100
AcDbCircle
 10
179.5643985139681
 20
173.3807504802866
 30
0.0
 40
1.8
  0
CIRCLE
  5
27F
330
18
100
AcDbEntity
  8
1
  6
Continuous
100
AcDbCircle
 10
179.5643985139681
 20
173.3807504802866
 30
0.0
 40
3.25
  0
ARC
  5
280
330
18
100
AcDbEntity
  8
1
  6
Continuous
100
AcDbCircle
 10
179.5643985139681
 20
173.3807504802866
 30
0.0
 40
4.0
100
AcDbArc
 50
270.0
 51
90.0
  0
LINE
  5
281
330
18
100
AcDbEntity
  8
1
  6
Continuous
100
AcDbLine
 10
179.5643985139682
 20
169.3807504802868
 30
0.0
 11
178.0643985138771
 21
169.3807504802868
 31
0.0
  0
LINE
  5
282
330
18
100
AcDbEntity
  8
1
  6
Continuous
100
AcDbLine
 10
176.0643985138769
 20
171.3807504802861
 30
0.0
 11
178.0643985138771
 21
169.3807504802858
 31
0.0
  0
LINE
  5
283
330
18
100
AcDbEntity
  8
1
  6
Continuous
100
AcDbLine
 10
176.0643985138767
 20
175.3807504802866
 30
0.0
 11
176.0643985138767
 21
169.7076405429283
 31
0.0
  0
LINE
  5
284
330
18
100
AcDbEntity
  8
1
  6
Continuous
100
AcDbLine
 10
179.5643985139682
 20
177.3807504802868
 30
0.0
 11
158.5643985137081
 21
177.3807504802866
 31
0.0
  0
ARC
  5
285
330
18
100
AcDbEntity
  8
1
  6
Continuous
100
AcDbCircle
 10
158.5643985137081
 20
173.3807504802866
 30
0.0
 40
4.0
100
AcDbArc
 50
90.0
 51
270.0
  0
LINE
  5
287
330
18
100
AcDbEntity
  8
1
  6
Continuous
100
AcDbLine
 10
162.0643985137979
 20
171.3807504802868
 30
0.0
 11
160.0643985137982
 21
169.380750480287
 31
0.0
  0
LINE
  5
288
330
18
100
AcDbEntity
  8
4
  6
CENTER
 48
0.2
100
AcDbLine
 10
158.5643985137076
 20
167.8807504802868
 30
0.0
 11
158.5643985137076
 21
178.8807504802868
 31
0.0
  0
CIRCLE
  5
289
330
18
100
AcDbEntity
  8
1
  6
Continuous
100
AcDbCircle
 10
158.5643985137081
 20
173.3807504802866
 30
0.0
 40
3.25
  0
CIRCLE
  5
28A
330
18
100
AcDbEntity
  8
1
  6
Continuous
100
AcDbCircle
 10
158.5643985137081
 20
173.3807504802866
 30
0.0
 40
1.8
  0
LINE
  5
28B
330
18
100
AcDbEntity
  8
1
  6
Continuous
100
AcDbLine
 10
158.5643985137081
 20
169.3807504802868
 30
0.0
 11
160.0643985137991
 21
169.3807504802868
 31
0.0
  0
LINE
  5
28C
330
18
100
AcDbEntity
  8
4
  6
CENTER
 48
0.2
100
AcDbLine
 10
185.0643985139681
 20
173.3807504802868
 30
0.0
 11
153.064398513708
 21
173.3807504802868
 31
0.0
  0
LINE
  5
28D
330
18
100
AcDbEntity
  8
1
  6
Continuous
100
AcDbLine
 10
162.0643985137986
 20
175.3807504802866
 30
0.0
 11
162.0643985137986
 21
169.7076405429283
 31
0.0
  0
LINE
  5
28E
330
18
100
AcDbEntity
  8
4
  6
CENTER
 48
0.2
100
AcDbLine
 10
169.0643985137986
 20
178.8807504802868
 30
0.0
 11
169.0643985137986
 21
167.8807504802868
 31
0.0
  0
ARC
  5
28F
330
18
100
AcDbEntity
  8
1
  6
Continuous
100
AcDbCircle
 10
112.9893985138174
 20
160.3878725660993
 30
0.0
 40
0.9
100
AcDbArc
 50
90.0
 51
180.0
  0
LINE
  5
290
330
18
100
AcDbEntity
  8
1
  6
Continuous
100
AcDbLine
 10
112.9893985138169
 20
159.6807504802852
 30
0.0
 11
112.9893985138169
 21
160.3878725660994
 31
0.0
  0
LINE
  5
291
330
18
100
AcDbEntity
  8
1
  6
Continuous
100
AcDbLine
 10
112.7393985138169
 20
160.3878725660994
 30
0.0
 11
117.0893985138174
 21
160.3878725660994
 31
0.0
  0
LINE
  5
292
330
18
100
AcDbEntity
  8
1
  6
Continuous
100
AcDbLine
 10
112.9893985138174
 20
161.2878725660991
 30
0.0
 11
117.0893985138174
 21
161.2878725660991
 31
0.0
  0
LINE
  5
293
330
18
100
AcDbEntity
  8
1
  6
Continuous
100
AcDbLine
 10
58.42410264578589
 20
160.380750480287
 30
0.0
 11
58.30125475753971
 21
160.652512168745
 31
0.0
  0
LINE
  5
294
330
18
100
AcDbEntity
  8
1
  6
Continuous
100
AcDbLine
 10
59.41178554549907
 20
160.3807504802866
 30
0.0
 11
59.12135602712279
 21
161.0232329634526
 31
0.0
  0
ARC
  5
295
330
18
100
AcDbEntity
  8
1
  6
Continuous
100
AcDbCircle
 10
58.71130539233128
 20
160.8378725660991
 30
0.0
 40
0.45000000000005
100
AcDbArc
 50
24.32500000001413
 51
204.3249999999846
  0
ARC
  5
297
330
18
100
AcDbEntity
  8
1
  6
Continuous
100
AcDbCircle
 10
112.9893985138178
 20
159.2307504802861
 30
0.0
 40
0.45
100
AcDbArc
 50
354.2316704185602
 51
174.2894068624716
  0
ARC
  5
298
330
18
100
AcDbEntity
  8
1
  6
Continuous
100
AcDbCircle
 10
113.8893985138179
 20
159.2307504802861
 30
0.0
 40
0.45
100
AcDbArc
 50
65.19775078887909
 51
180.0
  0
LINE
  5
299
330
18
100
AcDbEntity
  8
1
  6
Continuous
100
AcDbLine
 10
117.0893985138174
 20
160.3878725660994
 30
0.0
 11
117.0893985138174
 21
161.2878725660991
 31
0.0
  0
LINE
  5
29A
330
18
100
AcDbEntity
  8
1
  6
Continuous
100
AcDbLine
 10
112.0893985138172
 20
158.4807504802865
 30
0.0
 11
112.0893985138172
 21
160.3878725660994
 31
0.0
  0
LINE
  5
29B
330
18
100
AcDbEntity
  8
1
  6
Continuous
100
AcDbLine
 10
112.1621541108656
 20
155.4807504802866
 30
0.0
 11
112.5416317782219
 21
159.275527153846
 31
0.0
  0
LINE
  5
29C
330
18
100
AcDbEntity
  8
1
  6
Continuous
100
AcDbLine
 10
113.4371199010248
 20
159.185522619007
 30
0.0
 11
113.0649235235683
 21
155.5010618968761
 31
0.0
  0
LINE
  5
29E
330
18
100
AcDbEntity
  8
5
  6
PHANTOM
 48
0.2
100
AcDbLine
 10
118.3143985138185
 20
125.3807504802867
 30
0.0
 11
119.8143985138185
 21
125.3807504802867
 31
0.0
  0
LINE
  5
29F
330
18
100
AcDbEntity
  8
5
  6
PHANTOM
 48
0.2
100
AcDbLine
 10
118.3143985138185
 20
136.3807504802862
 30
0.0
 11
119.8143985138185
 21
136.3807504802862
 31
0.0
  0
LINE
  5
2A0
330
18
100
AcDbEntity
  8
5
  6
PHANTOM
 48
0.2
100
AcDbLine
 10
118.3143985138185
 20
125.3807504802867
 30
0.0
 11
118.3143985138185
 21
136.3807504802862
 31
0.0
  0
LINE
  5
2A1
330
18
100
AcDbEntity
  8
5
  6
PHANTOM
 48
0.2
100
AcDbLine
 10
119.8143985138185
 20
125.3807504802867
 30
0.0
 11
119.8143985138185
 21
136.3807504802862
 31
0.0
  0
ARC
  5
2A2
330
18
100
AcDbEntity
  8
5
  6
PHANTOM
 48
0.2
100
AcDbCircle
 10
71.22409653541945
 20
130.8807504802862
 30
0.0
 40
5.499999999999716
100
AcDbArc
 50
270.0
 51
90.0
  0
CIRCLE
  5
2A3
330
18
100
AcDbEntity
  8
5
  6
PHANTOM
 48
0.2
100
AcDbCircle
 10
71.92409653541929
 20
130.8807504802867
 30
0.0
 40
3.1
  0
LINE
  5
2A4
330
18
100
AcDbEntity
  8
5
  6
PHANTOM
 48
0.2
100
AcDbLine
 10
71.2240965354199
 20
136.3807504802862
 30
0.0
 11
67.22409653542036
 21
136.3807504802862
 31
0.0
  0
LINE
  5
2A5
330
18
100
AcDbEntity
  8
5
  6
PHANTOM
 48
0.2
100
AcDbLine
 10
71.2240965354199
 20
125.3807504802867
 30
0.0
 11
67.22409653541991
 21
125.3807504802867
 31
0.0
  0
LINE
  5
2A6
330
18
100
AcDbEntity
  8
4
  6
CENTER
 48
0.2
100
AcDbLine
 10
71.92409653541929
 20
135.4807504802866
 30
0.0
 11
71.92409653541929
 21
126.2807504802867
 31
0.0
  0
LINE
  5
2A7
330
18
100
AcDbEntity
  8
4
  6
CENTER
 48
0.2
100
AcDbLine
 10
79.42409653541968
 20
130.8807504802867
 30
0.0
 11
62.02601120224311
 21
130.8807504802867
 31
0.0
  0
LINE
  5
2A8
330
18
100
AcDbEntity
  8
1
  6
Continuous
100
AcDbLine
 10
121.4643985138181
 20
129.8807504802867
 30
0.0
 11
116.6643985138189
 21
129.8807504802867
 31
0.0
  0
LINE
  5
2A9
330
18
100
AcDbEntity
  8
1
  6
Continuous
100
AcDbLine
 10
121.464398513819
 20
131.8807504802867
 30
0.0
 11
116.6643985138189
 21
131.8807504802867
 31
0.0
  0
LINE
  5
2AA
330
18
100
AcDbEntity
  8
4
  6
CENTER
 48
0.2
100
AcDbLine
 10
125.5643985138185
 20
130.8807504802867
 30
0.0
 11
112.5643985138185
 21
130.8807504802867
 31
0.0
  0
LINE
  5
2AC
330
18
100
AcDbEntity
  8
1
  6
Continuous
100
AcDbLine
 10
113.5643985138185
 20
131.6307504802868
 30
0.0
 11
113.5643985138185
 21
130.1307504802868
 31
0.0
  0
LINE
  5
2AD
330
18
100
AcDbEntity
  8
1
  6
Continuous
100
AcDbLine
 10
124.5643985138181
 20
131.6307504802868
 30
0.0
 11
124.5643985138181
 21
130.1307504802868
 31
0.0
  0
LINE
  5
2AE
330
18
100
AcDbEntity
  8
1
  6
Continuous
100
AcDbLine
 10
113.5643985138185
 20
131.6307504802868
 30
0.0
 11
124.5643985138181
 21
131.6307504802868
 31
0.0
  0
LINE
  5
2AF
330
18
100
AcDbEntity
  8
1
  6
Continuous
100
AcDbLine
 10
113.5643985138185
 20
130.1307504802868
 30
0.0
 11
124.5643985138181
 21
130.1307504802868
 31
0.0
  0
LINE
  5
2B0
330
18
100
AcDbEntity
  8
1
  6
Continuous
100
AcDbLine
 10
77.92409653541989
 20
130.1307504802867
 30
0.0
 11
77.92409653541989
 21
131.6307504802867
 31
0.0
  0
LINE
  5
2B1
330
18
100
AcDbEntity
  8
1
  6
Continuous
100
AcDbLine
 10
77.92409653541972
 20
131.6307504802866
 30
0.0
 11
67.22409653542036
 21
131.6307504802866
 31
0.0
  0
LINE
  5
2B3
330
18
100
AcDbEntity
  8
1
  6
Continuous
100
AcDbLine
 10
77.92409653541972
 20
130.1307504802866
 30
0.0
 11
67.22409653542036
 21
130.1307504802866
 31
0.0
  0
LINE
  5
2B5
330
18
100
AcDbEntity
  8
4
  6
CENTER
 48
0.2
100
AcDbLine
 10
73.1240965354191
 20
128.6307504802865
 30
0.0
 11
73.1240965354191
 21
133.1307504802865
 31
0.0
  0
LINE
  5
2B8
330
18
100
AcDbEntity
  8
1
  6
Continuous
100
AcDbLine
 10
58.42409653541932
 20
122.680750480287
 30
0.0
 11
57.22409653541951
 21
122.680750480287
 31
0.0
  0
LINE
  5
2B9
330
18
100
AcDbEntity
  8
1
  6
Continuous
100
AcDbLine
 10
58.42409653541932
 20
139.0807504802871
 30
0.0
 11
57.22409653541951
 21
139.0807504802871
 31
0.0
  0
LINE
  5
2CE
330
18
100
AcDbEntity
  8
1
  6
Continuous
100
AcDbLine
 10
58.42409653541932
 20
123.8807504802868
 30
0.0
 11
58.42409653541932
 21
109.3807504802868
 31
0.0
  0
LINE
  5
2CF
330
18
100
AcDbEntity
  8
1
  6
Continuous
100
AcDbLine
 10
58.42409653541932
 20
153.5807504803135
 30
0.0
 11
58.42409653541932
 21
137.8807504802868
 31
0.0
  0
LINE
  5
2D0
330
18
100
AcDbEntity
  8
1
  6
Continuous
100
AcDbLine
 10
58.42409653542016
 20
123.8807504802868
 30
0.0
 11
57.22409653541943
 21
123.8807504802868
 31
0.0
  0
LINE
  5
2D1
330
18
100
AcDbEntity
  8
1
  6
Continuous
100
AcDbLine
 10
58.42409653542016
 20
137.8807504802868
 30
0.0
 11
57.22409653541943
 21
137.8807504802868
 31
0.0
  0
LINE
  5
2D3
330
18
100
AcDbEntity
  8
1
  6
Continuous
100
AcDbLine
 10
57.22409653541951
 20
160.3807504802868
 30
0.0
 11
57.22409653541951
 21
109.3807504802868
 31
0.0
  0
LINE
  5
2D4
330
18
100
AcDbEntity
  8
4
  6
CENTER
 48
0.2
100
AcDbLine
 10
123.8143985138185
 20
148.3807504802868
 30
0.0
 11
114.3143985138185
 21
148.3807504802868
 31
0.0
  0
LINE
  5
2D5
330
18
100
AcDbEntity
  8
4
  6
CENTER
 48
0.2
100
AcDbLine
 10
123.8143985138185
 20
114.3807504802868
 30
0.0
 11
114.3143985138185
 21
114.3807504802868
 31
0.0
  0
LINE
  5
2D6
330
18
100
AcDbEntity
  8
4
  6
CENTER
 48
0.2
100
AcDbLine
 10
59.92409653541932
 20
148.3807504802868
 30
0.0
 11
55.7240965354195
 21
148.3807504802868
 31
0.0
  0
LINE
  5
2D7
330
18
100
AcDbEntity
  8
4
  6
CENTER
 48
0.2
100
AcDbLine
 10
59.92409653541932
 20
114.3807504802868
 30
0.0
 11
55.7240965354195
 21
114.3807504802868
 31
0.0
  0
LINE
  5
2D8
330
18
100
AcDbEntity
  8
1
  6
Continuous
100
AcDbLine
 10
58.42409653542002
 20
153.580750480313
 30
0.0
 11
57.22409653541888
 21
153.5807504803141
 31
0.0
  0
LINE
  5
2D9
330
18
100
AcDbEntity
  8
1
  6
Continuous
100
AcDbLine
 10
58.42409653541932
 20
109.3807504802868
 30
0.0
 11
57.22409653541951
 21
109.3807504802868
 31
0.0
  0
LINE
  5
2DA
330
18
100
AcDbEntity
  8
1
  6
Continuous
100
AcDbLine
 10
59.52183846679265
 20
160.3807504802868
 30
0.0
 11
57.22409653541943
 21
160.3807504802868
 31
0.0
  0
ARC
  5
2E4
330
18
100
AcDbEntity
  8
1
  6
Continuous
100
AcDbCircle
 10
74.12622108668975
 20
114.4336852828456
 30
0.0
 40
6.902327536024127
100
AcDbArc
 50
180.4394127186185
 51
227.0595762671158
  0
ARC
  5
2E5
330
18
100
AcDbEntity
  8
1
  6
Continuous
100
AcDbCircle
 10
74.96372139117458
 20
114.7362289650058
 30
0.0
 40
8.521236340565948
100
AcDbArc
 50
182.3908888606703
 51
217.7283351775664
  0
LINE
  5
7C9
330
18
100
AcDbEntity
  8
1
  6
Continuous
100
AcDbLine
 10
245.5376880285557
 20
171.2083257755495
 30
0.0
 11
242.2610289063712
 21
171.3800482036105
 31
0.0
  0
LINE
  5
7CA
330
18
100
AcDbEntity
  8
1
  6
Continuous
100
AcDbLine
 10
245.4591840941897
 20
169.7103814734191
 30
0.0
 11
242.1825249720062
 21
169.8821039014805
 31
0.0
  0
LINE
  5
7CB
330
18
100
AcDbEntity
  8
1
  6
Continuous
100
AcDbLine
 10
246.0638560066767
 20
177.3807504802868
 30
0.0
 11
246.0638560066767
 21
169.3807504802876
 31
0.0
  0
LINE
  5
7CC
330
18
100
AcDbEntity
  8
1
  6
Continuous
100
AcDbLine
 10
246.0638560066767
 20
169.3807504802868
 30
0.0
 11
247.5638560066767
 21
169.3807504802868
 31
0.0
  0
LINE
  5
7CD
330
18
100
AcDbEntity
  8
1
  6
Continuous
100
AcDbLine
 10
247.5638560066767
 20
177.3807504802868
 30
0.0
 11
247.5638560066767
 21
169.3807504802868
 31
0.0
  0
LINE
  5
7CE
330
18
100
AcDbEntity
  8
1
  6
Continuous
100
AcDbLine
 10
246.0638560066767
 20
177.3807504802868
 30
0.0
 11
247.5638560066767
 21
177.3807504802868
 31
0.0
  0
ARC
  5
7CF
330
18
100
AcDbEntity
  8
1
  6
Continuous
100
AcDbCircle
 10
245.5638560066768
 20
171.7076405429274
 30
0.0
 40
2.0
100
AcDbArc
 50
266.9999999999984
 51
284.477512185929
  0
ARC
  5
7D0
330
18
100
AcDbEntity
  8
1
  6
Continuous
100
AcDbCircle
 10
245.5638560066768
 20
171.7076405429265
 30
0.0
 40
0.5
100
AcDbArc
 50
267.0000000000066
 51
0.000000000000007
  0
LINE
  5
7D1
330
18
100
AcDbEntity
  8
4
  6
CENTER
 48
0.2
100
AcDbLine
 10
244.5638560066767
 20
173.3807504802868
 30
0.0
 11
249.0638560066767
 21
173.3807504802868
 31
0.0
  0
LINE
  5
7D5
330
18
100
AcDbEntity
  8
1
  6
Continuous
100
AcDbLine
 10
217.5638560066767
 20
160.3807504802868
 30
0.0
 11
217.5638560066767
 21
109.3807504802868
 31
0.0
  0
LINE
  5
7D6
330
18
100
AcDbEntity
  8
4
  6
CENTER
 48
0.2
100
AcDbLine
 10
202.8638560066769
 20
135.4807504802866
 30
0.0
 11
202.8638560066769
 21
126.2807504802867
 31
0.0
  0
ARC
  5
7D7
330
18
100
AcDbEntity
  8
5
  6
PHANTOM
 48
0.2
100
AcDbCircle
 10
203.5638560066768
 20
130.8807504802862
 30
0.0
 40
5.499999999999716
100
AcDbArc
 50
90.0
 51
270.0
  0
LINE
  5
7D8
330
18
100
AcDbEntity
  8
1
  6
Continuous
100
AcDbLine
 10
207.5638560066759
 20
156.9807504802866
 30
0.0
 11
207.5638560066759
 21
122.2807504802829
 31
0.0
  0
LINE
  5
7D9
330
18
100
AcDbEntity
  8
1
  6
Continuous
100
AcDbLine
 10
216.363856006676
 20
156.9807504802866
 30
0.0
 11
216.363856006676
 21
118.3807504802873
 31
0.0
  0
LINE
  5
7DC
330
18
100
AcDbEntity
  8
4
  6
CENTER
 48
0.2
100
AcDbLine
 10
195.3638560066765
 20
130.8807504802867
 30
0.0
 11
212.7619413398531
 21
130.8807504802867
 31
0.0
  0
LINE
  5
7DD
330
18
100
AcDbEntity
  8
1
  6
Continuous
100
AcDbLine
 10
212.363856006676
 20
114.3807504802868
 30
0.0
 11
207.5638560066758
 21
114.3807504802868
 31
0.0
  0
LINE
  5
7DE
330
18
100
AcDbEntity
  8
1
  6
Continuous
100
AcDbLine
 10
216.3638560066769
 20
123.8807504802868
 30
0.0
 11
216.3638560066769
 21
109.3807504802868
 31
0.0
  0
ARC
  5
7DF
330
18
100
AcDbEntity
  8
1
  6
Continuous
100
AcDbCircle
 10
212.3638560066761
 20
118.3807504802871
 30
0.0
 40
4.0
100
AcDbArc
 50
270.0
 51
0.000000000000007
  0
LINE
  5
7E0
330
18
100
AcDbEntity
  8
1
  6
Continuous
100
AcDbLine
 10
216.3638560066769
 20
109.3807504802868
 30
0.0
 11
217.5638560066767
 21
109.3807504802868
 31
0.0
  0
LINE
  5
7E2
330
18
100
AcDbEntity
  8
4
  6
CENTER
 48
0.2
100
AcDbLine
 10
214.8638560066769
 20
114.3807504802868
 30
0.0
 11
219.0638560066767
 21
114.3807504802868
 31
0.0
  0
LINE
  5
7E3
330
18
100
AcDbEntity
  8
1
  6
Continuous
100
AcDbLine
 10
216.3638560066761
 20
123.8807504802868
 30
0.0
 11
217.5638560066768
 21
123.8807504802868
 31
0.0
  0
LINE
  5
7E4
330
18
100
AcDbEntity
  8
1
  6
Continuous
100
AcDbLine
 10
216.3638560066769
 20
122.680750480287
 30
0.0
 11
217.5638560066767
 21
122.680750480287
 31
0.0
  0
ARC
  5
7E5
330
18
100
AcDbEntity
  8
1
  6
Continuous
100
AcDbCircle
 10
199.8242311509216
 20
114.7362289650058
 30
0.0
 40
8.521236340565948
100
AcDbArc
 50
322.2716648224335
 51
357.6091111393296
  0
ARC
  5
7E6
330
18
100
AcDbEntity
  8
1
  6
Continuous
100
AcDbCircle
 10
200.6617314554065
 20
114.4336852828456
 30
0.0
 40
6.902327536024127
100
AcDbArc
 50
312.9404237328841
 51
359.5605872813815
  0
LINE
  5
7E7
330
18
100
AcDbEntity
  8
1
  6
Continuous
100
AcDbLine
 10
205.363856006676
 20
117.1000169414875
 30
0.0
 11
205.363856006676
 21
109.3807504802873
 31
0.0
  0
LINE
  5
7E8
330
18
100
AcDbEntity
  8
1
  6
Continuous
100
AcDbLine
 10
206.5638560066758
 20
109.5219288609188
 30
0.0
 11
206.5638560066758
 21
109.3807504802868
 31
0.0
  0
LINE
  5
7E9
330
18
100
AcDbEntity
  8
1
  6
Continuous
100
AcDbLine
 10
205.363856006676
 20
109.3807504802868
 30
0.0
 11
206.5638560066758
 21
109.3807504802868
 31
0.0
  0
ARC
  5
7EA
330
18
100
AcDbEntity
  8
1
  6
Continuous
100
AcDbCircle
 10
212.5638560066759
 20
117.1000169414874
 30
0.0
 40
7.2
100
AcDbArc
 50
133.9829631303607
 51
180.0
  0
LINE
  5
7EB
330
18
100
AcDbEntity
  8
1
  6
Continuous
100
AcDbLine
 10
196.8638560066765
 20
130.1307504802866
 30
0.0
 11
207.5638560066759
 21
130.1307504802866
 31
0.0
  0
LINE
  5
7EC
330
18
100
AcDbEntity
  8
1
  6
Continuous
100
AcDbLine
 10
196.8638560066765
 20
131.6307504802866
 30
0.0
 11
207.5638560066759
 21
131.6307504802866
 31
0.0
  0
LINE
  5
7ED
330
18
100
AcDbEntity
  8
5
  6
PHANTOM
 48
0.2
100
AcDbLine
 10
203.5638560066763
 20
125.3807504802867
 30
0.0
 11
207.5638560066763
 21
125.3807504802867
 31
0.0
  0
CIRCLE
  5
7EE
330
18
100
AcDbEntity
  8
5
  6
PHANTOM
 48
0.2
100
AcDbCircle
 10
202.8638560066769
 20
130.8807504802867
 30
0.0
 40
3.1
  0
LINE
  5
7F1
330
18
100
AcDbEntity
  8
4
  6
CENTER
 48
0.2
100
AcDbLine
 10
201.6638560066772
 20
128.6307504802865
 30
0.0
 11
201.6638560066772
 21
133.1307504802865
 31
0.0
  0
LINE
  5
7F2
330
18
100
AcDbEntity
  8
1
  6
Continuous
100
AcDbLine
 10
196.8638560066763
 20
130.1307504802867
 30
0.0
 11
196.8638560066763
 21
131.6307504802867
 31
0.0
  0
ARC
  5
7F3
330
18
100
AcDbEntity
  8
1
  6
Continuous
100
AcDbCircle
 10
212.977019049482
 20
150.1400299680835
 30
0.0
 40
4.926562500021423
100
AcDbArc
 50
235.203700250702
 51
298.7962997493776
  0
ARC
  5
7F4
330
18
100
AcDbEntity
  8
1
  6
Continuous
100
AcDbCircle
 10
211.7638560066757
 20
157.9807504802861
 30
0.0
 40
3.0
100
AcDbArc
 50
89.44819045223878
 51
180.0
  0
ARC
  5
7F6
330
18
100
AcDbEntity
  8
1
  6
Continuous
100
AcDbCircle
 10
190.0356503638918
 20
159.0263042658565
 30
0.0
 40
21.62499999995298
100
AcDbArc
 50
339.5076754747788
 51
356.9999999999982
  0
LINE
  5
7F7
330
18
100
AcDbEntity
  8
1
  6
Continuous
100
AcDbLine
 10
211.8324026712611
 20
153.377809324819
 30
0.0
 11
210.5165141927201
 21
151.4440274257676
 31
0.0
  0
LINE
  5
7F8
330
18
100
AcDbEntity
  8
1
  6
Continuous
100
AcDbLine
 10
215.5603498535616
 20
151.1796911997151
 30
0.0
 11
210.5165141927201
 21
151.4440274257686
 31
0.0
  0
ARC
  5
7F9
330
18
100
AcDbEntity
  8
1
  6
Continuous
100
AcDbCircle
 10
212.977019049482
 20
150.1400299680839
 30
0.0
 40
5.126562500021691
100
AcDbArc
 50
234.5596126089974
 51
299.440387390947
  0
CIRCLE
  5
7FA
330
18
100
AcDbEntity
  8
1
  6
Continuous
100
AcDbCircle
 10
212.8638560066774
 20
147.9807504802871
 30
0.0
 40
2.000000000000567
  0
LINE
  5
7FB
330
18
100
AcDbEntity
  8
4
  6
CENTER
 48
0.2
100
AcDbLine
 10
208.5638560066786
 20
147.9807504802866
 30
0.0
 11
217.1638560066781
 21
147.9807504802866
 31
0.0
  0
LINE
  5
7FD
330
18
100
AcDbEntity
  8
1
  6
Continuous
100
AcDbLine
 10
213.4571196730698
 20
159.3008955907238
 30
0.0
 11
214.4538051999944
 21
153.2404274396817
 31
0.0
  0
LINE
  5
7FE
330
18
100
AcDbEntity
  8
1
  6
Continuous
100
AcDbLine
 10
213.4571196730953
 20
159.3008955907214
 30
0.0
 11
211.8324026712608
 21
153.3778093248184
 31
0.0
  0
ARC
  5
7FF
330
18
100
AcDbEntity
  8
1
  6
Continuous
100
AcDbCircle
 10
236.7215811135725
 20
156.5795983114291
 30
0.0
 40
21.62499999995298
100
AcDbArc
 50
176.9999999998192
 51
194.4923245250384
  0
ARC
  5
800
330
18
100
AcDbEntity
  8
1
  6
Continuous
100
AcDbCircle
 10
210.155958688587
 20
148.7091493875713
 30
0.0
 40
6.14230769226924
100
AcDbArc
 50
330.402859338653
 51
23.59714066098544
  0
ARC
  5
801
330
18
100
AcDbEntity
  8
1
  6
Continuous
100
AcDbCircle
 10
210.155958688587
 20
148.7091493875713
 30
0.0
 40
5.94230769226924
100
AcDbArc
 50
330.9386387693003
 51
24.5668468079104
  0
LINE
  5
802
330
18
100
AcDbEntity
  8
1
  6
Continuous
100
AcDbLine
 10
216.3638560066769
 20
153.5807504803135
 30
0.0
 11
216.3638560066769
 21
137.8807504802868
 31
0.0
  0
LINE
  5
803
330
18
100
AcDbEntity
  8
4
  6
CENTER
 48
0.2
100
AcDbLine
 10
212.8638560066779
 20
152.2807504802868
 30
0.0
 11
212.8638560066779
 21
143.6807504802864
 31
0.0
  0
LINE
  5
805
330
18
100
AcDbEntity
  8
1
  6
Continuous
100
AcDbLine
 10
215.3501298194303
 20
145.8226970714711
 30
0.0
 11
215.4968154843657
 21
145.6754729919244
 31
0.0
  0
LINE
  5
806
330
18
100
AcDbEntity
  8
1
  6
Continuous
100
AcDbLine
 10
216.3638560066761
 20
137.8807504802868
 30
0.0
 11
217.5638560066768
 21
137.8807504802868
 31
0.0
  0
LINE
  5
807
330
18
100
AcDbEntity
  8
1
  6
Continuous
100
AcDbLine
 10
216.3638560066769
 20
139.0807504802871
 30
0.0
 11
217.5638560066767
 21
139.0807504802871
 31
0.0
  0
LINE
  5
808
330
18
100
AcDbEntity
  8
1
  6
Continuous
100
AcDbLine
 10
214.4538051999946
 20
153.2404274396816
 30
0.0
 11
215.5603498535638
 21
151.1796911997145
 31
0.0
  0
LINE
  5
809
330
18
100
AcDbEntity
  8
1
  6
Continuous
100
AcDbLine
 10
216.3638560066762
 20
153.580750480313
 30
0.0
 11
217.5638560066774
 21
153.5807504803141
 31
0.0
  0
LINE
  5
80A
330
18
100
AcDbEntity
  8
4
  6
CENTER
 48
0.2
100
AcDbLine
 10
214.8638560066769
 20
148.3807504802868
 30
0.0
 11
219.0638560066767
 21
148.3807504802868
 31
0.0
  0
LINE
  5
80B
330
18
100
AcDbEntity
  8
1
  6
Continuous
100
AcDbLine
 10
241.7947930079873
 20
171.7925388821544
 30
0.0
 11
240.8094405293286
 21
177.3807504802876
 31
0.0
  0
LINE
  5
80C
330
18
100
AcDbEntity
  8
1
  6
Continuous
100
AcDbLine
 10
240.3175813784674
 20
171.5320666156545
 30
0.0
 11
239.332228899809
 21
177.1202782137851
 31
0.0
  0
LINE
  5
80D
330
18
100
AcDbEntity
  8
1
  6
Continuous
100
AcDbLine
 10
240.8094405293284
 20
177.3807504802848
 30
0.0
 11
239.33222889981
 21
177.1202782137843
 31
0.0
  0
ARC
  5
80E
330
18
100
AcDbEntity
  8
1
  6
Continuous
100
AcDbCircle
 10
242.2871968844924
 20
171.8793629709884
 30
0.0
 40
2.0
100
AcDbArc
 50
190.0000000000043
 51
267.0000000000009
  0
ARC
  5
80F
330
18
100
AcDbEntity
  8
1
  6
Continuous
100
AcDbCircle
 10
242.2871968844924
 20
171.8793629709875
 30
0.0
 40
0.5
100
AcDbArc
 50
190.0000000000035
 51
267.0000000000066
  0
LINE
  5
810
330
18
100
AcDbEntity
  8
1
  6
Continuous
100
AcDbLine
 10
215.9086399704051
 20
172.6408749097501
 30
0.0
 11
215.1262174245516
 21
157.7113633652143
 31
0.0
  0
LINE
  5
811
330
18
100
AcDbEntity
  8
1
  6
Continuous
100
AcDbLine
 10
212.4134365987643
 20
172.8240507566059
 30
0.0
 11
211.631014052911
 21
157.8945392120706
 31
0.0
  0
LINE
  5
812
330
18
100
AcDbEntity
  8
1
  6
Continuous
100
AcDbLine
 10
215.2661140753036
 20
160.3807504802868
 30
0.0
 11
217.5638560066768
 21
160.3807504802868
 31
0.0
  0
ARC
  5
813
330
18
100
AcDbEntity
  8
1
  6
Continuous
100
AcDbCircle
 10
212.3638560066756
 20
156.9807504802866
 30
0.0
 40
4.0
100
AcDbArc
 50
0.000000000000007
 51
44.14974617645639
  0
LINE
  5
814
330
18
100
AcDbEntity
  8
1
  6
Continuous
100
AcDbLine
 10
213.0267198535423
 20
165.4188697602212
 30
0.0
 11
214.5246641556742
 21
165.3403658258568
 31
0.0
  0
LINE
  5
816
330
18
100
AcDbEntity
  8
1
  6
Continuous
100
AcDbLine
 10
215.3761669965971
 20
160.3807504802866
 30
0.0
 11
215.6665965149734
 21
161.0232329634526
 31
0.0
  0
LINE
  5
817
330
18
100
AcDbEntity
  8
1
  6
Continuous
100
AcDbLine
 10
216.3638498963103
 20
160.380750480287
 30
0.0
 11
216.4866977845565
 21
160.652512168745
 31
0.0
  0
ARC
  5
818
330
18
100
AcDbEntity
  8
1
  6
Continuous
100
AcDbCircle
 10
214.1370025120489
 20
172.2738329727765
 30
0.0
 40
1.80925925925726
100
AcDbArc
 50
11.70475871963864
 51
162.2952412806137
  0
LINE
  5
819
330
18
100
AcDbEntity
  8
1
  6
Continuous
100
AcDbLine
 10
208.7638560066756
 20
157.9807504802866
 30
0.0
 11
208.7638560066756
 21
155.4807504802867
 31
0.0
  0
LINE
  5
81A
330
18
100
AcDbEntity
  8
1
  6
Continuous
100
AcDbLine
 10
210.1656242555425
 20
146.0944054947509
 30
0.0
 11
210.0043530432317
 21
145.9633207512687
 31
0.0
  0
ARC
  5
81B
330
18
100
AcDbEntity
  8
1
  6
Continuous
100
AcDbCircle
 10
215.6330575983548
 20
148.422106796788
 30
0.0
 40
6.14230769226924
100
AcDbArc
 50
150.4028593388326
 51
203.5971406611638
  0
LINE
  5
81C
330
18
100
AcDbEntity
  8
5
  6
PHANTOM
 48
0.2
100
AcDbLine
 10
203.5638560066763
 20
136.3807504802862
 30
0.0
 11
207.5638560066759
 21
136.3807504802862
 31
0.0
  0
ARC
  5
81D
330
18
100
AcDbEntity
  8
1
  6
Continuous
100
AcDbCircle
 10
215.6330575983548
 20
148.422106796788
 30
0.0
 40
5.94230769226924
100
AcDbArc
 50
149.4331531919924
 51
203.0613612306443
  0
LINE
  5
81E
330
18
100
AcDbEntity
  8
1
  6
Continuous
100
AcDbLine
 10
207.5638560066758
 20
155.4807504802867
 30
0.0
 11
208.7638560066756
 21
155.4807504802867
 31
0.0
  0
LINE
  5
81F
330
18
100
AcDbEntity
  8
1
  6
Continuous
100
AcDbLine
 10
209.2408147625125
 20
159.6037917244493
 30
0.0
 11
208.8232968475731
 21
160.0213096393886
 31
0.0
  0
ARC
  5
820
330
18
100
AcDbEntity
  8
1
  6
Continuous
100
AcDbCircle
 10
211.863856006676
 20
156.9807504802866
 30
0.0
 40
4.299999999999955
100
AcDbArc
 50
134.9999999999982
 51
180.0
  0
ARC
  5
961
330
18
100
AcDbEntity
  8
1
  6
Continuous
100
AcDbCircle
 10
211.863856006676
 20
156.9807504802866
 30
0.0
 40
2.000000000000035
100
AcDbArc
 50
95.05788198689662
 51
253.4591668796784
  0
CIRCLE
  5
962
330
18
100
AcDbEntity
  8
1
  6
Continuous
100
AcDbCircle
 10
216.0766471497649
 20
160.8378725660991
 30
0.0
 40
0.4500000000000462
  0
LINE
  5
967
330
18
100
AcDbEntity
  8
4
  6
CENTER
 48
0.2
100
AcDbLine
 10
366.8337412451915
 20
173.3807504802868
 30
0.0
 11
334.8337412449314
 21
173.3807504802868
 31
0.0
  0
LINE
  5
96C
330
18
100
AcDbEntity
  8
4
  6
CENTER
 48
0.2
100
AcDbLine
 10
350.8337412450218
 20
178.8807504802868
 30
0.0
 11
350.8337412450218
 21
167.8807504802868
 31
0.0
  0
LINE
  5
96D
330
18
100
AcDbEntity
  8
4
  6
CENTER
 48
0.2
100
AcDbLine
 10
340.3337412449309
 20
167.8807504802868
 30
0.0
 11
340.3337412449309
 21
178.8807504802868
 31
0.0
  0
LINE
  5
96E
330
18
100
AcDbEntity
  8
4
  6
CENTER
 48
0.2
100
AcDbLine
 10
361.3337412451909
 20
167.8807504802868
 30
0.0
 11
361.3337412451909
 21
178.8807504802868
 31
0.0
  0
LINE
  5
970
330
18
100
AcDbEntity
  8
1
  6
Continuous
100
AcDbLine
 10
307.7394760000944
 20
174.0830922320337
 30
0.0
 11
293.9280064900274
 21
174.0830922320337
 31
0.0
  0
LINE
  5
971
330
18
100
AcDbEntity
  8
1
  6
Continuous
100
AcDbLine
 10
307.9337412450224
 20
171.2830922320837
 30
0.0
 11
293.7337412450962
 21
171.2830922321067
 31
0.0
  0
CIRCLE
  5
972
330
18
100
AcDbEntity
  8
3
  6
DASHED
 48
0.25
100
AcDbCircle
 10
300.8337412450419
 20
114.3807504802867
 30
0.0
 40
3.25
  0
CIRCLE
  5
973
330
18
100
AcDbEntity
  8
3
  6
DASHED
 48
0.25
100
AcDbCircle
 10
300.8337412450419
 20
148.3807504802867
 30
0.0
 40
3.25
  0
LINE
  5
974
330
18
100
AcDbEntity
  8
4
  6
CENTER
 48
0.2
100
AcDbLine
 10
296.0837412450418
 20
114.3807504802868
 30
0.0
 11
305.5837412450419
 21
114.3807504802868
 31
0.0
  0
LINE
  5
975
330
18
100
AcDbEntity
  8
4
  6
CENTER
 48
0.2
100
AcDbLine
 10
296.0837412450418
 20
148.3807504802868
 30
0.0
 11
305.5837412450419
 21
148.3807504802868
 31
0.0
  0
ARC
  5
976
330
18
100
AcDbEntity
  8
1
  6
Continuous
100
AcDbCircle
 10
300.8337412450414
 20
116.3807504802862
 30
0.0
 40
7.000000000000227
100
AcDbArc
 50
180.0
 51
0.000000000000007
  0
LINE
  5
97A
330
18
100
AcDbEntity
  8
1
  6
Continuous
100
AcDbLine
 10
304.6337412450419
 20
109.3807504802868
 30
0.0
 11
297.0337412450417
 21
109.3807504802868
 31
0.0
  0
LINE
  5
980
330
18
100
AcDbEntity
  8
1
  6
Continuous
100
AcDbLine
 10
292.1837412450263
 20
160.3807504802868
 30
0.0
 11
309.483741245026
 21
160.3807504802868
 31
0.0
  0
LINE
  5
981
330
18
100
AcDbEntity
  8
4
  6
CENTER
 48
0.2
100
AcDbLine
 10
313.133741245041
 20
156.9807504802866
 30
0.0
 11
288.8337412450418
 21
156.9807504802866
 31
0.0
  0
LINE
  5
982
330
18
100
AcDbEntity
  8
1
  6
Continuous
100
AcDbLine
 10
306.6337412450419
 20
139.0807504802871
 30
0.0
 11
306.6337412450418
 21
137.8807504802868
 31
0.0
  0
LINE
  5
983
330
18
100
AcDbEntity
  8
1
  6
Continuous
100
AcDbLine
 10
307.8337412450419
 20
137.8807504802868
 30
0.0
 11
307.8337412450419
 21
123.8807504802868
 31
0.0
  0
LINE
  5
986
330
18
100
AcDbEntity
  8
4
  6
CENTER
 48
0.2
100
AcDbLine
 10
300.8337412450419
 20
175.7807504802866
 30
0.0
 11
300.8337412450419
 21
107.8807504802868
 31
0.0
  0
LINE
  5
987
330
18
100
AcDbEntity
  8
1
  6
Continuous
100
AcDbLine
 10
310.8337412450418
 20
160.9807504802867
 30
0.0
 11
310.8337412450418
 21
114.3807504802868
 31
0.0
  0
CIRCLE
  5
98A
330
18
100
AcDbEntity
  8
1
  6
Continuous
100
AcDbCircle
 10
300.8337412450419
 20
114.3807504802867
 30
0.0
 40
2.149999999999999
  0
ARC
  5
98B
330
18
100
AcDbEntity
  8
1
  6
Continuous
100
AcDbCircle
 10
304.633741245042
 20
114.3807504802867
 30
0.0
 40
5.0
100
AcDbArc
 50
270.0
 51
0.000000000000007
  0
LINE
  5
98F
330
18
100
AcDbEntity
  8
1
  6
Continuous
100
AcDbLine
 10
306.6337412450419
 20
123.8807504802868
 30
0.0
 11
307.8337412450419
 21
123.8807504802868
 31
0.0
  0
LINE
  5
990
330
18
100
AcDbEntity
  8
1
  6
Continuous
100
AcDbLine
 10
306.6337412450419
 20
122.680750480287
 30
0.0
 11
307.8337412450419
 21
122.680750480287
 31
0.0
  0
LINE
  5
991
330
18
100
AcDbEntity
  8
1
  6
Continuous
100
AcDbLine
 10
307.8337412450419
 20
122.680750480287
 30
0.0
 11
307.8337412450419
 21
116.3807504802864
 31
0.0
  0
LINE
  5
992
330
18
100
AcDbEntity
  8
1
  6
Continuous
100
AcDbLine
 10
310.8337412450418
 20
114.3807504802868
 30
0.0
 11
309.6337412450419
 21
114.3807504802868
 31
0.0
  0
ARC
  5
9A2
330
18
100
AcDbEntity
  8
1
  6
Continuous
100
AcDbCircle
 10
305.5126886136104
 20
159.2830922320505
 30
0.0
 40
10.32105263143808
100
AcDbArc
 50
309.184563781491
 51
0.000000000000007
  0
ARC
  5
9A3
330
18
100
AcDbEntity
  8
1
  6
Continuous
100
AcDbCircle
 10
302.3337412450501
 20
157.5509191085008
 30
0.0
 40
10.0
100
AcDbArc
 50
328.2116693825796
 51
0.000000000000007
  0
LINE
  5
9A6
330
18
100
AcDbEntity
  8
1
  6
Continuous
100
AcDbLine
 10
309.633741245042
 20
114.3807504802868
 30
0.0
 11
309.6337412450419
 21
160.9807504802867
 31
0.0
  0
LINE
  5
9A8
330
18
100
AcDbEntity
  8
1
  6
Continuous
100
AcDbLine
 10
309.483741245026
 20
160.3807504802868
 30
0.0
 11
309.483741245026
 21
153.5807504802871
 31
0.0
  0
ARC
  5
9AA
330
18
100
AcDbEntity
  8
1
  6
Continuous
100
AcDbCircle
 10
307.7337412450415
 20
156.9807504802866
 30
0.0
 40
3.9
100
AcDbArc
 50
323.861185336868
 51
36.13881466313197
  0
LINE
  5
9AB
330
18
100
AcDbEntity
  8
1
  6
Continuous
100
AcDbLine
 10
310.883344394645
 20
154.6807504802863
 30
0.0
 11
310.883344394645
 21
159.2807504802856
 31
0.0
  0
LINE
  5
9AC
330
18
100
AcDbEntity
  8
4
  6
CENTER
 48
0.2
100
AcDbLine
 10
287.1640065323172
 20
147.9807504802866
 30
0.0
 11
314.5337412450089
 21
147.9807504802866
 31
0.0
  0
LINE
  5
9AD
330
18
100
AcDbEntity
  8
1
  6
Continuous
100
AcDbLine
 10
312.0337412450044
 20
145.0134674680628
 30
0.0
 11
312.0337412450145
 21
151.2830922320899
 31
0.0
  0
LINE
  5
9AE
330
18
100
AcDbEntity
  8
1
  6
Continuous
100
AcDbLine
 10
307.8337412450419
 20
153.5807504802871
 30
0.0
 11
307.8337412450419
 21
139.0807504802871
 31
0.0
  0
LINE
  5
9AF
330
18
100
AcDbEntity
  8
1
  6
Continuous
100
AcDbLine
 10
313.0337412450089
 20
145.6807504802864
 30
0.0
 11
313.0337412450089
 21
150.2807504802868
 31
0.0
  0
LINE
  5
9B0
330
18
100
AcDbEntity
  8
1
  6
Continuous
100
AcDbLine
 10
312.0337412450046
 20
145.0134674680622
 30
0.0
 11
310.8337412450042
 21
145.0134674680623
 31
0.0
  0
LINE
  5
9B1
330
18
100
AcDbEntity
  8
1
  6
Continuous
100
AcDbLine
 10
306.6337412450419
 20
139.0807504802871
 30
0.0
 11
307.8337412450419
 21
139.0807504802871
 31
0.0
  0
LINE
  5
9B2
330
18
100
AcDbEntity
  8
1
  6
Continuous
100
AcDbLine
 10
306.6337412450419
 20
137.8807504802868
 30
0.0
 11
307.8337412450419
 21
137.8807504802868
 31
0.0
  0
ARC
  5
9B4
330
18
100
AcDbEntity
  8
1
  6
Continuous
100
AcDbCircle
 10
312.5337412450085
 20
145.6807504802864
 30
0.0
 40
0.4999999999999858
100
AcDbArc
 50
180.0
 51
0.000000000000007
  0
LINE
  5
9B7
330
18
100
AcDbEntity
  8
1
  6
Continuous
100
AcDbLine
 10
307.8337412450419
 20
153.5807504802871
 30
0.0
 11
309.4837412450258
 21
153.5807504802871
 31
0.0
  0
LINE
  5
9B9
330
18
100
AcDbEntity
  8
1
  6
Continuous
100
AcDbLine
 10
309.6337412450419
 20
155.4807504802867
 30
0.0
 11
309.483741245026
 21
155.4807504802867
 31
0.0
  0
ARC
  5
9BC
330
18
100
AcDbEntity
  8
1
  6
Continuous
100
AcDbCircle
 10
312.5337412450085
 20
150.2807504802859
 30
0.0
 40
0.4999999999999858
100
AcDbArc
 50
0.000000000000007
 51
180.0
  0
LINE
  5
9BD
330
18
100
AcDbEntity
  8
1
  6
Continuous
100
AcDbLine
 10
310.8833443946459
 20
154.6807504802864
 30
0.0
 11
310.8337412450418
 21
154.6807504802864
 31
0.0
  0
CIRCLE
  5
9BE
330
18
100
AcDbEntity
  8
1
  6
Continuous
100
AcDbCircle
 10
300.8337412450419
 20
148.3807504802867
 30
0.0
 40
2.149999999999999
  0
LINE
  5
9BF
330
18
100
AcDbEntity
  8
1
  6
Continuous
100
AcDbLine
 10
315.1299089418606
 20
166.3939126218081
 30
0.0
 11
311.035643696892
 21
172.3492075235816
 31
0.0
  0
ARC
  5
9C0
330
18
100
AcDbEntity
  8
1
  6
Continuous
100
AcDbCircle
 10
311.833741245063
 20
164.1277973302602
 30
0.0
 40
4.0
100
AcDbArc
 50
0.000000000000007
 51
34.5085229876674
  0
LINE
  5
9C1
330
18
100
AcDbEntity
  8
1
  6
Continuous
100
AcDbLine
 10
315.8337412450487
 20
159.2830922320348
 30
0.0
 11
315.8337412450562
 21
164.1277973302539
 31
0.0
  0
LINE
  5
9C2
330
18
100
AcDbEntity
  8
1
  6
Continuous
100
AcDbLine
 10
312.2457622071603
 20
164.4110617417081
 30
0.0
 11
307.9337412450263
 21
170.6830922320858
 31
0.0
  0
LINE
  5
9C3
330
18
100
AcDbEntity
  8
1
  6
Continuous
100
AcDbLine
 10
306.9087412450429
 20
161.2878725660991
 30
0.0
 11
302.808741245043
 21
161.2878725660991
 31
0.0
  0
LINE
  5
9C4
330
18
100
AcDbEntity
  8
1
  6
Continuous
100
AcDbLine
 10
307.1587412450435
 20
160.3878725660994
 30
0.0
 11
302.808741245043
 21
160.3878725660994
 31
0.0
  0
ARC
  5
9C6
330
18
100
AcDbEntity
  8
1
  6
Continuous
100
AcDbCircle
 10
311.8337412450608
 20
164.1277973302646
 30
0.0
 40
0.5
100
AcDbArc
 50
0.000000000000007
 51
34.50852298765159
  0
LINE
  5
9C7
330
18
100
AcDbEntity
  8
1
  6
Continuous
100
AcDbLine
 10
312.3337412450457
 20
157.5509191084845
 30
0.0
 11
312.3337412450562
 21
164.1277973302639
 31
0.0
  0
ARC
  5
9CC
330
18
100
AcDbEntity
  8
1
  6
Continuous
100
AcDbCircle
 10
306.908741245043
 20
160.3878725660993
 30
0.0
 40
0.9
100
AcDbArc
 50
0.000000000000007
 51
90.0
  0
LINE
  5
9CD
330
18
100
AcDbEntity
  8
1
  6
Continuous
100
AcDbLine
 10
310.8337412450418
 20
160.9807504802867
 30
0.0
 11
309.6337412450419
 21
160.9807504802867
 31
0.0
  0
LINE
  5
9CF
330
18
100
AcDbEntity
  8
1
  6
Continuous
100
AcDbLine
 10
310.8833443946459
 20
159.2807504802868
 30
0.0
 11
310.8337412450418
 21
159.2807504802868
 31
0.0
  0
LINE
  5
9D0
330
18
100
AcDbEntity
  8
1
  6
Continuous
100
AcDbLine
 10
309.633741245042
 20
158.4807504802867
 30
0.0
 11
309.483741245026
 21
158.4807504802867
 31
0.0
  0
LINE
  5
9D2
330
18
100
AcDbEntity
  8
1
  6
Continuous
100
AcDbLine
 10
302.808741245043
 20
160.3878725660994
 30
0.0
 11
302.808741245043
 21
161.2878725660991
 31
0.0
  0
ARC
  5
9D3
330
18
100
AcDbEntity
  8
1
  6
Continuous
100
AcDbCircle
 10
307.7394760000944
 20
170.0830922320337
 30
0.0
 40
4.0
100
AcDbArc
 50
34.50852298766332
 51
90.0
  0
LINE
  5
9D4
330
18
100
AcDbEntity
  8
1
  6
Continuous
100
AcDbLine
 10
307.9337412450215
 20
170.6830922320853
 30
0.0
 11
307.9337412450224
 21
171.2830922320839
 31
0.0
  0
LINE
  5
9D7
330
18
100
AcDbEntity
  8
1
  6
Continuous
100
AcDbLine
 10
295.0337412450417
 20
139.0807504802871
 30
0.0
 11
295.0337412450417
 21
137.8807504802868
 31
0.0
  0
LINE
  5
9D8
330
18
100
AcDbEntity
  8
1
  6
Continuous
100
AcDbLine
 10
293.8337412450418
 20
137.8807504802868
 30
0.0
 11
293.8337412450418
 21
123.8807504802868
 31
0.0
  0
LINE
  5
9D9
330
18
100
AcDbEntity
  8
1
  6
Continuous
100
AcDbLine
 10
290.8337412450419
 20
160.9807504802867
 30
0.0
 11
290.8337412450419
 21
114.3807504802868
 31
0.0
  0
ARC
  5
9DA
330
18
100
AcDbEntity
  8
1
  6
Continuous
100
AcDbCircle
 10
297.0337412450417
 20
114.3807504802867
 30
0.0
 40
5.0
100
AcDbArc
 50
180.0
 51
270.0
  0
LINE
  5
9DD
330
18
100
AcDbEntity
  8
1
  6
Continuous
100
AcDbLine
 10
295.0337412450417
 20
123.8807504802868
 30
0.0
 11
293.8337412450418
 21
123.8807504802868
 31
0.0
  0
LINE
  5
9DE
330
18
100
AcDbEntity
  8
1
  6
Continuous
100
AcDbLine
 10
295.0337412450417
 20
122.680750480287
 30
0.0
 11
293.8337412450418
 21
122.680750480287
 31
0.0
  0
LINE
  5
9DF
330
18
100
AcDbEntity
  8
1
  6
Continuous
100
AcDbLine
 10
293.8337412450418
 20
122.680750480287
 30
0.0
 11
293.8337412450418
 21
116.3807504802864
 31
0.0
  0
LINE
  5
9E0
330
18
100
AcDbEntity
  8
1
  6
Continuous
100
AcDbLine
 10
290.8337412450419
 20
114.3807504802868
 30
0.0
 11
292.0337412450417
 21
114.3807504802868
 31
0.0
  0
ARC
  5
9E4
330
18
100
AcDbEntity
  8
1
  6
Continuous
100
AcDbCircle
 10
299.3337412450464
 20
157.550919108503
 30
0.0
 40
10.0
100
AcDbArc
 50
179.9999999999096
 51
211.7883306173304
  0
ARC
  5
9E5
330
18
100
AcDbEntity
  8
1
  6
Continuous
100
AcDbCircle
 10
296.1547938764888
 20
159.2830922320583
 30
0.0
 40
10.32105263143808
100
AcDbArc
 50
179.9999999999096
 51
230.8154362184186
  0
LINE
  5
9E6
330
18
100
AcDbEntity
  8
1
  6
Continuous
100
AcDbLine
 10
292.0337412450417
 20
114.3807504802868
 30
0.0
 11
292.0337412450417
 21
160.9807504802867
 31
0.0
  0
LINE
  5
9E9
330
18
100
AcDbEntity
  8
1
  6
Continuous
100
AcDbLine
 10
292.1837412450258
 20
160.3807504802868
 30
0.0
 11
292.183741245026
 21
153.5807504802871
 31
0.0
  0
LINE
  5
9EA
330
18
100
AcDbEntity
  8
1
  6
Continuous
100
AcDbLine
 10
290.3337412450418
 20
158.7307504802776
 30
0.0
 11
290.3337412450418
 21
155.2307504802866
 31
0.0
  0
LINE
  5
9EB
330
18
100
AcDbEntity
  8
1
  6
Continuous
100
AcDbLine
 10
289.6337412450716
 20
145.0134674680624
 30
0.0
 11
289.6337412450715
 21
151.2830922321077
 31
0.0
  0
LINE
  5
9EC
330
18
100
AcDbEntity
  8
1
  6
Continuous
100
AcDbLine
 10
293.8337412450418
 20
153.5807504802871
 30
0.0
 11
293.8337412450418
 21
139.0807504802871
 31
0.0
  0
ARC
  5
9ED
330
18
100
AcDbEntity
  8
1
  6
Continuous
100
AcDbCircle
 10
289.3837412450084
 20
146.2307504802866
 30
0.0
 40
0.2500000000000568
100
AcDbArc
 50
180.0
 51
0.000000000000007
  0
LINE
  5
9EE
330
18
100
AcDbEntity
  8
1
  6
Continuous
100
AcDbLine
 10
289.6337412450717
 20
145.0134674680622
 30
0.0
 11
290.8337412450721
 21
145.0134674680603
 31
0.0
  0
LINE
  5
9EF
330
18
100
AcDbEntity
  8
1
  6
Continuous
100
AcDbLine
 10
295.0337412450417
 20
139.0807504802871
 30
0.0
 11
293.8337412450418
 21
139.0807504802871
 31
0.0
  0
LINE
  5
9F0
330
18
100
AcDbEntity
  8
1
  6
Continuous
100
AcDbLine
 10
295.0337412450417
 20
137.8807504802868
 30
0.0
 11
293.8337412450418
 21
137.8807504802868
 31
0.0
  0
LINE
  5
9F3
330
18
100
AcDbEntity
  8
1
  6
Continuous
100
AcDbLine
 10
292.1837412450257
 20
153.5807504802871
 30
0.0
 11
293.8337412450418
 21
153.5807504802871
 31
0.0
  0
LINE
  5
9F4
330
18
100
AcDbEntity
  8
1
  6
Continuous
100
AcDbLine
 10
292.183741245026
 20
155.4807504802867
 30
0.0
 11
292.0337412450417
 21
155.4807504802867
 31
0.0
  0
ARC
  5
9F8
330
18
100
AcDbEntity
  8
1
  6
Continuous
100
AcDbCircle
 10
290.5837412450419
 20
155.2307504802866
 30
0.0
 40
0.2500000000000568
100
AcDbArc
 50
180.0
 51
0.000000000000007
  0
ARC
  5
9F9
330
18
100
AcDbEntity
  8
1
  6
Continuous
100
AcDbCircle
 10
289.3837412450084
 20
149.7307504802775
 30
0.0
 40
0.2500000000000568
100
AcDbArc
 50
0.000000000000007
 51
180.0
  0
LINE
  5
9FA
330
18
100
AcDbEntity
  8
1
  6
Continuous
100
AcDbLine
 10
289.1337412450084
 20
149.7307504802776
 30
0.0
 11
289.1337412450084
 21
146.2307504802866
 31
0.0
  0
LINE
  5
9FB
330
18
100
AcDbEntity
  8
1
  6
Continuous
100
AcDbLine
 10
289.421720282959
 20
164.4110617417259
 30
0.0
 11
293.7337412451029
 21
170.6830922320968
 31
0.0
  0
LINE
  5
9FC
330
18
100
AcDbEntity
  8
1
  6
Continuous
100
AcDbLine
 10
286.5375735482619
 20
166.39391262183
 30
0.0
 11
290.6318387932334
 21
172.349207523587
 31
0.0
  0
LINE
  5
9FD
330
18
100
AcDbEntity
  8
1
  6
Continuous
100
AcDbLine
 10
292.0337412450417
 20
160.9807504802867
 30
0.0
 11
290.8337412450419
 21
160.9807504802867
 31
0.0
  0
ARC
  5
9FF
330
18
100
AcDbEntity
  8
1
  6
Continuous
100
AcDbCircle
 10
290.5837412450419
 20
158.7307504802775
 30
0.0
 40
0.2500000000000568
100
AcDbArc
 50
0.000000000000007
 51
180.0
  0
LINE
  5
A00
330
18
100
AcDbEntity
  8
1
  6
Continuous
100
AcDbLine
 10
292.1837412450258
 20
158.4807504802867
 30
0.0
 11
292.0337412450412
 21
158.4807504802867
 31
0.0
  0
ARC
  5
A02
330
18
100
AcDbEntity
  8
1
  6
Continuous
100
AcDbCircle
 10
289.833741245058
 20
164.127797330282
 30
0.0
 40
0.5
100
AcDbArc
 50
145.4914770122582
 51
180.0
  0
ARC
  5
A03
330
18
100
AcDbEntity
  8
1
  6
Continuous
100
AcDbCircle
 10
289.8337412450555
 20
164.1277973302775
 30
0.0
 40
4.0
100
AcDbArc
 50
145.4914770122424
 51
180.0
  0
LINE
  5
A04
330
18
100
AcDbEntity
  8
1
  6
Continuous
100
AcDbLine
 10
289.333741245051
 20
157.5509191085027
 30
0.0
 11
289.3337412450508
 21
164.127797330282
 31
0.0
  0
LINE
  5
A05
330
18
100
AcDbEntity
  8
1
  6
Continuous
100
AcDbLine
 10
285.8337412450508
 20
159.2830922320584
 30
0.0
 11
285.8337412450508
 21
164.1277973302775
 31
0.0
  0
ARC
  5
A06
330
18
100
AcDbEntity
  8
1
  6
Continuous
100
AcDbCircle
 10
293.9280064900274
 20
170.0830922320337
 30
0.0
 40
4.0
100
AcDbArc
 50
90.0
 51
145.4914770122435
  0
LINE
  5
A07
330
18
100
AcDbEntity
  8
1
  6
Continuous
100
AcDbLine
 10
293.7337412450962
 20
170.683092232098
 30
0.0
 11
293.7337412450962
 21
171.2830922320952
 31
0.0
  0
LINE
  5
A08
330
18
100
AcDbEntity
  8
1
  6
Continuous
100
AcDbLine
 10
361.3337412451917
 20
177.3807504802868
 30
0.0
 11
340.3337412449313
 21
177.3807504802866
 31
0.0
  0
LINE
  5
A0A
330
18
100
AcDbEntity
  8
1
  6
Continuous
100
AcDbLine
 10
343.8337412450219
 20
169.7076405429283
 30
0.0
 11
357.8337412451001
 21
169.7076405429283
 31
0.0
  0
LINE
  5
A0C
330
18
100
AcDbEntity
  8
1
  6
Continuous
100
AcDbLine
 10
343.8337412450213
 20
171.3807504802868
 30
0.0
 11
341.8337412450217
 21
169.380750480287
 31
0.0
  0
LINE
  5
A0D
330
18
100
AcDbEntity
  8
1
  6
Continuous
100
AcDbLine
 10
340.3337412449313
 20
169.3807504802868
 30
0.0
 11
341.8337412450224
 21
169.3807504802868
 31
0.0
  0
CIRCLE
  5
A0E
330
18
100
AcDbEntity
  8
1
  6
Continuous
100
AcDbCircle
 10
340.3337412449313
 20
173.3807504802866
 30
0.0
 40
1.8
  0
ARC
  5
A0F
330
18
100
AcDbEntity
  8
1
  6
Continuous
100
AcDbCircle
 10
340.3337412449313
 20
173.3807504802866
 30
0.0
 40
4.0
100
AcDbArc
 50
90.0
 51
270.0
  0
LINE
  5
A10
330
18
100
AcDbEntity
  8
1
  6
Continuous
100
AcDbLine
 10
343.8337412450219
 20
171.3807504802874
 30
0.0
 11
343.8337412450219
 21
169.7076405429283
 31
0.0
  0
LINE
  5
A13
330
18
100
AcDbEntity
  8
1
  6
Continuous
100
AcDbLine
 10
357.8337412451003
 20
171.3807504802861
 30
0.0
 11
359.8337412451005
 21
169.3807504802858
 31
0.0
  0
LINE
  5
A17
330
18
100
AcDbEntity
  8
1
  6
Continuous
100
AcDbLine
 10
357.8337412450999
 20
171.3807504802864
 30
0.0
 11
357.8337412451001
 21
169.7076405429283
 31
0.0
  0
LINE
  5
A18
330
18
100
AcDbEntity
  8
1
  6
Continuous
100
AcDbLine
 10
361.3337412451917
 20
169.3807504802868
 30
0.0
 11
359.8337412451005
 21
169.3807504802868
 31
0.0
  0
ARC
  5
A19
330
18
100
AcDbEntity
  8
1
  6
Continuous
100
AcDbCircle
 10
361.3337412451915
 20
173.3807504802866
 30
0.0
 40
4.0
100
AcDbArc
 50
270.0
 51
90.0
  0
CIRCLE
  5
A1A
330
18
100
AcDbEntity
  8
1
  6
Continuous
100
AcDbCircle
 10
361.3337412451915
 20
173.3807504802866
 30
0.0
 40
1.8
  0
LINE
  5
B60
330
18
100
AcDbEntity
  8
1
  6
Continuous
100
AcDbLine
 10
306.6337412450418
 20
123.8807504802868
 30
0.0
 11
306.6337412450419
 21
122.680750480287
 31
0.0
  0
LINE
  5
B61
330
18
100
AcDbEntity
  8
1
  6
Continuous
100
AcDbLine
 10
295.0337412450417
 20
123.8807504802867
 30
0.0
 11
295.0337412450417
 21
122.680750480287
 31
0.0
  0
LINE
  5
B62
330
18
100
AcDbEntity
  8
1
  6
Continuous
100
AcDbLine
 10
292.0337412450417
 20
146.2307504802867
 30
0.0
 11
293.8337412450418
 21
146.2307504802867
 31
0.0
  0
LINE
  5
B63
330
18
100
AcDbEntity
  8
1
  6
Continuous
100
AcDbLine
 10
292.0337412450417
 20
149.7307504802867
 30
0.0
 11
293.8337412450418
 21
149.7307504802867
 31
0.0
  0
LINE
  5
1234
330
18
100
AcDbEntity
  8
1
  6
Continuous
100
AcDbLine
 10
309.633741245042
 20
146.2307504802867
 30
0.0
 11
307.8337412450419
 21
146.2307504802867
 31
0.0
  0
LINE
  5
1235
330
18
100
AcDbEntity
  8
1
  6
Continuous
100
AcDbLine
 10
309.633741245042
 20
149.7307504802867
 30
0.0
 11
307.8337412450419
 21
149.7307504802867
 31
0.0
  0
LINE
  5
1378
330
18
100
AcDbEntity
  8
1
  6
Continuous
100
AcDbLine
 10
154.5643985137081
 20
243.749085523187
 30
0.0
 11
183.5643985139681
 21
243.7490855231869
 31
0.0
  0
LINE
  5
1379
330
18
100
AcDbEntity
  8
1
  6
Continuous
100
AcDbLine
 10
154.5643985137081
 20
242.249085523187
 30
0.0
 11
183.5643985139681
 21
242.2490855231869
 31
0.0
  0
LINE
  5
137A
330
18
100
AcDbEntity
  8
1
  6
Continuous
100
AcDbLine
 10
183.5643985139681
 20
242.2490855231869
 30
0.0
 11
183.5643985139681
 21
243.7490855231869
 31
0.0
  0
LINE
  5
137B
330
18
100
AcDbEntity
  8
1
  6
Continuous
100
AcDbLine
 10
154.5643985137081
 20
242.249085523187
 30
0.0
 11
154.5643985137081
 21
243.749085523187
 31
0.0
  0
LINE
  5
137C
330
18
100
AcDbEntity
  8
4
  6
CENTER
 48
0.2
100
AcDbLine
 10
179.5643985139678
 20
240.7490855231869
 30
0.0
 11
179.5643985139678
 21
245.2490855231869
 31
0.0
  0
LINE
  5
137D
330
18
100
AcDbEntity
  8
4
  6
CENTER
 48
0.2
100
AcDbLine
 10
158.5643985137076
 20
240.7490855231869
 30
0.0
 11
158.5643985137076
 21
245.2490855231869
 31
0.0
  0
LINE
  5
1380
330
18
100
AcDbEntity
  8
1
  6
Continuous
100
AcDbLine
 10
176.0643985138767
 20
242.2490855231869
 30
0.0
 11
176.0643985138767
 21
235.5174584163192
 31
0.0
  0
LINE
  5
138C
330
18
100
AcDbEntity
  8
1
  6
Continuous
100
AcDbLine
 10
176.0643985138767
 20
236.9946700458388
 30
0.0
 11
162.0643985137995
 21
236.9946700458389
 31
0.0
  0
LINE
  5
138F
330
18
100
AcDbEntity
  8
1
  6
Continuous
100
AcDbLine
 10
162.0643985137995
 20
242.2490855231869
 30
0.0
 11
162.0643985137995
 21
235.5174584163192
 31
0.0
  0
LINE
  5
1392
330
18
100
AcDbEntity
  8
1
  6
Continuous
100
AcDbLine
 10
176.0643985138767
 20
235.5174584163192
 30
0.0
 11
162.0643985137995
 21
235.5174584163192
 31
0.0
  0
LINE
  5
1395
330
18
100
AcDbEntity
  8
4
  6
CENTER
 48
0.2
100
AcDbLine
 10
169.0643985137986
 20
246.7490855231869
 30
0.0
 11
169.0643985137986
 21
232.5174584163192
 31
0.0
  0
LINE
  5
1407
330
18
100
AcDbEntity
  8
1
  6
Continuous
100
AcDbLine
 10
110.2643985138182
 20
48.65427050070582
 30
0.0
 11
109.270207385312
 21
49.326270500706
 31
0.0
  0
LINE
  5
140A
330
18
100
AcDbEntity
  8
1
  6
Continuous
100
AcDbLine
 10
127.8643985138185
 20
48.65427050070582
 30
0.0
 11
128.8585896423245
 21
49.326270500706
 31
0.0
  0
LINE
  5
1427
330
18
100
AcDbEntity
  8
1
  6
Continuous
100
AcDbLine
 10
114.4068615492596
 20
52.05427050070619
 30
0.0
 11
123.7219354783766
 21
52.05427050070619
 31
0.0
  0
LINE
  5
1431
330
18
100
AcDbEntity
  8
1
  6
Continuous
100
AcDbLine
 10
109.064398513819
 20
234.9490855231862
 30
0.0
 11
109.064398513819
 21
238.4513564379511
 31
0.0
  0
LINE
  5
1432
330
18
100
AcDbEntity
  8
1
  6
Continuous
100
AcDbLine
 10
110.2643985138191
 20
234.9490855231862
 30
0.0
 11
110.2643985138191
 21
238.508485222588
 31
0.0
  0
LINE
  5
1433
330
18
100
AcDbEntity
  8
1
  6
Continuous
100
AcDbLine
 10
129.0643985138185
 20
234.9490855231862
 30
0.0
 11
129.0643985138185
 21
238.4513564379511
 31
0.0
  0
LINE
  5
1434
330
18
100
AcDbEntity
  8
1
  6
Continuous
100
AcDbLine
 10
127.8643985138185
 20
234.9490855231862
 30
0.0
 11
127.8643985138185
 21
238.508485222588
 31
0.0
  0
LINE
  5
1435
330
18
100
AcDbEntity
  8
4
  6
CENTER
100
AcDbLine
 10
105.0416889917439
 20
239.0490855231861
 30
0.0
 11
132.2537438583076
 21
239.0490855231861
 31
0.0
  0
LINE
  5
1436
330
18
100
AcDbEntity
  8
1
  6
Continuous
100
AcDbLine
 10
109.0643985138192
 20
242.5490855231859
 30
0.0
 11
110.2643985138191
 21
242.5490855231859
 31
0.0
  0
LINE
  5
1437
330
18
100
AcDbEntity
  8
1
  6
Continuous
100
AcDbLine
 10
129.0643985138183
 20
242.5490855231859
 30
0.0
 11
127.8643985138185
 21
242.5490855231859
 31
0.0
  0
LINE
  5
143B
330
18
100
AcDbEntity
  8
1
  6
Continuous
100
AcDbLine
 10
109.064398513819
 20
234.9490855231862
 30
0.0
 11
113.864398513819
 21
234.9490855231862
 31
0.0
  0
LINE
  5
143C
330
18
100
AcDbEntity
  8
1
  6
Continuous
100
AcDbLine
 10
114.8643985061646
 20
235.8570545015079
 30
0.0
 11
125.0643985138902
 21
235.8570545015079
 31
0.0
  0
LINE
  5
143D
330
18
100
AcDbEntity
  8
1
  6
Continuous
100
AcDbLine
 10
110.2643985138193
 20
233.749085523186
 30
0.0
 11
127.8643985138185
 21
233.749085523186
 31
0.0
  0
ARC
  5
143F
330
18
100
AcDbEntity
  8
1
  6
Continuous
100
AcDbCircle
 10
114.3003478999657
 20
235.2671293504573
 30
0.0
 40
0.4359493861467029
100
AcDbArc
 50
120.5374237721321
 51
180.0
  0
ARC
  5
1440
330
18
100
AcDbEntity
  8
1
  6
Continuous
100
AcDbCircle
 10
114.8643985061646
 20
234.3109900828284
 30
0.0
 40
1.546064418679463
100
AcDbArc
 50
90.00000000000005
 51
120.5374237721308
  0
LINE
  5
1441
330
18
100
AcDbEntity
  8
1
  6
Continuous
100
AcDbLine
 10
113.864398513819
 20
233.749085523186
 30
0.0
 11
113.864398513819
 21
235.2671293504573
 31
0.0
  0
ARC
  5
1442
330
18
100
AcDbEntity
  8
1
  6
Continuous
100
AcDbCircle
 10
114.4068615492598
 20
237.749085523186
 30
0.0
 40
6.2
100
AcDbArc
 50
214.0557977425647
 51
262.1904252827178
  0
ARC
  5
1445
330
18
100
AcDbEntity
  8
1
  6
Continuous
100
AcDbCircle
 10
110.2643985138184
 20
234.9490855231862
 30
0.0
 40
1.200000000000273
100
AcDbArc
 50
180.0
 51
214.0557977425647
  0
ARC
  5
1446
330
18
100
AcDbEntity
  8
1
  6
Continuous
100
AcDbCircle
 10
110.2643985138181
 20
234.9490855231859
 30
0.0
 40
1.199999999999999
100
AcDbArc
 50
214.0557977425602
 51
270.0
  0
LINE
  5
144B
330
18
100
AcDbEntity
  8
4
  6
CENTER
100
AcDbLine
 10
119.0643985138192
 20
221.8148354858472
 30
0.0
 11
119.0643985138192
 21
246.0486192014696
 31
0.0
  0
ARC
  5
144C
330
18
100
AcDbEntity
  8
1
  6
Continuous
100
AcDbCircle
 10
125.0643985138902
 20
234.3109900828284
 30
0.0
 40
1.546064418679463
100
AcDbArc
 50
59.46257622786916
 51
90.00000000000005
  0
ARC
  5
144D
330
18
100
AcDbEntity
  8
1
  6
Continuous
100
AcDbCircle
 10
125.6284491200891
 20
235.2671293504573
 30
0.0
 40
0.4359493861467029
100
AcDbArc
 50
0.0
 51
59.46257622786784
  0
ARC
  5
144E
330
18
100
AcDbEntity
  8
1
  6
Continuous
100
AcDbCircle
 10
127.8643985138183
 20
234.9490855231862
 30
0.0
 40
1.200000000000273
100
AcDbArc
 50
325.9442022574352
 51
0.0
  0
LINE
  5
144F
330
18
100
AcDbEntity
  8
1
  6
Continuous
100
AcDbLine
 10
126.064398513819
 20
233.749085523186
 30
0.0
 11
126.064398513819
 21
235.2671306546566
 31
0.0
  0
ARC
  5
1450
330
18
100
AcDbEntity
  8
1
  6
Continuous
100
AcDbCircle
 10
123.7219354783768
 20
237.749085523186
 30
0.0
 40
6.2
100
AcDbArc
 50
277.8095747172897
 51
325.9442022574352
  0
LINE
  5
1453
330
18
100
AcDbEntity
  8
4
  6
CENTER
100
AcDbLine
 10
130.5643985138183
 20
238.0490855231859
 30
0.0
 11
106.7480498933259
 21
238.0490855231859
 31
0.0
  0
ARC
  5
1454
330
18
100
AcDbEntity
  8
1
  6
Continuous
100
AcDbCircle
 10
127.8643985138185
 20
234.9490855231859
 30
0.0
 40
1.199999999999999
100
AcDbArc
 50
270.0
 51
325.9442022574397
  0
LINE
  5
1455
330
18
100
AcDbEntity
  8
1
  6
Continuous
100
AcDbLine
 10
126.064398513819
 20
234.9490855231862
 30
0.0
 11
129.0643985138185
 21
234.9490855231862
 31
0.0
  0
ARC
  5
1458
330
18
100
AcDbEntity
  8
1
  6
Continuous
100
AcDbCircle
 10
114.8643985061646
 20
233.4624619454038
 30
0.0
 40
1.546064418679463
100
AcDbArc
 50
90.00000000000005
 51
120.5374237721308
  0
ARC
  5
1459
330
18
100
AcDbEntity
  8
1
  6
Continuous
100
AcDbCircle
 10
114.3003478999657
 20
234.4186012130327
 30
0.0
 40
0.4359493861467029
100
AcDbArc
 50
120.5374237721321
 51
180.0
  0
LINE
  5
145A
330
18
100
AcDbEntity
  8
1
  6
Continuous
100
AcDbLine
 10
114.8643985061646
 20
235.0085263640832
 30
0.0
 11
125.0643985138902
 21
235.0085263640832
 31
0.0
  0
ARC
  5
145B
330
18
100
AcDbEntity
  8
1
  6
Continuous
100
AcDbCircle
 10
125.0643985138902
 20
233.4624619454038
 30
0.0
 40
1.546064418679463
100
AcDbArc
 50
59.46257622786916
 51
90.00000000000005
  0
ARC
  5
145C
330
18
100
AcDbEntity
  8
1
  6
Continuous
100
AcDbCircle
 10
125.6284491200891
 20
234.4186012130327
 30
0.0
 40
0.4359493861467029
100
AcDbArc
 50
0.0
 51
59.46257622786784
  0
ARC
  5
145D
330
18
100
AcDbEntity
  8
1
  6
Continuous
100
AcDbCircle
 10
112.1643985138196
 20
238.0490855231859
 30
0.0
 40
3.9
100
AcDbArc
 50
174.6298437825893
 51
216.1388146631319
  0
LINE
  5
145E
330
18
100
AcDbEntity
  8
1
  6
Continuous
100
AcDbLine
 10
109.014795364216
 20
235.7490855231856
 30
0.0
 11
109.014795364216
 21
238.4489949649085
 31
0.0
  0
LINE
  5
145F
330
18
100
AcDbEntity
  8
1
  6
Continuous
100
AcDbLine
 10
109.0147953642151
 20
235.7490855231858
 30
0.0
 11
109.0643985138192
 21
235.7490855231858
 31
0.0
  0
LINE
  5
1463
330
18
100
AcDbEntity
  8
1
  6
Continuous
100
AcDbLine
 10
129.5643985138192
 20
238.4275527776856
 30
0.0
 11
129.5643985138192
 21
236.299085523186
 31
0.0
  0
ARC
  5
1464
330
18
100
AcDbEntity
  8
1
  6
Continuous
100
AcDbCircle
 10
129.3143985138192
 20
236.2990855231859
 30
0.0
 40
0.2500000000000568
100
AcDbArc
 50
180.0
 51
0.0
  0
ARC
  5
14C2
330
18
100
AcDbEntity
  8
1
  6
Continuous
100
AcDbCircle
 10
119.0643985138187
 20
228.5490855231871
 30
0.0
 40
5.499999999999714
100
AcDbArc
 50
180.0
 51
0.0
  0
CIRCLE
  5
14C3
330
18
100
AcDbEntity
  8
1
  6
Continuous
100
AcDbCircle
 10
119.0643985138185
 20
227.8490855231873
 30
0.0
 40
3.1
  0
LINE
  5
14C4
330
18
100
AcDbEntity
  8
1
  6
Continuous
100
AcDbLine
 10
113.864398513819
 20
233.7490855231882
 30
0.0
 11
113.5643985138188
 21
233.4490855231881
 31
0.0
  0
LINE
  5
14C5
330
18
100
AcDbEntity
  8
1
  6
Continuous
100
AcDbLine
 10
124.5643985138185
 20
233.4490855231883
 30
0.0
 11
124.2643985138183
 21
233.7490855231884
 31
0.0
  0
LINE
  5
14C7
330
18
100
AcDbEntity
  8
1
  6
Continuous
100
AcDbLine
 10
113.564398513819
 20
228.5490855231871
 30
0.0
 11
113.564398513819
 21
233.4490855231883
 31
0.0
  0
LINE
  5
14CD
330
18
100
AcDbEntity
  8
1
  6
Continuous
100
AcDbLine
 10
124.5643985138185
 20
228.5490855231871
 30
0.0
 11
124.5643985138185
 21
233.4490855231881
 31
0.0
  0
LINE
  5
151D
330
18
100
AcDbEntity
  8
4
  6
CENTER
100
AcDbLine
 10
114.9643985138185
 20
227.8490855231873
 30
0.0
 11
123.1643985138185
 21
227.8490855231873
 31
0.0
  0
LINE
  5
155B
330
18
100
AcDbEntity
  8
1
  6
Continuous
100
AcDbLine
 10
124.8643985138411
 20
48.65427050070488
 30
0.0
 11
124.8643985138411
 21
41.05427050070497
 31
0.0
  0
LINE
  5
155D
330
18
100
AcDbEntity
  8
1
  6
Continuous
100
AcDbLine
 10
126.0643985138411
 20
48.65427050070522
 30
0.0
 11
126.0643985138411
 21
39.85427050070515
 31
0.0
  0
LINE
  5
1579
330
18
100
AcDbEntity
  8
1
  6
Continuous
100
AcDbLine
 10
113.264398513832
 20
48.65427050070488
 30
0.0
 11
113.264398513832
 21
41.05427050070497
 31
0.0
  0
LINE
  5
157B
330
18
100
AcDbEntity
  8
1
  6
Continuous
100
AcDbLine
 10
112.064398513832
 20
48.65427050070522
 30
0.0
 11
112.064398513832
 21
39.85427050070515
 31
0.0
  0
LINE
  5
1586
330
18
100
AcDbEntity
  8
1
  6
Continuous
100
AcDbLine
 10
126.5143985138391
 20
242.549085523187
 30
0.0
 11
117.0893985137722
 21
242.549085523187
 31
0.0
  0
LINE
  5
1587
330
18
100
AcDbEntity
  8
1
  6
Continuous
100
AcDbLine
 10
126.5143985138391
 20
243.7490855231868
 30
0.0
 11
111.6143985138352
 21
243.7490855231868
 31
0.0
  0
ARC
  5
158C
330
18
100
AcDbEntity
  8
1
  6
Continuous
100
AcDbCircle
 10
111.6143985138007
 20
242.549085523187
 30
0.0
 40
1.199999999999999
100
AcDbArc
 50
90.0
 51
180.0
  0
LINE
  5
1594
330
18
100
AcDbEntity
  8
1
  6
Continuous
100
AcDbLine
 10
110.4143985137819
 20
235.3490855231746
 30
0.0
 11
111.6143985137819
 21
235.3490855231746
 31
0.0
  0
LINE
  5
1597
330
18
100
AcDbEntity
  8
1
  6
Continuous
100
AcDbLine
 10
110.4143985138006
 20
242.5490855231907
 30
0.0
 11
110.4143985137992
 21
242.0108296923074
 31
0.0
  0
LINE
  5
1598
330
18
100
AcDbEntity
  8
1
  6
Continuous
100
AcDbLine
 10
111.6143985138006
 20
242.5490855231876
 30
0.0
 11
111.6143985137993
 21
242.0679584769444
 31
0.0
  0
LINE
  5
1599
330
18
100
AcDbEntity
  8
1
  6
Continuous
100
AcDbLine
 10
112.0643985138153
 20
234.9490855231868
 30
0.0
 11
112.0643985138153
 21
236.5490855231858
 31
0.0
  0
LINE
  5
159A
330
18
100
AcDbEntity
  8
1
  6
Continuous
100
AcDbLine
 10
113.2643985138153
 20
234.9490855231871
 30
0.0
 11
113.2643985138153
 21
235.3845074243727
 31
0.0
  0
ARC
  5
159B
330
18
100
AcDbEntity
  8
1
  6
Continuous
100
AcDbCircle
 10
126.5143985138391
 20
242.549085523187
 30
0.0
 40
1.199999999999999
100
AcDbArc
 50
0.0
 51
90.0
  0
LINE
  5
15B0
330
18
100
AcDbEntity
  8
1
  6
Continuous
100
AcDbLine
 10
126.5143985138578
 20
235.3490855231746
 30
0.0
 11
127.7143985138578
 21
235.3490855231746
 31
0.0
  0
LINE
  5
15B3
330
18
100
AcDbEntity
  8
1
  6
Continuous
100
AcDbLine
 10
127.7143985138391
 20
242.5490855231908
 30
0.0
 11
127.7143985138405
 21
242.0108296923074
 31
0.0
  0
LINE
  5
15B4
330
18
100
AcDbEntity
  8
1
  6
Continuous
100
AcDbLine
 10
126.5143985138391
 20
242.5490855231876
 30
0.0
 11
126.5143985138403
 21
242.0679584769443
 31
0.0
  0
LINE
  5
15B5
330
18
100
AcDbEntity
  8
1
  6
Continuous
100
AcDbLine
 10
126.0643985062358
 20
235.2671293504573
 30
0.0
 11
126.0643985075717
 21
236.5490855231858
 31
0.0
  0
LINE
  5
15B6
330
18
100
AcDbEntity
  8
1
  6
Continuous
100
AcDbLine
 10
124.8643985138244
 20
242.0938694869152
 30
0.0
 11
124.8643985138244
 21
242.549085523187
 31
0.0
  0
LINE
  5
15B8
330
18
100
AcDbEntity
  8
1
  6
Continuous
100
AcDbLine
 10
110.264398513819
 20
236.5490855231858
 30
0.0
 11
110.414398513835
 21
236.5490855231858
 31
0.0
  0
LINE
  5
15B9
330
18
100
AcDbEntity
  8
1
  6
Continuous
100
AcDbLine
 10
111.6143985138347
 20
236.5490855231858
 30
0.0
 11
112.1621541108207
 21
236.5490855231858
 31
0.0
  0
LINE
  5
15BA
330
18
100
AcDbEntity
  8
1
  6
Continuous
100
AcDbLine
 10
127.7143985138352
 20
236.5490855231858
 30
0.0
 11
127.8643985138198
 21
236.5490855231858
 31
0.0
  0
LINE
  5
15BD
330
18
100
AcDbEntity
  8
1
  6
Continuous
100
AcDbLine
 10
112.9893985137723
 20
242.7118766662751
 30
0.0
 11
117.0893985137722
 21
242.7118766662751
 31
0.0
  0
ARC
  5
15BF
330
18
100
AcDbEntity
  8
1
  6
Continuous
100
AcDbCircle
 10
112.9893985137722
 20
241.8118766662753
 30
0.0
 40
0.9
100
AcDbArc
 50
90.0
 51
161.8178776000837
  0
LINE
  5
15C3
330
18
100
AcDbEntity
  8
1
  6
Continuous
100
AcDbLine
 10
111.6143985137889
 20
238.5727551053031
 30
0.0
 11
111.6143985137889
 21
236.5490855231861
 31
0.0
  0
LINE
  5
15C5
330
18
100
AcDbEntity
  8
1
  6
Continuous
100
AcDbLine
 10
117.0893985137722
 20
242.0938694869152
 30
0.0
 11
117.0893985137722
 21
242.7118766662751
 31
0.0
  0
LINE
  5
15CC
330
18
100
AcDbEntity
  8
4
  6
CENTER
 48
0.2
100
AcDbLine
 10
106.7643985137742
 20
238.0490855231859
 30
0.0
 11
131.0643985137734
 21
238.0490855231859
 31
0.0
  0
LINE
  5
15D3
330
18
100
AcDbEntity
  8
1
  6
Continuous
100
AcDbLine
 10
112.4731397595695
 20
242.549085523187
 30
0.0
 11
111.6143985138352
 21
242.549085523187
 31
0.0
  0
ARC
  5
162B
330
18
100
AcDbEntity
  8
1
  6
Continuous
100
AcDbCircle
 10
112.5393985137708
 20
235.7990855231859
 30
0.0
 40
0.45
100
AcDbArc
 50
174.2894068624778
 51
354.289406862478
  0
LINE
  5
162C
330
18
100
AcDbEntity
  8
1
  6
Continuous
100
AcDbLine
 10
112.3671121700304
 20
238.5986661152745
 30
0.0
 11
112.0916317781764
 21
235.8438621967455
 31
0.0
  0
LINE
  5
162D
330
18
100
AcDbEntity
  8
1
  6
Continuous
100
AcDbLine
 10
113.2716009759313
 20
238.5986661152745
 30
0.0
 11
112.9871652493653
 21
235.7543088496263
 31
0.0
  0
ARC
  5
162E
330
18
100
AcDbEntity
  8
1
  6
Continuous
100
AcDbCircle
 10
113.4393985137709
 20
235.7990855231859
 30
0.0
 40
0.45
100
AcDbArc
 50
174.2894068624778
 51
354.289406862478
  0
LINE
  5
162F
330
18
100
AcDbEntity
  8
1
  6
Continuous
100
AcDbLine
 10
114.1716009759313
 20
238.5986661152745
 30
0.0
 11
113.8871652493653
 21
235.7543088496263
 31
0.0
  0
LINE
  5
1632
330
18
100
AcDbEntity
  8
1
  6
Continuous
100
AcDbLine
 10
115.0716009759314
 20
238.5986661152745
 30
0.0
 11
114.7972941181134
 21
235.8555975371063
 31
0.0
  0
ARC
  5
1633
330
18
100
AcDbEntity
  8
1
  6
Continuous
100
AcDbCircle
 10
114.3393985137709
 20
235.7990855231859
 30
0.0
 40
0.45
100
AcDbArc
 50
174.2894068624778
 51
214.0142721852309
  0
LINE
  5
1634
330
18
100
AcDbEntity
  8
1
  6
Continuous
100
AcDbLine
 10
116.8716009759313
 20
238.5986661152745
 30
0.0
 11
116.5974398145535
 21
235.8570545015079
 31
0.0
  0
LINE
  5
1637
330
18
100
AcDbEntity
  8
1
  6
Continuous
100
AcDbLine
 10
115.9716009759313
 20
238.5986661152745
 30
0.0
 11
115.6974398145536
 21
235.8570545015079
 31
0.0
  0
LINE
  5
163A
330
18
100
AcDbEntity
  8
1
  6
Continuous
100
AcDbLine
 10
117.7716009759314
 20
238.5986661152745
 30
0.0
 11
117.4974398145535
 21
235.8570545015079
 31
0.0
  0
LINE
  5
163D
330
18
100
AcDbEntity
  8
1
  6
Continuous
100
AcDbLine
 10
118.6716009759313
 20
238.5986661152745
 30
0.0
 11
118.3974398145535
 21
235.8570545015079
 31
0.0
  0
LINE
  5
1641
330
18
100
AcDbEntity
  8
1
  6
Continuous
100
AcDbLine
 10
119.5716009759313
 20
238.5986661152745
 30
0.0
 11
119.2974398145535
 21
235.8570545015079
 31
0.0
  0
LINE
  5
1645
330
18
100
AcDbEntity
  8
1
  6
Continuous
100
AcDbLine
 10
120.4716009759313
 20
238.5986661152745
 30
0.0
 11
120.1974398145535
 21
235.8570545015079
 31
0.0
  0
LINE
  5
1646
330
18
100
AcDbEntity
  8
1
  6
Continuous
100
AcDbLine
 10
122.2716009759313
 20
238.5986661152745
 30
0.0
 11
121.9974398145535
 21
235.8570545015079
 31
0.0
  0
LINE
  5
1648
330
18
100
AcDbEntity
  8
1
  6
Continuous
100
AcDbLine
 10
121.3716009759313
 20
238.5986661152745
 30
0.0
 11
121.0974398145535
 21
235.8570545015079
 31
0.0
  0
LINE
  5
164D
330
18
100
AcDbEntity
  8
1
  6
Continuous
100
AcDbLine
 10
123.1716009759313
 20
238.5986661152745
 30
0.0
 11
122.8974398145535
 21
235.8570545015079
 31
0.0
  0
LINE
  5
164F
330
18
100
AcDbEntity
  8
1
  6
Continuous
100
AcDbLine
 10
124.0716009759313
 20
238.5986661152745
 30
0.0
 11
123.7974398145535
 21
235.8570545015079
 31
0.0
  0
LINE
  5
1654
330
18
100
AcDbEntity
  8
1
  6
Continuous
100
AcDbLine
 10
125.8716009759313
 20
238.5986661152745
 30
0.0
 11
125.5871652493653
 21
235.7543088496263
 31
0.0
  0
LINE
  5
1655
330
18
100
AcDbEntity
  8
1
  6
Continuous
100
AcDbLine
 10
124.9716009759313
 20
238.5986661152745
 30
0.0
 11
124.6974398145535
 21
235.8570545015079
 31
0.0
  0
LINE
  5
1658
330
18
100
AcDbEntity
  8
1
  6
Continuous
100
AcDbLine
 10
126.0643985133453
 20
242.0893817712066
 30
0.0
 11
126.0643985138244
 21
242.549085523187
 31
0.0
  0
LINE
  5
1659
330
18
100
AcDbEntity
  8
1
  6
Continuous
100
AcDbLine
 10
125.6666429167216
 20
236.5490855231858
 30
0.0
 11
126.5143985138469
 21
236.5490855231858
 31
0.0
  0
LINE
  5
165B
330
18
100
AcDbEntity
  8
1
  6
Continuous
100
AcDbLine
 10
112.0643985138153
 20
242.089381771184
 30
0.0
 11
112.0643985138153
 21
242.549085523187
 31
0.0
  0
LINE
  5
165D
330
18
100
AcDbEntity
  8
1
  6
Continuous
100
AcDbLine
 10
104.0643985138074
 20
239.6403721176694
 30
0.0
 11
104.0643985138071
 21
240.0440260316358
 31
0.0
  0
LINE
  5
165E
330
18
100
AcDbEntity
  8
1
  6
Continuous
100
AcDbLine
 10
112.1586637587659
 20
242.0938694869152
 30
0.0
 11
125.9701332688329
 21
242.0938694869152
 31
0.0
  0
LINE
  5
1660
330
18
100
AcDbEntity
  8
1
  6
Continuous
100
AcDbLine
 10
112.1586637587659
 20
238.5986661152745
 30
0.0
 11
125.9701332688329
 21
238.5986661152745
 31
0.0
  0
LINE
  5
1665
330
18
100
AcDbEntity
  8
1
  6
Continuous
100
AcDbLine
 10
112.1586637587659
 20
242.0938694869152
 30
0.0
 11
105.7270126337912
 21
241.7876758102667
 31
0.0
  0
LINE
  5
1666
330
18
100
AcDbEntity
  8
1
  6
Continuous
100
AcDbLine
 10
112.1586637587659
 20
238.5986661152745
 30
0.0
 11
105.8930336216005
 21
238.3003762530071
 31
0.0
  0
LINE
  5
166F
330
18
100
AcDbEntity
  8
1
  6
Continuous
100
AcDbLine
 10
106.8643985138521
 20
236.7490855231859
 30
0.0
 11
106.8643985138521
 21
237.1875096398289
 31
0.0
  0
ARC
  5
1670
330
18
100
AcDbEntity
  8
1
  6
Continuous
100
AcDbCircle
 10
107.3643985138526
 20
236.7490855231859
 30
0.0
 40
0.4999999999999858
100
AcDbArc
 50
180.0
 51
354.6869927948117
  0
LINE
  5
1675
330
18
100
AcDbEntity
  8
1
  6
Continuous
100
AcDbLine
 10
130.2643985137895
 20
241.8894310249565
 30
0.0
 11
130.2643985137895
 21
242.4834958973664
 31
0.0
  0
LINE
  5
1677
330
18
100
AcDbEntity
  8
1
  6
Continuous
100
AcDbLine
 10
107.8643985138526
 20
242.4834958973663
 30
0.0
 11
107.8643985138525
 21
241.8894310249566
 31
0.0
  0
LINE
  5
1678
330
18
100
AcDbEntity
  8
1
  6
Continuous
100
AcDbLine
 10
107.8643985138526
 20
235.6759794225957
 30
0.0
 11
109.064398513819
 21
235.6759794225957
 31
0.0
  0
LINE
  5
1679
330
18
100
AcDbEntity
  8
1
  6
Continuous
100
AcDbLine
 10
130.2643985137894
 20
235.6759794225957
 30
0.0
 11
129.0643985138194
 21
235.6759794225957
 31
0.0
  0
LINE
  5
167A
330
18
100
AcDbEntity
  8
1
  6
Continuous
100
AcDbLine
 10
107.8643985138526
 20
242.4834958973663
 30
0.0
 11
109.064398513819
 21
242.4834958973663
 31
0.0
  0
LINE
  5
167B
330
18
100
AcDbEntity
  8
1
  6
Continuous
100
AcDbLine
 10
129.0643985138185
 20
242.4834958973664
 30
0.0
 11
130.2643985137895
 21
242.4834958973664
 31
0.0
  0
ARC
  5
1681
330
18
100
AcDbEntity
  8
1
  6
Continuous
100
AcDbCircle
 10
105.8100231276958
 20
240.0440260316369
 30
0.0
 40
1.745624613888623
100
AcDbArc
 50
92.7256406010307
 51
272.7256406010333
  0
ARC
  5
1688
330
18
100
AcDbEntity
  8
1
  6
Continuous
100
AcDbCircle
 10
105.8100231276958
 20
239.6403721176705
 30
0.0
 40
1.745624613888623
100
AcDbArc
 50
180.0000000000363
 51
244.091097850617
  0
LINE
  5
1689
330
18
100
AcDbEntity
  8
1
  6
Continuous
100
AcDbLine
 10
107.8643985138526
 20
236.7017437092309
 30
0.0
 11
105.047287204893
 21
238.070200405825
 31
0.0
  0
LINE
  5
168B
330
18
100
AcDbEntity
  8
1
  6
Continuous
100
AcDbLine
 10
107.8643985138526
 20
236.7017437092309
 30
0.0
 11
107.8643985138526
 21
235.6759794225957
 31
0.0
  0
ARC
  5
168E
330
18
100
AcDbEntity
  8
1
  6
Continuous
100
AcDbCircle
 10
132.3187738999425
 20
240.0440260316369
 30
0.0
 40
1.745624613888623
100
AcDbArc
 50
267.2743593989666
 51
87.27435939896933
  0
LINE
  5
168F
330
18
100
AcDbEntity
  8
1
  6
Continuous
100
AcDbLine
 10
125.9701332688725
 20
242.0938694869152
 30
0.0
 11
132.4017843938472
 21
241.7876758102667
 31
0.0
  0
ARC
  5
1690
330
18
100
AcDbEntity
  8
1
  6
Continuous
100
AcDbCircle
 10
132.3187738999425
 20
239.6403721176705
 30
0.0
 40
1.745624613888623
100
AcDbArc
 50
295.908902149383
 51
359.9999999999636
  0
LINE
  5
1691
330
18
100
AcDbEntity
  8
1
  6
Continuous
100
AcDbLine
 10
130.2643985137858
 20
236.7017437092309
 30
0.0
 11
133.0815098227455
 21
238.070200405825
 31
0.0
  0
LINE
  5
1692
330
18
100
AcDbEntity
  8
1
  6
Continuous
100
AcDbLine
 10
130.2643985137859
 20
236.7017437092309
 30
0.0
 11
130.2643985137858
 21
235.6759794225957
 31
0.0
  0
LINE
  5
1693
330
18
100
AcDbEntity
  8
1
  6
Continuous
100
AcDbLine
 10
125.9701332688725
 20
238.5986661152745
 30
0.0
 11
132.235763406038
 21
238.3003762530071
 31
0.0
  0
LINE
  5
1694
330
18
100
AcDbEntity
  8
1
  6
Continuous
100
AcDbLine
 10
129.0643985138185
 20
241.946559809592
 30
0.0
 11
129.0643985138185
 21
242.549085523186
 31
0.0
  0
LINE
  5
1695
330
18
100
AcDbEntity
  8
1
  6
Continuous
100
AcDbLine
 10
127.8643985138185
 20
242.0036885942289
 30
0.0
 11
127.8643985138185
 21
242.5490855231859
 31
0.0
  0
LINE
  5
1696
330
18
100
AcDbEntity
  8
1
  6
Continuous
100
AcDbLine
 10
127.7143985138496
 20
238.5156263206661
 30
0.0
 11
127.7143985138578
 21
235.3490855231746
 31
0.0
  0
LINE
  5
1697
330
18
100
AcDbEntity
  8
1
  6
Continuous
100
AcDbLine
 10
126.5143985138494
 20
238.5727551053031
 30
0.0
 11
126.5143985138578
 21
235.3490855231746
 31
0.0
  0
LINE
  5
1698
330
18
100
AcDbEntity
  8
1
  6
Continuous
100
AcDbLine
 10
111.6143985137903
 20
238.5727551053032
 30
0.0
 11
111.6143985137819
 21
235.3490855231746
 31
0.0
  0
LINE
  5
1699
330
18
100
AcDbEntity
  8
1
  6
Continuous
100
AcDbLine
 10
110.4143985137901
 20
238.5156263206662
 30
0.0
 11
110.4143985137819
 21
235.3490855231746
 31
0.0
  0
LINE
  5
169A
330
18
100
AcDbEntity
  8
1
  6
Continuous
100
AcDbLine
 10
110.2643985138191
 20
242.0036885942288
 30
0.0
 11
110.2643985138191
 21
242.5490855231859
 31
0.0
  0
LINE
  5
169B
330
18
100
AcDbEntity
  8
1
  6
Continuous
100
AcDbLine
 10
109.064398513819
 20
241.946559809592
 30
0.0
 11
109.064398513819
 21
242.549085523186
 31
0.0
  0
LINE
  5
169C
330
18
100
AcDbEntity
  8
1
  6
Continuous
100
AcDbLine
 10
134.064398513831
 20
239.6403721176694
 30
0.0
 11
134.0643985138313
 21
240.0440260316358
 31
0.0
  0
LINE
  5
1772
330
18
100
AcDbEntity
  8
1
  6
Continuous
100
AcDbLine
 10
126.5143985138391
 20
41.05427050070497
 30
0.0
 11
111.6143985138006
 21
41.05427050070502
 31
0.0
  0
LINE
  5
1774
330
18
100
AcDbEntity
  8
4
  6
CENTER
100
AcDbLine
 10
105.0416889917439
 20
44.55427050070585
 30
0.0
 11
132.2537438583076
 21
44.55427050070585
 31
0.0
  0
LINE
  5
1775
330
18
100
AcDbEntity
  8
4
  6
CENTER
 48
0.2
100
AcDbLine
 10
106.7643985137742
 20
45.55427050070607
 30
0.0
 11
131.0643985137734
 21
45.55427050070607
 31
0.0
  0
LINE
  5
1776
330
18
100
AcDbEntity
  8
1
  6
Continuous
100
AcDbLine
 10
126.5143985138391
 20
39.85427050070515
 30
0.0
 11
111.6143985138352
 21
39.85427050070515
 31
0.0
  0
LINE
  5
1777
330
18
100
AcDbEntity
  8
4
  6
CENTER
100
AcDbLine
 10
114.9643985138185
 20
55.75427050070473
 30
0.0
 11
123.1643985138185
 21
55.75427050070473
 31
0.0
  0
CIRCLE
  5
1778
330
18
100
AcDbEntity
  8
1
  6
Continuous
100
AcDbCircle
 10
119.0643985138185
 20
55.75427050070473
 30
0.0
 40
3.1
  0
ARC
  5
1779
330
18
100
AcDbEntity
  8
1
  6
Continuous
100
AcDbCircle
 10
119.0643985138187
 20
55.0542705007049
 30
0.0
 40
5.499999999999714
100
AcDbArc
 50
0.0
 51
180.0
  0
LINE
  5
177B
330
18
100
AcDbEntity
  8
4
  6
CENTER
100
AcDbLine
 10
130.5643985138183
 20
45.55427050070607
 30
0.0
 11
106.7480498933259
 21
45.55427050070607
 31
0.0
  0
LINE
  5
1781
330
18
100
AcDbEntity
  8
1
  6
Continuous
100
AcDbLine
 10
107.8643985138526
 20
41.11986012652567
 30
0.0
 11
107.8643985138524
 21
47.9273766012963
 31
0.0
  0
LINE
  5
1782
330
18
100
AcDbEntity
  8
1
  6
Continuous
100
AcDbLine
 10
107.8643985138525
 20
41.71392499893538
 30
0.0
 11
105.7270126337912
 21
41.81568021362531
 31
0.0
  0
LINE
  5
1783
330
18
100
AcDbEntity
  8
1
  6
Continuous
100
AcDbLine
 10
113.564398513819
 20
55.0542705007049
 30
0.0
 11
113.564398513819
 21
51.99676641311132
 31
0.0
  0
ARC
  5
1784
330
18
100
AcDbEntity
  8
1
  6
Continuous
100
AcDbCircle
 10
114.4068615492598
 20
45.85427050070603
 30
0.0
 40
6.2
100
AcDbArc
 50
90.0
 51
145.9442022574352
  0
LINE
  5
1789
330
18
100
AcDbEntity
  8
1
  6
Continuous
100
AcDbLine
 10
106.8643985138521
 20
46.4158463840632
 30
0.0
 11
105.047287204893
 21
45.53315561806697
 31
0.0
  0
LINE
  5
178A
330
18
100
AcDbEntity
  8
1
  6
Continuous
100
AcDbLine
 10
107.8643985138526
 20
47.9273766012963
 30
0.0
 11
109.064398513819
 21
47.92737660129628
 31
0.0
  0
ARC
  5
178B
330
18
100
AcDbEntity
  8
1
  6
Continuous
100
AcDbCircle
 10
107.3643985138526
 20
46.85427050070612
 30
0.0
 40
0.4999999999999858
100
AcDbArc
 50
5.313007205188212
 51
180.0
  0
LINE
  5
1792
330
18
100
AcDbEntity
  8
1
  6
Continuous
100
AcDbLine
 10
109.064398513819
 20
48.65427050070575
 30
0.0
 11
109.064398513819
 21
41.05427050070607
 31
0.0
  0
ARC
  5
1794
330
18
100
AcDbEntity
  8
1
  6
Continuous
100
AcDbCircle
 10
110.2643985138184
 20
48.65427050070575
 30
0.0
 40
1.200000000000273
100
AcDbArc
 50
145.9442022574352
 51
180.0
  0
LINE
  5
1795
330
18
100
AcDbEntity
  8
1
  6
Continuous
100
AcDbLine
 10
110.2643985138191
 20
48.65427050070575
 30
0.0
 11
110.2643985138191
 21
41.05427050070607
 31
0.0
  0
LINE
  5
1796
330
18
100
AcDbEntity
  8
1
  6
Continuous
100
AcDbLine
 10
110.4143985138006
 20
41.05427050070185
 30
0.0
 11
110.4143985137819
 21
48.2542705007174
 31
0.0
  0
LINE
  5
1797
330
18
100
AcDbEntity
  8
1
  6
Continuous
100
AcDbLine
 10
111.6143985137889
 20
45.03060091858887
 30
0.0
 11
111.6143985137889
 21
47.05427050070588
 31
0.0
  0
LINE
  5
179B
330
18
100
AcDbEntity
  8
1
  6
Continuous
100
AcDbLine
 10
111.6143985138007
 20
41.05427050070502
 30
0.0
 11
111.6143985137819
 21
48.2542705007174
 31
0.0
  0
LINE
  5
17A6
330
18
100
AcDbEntity
  8
1
  6
Continuous
100
AcDbLine
 10
110.4143985137819
 20
48.2542705007174
 30
0.0
 11
111.6143985137819
 21
48.2542705007174
 31
0.0
  0
LINE
  5
17AD
330
18
100
AcDbEntity
  8
1
  6
Continuous
100
AcDbLine
 10
109.0643985138192
 20
41.05427050070607
 30
0.0
 11
110.2643985138191
 21
41.05427050070607
 31
0.0
  0
LINE
  5
17AE
330
18
100
AcDbEntity
  8
1
  6
Continuous
100
AcDbLine
 10
107.8643985138526
 20
41.11986012652567
 30
0.0
 11
109.064398513819
 21
41.11986012652567
 31
0.0
  0
ARC
  5
17B7
330
18
100
AcDbEntity
  8
1
  6
Continuous
100
AcDbCircle
 10
111.6143985138007
 20
41.05427050070497
 30
0.0
 40
1.199999999999999
100
AcDbArc
 50
180.0
 51
270.0
  0
LINE
  5
17B9
330
18
100
AcDbEntity
  8
1
  6
Continuous
100
AcDbLine
 10
130.2643985137895
 20
41.71392499893554
 30
0.0
 11
132.4017843938472
 21
41.81568021362531
 31
0.0
  0
LINE
  5
17BB
330
18
100
AcDbEntity
  8
4
  6
CENTER
100
AcDbLine
 10
119.0643985138192
 20
61.78852053804485
 30
0.0
 11
119.0643985138192
 21
37.55473682242245
 31
0.0
  0
ARC
  5
17BD
330
18
100
AcDbEntity
  8
1
  6
Continuous
100
AcDbCircle
 10
132.3187738999425
 20
43.55932999225504
 30
0.0
 40
1.745624613888623
100
AcDbArc
 50
272.7256406010306
 51
0.0000000000403467
  0
LINE
  5
17BE
330
18
100
AcDbEntity
  8
1
  6
Continuous
100
AcDbLine
 10
130.2643985137858
 20
46.90161231466115
 30
0.0
 11
133.0815098227455
 21
45.53315561806697
 31
0.0
  0
LINE
  5
17BF
330
18
100
AcDbEntity
  8
1
  6
Continuous
100
AcDbLine
 10
124.5643985138185
 20
55.0542705007049
 30
0.0
 11
124.5643985138185
 21
51.99676641311121
 31
0.0
  0
ARC
  5
17C0
330
18
100
AcDbEntity
  8
1
  6
Continuous
100
AcDbCircle
 10
123.7219354783768
 20
45.85427050070603
 30
0.0
 40
6.2
100
AcDbArc
 50
34.05579774256479
 51
90.0
  0
LINE
  5
17CD
330
18
100
AcDbEntity
  8
1
  6
Continuous
100
AcDbLine
 10
130.2643985137861
 20
41.11986012652565
 30
0.0
 11
130.2643985137858
 21
47.9273766012963
 31
0.0
  0
LINE
  5
17CE
330
18
100
AcDbEntity
  8
1
  6
Continuous
100
AcDbLine
 10
130.2643985137894
 20
47.92737660129634
 30
0.0
 11
129.0643985138194
 21
47.92737660129628
 31
0.0
  0
LINE
  5
17D0
330
18
100
AcDbEntity
  8
1
  6
Continuous
100
AcDbLine
 10
126.5143985138391
 20
41.05427050070497
 30
0.0
 11
126.5143985138578
 21
48.2542705007174
 31
0.0
  0
LINE
  5
17D1
330
18
100
AcDbEntity
  8
1
  6
Continuous
100
AcDbLine
 10
127.7143985138391
 20
41.05427050070185
 30
0.0
 11
127.7143985138578
 21
48.2542705007174
 31
0.0
  0
LINE
  5
17D2
330
18
100
AcDbEntity
  8
1
  6
Continuous
100
AcDbLine
 10
127.8643985138185
 20
48.65427050070575
 30
0.0
 11
127.8643985138185
 21
41.05427050070607
 31
0.0
  0
LINE
  5
17D3
330
18
100
AcDbEntity
  8
1
  6
Continuous
100
AcDbLine
 10
129.0643985138185
 20
48.65427050070575
 30
0.0
 11
129.0643985138185
 21
41.05427050070607
 31
0.0
  0
LINE
  5
17D8
330
18
100
AcDbEntity
  8
1
  6
Continuous
100
AcDbLine
 10
126.5143985138578
 20
48.2542705007174
 30
0.0
 11
127.7143985138578
 21
48.2542705007174
 31
0.0
  0
LINE
  5
17DB
330
18
100
AcDbEntity
  8
1
  6
Continuous
100
AcDbLine
 10
110.2643985138181
 20
48.65427050070582
 30
0.0
 11
127.8643985138186
 21
48.65427050070582
 31
0.0
  0
ARC
  5
17DE
330
18
100
AcDbEntity
  8
1
  6
Continuous
100
AcDbCircle
 10
127.8643985138183
 20
48.65427050070575
 30
0.0
 40
1.200000000000273
100
AcDbArc
 50
0.0
 51
34.05579774256479
  0
LINE
  5
17E0
330
18
100
AcDbEntity
  8
1
  6
Continuous
100
AcDbLine
 10
134.064398513831
 20
43.96298390622257
 30
0.0
 11
134.0643985138313
 21
43.55932999225614
 31
0.0
  0
ARC
  5
17E1
330
18
100
AcDbEntity
  8
1
  6
Continuous
100
AcDbCircle
 10
132.3187738999425
 20
43.96298390622146
 30
0.0
 40
1.745624613888623
100
AcDbArc
 50
279.2979740593801
 51
64.09109785061694
  0
LINE
  5
17E4
330
18
100
AcDbEntity
  8
1
  6
Continuous
100
AcDbLine
 10
129.0643985138185
 20
41.11986012652561
 30
0.0
 11
130.2643985137895
 21
41.11986012652565
 31
0.0
  0
ARC
  5
17E8
330
18
100
AcDbEntity
  8
1
  6
Continuous
100
AcDbCircle
 10
126.5143985138391
 20
41.05427050070497
 30
0.0
 40
1.199999999999999
100
AcDbArc
 50
270.0
 51
0.0
  0
LINE
  5
17E9
330
18
100
AcDbEntity
  8
1
  6
Continuous
100
AcDbLine
 10
129.0643985138183
 20
41.05427050070607
 30
0.0
 11
127.8643985138185
 21
41.05427050070607
 31
0.0
  0
LINE
  5
17ED
330
18
100
AcDbEntity
  8
1
  6
Continuous
100
AcDbLine
 10
154.5643985137081
 20
41.35427050070503
 30
0.0
 11
162.0643985137995
 21
41.35427050070506
 31
0.0
  0
LINE
  5
17EE
330
18
100
AcDbEntity
  8
1
  6
Continuous
100
AcDbLine
 10
154.5643985137081
 20
39.85427050070504
 30
0.0
 11
183.5643985139681
 21
39.85427050070512
 31
0.0
  0
LINE
  5
17EF
330
18
100
AcDbEntity
  8
4
  6
CENTER
 48
0.2
100
AcDbLine
 10
169.0643985137986
 20
36.85427050070507
 30
0.0
 11
169.0643985137986
 21
51.08589760757279
 31
0.0
  0
LINE
  5
17F0
330
18
100
AcDbEntity
  8
1
  6
Continuous
100
AcDbLine
 10
162.0643985137995
 20
39.85427050070506
 30
0.0
 11
162.0643985137995
 21
48.08589760757283
 31
0.0
  0
LINE
  5
17F1
330
18
100
AcDbEntity
  8
1
  6
Continuous
100
AcDbLine
 10
176.0643985138766
 20
39.85427050070511
 30
0.0
 11
176.0643985138767
 21
48.08589760757279
 31
0.0
  0
LINE
  5
17F2
330
18
100
AcDbEntity
  8
4
  6
CENTER
 48
0.2
100
AcDbLine
 10
158.5643985137076
 20
42.85427050070508
 30
0.0
 11
158.5643985137076
 21
38.35427050070512
 31
0.0
  0
LINE
  5
17F4
330
18
100
AcDbEntity
  8
1
  6
Continuous
100
AcDbLine
 10
176.0643985138767
 20
48.08589760757279
 30
0.0
 11
162.0643985137995
 21
48.08589760757283
 31
0.0
  0
LINE
  5
17F6
330
18
100
AcDbEntity
  8
1
  6
Continuous
100
AcDbLine
 10
154.5643985137081
 20
41.35427050070503
 30
0.0
 11
154.5643985137081
 21
39.85427050070504
 31
0.0
  0
LINE
  5
17F8
330
18
100
AcDbEntity
  8
4
  6
CENTER
 48
0.2
100
AcDbLine
 10
179.5643985139678
 20
42.85427050070507
 30
0.0
 11
179.5643985139678
 21
38.35427050070512
 31
0.0
  0
LINE
  5
17F9
330
18
100
AcDbEntity
  8
1
  6
Continuous
100
AcDbLine
 10
183.5643985139681
 20
41.35427050070513
 30
0.0
 11
183.5643985139681
 21
39.85427050070512
 31
0.0
  0
LINE
  5
18BF
330
18
100
AcDbEntity
  8
1
  6
Continuous
100
AcDbLine
 10
176.0643985138766
 20
41.3542705007051
 30
0.0
 11
183.5643985139681
 21
41.35427050070513
 31
0.0
  0
LINE
  5
18C0
330
18
100
AcDbEntity
  8
1
  6
Continuous
100
AcDbLine
 10
114.4068615492598
 20
50.85427050070603
 30
0.0
 11
123.7219354783768
 21
50.85427050070603
 31
0.0
  0
ARC
  5
18C1
330
18
100
AcDbEntity
  8
1
  6
Continuous
100
AcDbCircle
 10
114.4068615492598
 20
45.85427050070603
 30
0.0
 40
5.0
100
AcDbArc
 50
90.0
 51
145.9442022574352
  0
ARC
  5
18C2
330
18
100
AcDbEntity
  8
1
  6
Continuous
100
AcDbCircle
 10
123.7219354783768
 20
45.85427050070603
 30
0.0
 40
5.0
100
AcDbArc
 50
34.05579774256479
 51
90.0
  0
LINE
  5
18C5
330
18
100
AcDbEntity
  8
1
  6
Continuous
100
AcDbLine
 10
124.5643985138192
 20
41.55427050070497
 30
0.0
 11
113.5643985138192
 21
41.554270500705
 31
0.0
  0
LINE
  5
18C6
330
18
100
AcDbEntity
  8
1
  6
Continuous
100
AcDbLine
 10
113.564398513819
 20
47.554270500705
 30
0.0
 11
113.5643985138192
 21
41.054270500705
 31
0.0
  0
LINE
  5
18C7
330
18
100
AcDbEntity
  8
1
  6
Continuous
100
AcDbLine
 10
124.5643985138192
 20
47.55427050070497
 30
0.0
 11
124.5643985138192
 21
41.05427050070495
 31
0.0
  0
LINE
  5
18C8
330
18
100
AcDbEntity
  8
1
  6
Continuous
100
AcDbLine
 10
124.5643985138192
 20
47.55427050070497
 30
0.0
 11
113.564398513819
 21
47.554270500705
 31
0.0
  0
LINE
  5
1915
330
18
100
AcDbEntity
  8
1
  6
Continuous
100
AcDbLine
 10
121.3643985138183
 20
48.65427050070582
 30
0.0
 11
121.3643985138183
 21
47.55427050070497
 31
0.0
  0
LINE
  5
191B
330
18
100
AcDbEntity
  8
1
  6
Continuous
100
AcDbLine
 10
116.7643985138185
 20
48.65427050070582
 30
0.0
 11
116.7643985138184
 21
47.55427050070497
 31
0.0
  0
ARC
  5
1922
330
18
100
AcDbEntity
  8
1
  6
Continuous
100
AcDbCircle
 10
130.5143985138527
 20
46.30427050069666
 30
0.0
 40
0.2500000000000568
100
AcDbArc
 50
0.0
 51
180.0
  0
LINE
  5
1923
330
18
100
AcDbEntity
  8
1
  6
Continuous
100
AcDbLine
 10
130.7643985138527
 20
46.30427050069675
 30
0.0
 11
130.7643985138527
 21
42.80427050070577
 31
0.0
  0
ARC
  5
1924
330
18
100
AcDbEntity
  8
1
  6
Continuous
100
AcDbCircle
 10
130.5143985138527
 20
42.80427050070577
 30
0.0
 40
0.2500000000000568
100
AcDbArc
 50
180.0
 51
0.0
  0
ARC
  5
1926
330
18
100
AcDbEntity
  8
1
  6
Continuous
100
AcDbCircle
 10
107.3643985138526
 20
42.25427050070559
 30
0.0
 40
0.4999999999999858
100
AcDbArc
 50
180.0
 51
0.0
  0
LINE
  5
1927
330
18
100
AcDbEntity
  8
1
  6
Continuous
100
AcDbLine
 10
106.8643985138521
 20
42.25427050070559
 30
0.0
 11
106.8643985138521
 21
46.85427050070598
 31
0.0
  0
LINE
  5
1961
330
18
100
AcDbEntity
  8
1
  6
Continuous
100
AcDbLine
 10
130.264398513786
 20
41.85777665382024
 30
0.0
 11
132.6008125947779
 21
42.24029430352763
 31
0.0
  0
ARC
  5
1962
330
18
100
AcDbEntity
  8
1
  6
Continuous
100
AcDbCircle
 10
105.8100231276958
 20
43.96298390622146
 30
0.0
 40
1.745624613888623
100
AcDbArc
 50
115.908902149383
 51
260.7020259406198
  0
ARC
  5
1963
330
18
100
AcDbEntity
  8
1
  6
Continuous
100
AcDbCircle
 10
105.8100231276958
 20
43.55932999225504
 30
0.0
 40
1.745624613888623
100
AcDbArc
 50
179.9999999999596
 51
267.2743593989693
  0
LINE
  5
1964
330
18
100
AcDbEntity
  8
1
  6
Continuous
100
AcDbLine
 10
107.8643985138524
 20
41.85777665382024
 30
0.0
 11
107.7009875488499
 21
41.88453029255994
 31
0.0
  0
LINE
  5
1965
330
18
100
AcDbEntity
  8
1
  6
Continuous
100
AcDbLine
 10
104.0643985138074
 20
43.96298390622257
 30
0.0
 11
104.0643985138071
 21
43.55932999225614
 31
0.0
  0
LINE
  5
1966
330
18
100
AcDbEntity
  8
1
  6
Continuous
100
AcDbLine
 10
106.9274751685878
 20
42.0111697183897
 30
0.0
 11
105.5279844328605
 21
42.24029430352763
 31
0.0
  0
LINE
  5
1967
330
18
100
AcDbEntity
  8
1
  6
Continuous
100
AcDbLine
 10
110.2643985138226
 20
46.30427050070585
 30
0.0
 11
110.414398513787
 21
46.30427050070585
 31
0.0
  0
LINE
  5
1968
330
18
100
AcDbEntity
  8
1
  6
Continuous
100
AcDbLine
 10
110.2643985138226
 20
42.80427050070585
 30
0.0
 11
110.414398513796
 21
42.80427050070585
 31
0.0
  0
LINE
  5
1969
330
18
100
AcDbEntity
  8
1
  6
Continuous
100
AcDbLine
 10
127.7143985138527
 20
46.30427050070585
 30
0.0
 11
127.8643985138185
 21
46.30427050070585
 31
0.0
  0
LINE
  5
196A
330
18
100
AcDbEntity
  8
1
  6
Continuous
100
AcDbLine
 10
126.064398513841
 20
46.30427050070585
 30
0.0
 11
126.5143985138527
 21
46.30427050070585
 31
0.0
  0
LINE
  5
196B
330
18
100
AcDbEntity
  8
1
  6
Continuous
100
AcDbLine
 10
124.5643985138192
 20
46.30427050070585
 30
0.0
 11
124.8643985138411
 21
46.30427050070585
 31
0.0
  0
LINE
  5
196C
330
18
100
AcDbEntity
  8
1
  6
Continuous
100
AcDbLine
 10
126.064398513841
 20
42.80427050070584
 30
0.0
 11
126.5143985138436
 21
42.80427050070584
 31
0.0
  0
LINE
  5
196D
330
18
100
AcDbEntity
  8
1
  6
Continuous
100
AcDbLine
 10
127.7143985138436
 20
42.80427050070584
 30
0.0
 11
127.8643985138185
 21
42.80427050070585
 31
0.0
  0
LINE
  5
196E
330
18
100
AcDbEntity
  8
1
  6
Continuous
100
AcDbLine
 10
124.5643985138192
 20
42.80427050070585
 30
0.0
 11
124.8643985138411
 21
42.80427050070585
 31
0.0
  0
LINE
  5
196F
330
18
100
AcDbEntity
  8
1
  6
Continuous
100
AcDbLine
 10
113.264398513832
 20
42.80427050070585
 30
0.0
 11
113.5643985138191
 21
42.80427050070584
 31
0.0
  0
LINE
  5
1970
330
18
100
AcDbEntity
  8
1
  6
Continuous
100
AcDbLine
 10
111.6143985137961
 20
42.80427050070585
 30
0.0
 11
112.064398513832
 21
42.80427050070585
 31
0.0
  0
LINE
  5
1971
330
18
100
AcDbEntity
  8
1
  6
Continuous
100
AcDbLine
 10
111.614398513787
 20
46.30427050070585
 30
0.0
 11
112.064398513832
 21
46.30427050070585
 31
0.0
  0
LINE
  5
1972
330
18
100
AcDbEntity
  8
1
  6
Continuous
100
AcDbLine
 10
113.264398513832
 20
46.30427050070585
 30
0.0
 11
113.564398513819
 21
46.30427050070585
 31
0.0
  0
LINE
  5
1DCE
330
18
100
AcDbEntity
  8
1
  6
Continuous
100
AcDbLine
 10
160.0643985137982
 20
41.35427050070506
 30
0.0
 11
160.0643985137982
 21
39.85427050070505
 31
0.0
  0
LINE
  5
1DCF
330
18
100
AcDbEntity
  8
1
  6
Continuous
100
AcDbLine
 10
178.0643985138761
 20
41.3542705007051
 30
0.0
 11
178.0643985138761
 21
39.85427050070512
 31
0.0
  0
ENDSEC
  0
SECTION
  2
OBJECTS
  0
DICTIONARY
  5
C
330
0
100
AcDbDictionary
281
     1
  3
ACAD_CIP_PREVIOUS_PRODUCT_INFO
350
1E83
  3
ACAD_COLOR
350
1E66
  3
ACAD_DETAILVIEWSTYLE
350
1E7F
  3
ACAD_GROUP
350
D
  3
ACAD_LAYOUT
350
94
  3
ACAD_MATERIAL
350
1E34
  3
ACAD_MLEADERSTYLE
350
1E7B
  3
ACAD_MLINESTYLE
350
1B
  3
ACAD_PLOTSETTINGS
350
95
  3
ACAD_PLOTSTYLENAME
350
1E32
  3
ACAD_SCALELIST
350
1E69
  3
ACAD_SECTIONVIEWSTYLE
350
1E7D
  3
ACAD_TABLESTYLE
350
1E67
  3
ACAD_VISUALSTYLE
350
1E4D
  3
ACDB_RECOMPOSE_DATA
350
1EA1
  3
AcDbVariableDictionary
350
1E94
  3
CONTENTDICTIONARY
350
3D
  3
DWGPROPS
350
1EA2
  0
DICTIONARY
  5
1E84
330
E
100
AcDbDictionary
280
     1
281
     1
  3
ADSK_XREC_LAYER_RECONCILED
360
1E85
  0
DICTIONARY
  5
1E86
330
4E
100
AcDbDictionary
280
     1
281
     1
  3
ADSK_XREC_LAYER_RECONCILED
360
1E87
  0
DICTIONARY
  5
1E88
330
4F
100
AcDbDictionary
280
     1
281
     1
  3
ADSK_XREC_LAYER_RECONCILED
360
1E89
  0
DICTIONARY
  5
1E8A
330
50
100
AcDbDictionary
280
     1
281
     1
  3
ADSK_XREC_LAYER_RECONCILED
360
1E8B
  0
DICTIONARY
  5
1E8C
330
51
100
AcDbDictionary
280
     1
281
     1
  3
ADSK_XREC_LAYER_RECONCILED
360
1E8D
  0
DICTIONARY
  5
1E8E
330
52
100
AcDbDictionary
280
     1
281
     1
  3
ADSK_XREC_LAYER_RECONCILED
360
1E8F
  0
DICTIONARY
  5
1E90
330
53
100
AcDbDictionary
280
     1
281
     1
  3
ADSK_XREC_LAYER_RECONCILED
360
1E91
  0
DICTIONARY
  5
1E92
330
54
100
AcDbDictionary
280
     1
281
     1
  3
ADSK_XREC_LAYER_RECONCILED
360
1E93
  0
DICTIONARY
  5
1E2D
330
18
100
AcDbDictionary
281
     1
  3
ACAD_LAYOUTSELFREF
350
1E2E
  0
DICTIONARY
  5
1E2B
330
15
100
AcDbDictionary
281
     1
  3
ACAD_LAYOUTSELFREF
350
1E2C
  0
XRECORD
  5
1E83
102
{ACAD_REACTORS
330
C
102
}
330
C
100
AcDbXrecord
280
     1
300
ACDLT
300
2014
300
ACDLT_F_S
  0
DICTIONARY
  5
1E66
102
{ACAD_REACTORS
330
C
102
}
330
C
100
AcDbDictionary
281
     1
  0
DICTIONARY
  5
1E7F
102
{ACAD_REACTORS
330
C
102
}
330
C
100
AcDbDictionary
281
     1
  3
Imperial24
350
1E80
  0
DICTIONARY
  5
D
102
{ACAD_REACTORS
330
C
102
}
330
C
100
AcDbDictionary
281
     1
  0
DICTIONARY
  5
94
102
{ACAD_REACTORS
330
C
102
}
330
C
100
AcDbDictionary
281
     1
  3
Model
350
1E81
  3
レイアウト1
350
1E82
  0
DICTIONARY
  5
1E34
102
{ACAD_REACTORS
330
C
102
}
330
C
100
AcDbDictionary
281
     1
  3
ByBlock
350
1E3D
  3
ByLayer
350
1E35
  3
Global
350
1E45
  0
DICTIONARY
  5
1E7B
102
{ACAD_REACTORS
330
C
102
}
330
C
100
AcDbDictionary
281
     1
  3
Standard
350
1E7C
  0
DICTIONARY
  5
1B
102
{ACAD_REACTORS
330
C
102
}
330
C
100
AcDbDictionary
281
     1
  3
STANDARD
350
1C
  0
DICTIONARY
  5
95
102
{ACAD_REACTORS
330
C
102
}
330
C
100
AcDbDictionary
281
     1
  0
ACDBDICTIONARYWDFLT
  5
1E32
102
{ACAD_REACTORS
330
C
102
}
330
C
100
AcDbDictionary
281
     1
  3
Normal
350
1E33
100
AcDbDictionaryWithDefault
340
1E33
  0
DICTIONARY
  5
1E69
102
{ACAD_REACTORS
330
C
102
}
330
C
100
AcDbDictionary
281
     1
  3
A0
350
1E6A
  3
A1
350
1E6B
  3
A2
350
1E6C
  3
A3
350
1E6D
  3
A4
350
1E6E
  3
A5
350
1E6F
  3
A6
350
1E70
  3
A7
350
1E71
  3
A8
350
1E72
  3
A9
350
1E73
  3
B0
350
1E74
  3
B1
350
1E75
  3
B2
350
1E76
  3
B3
350
1E77
  3
B4
350
1E78
  3
B5
350
1E79
  3
B6
350
1E7A
  0
DICTIONARY
  5
1E7D
102
{ACAD_REACTORS
330
C
102
}
330
C
100
AcDbDictionary
281
     1
  3
Imperial24
350
1E7E
  0
DICTIONARY
  5
1E67
102
{ACAD_REACTORS
330
C
102
}
330
C
100
AcDbDictionary
281
     1
  3
Standard
350
1E68
  0
DICTIONARY
  5
1E4D
102
{ACAD_REACTORS
330
C
102
}
330
C
100
AcDbDictionary
281
     1
  3
2dWireframe
350
1E53
  3
Basic
350
1E52
  3
Brighten
350
1E59
  3
ColorChange
350
1E5D
  3
Conceptual
350
1E56
  3
Dim
350
1E58
  3
EdgeColorOff
350
1E65
  3
Facepattern
350
1E5C
  3
Flat
350
1E4E
  3
FlatWithEdges
350
1E4F
  3
Gouraud
350
1E50
  3
GouraudWithEdges
350
1E51
  3
Hidden
350
1E55
  3
JitterOff
350
1E63
  3
Linepattern
350
1E5B
  3
OverhangOff
350
1E64
  3
Realistic
350
1E57
  3
Shaded
350
1E62
  3
Shaded with edges
350
1E61
  3
Shades of Gray
350
1E5E
  3
Sketchy
350
1E5F
  3
Thicken
350
1E5A
  3
Wireframe
350
1E54
  3
X-Ray
350
1E60
  0
XRECORD
  5
1EA1
102
{ACAD_REACTORS
330
C
102
}
330
C
100
AcDbXrecord
280
     1
 90
        1
330
1E68
  0
DICTIONARY
  5
1E94
102
{ACAD_REACTORS
330
C
102
}
330
C
100
AcDbDictionary
281
     1
  3
CANNOSCALE
350
1E99
  3
CMLEADERSTYLE
350
1E96
  3
CTABLESTYLE
350
1E95
  3
CVIEWDETAILSTYLE
350
1E97
  3
CVIEWSECTIONSTYLE
350
1E98
  3
DIMASSOC
350
1E9C
  3
INDEXCTL
350
1E9B
  3
SORTENTS
350
1E9A
  3
XCLIPFRAME
350
1E9D
  0
DICTIONARY
  5
3D
102
{ACAD_REACTORS
330
C
102
}
330
C
100
AcDbDictionary
281
     1
  0
XRECORD
  5
1EA2
102
{ACAD_REACTORS
330
C
102
}
330
C
100
AcDbXrecord
280
     1
  1
DWGPROPS COOKIE
  2

  3

  4

  6

  7

  8
Yoshitsune
  9

300
=
301
=
302
=
303
=
304
=
305
=
306
=
307
=
308
=
309
=
 40
0.5345266203703704
 41
2456440.474367905
 42
2457192.602668982
  1

 90
        0
  0
XRECORD
  5
1E85
102
{ACAD_REACTORS
330
1E84
102
}
330
1E84
100
AcDbXrecord
280
     1
290
     1
  0
XRECORD
  5
1E87
102
{ACAD_REACTORS
330
1E86
102
}
330
1E86
100
AcDbXrecord
280
     1
290
     1
  0
XRECORD
  5
1E89
102
{ACAD_REACTORS
330
1E88
102
}
330
1E88
100
AcDbXrecord
280
     1
290
     1
  0
XRECORD
  5
1E8B
102
{ACAD_REACTORS
330
1E8A
102
}
330
1E8A
100
AcDbXrecord
280
     1
290
     1
  0
XRECORD
  5
1E8D
102
{ACAD_REACTORS
330
1E8C
102
}
330
1E8C
100
AcDbXrecord
280
     1
290
     1
  0
XRECORD
  5
1E8F
102
{ACAD_REACTORS
330
1E8E
102
}
330
1E8E
100
AcDbXrecord
280
     1
290
     1
  0
XRECORD
  5
1E91
102
{ACAD_REACTORS
330
1E90
102
}
330
1E90
100
AcDbXrecord
280
     1
290
     1
  0
XRECORD
  5
1E93
102
{ACAD_REACTORS
330
1E92
102
}
330
1E92
100
AcDbXrecord
280
     1
290
     1
  0
XRECORD
  5
1E2E
102
{ACAD_REACTORS
330
1E2D
102
}
330
1E2D
100
AcDbXrecord
280
     1
340
18
  0
XRECORD
  5
1E2C
102
{ACAD_REACTORS
330
1E2B
102
}
330
1E2B
100
AcDbXrecord
280
     1
340
15
  0
ACDBDETAILVIEWSTYLE
  5
1E80
102
{ACAD_XDICTIONARY
360
1EDA
102
}
102
{ACAD_REACTORS
330
1E7F
102
}
330
1E7F
100
AcDbModelDocViewStyle
 70
     0
  3
Imperial24
290
     0
100
AcDbDetailViewStyle
 70
     0
 71
     0
 90
        3
 71
     1
340
F
 40
0.24
340
0
 40
0.24
300

 40
0.36
280
     3
 71
     2
340
14
 90
       25
 71
     3
340
F
 40
0.24
 90
        1
 40
0.75
 90
        1
300
%<\AcVar ViewType \f "%tc1">% %<\AcVar ViewDetailId>%\PSCALE %<\AcVar ViewScale \f "%sn">%
 71
     4
340
14
 90
       25
340
14
 90
       25
280
     0
  0
LAYOUT
  5
1E81
102
{ACAD_XDICTIONARY
360
1EDC
102
}
102
{ACAD_REACTORS
330
94
102
}
330
94
100
AcDbPlotSettings
  1

  2
Canon LBP9100C
  4

  6

 40
0.0
 41
0.0
 42
0.0
 43
0.0
 44
0.0
 45
0.0
 46
0.0
 47
0.0
 48
0.0
 49
0.0
140
0.0
141
0.0
142
1.0
143
1.0
 70
  1712
 72
     0
 73
     0
 74
     0
  7

 75
     0
147
1.0
148
0.0
149
0.0
100
AcDbLayout
  1
Model
 70
     1
 71
     0
 10
0.0
 20
0.0
 11
12.0
 21
9.0
 12
0.0
 22
0.0
 32
0.0
 14
0.0
 24
0.0
 34
0.0
 15
0.0
 25
0.0
 35
0.0
146
0.0
 13
0.0
 23
0.0
 33
0.0
 16
1.0
 26
0.0
 36
0.0
 17
0.0
 27
1.0
 37
0.0
 76
     0
330
18
331
1E2A
  0
LAYOUT
  5
1E82
102
{ACAD_XDICTIONARY
360
1EDE
102
}
102
{ACAD_REACTORS
330
94
102
}
330
94
100
AcDbPlotSettings
  1

  2
Canon LBP9100C
  4

  6

 40
0.0
 41
0.0
 42
0.0
 43
0.0
 44
0.0
 45
0.0
 46
0.0
 47
0.0
 48
0.0
 49
0.0
140
0.0
141
0.0
142
1.0
143
1.0
 70
   688
 72
     0
 73
     0
 74
     5
  7

 75
    16
147
1.0
148
0.0
149
0.0
100
AcDbLayout
  1
レイアウト1
 70
     1
 71
     1
 10
0.0
 20
0.0
 11
420.0
 21
297.0
 12
0.0
 22
0.0
 32
0.0
 14
1.000000000000000E+20
 24
1.000000000000000E+20
 34
1.000000000000000E+20
 15
-1.000000000000000E+20
 25
-1.000000000000000E+20
 35
-1.000000000000000E+20
146
0.0
 13
0.0
 23
0.0
 33
0.0
 16
1.0
 26
0.0
 36
0.0
 17
0.0
 27
1.0
 37
0.0
 76
     0
330
15
  0
MATERIAL
  5
1E3D
102
{ACAD_XDICTIONARY
360
1E3E
102
}
102
{ACAD_REACTORS
330
1E34
102
}
330
1E34
100
AcDbMaterial
  1
ByBlock
 72
     0
 43
0.0208333333333333
 43
0.0
 43
0.0
 43
0.0
 43
0.0
 43
0.0208333333333333
 43
0.0
 43
0.0
 43
0.0
 43
0.0
 43
1.0
 43
0.0
 43
0.0
 43
0.0
 43
0.0
 43
1.0
 77
     0
 47
0.0208333333333333
 47
0.0
 47
0.0
 47
0.0
 47
0.0
 47
0.0208333333333333
 47
0.0
 47
0.0
 47
0.0
 47
0.0
 47
1.0
 47
0.0
 47
0.0
 47
0.0
 47
0.0
 47
1.0
171
     0
 49
0.0208333333333333
 49
0.0
 49
0.0
 49
0.0
 49
0.0
 49
0.0208333333333333
 49
0.0
 49
0.0
 49
0.0
 49
0.0
 49
1.0
 49
0.0
 49
0.0
 49
0.0
 49
0.0
 49
1.0
175
     0
142
0.0208333333333333
142
0.0
142
0.0
142
0.0
142
0.0
142
0.0208333333333333
142
0.0
142
0.0
142
0.0
142
0.0
142
1.0
142
0.0
142
0.0
142
0.0
142
0.0
142
1.0
179
     0
144
0.0208333333333333
144
0.0
144
0.0
144
0.0
144
0.0
144
0.0208333333333333
144
0.0
144
0.0
144
0.0
144
0.0
144
1.0
144
0.0
144
0.0
144
0.0
144
0.0
144
1.0
147
0.0208333333333333
147
0.0
147
0.0
147
0.0
147
0.0
147
0.0208333333333333
147
0.0
147
0.0
147
0.0
147
0.0
147
1.0
147
0.0
147
0.0
147
0.0
147
0.0
147
1.0
  0
MATERIAL
  5
1E35
102
{ACAD_XDICTIONARY
360
1E36
102
}
102
{ACAD_REACTORS
330
1E34
102
}
330
1E34
100
AcDbMaterial
  1
ByLayer
 72
     0
 43
0.0208333333333333
 43
0.0
 43
0.0
 43
0.0
 43
0.0
 43
0.0208333333333333
 43
0.0
 43
0.0
 43
0.0
 43
0.0
 43
1.0
 43
0.0
 43
0.0
 43
0.0
 43
0.0
 43
1.0
 77
     0
 47
0.0208333333333333
 47
0.0
 47
0.0
 47
0.0
 47
0.0
 47
0.0208333333333333
 47
0.0
 47
0.0
 47
0.0
 47
0.0
 47
1.0
 47
0.0
 47
0.0
 47
0.0
 47
0.0
 47
1.0
171
     0
 49
0.0208333333333333
 49
0.0
 49
0.0
 49
0.0
 49
0.0
 49
0.0208333333333333
 49
0.0
 49
0.0
 49
0.0
 49
0.0
 49
1.0
 49
0.0
 49
0.0
 49
0.0
 49
0.0
 49
1.0
175
     0
142
0.0208333333333333
142
0.0
142
0.0
142
0.0
142
0.0
142
0.0208333333333333
142
0.0
142
0.0
142
0.0
142
0.0
142
1.0
142
0.0
142
0.0
142
0.0
142
0.0
142
1.0
179
     0
144
0.0208333333333333
144
0.0
144
0.0
144
0.0
144
0.0
144
0.0208333333333333
144
0.0
144
0.0
144
0.0
144
0.0
144
1.0
144
0.0
144
0.0
144
0.0
144
0.0
144
1.0
147
0.0208333333333333
147
0.0
147
0.0
147
0.0
147
0.0
147
0.0208333333333333
147
0.0
147
0.0
147
0.0
147
0.0
147
1.0
147
0.0
147
0.0
147
0.0
147
0.0
147
1.0
  0
MATERIAL
  5
1E45
102
{ACAD_XDICTIONARY
360
1E46
102
}
102
{ACAD_REACTORS
330
1E34
102
}
330
1E34
100
AcDbMaterial
  1
Global
 72
     0
 43
0.0208333333333333
 43
0.0
 43
0.0
 43
0.0
 43
0.0
 43
0.0208333333333333
 43
0.0
 43
0.0
 43
0.0
 43
0.0
 43
1.0
 43
0.0
 43
0.0
 43
0.0
 43
0.0
 43
1.0
 77
     0
 47
0.0208333333333333
 47
0.0
 47
0.0
 47
0.0
 47
0.0
 47
0.0208333333333333
 47
0.0
 47
0.0
 47
0.0
 47
0.0
 47
1.0
 47
0.0
 47
0.0
 47
0.0
 47
0.0
 47
1.0
171
     0
 49
0.0208333333333333
 49
0.0
 49
0.0
 49
0.0
 49
0.0
 49
0.0208333333333333
 49
0.0
 49
0.0
 49
0.0
 49
0.0
 49
1.0
 49
0.0
 49
0.0
 49
0.0
 49
0.0
 49
1.0
175
     0
142
0.0208333333333333
142
0.0
142
0.0
142
0.0
142
0.0
142
0.0208333333333333
142
0.0
142
0.0
142
0.0
142
0.0
142
1.0
142
0.0
142
0.0
142
0.0
142
0.0
142
1.0
179
     0
144
0.0208333333333333
144
0.0
144
0.0
144
0.0
144
0.0
144
0.0208333333333333
144
0.0
144
0.0
144
0.0
144
0.0
144
1.0
144
0.0
144
0.0
144
0.0
144
0.0
144
1.0
147
0.0208333333333333
147
0.0
147
0.0
147
0.0
147
0.0
147
0.0208333333333333
147
0.0
147
0.0
147
0.0
147
0.0
147
1.0
147
0.0
147
0.0
147
0.0
147
0.0
147
1.0
  0
MLEADERSTYLE
  5
1E7C
102
{ACAD_REACTORS
330
1E7B
102
}
330
1E7B
100
AcDbMLeaderStyle
170
     2
171
     1
172
     0
 90
        2
 40
0.0
 41
0.0
173
     1
 91
-1056964608
340
12
 92
       -2
290
     1
 42
0.09
291
     1
 43
0.36
  3
Standard
 44
0.18
300

342
F
174
     1
178
     6
175
     1
176
     0
 93
-1056964608
 45
0.18
292
     0
297
     0
 46
0.18
 94
-1056964608
 47
1.0
 49
1.0
140
1.0
293
     1
141
0.0
294
     1
177
     0
142
1.0
295
     0
296
     0
143
0.125
1001
ACAD_MLEADERVER
1070
     2
  0
MLINESTYLE
  5
1C
102
{ACAD_REACTORS
330
1B
102
}
330
1B
100
AcDbMlineStyle
  2
STANDARD
 70
     0
  3

 62
   256
 51
90.0
 52
90.0
 71
     2
 49
0.5
 62
   256
  6
BYLAYER
 49
-0.5
 62
   256
  6
BYLAYER
  0
ACDBPLACEHOLDER
  5
1E33
102
{ACAD_REACTORS
330
1E32
102
}
330
1E32
  0
SCALE
  5
1E6A
102
{ACAD_REACTORS
330
1E69
102
}
330
1E69
100
AcDbScale
 70
     0
300
1:1
140
1.0
141
1.0
290
     1
  0
SCALE
  5
1E6B
102
{ACAD_REACTORS
330
1E69
102
}
330
1E69
100
AcDbScale
 70
     0
300
1/128" = 1'-0"
140
0.0078125
141
12.0
290
     0
  0
SCALE
  5
1E6C
102
{ACAD_REACTORS
330
1E69
102
}
330
1E69
100
AcDbScale
 70
     0
300
1/64" = 1'-0"
140
0.015625
141
12.0
290
     0
  0
SCALE
  5
1E6D
102
{ACAD_REACTORS
330
1E69
102
}
330
1E69
100
AcDbScale
 70
     0
300
1/32" = 1'-0"
140
0.03125
141
12.0
290
     0
  0
SCALE
  5
1E6E
102
{ACAD_REACTORS
330
1E69
102
}
330
1E69
100
AcDbScale
 70
     0
300
1/16" = 1'-0"
140
0.0625
141
12.0
290
     0
  0
SCALE
  5
1E6F
102
{ACAD_REACTORS
330
1E69
102
}
330
1E69
100
AcDbScale
 70
     0
300
3/32" = 1'-0"
140
0.09375
141
12.0
290
     0
  0
SCALE
  5
1E70
102
{ACAD_REACTORS
330
1E69
102
}
330
1E69
100
AcDbScale
 70
     0
300
1/8" = 1'-0"
140
0.125
141
12.0
290
     0
  0
SCALE
  5
1E71
102
{ACAD_REACTORS
330
1E69
102
}
330
1E69
100
AcDbScale
 70
     0
300
3/16" = 1'-0"
140
0.1875
141
12.0
290
     0
  0
SCALE
  5
1E72
102
{ACAD_REACTORS
330
1E69
102
}
330
1E69
100
AcDbScale
 70
     0
300
1/4" = 1'-0"
140
0.25
141
12.0
290
     0
  0
SCALE
  5
1E73
102
{ACAD_REACTORS
330
1E69
102
}
330
1E69
100
AcDbScale
 70
     0
300
3/8" = 1'-0"
140
0.375
141
12.0
290
     0
  0
SCALE
  5
1E74
102
{ACAD_REACTORS
330
1E69
102
}
330
1E69
100
AcDbScale
 70
     0
300
1/2" = 1'-0"
140
0.5
141
12.0
290
     0
  0
SCALE
  5
1E75
102
{ACAD_REACTORS
330
1E69
102
}
330
1E69
100
AcDbScale
 70
     0
300
3/4" = 1'-0"
140
0.75
141
12.0
290
     0
  0
SCALE
  5
1E76
102
{ACAD_REACTORS
330
1E69
102
}
330
1E69
100
AcDbScale
 70
     0
300
1" = 1'-0"
140
1.0
141
12.0
290
     0
  0
SCALE
  5
1E77
102
{ACAD_REACTORS
330
1E69
102
}
330
1E69
100
AcDbScale
 70
     0
300
1-1/2" = 1'-0"
140
1.5
141
12.0
290
     0
  0
SCALE
  5
1E78
102
{ACAD_REACTORS
330
1E69
102
}
330
1E69
100
AcDbScale
 70
     0
300
3" = 1'-0"
140
3.0
141
12.0
290
     0
  0
SCALE
  5
1E79
102
{ACAD_REACTORS
330
1E69
102
}
330
1E69
100
AcDbScale
 70
     0
300
6" = 1'-0"
140
6.0
141
12.0
290
     0
  0
SCALE
  5
1E7A
102
{ACAD_REACTORS
330
1E69
102
}
330
1E69
100
AcDbScale
 70
     0
300
1'-0" = 1'-0"
140
12.0
141
12.0
290
     0
  0
ACDBSECTIONVIEWSTYLE
  5
1E7E
102
{ACAD_XDICTIONARY
360
1ED8
102
}
102
{ACAD_REACTORS
330
1E7D
102
}
330
1E7D
100
AcDbModelDocViewStyle
 70
     0
  3
Imperial24
290
     0
100
AcDbSectionViewStyle
 70
     0
 71
     0
 90
       78
 71
     1
340
F
 40
0.24
340
0
340
0
 40
0.24
300
I, O, Q, S, X, Z
 40
0.48
 90
        3
 40
0.18
 90
        1
 71
     2
340
14
 90
       25
340
14
 90
       50
 40
0.24
 40
0.0
 40
0.24
 71
     3
340
F
 40
0.24
 90
        1
 40
0.75
 90
        1
300
%<\AcVar ViewType \f "%tc1">% %<\AcVar ViewSectionStartId>%-%<\AcVar ViewSectionEndId>%\PSCALE %<\AcVar ViewScale \f "%sn">%
 71
     4
300
ANSI31
 40
1.0
 90
        0
290
     0
290
     0
 90
        6
 40
0.0
 40
1.570796326794896
 40
0.2617993877991494
 40
1.308996938995747
 40
-0.2617993877991494
 40
1.832595714594046
  0
TABLESTYLE
  5
1E68
102
{ACAD_XDICTIONARY
360
1E9F
102
}
102
{ACAD_REACTORS
330
1E67
102
}
330
1E67
100
AcDbTableStyle
  3
Standard
 70
     0
 71
     0
 40
0.06
 41
0.06
280
     0
281
     0
  7
STANDARD
140
0.18
170
     2
 62
     0
 63
     7
283
     0
274
    -2
284
     1
 64
     0
275
    -2
285
     1
 65
     0
276
    -2
286
     1
 66
     0
277
    -2
287
     1
 67
     0
278
    -2
288
     1
 68
     0
279
    -2
289
     1
 69
     0
  7
STANDARD
140
0.25
170
     5
 62
     0
 63
     7
283
     0
274
    -2
284
     1
 64
     0
275
    -2
285
     1
 65
     0
276
    -2
286
     1
 66
     0
277
    -2
287
     1
 67
     0
278
    -2
288
     1
 68
     0
279
    -2
289
     1
 69
     0
  7
STANDARD
140
0.18
170
     5
 62
     0
 63
     7
283
     0
274
    -2
284
     1
 64
     0
275
    -2
285
     1
 65
     0
276
    -2
286
     1
 66
     0
277
    -2
287
     1
 67
     0
278
    -2
288
     1
 68
     0
279
    -2
289
     1
 69
     0
  0
VISUALSTYLE
  5
1E53
102
{ACAD_XDICTIONARY
360
1EB0
102
}
102
{ACAD_REACTORS
330
1E4D
102
}
330
1E4D
100
AcDbVisualStyle
  2
2dWireframe
 70
     4
 71
     0
 72
     2
 73
     0
 90
        0
 40
-0.6
 41
-30.0
 62
     5
 63
     7
 74
     1
 91
        4
 64
     7
 65
   257
 75
     1
175
     1
 42
1.0
 92
        0
 66
   257
 43
1.0
 76
     1
 77
     6
 78
     2
 67
     7
 79
     5
170
     0
171
     0
290
     0
174
     0
 93
        1
 44
0.0
173
     0
291
     0
 45
0.0
1001
ACAD
1000
AcDbSavedByObjectVersion
1070
     0
  0
VISUALSTYLE
  5
1E52
102
{ACAD_XDICTIONARY
360
1EAE
102
}
102
{ACAD_REACTORS
330
1E4D
102
}
330
1E4D
100
AcDbVisualStyle
  2
Basic
 70
     7
 71
     1
 72
     0
 73
     1
 90
        0
 40
-0.6
 41
-30.0
 62
     5
 63
     7
 74
     0
 91
        4
 64
     7
 65
   257
 75
     1
175
     1
 42
1.0
 92
        8
 66
     7
 43
1.0
 76
     1
 77
     6
 78
     2
 67
     7
 79
     5
170
     0
171
     0
290
     0
174
     0
 93
        1
 44
0.0
173
     0
291
     1
 45
0.0
1001
ACAD
1000
AcDbSavedByObjectVersion
1070
     0
  0
VISUALSTYLE
  5
1E59
102
{ACAD_XDICTIONARY
360
1EBC
102
}
102
{ACAD_REACTORS
330
1E4D
102
}
330
1E4D
100
AcDbVisualStyle
  2
Brighten
 70
    12
 71
     2
 72
     2
 73
     0
 90
        0
 40
-0.6
 41
-30.0
 62
     5
 63
     7
 74
     1
 91
        4
 64
     7
 65
   257
 75
     1
175
     1
 42
1.0
 92
        8
 66
     7
 43
1.0
 76
     1
 77
     6
 78
     2
 67
     7
 79
     5
170
     0
171
     0
290
     0
174
     0
 93
        1
 44
50.0
173
     0
291
     1
 45
0.0
1001
ACAD
1000
AcDbSavedByObjectVersion
1070
     0
  0
VISUALSTYLE
  5
1E5D
102
{ACAD_XDICTIONARY
360
1EC4
102
}
102
{ACAD_REACTORS
330
1E4D
102
}
330
1E4D
100
AcDbVisualStyle
  2
ColorChange
 70
    16
 71
     2
 72
     2
 73
     3
 90
        0
 40
-0.6
 41
-30.0
 62
     5
 63
     8
 74
     1
 91
        4
 64
     7
 65
   257
 75
     1
175
     1
 42
1.0
 92
        8
 66
     8
 43
1.0
 76
     1
 77
     6
 78
     2
 67
     7
 79
     5
170
     0
171
     0
290
     0
174
     0
 93
        1
 44
0.0
173
     0
291
     1
 45
0.0
1001
ACAD
1000
AcDbSavedByObjectVersion
1070
     0
  0
VISUALSTYLE
  5
1E56
102
{ACAD_XDICTIONARY
360
1EB6
102
}
102
{ACAD_REACTORS
330
1E4D
102
}
330
1E4D
100
AcDbVisualStyle
  2
Conceptual
 70
     9
 71
     3
 72
     2
 73
     0
 90
        0
 40
-0.6
 41
-30.0
 62
     5
 63
     7
 74
     2
 91
        2
 64
     7
 65
   257
 75
     1
175
     1
 42
179.0
 92
        8
 66
     7
 43
1.0
 76
     1
 77
     6
 78
     2
 67
     7
 79
     3
170
     0
171
     0
290
     0
174
     0
 93
        1
 44
0.0
173
     0
291
     0
 45
0.0
1001
ACAD
1000
AcDbSavedByObjectVersion
1070
     0
  0
VISUALSTYLE
  5
1E58
102
{ACAD_XDICTIONARY
360
1EBA
102
}
102
{ACAD_REACTORS
330
1E4D
102
}
330
1E4D
100
AcDbVisualStyle
  2
Dim
 70
    11
 71
     2
 72
     2
 73
     0
 90
        0
 40
-0.6
 41
-30.0
 62
     5
 63
     7
 74
     1
 91
        4
 64
     7
 65
   257
 75
     1
175
     1
 42
1.0
 92
        8
 66
     7
 43
1.0
 76
     1
 77
     6
 78
     2
 67
     7
 79
     5
170
     0
171
     0
290
     0
174
     0
 93
        1
 44
-50.0
173
     0
291
     1
 45
0.0
1001
ACAD
1000
AcDbSavedByObjectVersion
1070
     0
  0
VISUALSTYLE
  5
1E65
102
{ACAD_XDICTIONARY
360
1ED4
102
}
102
{ACAD_REACTORS
330
1E4D
102
}
330
1E4D
100
AcDbVisualStyle
  2
EdgeColorOff
 70
    22
 71
     2
 72
     2
 73
     0
 90
        0
 40
-0.6
 41
-30.0
 62
     5
 63
     7
 74
     1
 91
        4
 64
     7
 65
   257
 75
     1
175
     1
 42
1.0
 92
        8
 66
     7
 43
1.0
 76
     1
 77
     6
 78
     2
 67
     7
 79
     5
170
     0
171
     0
290
     0
174
     0
 93
        1
 44
0.0
173
     0
291
     1
 45
0.0
1001
ACAD
1000
AcDbSavedByObjectVersion
1070
     0
  0
VISUALSTYLE
  5
1E5C
102
{ACAD_XDICTIONARY
360
1EC2
102
}
102
{ACAD_REACTORS
330
1E4D
102
}
330
1E4D
100
AcDbVisualStyle
  2
Facepattern
 70
    15
 71
     2
 72
     2
 73
     0
 90
        0
 40
-0.6
 41
-30.0
 62
     5
 63
     7
 74
     1
 91
        4
 64
     7
 65
   257
 75
     1
175
     1
 42
1.0
 92
        8
 66
     7
 43
1.0
 76
     1
 77
     6
 78
     2
 67
     7
 79
     5
170
     0
171
     0
290
     0
174
     0
 93
        1
 44
0.0
173
     0
291
     1
 45
0.0
1001
ACAD
1000
AcDbSavedByObjectVersion
1070
     0
  0
VISUALSTYLE
  5
1E4E
102
{ACAD_XDICTIONARY
360
1EA6
102
}
102
{ACAD_REACTORS
330
1E4D
102
}
330
1E4D
100
AcDbVisualStyle
  2
Flat
 70
     0
 71
     2
 72
     1
 73
     1
 90
        2
 40
-0.6
 41
30.0
 62
     5
 63
     7
 74
     0
 91
        0
 64
     7
 65
   257
 75
     1
175
     1
 42
1.0
 92
        8
 66
     7
 43
1.0
 76
     1
 77
     6
 78
     2
 67
     7
 79
     5
170
     0
171
     0
290
     0
174
     0
 93
       13
 44
0.0
173
     0
291
     1
 45
0.0
1001
ACAD
1000
AcDbSavedByObjectVersion
1070
     0
  0
VISUALSTYLE
  5
1E4F
102
{ACAD_XDICTIONARY
360
1EA8
102
}
102
{ACAD_REACTORS
330
1E4D
102
}
330
1E4D
100
AcDbVisualStyle
  2
FlatWithEdges
 70
     1
 71
     2
 72
     1
 73
     1
 90
        2
 40
-0.6
 41
30.0
 62
     5
 63
     7
 74
     1
 91
        0
 64
     7
 65
   257
 75
     1
175
     1
 42
1.0
 92
        0
 66
   257
 43
1.0
 76
     1
 77
     6
 78
     2
 67
     7
 79
     5
170
     0
171
     0
290
     0
174
     0
 93
       13
 44
0.0
173
     0
291
     1
 45
0.0
1001
ACAD
1000
AcDbSavedByObjectVersion
1070
     0
  0
VISUALSTYLE
  5
1E50
102
{ACAD_XDICTIONARY
360
1EAA
102
}
102
{ACAD_REACTORS
330
1E4D
102
}
330
1E4D
100
AcDbVisualStyle
  2
Gouraud
 70
     2
 71
     2
 72
     2
 73
     1
 90
        2
 40
-0.6
 41
30.0
 62
     5
 63
     7
 74
     0
 91
        0
 64
     7
 65
   257
 75
     1
175
     1
 42
1.0
 92
        0
 66
     7
 43
1.0
 76
     1
 77
     6
 78
     2
 67
     7
 79
     5
170
     0
171
     0
290
     0
174
     0
 93
       13
 44
0.0
173
     0
291
     1
 45
0.0
1001
ACAD
1000
AcDbSavedByObjectVersion
1070
     0
  0
VISUALSTYLE
  5
1E51
102
{ACAD_XDICTIONARY
360
1EAC
102
}
102
{ACAD_REACTORS
330
1E4D
102
}
330
1E4D
100
AcDbVisualStyle
  2
GouraudWithEdges
 70
     3
 71
     2
 72
     2
 73
     1
 90
        2
 40
-0.6
 41
30.0
 62
     5
 63
     7
 74
     1
 91
        0
 64
     7
 65
   257
 75
     1
175
     1
 42
1.0
 92
        0
 66
   257
 43
1.0
 76
     1
 77
     6
 78
     2
 67
     7
 79
     5
170
     0
171
     0
290
     0
174
     0
 93
       13
 44
0.0
173
     0
291
     1
 45
0.0
1001
ACAD
1000
AcDbSavedByObjectVersion
1070
     0
  0
VISUALSTYLE
  5
1E55
102
{ACAD_XDICTIONARY
360
1EB4
102
}
102
{ACAD_REACTORS
330
1E4D
102
}
330
1E4D
100
AcDbVisualStyle
  2
Hidden
 70
     6
 71
     1
 72
     2
 73
     2
 90
        0
 40
-0.6
 41
-30.0
 62
     5
 63
     7
 74
     2
 91
        2
 64
     7
 65
   257
 75
     2
175
     1
 42
40.0
 92
        0
 66
   257
 43
1.0
 76
     1
 77
     6
 78
     2
 67
     7
 79
     3
170
     0
171
     0
290
     0
174
     0
 93
        1
 44
0.0
173
     0
291
     0
 45
0.0
1001
ACAD
1000
AcDbSavedByObjectVersion
1070
     0
  0
VISUALSTYLE
  5
1E63
102
{ACAD_XDICTIONARY
360
1ED0
102
}
102
{ACAD_REACTORS
330
1E4D
102
}
330
1E4D
100
AcDbVisualStyle
  2
JitterOff
 70
    20
 71
     2
 72
     2
 73
     0
 90
        0
 40
-0.6
 41
-30.0
 62
     5
 63
     7
 74
     1
 91
        4
 64
     7
 65
   257
 75
     1
175
     1
 42
1.0
 92
       10
 66
     7
 43
1.0
 76
     1
 77
     6
 78
     2
 67
     7
 79
     5
170
     0
171
     0
290
     0
174
     0
 93
        1
 44
0.0
173
     0
291
     1
 45
0.0
1001
ACAD
1000
AcDbSavedByObjectVersion
1070
     0
  0
VISUALSTYLE
  5
1E5B
102
{ACAD_XDICTIONARY
360
1EC0
102
}
102
{ACAD_REACTORS
330
1E4D
102
}
330
1E4D
100
AcDbVisualStyle
  2
Linepattern
 70
    14
 71
     2
 72
     2
 73
     0
 90
        0
 40
-0.6
 41
-30.0
 62
     5
 63
     7
 74
     1
 91
        4
 64
     7
 65
   257
 75
     7
175
     7
 42
1.0
 92
        8
 66
     7
 43
1.0
 76
     1
 77
     6
 78
     2
 67
     7
 79
     5
170
     0
171
     0
290
     0
174
     0
 93
        1
 44
0.0
173
     0
291
     1
 45
0.0
1001
ACAD
1000
AcDbSavedByObjectVersion
1070
     0
  0
VISUALSTYLE
  5
1E64
102
{ACAD_XDICTIONARY
360
1ED2
102
}
102
{ACAD_REACTORS
330
1E4D
102
}
330
1E4D
100
AcDbVisualStyle
  2
OverhangOff
 70
    21
 71
     2
 72
     2
 73
     0
 90
        0
 40
-0.6
 41
-30.0
 62
     5
 63
     7
 74
     1
 91
        4
 64
     7
 65
   257
 75
     1
175
     1
 42
1.0
 92
        9
 66
     7
 43
1.0
 76
     1
 77
     6
 78
     2
 67
     7
 79
     5
170
     0
171
     0
290
     0
174
     0
 93
        1
 44
0.0
173
     0
291
     1
 45
0.0
1001
ACAD
1000
AcDbSavedByObjectVersion
1070
     0
  0
VISUALSTYLE
  5
1E57
102
{ACAD_XDICTIONARY
360
1EB8
102
}
102
{ACAD_REACTORS
330
1E4D
102
}
330
1E4D
100
AcDbVisualStyle
  2
Realistic
 70
     8
 71
     2
 72
     3
 73
     0
 90
        2
 40
-0.6
 41
30.0
 62
     5
 63
     7
 74
     0
 91
        0
 64
     7
 65
   257
 75
     1
175
     1
 42
1.0
 92
        8
 66
   257
 43
1.0
 76
     1
 77
     6
 78
     2
 67
     7
 79
     3
170
     0
171
     0
290
     0
174
     0
 93
       13
 44
0.0
173
     0
291
     0
 45
0.0
1001
ACAD
1000
AcDbSavedByObjectVersion
1070
     0
  0
VISUALSTYLE
  5
1E62
102
{ACAD_XDICTIONARY
360
1ECE
102
}
102
{ACAD_REACTORS
330
1E4D
102
}
330
1E4D
100
AcDbVisualStyle
  2
Shaded
 70
    27
 71
     2
 72
     2
 73
     1
 90
        2
 40
-0.6
 41
30.0
 62
     5
 63
     7
 74
     0
 91
        4
 64
     7
 65
   257
 75
     1
175
     1
 42
1.0
 92
        8
 66
   257
 43
1.0
 76
     1
 77
     6
 78
     2
 67
     8
 79
     3
170
     0
171
     0
290
     0
174
     0
 93
        5
 44
0.0
173
     0
291
     0
 45
0.0
1001
ACAD
1000
AcDbSavedByObjectVersion
1070
     0
  0
VISUALSTYLE
  5
1E61
102
{ACAD_XDICTIONARY
360
1ECC
102
}
102
{ACAD_REACTORS
330
1E4D
102
}
330
1E4D
100
AcDbVisualStyle
  2
Shaded with edges
 70
    26
 71
     2
 72
     2
 73
     1
 90
        2
 40
-0.6
 41
30.0
 62
     5
 63
     7
 74
     1
 91
       10
 64
     7
 65
   257
 75
     2
175
     1
 42
1.0
 92
        8
 66
   257
 43
1.0
 76
     1
 77
     6
 78
     2
 67
     7
 79
     3
170
     0
171
     0
290
     0
174
     0
 93
        5
 44
0.0
173
     0
291
     0
 45
0.0
1001
ACAD
1000
AcDbSavedByObjectVersion
1070
     0
  0
VISUALSTYLE
  5
1E5E
102
{ACAD_XDICTIONARY
360
1EC6
102
}
102
{ACAD_REACTORS
330
1E4D
102
}
330
1E4D
100
AcDbVisualStyle
  2
Shades of Gray
 70
    23
 71
     2
 72
     2
 73
     3
 90
        0
 40
-0.6
 41
-30.0
 62
     5
 63
     7
 74
     2
 91
        2
 64
     7
 65
     7
 75
     1
175
     1
 42
40.0
 92
        8
 66
     7
 43
1.0
 76
     1
 77
     6
 78
     2
 67
     7
 79
     3
170
     0
171
     0
290
     0
174
     0
 93
        1
 44
0.0
173
     0
291
     0
 45
0.0
1001
ACAD
1000
AcDbSavedByObjectVersion
1070
     0
  0
VISUALSTYLE
  5
1E5F
102
{ACAD_XDICTIONARY
360
1EC8
102
}
102
{ACAD_REACTORS
330
1E4D
102
}
330
1E4D
100
AcDbVisualStyle
  2
Sketchy
 70
    24
 71
     1
 72
     2
 73
     2
 90
        0
 40
-0.6
 41
-30.0
 62
     5
 63
     7
 74
     2
 91
        2
 64
     7
 65
     7
 75
     1
175
     1
 42
40.0
 92
       11
 66
     7
 43
1.0
 76
     1
 77
     6
 78
     2
 67
     7
 79
     6
170
     0
171
     0
290
     0
174
     0
 93
        1
 44
0.0
173
     0
291
     0
 45
0.0
1001
ACAD
1000
AcDbSavedByObjectVersion
1070
     0
  0
VISUALSTYLE
  5
1E5A
102
{ACAD_XDICTIONARY
360
1EBE
102
}
102
{ACAD_REACTORS
330
1E4D
102
}
330
1E4D
100
AcDbVisualStyle
  2
Thicken
 70
    13
 71
     2
 72
     2
 73
     0
 90
        0
 40
-0.6
 41
-30.0
 62
     5
 63
     7
 74
     1
 91
        4
 64
     7
 65
   257
 75
     1
175
     1
 42
1.0
 92
       12
 66
     7
 43
1.0
 76
     1
 77
     6
 78
     2
 67
     7
 79
     5
170
     0
171
     0
290
     0
174
     0
 93
        1
 44
0.0
173
     0
291
     1
 45
0.0
1001
ACAD
1000
AcDbSavedByObjectVersion
1070
     0
  0
VISUALSTYLE
  5
1E54
102
{ACAD_XDICTIONARY
360
1EB2
102
}
102
{ACAD_REACTORS
330
1E4D
102
}
330
1E4D
100
AcDbVisualStyle
  2
Wireframe
 70
     5
 71
     0
 72
     2
 73
     0
 90
        0
 40
-0.6
 41
-30.0
 62
     5
 63
     7
 74
     1
 91
        4
 64
     7
 65
   257
 75
     1
175
     1
 42
1.0
 92
        0
 66
   257
 43
1.0
 76
     1
 77
     6
 78
     2
 67
     7
 79
     3
170
     0
171
     0
290
     0
174
     0
 93
        1
 44
0.0
173
     0
291
     0
 45
0.0
1001
ACAD
1000
AcDbSavedByObjectVersion
1070
     0
  0
VISUALSTYLE
  5
1E60
102
{ACAD_XDICTIONARY
360
1ECA
102
}
102
{ACAD_REACTORS
330
1E4D
102
}
330
1E4D
100
AcDbVisualStyle
  2
X-Ray
 70
    25
 71
     2
 72
     2
 73
     1
 90
        1
 40
0.5
 41
-30.0
 62
     5
 63
     7
 74
     1
 91
        0
 64
     7
 65
   257
 75
     1
175
     1
 42
1.0
 92
        8
 66
     7
 43
1.0
 76
     1
 77
     6
 78
     2
 67
     7
 79
     3
170
     0
171
     0
290
     0
174
     0
 93
       13
 44
0.0
173
     0
291
     0
 45
0.0
1001
ACAD
1000
AcDbSavedByObjectVersion
1070
     0
  0
DICTIONARYVAR
  5
1E99
102
{ACAD_REACTORS
330
1E94
102
}
330
1E94
100
DictionaryVariables
280
     0
  1
1:1
  0
DICTIONARYVAR
  5
1E96
102
{ACAD_REACTORS
330
1E94
102
}
330
1E94
100
DictionaryVariables
280
     0
  1
STANDARD
  0
DICTIONARYVAR
  5
1E95
102
{ACAD_REACTORS
330
1E94
102
}
330
1E94
100
DictionaryVariables
280
     0
  1
STANDARD
  0
DICTIONARYVAR
  5
1E97
102
{ACAD_REACTORS
330
1E94
102
}
330
1E94
100
DictionaryVariables
280
     0
  1
Imperial24
  0
DICTIONARYVAR
  5
1E98
102
{ACAD_REACTORS
330
1E94
102
}
330
1E94
100
DictionaryVariables
280
     0
  1
Imperial24
  0
DICTIONARYVAR
  5
1E9C
102
{ACAD_REACTORS
330
1E94
102
}
330
1E94
100
DictionaryVariables
280
     0
  1
1
  0
DICTIONARYVAR
  5
1E9B
102
{ACAD_REACTORS
330
1E94
102
}
330
1E94
100
DictionaryVariables
280
     0
  1
0
  0
DICTIONARYVAR
  5
1E9A
102
{ACAD_REACTORS
330
1E94
102
}
330
1E94
100
DictionaryVariables
280
     0
  1
127
  0
DICTIONARYVAR
  5
1E9D
102
{ACAD_REACTORS
330
1E94
102
}
330
1E94
100
DictionaryVariables
280
     0
  1
2
  0
DICTIONARY
  5
1EDA
330
1E80
100
AcDbDictionary
280
     1
281
     1
  3
ACAD_XREC_ROUNDTRIP
360
1EDB
  0
DICTIONARY
  5
1EDC
330
1E81
100
AcDbDictionary
280
     1
281
     1
  3
ACAD_XREC_ROUNDTRIP
360
1EDD
  0
DICTIONARY
  5
1EDE
330
1E82
100
AcDbDictionary
280
     1
281
     1
  3
ACAD_XREC_ROUNDTRIP
360
1EDF
  0
DICTIONARY
  5
1E3E
330
1E3D
100
AcDbDictionary
280
     1
281
     1
  3
ACAD_XREC_ROUNDTRIP
360
1EA4
  3
BUMPTILE
360
1E40
  3
DIFFUSETILE
360
1E3F
  3
OPACITYTILE
360
1E43
  3
REFLECTIONTILE
360
1E42
  3
REFRACTIONTILE
360
1E44
  3
SPECULARTILE
360
1E41
  0
DICTIONARY
  5
1E36
330
1E35
100
AcDbDictionary
280
     1
281
     1
  3
ACAD_XREC_ROUNDTRIP
360
1EA3
  3
BUMPTILE
360
1E38
  3
DIFFUSETILE
360
1E37
  3
OPACITYTILE
360
1E3B
  3
REFLECTIONTILE
360
1E3A
  3
REFRACTIONTILE
360
1E3C
  3
SPECULARTILE
360
1E39
  0
DICTIONARY
  5
1E46
330
1E45
100
AcDbDictionary
280
     1
281
     1
  3
ACAD_XREC_ROUNDTRIP
360
1EA5
  3
BUMPTILE
360
1E48
  3
DIFFUSETILE
360
1E47
  3
OPACITYTILE
360
1E4B
  3
REFLECTIONTILE
360
1E4A
  3
REFRACTIONTILE
360
1E4C
  3
SPECULARTILE
360
1E49
  0
DICTIONARY
  5
1ED8
330
1E7E
100
AcDbDictionary
280
     1
281
     1
  3
ACAD_XREC_ROUNDTRIP
360
1ED9
  0
DICTIONARY
  5
1E9F
330
1E68
100
AcDbDictionary
280
     1
281
     1
  3
ACAD_ROUNDTRIP_2008_TABLESTYLE_CELLSTYLEMAP
360
1EA0
  3
ACAD_XREC_ROUNDTRIP
360
1ED6
  0
DICTIONARY
  5
1EB0
330
1E53
100
AcDbDictionary
280
     1
281
     1
  3
ACAD_XREC_ROUNDTRIP
360
1EB1
  0
DICTIONARY
  5
1EAE
330
1E52
100
AcDbDictionary
280
     1
281
     1
  3
ACAD_XREC_ROUNDTRIP
360
1EAF
  0
DICTIONARY
  5
1EBC
330
1E59
100
AcDbDictionary
280
     1
281
     1
  3
ACAD_XREC_ROUNDTRIP
360
1EBD
  0
DICTIONARY
  5
1EC4
330
1E5D
100
AcDbDictionary
280
     1
281
     1
  3
ACAD_XREC_ROUNDTRIP
360
1EC5
  0
DICTIONARY
  5
1EB6
330
1E56
100
AcDbDictionary
280
     1
281
     1
  3
ACAD_XREC_ROUNDTRIP
360
1EB7
  0
DICTIONARY
  5
1EBA
330
1E58
100
AcDbDictionary
280
     1
281
     1
  3
ACAD_XREC_ROUNDTRIP
360
1EBB
  0
DICTIONARY
  5
1ED4
330
1E65
100
AcDbDictionary
280
     1
281
     1
  3
ACAD_XREC_ROUNDTRIP
360
1ED5
  0
DICTIONARY
  5
1EC2
330
1E5C
100
AcDbDictionary
280
     1
281
     1
  3
ACAD_XREC_ROUNDTRIP
360
1EC3
  0
DICTIONARY
  5
1EA6
330
1E4E
100
AcDbDictionary
280
     1
281
     1
  3
ACAD_XREC_ROUNDTRIP
360
1EA7
  0
DICTIONARY
  5
1EA8
330
1E4F
100
AcDbDictionary
280
     1
281
     1
  3
ACAD_XREC_ROUNDTRIP
360
1EA9
  0
DICTIONARY
  5
1EAA
330
1E50
100
AcDbDictionary
280
     1
281
     1
  3
ACAD_XREC_ROUNDTRIP
360
1EAB
  0
DICTIONARY
  5
1EAC
330
1E51
100
AcDbDictionary
280
     1
281
     1
  3
ACAD_XREC_ROUNDTRIP
360
1EAD
  0
DICTIONARY
  5
1EB4
330
1E55
100
AcDbDictionary
280
     1
281
     1
  3
ACAD_XREC_ROUNDTRIP
360
1EB5
  0
DICTIONARY
  5
1ED0
330
1E63
100
AcDbDictionary
280
     1
281
     1
  3
ACAD_XREC_ROUNDTRIP
360
1ED1
  0
DICTIONARY
  5
1EC0
330
1E5B
100
AcDbDictionary
280
     1
281
     1
  3
ACAD_XREC_ROUNDTRIP
360
1EC1
  0
DICTIONARY
  5
1ED2
330
1E64
100
AcDbDictionary
280
     1
281
     1
  3
ACAD_XREC_ROUNDTRIP
360
1ED3
  0
DICTIONARY
  5
1EB8
330
1E57
100
AcDbDictionary
280
     1
281
     1
  3
ACAD_XREC_ROUNDTRIP
360
1EB9
  0
DICTIONARY
  5
1ECE
330
1E62
100
AcDbDictionary
280
     1
281
     1
  3
ACAD_XREC_ROUNDTRIP
360
1ECF
  0
DICTIONARY
  5
1ECC
330
1E61
100
AcDbDictionary
280
     1
281
     1
  3
ACAD_XREC_ROUNDTRIP
360
1ECD
  0
DICTIONARY
  5
1EC6
330
1E5E
100
AcDbDictionary
280
     1
281
     1
  3
ACAD_XREC_ROUNDTRIP
360
1EC7
  0
DICTIONARY
  5
1EC8
330
1E5F
100
AcDbDictionary
280
     1
281
     1
  3
ACAD_XREC_ROUNDTRIP
360
1EC9
  0
DICTIONARY
  5
1EBE
330
1E5A
100
AcDbDictionary
280
     1
281
     1
  3
ACAD_XREC_ROUNDTRIP
360
1EBF
  0
DICTIONARY
  5
1EB2
330
1E54
100
AcDbDictionary
280
     1
281
     1
  3
ACAD_XREC_ROUNDTRIP
360
1EB3
  0
DICTIONARY
  5
1ECA
330
1E60
100
AcDbDictionary
280
     1
281
     1
  3
ACAD_XREC_ROUNDTRIP
360
1ECB
  0
XRECORD
  5
1EDB
102
{ACAD_REACTORS
330
1EDA
102
}
330
1EDA
100
AcDbXrecord
280
     1
102
DISPLAYNAME
  1
Imperial24
102
FLAGS
 90
        0
  0
XRECORD
  5
1EDD
102
{ACAD_REACTORS
330
1EDC
102
}
330
1EDC
100
AcDbXrecord
280
     1
102
SHADEPLOT
 70
     0
102
SHADEPLOTRESLEVEL
 70
     2
102
SHADEPLOTCUSTOMDPI
 70
   300
  0
XRECORD
  5
1EDF
102
{ACAD_REACTORS
330
1EDE
102
}
330
1EDE
100
AcDbXrecord
280
     1
102
SHADEPLOT
 70
     0
102
SHADEPLOTRESLEVEL
 70
     2
102
SHADEPLOTCUSTOMDPI
 70
   300
  0
XRECORD
  5
1EA4
102
{ACAD_REACTORS
330
1E3E
102
}
330
1E3E
100
AcDbXrecord
280
     1
102
MATERIAL
148
0.0
149
0.0
149
0.0
 93
        0
 94
      127
282
     0
 72
     0
 77
     0
171
     0
175
     0
179
     0
273
     0
  0
XRECORD
  5
1E40
102
{ACAD_REACTORS
330
1E3E
102
}
330
1E3E
100
AcDbXrecord
280
     1
270
     1
271
     1
  0
XRECORD
  5
1E3F
102
{ACAD_REACTORS
330
1E3E
102
}
330
1E3E
100
AcDbXrecord
280
     1
270
     1
271
     1
  0
XRECORD
  5
1E43
102
{ACAD_REACTORS
330
1E3E
102
}
330
1E3E
100
AcDbXrecord
280
     1
270
     1
271
     1
  0
XRECORD
  5
1E42
102
{ACAD_REACTORS
330
1E3E
102
}
330
1E3E
100
AcDbXrecord
280
     1
270
     1
271
     1
  0
XRECORD
  5
1E44
102
{ACAD_REACTORS
330
1E3E
102
}
330
1E3E
100
AcDbXrecord
280
     1
270
     1
271
     1
  0
XRECORD
  5
1E41
102
{ACAD_REACTORS
330
1E3E
102
}
330
1E3E
100
AcDbXrecord
280
     1
270
     1
271
     1
  0
XRECORD
  5
1EA3
102
{ACAD_REACTORS
330
1E36
102
}
330
1E36
100
AcDbXrecord
280
     1
102
MATERIAL
148
0.0
149
0.0
149
0.0
 93
        0
 94
      127
282
     0
 72
     0
 77
     0
171
     0
175
     0
179
     0
273
     0
  0
XRECORD
  5
1E38
102
{ACAD_REACTORS
330
1E36
102
}
330
1E36
100
AcDbXrecord
280
     1
270
     1
271
     1
  0
XRECORD
  5
1E37
102
{ACAD_REACTORS
330
1E36
102
}
330
1E36
100
AcDbXrecord
280
     1
270
     1
271
     1
  0
XRECORD
  5
1E3B
102
{ACAD_REACTORS
330
1E36
102
}
330
1E36
100
AcDbXrecord
280
     1
270
     1
271
     1
  0
XRECORD
  5
1E3A
102
{ACAD_REACTORS
330
1E36
102
}
330
1E36
100
AcDbXrecord
280
     1
270
     1
271
     1
  0
XRECORD
  5
1E3C
102
{ACAD_REACTORS
330
1E36
102
}
330
1E36
100
AcDbXrecord
280
     1
270
     1
271
     1
  0
XRECORD
  5
1E39
102
{ACAD_REACTORS
330
1E36
102
}
330
1E36
100
AcDbXrecord
280
     1
270
     1
271
     1
  0
XRECORD
  5
1EA5
102
{ACAD_REACTORS
330
1E46
102
}
330
1E46
100
AcDbXrecord
280
     1
102
MATERIAL
148
0.0
149
0.0
149
0.0
 93
        0
 94
      127
282
     0
 72
     0
 77
     0
171
     0
175
     0
179
     0
273
     0
  0
XRECORD
  5
1E48
102
{ACAD_REACTORS
330
1E46
102
}
330
1E46
100
AcDbXrecord
280
     1
270
     1
271
     1
  0
XRECORD
  5
1E47
102
{ACAD_REACTORS
330
1E46
102
}
330
1E46
100
AcDbXrecord
280
     1
270
     1
271
     1
  0
XRECORD
  5
1E4B
102
{ACAD_REACTORS
330
1E46
102
}
330
1E46
100
AcDbXrecord
280
     1
270
     1
271
     1
  0
XRECORD
  5
1E4A
102
{ACAD_REACTORS
330
1E46
102
}
330
1E46
100
AcDbXrecord
280
     1
270
     1
271
     1
  0
XRECORD
  5
1E4C
102
{ACAD_REACTORS
330
1E46
102
}
330
1E46
100
AcDbXrecord
280
     1
270
     1
271
     1
  0
XRECORD
  5
1E49
102
{ACAD_REACTORS
330
1E46
102
}
330
1E46
100
AcDbXrecord
280
     1
270
     1
271
     1
  0
XRECORD
  5
1ED9
102
{ACAD_REACTORS
330
1ED8
102
}
330
1ED8
100
AcDbXrecord
280
     1
102
DISPLAYNAME
  1
Imperial24
102
FLAGS
 90
        0
  0
CELLSTYLEMAP
  5
1EA0
102
{ACAD_REACTORS
330
1E9F
102
}
330
1E9F
100
AcDbCellStyleMap
 90
        3
300
CELLSTYLE
  1
TABLEFORMAT_BEGIN
 90
        5
170
     1
 91
        0
 92
    32768
 62
   257
 93
        1
300
CONTENTFORMAT
  1
CONTENTFORMAT_BEGIN
 90
        0
 91
        0
 92
      512
 93
        0
300

 40
0.0
140
1.0
 94
        5
 62
     0
340
F
144
0.25
309
CONTENTFORMAT_END
171
     0
 94
        0
309
TABLEFORMAT_END
  1
CELLSTYLE_BEGIN
 90
        1
 91
        1
300
_TITLE
309
CELLSTYLE_END
300
CELLSTYLE
  1
TABLEFORMAT_BEGIN
 90
        5
170
     1
 91
        0
 92
        0
 62
   257
 93
        1
300
CONTENTFORMAT
  1
CONTENTFORMAT_BEGIN
 90
        0
 91
        0
 92
      512
 93
        0
300

 40
0.0
140
1.0
 94
        5
 62
     0
340
F
144
0.18
309
CONTENTFORMAT_END
171
     0
 94
        0
309
TABLEFORMAT_END
  1
CELLSTYLE_BEGIN
 90
        2
 91
        1
300
_HEADER
309
CELLSTYLE_END
300
CELLSTYLE
  1
TABLEFORMAT_BEGIN
 90
        5
170
     1
 91
        0
 92
        0
 62
   257
 93
        1
300
CONTENTFORMAT
  1
CONTENTFORMAT_BEGIN
 90
        0
 91
        0
 92
      512
 93
        0
300

 40
0.0
140
1.0
 94
        2
 62
     0
340
F
144
0.18
309
CONTENTFORMAT_END
171
     0
 94
        0
309
TABLEFORMAT_END
  1
CELLSTYLE_BEGIN
 90
        3
 91
        2
300
_DATA
309
CELLSTYLE_END
  0
XRECORD
  5
1ED6
102
{ACAD_REACTORS
330
1E9F
102
}
330
1E9F
100
AcDbXrecord
280
     1
102
ACAD_ROUNDTRIP_PRE2007_TABLESTYLE
 90
      512
 91
        0
  1

 92
      512
 93
        0
  2

 94
      512
 95
        0
  3

  0
XRECORD
  5
1EB1
102
{ACAD_REACTORS
330
1EB0
102
}
330
1EB0
100
AcDbXrecord
280
     1
102
RTVSPost2010Prop28
280
     1
102
RTVSPost2010PropOp28
 70
     1
102
RTVSPost2010Prop29
280
     1
102
RTVSPost2010PropOp29
 70
     1
102
RTVSPost2010Prop30
280
     0
102
RTVSPost2010PropOp30
 70
     1
102
RTVSPost2010Prop31
280
     0
102
RTVSPost2010PropOp31
 70
     1
102
RTVSPost2010Prop32
280
     0
102
RTVSPost2010PropOp32
 70
     1
102
RTVSPost2010Prop33
280
     0
102
RTVSPost2010PropOp33
 70
     1
102
RTVSPost2010Prop34
280
     0
102
RTVSPost2010PropOp34
 70
     1
102
RTVSPost2010Prop35
280
     0
102
RTVSPost2010PropOp35
 70
     1
102
RTVSPost2010Prop36
280
     0
102
RTVSPost2010PropOp36
 70
     1
102
RTVSPost2010Prop37
 90
       50
102
RTVSPost2010PropOp37
 70
     1
102
RTVSPost2010Prop38
140
0.0
102
RTVSPost2010PropOp38
 70
     1
102
RTVSPost2010Prop39
140
1.0
102
RTVSPost2010PropOp39
 70
     1
102
RTVSPost2010Prop40
 90
        0
102
RTVSPost2010PropOp40
 70
     1
102
RTVSPost2010Prop41ColorIndex
 90
       18
102
RTVSPost2010Prop41ColorRGB
 90
        0
102
RTVSPost2010PropOp41
 70
     1
102
RTVSPost2010Prop42
 90
       50
102
RTVSPost2010PropOp42
 70
     1
102
RTVSPost2010Prop43
 90
        3
102
RTVSPost2010PropOp43
 70
     1
102
RTVSPost2010Prop44ColorIndex
 90
        5
102
RTVSPost2010Prop44ColorRGB
 90
      255
102
RTVSPost2010PropOp44
 70
     1
102
RTVSPost2010Prop45
280
     0
102
RTVSPost2010PropOp45
 70
     1
102
RTVSPost2010Prop46
 90
       50
102
RTVSPost2010PropOp46
 70
     1
102
RTVSPost2010Prop47
 90
       50
102
RTVSPost2010PropOp47
 70
     1
102
RTVSPost2010Prop48
 90
       50
102
RTVSPost2010PropOp48
 70
     1
102
RTVSPost2010Prop49
280
     0
102
RTVSPost2010PropOp49
 70
     1
102
RTVSPost2010Prop50
 90
       50
102
RTVSPost2010PropOp50
 70
     1
102
RTVSPost2010Prop51ColorIndex
 90
      256
102
RTVSPost2010Prop51ColorRGB
 90
-16777216
102
RTVSPost2010PropOp51
 70
     0
102
RTVSPost2010Prop52
140
1.0
102
RTVSPost2010PropOp52
 70
     0
102
RTVSPost2010Prop53
 90
        2
102
RTVSPost2010PropOp53
 70
     1
102
RTVSPost2010Prop54
  1
strokes_ogs.tif
102
RTVSPost2010PropOp54
 70
     1
102
RTVSPost2010Prop55
280
     0
102
RTVSPost2010PropOp55
 70
     1
102
RTVSPost2010Prop56
140
1.0
102
RTVSPost2010PropOp56
 70
     1
102
RTVSPost2010Prop57
140
1.0
102
RTVSPost2010PropOp57
 70
     1
102
RTVSPropertyOp0
 70
     1
102
RTVSPropertyOp1
 70
     1
102
RTVSPropertyOp2
 70
     1
102
RTVSPropertyOp3
 70
     1
102
RTVSPropertyOp4
 70
     1
102
RTVSPropertyOp5
 70
     1
102
RTVSPropertyOp6
 70
     1
102
RTVSPropertyOp7
 70
     1
102
RTVSPropertyOp8
 70
     1
102
RTVSPropertyOp9
 70
     1
102
RTVSPropertyOp10
 70
     1
102
RTVSPropertyOp11
 70
     1
102
RTVSPropertyOp12
 70
     1
102
RTVSPropertyOp13
 70
     1
102
RTVSPropertyOp14
 70
     1
102
RTVSPropertyOp15
 70
     1
102
RTVSPropertyOp16
 70
     1
102
RTVSPropertyOp17
 70
     1
102
RTVSPropertyOp18
 70
     1
102
RTVSPropertyOp19
 70
     1
102
RTVSPropertyOp20
 70
     1
102
RTVSPropertyOp21
 70
     1
102
RTVSPropertyOp22
 70
     1
102
RTVSPropertyOp23
 70
     1
102
RTVSPropertyOp24
 70
     1
102
RTVSPropertyOp25
 70
     1
102
RTVSPropertyOp26
 70
     1
102
RTVSPropertyOp27
 70
     1
102
RTVSPropertyOp28
 70
     1
102
RTVSPropertyOp29
 70
     1
102
RTVSPropertyOp30
 70
     1
102
RTVSPropertyOp31
 70
     1
102
RTVSPropertyOp32
 70
     1
102
RTVSPropertyOp33
 70
     1
102
RTVSPropertyOp34
 70
     1
102
RTVSPropertyOp35
 70
     1
102
RTVSPropertyOp36
 70
     1
102
RTVSPropertyOp37
 70
     1
102
RTVSPropertyOp38
 70
     1
102
RTVSPropertyOp39
 70
     1
102
RTVSPropertyOp40
 70
     1
102
RTVSPropertyOp41
 70
     1
102
RTVSPropertyOp42
 70
     1
102
RTVSPropertyOp43
 70
     1
102
RTVSPropertyOp44
 70
     1
102
RTVSPropertyOp45
 70
     1
102
RTVSPropertyOp46
 70
     1
102
RTVSPropertyOp47
 70
     1
102
RTVSPropertyOp48
 70
     1
102
RTVSPropertyOp49
 70
     1
102
RTVSPropertyOp50
 70
     1
102
RTVSPropertyOp51
 70
     0
102
RTVSPropertyOp52
 70
     0
102
RTVSPropertyOp53
 70
     1
102
RTVSPropertyOp54
 70
     1
102
RTVSPropertyOp55
 70
     1
102
RTVSPropertyOp56
 70
     1
102
RTVSPropertyOp57
 70
     1
102
RTVSPropertyOp58
 70
     1
102
RTVSPropertyOp59
 70
     1
102
RTVSPropertyOp60
 70
     1
102
RTVSPropertyOp61
 70
     1
102
RTVSPropertyOp62
 70
     1
  0
XRECORD
  5
1EAF
102
{ACAD_REACTORS
330
1EAE
102
}
330
1EAE
100
AcDbXrecord
280
     1
102
RTVSPost2010Prop28
280
     0
102
RTVSPost2010PropOp28
 70
     1
102
RTVSPost2010Prop29
280
     1
102
RTVSPost2010PropOp29
 70
     1
102
RTVSPost2010Prop30
280
     1
102
RTVSPost2010PropOp30
 70
     1
102
RTVSPost2010Prop31
280
     0
102
RTVSPost2010PropOp31
 70
     1
102
RTVSPost2010Prop32
280
     0
102
RTVSPost2010PropOp32
 70
     1
102
RTVSPost2010Prop33
280
     0
102
RTVSPost2010PropOp33
 70
     1
102
RTVSPost2010Prop34
280
     0
102
RTVSPost2010PropOp34
 70
     1
102
RTVSPost2010Prop35
280
     0
102
RTVSPost2010PropOp35
 70
     1
102
RTVSPost2010Prop36
280
     0
102
RTVSPost2010PropOp36
 70
     1
102
RTVSPost2010Prop37
 90
       50
102
RTVSPost2010PropOp37
 70
     1
102
RTVSPost2010Prop38
140
0.0
102
RTVSPost2010PropOp38
 70
     1
102
RTVSPost2010Prop39
140
1.0
102
RTVSPost2010PropOp39
 70
     1
102
RTVSPost2010Prop40
 90
        0
102
RTVSPost2010PropOp40
 70
     1
102
RTVSPost2010Prop41ColorIndex
 90
       18
102
RTVSPost2010Prop41ColorRGB
 90
        0
102
RTVSPost2010PropOp41
 70
     1
102
RTVSPost2010Prop42
 90
       50
102
RTVSPost2010PropOp42
 70
     1
102
RTVSPost2010Prop43
 90
        3
102
RTVSPost2010PropOp43
 70
     1
102
RTVSPost2010Prop44ColorIndex
 90
        5
102
RTVSPost2010Prop44ColorRGB
 90
      255
102
RTVSPost2010PropOp44
 70
     1
102
RTVSPost2010Prop45
280
     0
102
RTVSPost2010PropOp45
 70
     1
102
RTVSPost2010Prop46
 90
       50
102
RTVSPost2010PropOp46
 70
     1
102
RTVSPost2010Prop47
 90
       50
102
RTVSPost2010PropOp47
 70
     1
102
RTVSPost2010Prop48
 90
       50
102
RTVSPost2010PropOp48
 70
     1
102
RTVSPost2010Prop49
280
     0
102
RTVSPost2010PropOp49
 70
     1
102
RTVSPost2010Prop50
 90
       50
102
RTVSPost2010PropOp50
 70
     1
102
RTVSPost2010Prop51ColorIndex
 90
      256
102
RTVSPost2010Prop51ColorRGB
 90
-16777216
102
RTVSPost2010PropOp51
 70
     0
102
RTVSPost2010Prop52
140
1.0
102
RTVSPost2010PropOp52
 70
     0
102
RTVSPost2010Prop53
 90
        2
102
RTVSPost2010PropOp53
 70
     1
102
RTVSPost2010Prop54
  1
strokes_ogs.tif
102
RTVSPost2010PropOp54
 70
     1
102
RTVSPost2010Prop55
280
     0
102
RTVSPost2010PropOp55
 70
     1
102
RTVSPost2010Prop56
140
1.0
102
RTVSPost2010PropOp56
 70
     1
102
RTVSPost2010Prop57
140
1.0
102
RTVSPost2010PropOp57
 70
     1
102
RTVSPropertyOp0
 70
     1
102
RTVSPropertyOp1
 70
     1
102
RTVSPropertyOp2
 70
     1
102
RTVSPropertyOp3
 70
     1
102
RTVSPropertyOp4
 70
     1
102
RTVSPropertyOp5
 70
     1
102
RTVSPropertyOp6
 70
     1
102
RTVSPropertyOp7
 70
     1
102
RTVSPropertyOp8
 70
     1
102
RTVSPropertyOp9
 70
     1
102
RTVSPropertyOp10
 70
     1
102
RTVSPropertyOp11
 70
     1
102
RTVSPropertyOp12
 70
     1
102
RTVSPropertyOp13
 70
     1
102
RTVSPropertyOp14
 70
     1
102
RTVSPropertyOp15
 70
     1
102
RTVSPropertyOp16
 70
     1
102
RTVSPropertyOp17
 70
     1
102
RTVSPropertyOp18
 70
     1
102
RTVSPropertyOp19
 70
     1
102
RTVSPropertyOp20
 70
     1
102
RTVSPropertyOp21
 70
     1
102
RTVSPropertyOp22
 70
     1
102
RTVSPropertyOp23
 70
     1
102
RTVSPropertyOp24
 70
     1
102
RTVSPropertyOp25
 70
     1
102
RTVSPropertyOp26
 70
     1
102
RTVSPropertyOp27
 70
     1
102
RTVSPropertyOp28
 70
     1
102
RTVSPropertyOp29
 70
     1
102
RTVSPropertyOp30
 70
     1
102
RTVSPropertyOp31
 70
     1
102
RTVSPropertyOp32
 70
     1
102
RTVSPropertyOp33
 70
     1
102
RTVSPropertyOp34
 70
     1
102
RTVSPropertyOp35
 70
     1
102
RTVSPropertyOp36
 70
     1
102
RTVSPropertyOp37
 70
     1
102
RTVSPropertyOp38
 70
     1
102
RTVSPropertyOp39
 70
     1
102
RTVSPropertyOp40
 70
     1
102
RTVSPropertyOp41
 70
     1
102
RTVSPropertyOp42
 70
     1
102
RTVSPropertyOp43
 70
     1
102
RTVSPropertyOp44
 70
     1
102
RTVSPropertyOp45
 70
     1
102
RTVSPropertyOp46
 70
     1
102
RTVSPropertyOp47
 70
     1
102
RTVSPropertyOp48
 70
     1
102
RTVSPropertyOp49
 70
     1
102
RTVSPropertyOp50
 70
     1
102
RTVSPropertyOp51
 70
     0
102
RTVSPropertyOp52
 70
     0
102
RTVSPropertyOp53
 70
     1
102
RTVSPropertyOp54
 70
     1
102
RTVSPropertyOp55
 70
     1
102
RTVSPropertyOp56
 70
     1
102
RTVSPropertyOp57
 70
     1
102
RTVSPropertyOp58
 70
     1
102
RTVSPropertyOp59
 70
     1
102
RTVSPropertyOp60
 70
     1
102
RTVSPropertyOp61
 70
     1
102
RTVSPropertyOp62
 70
     1
  0
XRECORD
  5
1EBD
102
{ACAD_REACTORS
330
1EBC
102
}
330
1EBC
100
AcDbXrecord
280
     1
102
RTVSPost2010Prop28
280
     0
102
RTVSPost2010PropOp28
 70
     1
102
RTVSPost2010Prop29
280
     1
102
RTVSPost2010PropOp29
 70
     1
102
RTVSPost2010Prop30
280
     1
102
RTVSPost2010PropOp30
 70
     1
102
RTVSPost2010Prop31
280
     0
102
RTVSPost2010PropOp31
 70
     1
102
RTVSPost2010Prop32
280
     0
102
RTVSPost2010PropOp32
 70
     1
102
RTVSPost2010Prop33
280
     0
102
RTVSPost2010PropOp33
 70
     1
102
RTVSPost2010Prop34
280
     0
102
RTVSPost2010PropOp34
 70
     1
102
RTVSPost2010Prop35
280
     0
102
RTVSPost2010PropOp35
 70
     1
102
RTVSPost2010Prop36
280
     0
102
RTVSPost2010PropOp36
 70
     1
102
RTVSPost2010Prop37
 90
       50
102
RTVSPost2010PropOp37
 70
     1
102
RTVSPost2010Prop38
140
0.0
102
RTVSPost2010PropOp38
 70
     1
102
RTVSPost2010Prop39
140
1.0
102
RTVSPost2010PropOp39
 70
     1
102
RTVSPost2010Prop40
 90
        0
102
RTVSPost2010PropOp40
 70
     1
102
RTVSPost2010Prop41ColorIndex
 90
       18
102
RTVSPost2010Prop41ColorRGB
 90
        0
102
RTVSPost2010PropOp41
 70
     1
102
RTVSPost2010Prop42
 90
       50
102
RTVSPost2010PropOp42
 70
     1
102
RTVSPost2010Prop43
 90
        3
102
RTVSPost2010PropOp43
 70
     1
102
RTVSPost2010Prop44ColorIndex
 90
        5
102
RTVSPost2010Prop44ColorRGB
 90
      255
102
RTVSPost2010PropOp44
 70
     1
102
RTVSPost2010Prop45
280
     0
102
RTVSPost2010PropOp45
 70
     1
102
RTVSPost2010Prop46
 90
       50
102
RTVSPost2010PropOp46
 70
     1
102
RTVSPost2010Prop47
 90
       50
102
RTVSPost2010PropOp47
 70
     1
102
RTVSPost2010Prop48
 90
       50
102
RTVSPost2010PropOp48
 70
     1
102
RTVSPost2010Prop49
280
     0
102
RTVSPost2010PropOp49
 70
     1
102
RTVSPost2010Prop50
 90
       50
102
RTVSPost2010PropOp50
 70
     1
102
RTVSPost2010Prop51ColorIndex
 90
      256
102
RTVSPost2010Prop51ColorRGB
 90
-16777216
102
RTVSPost2010PropOp51
 70
     0
102
RTVSPost2010Prop52
140
1.0
102
RTVSPost2010PropOp52
 70
     0
102
RTVSPost2010Prop53
 90
        2
102
RTVSPost2010PropOp53
 70
     1
102
RTVSPost2010Prop54
  1
strokes_ogs.tif
102
RTVSPost2010PropOp54
 70
     1
102
RTVSPost2010Prop55
280
     0
102
RTVSPost2010PropOp55
 70
     1
102
RTVSPost2010Prop56
140
1.0
102
RTVSPost2010PropOp56
 70
     1
102
RTVSPost2010Prop57
140
1.0
102
RTVSPost2010PropOp57
 70
     1
102
RTVSPropertyOp0
 70
     1
102
RTVSPropertyOp1
 70
     1
102
RTVSPropertyOp2
 70
     1
102
RTVSPropertyOp3
 70
     1
102
RTVSPropertyOp4
 70
     1
102
RTVSPropertyOp5
 70
     1
102
RTVSPropertyOp6
 70
     1
102
RTVSPropertyOp7
 70
     1
102
RTVSPropertyOp8
 70
     1
102
RTVSPropertyOp9
 70
     1
102
RTVSPropertyOp10
 70
     1
102
RTVSPropertyOp11
 70
     1
102
RTVSPropertyOp12
 70
     1
102
RTVSPropertyOp13
 70
     1
102
RTVSPropertyOp14
 70
     1
102
RTVSPropertyOp15
 70
     1
102
RTVSPropertyOp16
 70
     1
102
RTVSPropertyOp17
 70
     1
102
RTVSPropertyOp18
 70
     1
102
RTVSPropertyOp19
 70
     1
102
RTVSPropertyOp20
 70
     1
102
RTVSPropertyOp21
 70
     1
102
RTVSPropertyOp22
 70
     1
102
RTVSPropertyOp23
 70
     1
102
RTVSPropertyOp24
 70
     1
102
RTVSPropertyOp25
 70
     1
102
RTVSPropertyOp26
 70
     1
102
RTVSPropertyOp27
 70
     1
102
RTVSPropertyOp28
 70
     1
102
RTVSPropertyOp29
 70
     1
102
RTVSPropertyOp30
 70
     1
102
RTVSPropertyOp31
 70
     1
102
RTVSPropertyOp32
 70
     1
102
RTVSPropertyOp33
 70
     1
102
RTVSPropertyOp34
 70
     1
102
RTVSPropertyOp35
 70
     1
102
RTVSPropertyOp36
 70
     1
102
RTVSPropertyOp37
 70
     1
102
RTVSPropertyOp38
 70
     1
102
RTVSPropertyOp39
 70
     1
102
RTVSPropertyOp40
 70
     1
102
RTVSPropertyOp41
 70
     1
102
RTVSPropertyOp42
 70
     1
102
RTVSPropertyOp43
 70
     1
102
RTVSPropertyOp44
 70
     1
102
RTVSPropertyOp45
 70
     1
102
RTVSPropertyOp46
 70
     1
102
RTVSPropertyOp47
 70
     1
102
RTVSPropertyOp48
 70
     1
102
RTVSPropertyOp49
 70
     1
102
RTVSPropertyOp50
 70
     1
102
RTVSPropertyOp51
 70
     0
102
RTVSPropertyOp52
 70
     0
102
RTVSPropertyOp53
 70
     1
102
RTVSPropertyOp54
 70
     1
102
RTVSPropertyOp55
 70
     1
102
RTVSPropertyOp56
 70
     1
102
RTVSPropertyOp57
 70
     1
102
RTVSPropertyOp58
 70
     1
102
RTVSPropertyOp59
 70
     1
102
RTVSPropertyOp60
 70
     1
102
RTVSPropertyOp61
 70
     1
102
RTVSPropertyOp62
 70
     1
  0
XRECORD
  5
1EC5
102
{ACAD_REACTORS
330
1EC4
102
}
330
1EC4
100
AcDbXrecord
280
     1
102
RTVSPost2010Prop28
280
     0
102
RTVSPost2010PropOp28
 70
     1
102
RTVSPost2010Prop29
280
     1
102
RTVSPost2010PropOp29
 70
     1
102
RTVSPost2010Prop30
280
     1
102
RTVSPost2010PropOp30
 70
     1
102
RTVSPost2010Prop31
280
     0
102
RTVSPost2010PropOp31
 70
     1
102
RTVSPost2010Prop32
280
     0
102
RTVSPost2010PropOp32
 70
     1
102
RTVSPost2010Prop33
280
     0
102
RTVSPost2010PropOp33
 70
     1
102
RTVSPost2010Prop34
280
     0
102
RTVSPost2010PropOp34
 70
     1
102
RTVSPost2010Prop35
280
     0
102
RTVSPost2010PropOp35
 70
     1
102
RTVSPost2010Prop36
280
     0
102
RTVSPost2010PropOp36
 70
     1
102
RTVSPost2010Prop37
 90
       50
102
RTVSPost2010PropOp37
 70
     1
102
RTVSPost2010Prop38
140
0.0
102
RTVSPost2010PropOp38
 70
     1
102
RTVSPost2010Prop39
140
1.0
102
RTVSPost2010PropOp39
 70
     1
102
RTVSPost2010Prop40
 90
        0
102
RTVSPost2010PropOp40
 70
     1
102
RTVSPost2010Prop41ColorIndex
 90
       18
102
RTVSPost2010Prop41ColorRGB
 90
        0
102
RTVSPost2010PropOp41
 70
     1
102
RTVSPost2010Prop42
 90
       50
102
RTVSPost2010PropOp42
 70
     1
102
RTVSPost2010Prop43
 90
        3
102
RTVSPost2010PropOp43
 70
     1
102
RTVSPost2010Prop44ColorIndex
 90
        5
102
RTVSPost2010Prop44ColorRGB
 90
      255
102
RTVSPost2010PropOp44
 70
     1
102
RTVSPost2010Prop45
280
     0
102
RTVSPost2010PropOp45
 70
     1
102
RTVSPost2010Prop46
 90
       50
102
RTVSPost2010PropOp46
 70
     1
102
RTVSPost2010Prop47
 90
       50
102
RTVSPost2010PropOp47
 70
     1
102
RTVSPost2010Prop48
 90
       50
102
RTVSPost2010PropOp48
 70
     1
102
RTVSPost2010Prop49
280
     0
102
RTVSPost2010PropOp49
 70
     1
102
RTVSPost2010Prop50
 90
       50
102
RTVSPost2010PropOp50
 70
     1
102
RTVSPost2010Prop51ColorIndex
 90
      256
102
RTVSPost2010Prop51ColorRGB
 90
-16777216
102
RTVSPost2010PropOp51
 70
     0
102
RTVSPost2010Prop52
140
1.0
102
RTVSPost2010PropOp52
 70
     0
102
RTVSPost2010Prop53
 90
        2
102
RTVSPost2010PropOp53
 70
     1
102
RTVSPost2010Prop54
  1
strokes_ogs.tif
102
RTVSPost2010PropOp54
 70
     1
102
RTVSPost2010Prop55
280
     0
102
RTVSPost2010PropOp55
 70
     1
102
RTVSPost2010Prop56
140
1.0
102
RTVSPost2010PropOp56
 70
     1
102
RTVSPost2010Prop57
140
1.0
102
RTVSPost2010PropOp57
 70
     1
102
RTVSPropertyOp0
 70
     1
102
RTVSPropertyOp1
 70
     1
102
RTVSPropertyOp2
 70
     1
102
RTVSPropertyOp3
 70
     1
102
RTVSPropertyOp4
 70
     1
102
RTVSPropertyOp5
 70
     1
102
RTVSPropertyOp6
 70
     1
102
RTVSPropertyOp7
 70
     1
102
RTVSPropertyOp8
 70
     1
102
RTVSPropertyOp9
 70
     1
102
RTVSPropertyOp10
 70
     1
102
RTVSPropertyOp11
 70
     1
102
RTVSPropertyOp12
 70
     1
102
RTVSPropertyOp13
 70
     1
102
RTVSPropertyOp14
 70
     1
102
RTVSPropertyOp15
 70
     1
102
RTVSPropertyOp16
 70
     1
102
RTVSPropertyOp17
 70
     1
102
RTVSPropertyOp18
 70
     1
102
RTVSPropertyOp19
 70
     1
102
RTVSPropertyOp20
 70
     1
102
RTVSPropertyOp21
 70
     1
102
RTVSPropertyOp22
 70
     1
102
RTVSPropertyOp23
 70
     1
102
RTVSPropertyOp24
 70
     1
102
RTVSPropertyOp25
 70
     1
102
RTVSPropertyOp26
 70
     1
102
RTVSPropertyOp27
 70
     1
102
RTVSPropertyOp28
 70
     1
102
RTVSPropertyOp29
 70
     1
102
RTVSPropertyOp30
 70
     1
102
RTVSPropertyOp31
 70
     1
102
RTVSPropertyOp32
 70
     1
102
RTVSPropertyOp33
 70
     1
102
RTVSPropertyOp34
 70
     1
102
RTVSPropertyOp35
 70
     1
102
RTVSPropertyOp36
 70
     1
102
RTVSPropertyOp37
 70
     1
102
RTVSPropertyOp38
 70
     1
102
RTVSPropertyOp39
 70
     1
102
RTVSPropertyOp40
 70
     1
102
RTVSPropertyOp41
 70
     1
102
RTVSPropertyOp42
 70
     1
102
RTVSPropertyOp43
 70
     1
102
RTVSPropertyOp44
 70
     1
102
RTVSPropertyOp45
 70
     1
102
RTVSPropertyOp46
 70
     1
102
RTVSPropertyOp47
 70
     1
102
RTVSPropertyOp48
 70
     1
102
RTVSPropertyOp49
 70
     1
102
RTVSPropertyOp50
 70
     1
102
RTVSPropertyOp51
 70
     0
102
RTVSPropertyOp52
 70
     0
102
RTVSPropertyOp53
 70
     1
102
RTVSPropertyOp54
 70
     1
102
RTVSPropertyOp55
 70
     1
102
RTVSPropertyOp56
 70
     1
102
RTVSPropertyOp57
 70
     1
102
RTVSPropertyOp58
 70
     1
102
RTVSPropertyOp59
 70
     1
102
RTVSPropertyOp60
 70
     1
102
RTVSPropertyOp61
 70
     1
102
RTVSPropertyOp62
 70
     1
  0
XRECORD
  5
1EB7
102
{ACAD_REACTORS
330
1EB6
102
}
330
1EB6
100
AcDbXrecord
280
     1
102
RTVSPost2010Prop28
280
     0
102
RTVSPost2010PropOp28
 70
     1
102
RTVSPost2010Prop29
280
     1
102
RTVSPost2010PropOp29
 70
     1
102
RTVSPost2010Prop30
280
     1
102
RTVSPost2010PropOp30
 70
     1
102
RTVSPost2010Prop31
280
     0
102
RTVSPost2010PropOp31
 70
     1
102
RTVSPost2010Prop32
280
     0
102
RTVSPost2010PropOp32
 70
     1
102
RTVSPost2010Prop33
280
     0
102
RTVSPost2010PropOp33
 70
     1
102
RTVSPost2010Prop34
280
     0
102
RTVSPost2010PropOp34
 70
     1
102
RTVSPost2010Prop35
280
     0
102
RTVSPost2010PropOp35
 70
     1
102
RTVSPost2010Prop36
280
     0
102
RTVSPost2010PropOp36
 70
     1
102
RTVSPost2010Prop37
 90
       50
102
RTVSPost2010PropOp37
 70
     1
102
RTVSPost2010Prop38
140
0.0
102
RTVSPost2010PropOp38
 70
     1
102
RTVSPost2010Prop39
140
1.0
102
RTVSPost2010PropOp39
 70
     1
102
RTVSPost2010Prop40
 90
        0
102
RTVSPost2010PropOp40
 70
     1
102
RTVSPost2010Prop41ColorIndex
 90
       18
102
RTVSPost2010Prop41ColorRGB
 90
        0
102
RTVSPost2010PropOp41
 70
     1
102
RTVSPost2010Prop42
 90
       50
102
RTVSPost2010PropOp42
 70
     1
102
RTVSPost2010Prop43
 90
        3
102
RTVSPost2010PropOp43
 70
     1
102
RTVSPost2010Prop44ColorIndex
 90
        5
102
RTVSPost2010Prop44ColorRGB
 90
      255
102
RTVSPost2010PropOp44
 70
     1
102
RTVSPost2010Prop45
280
     0
102
RTVSPost2010PropOp45
 70
     1
102
RTVSPost2010Prop46
 90
       50
102
RTVSPost2010PropOp46
 70
     1
102
RTVSPost2010Prop47
 90
       50
102
RTVSPost2010PropOp47
 70
     1
102
RTVSPost2010Prop48
 90
       50
102
RTVSPost2010PropOp48
 70
     1
102
RTVSPost2010Prop49
280
     0
102
RTVSPost2010PropOp49
 70
     1
102
RTVSPost2010Prop50
 90
       50
102
RTVSPost2010PropOp50
 70
     1
102
RTVSPost2010Prop51ColorIndex
 90
      256
102
RTVSPost2010Prop51ColorRGB
 90
-16777216
102
RTVSPost2010PropOp51
 70
     0
102
RTVSPost2010Prop52
140
1.0
102
RTVSPost2010PropOp52
 70
     0
102
RTVSPost2010Prop53
 90
        2
102
RTVSPost2010PropOp53
 70
     1
102
RTVSPost2010Prop54
  1
strokes_ogs.tif
102
RTVSPost2010PropOp54
 70
     1
102
RTVSPost2010Prop55
280
     0
102
RTVSPost2010PropOp55
 70
     1
102
RTVSPost2010Prop56
140
1.0
102
RTVSPost2010PropOp56
 70
     1
102
RTVSPost2010Prop57
140
1.0
102
RTVSPost2010PropOp57
 70
     1
102
RTVSPropertyOp0
 70
     1
102
RTVSPropertyOp1
 70
     1
102
RTVSPropertyOp2
 70
     1
102
RTVSPropertyOp3
 70
     1
102
RTVSPropertyOp4
 70
     1
102
RTVSPropertyOp5
 70
     1
102
RTVSPropertyOp6
 70
     1
102
RTVSPropertyOp7
 70
     1
102
RTVSPropertyOp8
 70
     1
102
RTVSPropertyOp9
 70
     1
102
RTVSPropertyOp10
 70
     1
102
RTVSPropertyOp11
 70
     1
102
RTVSPropertyOp12
 70
     1
102
RTVSPropertyOp13
 70
     1
102
RTVSPropertyOp14
 70
     1
102
RTVSPropertyOp15
 70
     1
102
RTVSPropertyOp16
 70
     1
102
RTVSPropertyOp17
 70
     1
102
RTVSPropertyOp18
 70
     1
102
RTVSPropertyOp19
 70
     1
102
RTVSPropertyOp20
 70
     1
102
RTVSPropertyOp21
 70
     1
102
RTVSPropertyOp22
 70
     1
102
RTVSPropertyOp23
 70
     1
102
RTVSPropertyOp24
 70
     1
102
RTVSPropertyOp25
 70
     1
102
RTVSPropertyOp26
 70
     1
102
RTVSPropertyOp27
 70
     1
102
RTVSPropertyOp28
 70
     1
102
RTVSPropertyOp29
 70
     1
102
RTVSPropertyOp30
 70
     1
102
RTVSPropertyOp31
 70
     1
102
RTVSPropertyOp32
 70
     1
102
RTVSPropertyOp33
 70
     1
102
RTVSPropertyOp34
 70
     1
102
RTVSPropertyOp35
 70
     1
102
RTVSPropertyOp36
 70
     1
102
RTVSPropertyOp37
 70
     1
102
RTVSPropertyOp38
 70
     1
102
RTVSPropertyOp39
 70
     1
102
RTVSPropertyOp40
 70
     1
102
RTVSPropertyOp41
 70
     1
102
RTVSPropertyOp42
 70
     1
102
RTVSPropertyOp43
 70
     1
102
RTVSPropertyOp44
 70
     1
102
RTVSPropertyOp45
 70
     1
102
RTVSPropertyOp46
 70
     1
102
RTVSPropertyOp47
 70
     1
102
RTVSPropertyOp48
 70
     1
102
RTVSPropertyOp49
 70
     1
102
RTVSPropertyOp50
 70
     1
102
RTVSPropertyOp51
 70
     0
102
RTVSPropertyOp52
 70
     0
102
RTVSPropertyOp53
 70
     1
102
RTVSPropertyOp54
 70
     1
102
RTVSPropertyOp55
 70
     1
102
RTVSPropertyOp56
 70
     1
102
RTVSPropertyOp57
 70
     1
102
RTVSPropertyOp58
 70
     1
102
RTVSPropertyOp59
 70
     1
102
RTVSPropertyOp60
 70
     1
102
RTVSPropertyOp61
 70
     1
102
RTVSPropertyOp62
 70
     1
  0
XRECORD
  5
1EBB
102
{ACAD_REACTORS
330
1EBA
102
}
330
1EBA
100
AcDbXrecord
280
     1
102
RTVSPost2010Prop28
280
     0
102
RTVSPost2010PropOp28
 70
     1
102
RTVSPost2010Prop29
280
     1
102
RTVSPost2010PropOp29
 70
     1
102
RTVSPost2010Prop30
280
     1
102
RTVSPost2010PropOp30
 70
     1
102
RTVSPost2010Prop31
280
     0
102
RTVSPost2010PropOp31
 70
     1
102
RTVSPost2010Prop32
280
     0
102
RTVSPost2010PropOp32
 70
     1
102
RTVSPost2010Prop33
280
     0
102
RTVSPost2010PropOp33
 70
     1
102
RTVSPost2010Prop34
280
     0
102
RTVSPost2010PropOp34
 70
     1
102
RTVSPost2010Prop35
280
     0
102
RTVSPost2010PropOp35
 70
     1
102
RTVSPost2010Prop36
280
     0
102
RTVSPost2010PropOp36
 70
     1
102
RTVSPost2010Prop37
 90
       50
102
RTVSPost2010PropOp37
 70
     1
102
RTVSPost2010Prop38
140
0.0
102
RTVSPost2010PropOp38
 70
     1
102
RTVSPost2010Prop39
140
1.0
102
RTVSPost2010PropOp39
 70
     1
102
RTVSPost2010Prop40
 90
        0
102
RTVSPost2010PropOp40
 70
     1
102
RTVSPost2010Prop41ColorIndex
 90
       18
102
RTVSPost2010Prop41ColorRGB
 90
        0
102
RTVSPost2010PropOp41
 70
     1
102
RTVSPost2010Prop42
 90
       50
102
RTVSPost2010PropOp42
 70
     1
102
RTVSPost2010Prop43
 90
        3
102
RTVSPost2010PropOp43
 70
     1
102
RTVSPost2010Prop44ColorIndex
 90
        5
102
RTVSPost2010Prop44ColorRGB
 90
      255
102
RTVSPost2010PropOp44
 70
     1
102
RTVSPost2010Prop45
280
     0
102
RTVSPost2010PropOp45
 70
     1
102
RTVSPost2010Prop46
 90
       50
102
RTVSPost2010PropOp46
 70
     1
102
RTVSPost2010Prop47
 90
       50
102
RTVSPost2010PropOp47
 70
     1
102
RTVSPost2010Prop48
 90
       50
102
RTVSPost2010PropOp48
 70
     1
102
RTVSPost2010Prop49
280
     0
102
RTVSPost2010PropOp49
 70
     1
102
RTVSPost2010Prop50
 90
       50
102
RTVSPost2010PropOp50
 70
     1
102
RTVSPost2010Prop51ColorIndex
 90
      256
102
RTVSPost2010Prop51ColorRGB
 90
-16777216
102
RTVSPost2010PropOp51
 70
     0
102
RTVSPost2010Prop52
140
1.0
102
RTVSPost2010PropOp52
 70
     0
102
RTVSPost2010Prop53
 90
        2
102
RTVSPost2010PropOp53
 70
     1
102
RTVSPost2010Prop54
  1
strokes_ogs.tif
102
RTVSPost2010PropOp54
 70
     1
102
RTVSPost2010Prop55
280
     0
102
RTVSPost2010PropOp55
 70
     1
102
RTVSPost2010Prop56
140
1.0
102
RTVSPost2010PropOp56
 70
     1
102
RTVSPost2010Prop57
140
1.0
102
RTVSPost2010PropOp57
 70
     1
102
RTVSPropertyOp0
 70
     1
102
RTVSPropertyOp1
 70
     1
102
RTVSPropertyOp2
 70
     1
102
RTVSPropertyOp3
 70
     1
102
RTVSPropertyOp4
 70
     1
102
RTVSPropertyOp5
 70
     1
102
RTVSPropertyOp6
 70
     1
102
RTVSPropertyOp7
 70
     1
102
RTVSPropertyOp8
 70
     1
102
RTVSPropertyOp9
 70
     1
102
RTVSPropertyOp10
 70
     1
102
RTVSPropertyOp11
 70
     1
102
RTVSPropertyOp12
 70
     1
102
RTVSPropertyOp13
 70
     1
102
RTVSPropertyOp14
 70
     1
102
RTVSPropertyOp15
 70
     1
102
RTVSPropertyOp16
 70
     1
102
RTVSPropertyOp17
 70
     1
102
RTVSPropertyOp18
 70
     1
102
RTVSPropertyOp19
 70
     1
102
RTVSPropertyOp20
 70
     1
102
RTVSPropertyOp21
 70
     1
102
RTVSPropertyOp22
 70
     1
102
RTVSPropertyOp23
 70
     1
102
RTVSPropertyOp24
 70
     1
102
RTVSPropertyOp25
 70
     1
102
RTVSPropertyOp26
 70
     1
102
RTVSPropertyOp27
 70
     1
102
RTVSPropertyOp28
 70
     1
102
RTVSPropertyOp29
 70
     1
102
RTVSPropertyOp30
 70
     1
102
RTVSPropertyOp31
 70
     1
102
RTVSPropertyOp32
 70
     1
102
RTVSPropertyOp33
 70
     1
102
RTVSPropertyOp34
 70
     1
102
RTVSPropertyOp35
 70
     1
102
RTVSPropertyOp36
 70
     1
102
RTVSPropertyOp37
 70
     1
102
RTVSPropertyOp38
 70
     1
102
RTVSPropertyOp39
 70
     1
102
RTVSPropertyOp40
 70
     1
102
RTVSPropertyOp41
 70
     1
102
RTVSPropertyOp42
 70
     1
102
RTVSPropertyOp43
 70
     1
102
RTVSPropertyOp44
 70
     1
102
RTVSPropertyOp45
 70
     1
102
RTVSPropertyOp46
 70
     1
102
RTVSPropertyOp47
 70
     1
102
RTVSPropertyOp48
 70
     1
102
RTVSPropertyOp49
 70
     1
102
RTVSPropertyOp50
 70
     1
102
RTVSPropertyOp51
 70
     0
102
RTVSPropertyOp52
 70
     0
102
RTVSPropertyOp53
 70
     1
102
RTVSPropertyOp54
 70
     1
102
RTVSPropertyOp55
 70
     1
102
RTVSPropertyOp56
 70
     1
102
RTVSPropertyOp57
 70
     1
102
RTVSPropertyOp58
 70
     1
102
RTVSPropertyOp59
 70
     1
102
RTVSPropertyOp60
 70
     1
102
RTVSPropertyOp61
 70
     1
102
RTVSPropertyOp62
 70
     1
  0
XRECORD
  5
1ED5
102
{ACAD_REACTORS
330
1ED4
102
}
330
1ED4
100
AcDbXrecord
280
     1
102
RTVSPost2010Prop28
280
     0
102
RTVSPost2010PropOp28
 70
     1
102
RTVSPost2010Prop29
280
     1
102
RTVSPost2010PropOp29
 70
     1
102
RTVSPost2010Prop30
280
     1
102
RTVSPost2010PropOp30
 70
     1
102
RTVSPost2010Prop31
280
     0
102
RTVSPost2010PropOp31
 70
     1
102
RTVSPost2010Prop32
280
     0
102
RTVSPost2010PropOp32
 70
     1
102
RTVSPost2010Prop33
280
     0
102
RTVSPost2010PropOp33
 70
     1
102
RTVSPost2010Prop34
280
     0
102
RTVSPost2010PropOp34
 70
     1
102
RTVSPost2010Prop35
280
     0
102
RTVSPost2010PropOp35
 70
     1
102
RTVSPost2010Prop36
280
     0
102
RTVSPost2010PropOp36
 70
     1
102
RTVSPost2010Prop37
 90
       50
102
RTVSPost2010PropOp37
 70
     0
102
RTVSPost2010Prop38
140
0.0
102
RTVSPost2010PropOp38
 70
     0
102
RTVSPost2010Prop39
140
1.0
102
RTVSPost2010PropOp39
 70
     0
102
RTVSPost2010Prop40
 90
        0
102
RTVSPost2010PropOp40
 70
     0
102
RTVSPost2010Prop41ColorIndex
 90
       18
102
RTVSPost2010Prop41ColorRGB
 90
        0
102
RTVSPost2010PropOp41
 70
     0
102
RTVSPost2010Prop42
 90
       50
102
RTVSPost2010PropOp42
 70
     0
102
RTVSPost2010Prop43
 90
        3
102
RTVSPost2010PropOp43
 70
     0
102
RTVSPost2010Prop44ColorIndex
 90
        5
102
RTVSPost2010Prop44ColorRGB
 90
      255
102
RTVSPost2010PropOp44
 70
     0
102
RTVSPost2010Prop45
280
     0
102
RTVSPost2010PropOp45
 70
     1
102
RTVSPost2010Prop46
 90
       50
102
RTVSPost2010PropOp46
 70
     0
102
RTVSPost2010Prop47
 90
       50
102
RTVSPost2010PropOp47
 70
     0
102
RTVSPost2010Prop48
 90
       50
102
RTVSPost2010PropOp48
 70
     0
102
RTVSPost2010Prop49
280
     0
102
RTVSPost2010PropOp49
 70
     1
102
RTVSPost2010Prop50
 90
       50
102
RTVSPost2010PropOp50
 70
     0
102
RTVSPost2010Prop51ColorIndex
 90
      256
102
RTVSPost2010Prop51ColorRGB
 90
-16777216
102
RTVSPost2010PropOp51
 70
     0
102
RTVSPost2010Prop52
140
1.0
102
RTVSPost2010PropOp52
 70
     0
102
RTVSPost2010Prop53
 90
        2
102
RTVSPost2010PropOp53
 70
     0
102
RTVSPost2010Prop54
  1
strokes_ogs.tif
102
RTVSPost2010PropOp54
 70
     0
102
RTVSPost2010Prop55
280
     0
102
RTVSPost2010PropOp55
 70
     1
102
RTVSPost2010Prop56
140
1.0
102
RTVSPost2010PropOp56
 70
     0
102
RTVSPost2010Prop57
140
1.0
102
RTVSPost2010PropOp57
 70
     0
102
RTVSPropertyOp0
 70
     0
102
RTVSPropertyOp1
 70
     0
102
RTVSPropertyOp2
 70
     0
102
RTVSPropertyOp3
 70
     0
102
RTVSPropertyOp4
 70
     0
102
RTVSPropertyOp5
 70
     0
102
RTVSPropertyOp6
 70
     0
102
RTVSPropertyOp7
 70
     0
102
RTVSPropertyOp8
 70
     0
102
RTVSPropertyOp9
 70
     0
102
RTVSPropertyOp10
 70
     0
102
RTVSPropertyOp11
 70
     0
102
RTVSPropertyOp12
 70
     0
102
RTVSPropertyOp13
 70
     0
102
RTVSPropertyOp14
 70
     2
102
RTVSPropertyOp15
 70
     0
102
RTVSPropertyOp16
 70
     0
102
RTVSPropertyOp17
 70
     0
102
RTVSPropertyOp18
 70
     0
102
RTVSPropertyOp19
 70
     0
102
RTVSPropertyOp20
 70
     0
102
RTVSPropertyOp21
 70
     0
102
RTVSPropertyOp22
 70
     0
102
RTVSPropertyOp23
 70
     0
102
RTVSPropertyOp24
 70
     0
102
RTVSPropertyOp25
 70
     0
102
RTVSPropertyOp26
 70
     0
102
RTVSPropertyOp27
 70
     0
102
RTVSPropertyOp28
 70
     1
102
RTVSPropertyOp29
 70
     1
102
RTVSPropertyOp30
 70
     1
102
RTVSPropertyOp31
 70
     1
102
RTVSPropertyOp32
 70
     1
102
RTVSPropertyOp33
 70
     1
102
RTVSPropertyOp34
 70
     1
102
RTVSPropertyOp35
 70
     1
102
RTVSPropertyOp36
 70
     1
102
RTVSPropertyOp37
 70
     0
102
RTVSPropertyOp38
 70
     0
102
RTVSPropertyOp39
 70
     0
102
RTVSPropertyOp40
 70
     0
102
RTVSPropertyOp41
 70
     0
102
RTVSPropertyOp42
 70
     0
102
RTVSPropertyOp43
 70
     0
102
RTVSPropertyOp44
 70
     0
102
RTVSPropertyOp45
 70
     1
102
RTVSPropertyOp46
 70
     0
102
RTVSPropertyOp47
 70
     0
102
RTVSPropertyOp48
 70
     0
102
RTVSPropertyOp49
 70
     1
102
RTVSPropertyOp50
 70
     0
102
RTVSPropertyOp51
 70
     0
102
RTVSPropertyOp52
 70
     0
102
RTVSPropertyOp53
 70
     0
102
RTVSPropertyOp54
 70
     0
102
RTVSPropertyOp55
 70
     1
102
RTVSPropertyOp56
 70
     0
102
RTVSPropertyOp57
 70
     0
102
RTVSPropertyOp58
 70
     0
102
RTVSPropertyOp59
 70
     0
102
RTVSPropertyOp60
 70
     0
102
RTVSPropertyOp61
 70
     0
102
RTVSPropertyOp62
 70
     0
  0
XRECORD
  5
1EC3
102
{ACAD_REACTORS
330
1EC2
102
}
330
1EC2
100
AcDbXrecord
280
     1
102
RTVSPost2010Prop28
280
     0
102
RTVSPost2010PropOp28
 70
     1
102
RTVSPost2010Prop29
280
     1
102
RTVSPost2010PropOp29
 70
     1
102
RTVSPost2010Prop30
280
     1
102
RTVSPost2010PropOp30
 70
     1
102
RTVSPost2010Prop31
280
     0
102
RTVSPost2010PropOp31
 70
     1
102
RTVSPost2010Prop32
280
     0
102
RTVSPost2010PropOp32
 70
     1
102
RTVSPost2010Prop33
280
     0
102
RTVSPost2010PropOp33
 70
     1
102
RTVSPost2010Prop34
280
     0
102
RTVSPost2010PropOp34
 70
     1
102
RTVSPost2010Prop35
280
     0
102
RTVSPost2010PropOp35
 70
     1
102
RTVSPost2010Prop36
280
     0
102
RTVSPost2010PropOp36
 70
     1
102
RTVSPost2010Prop37
 90
       50
102
RTVSPost2010PropOp37
 70
     1
102
RTVSPost2010Prop38
140
0.0
102
RTVSPost2010PropOp38
 70
     1
102
RTVSPost2010Prop39
140
1.0
102
RTVSPost2010PropOp39
 70
     1
102
RTVSPost2010Prop40
 90
        0
102
RTVSPost2010PropOp40
 70
     1
102
RTVSPost2010Prop41ColorIndex
 90
       18
102
RTVSPost2010Prop41ColorRGB
 90
        0
102
RTVSPost2010PropOp41
 70
     1
102
RTVSPost2010Prop42
 90
       50
102
RTVSPost2010PropOp42
 70
     1
102
RTVSPost2010Prop43
 90
        3
102
RTVSPost2010PropOp43
 70
     1
102
RTVSPost2010Prop44ColorIndex
 90
        5
102
RTVSPost2010Prop44ColorRGB
 90
      255
102
RTVSPost2010PropOp44
 70
     1
102
RTVSPost2010Prop45
280
     0
102
RTVSPost2010PropOp45
 70
     1
102
RTVSPost2010Prop46
 90
       50
102
RTVSPost2010PropOp46
 70
     1
102
RTVSPost2010Prop47
 90
       50
102
RTVSPost2010PropOp47
 70
     1
102
RTVSPost2010Prop48
 90
       50
102
RTVSPost2010PropOp48
 70
     1
102
RTVSPost2010Prop49
280
     0
102
RTVSPost2010PropOp49
 70
     1
102
RTVSPost2010Prop50
 90
       50
102
RTVSPost2010PropOp50
 70
     1
102
RTVSPost2010Prop51ColorIndex
 90
      256
102
RTVSPost2010Prop51ColorRGB
 90
-16777216
102
RTVSPost2010PropOp51
 70
     0
102
RTVSPost2010Prop52
140
1.0
102
RTVSPost2010PropOp52
 70
     0
102
RTVSPost2010Prop53
 90
        2
102
RTVSPost2010PropOp53
 70
     1
102
RTVSPost2010Prop54
  1
strokes_ogs.tif
102
RTVSPost2010PropOp54
 70
     1
102
RTVSPost2010Prop55
280
     0
102
RTVSPost2010PropOp55
 70
     1
102
RTVSPost2010Prop56
140
1.0
102
RTVSPost2010PropOp56
 70
     1
102
RTVSPost2010Prop57
140
1.0
102
RTVSPost2010PropOp57
 70
     1
102
RTVSPropertyOp0
 70
     1
102
RTVSPropertyOp1
 70
     1
102
RTVSPropertyOp2
 70
     1
102
RTVSPropertyOp3
 70
     1
102
RTVSPropertyOp4
 70
     1
102
RTVSPropertyOp5
 70
     1
102
RTVSPropertyOp6
 70
     1
102
RTVSPropertyOp7
 70
     1
102
RTVSPropertyOp8
 70
     1
102
RTVSPropertyOp9
 70
     1
102
RTVSPropertyOp10
 70
     1
102
RTVSPropertyOp11
 70
     1
102
RTVSPropertyOp12
 70
     1
102
RTVSPropertyOp13
 70
     1
102
RTVSPropertyOp14
 70
     1
102
RTVSPropertyOp15
 70
     1
102
RTVSPropertyOp16
 70
     1
102
RTVSPropertyOp17
 70
     1
102
RTVSPropertyOp18
 70
     1
102
RTVSPropertyOp19
 70
     1
102
RTVSPropertyOp20
 70
     1
102
RTVSPropertyOp21
 70
     1
102
RTVSPropertyOp22
 70
     1
102
RTVSPropertyOp23
 70
     1
102
RTVSPropertyOp24
 70
     1
102
RTVSPropertyOp25
 70
     1
102
RTVSPropertyOp26
 70
     1
102
RTVSPropertyOp27
 70
     1
102
RTVSPropertyOp28
 70
     1
102
RTVSPropertyOp29
 70
     1
102
RTVSPropertyOp30
 70
     1
102
RTVSPropertyOp31
 70
     1
102
RTVSPropertyOp32
 70
     1
102
RTVSPropertyOp33
 70
     1
102
RTVSPropertyOp34
 70
     1
102
RTVSPropertyOp35
 70
     1
102
RTVSPropertyOp36
 70
     1
102
RTVSPropertyOp37
 70
     1
102
RTVSPropertyOp38
 70
     1
102
RTVSPropertyOp39
 70
     1
102
RTVSPropertyOp40
 70
     1
102
RTVSPropertyOp41
 70
     1
102
RTVSPropertyOp42
 70
     1
102
RTVSPropertyOp43
 70
     1
102
RTVSPropertyOp44
 70
     1
102
RTVSPropertyOp45
 70
     1
102
RTVSPropertyOp46
 70
     1
102
RTVSPropertyOp47
 70
     1
102
RTVSPropertyOp48
 70
     1
102
RTVSPropertyOp49
 70
     1
102
RTVSPropertyOp50
 70
     1
102
RTVSPropertyOp51
 70
     0
102
RTVSPropertyOp52
 70
     0
102
RTVSPropertyOp53
 70
     1
102
RTVSPropertyOp54
 70
     1
102
RTVSPropertyOp55
 70
     1
102
RTVSPropertyOp56
 70
     1
102
RTVSPropertyOp57
 70
     1
102
RTVSPropertyOp58
 70
     1
102
RTVSPropertyOp59
 70
     1
102
RTVSPropertyOp60
 70
     1
102
RTVSPropertyOp61
 70
     1
102
RTVSPropertyOp62
 70
     1
  0
XRECORD
  5
1EA7
102
{ACAD_REACTORS
330
1EA6
102
}
330
1EA6
100
AcDbXrecord
280
     1
102
RTVSPost2010Prop28
280
     0
102
RTVSPost2010PropOp28
 70
     1
102
RTVSPost2010Prop29
280
     1
102
RTVSPost2010PropOp29
 70
     1
102
RTVSPost2010Prop30
280
     1
102
RTVSPost2010PropOp30
 70
     1
102
RTVSPost2010Prop31
280
     0
102
RTVSPost2010PropOp31
 70
     1
102
RTVSPost2010Prop32
280
     0
102
RTVSPost2010PropOp32
 70
     1
102
RTVSPost2010Prop33
280
     0
102
RTVSPost2010PropOp33
 70
     1
102
RTVSPost2010Prop34
280
     0
102
RTVSPost2010PropOp34
 70
     1
102
RTVSPost2010Prop35
280
     0
102
RTVSPost2010PropOp35
 70
     1
102
RTVSPost2010Prop36
280
     0
102
RTVSPost2010PropOp36
 70
     1
102
RTVSPost2010Prop37
 90
       50
102
RTVSPost2010PropOp37
 70
     1
102
RTVSPost2010Prop38
140
0.0
102
RTVSPost2010PropOp38
 70
     1
102
RTVSPost2010Prop39
140
1.0
102
RTVSPost2010PropOp39
 70
     1
102
RTVSPost2010Prop40
 90
        0
102
RTVSPost2010PropOp40
 70
     1
102
RTVSPost2010Prop41ColorIndex
 90
       18
102
RTVSPost2010Prop41ColorRGB
 90
        0
102
RTVSPost2010PropOp41
 70
     1
102
RTVSPost2010Prop42
 90
       50
102
RTVSPost2010PropOp42
 70
     1
102
RTVSPost2010Prop43
 90
        3
102
RTVSPost2010PropOp43
 70
     1
102
RTVSPost2010Prop44ColorIndex
 90
        5
102
RTVSPost2010Prop44ColorRGB
 90
      255
102
RTVSPost2010PropOp44
 70
     1
102
RTVSPost2010Prop45
280
     0
102
RTVSPost2010PropOp45
 70
     1
102
RTVSPost2010Prop46
 90
       50
102
RTVSPost2010PropOp46
 70
     1
102
RTVSPost2010Prop47
 90
       50
102
RTVSPost2010PropOp47
 70
     1
102
RTVSPost2010Prop48
 90
       50
102
RTVSPost2010PropOp48
 70
     1
102
RTVSPost2010Prop49
280
     0
102
RTVSPost2010PropOp49
 70
     1
102
RTVSPost2010Prop50
 90
       50
102
RTVSPost2010PropOp50
 70
     1
102
RTVSPost2010Prop51ColorIndex
 90
      256
102
RTVSPost2010Prop51ColorRGB
 90
-16777216
102
RTVSPost2010PropOp51
 70
     0
102
RTVSPost2010Prop52
140
1.0
102
RTVSPost2010PropOp52
 70
     0
102
RTVSPost2010Prop53
 90
        2
102
RTVSPost2010PropOp53
 70
     1
102
RTVSPost2010Prop54
  1
strokes_ogs.tif
102
RTVSPost2010PropOp54
 70
     1
102
RTVSPost2010Prop55
280
     0
102
RTVSPost2010PropOp55
 70
     1
102
RTVSPost2010Prop56
140
1.0
102
RTVSPost2010PropOp56
 70
     1
102
RTVSPost2010Prop57
140
1.0
102
RTVSPost2010PropOp57
 70
     1
102
RTVSPropertyOp0
 70
     1
102
RTVSPropertyOp1
 70
     1
102
RTVSPropertyOp2
 70
     1
102
RTVSPropertyOp3
 70
     1
102
RTVSPropertyOp4
 70
     1
102
RTVSPropertyOp5
 70
     1
102
RTVSPropertyOp6
 70
     1
102
RTVSPropertyOp7
 70
     1
102
RTVSPropertyOp8
 70
     1
102
RTVSPropertyOp9
 70
     1
102
RTVSPropertyOp10
 70
     1
102
RTVSPropertyOp11
 70
     1
102
RTVSPropertyOp12
 70
     1
102
RTVSPropertyOp13
 70
     1
102
RTVSPropertyOp14
 70
     1
102
RTVSPropertyOp15
 70
     1
102
RTVSPropertyOp16
 70
     1
102
RTVSPropertyOp17
 70
     1
102
RTVSPropertyOp18
 70
     1
102
RTVSPropertyOp19
 70
     1
102
RTVSPropertyOp20
 70
     1
102
RTVSPropertyOp21
 70
     1
102
RTVSPropertyOp22
 70
     1
102
RTVSPropertyOp23
 70
     1
102
RTVSPropertyOp24
 70
     1
102
RTVSPropertyOp25
 70
     1
102
RTVSPropertyOp26
 70
     1
102
RTVSPropertyOp27
 70
     1
102
RTVSPropertyOp28
 70
     1
102
RTVSPropertyOp29
 70
     1
102
RTVSPropertyOp30
 70
     1
102
RTVSPropertyOp31
 70
     1
102
RTVSPropertyOp32
 70
     1
102
RTVSPropertyOp33
 70
     1
102
RTVSPropertyOp34
 70
     1
102
RTVSPropertyOp35
 70
     1
102
RTVSPropertyOp36
 70
     1
102
RTVSPropertyOp37
 70
     1
102
RTVSPropertyOp38
 70
     1
102
RTVSPropertyOp39
 70
     1
102
RTVSPropertyOp40
 70
     1
102
RTVSPropertyOp41
 70
     1
102
RTVSPropertyOp42
 70
     1
102
RTVSPropertyOp43
 70
     1
102
RTVSPropertyOp44
 70
     1
102
RTVSPropertyOp45
 70
     1
102
RTVSPropertyOp46
 70
     1
102
RTVSPropertyOp47
 70
     1
102
RTVSPropertyOp48
 70
     1
102
RTVSPropertyOp49
 70
     1
102
RTVSPropertyOp50
 70
     1
102
RTVSPropertyOp51
 70
     0
102
RTVSPropertyOp52
 70
     0
102
RTVSPropertyOp53
 70
     1
102
RTVSPropertyOp54
 70
     1
102
RTVSPropertyOp55
 70
     1
102
RTVSPropertyOp56
 70
     1
102
RTVSPropertyOp57
 70
     1
102
RTVSPropertyOp58
 70
     1
102
RTVSPropertyOp59
 70
     1
102
RTVSPropertyOp60
 70
     1
102
RTVSPropertyOp61
 70
     1
102
RTVSPropertyOp62
 70
     1
  0
XRECORD
  5
1EA9
102
{ACAD_REACTORS
330
1EA8
102
}
330
1EA8
100
AcDbXrecord
280
     1
102
RTVSPost2010Prop28
280
     0
102
RTVSPost2010PropOp28
 70
     1
102
RTVSPost2010Prop29
280
     1
102
RTVSPost2010PropOp29
 70
     1
102
RTVSPost2010Prop30
280
     1
102
RTVSPost2010PropOp30
 70
     1
102
RTVSPost2010Prop31
280
     0
102
RTVSPost2010PropOp31
 70
     1
102
RTVSPost2010Prop32
280
     0
102
RTVSPost2010PropOp32
 70
     1
102
RTVSPost2010Prop33
280
     0
102
RTVSPost2010PropOp33
 70
     1
102
RTVSPost2010Prop34
280
     0
102
RTVSPost2010PropOp34
 70
     1
102
RTVSPost2010Prop35
280
     0
102
RTVSPost2010PropOp35
 70
     1
102
RTVSPost2010Prop36
280
     0
102
RTVSPost2010PropOp36
 70
     1
102
RTVSPost2010Prop37
 90
       50
102
RTVSPost2010PropOp37
 70
     1
102
RTVSPost2010Prop38
140
0.0
102
RTVSPost2010PropOp38
 70
     1
102
RTVSPost2010Prop39
140
1.0
102
RTVSPost2010PropOp39
 70
     1
102
RTVSPost2010Prop40
 90
        0
102
RTVSPost2010PropOp40
 70
     1
102
RTVSPost2010Prop41ColorIndex
 90
       18
102
RTVSPost2010Prop41ColorRGB
 90
        0
102
RTVSPost2010PropOp41
 70
     1
102
RTVSPost2010Prop42
 90
       50
102
RTVSPost2010PropOp42
 70
     1
102
RTVSPost2010Prop43
 90
        3
102
RTVSPost2010PropOp43
 70
     1
102
RTVSPost2010Prop44ColorIndex
 90
        5
102
RTVSPost2010Prop44ColorRGB
 90
      255
102
RTVSPost2010PropOp44
 70
     1
102
RTVSPost2010Prop45
280
     0
102
RTVSPost2010PropOp45
 70
     1
102
RTVSPost2010Prop46
 90
       50
102
RTVSPost2010PropOp46
 70
     1
102
RTVSPost2010Prop47
 90
       50
102
RTVSPost2010PropOp47
 70
     1
102
RTVSPost2010Prop48
 90
       50
102
RTVSPost2010PropOp48
 70
     1
102
RTVSPost2010Prop49
280
     0
102
RTVSPost2010PropOp49
 70
     1
102
RTVSPost2010Prop50
 90
       50
102
RTVSPost2010PropOp50
 70
     1
102
RTVSPost2010Prop51ColorIndex
 90
      256
102
RTVSPost2010Prop51ColorRGB
 90
-16777216
102
RTVSPost2010PropOp51
 70
     0
102
RTVSPost2010Prop52
140
1.0
102
RTVSPost2010PropOp52
 70
     0
102
RTVSPost2010Prop53
 90
        2
102
RTVSPost2010PropOp53
 70
     1
102
RTVSPost2010Prop54
  1
strokes_ogs.tif
102
RTVSPost2010PropOp54
 70
     1
102
RTVSPost2010Prop55
280
     0
102
RTVSPost2010PropOp55
 70
     1
102
RTVSPost2010Prop56
140
1.0
102
RTVSPost2010PropOp56
 70
     1
102
RTVSPost2010Prop57
140
1.0
102
RTVSPost2010PropOp57
 70
     1
102
RTVSPropertyOp0
 70
     1
102
RTVSPropertyOp1
 70
     1
102
RTVSPropertyOp2
 70
     1
102
RTVSPropertyOp3
 70
     1
102
RTVSPropertyOp4
 70
     1
102
RTVSPropertyOp5
 70
     1
102
RTVSPropertyOp6
 70
     1
102
RTVSPropertyOp7
 70
     1
102
RTVSPropertyOp8
 70
     1
102
RTVSPropertyOp9
 70
     1
102
RTVSPropertyOp10
 70
     1
102
RTVSPropertyOp11
 70
     1
102
RTVSPropertyOp12
 70
     1
102
RTVSPropertyOp13
 70
     1
102
RTVSPropertyOp14
 70
     1
102
RTVSPropertyOp15
 70
     1
102
RTVSPropertyOp16
 70
     1
102
RTVSPropertyOp17
 70
     1
102
RTVSPropertyOp18
 70
     1
102
RTVSPropertyOp19
 70
     1
102
RTVSPropertyOp20
 70
     1
102
RTVSPropertyOp21
 70
     1
102
RTVSPropertyOp22
 70
     1
102
RTVSPropertyOp23
 70
     1
102
RTVSPropertyOp24
 70
     1
102
RTVSPropertyOp25
 70
     1
102
RTVSPropertyOp26
 70
     1
102
RTVSPropertyOp27
 70
     1
102
RTVSPropertyOp28
 70
     1
102
RTVSPropertyOp29
 70
     1
102
RTVSPropertyOp30
 70
     1
102
RTVSPropertyOp31
 70
     1
102
RTVSPropertyOp32
 70
     1
102
RTVSPropertyOp33
 70
     1
102
RTVSPropertyOp34
 70
     1
102
RTVSPropertyOp35
 70
     1
102
RTVSPropertyOp36
 70
     1
102
RTVSPropertyOp37
 70
     1
102
RTVSPropertyOp38
 70
     1
102
RTVSPropertyOp39
 70
     1
102
RTVSPropertyOp40
 70
     1
102
RTVSPropertyOp41
 70
     1
102
RTVSPropertyOp42
 70
     1
102
RTVSPropertyOp43
 70
     1
102
RTVSPropertyOp44
 70
     1
102
RTVSPropertyOp45
 70
     1
102
RTVSPropertyOp46
 70
     1
102
RTVSPropertyOp47
 70
     1
102
RTVSPropertyOp48
 70
     1
102
RTVSPropertyOp49
 70
     1
102
RTVSPropertyOp50
 70
     1
102
RTVSPropertyOp51
 70
     0
102
RTVSPropertyOp52
 70
     0
102
RTVSPropertyOp53
 70
     1
102
RTVSPropertyOp54
 70
     1
102
RTVSPropertyOp55
 70
     1
102
RTVSPropertyOp56
 70
     1
102
RTVSPropertyOp57
 70
     1
102
RTVSPropertyOp58
 70
     1
102
RTVSPropertyOp59
 70
     1
102
RTVSPropertyOp60
 70
     1
102
RTVSPropertyOp61
 70
     1
102
RTVSPropertyOp62
 70
     1
  0
XRECORD
  5
1EAB
102
{ACAD_REACTORS
330
1EAA
102
}
330
1EAA
100
AcDbXrecord
280
     1
102
RTVSPost2010Prop28
280
     0
102
RTVSPost2010PropOp28
 70
     1
102
RTVSPost2010Prop29
280
     1
102
RTVSPost2010PropOp29
 70
     1
102
RTVSPost2010Prop30
280
     1
102
RTVSPost2010PropOp30
 70
     1
102
RTVSPost2010Prop31
280
     0
102
RTVSPost2010PropOp31
 70
     1
102
RTVSPost2010Prop32
280
     0
102
RTVSPost2010PropOp32
 70
     1
102
RTVSPost2010Prop33
280
     0
102
RTVSPost2010PropOp33
 70
     1
102
RTVSPost2010Prop34
280
     0
102
RTVSPost2010PropOp34
 70
     1
102
RTVSPost2010Prop35
280
     0
102
RTVSPost2010PropOp35
 70
     1
102
RTVSPost2010Prop36
280
     0
102
RTVSPost2010PropOp36
 70
     1
102
RTVSPost2010Prop37
 90
       50
102
RTVSPost2010PropOp37
 70
     1
102
RTVSPost2010Prop38
140
0.0
102
RTVSPost2010PropOp38
 70
     1
102
RTVSPost2010Prop39
140
1.0
102
RTVSPost2010PropOp39
 70
     1
102
RTVSPost2010Prop40
 90
        0
102
RTVSPost2010PropOp40
 70
     1
102
RTVSPost2010Prop41ColorIndex
 90
       18
102
RTVSPost2010Prop41ColorRGB
 90
        0
102
RTVSPost2010PropOp41
 70
     1
102
RTVSPost2010Prop42
 90
       50
102
RTVSPost2010PropOp42
 70
     1
102
RTVSPost2010Prop43
 90
        3
102
RTVSPost2010PropOp43
 70
     1
102
RTVSPost2010Prop44ColorIndex
 90
        5
102
RTVSPost2010Prop44ColorRGB
 90
      255
102
RTVSPost2010PropOp44
 70
     1
102
RTVSPost2010Prop45
280
     0
102
RTVSPost2010PropOp45
 70
     1
102
RTVSPost2010Prop46
 90
       50
102
RTVSPost2010PropOp46
 70
     1
102
RTVSPost2010Prop47
 90
       50
102
RTVSPost2010PropOp47
 70
     1
102
RTVSPost2010Prop48
 90
       50
102
RTVSPost2010PropOp48
 70
     1
102
RTVSPost2010Prop49
280
     0
102
RTVSPost2010PropOp49
 70
     1
102
RTVSPost2010Prop50
 90
       50
102
RTVSPost2010PropOp50
 70
     1
102
RTVSPost2010Prop51ColorIndex
 90
      256
102
RTVSPost2010Prop51ColorRGB
 90
-16777216
102
RTVSPost2010PropOp51
 70
     0
102
RTVSPost2010Prop52
140
1.0
102
RTVSPost2010PropOp52
 70
     0
102
RTVSPost2010Prop53
 90
        2
102
RTVSPost2010PropOp53
 70
     1
102
RTVSPost2010Prop54
  1
strokes_ogs.tif
102
RTVSPost2010PropOp54
 70
     1
102
RTVSPost2010Prop55
280
     0
102
RTVSPost2010PropOp55
 70
     1
102
RTVSPost2010Prop56
140
1.0
102
RTVSPost2010PropOp56
 70
     1
102
RTVSPost2010Prop57
140
1.0
102
RTVSPost2010PropOp57
 70
     1
102
RTVSPropertyOp0
 70
     1
102
RTVSPropertyOp1
 70
     1
102
RTVSPropertyOp2
 70
     1
102
RTVSPropertyOp3
 70
     1
102
RTVSPropertyOp4
 70
     1
102
RTVSPropertyOp5
 70
     1
102
RTVSPropertyOp6
 70
     1
102
RTVSPropertyOp7
 70
     1
102
RTVSPropertyOp8
 70
     1
102
RTVSPropertyOp9
 70
     1
102
RTVSPropertyOp10
 70
     1
102
RTVSPropertyOp11
 70
     1
102
RTVSPropertyOp12
 70
     1
102
RTVSPropertyOp13
 70
     1
102
RTVSPropertyOp14
 70
     1
102
RTVSPropertyOp15
 70
     1
102
RTVSPropertyOp16
 70
     1
102
RTVSPropertyOp17
 70
     1
102
RTVSPropertyOp18
 70
     1
102
RTVSPropertyOp19
 70
     1
102
RTVSPropertyOp20
 70
     1
102
RTVSPropertyOp21
 70
     1
102
RTVSPropertyOp22
 70
     1
102
RTVSPropertyOp23
 70
     1
102
RTVSPropertyOp24
 70
     1
102
RTVSPropertyOp25
 70
     1
102
RTVSPropertyOp26
 70
     1
102
RTVSPropertyOp27
 70
     1
102
RTVSPropertyOp28
 70
     1
102
RTVSPropertyOp29
 70
     1
102
RTVSPropertyOp30
 70
     1
102
RTVSPropertyOp31
 70
     1
102
RTVSPropertyOp32
 70
     1
102
RTVSPropertyOp33
 70
     1
102
RTVSPropertyOp34
 70
     1
102
RTVSPropertyOp35
 70
     1
102
RTVSPropertyOp36
 70
     1
102
RTVSPropertyOp37
 70
     1
102
RTVSPropertyOp38
 70
     1
102
RTVSPropertyOp39
 70
     1
102
RTVSPropertyOp40
 70
     1
102
RTVSPropertyOp41
 70
     1
102
RTVSPropertyOp42
 70
     1
102
RTVSPropertyOp43
 70
     1
102
RTVSPropertyOp44
 70
     1
102
RTVSPropertyOp45
 70
     1
102
RTVSPropertyOp46
 70
     1
102
RTVSPropertyOp47
 70
     1
102
RTVSPropertyOp48
 70
     1
102
RTVSPropertyOp49
 70
     1
102
RTVSPropertyOp50
 70
     1
102
RTVSPropertyOp51
 70
     0
102
RTVSPropertyOp52
 70
     0
102
RTVSPropertyOp53
 70
     1
102
RTVSPropertyOp54
 70
     1
102
RTVSPropertyOp55
 70
     1
102
RTVSPropertyOp56
 70
     1
102
RTVSPropertyOp57
 70
     1
102
RTVSPropertyOp58
 70
     1
102
RTVSPropertyOp59
 70
     1
102
RTVSPropertyOp60
 70
     1
102
RTVSPropertyOp61
 70
     1
102
RTVSPropertyOp62
 70
     1
  0
XRECORD
  5
1EAD
102
{ACAD_REACTORS
330
1EAC
102
}
330
1EAC
100
AcDbXrecord
280
     1
102
RTVSPost2010Prop28
280
     0
102
RTVSPost2010PropOp28
 70
     1
102
RTVSPost2010Prop29
280
     1
102
RTVSPost2010PropOp29
 70
     1
102
RTVSPost2010Prop30
280
     1
102
RTVSPost2010PropOp30
 70
     1
102
RTVSPost2010Prop31
280
     0
102
RTVSPost2010PropOp31
 70
     1
102
RTVSPost2010Prop32
280
     0
102
RTVSPost2010PropOp32
 70
     1
102
RTVSPost2010Prop33
280
     0
102
RTVSPost2010PropOp33
 70
     1
102
RTVSPost2010Prop34
280
     0
102
RTVSPost2010PropOp34
 70
     1
102
RTVSPost2010Prop35
280
     0
102
RTVSPost2010PropOp35
 70
     1
102
RTVSPost2010Prop36
280
     0
102
RTVSPost2010PropOp36
 70
     1
102
RTVSPost2010Prop37
 90
       50
102
RTVSPost2010PropOp37
 70
     1
102
RTVSPost2010Prop38
140
0.0
102
RTVSPost2010PropOp38
 70
     1
102
RTVSPost2010Prop39
140
1.0
102
RTVSPost2010PropOp39
 70
     1
102
RTVSPost2010Prop40
 90
        0
102
RTVSPost2010PropOp40
 70
     1
102
RTVSPost2010Prop41ColorIndex
 90
       18
102
RTVSPost2010Prop41ColorRGB
 90
        0
102
RTVSPost2010PropOp41
 70
     1
102
RTVSPost2010Prop42
 90
       50
102
RTVSPost2010PropOp42
 70
     1
102
RTVSPost2010Prop43
 90
        3
102
RTVSPost2010PropOp43
 70
     1
102
RTVSPost2010Prop44ColorIndex
 90
        5
102
RTVSPost2010Prop44ColorRGB
 90
      255
102
RTVSPost2010PropOp44
 70
     1
102
RTVSPost2010Prop45
280
     0
102
RTVSPost2010PropOp45
 70
     1
102
RTVSPost2010Prop46
 90
       50
102
RTVSPost2010PropOp46
 70
     1
102
RTVSPost2010Prop47
 90
       50
102
RTVSPost2010PropOp47
 70
     1
102
RTVSPost2010Prop48
 90
       50
102
RTVSPost2010PropOp48
 70
     1
102
RTVSPost2010Prop49
280
     0
102
RTVSPost2010PropOp49
 70
     1
102
RTVSPost2010Prop50
 90
       50
102
RTVSPost2010PropOp50
 70
     1
102
RTVSPost2010Prop51ColorIndex
 90
      256
102
RTVSPost2010Prop51ColorRGB
 90
-16777216
102
RTVSPost2010PropOp51
 70
     0
102
RTVSPost2010Prop52
140
1.0
102
RTVSPost2010PropOp52
 70
     0
102
RTVSPost2010Prop53
 90
        2
102
RTVSPost2010PropOp53
 70
     1
102
RTVSPost2010Prop54
  1
strokes_ogs.tif
102
RTVSPost2010PropOp54
 70
     1
102
RTVSPost2010Prop55
280
     0
102
RTVSPost2010PropOp55
 70
     1
102
RTVSPost2010Prop56
140
1.0
102
RTVSPost2010PropOp56
 70
     1
102
RTVSPost2010Prop57
140
1.0
102
RTVSPost2010PropOp57
 70
     1
102
RTVSPropertyOp0
 70
     1
102
RTVSPropertyOp1
 70
     1
102
RTVSPropertyOp2
 70
     1
102
RTVSPropertyOp3
 70
     1
102
RTVSPropertyOp4
 70
     1
102
RTVSPropertyOp5
 70
     1
102
RTVSPropertyOp6
 70
     1
102
RTVSPropertyOp7
 70
     1
102
RTVSPropertyOp8
 70
     1
102
RTVSPropertyOp9
 70
     1
102
RTVSPropertyOp10
 70
     1
102
RTVSPropertyOp11
 70
     1
102
RTVSPropertyOp12
 70
     1
102
RTVSPropertyOp13
 70
     1
102
RTVSPropertyOp14
 70
     1
102
RTVSPropertyOp15
 70
     1
102
RTVSPropertyOp16
 70
     1
102
RTVSPropertyOp17
 70
     1
102
RTVSPropertyOp18
 70
     1
102
RTVSPropertyOp19
 70
     1
102
RTVSPropertyOp20
 70
     1
102
RTVSPropertyOp21
 70
     1
102
RTVSPropertyOp22
 70
     1
102
RTVSPropertyOp23
 70
     1
102
RTVSPropertyOp24
 70
     1
102
RTVSPropertyOp25
 70
     1
102
RTVSPropertyOp26
 70
     1
102
RTVSPropertyOp27
 70
     1
102
RTVSPropertyOp28
 70
     1
102
RTVSPropertyOp29
 70
     1
102
RTVSPropertyOp30
 70
     1
102
RTVSPropertyOp31
 70
     1
102
RTVSPropertyOp32
 70
     1
102
RTVSPropertyOp33
 70
     1
102
RTVSPropertyOp34
 70
     1
102
RTVSPropertyOp35
 70
     1
102
RTVSPropertyOp36
 70
     1
102
RTVSPropertyOp37
 70
     1
102
RTVSPropertyOp38
 70
     1
102
RTVSPropertyOp39
 70
     1
102
RTVSPropertyOp40
 70
     1
102
RTVSPropertyOp41
 70
     1
102
RTVSPropertyOp42
 70
     1
102
RTVSPropertyOp43
 70
     1
102
RTVSPropertyOp44
 70
     1
102
RTVSPropertyOp45
 70
     1
102
RTVSPropertyOp46
 70
     1
102
RTVSPropertyOp47
 70
     1
102
RTVSPropertyOp48
 70
     1
102
RTVSPropertyOp49
 70
     1
102
RTVSPropertyOp50
 70
     1
102
RTVSPropertyOp51
 70
     0
102
RTVSPropertyOp52
 70
     0
102
RTVSPropertyOp53
 70
     1
102
RTVSPropertyOp54
 70
     1
102
RTVSPropertyOp55
 70
     1
102
RTVSPropertyOp56
 70
     1
102
RTVSPropertyOp57
 70
     1
102
RTVSPropertyOp58
 70
     1
102
RTVSPropertyOp59
 70
     1
102
RTVSPropertyOp60
 70
     1
102
RTVSPropertyOp61
 70
     1
102
RTVSPropertyOp62
 70
     1
  0
XRECORD
  5
1EB5
102
{ACAD_REACTORS
330
1EB4
102
}
330
1EB4
100
AcDbXrecord
280
     1
102
RTVSPost2010Prop28
280
     0
102
RTVSPost2010PropOp28
 70
     1
102
RTVSPost2010Prop29
280
     1
102
RTVSPost2010PropOp29
 70
     1
102
RTVSPost2010Prop30
280
     1
102
RTVSPost2010PropOp30
 70
     1
102
RTVSPost2010Prop31
280
     0
102
RTVSPost2010PropOp31
 70
     1
102
RTVSPost2010Prop32
280
     0
102
RTVSPost2010PropOp32
 70
     1
102
RTVSPost2010Prop33
280
     0
102
RTVSPost2010PropOp33
 70
     1
102
RTVSPost2010Prop34
280
     0
102
RTVSPost2010PropOp34
 70
     1
102
RTVSPost2010Prop35
280
     0
102
RTVSPost2010PropOp35
 70
     1
102
RTVSPost2010Prop36
280
     0
102
RTVSPost2010PropOp36
 70
     1
102
RTVSPost2010Prop37
 90
       50
102
RTVSPost2010PropOp37
 70
     1
102
RTVSPost2010Prop38
140
0.0
102
RTVSPost2010PropOp38
 70
     1
102
RTVSPost2010Prop39
140
1.0
102
RTVSPost2010PropOp39
 70
     1
102
RTVSPost2010Prop40
 90
        0
102
RTVSPost2010PropOp40
 70
     1
102
RTVSPost2010Prop41ColorIndex
 90
       18
102
RTVSPost2010Prop41ColorRGB
 90
        0
102
RTVSPost2010PropOp41
 70
     1
102
RTVSPost2010Prop42
 90
       50
102
RTVSPost2010PropOp42
 70
     1
102
RTVSPost2010Prop43
 90
        3
102
RTVSPost2010PropOp43
 70
     1
102
RTVSPost2010Prop44ColorIndex
 90
        5
102
RTVSPost2010Prop44ColorRGB
 90
      255
102
RTVSPost2010PropOp44
 70
     1
102
RTVSPost2010Prop45
280
     0
102
RTVSPost2010PropOp45
 70
     1
102
RTVSPost2010Prop46
 90
       50
102
RTVSPost2010PropOp46
 70
     1
102
RTVSPost2010Prop47
 90
       50
102
RTVSPost2010PropOp47
 70
     1
102
RTVSPost2010Prop48
 90
       50
102
RTVSPost2010PropOp48
 70
     1
102
RTVSPost2010Prop49
280
     0
102
RTVSPost2010PropOp49
 70
     1
102
RTVSPost2010Prop50
 90
       50
102
RTVSPost2010PropOp50
 70
     1
102
RTVSPost2010Prop51ColorIndex
 90
      256
102
RTVSPost2010Prop51ColorRGB
 90
-16777216
102
RTVSPost2010PropOp51
 70
     0
102
RTVSPost2010Prop52
140
1.0
102
RTVSPost2010PropOp52
 70
     0
102
RTVSPost2010Prop53
 90
        2
102
RTVSPost2010PropOp53
 70
     1
102
RTVSPost2010Prop54
  1
strokes_ogs.tif
102
RTVSPost2010PropOp54
 70
     1
102
RTVSPost2010Prop55
280
     0
102
RTVSPost2010PropOp55
 70
     1
102
RTVSPost2010Prop56
140
1.0
102
RTVSPost2010PropOp56
 70
     1
102
RTVSPost2010Prop57
140
1.0
102
RTVSPost2010PropOp57
 70
     1
102
RTVSPropertyOp0
 70
     1
102
RTVSPropertyOp1
 70
     1
102
RTVSPropertyOp2
 70
     1
102
RTVSPropertyOp3
 70
     1
102
RTVSPropertyOp4
 70
     1
102
RTVSPropertyOp5
 70
     1
102
RTVSPropertyOp6
 70
     1
102
RTVSPropertyOp7
 70
     1
102
RTVSPropertyOp8
 70
     1
102
RTVSPropertyOp9
 70
     1
102
RTVSPropertyOp10
 70
     1
102
RTVSPropertyOp11
 70
     1
102
RTVSPropertyOp12
 70
     1
102
RTVSPropertyOp13
 70
     1
102
RTVSPropertyOp14
 70
     1
102
RTVSPropertyOp15
 70
     1
102
RTVSPropertyOp16
 70
     1
102
RTVSPropertyOp17
 70
     1
102
RTVSPropertyOp18
 70
     1
102
RTVSPropertyOp19
 70
     1
102
RTVSPropertyOp20
 70
     1
102
RTVSPropertyOp21
 70
     1
102
RTVSPropertyOp22
 70
     1
102
RTVSPropertyOp23
 70
     1
102
RTVSPropertyOp24
 70
     1
102
RTVSPropertyOp25
 70
     1
102
RTVSPropertyOp26
 70
     1
102
RTVSPropertyOp27
 70
     1
102
RTVSPropertyOp28
 70
     1
102
RTVSPropertyOp29
 70
     1
102
RTVSPropertyOp30
 70
     1
102
RTVSPropertyOp31
 70
     1
102
RTVSPropertyOp32
 70
     1
102
RTVSPropertyOp33
 70
     1
102
RTVSPropertyOp34
 70
     1
102
RTVSPropertyOp35
 70
     1
102
RTVSPropertyOp36
 70
     1
102
RTVSPropertyOp37
 70
     1
102
RTVSPropertyOp38
 70
     1
102
RTVSPropertyOp39
 70
     1
102
RTVSPropertyOp40
 70
     1
102
RTVSPropertyOp41
 70
     1
102
RTVSPropertyOp42
 70
     1
102
RTVSPropertyOp43
 70
     1
102
RTVSPropertyOp44
 70
     1
102
RTVSPropertyOp45
 70
     1
102
RTVSPropertyOp46
 70
     1
102
RTVSPropertyOp47
 70
     1
102
RTVSPropertyOp48
 70
     1
102
RTVSPropertyOp49
 70
     1
102
RTVSPropertyOp50
 70
     1
102
RTVSPropertyOp51
 70
     0
102
RTVSPropertyOp52
 70
     0
102
RTVSPropertyOp53
 70
     1
102
RTVSPropertyOp54
 70
     1
102
RTVSPropertyOp55
 70
     1
102
RTVSPropertyOp56
 70
     1
102
RTVSPropertyOp57
 70
     1
102
RTVSPropertyOp58
 70
     1
102
RTVSPropertyOp59
 70
     1
102
RTVSPropertyOp60
 70
     1
102
RTVSPropertyOp61
 70
     1
102
RTVSPropertyOp62
 70
     1
  0
XRECORD
  5
1ED1
102
{ACAD_REACTORS
330
1ED0
102
}
330
1ED0
100
AcDbXrecord
280
     1
102
RTVSPost2010Prop28
280
     0
102
RTVSPost2010PropOp28
 70
     1
102
RTVSPost2010Prop29
280
     1
102
RTVSPost2010PropOp29
 70
     1
102
RTVSPost2010Prop30
280
     1
102
RTVSPost2010PropOp30
 70
     1
102
RTVSPost2010Prop31
280
     0
102
RTVSPost2010PropOp31
 70
     1
102
RTVSPost2010Prop32
280
     0
102
RTVSPost2010PropOp32
 70
     1
102
RTVSPost2010Prop33
280
     0
102
RTVSPost2010PropOp33
 70
     1
102
RTVSPost2010Prop34
280
     0
102
RTVSPost2010PropOp34
 70
     1
102
RTVSPost2010Prop35
280
     0
102
RTVSPost2010PropOp35
 70
     1
102
RTVSPost2010Prop36
280
     0
102
RTVSPost2010PropOp36
 70
     1
102
RTVSPost2010Prop37
 90
       50
102
RTVSPost2010PropOp37
 70
     0
102
RTVSPost2010Prop38
140
0.0
102
RTVSPost2010PropOp38
 70
     0
102
RTVSPost2010Prop39
140
1.0
102
RTVSPost2010PropOp39
 70
     0
102
RTVSPost2010Prop40
 90
        0
102
RTVSPost2010PropOp40
 70
     0
102
RTVSPost2010Prop41ColorIndex
 90
       18
102
RTVSPost2010Prop41ColorRGB
 90
        0
102
RTVSPost2010PropOp41
 70
     0
102
RTVSPost2010Prop42
 90
       50
102
RTVSPost2010PropOp42
 70
     0
102
RTVSPost2010Prop43
 90
        3
102
RTVSPost2010PropOp43
 70
     0
102
RTVSPost2010Prop44ColorIndex
 90
        5
102
RTVSPost2010Prop44ColorRGB
 90
      255
102
RTVSPost2010PropOp44
 70
     0
102
RTVSPost2010Prop45
280
     0
102
RTVSPost2010PropOp45
 70
     1
102
RTVSPost2010Prop46
 90
       50
102
RTVSPost2010PropOp46
 70
     0
102
RTVSPost2010Prop47
 90
       50
102
RTVSPost2010PropOp47
 70
     0
102
RTVSPost2010Prop48
 90
       50
102
RTVSPost2010PropOp48
 70
     0
102
RTVSPost2010Prop49
280
     0
102
RTVSPost2010PropOp49
 70
     1
102
RTVSPost2010Prop50
 90
       50
102
RTVSPost2010PropOp50
 70
     0
102
RTVSPost2010Prop51ColorIndex
 90
      256
102
RTVSPost2010Prop51ColorRGB
 90
-16777216
102
RTVSPost2010PropOp51
 70
     0
102
RTVSPost2010Prop52
140
1.0
102
RTVSPost2010PropOp52
 70
     0
102
RTVSPost2010Prop53
 90
        2
102
RTVSPost2010PropOp53
 70
     0
102
RTVSPost2010Prop54
  1
strokes_ogs.tif
102
RTVSPost2010PropOp54
 70
     0
102
RTVSPost2010Prop55
280
     0
102
RTVSPost2010PropOp55
 70
     1
102
RTVSPost2010Prop56
140
1.0
102
RTVSPost2010PropOp56
 70
     0
102
RTVSPost2010Prop57
140
1.0
102
RTVSPost2010PropOp57
 70
     0
102
RTVSPropertyOp0
 70
     0
102
RTVSPropertyOp1
 70
     0
102
RTVSPropertyOp2
 70
     0
102
RTVSPropertyOp3
 70
     0
102
RTVSPropertyOp4
 70
     0
102
RTVSPropertyOp5
 70
     0
102
RTVSPropertyOp6
 70
     0
102
RTVSPropertyOp7
 70
     0
102
RTVSPropertyOp8
 70
     0
102
RTVSPropertyOp9
 70
     0
102
RTVSPropertyOp10
 70
     0
102
RTVSPropertyOp11
 70
     0
102
RTVSPropertyOp12
 70
     0
102
RTVSPropertyOp13
 70
     0
102
RTVSPropertyOp14
 70
     2
102
RTVSPropertyOp15
 70
     0
102
RTVSPropertyOp16
 70
     0
102
RTVSPropertyOp17
 70
     0
102
RTVSPropertyOp18
 70
     0
102
RTVSPropertyOp19
 70
     0
102
RTVSPropertyOp20
 70
     0
102
RTVSPropertyOp21
 70
     0
102
RTVSPropertyOp22
 70
     0
102
RTVSPropertyOp23
 70
     0
102
RTVSPropertyOp24
 70
     0
102
RTVSPropertyOp25
 70
     0
102
RTVSPropertyOp26
 70
     0
102
RTVSPropertyOp27
 70
     0
102
RTVSPropertyOp28
 70
     1
102
RTVSPropertyOp29
 70
     1
102
RTVSPropertyOp30
 70
     1
102
RTVSPropertyOp31
 70
     1
102
RTVSPropertyOp32
 70
     1
102
RTVSPropertyOp33
 70
     1
102
RTVSPropertyOp34
 70
     1
102
RTVSPropertyOp35
 70
     1
102
RTVSPropertyOp36
 70
     1
102
RTVSPropertyOp37
 70
     0
102
RTVSPropertyOp38
 70
     0
102
RTVSPropertyOp39
 70
     0
102
RTVSPropertyOp40
 70
     0
102
RTVSPropertyOp41
 70
     0
102
RTVSPropertyOp42
 70
     0
102
RTVSPropertyOp43
 70
     0
102
RTVSPropertyOp44
 70
     0
102
RTVSPropertyOp45
 70
     1
102
RTVSPropertyOp46
 70
     0
102
RTVSPropertyOp47
 70
     0
102
RTVSPropertyOp48
 70
     0
102
RTVSPropertyOp49
 70
     1
102
RTVSPropertyOp50
 70
     0
102
RTVSPropertyOp51
 70
     0
102
RTVSPropertyOp52
 70
     0
102
RTVSPropertyOp53
 70
     0
102
RTVSPropertyOp54
 70
     0
102
RTVSPropertyOp55
 70
     1
102
RTVSPropertyOp56
 70
     0
102
RTVSPropertyOp57
 70
     0
102
RTVSPropertyOp58
 70
     0
102
RTVSPropertyOp59
 70
     0
102
RTVSPropertyOp60
 70
     0
102
RTVSPropertyOp61
 70
     0
102
RTVSPropertyOp62
 70
     0
  0
XRECORD
  5
1EC1
102
{ACAD_REACTORS
330
1EC0
102
}
330
1EC0
100
AcDbXrecord
280
     1
102
RTVSPost2010Prop28
280
     0
102
RTVSPost2010PropOp28
 70
     1
102
RTVSPost2010Prop29
280
     1
102
RTVSPost2010PropOp29
 70
     1
102
RTVSPost2010Prop30
280
     1
102
RTVSPost2010PropOp30
 70
     1
102
RTVSPost2010Prop31
280
     0
102
RTVSPost2010PropOp31
 70
     1
102
RTVSPost2010Prop32
280
     0
102
RTVSPost2010PropOp32
 70
     1
102
RTVSPost2010Prop33
280
     0
102
RTVSPost2010PropOp33
 70
     1
102
RTVSPost2010Prop34
280
     0
102
RTVSPost2010PropOp34
 70
     1
102
RTVSPost2010Prop35
280
     0
102
RTVSPost2010PropOp35
 70
     1
102
RTVSPost2010Prop36
280
     0
102
RTVSPost2010PropOp36
 70
     1
102
RTVSPost2010Prop37
 90
       50
102
RTVSPost2010PropOp37
 70
     1
102
RTVSPost2010Prop38
140
0.0
102
RTVSPost2010PropOp38
 70
     1
102
RTVSPost2010Prop39
140
1.0
102
RTVSPost2010PropOp39
 70
     1
102
RTVSPost2010Prop40
 90
        0
102
RTVSPost2010PropOp40
 70
     1
102
RTVSPost2010Prop41ColorIndex
 90
       18
102
RTVSPost2010Prop41ColorRGB
 90
        0
102
RTVSPost2010PropOp41
 70
     1
102
RTVSPost2010Prop42
 90
       50
102
RTVSPost2010PropOp42
 70
     1
102
RTVSPost2010Prop43
 90
        3
102
RTVSPost2010PropOp43
 70
     1
102
RTVSPost2010Prop44ColorIndex
 90
        5
102
RTVSPost2010Prop44ColorRGB
 90
      255
102
RTVSPost2010PropOp44
 70
     1
102
RTVSPost2010Prop45
280
     0
102
RTVSPost2010PropOp45
 70
     1
102
RTVSPost2010Prop46
 90
       50
102
RTVSPost2010PropOp46
 70
     1
102
RTVSPost2010Prop47
 90
       50
102
RTVSPost2010PropOp47
 70
     1
102
RTVSPost2010Prop48
 90
       50
102
RTVSPost2010PropOp48
 70
     1
102
RTVSPost2010Prop49
280
     0
102
RTVSPost2010PropOp49
 70
     1
102
RTVSPost2010Prop50
 90
       50
102
RTVSPost2010PropOp50
 70
     1
102
RTVSPost2010Prop51ColorIndex
 90
      256
102
RTVSPost2010Prop51ColorRGB
 90
-16777216
102
RTVSPost2010PropOp51
 70
     0
102
RTVSPost2010Prop52
140
1.0
102
RTVSPost2010PropOp52
 70
     0
102
RTVSPost2010Prop53
 90
        2
102
RTVSPost2010PropOp53
 70
     1
102
RTVSPost2010Prop54
  1
strokes_ogs.tif
102
RTVSPost2010PropOp54
 70
     1
102
RTVSPost2010Prop55
280
     0
102
RTVSPost2010PropOp55
 70
     1
102
RTVSPost2010Prop56
140
1.0
102
RTVSPost2010PropOp56
 70
     1
102
RTVSPost2010Prop57
140
1.0
102
RTVSPost2010PropOp57
 70
     1
102
RTVSPropertyOp0
 70
     1
102
RTVSPropertyOp1
 70
     1
102
RTVSPropertyOp2
 70
     1
102
RTVSPropertyOp3
 70
     1
102
RTVSPropertyOp4
 70
     1
102
RTVSPropertyOp5
 70
     1
102
RTVSPropertyOp6
 70
     1
102
RTVSPropertyOp7
 70
     1
102
RTVSPropertyOp8
 70
     1
102
RTVSPropertyOp9
 70
     1
102
RTVSPropertyOp10
 70
     1
102
RTVSPropertyOp11
 70
     1
102
RTVSPropertyOp12
 70
     1
102
RTVSPropertyOp13
 70
     1
102
RTVSPropertyOp14
 70
     1
102
RTVSPropertyOp15
 70
     1
102
RTVSPropertyOp16
 70
     1
102
RTVSPropertyOp17
 70
     1
102
RTVSPropertyOp18
 70
     1
102
RTVSPropertyOp19
 70
     1
102
RTVSPropertyOp20
 70
     1
102
RTVSPropertyOp21
 70
     1
102
RTVSPropertyOp22
 70
     1
102
RTVSPropertyOp23
 70
     1
102
RTVSPropertyOp24
 70
     1
102
RTVSPropertyOp25
 70
     1
102
RTVSPropertyOp26
 70
     1
102
RTVSPropertyOp27
 70
     1
102
RTVSPropertyOp28
 70
     1
102
RTVSPropertyOp29
 70
     1
102
RTVSPropertyOp30
 70
     1
102
RTVSPropertyOp31
 70
     1
102
RTVSPropertyOp32
 70
     1
102
RTVSPropertyOp33
 70
     1
102
RTVSPropertyOp34
 70
     1
102
RTVSPropertyOp35
 70
     1
102
RTVSPropertyOp36
 70
     1
102
RTVSPropertyOp37
 70
     1
102
RTVSPropertyOp38
 70
     1
102
RTVSPropertyOp39
 70
     1
102
RTVSPropertyOp40
 70
     1
102
RTVSPropertyOp41
 70
     1
102
RTVSPropertyOp42
 70
     1
102
RTVSPropertyOp43
 70
     1
102
RTVSPropertyOp44
 70
     1
102
RTVSPropertyOp45
 70
     1
102
RTVSPropertyOp46
 70
     1
102
RTVSPropertyOp47
 70
     1
102
RTVSPropertyOp48
 70
     1
102
RTVSPropertyOp49
 70
     1
102
RTVSPropertyOp50
 70
     1
102
RTVSPropertyOp51
 70
     0
102
RTVSPropertyOp52
 70
     0
102
RTVSPropertyOp53
 70
     1
102
RTVSPropertyOp54
 70
     1
102
RTVSPropertyOp55
 70
     1
102
RTVSPropertyOp56
 70
     1
102
RTVSPropertyOp57
 70
     1
102
RTVSPropertyOp58
 70
     1
102
RTVSPropertyOp59
 70
     1
102
RTVSPropertyOp60
 70
     1
102
RTVSPropertyOp61
 70
     1
102
RTVSPropertyOp62
 70
     1
  0
XRECORD
  5
1ED3
102
{ACAD_REACTORS
330
1ED2
102
}
330
1ED2
100
AcDbXrecord
280
     1
102
RTVSPost2010Prop28
280
     0
102
RTVSPost2010PropOp28
 70
     1
102
RTVSPost2010Prop29
280
     1
102
RTVSPost2010PropOp29
 70
     1
102
RTVSPost2010Prop30
280
     1
102
RTVSPost2010PropOp30
 70
     1
102
RTVSPost2010Prop31
280
     0
102
RTVSPost2010PropOp31
 70
     1
102
RTVSPost2010Prop32
280
     0
102
RTVSPost2010PropOp32
 70
     1
102
RTVSPost2010Prop33
280
     0
102
RTVSPost2010PropOp33
 70
     1
102
RTVSPost2010Prop34
280
     0
102
RTVSPost2010PropOp34
 70
     1
102
RTVSPost2010Prop35
280
     0
102
RTVSPost2010PropOp35
 70
     1
102
RTVSPost2010Prop36
280
     0
102
RTVSPost2010PropOp36
 70
     1
102
RTVSPost2010Prop37
 90
       50
102
RTVSPost2010PropOp37
 70
     0
102
RTVSPost2010Prop38
140
0.0
102
RTVSPost2010PropOp38
 70
     0
102
RTVSPost2010Prop39
140
1.0
102
RTVSPost2010PropOp39
 70
     0
102
RTVSPost2010Prop40
 90
        0
102
RTVSPost2010PropOp40
 70
     0
102
RTVSPost2010Prop41ColorIndex
 90
       18
102
RTVSPost2010Prop41ColorRGB
 90
        0
102
RTVSPost2010PropOp41
 70
     0
102
RTVSPost2010Prop42
 90
       50
102
RTVSPost2010PropOp42
 70
     0
102
RTVSPost2010Prop43
 90
        3
102
RTVSPost2010PropOp43
 70
     0
102
RTVSPost2010Prop44ColorIndex
 90
        5
102
RTVSPost2010Prop44ColorRGB
 90
      255
102
RTVSPost2010PropOp44
 70
     0
102
RTVSPost2010Prop45
280
     0
102
RTVSPost2010PropOp45
 70
     1
102
RTVSPost2010Prop46
 90
       50
102
RTVSPost2010PropOp46
 70
     0
102
RTVSPost2010Prop47
 90
       50
102
RTVSPost2010PropOp47
 70
     0
102
RTVSPost2010Prop48
 90
       50
102
RTVSPost2010PropOp48
 70
     0
102
RTVSPost2010Prop49
280
     0
102
RTVSPost2010PropOp49
 70
     1
102
RTVSPost2010Prop50
 90
       50
102
RTVSPost2010PropOp50
 70
     0
102
RTVSPost2010Prop51ColorIndex
 90
      256
102
RTVSPost2010Prop51ColorRGB
 90
-16777216
102
RTVSPost2010PropOp51
 70
     0
102
RTVSPost2010Prop52
140
1.0
102
RTVSPost2010PropOp52
 70
     0
102
RTVSPost2010Prop53
 90
        2
102
RTVSPost2010PropOp53
 70
     0
102
RTVSPost2010Prop54
  1
strokes_ogs.tif
102
RTVSPost2010PropOp54
 70
     0
102
RTVSPost2010Prop55
280
     0
102
RTVSPost2010PropOp55
 70
     1
102
RTVSPost2010Prop56
140
1.0
102
RTVSPost2010PropOp56
 70
     0
102
RTVSPost2010Prop57
140
1.0
102
RTVSPost2010PropOp57
 70
     0
102
RTVSPropertyOp0
 70
     0
102
RTVSPropertyOp1
 70
     0
102
RTVSPropertyOp2
 70
     0
102
RTVSPropertyOp3
 70
     0
102
RTVSPropertyOp4
 70
     0
102
RTVSPropertyOp5
 70
     0
102
RTVSPropertyOp6
 70
     0
102
RTVSPropertyOp7
 70
     0
102
RTVSPropertyOp8
 70
     0
102
RTVSPropertyOp9
 70
     0
102
RTVSPropertyOp10
 70
     0
102
RTVSPropertyOp11
 70
     0
102
RTVSPropertyOp12
 70
     0
102
RTVSPropertyOp13
 70
     0
102
RTVSPropertyOp14
 70
     2
102
RTVSPropertyOp15
 70
     0
102
RTVSPropertyOp16
 70
     0
102
RTVSPropertyOp17
 70
     0
102
RTVSPropertyOp18
 70
     0
102
RTVSPropertyOp19
 70
     0
102
RTVSPropertyOp20
 70
     0
102
RTVSPropertyOp21
 70
     0
102
RTVSPropertyOp22
 70
     0
102
RTVSPropertyOp23
 70
     0
102
RTVSPropertyOp24
 70
     0
102
RTVSPropertyOp25
 70
     0
102
RTVSPropertyOp26
 70
     0
102
RTVSPropertyOp27
 70
     0
102
RTVSPropertyOp28
 70
     1
102
RTVSPropertyOp29
 70
     1
102
RTVSPropertyOp30
 70
     1
102
RTVSPropertyOp31
 70
     1
102
RTVSPropertyOp32
 70
     1
102
RTVSPropertyOp33
 70
     1
102
RTVSPropertyOp34
 70
     1
102
RTVSPropertyOp35
 70
     1
102
RTVSPropertyOp36
 70
     1
102
RTVSPropertyOp37
 70
     0
102
RTVSPropertyOp38
 70
     0
102
RTVSPropertyOp39
 70
     0
102
RTVSPropertyOp40
 70
     0
102
RTVSPropertyOp41
 70
     0
102
RTVSPropertyOp42
 70
     0
102
RTVSPropertyOp43
 70
     0
102
RTVSPropertyOp44
 70
     0
102
RTVSPropertyOp45
 70
     1
102
RTVSPropertyOp46
 70
     0
102
RTVSPropertyOp47
 70
     0
102
RTVSPropertyOp48
 70
     0
102
RTVSPropertyOp49
 70
     1
102
RTVSPropertyOp50
 70
     0
102
RTVSPropertyOp51
 70
     0
102
RTVSPropertyOp52
 70
     0
102
RTVSPropertyOp53
 70
     0
102
RTVSPropertyOp54
 70
     0
102
RTVSPropertyOp55
 70
     1
102
RTVSPropertyOp56
 70
     0
102
RTVSPropertyOp57
 70
     0
102
RTVSPropertyOp58
 70
     0
102
RTVSPropertyOp59
 70
     0
102
RTVSPropertyOp60
 70
     0
102
RTVSPropertyOp61
 70
     0
102
RTVSPropertyOp62
 70
     0
  0
XRECORD
  5
1EB9
102
{ACAD_REACTORS
330
1EB8
102
}
330
1EB8
100
AcDbXrecord
280
     1
102
RTVSPost2010Prop28
280
     0
102
RTVSPost2010PropOp28
 70
     1
102
RTVSPost2010Prop29
280
     1
102
RTVSPost2010PropOp29
 70
     1
102
RTVSPost2010Prop30
280
     1
102
RTVSPost2010PropOp30
 70
     1
102
RTVSPost2010Prop31
280
     0
102
RTVSPost2010PropOp31
 70
     1
102
RTVSPost2010Prop32
280
     0
102
RTVSPost2010PropOp32
 70
     1
102
RTVSPost2010Prop33
280
     0
102
RTVSPost2010PropOp33
 70
     1
102
RTVSPost2010Prop34
280
     0
102
RTVSPost2010PropOp34
 70
     1
102
RTVSPost2010Prop35
280
     0
102
RTVSPost2010PropOp35
 70
     1
102
RTVSPost2010Prop36
280
     0
102
RTVSPost2010PropOp36
 70
     1
102
RTVSPost2010Prop37
 90
       50
102
RTVSPost2010PropOp37
 70
     1
102
RTVSPost2010Prop38
140
0.0
102
RTVSPost2010PropOp38
 70
     1
102
RTVSPost2010Prop39
140
1.0
102
RTVSPost2010PropOp39
 70
     1
102
RTVSPost2010Prop40
 90
        0
102
RTVSPost2010PropOp40
 70
     1
102
RTVSPost2010Prop41ColorIndex
 90
       18
102
RTVSPost2010Prop41ColorRGB
 90
        0
102
RTVSPost2010PropOp41
 70
     1
102
RTVSPost2010Prop42
 90
       50
102
RTVSPost2010PropOp42
 70
     1
102
RTVSPost2010Prop43
 90
        3
102
RTVSPost2010PropOp43
 70
     1
102
RTVSPost2010Prop44ColorIndex
 90
        5
102
RTVSPost2010Prop44ColorRGB
 90
      255
102
RTVSPost2010PropOp44
 70
     1
102
RTVSPost2010Prop45
280
     0
102
RTVSPost2010PropOp45
 70
     1
102
RTVSPost2010Prop46
 90
       50
102
RTVSPost2010PropOp46
 70
     1
102
RTVSPost2010Prop47
 90
       50
102
RTVSPost2010PropOp47
 70
     1
102
RTVSPost2010Prop48
 90
       50
102
RTVSPost2010PropOp48
 70
     1
102
RTVSPost2010Prop49
280
     0
102
RTVSPost2010PropOp49
 70
     1
102
RTVSPost2010Prop50
 90
       50
102
RTVSPost2010PropOp50
 70
     1
102
RTVSPost2010Prop51ColorIndex
 90
      256
102
RTVSPost2010Prop51ColorRGB
 90
-16777216
102
RTVSPost2010PropOp51
 70
     0
102
RTVSPost2010Prop52
140
1.0
102
RTVSPost2010PropOp52
 70
     0
102
RTVSPost2010Prop53
 90
        2
102
RTVSPost2010PropOp53
 70
     1
102
RTVSPost2010Prop54
  1
strokes_ogs.tif
102
RTVSPost2010PropOp54
 70
     1
102
RTVSPost2010Prop55
280
     0
102
RTVSPost2010PropOp55
 70
     1
102
RTVSPost2010Prop56
140
1.0
102
RTVSPost2010PropOp56
 70
     1
102
RTVSPost2010Prop57
140
1.0
102
RTVSPost2010PropOp57
 70
     1
102
RTVSPropertyOp0
 70
     1
102
RTVSPropertyOp1
 70
     1
102
RTVSPropertyOp2
 70
     1
102
RTVSPropertyOp3
 70
     1
102
RTVSPropertyOp4
 70
     1
102
RTVSPropertyOp5
 70
     1
102
RTVSPropertyOp6
 70
     1
102
RTVSPropertyOp7
 70
     1
102
RTVSPropertyOp8
 70
     1
102
RTVSPropertyOp9
 70
     1
102
RTVSPropertyOp10
 70
     1
102
RTVSPropertyOp11
 70
     1
102
RTVSPropertyOp12
 70
     1
102
RTVSPropertyOp13
 70
     1
102
RTVSPropertyOp14
 70
     1
102
RTVSPropertyOp15
 70
     1
102
RTVSPropertyOp16
 70
     1
102
RTVSPropertyOp17
 70
     1
102
RTVSPropertyOp18
 70
     1
102
RTVSPropertyOp19
 70
     1
102
RTVSPropertyOp20
 70
     1
102
RTVSPropertyOp21
 70
     1
102
RTVSPropertyOp22
 70
     1
102
RTVSPropertyOp23
 70
     1
102
RTVSPropertyOp24
 70
     1
102
RTVSPropertyOp25
 70
     1
102
RTVSPropertyOp26
 70
     1
102
RTVSPropertyOp27
 70
     1
102
RTVSPropertyOp28
 70
     1
102
RTVSPropertyOp29
 70
     1
102
RTVSPropertyOp30
 70
     1
102
RTVSPropertyOp31
 70
     1
102
RTVSPropertyOp32
 70
     1
102
RTVSPropertyOp33
 70
     1
102
RTVSPropertyOp34
 70
     1
102
RTVSPropertyOp35
 70
     1
102
RTVSPropertyOp36
 70
     1
102
RTVSPropertyOp37
 70
     1
102
RTVSPropertyOp38
 70
     1
102
RTVSPropertyOp39
 70
     1
102
RTVSPropertyOp40
 70
     1
102
RTVSPropertyOp41
 70
     1
102
RTVSPropertyOp42
 70
     1
102
RTVSPropertyOp43
 70
     1
102
RTVSPropertyOp44
 70
     1
102
RTVSPropertyOp45
 70
     1
102
RTVSPropertyOp46
 70
     1
102
RTVSPropertyOp47
 70
     1
102
RTVSPropertyOp48
 70
     1
102
RTVSPropertyOp49
 70
     1
102
RTVSPropertyOp50
 70
     1
102
RTVSPropertyOp51
 70
     0
102
RTVSPropertyOp52
 70
     0
102
RTVSPropertyOp53
 70
     1
102
RTVSPropertyOp54
 70
     1
102
RTVSPropertyOp55
 70
     1
102
RTVSPropertyOp56
 70
     1
102
RTVSPropertyOp57
 70
     1
102
RTVSPropertyOp58
 70
     1
102
RTVSPropertyOp59
 70
     1
102
RTVSPropertyOp60
 70
     1
102
RTVSPropertyOp61
 70
     1
102
RTVSPropertyOp62
 70
     1
  0
XRECORD
  5
1ECF
102
{ACAD_REACTORS
330
1ECE
102
}
330
1ECE
100
AcDbXrecord
280
     1
102
RTVSPost2010Prop28
280
     0
102
RTVSPost2010PropOp28
 70
     1
102
RTVSPost2010Prop29
280
     1
102
RTVSPost2010PropOp29
 70
     1
102
RTVSPost2010Prop30
280
     1
102
RTVSPost2010PropOp30
 70
     1
102
RTVSPost2010Prop31
280
     0
102
RTVSPost2010PropOp31
 70
     1
102
RTVSPost2010Prop32
280
     0
102
RTVSPost2010PropOp32
 70
     1
102
RTVSPost2010Prop33
280
     0
102
RTVSPost2010PropOp33
 70
     1
102
RTVSPost2010Prop34
280
     0
102
RTVSPost2010PropOp34
 70
     1
102
RTVSPost2010Prop35
280
     0
102
RTVSPost2010PropOp35
 70
     1
102
RTVSPost2010Prop36
280
     0
102
RTVSPost2010PropOp36
 70
     1
102
RTVSPost2010Prop37
 90
       50
102
RTVSPost2010PropOp37
 70
     1
102
RTVSPost2010Prop38
140
0.0
102
RTVSPost2010PropOp38
 70
     1
102
RTVSPost2010Prop39
140
1.0
102
RTVSPost2010PropOp39
 70
     1
102
RTVSPost2010Prop40
 90
        0
102
RTVSPost2010PropOp40
 70
     1
102
RTVSPost2010Prop41ColorIndex
 90
       18
102
RTVSPost2010Prop41ColorRGB
 90
        0
102
RTVSPost2010PropOp41
 70
     1
102
RTVSPost2010Prop42
 90
       50
102
RTVSPost2010PropOp42
 70
     1
102
RTVSPost2010Prop43
 90
        3
102
RTVSPost2010PropOp43
 70
     1
102
RTVSPost2010Prop44ColorIndex
 90
        5
102
RTVSPost2010Prop44ColorRGB
 90
      255
102
RTVSPost2010PropOp44
 70
     1
102
RTVSPost2010Prop45
280
     0
102
RTVSPost2010PropOp45
 70
     1
102
RTVSPost2010Prop46
 90
       50
102
RTVSPost2010PropOp46
 70
     1
102
RTVSPost2010Prop47
 90
       50
102
RTVSPost2010PropOp47
 70
     1
102
RTVSPost2010Prop48
 90
       50
102
RTVSPost2010PropOp48
 70
     1
102
RTVSPost2010Prop49
280
     0
102
RTVSPost2010PropOp49
 70
     1
102
RTVSPost2010Prop50
 90
       50
102
RTVSPost2010PropOp50
 70
     1
102
RTVSPost2010Prop51ColorIndex
 90
      256
102
RTVSPost2010Prop51ColorRGB
 90
-16777216
102
RTVSPost2010PropOp51
 70
     0
102
RTVSPost2010Prop52
140
1.0
102
RTVSPost2010PropOp52
 70
     0
102
RTVSPost2010Prop53
 90
        2
102
RTVSPost2010PropOp53
 70
     1
102
RTVSPost2010Prop54
  1
strokes_ogs.tif
102
RTVSPost2010PropOp54
 70
     1
102
RTVSPost2010Prop55
280
     0
102
RTVSPost2010PropOp55
 70
     1
102
RTVSPost2010Prop56
140
1.0
102
RTVSPost2010PropOp56
 70
     1
102
RTVSPost2010Prop57
140
1.0
102
RTVSPost2010PropOp57
 70
     1
102
RTVSPropertyOp0
 70
     1
102
RTVSPropertyOp1
 70
     1
102
RTVSPropertyOp2
 70
     1
102
RTVSPropertyOp3
 70
     1
102
RTVSPropertyOp4
 70
     1
102
RTVSPropertyOp5
 70
     1
102
RTVSPropertyOp6
 70
     1
102
RTVSPropertyOp7
 70
     1
102
RTVSPropertyOp8
 70
     1
102
RTVSPropertyOp9
 70
     1
102
RTVSPropertyOp10
 70
     1
102
RTVSPropertyOp11
 70
     1
102
RTVSPropertyOp12
 70
     1
102
RTVSPropertyOp13
 70
     1
102
RTVSPropertyOp14
 70
     1
102
RTVSPropertyOp15
 70
     1
102
RTVSPropertyOp16
 70
     1
102
RTVSPropertyOp17
 70
     1
102
RTVSPropertyOp18
 70
     1
102
RTVSPropertyOp19
 70
     1
102
RTVSPropertyOp20
 70
     1
102
RTVSPropertyOp21
 70
     1
102
RTVSPropertyOp22
 70
     1
102
RTVSPropertyOp23
 70
     1
102
RTVSPropertyOp24
 70
     1
102
RTVSPropertyOp25
 70
     1
102
RTVSPropertyOp26
 70
     1
102
RTVSPropertyOp27
 70
     1
102
RTVSPropertyOp28
 70
     1
102
RTVSPropertyOp29
 70
     1
102
RTVSPropertyOp30
 70
     1
102
RTVSPropertyOp31
 70
     1
102
RTVSPropertyOp32
 70
     1
102
RTVSPropertyOp33
 70
     1
102
RTVSPropertyOp34
 70
     1
102
RTVSPropertyOp35
 70
     1
102
RTVSPropertyOp36
 70
     1
102
RTVSPropertyOp37
 70
     1
102
RTVSPropertyOp38
 70
     1
102
RTVSPropertyOp39
 70
     1
102
RTVSPropertyOp40
 70
     1
102
RTVSPropertyOp41
 70
     1
102
RTVSPropertyOp42
 70
     1
102
RTVSPropertyOp43
 70
     1
102
RTVSPropertyOp44
 70
     1
102
RTVSPropertyOp45
 70
     1
102
RTVSPropertyOp46
 70
     1
102
RTVSPropertyOp47
 70
     1
102
RTVSPropertyOp48
 70
     1
102
RTVSPropertyOp49
 70
     1
102
RTVSPropertyOp50
 70
     1
102
RTVSPropertyOp51
 70
     0
102
RTVSPropertyOp52
 70
     0
102
RTVSPropertyOp53
 70
     1
102
RTVSPropertyOp54
 70
     1
102
RTVSPropertyOp55
 70
     1
102
RTVSPropertyOp56
 70
     1
102
RTVSPropertyOp57
 70
     1
102
RTVSPropertyOp58
 70
     1
102
RTVSPropertyOp59
 70
     1
102
RTVSPropertyOp60
 70
     1
102
RTVSPropertyOp61
 70
     1
102
RTVSPropertyOp62
 70
     1
  0
XRECORD
  5
1ECD
102
{ACAD_REACTORS
330
1ECC
102
}
330
1ECC
100
AcDbXrecord
280
     1
102
RTVSPost2010Prop28
280
     0
102
RTVSPost2010PropOp28
 70
     1
102
RTVSPost2010Prop29
280
     1
102
RTVSPost2010PropOp29
 70
     1
102
RTVSPost2010Prop30
280
     1
102
RTVSPost2010PropOp30
 70
     1
102
RTVSPost2010Prop31
280
     0
102
RTVSPost2010PropOp31
 70
     1
102
RTVSPost2010Prop32
280
     0
102
RTVSPost2010PropOp32
 70
     1
102
RTVSPost2010Prop33
280
     0
102
RTVSPost2010PropOp33
 70
     1
102
RTVSPost2010Prop34
280
     0
102
RTVSPost2010PropOp34
 70
     1
102
RTVSPost2010Prop35
280
     0
102
RTVSPost2010PropOp35
 70
     1
102
RTVSPost2010Prop36
280
     0
102
RTVSPost2010PropOp36
 70
     1
102
RTVSPost2010Prop37
 90
       50
102
RTVSPost2010PropOp37
 70
     1
102
RTVSPost2010Prop38
140
0.0
102
RTVSPost2010PropOp38
 70
     1
102
RTVSPost2010Prop39
140
1.0
102
RTVSPost2010PropOp39
 70
     1
102
RTVSPost2010Prop40
 90
        0
102
RTVSPost2010PropOp40
 70
     1
102
RTVSPost2010Prop41ColorIndex
 90
       18
102
RTVSPost2010Prop41ColorRGB
 90
        0
102
RTVSPost2010PropOp41
 70
     1
102
RTVSPost2010Prop42
 90
       50
102
RTVSPost2010PropOp42
 70
     1
102
RTVSPost2010Prop43
 90
        3
102
RTVSPost2010PropOp43
 70
     1
102
RTVSPost2010Prop44ColorIndex
 90
        5
102
RTVSPost2010Prop44ColorRGB
 90
      255
102
RTVSPost2010PropOp44
 70
     1
102
RTVSPost2010Prop45
280
     0
102
RTVSPost2010PropOp45
 70
     1
102
RTVSPost2010Prop46
 90
       50
102
RTVSPost2010PropOp46
 70
     1
102
RTVSPost2010Prop47
 90
       50
102
RTVSPost2010PropOp47
 70
     1
102
RTVSPost2010Prop48
 90
       50
102
RTVSPost2010PropOp48
 70
     1
102
RTVSPost2010Prop49
280
     0
102
RTVSPost2010PropOp49
 70
     1
102
RTVSPost2010Prop50
 90
       50
102
RTVSPost2010PropOp50
 70
     1
102
RTVSPost2010Prop51ColorIndex
 90
      256
102
RTVSPost2010Prop51ColorRGB
 90
-16777216
102
RTVSPost2010PropOp51
 70
     0
102
RTVSPost2010Prop52
140
1.0
102
RTVSPost2010PropOp52
 70
     0
102
RTVSPost2010Prop53
 90
        2
102
RTVSPost2010PropOp53
 70
     1
102
RTVSPost2010Prop54
  1
strokes_ogs.tif
102
RTVSPost2010PropOp54
 70
     1
102
RTVSPost2010Prop55
280
     0
102
RTVSPost2010PropOp55
 70
     1
102
RTVSPost2010Prop56
140
1.0
102
RTVSPost2010PropOp56
 70
     1
102
RTVSPost2010Prop57
140
1.0
102
RTVSPost2010PropOp57
 70
     1
102
RTVSPropertyOp0
 70
     1
102
RTVSPropertyOp1
 70
     1
102
RTVSPropertyOp2
 70
     1
102
RTVSPropertyOp3
 70
     1
102
RTVSPropertyOp4
 70
     1
102
RTVSPropertyOp5
 70
     1
102
RTVSPropertyOp6
 70
     1
102
RTVSPropertyOp7
 70
     1
102
RTVSPropertyOp8
 70
     1
102
RTVSPropertyOp9
 70
     1
102
RTVSPropertyOp10
 70
     1
102
RTVSPropertyOp11
 70
     1
102
RTVSPropertyOp12
 70
     1
102
RTVSPropertyOp13
 70
     1
102
RTVSPropertyOp14
 70
     1
102
RTVSPropertyOp15
 70
     1
102
RTVSPropertyOp16
 70
     1
102
RTVSPropertyOp17
 70
     1
102
RTVSPropertyOp18
 70
     1
102
RTVSPropertyOp19
 70
     1
102
RTVSPropertyOp20
 70
     1
102
RTVSPropertyOp21
 70
     1
102
RTVSPropertyOp22
 70
     1
102
RTVSPropertyOp23
 70
     1
102
RTVSPropertyOp24
 70
     1
102
RTVSPropertyOp25
 70
     1
102
RTVSPropertyOp26
 70
     1
102
RTVSPropertyOp27
 70
     1
102
RTVSPropertyOp28
 70
     1
102
RTVSPropertyOp29
 70
     1
102
RTVSPropertyOp30
 70
     1
102
RTVSPropertyOp31
 70
     1
102
RTVSPropertyOp32
 70
     1
102
RTVSPropertyOp33
 70
     1
102
RTVSPropertyOp34
 70
     1
102
RTVSPropertyOp35
 70
     1
102
RTVSPropertyOp36
 70
     1
102
RTVSPropertyOp37
 70
     1
102
RTVSPropertyOp38
 70
     1
102
RTVSPropertyOp39
 70
     1
102
RTVSPropertyOp40
 70
     1
102
RTVSPropertyOp41
 70
     1
102
RTVSPropertyOp42
 70
     1
102
RTVSPropertyOp43
 70
     1
102
RTVSPropertyOp44
 70
     1
102
RTVSPropertyOp45
 70
     1
102
RTVSPropertyOp46
 70
     1
102
RTVSPropertyOp47
 70
     1
102
RTVSPropertyOp48
 70
     1
102
RTVSPropertyOp49
 70
     1
102
RTVSPropertyOp50
 70
     1
102
RTVSPropertyOp51
 70
     0
102
RTVSPropertyOp52
 70
     0
102
RTVSPropertyOp53
 70
     1
102
RTVSPropertyOp54
 70
     1
102
RTVSPropertyOp55
 70
     1
102
RTVSPropertyOp56
 70
     1
102
RTVSPropertyOp57
 70
     1
102
RTVSPropertyOp58
 70
     1
102
RTVSPropertyOp59
 70
     1
102
RTVSPropertyOp60
 70
     1
102
RTVSPropertyOp61
 70
     1
102
RTVSPropertyOp62
 70
     1
  0
XRECORD
  5
1EC7
102
{ACAD_REACTORS
330
1EC6
102
}
330
1EC6
100
AcDbXrecord
280
     1
102
RTVSPost2010Prop28
280
     0
102
RTVSPost2010PropOp28
 70
     1
102
RTVSPost2010Prop29
280
     1
102
RTVSPost2010PropOp29
 70
     1
102
RTVSPost2010Prop30
280
     1
102
RTVSPost2010PropOp30
 70
     1
102
RTVSPost2010Prop31
280
     0
102
RTVSPost2010PropOp31
 70
     1
102
RTVSPost2010Prop32
280
     0
102
RTVSPost2010PropOp32
 70
     1
102
RTVSPost2010Prop33
280
     0
102
RTVSPost2010PropOp33
 70
     1
102
RTVSPost2010Prop34
280
     0
102
RTVSPost2010PropOp34
 70
     1
102
RTVSPost2010Prop35
280
     0
102
RTVSPost2010PropOp35
 70
     1
102
RTVSPost2010Prop36
280
     0
102
RTVSPost2010PropOp36
 70
     1
102
RTVSPost2010Prop37
 90
       50
102
RTVSPost2010PropOp37
 70
     1
102
RTVSPost2010Prop38
140
0.0
102
RTVSPost2010PropOp38
 70
     1
102
RTVSPost2010Prop39
140
1.0
102
RTVSPost2010PropOp39
 70
     1
102
RTVSPost2010Prop40
 90
        0
102
RTVSPost2010PropOp40
 70
     1
102
RTVSPost2010Prop41ColorIndex
 90
       18
102
RTVSPost2010Prop41ColorRGB
 90
        0
102
RTVSPost2010PropOp41
 70
     1
102
RTVSPost2010Prop42
 90
       50
102
RTVSPost2010PropOp42
 70
     1
102
RTVSPost2010Prop43
 90
        3
102
RTVSPost2010PropOp43
 70
     1
102
RTVSPost2010Prop44ColorIndex
 90
        5
102
RTVSPost2010Prop44ColorRGB
 90
      255
102
RTVSPost2010PropOp44
 70
     1
102
RTVSPost2010Prop45
280
     0
102
RTVSPost2010PropOp45
 70
     1
102
RTVSPost2010Prop46
 90
       50
102
RTVSPost2010PropOp46
 70
     1
102
RTVSPost2010Prop47
 90
       50
102
RTVSPost2010PropOp47
 70
     1
102
RTVSPost2010Prop48
 90
       50
102
RTVSPost2010PropOp48
 70
     1
102
RTVSPost2010Prop49
280
     0
102
RTVSPost2010PropOp49
 70
     1
102
RTVSPost2010Prop50
 90
       50
102
RTVSPost2010PropOp50
 70
     1
102
RTVSPost2010Prop51ColorIndex
 90
      256
102
RTVSPost2010Prop51ColorRGB
 90
-16777216
102
RTVSPost2010PropOp51
 70
     0
102
RTVSPost2010Prop52
140
1.0
102
RTVSPost2010PropOp52
 70
     0
102
RTVSPost2010Prop53
 90
        2
102
RTVSPost2010PropOp53
 70
     1
102
RTVSPost2010Prop54
  1
strokes_ogs.tif
102
RTVSPost2010PropOp54
 70
     1
102
RTVSPost2010Prop55
280
     0
102
RTVSPost2010PropOp55
 70
     1
102
RTVSPost2010Prop56
140
1.0
102
RTVSPost2010PropOp56
 70
     1
102
RTVSPost2010Prop57
140
1.0
102
RTVSPost2010PropOp57
 70
     1
102
RTVSPropertyOp0
 70
     1
102
RTVSPropertyOp1
 70
     1
102
RTVSPropertyOp2
 70
     1
102
RTVSPropertyOp3
 70
     1
102
RTVSPropertyOp4
 70
     1
102
RTVSPropertyOp5
 70
     1
102
RTVSPropertyOp6
 70
     1
102
RTVSPropertyOp7
 70
     1
102
RTVSPropertyOp8
 70
     1
102
RTVSPropertyOp9
 70
     1
102
RTVSPropertyOp10
 70
     1
102
RTVSPropertyOp11
 70
     1
102
RTVSPropertyOp12
 70
     1
102
RTVSPropertyOp13
 70
     1
102
RTVSPropertyOp14
 70
     1
102
RTVSPropertyOp15
 70
     1
102
RTVSPropertyOp16
 70
     1
102
RTVSPropertyOp17
 70
     1
102
RTVSPropertyOp18
 70
     1
102
RTVSPropertyOp19
 70
     1
102
RTVSPropertyOp20
 70
     1
102
RTVSPropertyOp21
 70
     1
102
RTVSPropertyOp22
 70
     1
102
RTVSPropertyOp23
 70
     1
102
RTVSPropertyOp24
 70
     1
102
RTVSPropertyOp25
 70
     1
102
RTVSPropertyOp26
 70
     1
102
RTVSPropertyOp27
 70
     1
102
RTVSPropertyOp28
 70
     1
102
RTVSPropertyOp29
 70
     1
102
RTVSPropertyOp30
 70
     1
102
RTVSPropertyOp31
 70
     1
102
RTVSPropertyOp32
 70
     1
102
RTVSPropertyOp33
 70
     1
102
RTVSPropertyOp34
 70
     1
102
RTVSPropertyOp35
 70
     1
102
RTVSPropertyOp36
 70
     1
102
RTVSPropertyOp37
 70
     1
102
RTVSPropertyOp38
 70
     1
102
RTVSPropertyOp39
 70
     1
102
RTVSPropertyOp40
 70
     1
102
RTVSPropertyOp41
 70
     1
102
RTVSPropertyOp42
 70
     1
102
RTVSPropertyOp43
 70
     1
102
RTVSPropertyOp44
 70
     1
102
RTVSPropertyOp45
 70
     1
102
RTVSPropertyOp46
 70
     1
102
RTVSPropertyOp47
 70
     1
102
RTVSPropertyOp48
 70
     1
102
RTVSPropertyOp49
 70
     1
102
RTVSPropertyOp50
 70
     1
102
RTVSPropertyOp51
 70
     0
102
RTVSPropertyOp52
 70
     0
102
RTVSPropertyOp53
 70
     1
102
RTVSPropertyOp54
 70
     1
102
RTVSPropertyOp55
 70
     1
102
RTVSPropertyOp56
 70
     1
102
RTVSPropertyOp57
 70
     1
102
RTVSPropertyOp58
 70
     1
102
RTVSPropertyOp59
 70
     1
102
RTVSPropertyOp60
 70
     1
102
RTVSPropertyOp61
 70
     1
102
RTVSPropertyOp62
 70
     1
  0
XRECORD
  5
1EC9
102
{ACAD_REACTORS
330
1EC8
102
}
330
1EC8
100
AcDbXrecord
280
     1
102
RTVSPost2010Prop28
280
     0
102
RTVSPost2010PropOp28
 70
     1
102
RTVSPost2010Prop29
280
     1
102
RTVSPost2010PropOp29
 70
     1
102
RTVSPost2010Prop30
280
     1
102
RTVSPost2010PropOp30
 70
     1
102
RTVSPost2010Prop31
280
     0
102
RTVSPost2010PropOp31
 70
     1
102
RTVSPost2010Prop32
280
     0
102
RTVSPost2010PropOp32
 70
     1
102
RTVSPost2010Prop33
280
     0
102
RTVSPost2010PropOp33
 70
     1
102
RTVSPost2010Prop34
280
     0
102
RTVSPost2010PropOp34
 70
     1
102
RTVSPost2010Prop35
280
     0
102
RTVSPost2010PropOp35
 70
     1
102
RTVSPost2010Prop36
280
     0
102
RTVSPost2010PropOp36
 70
     1
102
RTVSPost2010Prop37
 90
       50
102
RTVSPost2010PropOp37
 70
     1
102
RTVSPost2010Prop38
140
0.0
102
RTVSPost2010PropOp38
 70
     1
102
RTVSPost2010Prop39
140
1.0
102
RTVSPost2010PropOp39
 70
     1
102
RTVSPost2010Prop40
 90
        0
102
RTVSPost2010PropOp40
 70
     1
102
RTVSPost2010Prop41ColorIndex
 90
       18
102
RTVSPost2010Prop41ColorRGB
 90
        0
102
RTVSPost2010PropOp41
 70
     1
102
RTVSPost2010Prop42
 90
       50
102
RTVSPost2010PropOp42
 70
     1
102
RTVSPost2010Prop43
 90
        3
102
RTVSPost2010PropOp43
 70
     1
102
RTVSPost2010Prop44ColorIndex
 90
        5
102
RTVSPost2010Prop44ColorRGB
 90
      255
102
RTVSPost2010PropOp44
 70
     1
102
RTVSPost2010Prop45
280
     0
102
RTVSPost2010PropOp45
 70
     1
102
RTVSPost2010Prop46
 90
       50
102
RTVSPost2010PropOp46
 70
     1
102
RTVSPost2010Prop47
 90
       50
102
RTVSPost2010PropOp47
 70
     1
102
RTVSPost2010Prop48
 90
       50
102
RTVSPost2010PropOp48
 70
     1
102
RTVSPost2010Prop49
280
     0
102
RTVSPost2010PropOp49
 70
     1
102
RTVSPost2010Prop50
 90
       50
102
RTVSPost2010PropOp50
 70
     1
102
RTVSPost2010Prop51ColorIndex
 90
      256
102
RTVSPost2010Prop51ColorRGB
 90
-16777216
102
RTVSPost2010PropOp51
 70
     0
102
RTVSPost2010Prop52
140
1.0
102
RTVSPost2010PropOp52
 70
     0
102
RTVSPost2010Prop53
 90
        2
102
RTVSPost2010PropOp53
 70
     1
102
RTVSPost2010Prop54
  1
strokes_ogs.tif
102
RTVSPost2010PropOp54
 70
     1
102
RTVSPost2010Prop55
280
     0
102
RTVSPost2010PropOp55
 70
     1
102
RTVSPost2010Prop56
140
1.0
102
RTVSPost2010PropOp56
 70
     1
102
RTVSPost2010Prop57
140
1.0
102
RTVSPost2010PropOp57
 70
     1
102
RTVSPropertyOp0
 70
     1
102
RTVSPropertyOp1
 70
     1
102
RTVSPropertyOp2
 70
     1
102
RTVSPropertyOp3
 70
     1
102
RTVSPropertyOp4
 70
     1
102
RTVSPropertyOp5
 70
     1
102
RTVSPropertyOp6
 70
     1
102
RTVSPropertyOp7
 70
     1
102
RTVSPropertyOp8
 70
     1
102
RTVSPropertyOp9
 70
     1
102
RTVSPropertyOp10
 70
     1
102
RTVSPropertyOp11
 70
     1
102
RTVSPropertyOp12
 70
     1
102
RTVSPropertyOp13
 70
     1
102
RTVSPropertyOp14
 70
     1
102
RTVSPropertyOp15
 70
     1
102
RTVSPropertyOp16
 70
     1
102
RTVSPropertyOp17
 70
     1
102
RTVSPropertyOp18
 70
     1
102
RTVSPropertyOp19
 70
     1
102
RTVSPropertyOp20
 70
     1
102
RTVSPropertyOp21
 70
     1
102
RTVSPropertyOp22
 70
     1
102
RTVSPropertyOp23
 70
     1
102
RTVSPropertyOp24
 70
     1
102
RTVSPropertyOp25
 70
     1
102
RTVSPropertyOp26
 70
     1
102
RTVSPropertyOp27
 70
     1
102
RTVSPropertyOp28
 70
     1
102
RTVSPropertyOp29
 70
     1
102
RTVSPropertyOp30
 70
     1
102
RTVSPropertyOp31
 70
     1
102
RTVSPropertyOp32
 70
     1
102
RTVSPropertyOp33
 70
     1
102
RTVSPropertyOp34
 70
     1
102
RTVSPropertyOp35
 70
     1
102
RTVSPropertyOp36
 70
     1
102
RTVSPropertyOp37
 70
     1
102
RTVSPropertyOp38
 70
     1
102
RTVSPropertyOp39
 70
     1
102
RTVSPropertyOp40
 70
     1
102
RTVSPropertyOp41
 70
     1
102
RTVSPropertyOp42
 70
     1
102
RTVSPropertyOp43
 70
     1
102
RTVSPropertyOp44
 70
     1
102
RTVSPropertyOp45
 70
     1
102
RTVSPropertyOp46
 70
     1
102
RTVSPropertyOp47
 70
     1
102
RTVSPropertyOp48
 70
     1
102
RTVSPropertyOp49
 70
     1
102
RTVSPropertyOp50
 70
     1
102
RTVSPropertyOp51
 70
     0
102
RTVSPropertyOp52
 70
     0
102
RTVSPropertyOp53
 70
     1
102
RTVSPropertyOp54
 70
     1
102
RTVSPropertyOp55
 70
     1
102
RTVSPropertyOp56
 70
     1
102
RTVSPropertyOp57
 70
     1
102
RTVSPropertyOp58
 70
     1
102
RTVSPropertyOp59
 70
     1
102
RTVSPropertyOp60
 70
     1
102
RTVSPropertyOp61
 70
     1
102
RTVSPropertyOp62
 70
     1
  0
XRECORD
  5
1EBF
102
{ACAD_REACTORS
330
1EBE
102
}
330
1EBE
100
AcDbXrecord
280
     1
102
RTVSPost2010Prop28
280
     0
102
RTVSPost2010PropOp28
 70
     1
102
RTVSPost2010Prop29
280
     1
102
RTVSPost2010PropOp29
 70
     1
102
RTVSPost2010Prop30
280
     1
102
RTVSPost2010PropOp30
 70
     1
102
RTVSPost2010Prop31
280
     0
102
RTVSPost2010PropOp31
 70
     1
102
RTVSPost2010Prop32
280
     0
102
RTVSPost2010PropOp32
 70
     1
102
RTVSPost2010Prop33
280
     0
102
RTVSPost2010PropOp33
 70
     1
102
RTVSPost2010Prop34
280
     0
102
RTVSPost2010PropOp34
 70
     1
102
RTVSPost2010Prop35
280
     0
102
RTVSPost2010PropOp35
 70
     1
102
RTVSPost2010Prop36
280
     0
102
RTVSPost2010PropOp36
 70
     1
102
RTVSPost2010Prop37
 90
       50
102
RTVSPost2010PropOp37
 70
     1
102
RTVSPost2010Prop38
140
0.0
102
RTVSPost2010PropOp38
 70
     1
102
RTVSPost2010Prop39
140
1.0
102
RTVSPost2010PropOp39
 70
     1
102
RTVSPost2010Prop40
 90
        0
102
RTVSPost2010PropOp40
 70
     1
102
RTVSPost2010Prop41ColorIndex
 90
       18
102
RTVSPost2010Prop41ColorRGB
 90
        0
102
RTVSPost2010PropOp41
 70
     1
102
RTVSPost2010Prop42
 90
       50
102
RTVSPost2010PropOp42
 70
     1
102
RTVSPost2010Prop43
 90
        3
102
RTVSPost2010PropOp43
 70
     1
102
RTVSPost2010Prop44ColorIndex
 90
        5
102
RTVSPost2010Prop44ColorRGB
 90
      255
102
RTVSPost2010PropOp44
 70
     1
102
RTVSPost2010Prop45
280
     0
102
RTVSPost2010PropOp45
 70
     1
102
RTVSPost2010Prop46
 90
       50
102
RTVSPost2010PropOp46
 70
     1
102
RTVSPost2010Prop47
 90
       50
102
RTVSPost2010PropOp47
 70
     1
102
RTVSPost2010Prop48
 90
       50
102
RTVSPost2010PropOp48
 70
     1
102
RTVSPost2010Prop49
280
     0
102
RTVSPost2010PropOp49
 70
     1
102
RTVSPost2010Prop50
 90
       50
102
RTVSPost2010PropOp50
 70
     1
102
RTVSPost2010Prop51ColorIndex
 90
      256
102
RTVSPost2010Prop51ColorRGB
 90
-16777216
102
RTVSPost2010PropOp51
 70
     0
102
RTVSPost2010Prop52
140
1.0
102
RTVSPost2010PropOp52
 70
     0
102
RTVSPost2010Prop53
 90
        2
102
RTVSPost2010PropOp53
 70
     1
102
RTVSPost2010Prop54
  1
strokes_ogs.tif
102
RTVSPost2010PropOp54
 70
     1
102
RTVSPost2010Prop55
280
     0
102
RTVSPost2010PropOp55
 70
     1
102
RTVSPost2010Prop56
140
1.0
102
RTVSPost2010PropOp56
 70
     1
102
RTVSPost2010Prop57
140
1.0
102
RTVSPost2010PropOp57
 70
     1
102
RTVSPropertyOp0
 70
     1
102
RTVSPropertyOp1
 70
     1
102
RTVSPropertyOp2
 70
     1
102
RTVSPropertyOp3
 70
     1
102
RTVSPropertyOp4
 70
     1
102
RTVSPropertyOp5
 70
     1
102
RTVSPropertyOp6
 70
     1
102
RTVSPropertyOp7
 70
     1
102
RTVSPropertyOp8
 70
     1
102
RTVSPropertyOp9
 70
     1
102
RTVSPropertyOp10
 70
     1
102
RTVSPropertyOp11
 70
     1
102
RTVSPropertyOp12
 70
     1
102
RTVSPropertyOp13
 70
     1
102
RTVSPropertyOp14
 70
     1
102
RTVSPropertyOp15
 70
     1
102
RTVSPropertyOp16
 70
     1
102
RTVSPropertyOp17
 70
     1
102
RTVSPropertyOp18
 70
     1
102
RTVSPropertyOp19
 70
     1
102
RTVSPropertyOp20
 70
     1
102
RTVSPropertyOp21
 70
     1
102
RTVSPropertyOp22
 70
     1
102
RTVSPropertyOp23
 70
     1
102
RTVSPropertyOp24
 70
     1
102
RTVSPropertyOp25
 70
     1
102
RTVSPropertyOp26
 70
     1
102
RTVSPropertyOp27
 70
     1
102
RTVSPropertyOp28
 70
     1
102
RTVSPropertyOp29
 70
     1
102
RTVSPropertyOp30
 70
     1
102
RTVSPropertyOp31
 70
     1
102
RTVSPropertyOp32
 70
     1
102
RTVSPropertyOp33
 70
     1
102
RTVSPropertyOp34
 70
     1
102
RTVSPropertyOp35
 70
     1
102
RTVSPropertyOp36
 70
     1
102
RTVSPropertyOp37
 70
     1
102
RTVSPropertyOp38
 70
     1
102
RTVSPropertyOp39
 70
     1
102
RTVSPropertyOp40
 70
     1
102
RTVSPropertyOp41
 70
     1
102
RTVSPropertyOp42
 70
     1
102
RTVSPropertyOp43
 70
     1
102
RTVSPropertyOp44
 70
     1
102
RTVSPropertyOp45
 70
     1
102
RTVSPropertyOp46
 70
     1
102
RTVSPropertyOp47
 70
     1
102
RTVSPropertyOp48
 70
     1
102
RTVSPropertyOp49
 70
     1
102
RTVSPropertyOp50
 70
     1
102
RTVSPropertyOp51
 70
     0
102
RTVSPropertyOp52
 70
     0
102
RTVSPropertyOp53
 70
     1
102
RTVSPropertyOp54
 70
     1
102
RTVSPropertyOp55
 70
     1
102
RTVSPropertyOp56
 70
     1
102
RTVSPropertyOp57
 70
     1
102
RTVSPropertyOp58
 70
     1
102
RTVSPropertyOp59
 70
     1
102
RTVSPropertyOp60
 70
     1
102
RTVSPropertyOp61
 70
     1
102
RTVSPropertyOp62
 70
     1
  0
XRECORD
  5
1EB3
102
{ACAD_REACTORS
330
1EB2
102
}
330
1EB2
100
AcDbXrecord
280
     1
102
RTVSPost2010Prop28
280
     0
102
RTVSPost2010PropOp28
 70
     1
102
RTVSPost2010Prop29
280
     1
102
RTVSPost2010PropOp29
 70
     1
102
RTVSPost2010Prop30
280
     1
102
RTVSPost2010PropOp30
 70
     1
102
RTVSPost2010Prop31
280
     0
102
RTVSPost2010PropOp31
 70
     1
102
RTVSPost2010Prop32
280
     0
102
RTVSPost2010PropOp32
 70
     1
102
RTVSPost2010Prop33
280
     0
102
RTVSPost2010PropOp33
 70
     1
102
RTVSPost2010Prop34
280
     0
102
RTVSPost2010PropOp34
 70
     1
102
RTVSPost2010Prop35
280
     0
102
RTVSPost2010PropOp35
 70
     1
102
RTVSPost2010Prop36
280
     0
102
RTVSPost2010PropOp36
 70
     1
102
RTVSPost2010Prop37
 90
       50
102
RTVSPost2010PropOp37
 70
     1
102
RTVSPost2010Prop38
140
0.0
102
RTVSPost2010PropOp38
 70
     1
102
RTVSPost2010Prop39
140
1.0
102
RTVSPost2010PropOp39
 70
     1
102
RTVSPost2010Prop40
 90
        0
102
RTVSPost2010PropOp40
 70
     1
102
RTVSPost2010Prop41ColorIndex
 90
       18
102
RTVSPost2010Prop41ColorRGB
 90
        0
102
RTVSPost2010PropOp41
 70
     1
102
RTVSPost2010Prop42
 90
       50
102
RTVSPost2010PropOp42
 70
     1
102
RTVSPost2010Prop43
 90
        3
102
RTVSPost2010PropOp43
 70
     1
102
RTVSPost2010Prop44ColorIndex
 90
        5
102
RTVSPost2010Prop44ColorRGB
 90
      255
102
RTVSPost2010PropOp44
 70
     1
102
RTVSPost2010Prop45
280
     0
102
RTVSPost2010PropOp45
 70
     1
102
RTVSPost2010Prop46
 90
       50
102
RTVSPost2010PropOp46
 70
     1
102
RTVSPost2010Prop47
 90
       50
102
RTVSPost2010PropOp47
 70
     1
102
RTVSPost2010Prop48
 90
       50
102
RTVSPost2010PropOp48
 70
     1
102
RTVSPost2010Prop49
280
     0
102
RTVSPost2010PropOp49
 70
     1
102
RTVSPost2010Prop50
 90
       50
102
RTVSPost2010PropOp50
 70
     1
102
RTVSPost2010Prop51ColorIndex
 90
      256
102
RTVSPost2010Prop51ColorRGB
 90
-16777216
102
RTVSPost2010PropOp51
 70
     0
102
RTVSPost2010Prop52
140
1.0
102
RTVSPost2010PropOp52
 70
     0
102
RTVSPost2010Prop53
 90
        2
102
RTVSPost2010PropOp53
 70
     1
102
RTVSPost2010Prop54
  1
strokes_ogs.tif
102
RTVSPost2010PropOp54
 70
     1
102
RTVSPost2010Prop55
280
     0
102
RTVSPost2010PropOp55
 70
     1
102
RTVSPost2010Prop56
140
1.0
102
RTVSPost2010PropOp56
 70
     1
102
RTVSPost2010Prop57
140
1.0
102
RTVSPost2010PropOp57
 70
     1
102
RTVSPropertyOp0
 70
     1
102
RTVSPropertyOp1
 70
     1
102
RTVSPropertyOp2
 70
     1
102
RTVSPropertyOp3
 70
     1
102
RTVSPropertyOp4
 70
     1
102
RTVSPropertyOp5
 70
     1
102
RTVSPropertyOp6
 70
     1
102
RTVSPropertyOp7
 70
     1
102
RTVSPropertyOp8
 70
     1
102
RTVSPropertyOp9
 70
     1
102
RTVSPropertyOp10
 70
     1
102
RTVSPropertyOp11
 70
     1
102
RTVSPropertyOp12
 70
     1
102
RTVSPropertyOp13
 70
     1
102
RTVSPropertyOp14
 70
     1
102
RTVSPropertyOp15
 70
     1
102
RTVSPropertyOp16
 70
     1
102
RTVSPropertyOp17
 70
     1
102
RTVSPropertyOp18
 70
     1
102
RTVSPropertyOp19
 70
     1
102
RTVSPropertyOp20
 70
     1
102
RTVSPropertyOp21
 70
     1
102
RTVSPropertyOp22
 70
     1
102
RTVSPropertyOp23
 70
     1
102
RTVSPropertyOp24
 70
     1
102
RTVSPropertyOp25
 70
     1
102
RTVSPropertyOp26
 70
     1
102
RTVSPropertyOp27
 70
     1
102
RTVSPropertyOp28
 70
     1
102
RTVSPropertyOp29
 70
     1
102
RTVSPropertyOp30
 70
     1
102
RTVSPropertyOp31
 70
     1
102
RTVSPropertyOp32
 70
     1
102
RTVSPropertyOp33
 70
     1
102
RTVSPropertyOp34
 70
     1
102
RTVSPropertyOp35
 70
     1
102
RTVSPropertyOp36
 70
     1
102
RTVSPropertyOp37
 70
     1
102
RTVSPropertyOp38
 70
     1
102
RTVSPropertyOp39
 70
     1
102
RTVSPropertyOp40
 70
     1
102
RTVSPropertyOp41
 70
     1
102
RTVSPropertyOp42
 70
     1
102
RTVSPropertyOp43
 70
     1
102
RTVSPropertyOp44
 70
     1
102
RTVSPropertyOp45
 70
     1
102
RTVSPropertyOp46
 70
     1
102
RTVSPropertyOp47
 70
     1
102
RTVSPropertyOp48
 70
     1
102
RTVSPropertyOp49
 70
     1
102
RTVSPropertyOp50
 70
     1
102
RTVSPropertyOp51
 70
     0
102
RTVSPropertyOp52
 70
     0
102
RTVSPropertyOp53
 70
     1
102
RTVSPropertyOp54
 70
     1
102
RTVSPropertyOp55
 70
     1
102
RTVSPropertyOp56
 70
     1
102
RTVSPropertyOp57
 70
     1
102
RTVSPropertyOp58
 70
     1
102
RTVSPropertyOp59
 70
     1
102
RTVSPropertyOp60
 70
     1
102
RTVSPropertyOp61
 70
     1
102
RTVSPropertyOp62
 70
     1
  0
XRECORD
  5
1ECB
102
{ACAD_REACTORS
330
1ECA
102
}
330
1ECA
100
AcDbXrecord
280
     1
102
RTVSPost2010Prop28
280
     0
102
RTVSPost2010PropOp28
 70
     1
102
RTVSPost2010Prop29
280
     1
102
RTVSPost2010PropOp29
 70
     1
102
RTVSPost2010Prop30
280
     1
102
RTVSPost2010PropOp30
 70
     1
102
RTVSPost2010Prop31
280
     0
102
RTVSPost2010PropOp31
 70
     1
102
RTVSPost2010Prop32
280
     0
102
RTVSPost2010PropOp32
 70
     1
102
RTVSPost2010Prop33
280
     0
102
RTVSPost2010PropOp33
 70
     1
102
RTVSPost2010Prop34
280
     0
102
RTVSPost2010PropOp34
 70
     1
102
RTVSPost2010Prop35
280
     0
102
RTVSPost2010PropOp35
 70
     1
102
RTVSPost2010Prop36
280
     0
102
RTVSPost2010PropOp36
 70
     1
102
RTVSPost2010Prop37
 90
       50
102
RTVSPost2010PropOp37
 70
     1
102
RTVSPost2010Prop38
140
0.0
102
RTVSPost2010PropOp38
 70
     1
102
RTVSPost2010Prop39
140
1.0
102
RTVSPost2010PropOp39
 70
     1
102
RTVSPost2010Prop40
 90
        0
102
RTVSPost2010PropOp40
 70
     1
102
RTVSPost2010Prop41ColorIndex
 90
       18
102
RTVSPost2010Prop41ColorRGB
 90
        0
102
RTVSPost2010PropOp41
 70
     1
102
RTVSPost2010Prop42
 90
       50
102
RTVSPost2010PropOp42
 70
     1
102
RTVSPost2010Prop43
 90
        3
102
RTVSPost2010PropOp43
 70
     1
102
RTVSPost2010Prop44ColorIndex
 90
        5
102
RTVSPost2010Prop44ColorRGB
 90
      255
102
RTVSPost2010PropOp44
 70
     1
102
RTVSPost2010Prop45
280
     0
102
RTVSPost2010PropOp45
 70
     1
102
RTVSPost2010Prop46
 90
       50
102
RTVSPost2010PropOp46
 70
     1
102
RTVSPost2010Prop47
 90
       50
102
RTVSPost2010PropOp47
 70
     1
102
RTVSPost2010Prop48
 90
       50
102
RTVSPost2010PropOp48
 70
     1
102
RTVSPost2010Prop49
280
     0
102
RTVSPost2010PropOp49
 70
     1
102
RTVSPost2010Prop50
 90
       50
102
RTVSPost2010PropOp50
 70
     1
102
RTVSPost2010Prop51ColorIndex
 90
      256
102
RTVSPost2010Prop51ColorRGB
 90
-16777216
102
RTVSPost2010PropOp51
 70
     0
102
RTVSPost2010Prop52
140
1.0
102
RTVSPost2010PropOp52
 70
     0
102
RTVSPost2010Prop53
 90
        2
102
RTVSPost2010PropOp53
 70
     1
102
RTVSPost2010Prop54
  1
strokes_ogs.tif
102
RTVSPost2010PropOp54
 70
     1
102
RTVSPost2010Prop55
280
     0
102
RTVSPost2010PropOp55
 70
     1
102
RTVSPost2010Prop56
140
1.0
102
RTVSPost2010PropOp56
 70
     1
102
RTVSPost2010Prop57
140
1.0
102
RTVSPost2010PropOp57
 70
     1
102
RTVSPropertyOp0
 70
     1
102
RTVSPropertyOp1
 70
     1
102
RTVSPropertyOp2
 70
     1
102
RTVSPropertyOp3
 70
     1
102
RTVSPropertyOp4
 70
     1
102
RTVSPropertyOp5
 70
     1
102
RTVSPropertyOp6
 70
     1
102
RTVSPropertyOp7
 70
     1
102
RTVSPropertyOp8
 70
     1
102
RTVSPropertyOp9
 70
     1
102
RTVSPropertyOp10
 70
     1
102
RTVSPropertyOp11
 70
     1
102
RTVSPropertyOp12
 70
     1
102
RTVSPropertyOp13
 70
     1
102
RTVSPropertyOp14
 70
     1
102
RTVSPropertyOp15
 70
     1
102
RTVSPropertyOp16
 70
     1
102
RTVSPropertyOp17
 70
     1
102
RTVSPropertyOp18
 70
     1
102
RTVSPropertyOp19
 70
     1
102
RTVSPropertyOp20
 70
     1
102
RTVSPropertyOp21
 70
     1
102
RTVSPropertyOp22
 70
     1
102
RTVSPropertyOp23
 70
     1
102
RTVSPropertyOp24
 70
     1
102
RTVSPropertyOp25
 70
     1
102
RTVSPropertyOp26
 70
     1
102
RTVSPropertyOp27
 70
     1
102
RTVSPropertyOp28
 70
     1
102
RTVSPropertyOp29
 70
     1
102
RTVSPropertyOp30
 70
     1
102
RTVSPropertyOp31
 70
     1
102
RTVSPropertyOp32
 70
     1
102
RTVSPropertyOp33
 70
     1
102
RTVSPropertyOp34
 70
     1
102
RTVSPropertyOp35
 70
     1
102
RTVSPropertyOp36
 70
     1
102
RTVSPropertyOp37
 70
     1
102
RTVSPropertyOp38
 70
     1
102
RTVSPropertyOp39
 70
     1
102
RTVSPropertyOp40
 70
     1
102
RTVSPropertyOp41
 70
     1
102
RTVSPropertyOp42
 70
     1
102
RTVSPropertyOp43
 70
     1
102
RTVSPropertyOp44
 70
     1
102
RTVSPropertyOp45
 70
     1
102
RTVSPropertyOp46
 70
     1
102
RTVSPropertyOp47
 70
     1
102
RTVSPropertyOp48
 70
     1
102
RTVSPropertyOp49
 70
     1
102
RTVSPropertyOp50
 70
     1
102
RTVSPropertyOp51
 70
     0
102
RTVSPropertyOp52
 70
     0
102
RTVSPropertyOp53
 70
     1
102
RTVSPropertyOp54
 70
     1
102
RTVSPropertyOp55
 70
     1
102
RTVSPropertyOp56
 70
     1
102
RTVSPropertyOp57
 70
     1
102
RTVSPropertyOp58
 70
     1
102
RTVSPropertyOp59
 70
     1
102
RTVSPropertyOp60
 70
     1
102
RTVSPropertyOp61
 70
     1
102
RTVSPropertyOp62
 70
     1
  0
ENDSEC
  0
EOF
