  0
SECTION
  2
HEADER
  9
$ACADVER
  1
AC1015
  9
$DWGCODEPAGE
  3
ANSI_932
  9
$LTSCALE
 40
20.0
  9
$FILLMODE
 70
     1
  9
$CLAYER
  8
0
  9
$PDMODE
 70
     0
  9
$SPLFRAME
 70
     0
  9
$SPLINETYPE
 70
     6
  9
$SPLINESEGS
 70
     8
  9
$DIMASZ
 40
2.000000
  9
$DIMEXE
 40
1.500000
  9
$DIMEXO
 40
0.800000
  9
$DIMTAD
 70
     1
  9
$DIMTIH
 70
     0
  9
$DIMTOH
 70
     0
  9
$DIMTVP
 40
0.500000
  9
$DIMTXT
 40
3.100000
  9
$EXTMIN
 10
0.000000
 20
0.000000
 30
0.000000
  9
$EXTMAX
 10
297.000000
 20
420.000000
 30
0.000000
  9
$MEASUREMENT
 70
  1
  9
$LIMMIN
 10
0.000000
 20
0.000000
  9
$LIMMAX
 10
297.000000
 20
420.000000
  9
$HANDSEED
  5
23A
  9
$LWDISPLAY
290
     0
  9
$DIMBLK
  1
_OPEN
  9
$DIMDEC
 70
     2
  9
$DIMADEC
 70
     2
  9
$DIMAUNIT
 70
     0
  9
$DIMZIN
 70
     8
  9
$DIMAZIN
 70
     2
  9
$DIMTOFL
 70
     1
  0
ENDSEC
  0
SECTION
  2
CLASSES
  0
ENDSEC
  0
SECTION
  2
TABLES
  0
TABLE
  2
VPORT
  5
209
100
AcDbSymbolTable
 70
     1
  0
VPORT
  5
20A
100
AcDbSymbolTableRecord
100
AcDbViewportTableRecord
  2
*ACTIVE
 70
     0
 12
210.000000
 22
148.500000
 40
432.537307
 41
1.283749
  0
ENDTAB
  0
TABLE
  2
LTYPE
  5
20B
100
AcDbSymbolTable
 70
     3
  0
LTYPE
  5
20C
100
AcDbSymbolTableRecord
100
AcDbLinetypeTableRecord
  2
BYBLOCK
 70
     0
  3

 72
    65
 73
     0
 40
0.0
  0
LTYPE
  5
20D
100
AcDbSymbolTableRecord
100
AcDbLinetypeTableRecord
  2
BYLAYER
 70
     0
  3

 72
    65
 73
     0
 40
0.0
  0
LTYPE
  5
20E
100
AcDbSymbolTableRecord
100
AcDbLinetypeTableRecord
  2
CONTINUOUS
 70
     0
  3
Solid line (NEC CAE2D for Win R16.0 : 2021.10.21)
 72
    65
 73
     0
 40
0.0
  0
LTYPE
  5
20F
100
AcDbSymbolTableRecord
100
AcDbLinetypeTableRecord
  2
DASHED
 70
     0
  3
__ __ __ __ __ __ __ __ __ __ __ __ __ _
 72
    65
 73
     2
 40
0.75
 49
0.5
 74
     0
 49
-0.25
 74
     0
  0
LTYPE
  5
210
100
AcDbSymbolTableRecord
100
AcDbLinetypeTableRecord
  2
CENTER
 70
     0
  3
____ _ ____ _ ____ _ ____ _ ____ _ ____
 72
    65
 73
     4
 40
2.0
 49
1.25
 74
     0
 49
-0.25
 74
     0
 49
0.25
 74
     0
 49
-0.25
 74
     0
  0
ENDTAB
  0
TABLE
  2
LAYER
  5
211
100
AcDbSymbolTable
 70
    10
  0
LAYER
  5
212
100
AcDbSymbolTableRecord
100
AcDbLayerTableRecord
  2
0
 70
     0
 62
     7
  6
CONTINUOUS
370
    -3
390

  0
LAYER
  5
213
100
AcDbSymbolTableRecord
100
AcDbLayerTableRecord
  2
DXF0
 70
     0
 62
     7
  6
CONTINUOUS
370
    -3
390

  0
LAYER
  5
214
100
AcDbSymbolTableRecord
100
AcDbLayerTableRecord
  2
4
 70
     0
 62
     1
  6
CONTINUOUS
370
    -3
390

  0
LAYER
  5
215
100
AcDbSymbolTableRecord
100
AcDbLayerTableRecord
  2
5
 70
     0
 62
     6
  6
CONTINUOUS
370
    -3
390

  0
LAYER
  5
216
100
AcDbSymbolTableRecord
100
AcDbLayerTableRecord
  2
1
 70
     0
 62
     7
  6
CONTINUOUS
370
    -3
390

  0
LAYER
  5
217
100
AcDbSymbolTableRecord
100
AcDbLayerTableRecord
  2
2
 70
     0
 62
     4
  6
CONTINUOUS
370
    -3
390

  0
LAYER
  5
218
100
AcDbSymbolTableRecord
100
AcDbLayerTableRecord
  2
3
 70
     0
 62
     2
  6
CONTINUOUS
370
    -3
390

  0
LAYER
  5
219
100
AcDbSymbolTableRecord
100
AcDbLayerTableRecord
  2
6
 70
     0
 62
     5
  6
CONTINUOUS
370
    -3
390

  0
LAYER
  5
21A
100
AcDbSymbolTableRecord
100
AcDbLayerTableRecord
  2
7
 70
     0
 62
     7
  6
CONTINUOUS
370
    -3
390

  0
LAYER
  5
21B
100
AcDbSymbolTableRecord
100
AcDbLayerTableRecord
  2
DXF1023
 70
     0
 62
    16
  6
CONTINUOUS
370
    -3
390

  0
ENDTAB
  0
TABLE
  2
STYLE
  5
21C
100
AcDbSymbolTable
 70
     4
  0
STYLE
  5
21D
100
AcDbSymbolTableRecord
100
AcDbTextStyleTableRecord
  2
STANDARD
 70
    64
 40
0.0
 41
1.0
 50
0.0
 71
     0
 42
3.000000000000000
  3
TXT
  4

  0
STYLE
  5
21E
100
AcDbSymbolTableRecord
100
AcDbTextStyleTableRecord
  2
ANKTATE
 70
    68
 40
0.0
 41
1.0
 50
0.0
 71
     0
 42
3.000000000000000
  3
TXT
  4

  0
STYLE
  5
21F
100
AcDbSymbolTableRecord
100
AcDbTextStyleTableRecord
  2
KNJYOKO
 70
    64
 40
0.0
 41
1.0
 50
0.0
 71
     0
 42
3.000000000000000
  3
TXT
  4
BIGFONT
  0
STYLE
  5
220
100
AcDbSymbolTableRecord
100
AcDbTextStyleTableRecord
  2
KNJTATE
 70
    68
 40
0.0
 41
1.0
 50
0.0
 71
     0
 42
3.000000000000000
  3
TXT
  4
BIGFONT
  0
ENDTAB
  0
TABLE
  2
VIEW
  5
221
100
AcDbSymbolTable
 70
     0
  0
ENDTAB
  0
TABLE
  2
UCS
  5
222
100
AcDbSymbolTable
 70
     0
  0
ENDTAB
  0
TABLE
  2
APPID
  5
223
100
AcDbSymbolTable
 70
     1
  0
APPID
  5
224
100
AcDbSymbolTableRecord
100
AcDbRegAppTableRecord
  2
ACAD
 70
     0
  0
ENDTAB
  0
TABLE
  2
DIMSTYLE
  5
225
100
AcDbSymbolTable
 70
     2
100
AcDbDimStyleTable
  0
DIMSTYLE
105
226
100
AcDbSymbolTableRecord
100
AcDbDimStyleTableRecord
  2
STANDARD
 70
     0
 41
2.000000
 44
1.500000
 42
0.800000
145
0.661290
140
3.100000
144
1.000000
146
0.645161
340
21D
  0
DIMSTYLE
105
227
100
AcDbSymbolTableRecord
100
AcDbDimStyleTableRecord
  2
DXF001
 70
     0
 41
2.000000
 44
1.500000
 42
0.800000
145
0.661290
140
3.100000
144
1.000000
146
0.645161
 77
     1
 73
     0
 74
     0
271
     2
179
     2
275
     0
 78
     8
 79
     2
172
     1
340
21D
  0
ENDTAB
  0
TABLE
  2
BLOCK_RECORD
  5
228
100
AcDbSymbolTable
 70
    12
  0
BLOCK_RECORD
  5
229
100
AcDbSymbolTableRecord
100
AcDbBlockTableRecord
  2
*MODEL_SPACE
  0
BLOCK_RECORD
  5
22A
100
AcDbSymbolTableRecord
100
AcDbBlockTableRecord
  2
*PAPER_SPACE
  0
BLOCK_RECORD
  5
22B
100
AcDbSymbolTableRecord
100
AcDbBlockTableRecord
  2
*PAPER_SPACE0
  0
BLOCK_RECORD
  5
1
100
AcDbSymbolTableRecord
100
AcDbBlockTableRecord
  2
_NONE
  0
BLOCK_RECORD
  5
4
100
AcDbSymbolTableRecord
100
AcDbBlockTableRecord
  2
_CLOSED
  0
BLOCK_RECORD
  5
B
100
AcDbSymbolTableRecord
100
AcDbBlockTableRecord
  2
_DOT
  0
BLOCK_RECORD
  5
13
100
AcDbSymbolTableRecord
100
AcDbBlockTableRecord
  2
_OPEN
  0
BLOCK_RECORD
  5
19
100
AcDbSymbolTableRecord
100
AcDbBlockTableRecord
  2
_ORIGIN
  0
BLOCK_RECORD
  5
1E
100
AcDbSymbolTableRecord
100
AcDbBlockTableRecord
  2
_OPEN30
  0
BLOCK_RECORD
  5
24
100
AcDbSymbolTableRecord
100
AcDbBlockTableRecord
  2
_BOXFILLED
  0
BLOCK_RECORD
  5
29
100
AcDbSymbolTableRecord
100
AcDbBlockTableRecord
  2
_BOXBLANK
  0
BLOCK_RECORD
  5
31
100
AcDbSymbolTableRecord
100
AcDbBlockTableRecord
  2
_OBLIQUE
  0
BLOCK_RECORD
  5
35
100
AcDbSymbolTableRecord
100
AcDbBlockTableRecord
  2
_OPEN90
  0
BLOCK_RECORD
  5
3B
100
AcDbSymbolTableRecord
100
AcDbBlockTableRecord
  2
_CLOSEDBLANK
  0
BLOCK_RECORD
  5
41
100
AcDbSymbolTableRecord
100
AcDbBlockTableRecord
  2
_DOTBLANK
  0
ENDTAB
  0
ENDSEC
  0
SECTION
  2
BLOCKS
  0
BLOCK
  5
22C
100
AcDbEntity
  8
0
100
AcDbBlockBegin
  2
*MODEL_SPACE
 70
     0
 10
0.0
 20
0.0
 30
0.0
  3
*MODEL_SPACE
  1

  0
ENDBLK
  5
22D
100
AcDbEntity
  8
0
100
AcDbBlockEnd
  0
BLOCK
  5
22E
100
AcDbEntity
  8
0
100
AcDbBlockBegin
  2
*PAPER_SPACE
 70
     0
 10
0.0
 20
0.0
 30
0.0
  3
*PAPER_SPACE
  1

  0
ENDBLK
  5
22F
100
AcDbEntity
  8
0
100
AcDbBlockEnd
  0
BLOCK
  5
230
100
AcDbEntity
  8
0
100
AcDbBlockBegin
  2
*PAPER_SPACE0
 70
     0
 10
0.0
 20
0.0
 30
0.0
  3
*PAPER_SPACE0
  1

  0
ENDBLK
  5
231
100
AcDbEntity
  8
0
100
AcDbBlockEnd
  0
BLOCK
  5
2
330
1
100
AcDbEntity
  8
0
100
AcDbBlockBegin
  2
_NONE
 70
     0
 10
0.0
 20
0.0
 30
0.0
  3
_NONE
  1

  0
ENDBLK
  5
3
330
1
100
AcDbEntity
  8
0
100
AcDbBlockEnd
  0
BLOCK
  5
5
330
4
100
AcDbEntity
  8
0
100
AcDbBlockBegin
  2
_CLOSED
 70
     0
 10
0.0
 20
0.0
 30
0.0
  3
_CLOSED
  1

  0
LINE
  5
6
330
4
100
AcDbEntity
  8
0
  6
BYBLOCK
 62
     0
370
    -2
100
AcDbLine
 10
-1.0
 20
0.166667
 30
0.0
 11
0.0
 21
0.0
 31
0.0
  0
LINE
  5
7
330
4
100
AcDbEntity
  8
0
  6
BYBLOCK
 62
     0
370
    -2
100
AcDbLine
 10
0.0
 20
0.0
 30
0.0
 11
-1.0
 21
-0.166667
 31
0.0
  0
LINE
  5
8
330
4
100
AcDbEntity
  8
0
  6
BYBLOCK
 62
     0
370
    -2
100
AcDbLine
 10
-1.0
 20
0.166667
 30
0.0
 11
-1.0
 21
-0.166667
 31
0.0
  0
LINE
  5
9
330
4
100
AcDbEntity
  8
0
  6
BYBLOCK
 62
     0
370
    -2
100
AcDbLine
 10
0.0
 20
0.0
 30
0.0
 11
-1.0
 21
0.0
 31
0.0
  0
ENDBLK
  5
A
330
4
100
AcDbEntity
  8
0
100
AcDbBlockEnd
  0
BLOCK
  5
C
330
B
100
AcDbEntity
  8
0
100
AcDbBlockBegin
  2
_DOT
 70
     0
 10
0.0
 20
0.0
 30
0.0
  3
_DOT
  1

  0
POLYLINE
  5
D
330
B
100
AcDbEntity
  8
0
  6
BYBLOCK
 62
     0
370
    -2
100
AcDb2dPolyline
 66
     1
 10
0.0
 20
0.0
 30
0.0
 70
     1
 40
0.5
 41
0.5
  0
VERTEX
  5
E
330
B
100
AcDbEntity
  8
0
  6
BYBLOCK
 62
     0
370
    -2
100
AcDbVertex
100
AcDb2dVertex
 10
-0.25
 20
0.0
 30
0.0
 42
1.0
  0
VERTEX
  5
F
330
B
100
AcDbEntity
  8
0
  6
BYBLOCK
 62
     0
370
    -2
100
AcDbVertex
100
AcDb2dVertex
 10
0.25
 20
0.0
 30
0.0
 42
1.0
  0
SEQEND
  5
10
330
B
100
AcDbEntity
  8
0
  6
BYBLOCK
 62
     0
370
    -2
  0
LINE
  5
11
330
B
100
AcDbEntity
  8
0
  6
BYBLOCK
 62
     0
370
    -2
100
AcDbLine
 10
-0.5
 20
0.0
 30
0.0
 11
-1.0
 21
0.0
 31
0.0
  0
ENDBLK
  5
12
330
B
100
AcDbEntity
  8
0
100
AcDbBlockEnd
  0
BLOCK
  5
14
330
13
100
AcDbEntity
  8
0
100
AcDbBlockBegin
  2
_OPEN
 70
     0
 10
0.0
 20
0.0
 30
0.0
  3
_OPEN
  1

  0
LINE
  5
15
330
13
100
AcDbEntity
  8
0
  6
BYBLOCK
 62
     0
370
    -2
100
AcDbLine
 10
-1.0
 20
0.166667
 30
0.0
 11
0.0
 21
0.0
 31
0.0
  0
LINE
  5
16
330
13
100
AcDbEntity
  8
0
  6
BYBLOCK
 62
     0
370
    -2
100
AcDbLine
 10
0.0
 20
0.0
 30
0.0
 11
-1.0
 21
-0.166667
 31
0.0
  0
LINE
  5
17
330
13
100
AcDbEntity
  8
0
  6
BYBLOCK
 62
     0
370
    -2
100
AcDbLine
 10
0.0
 20
0.0
 30
0.0
 11
-1.0
 21
0.0
 31
0.0
  0
ENDBLK
  5
18
330
13
100
AcDbEntity
  8
0
100
AcDbBlockEnd
  0
BLOCK
  5
1A
330
19
100
AcDbEntity
  8
0
100
AcDbBlockBegin
  2
_ORIGIN
 70
     0
 10
0.0
 20
0.0
 30
0.0
  3
_ORIGIN
  1

  0
CIRCLE
  5
1B
330
19
100
AcDbEntity
  8
0
  6
BYBLOCK
 62
     0
370
    -2
100
AcDbCircle
 10
0.0
 20
0.0
 30
0.0
 40
0.5
  0
LINE
  5
1C
330
19
100
AcDbEntity
  8
0
  6
BYBLOCK
 62
     0
370
    -2
100
AcDbLine
 10
0.0
 20
0.0
 30
0.0
 11
-1.0
 21
0.0
 31
0.0
  0
ENDBLK
  5
1D
330
19
100
AcDbEntity
  8
0
100
AcDbBlockEnd
  0
BLOCK
  5
1F
330
1E
100
AcDbEntity
  8
0
100
AcDbBlockBegin
  2
_OPEN30
 70
     0
 10
0.0
 20
0.0
 30
0.0
  3
_OPEN30
  1

  0
LINE
  5
20
330
1E
100
AcDbEntity
  8
0
  6
BYBLOCK
 62
     0
370
    -2
100
AcDbLine
 10
-1.0
 20
0.267949
 30
0.0
 11
0.0
 21
0.0
 31
0.0
  0
LINE
  5
21
330
1E
100
AcDbEntity
  8
0
  6
BYBLOCK
 62
     0
370
    -2
100
AcDbLine
 10
0.0
 20
0.0
 30
0.0
 11
-1.0
 21
-0.267949
 31
0.0
  0
LINE
  5
22
330
1E
100
AcDbEntity
  8
0
  6
BYBLOCK
 62
     0
370
    -2
100
AcDbLine
 10
0.0
 20
0.0
 30
0.0
 11
-1.0
 21
0.0
 31
0.0
  0
ENDBLK
  5
23
330
1E
100
AcDbEntity
  8
0
100
AcDbBlockEnd
  0
BLOCK
  5
25
330
24
100
AcDbEntity
  8
0
100
AcDbBlockBegin
  2
_BOXFILLED
 70
     0
 10
0.0
 20
0.0
 30
0.0
  3
_BOXFILLED
  1

  0
SOLID
  5
26
330
24
100
AcDbEntity
  8
0
  6
BYBLOCK
 62
     0
370
    -2
100
AcDbTrace
 10
-0.5
 20
0.5
 30
0.0
 11
0.5
 21
0.5
 31
0.0
 12
-0.5
 22
-0.5
 32
0.0
 13
0.5
 23
-0.5
 33
0.0
  0
LINE
  5
27
330
24
100
AcDbEntity
  8
0
  6
BYBLOCK
 62
     0
370
    -2
100
AcDbLine
 10
-0.5
 20
0.0
 30
0.0
 11
-1.0
 21
0.0
 31
0.0
  0
ENDBLK
  5
28
330
24
100
AcDbEntity
  8
0
100
AcDbBlockEnd
  0
BLOCK
  5
2A
330
29
100
AcDbEntity
  8
0
100
AcDbBlockBegin
  2
_BOXBLANK
 70
     0
 10
0.0
 20
0.0
 30
0.0
  3
_BOXBLANK
  1

  0
LINE
  5
2B
330
29
100
AcDbEntity
  8
0
  6
BYBLOCK
 62
     0
370
    -2
100
AcDbLine
 10
-0.5
 20
-0.5
 30
0.0
 11
0.5
 21
-0.5
 31
0.0
  0
LINE
  5
2C
330
29
100
AcDbEntity
  8
0
  6
BYBLOCK
 62
     0
370
    -2
100
AcDbLine
 10
0.5
 20
-0.5
 30
0.0
 11
0.5
 21
0.5
 31
0.0
  0
LINE
  5
2D
330
29
100
AcDbEntity
  8
0
  6
BYBLOCK
 62
     0
370
    -2
100
AcDbLine
 10
0.5
 20
0.5
 30
0.0
 11
-0.5
 21
0.5
 31
0.0
  0
LINE
  5
2E
330
29
100
AcDbEntity
  8
0
  6
BYBLOCK
 62
     0
370
    -2
100
AcDbLine
 10
-0.5
 20
0.5
 30
0.0
 11
-0.5
 21
-0.5
 31
0.0
  0
LINE
  5
2F
330
29
100
AcDbEntity
  8
0
  6
BYBLOCK
 62
     0
370
    -2
100
AcDbLine
 10
-0.5
 20
0.0
 30
0.0
 11
-1.0
 21
0.0
 31
0.0
  0
ENDBLK
  5
30
330
29
100
AcDbEntity
  8
0
100
AcDbBlockEnd
  0
BLOCK
  5
32
330
31
100
AcDbEntity
  8
0
100
AcDbBlockBegin
  2
_OBLIQUE
 70
     0
 10
0.0
 20
0.0
 30
0.0
  3
_OBLIQUE
  1

  0
LINE
  5
33
330
31
100
AcDbEntity
  8
0
  6
BYBLOCK
 62
     0
370
    -2
100
AcDbLine
 10
-0.5
 20
-0.5
 30
0.0
 11
0.5
 21
0.5
 31
0.0
  0
ENDBLK
  5
34
330
31
100
AcDbEntity
  8
0
100
AcDbBlockEnd
  0
BLOCK
  5
36
330
35
100
AcDbEntity
  8
0
100
AcDbBlockBegin
  2
_OPEN90
 70
     0
 10
0.0
 20
0.0
 30
0.0
  3
_OPEN90
  1

  0
LINE
  5
37
330
35
100
AcDbEntity
  8
0
  6
BYBLOCK
 62
     0
370
    -2
100
AcDbLine
 10
-0.5
 20
0.5
 30
0.0
 11
0.0
 21
0.0
 31
0.0
  0
LINE
  5
38
330
35
100
AcDbEntity
  8
0
  6
BYBLOCK
 62
     0
370
    -2
100
AcDbLine
 10
0.0
 20
0.0
 30
0.0
 11
-0.5
 21
-0.5
 31
0.0
  0
LINE
  5
39
330
35
100
AcDbEntity
  8
0
  6
BYBLOCK
 62
     0
370
    -2
100
AcDbLine
 10
0.0
 20
0.0
 30
0.0
 11
-1.0
 21
0.0
 31
0.0
  0
ENDBLK
  5
3A
330
35
100
AcDbEntity
  8
0
100
AcDbBlockEnd
  0
BLOCK
  5
3C
330
3B
100
AcDbEntity
  8
0
100
AcDbBlockBegin
  2
_CLOSEDBLANK
 70
     0
 10
0.0
 20
0.0
 30
0.0
  3
_CLOSEDBLANK
  1

  0
LINE
  5
3D
330
3B
100
AcDbEntity
  8
0
  6
BYBLOCK
 62
     0
370
    -2
100
AcDbLine
 10
-1.0
 20
0.1666666666666666
 30
0.0
 11
0.0
 21
0.0
 31
0.0
  0
LINE
  5
3E
330
3B
100
AcDbEntity
  8
0
  6
BYBLOCK
 62
     0
370
    -2
100
AcDbLine
 10
0.0
 20
0.0
 30
0.0
 11
-1.0
 21
-0.1666666666666666
 31
0.0
  0
LINE
  5
3F
330
3B
100
AcDbEntity
  8
0
  6
BYBLOCK
 62
     0
370
    -2
100
AcDbLine
 10
-1.0
 20
0.1666666666666666
 30
0.0
 11
-1.0
 21
-0.1666666666666666
 31
0.0
  0
ENDBLK
  5
40
330
3B
100
AcDbEntity
  8
0
100
AcDbBlockEnd
  0
BLOCK
  5
42
330
41
100
AcDbEntity
  8
0
100
AcDbBlockBegin
  2
_DOTBLANK
 70
     0
 10
0.0
 20
0.0
 30
0.0
  3
_DOTBLANK
  1

  0
CIRCLE
  5
43
330
41
100
AcDbEntity
  8
0
  6
BYBLOCK
 62
     0
370
    -2
100
AcDbCircle
 10
0.0
 20
0.0
 30
0.0
 40
0.5
  0
LINE
  5
44
330
41
100
AcDbEntity
  8
0
  6
BYBLOCK
 62
     0
370
    -2
100
AcDbLine
 10
-0.5
 20
0.0
 30
0.0
 11
-1.0
 21
0.0
 31
0.0
  0
ENDBLK
  5
45
330
41
100
AcDbEntity
  8
0
100
AcDbBlockEnd
  0
ENDSEC
  0
SECTION
  2
ENTITIES
  0
MTEXT
  5
46
100
AcDbEntity
  8
7
  6
CONTINUOUS
 62
7
100
AcDbMText
 10
10.00000000000000
 20
18.00000000000000
 30
0.000000000000000
 40
3.000000000000000
 41
0.000000000000000
 44
0.6739999771118164
 71
     7
 72
     1
  1
{\H0.93x;{TYPE No.TL-3K-1}}
 11
1.000000000000000
 21
0.000000000000000
 31
0.000000000000000
  7
STANDARD
  0
LINE
  5
47
100
AcDbEntity
  8
1
  6
CONTINUOUS
 62
7
100
AcDbLine
 10
174.0433559999999
 20
150.6791950000000
 30
0.000000000000000
 11
174.0433559999999
 21
99.67919500000001
 31
0.000000000000000
  0
LINE
  5
48
100
AcDbEntity
  8
1
  6
CONTINUOUS
 62
7
100
AcDbLine
 10
172.5433559999999
 20
143.8791949999998
 30
0.000000000000000
 11
172.5433559999999
 21
124.6791949999998
 31
0.000000000000000
  0
LINE
  5
49
100
AcDbEntity
  8
1
  6
CONTINUOUS
 62
7
100
AcDbLine
 10
174.0433559999999
 20
99.67919500000001
 30
0.000000000000000
 11
172.5433559999999
 21
99.67919500000001
 31
0.000000000000000
  0
LINE
  5
4A
100
AcDbEntity
  8
1
  6
CONTINUOUS
 62
7
100
AcDbLine
 10
174.0433559999999
 20
150.6791950000000
 30
0.000000000000000
 11
171.6263559999999
 21
150.6791950000000
 31
0.000000000000000
  0
LINE
  5
4B
100
AcDbEntity
  8
1
  6
CONTINUOUS
 62
7
100
AcDbLine
 10
174.0433559999999
 20
143.8791949999998
 30
0.000000000000000
 11
172.0143559999999
 21
143.8791949999998
 31
0.000000000000000
  0
LINE
  5
4C
100
AcDbEntity
  8
1
  6
CONTINUOUS
 62
7
100
AcDbLine
 10
174.0433559999999
 20
126.6791949999998
 30
0.000000000000000
 11
172.5433559999999
 21
126.6791949999998
 31
0.000000000000000
  0
LINE
  5
4D
100
AcDbEntity
  8
1
  6
CONTINUOUS
 62
7
100
AcDbLine
 10
174.0433559999999
 20
110.6791949999998
 30
0.000000000000000
 11
169.8483460000000
 21
110.6791949999998
 31
0.000000000000000
  0
LINE
  5
4E
100
AcDbEntity
  8
1
  6
CONTINUOUS
 62
7
100
AcDbLine
 10
174.0433559999999
 20
119.6791949999998
 30
0.000000000000000
 11
172.4123559999999
 21
119.6791949999998
 31
0.000000000000000
  0
LINE
  5
4F
100
AcDbEntity
  8
4
  6
CENTER
 62
1
100
AcDbLine
 10
165.5433559999999
 20
119.6791949999998
 30
0.000000000000000
 11
165.5433559999999
 21
110.6791949999998
 31
0.000000000000000
  0
LINE
  5
50
100
AcDbEntity
  8
4
  6
CENTER
 62
1
100
AcDbLine
 10
170.0433560000000
 20
115.1791950000000
 30
0.000000000000000
 11
161.0433559999999
 21
115.1791950000000
 31
0.000000000000000
  0
LINE
  5
51
100
AcDbEntity
  8
1
  6
CONTINUOUS
 62
7
100
AcDbLine
 10
174.0433559999999
 20
121.6791949999998
 30
0.000000000000000
 11
172.3793560000000
 21
121.6791949999998
 31
0.000000000000000
  0
LINE
  5
52
100
AcDbEntity
  8
1
  6
CONTINUOUS
 62
7
100
AcDbLine
 10
174.0433559999999
 20
124.6791949999998
 30
0.000000000000000
 11
172.3303559999999
 21
124.6791949999998
 31
0.000000000000000
  0
LINE
  5
53
100
AcDbEntity
  8
1
  6
CONTINUOUS
 62
7
100
AcDbLine
 10
172.5433559999999
 20
121.6791949999998
 30
0.000000000000000
 11
172.5433559999999
 21
119.6791949999998
 31
0.000000000000000
  0
LINE
  5
54
100
AcDbEntity
  8
1
  6
CONTINUOUS
 62
7
100
AcDbLine
 10
172.5433559999999
 20
110.6791949999998
 30
0.000000000000000
 11
172.5433559999999
 21
99.67919500000001
 31
0.000000000000000
  0
LINE
  5
55
100
AcDbEntity
  8
4
  6
CENTER
 62
1
100
AcDbLine
 10
303.0433560000000
 20
169.7801949999998
 30
0.000000000000000
 11
303.0433560000000
 21
94.67919499999998
 31
0.000000000000000
  0
LINE
  5
56
100
AcDbEntity
  8
1
  6
CONTINUOUS
 62
7
100
AcDbLine
 10
294.0933560000000
 20
150.6791950000000
 30
0.000000000000000
 11
311.9933560000000
 21
150.6791950000000
 31
0.000000000000000
  0
LINE
  5
57
100
AcDbEntity
  8
1
  6
CONTINUOUS
 62
7
100
AcDbLine
 10
294.0933560000000
 20
150.6791950000000
 30
0.000000000000000
 11
294.0933560000000
 21
143.8791949999998
 31
0.000000000000000
  0
LINE
  5
58
100
AcDbEntity
  8
1
  6
CONTINUOUS
 62
7
100
AcDbLine
 10
311.9933560000000
 20
150.6791950000000
 30
0.000000000000000
 11
311.9933560000000
 21
143.8791949999998
 31
0.000000000000000
  0
LINE
  5
59
100
AcDbEntity
  8
1
  6
CONTINUOUS
 62
7
100
AcDbLine
 10
294.0933560000000
 20
143.8791949999998
 30
0.000000000000000
 11
297.0433560000000
 21
143.8791949999998
 31
0.000000000000000
  0
LINE
  5
5A
100
AcDbEntity
  8
1
  6
CONTINUOUS
 62
7
100
AcDbLine
 10
295.5433560000000
 20
141.3791949999998
 30
0.000000000000000
 11
297.0433560000000
 21
141.3791949999998
 31
0.000000000000000
  0
LINE
  5
5B
100
AcDbEntity
  8
1
  6
CONTINUOUS
 62
7
100
AcDbLine
 10
309.0433560000000
 20
143.8791949999998
 30
0.000000000000000
 11
309.0433560000000
 21
141.3791949999998
 31
0.000000000000000
  0
LINE
  5
5C
100
AcDbEntity
  8
1
  6
CONTINUOUS
 62
7
100
AcDbLine
 10
297.0433560000000
 20
143.8791949999998
 30
0.000000000000000
 11
297.0433560000000
 21
141.3791949999998
 31
0.000000000000000
  0
LINE
  5
5D
100
AcDbEntity
  8
1
  6
CONTINUOUS
 62
7
100
AcDbLine
 10
309.0433560000000
 20
143.8791949999998
 30
0.000000000000000
 11
311.9933560000000
 21
143.8791949999998
 31
0.000000000000000
  0
LINE
  5
5E
100
AcDbEntity
  8
1
  6
CONTINUOUS
 62
7
100
AcDbLine
 10
310.5433560000000
 20
141.3791949999998
 30
0.000000000000000
 11
310.5433560000000
 21
126.6791949999998
 31
0.000000000000000
  0
LINE
  5
5F
100
AcDbEntity
  8
1
  6
CONTINUOUS
 62
7
100
AcDbLine
 10
295.5433560000000
 20
141.3791949999998
 30
0.000000000000000
 11
295.5433560000000
 21
107.1791949999998
 31
0.000000000000000
  0
LINE
  5
60
100
AcDbEntity
  8
1
  6
CONTINUOUS
 62
7
100
AcDbLine
 10
309.0433560000000
 20
141.3791949999998
 30
0.000000000000000
 11
310.5433560000000
 21
141.3791949999998
 31
0.000000000000000
  0
LINE
  5
61
100
AcDbEntity
  8
1
  6
CONTINUOUS
 62
7
100
AcDbLine
 10
310.5433560000000
 20
126.6791949999998
 30
0.000000000000000
 11
302.2433560000000
 21
126.6791949999998
 31
0.000000000000000
  0
LINE
  5
62
100
AcDbEntity
  8
1
  6
CONTINUOUS
 62
7
100
AcDbLine
 10
302.2433560000000
 20
126.6791949999998
 30
0.000000000000000
 11
302.2433560000000
 21
124.6791949999998
 31
0.000000000000000
  0
LINE
  5
63
100
AcDbEntity
  8
1
  6
CONTINUOUS
 62
7
100
AcDbLine
 10
310.5433560000000
 20
108.6791950000000
 30
0.000000000000000
 11
302.2433560000000
 21
108.6791950000000
 31
0.000000000000000
  0
LINE
  5
64
100
AcDbEntity
  8
1
  6
CONTINUOUS
 62
7
100
AcDbLine
 10
303.7433560000000
 20
124.6791949999998
 30
0.000000000000000
 11
303.7433560000000
 21
121.6791949999998
 31
0.000000000000000
  0
LINE
  5
65
100
AcDbEntity
  8
1
  6
CONTINUOUS
 62
7
100
AcDbLine
 10
303.7433560000000
 20
110.6791949999998
 30
0.000000000000000
 11
302.2433560000000
 21
110.6791949999998
 31
0.000000000000000
  0
LINE
  5
66
100
AcDbEntity
  8
1
  6
CONTINUOUS
 62
7
100
AcDbLine
 10
303.7433560000000
 20
119.6791949999998
 30
0.000000000000000
 11
302.2433560000000
 21
119.6791949999998
 31
0.000000000000000
  0
LINE
  5
67
100
AcDbEntity
  8
1
  6
CONTINUOUS
 62
7
100
AcDbLine
 10
303.7433560000000
 20
121.6791949999998
 30
0.000000000000000
 11
302.2433560000000
 21
121.6791949999998
 31
0.000000000000000
  0
LINE
  5
68
100
AcDbEntity
  8
1
  6
CONTINUOUS
 62
7
100
AcDbLine
 10
303.7433560000000
 20
124.6791949999998
 30
0.000000000000000
 11
302.2433560000000
 21
124.6791949999998
 31
0.000000000000000
  0
LINE
  5
69
100
AcDbEntity
  8
1
  6
CONTINUOUS
 62
7
100
AcDbLine
 10
303.7433560000000
 20
119.6791949999998
 30
0.000000000000000
 11
303.7433560000000
 21
110.6791949999998
 31
0.000000000000000
  0
LINE
  5
6A
100
AcDbEntity
  8
4
  6
CENTER
 62
1
100
AcDbLine
 10
298.7933560000000
 20
138.6791949999999
 30
0.000000000000000
 11
307.2933560000000
 21
138.6791949999999
 31
0.000000000000000
  0
LINE
  5
6B
100
AcDbEntity
  8
4
  6
CENTER
 62
1
100
AcDbLine
 10
298.7933560000000
 20
104.6791950000000
 30
0.000000000000000
 11
307.2933560000000
 21
104.6791950000000
 31
0.000000000000000
  0
LINE
  5
6C
100
AcDbEntity
  8
4
  6
CENTER
 62
1
100
AcDbLine
 10
286.7933560000000
 20
147.2791949999999
 30
0.000000000000000
 11
319.2933560000000
 21
147.2791949999999
 31
0.000000000000000
  0
LINE
  5
6D
100
AcDbEntity
  8
1
  6
CONTINUOUS
 62
7
100
AcDbLine
 10
172.5433559999999
 20
108.6791950000000
 30
0.000000000000000
 11
174.0433559999999
 21
108.6791950000000
 31
0.000000000000000
  0
LINE
  5
6E
100
AcDbEntity
  8
4
  6
CENTER
 62
1
100
AcDbLine
 10
169.2383560000000
 20
141.9451949999998
 30
0.000000000000000
 11
169.2383560000000
 21
134.7451949999999
 31
0.000000000000000
  0
LINE
  5
6F
100
AcDbEntity
  8
4
  6
CENTER
 62
1
100
AcDbLine
 10
172.8383560000000
 20
138.3451949999999
 30
0.000000000000000
 11
165.6383559999999
 21
138.3451949999999
 31
0.000000000000000
  0
LINE
  5
70
100
AcDbEntity
  8
1
  6
CONTINUOUS
 62
7
100
AcDbLine
 10
21.54335600000000
 20
151.7701950000000
 30
0.000000000000000
 11
21.54335600000000
 21
108.3881950000000
 31
0.000000000000000
  0
LINE
  5
71
100
AcDbEntity
  8
1
  6
CONTINUOUS
 62
7
100
AcDbLine
 10
42.54335600000000
 20
151.7701950000000
 30
0.000000000000000
 11
42.54335600000000
 21
108.3881950000000
 31
0.000000000000000
  0
LINE
  5
72
100
AcDbEntity
  8
1
  6
CONTINUOUS
 62
7
100
AcDbLine
 10
23.04335599999999
 20
150.6791950000000
 30
0.000000000000000
 11
23.04335599999999
 21
146.9271949999999
 31
0.000000000000000
  0
LINE
  5
73
100
AcDbEntity
  8
1
  6
CONTINUOUS
 62
7
100
AcDbLine
 10
41.04335600000000
 20
150.6791950000000
 30
0.000000000000000
 11
41.04335600000000
 21
146.9271949999999
 31
0.000000000000000
  0
LINE
  5
74
100
AcDbEntity
  8
1
  6
CONTINUOUS
 62
7
100
AcDbLine
 10
30.54335599999999
 20
121.2791949999999
 30
0.000000000000000
 11
33.54335600000001
 21
121.2791949999999
 31
0.000000000000000
  0
LINE
  5
75
100
AcDbEntity
  8
1
  6
CONTINUOUS
 62
7
100
AcDbLine
 10
30.54335599999999
 20
109.2791950000000
 30
0.000000000000000
 11
33.54335600000001
 21
109.2791950000000
 31
0.000000000000000
  0
LINE
  5
76
100
AcDbEntity
  8
1
  6
CONTINUOUS
 62
7
100
AcDbLine
 10
30.54335599999999
 20
121.2791949999999
 30
0.000000000000000
 11
30.54335599999999
 21
109.2791950000000
 31
0.000000000000000
  0
LINE
  5
77
100
AcDbEntity
  8
1
  6
CONTINUOUS
 62
7
100
AcDbLine
 10
33.54335600000001
 20
121.2791949999999
 30
0.000000000000000
 11
33.54335600000001
 21
109.2791950000000
 31
0.000000000000000
  0
LINE
  5
78
100
AcDbEntity
  8
1
  6
CONTINUOUS
 62
7
100
AcDbLine
 10
43.29335600000000
 20
149.0291949999999
 30
0.000000000000000
 11
43.29335600000000
 21
145.5291949999999
 31
0.000000000000000
  0
LINE
  5
79
100
AcDbEntity
  8
1
  6
CONTINUOUS
 62
7
100
AcDbLine
 10
20.79335599999998
 20
149.0291949999999
 30
0.000000000000000
 11
20.79335599999998
 21
145.5291949999999
 31
0.000000000000000
  0
LINE
  5
7A
100
AcDbEntity
  8
1
  6
CONTINUOUS
 62
7
100
AcDbLine
 10
24.54335600000000
 20
148.7791949999999
 30
0.000000000000000
 11
25.58215600000000
 21
148.7791949999999
 31
0.000000000000000
  0
LINE
  5
7B
100
AcDbEntity
  8
1
  6
CONTINUOUS
 62
7
100
AcDbLine
 10
24.54335600000000
 20
150.6791950000000
 30
0.000000000000000
 11
24.54335600000000
 21
146.9271949999999
 31
0.000000000000000
  0
LINE
  5
7C
100
AcDbEntity
  8
1
  6
CONTINUOUS
 62
7
100
AcDbLine
 10
23.04335599999999
 20
150.6791950000000
 30
0.000000000000000
 11
24.61745600000000
 21
150.6791950000000
 31
0.000000000000000
  0
LINE
  5
7D
100
AcDbEntity
  8
1
  6
CONTINUOUS
 62
7
100
AcDbLine
 10
39.54335600000000
 20
150.6791950000000
 30
0.000000000000000
 11
39.54335600000000
 21
146.9271949999999
 31
0.000000000000000
  0
LINE
  5
7E
100
AcDbEntity
  8
1
  6
CONTINUOUS
 62
7
100
AcDbLine
 10
39.00985600000000
 20
148.7791949999999
 30
0.000000000000000
 11
39.54335600000000
 21
148.7791949999999
 31
0.000000000000000
  0
LINE
  5
7F
100
AcDbEntity
  8
1
  6
CONTINUOUS
 62
7
100
AcDbLine
 10
20.79335599999998
 20
149.0291949999999
 30
0.000000000000000
 11
21.54335600000000
 21
149.0291949999999
 31
0.000000000000000
  0
LINE
  5
80
100
AcDbEntity
  8
1
  6
CONTINUOUS
 62
7
100
AcDbLine
 10
20.79335599999998
 20
145.5291949999999
 30
0.000000000000000
 11
21.54335600000000
 21
145.5291949999999
 31
0.000000000000000
  0
LINE
  5
81
100
AcDbEntity
  8
1
  6
CONTINUOUS
 62
7
100
AcDbLine
 10
42.54335600000000
 20
149.0291949999999
 30
0.000000000000000
 11
43.29335600000000
 21
149.0291949999999
 31
0.000000000000000
  0
LINE
  5
82
100
AcDbEntity
  8
1
  6
CONTINUOUS
 62
7
100
AcDbLine
 10
42.54335600000000
 20
145.5291949999999
 30
0.000000000000000
 11
43.29335600000000
 21
145.5291949999999
 31
0.000000000000000
  0
LINE
  5
83
100
AcDbEntity
  8
1
  6
CONTINUOUS
 62
7
100
AcDbLine
 10
313.5433560000000
 20
151.7701950000000
 30
0.000000000000000
 11
313.5433560000000
 21
108.3881950000000
 31
0.000000000000000
  0
LINE
  5
84
100
AcDbEntity
  8
1
  6
CONTINUOUS
 62
7
100
AcDbLine
 10
292.5433560000000
 20
151.7701950000000
 30
0.000000000000000
 11
292.5433560000000
 21
108.3881950000000
 31
0.000000000000000
  0
LINE
  5
85
100
AcDbEntity
  8
1
  6
CONTINUOUS
 62
7
100
AcDbLine
 10
293.9433559999999
 20
151.7701950000000
 30
0.000000000000000
 11
293.9433559999999
 21
111.5251949999999
 31
0.000000000000000
  0
LINE
  5
86
100
AcDbEntity
  8
1
  6
CONTINUOUS
 62
7
100
AcDbLine
 10
292.5433560000000
 20
111.5251949999999
 30
0.000000000000000
 11
293.9433559999999
 21
111.5251949999999
 31
0.000000000000000
  0
LINE
  5
87
100
AcDbEntity
  8
1
  6
CONTINUOUS
 62
7
100
AcDbLine
 10
312.1433559999999
 20
111.5251949999999
 30
0.000000000000000
 11
313.5433560000000
 21
111.5251949999999
 31
0.000000000000000
  0
LINE
  5
88
100
AcDbEntity
  8
1
  6
CONTINUOUS
 62
7
100
AcDbLine
 10
314.2933560000000
 20
149.0291949999999
 30
0.000000000000000
 11
314.2933560000000
 21
145.5291949999999
 31
0.000000000000000
  0
LINE
  5
89
100
AcDbEntity
  8
1
  6
CONTINUOUS
 62
7
100
AcDbLine
 10
291.7933560000000
 20
149.0291949999999
 30
0.000000000000000
 11
291.7933560000000
 21
145.5291949999999
 31
0.000000000000000
  0
LINE
  5
8A
100
AcDbEntity
  8
1
  6
CONTINUOUS
 62
7
100
AcDbLine
 10
291.7933560000000
 20
145.5291949999999
 30
0.000000000000000
 11
292.5433560000000
 21
145.5291949999999
 31
0.000000000000000
  0
LINE
  5
8B
100
AcDbEntity
  8
1
  6
CONTINUOUS
 62
7
100
AcDbLine
 10
291.7933560000000
 20
149.0291949999999
 30
0.000000000000000
 11
292.5433560000000
 21
149.0291949999999
 31
0.000000000000000
  0
LINE
  5
8C
100
AcDbEntity
  8
1
  6
CONTINUOUS
 62
7
100
AcDbLine
 10
313.5433560000000
 20
149.0291949999999
 30
0.000000000000000
 11
314.2933560000000
 21
149.0291949999999
 31
0.000000000000000
  0
LINE
  5
8D
100
AcDbEntity
  8
1
  6
CONTINUOUS
 62
7
100
AcDbLine
 10
313.5433560000000
 20
145.5291949999999
 30
0.000000000000000
 11
314.2933560000000
 21
145.5291949999999
 31
0.000000000000000
  0
LINE
  5
8E
100
AcDbEntity
  8
1
  6
CONTINUOUS
 62
7
100
AcDbLine
 10
21.54335600000000
 20
151.7701950000000
 30
0.000000000000000
 11
22.94335600000000
 21
151.7701950000000
 31
0.000000000000000
  0
LINE
  5
8F
100
AcDbEntity
  8
1
  6
CONTINUOUS
 62
7
100
AcDbLine
 10
41.14335599999999
 20
151.7701950000000
 30
0.000000000000000
 11
42.54335600000000
 21
151.7701950000000
 31
0.000000000000000
  0
LINE
  5
90
100
AcDbEntity
  8
1
  6
CONTINUOUS
 62
7
100
AcDbLine
 10
292.5433560000000
 20
151.7701950000000
 30
0.000000000000000
 11
293.9433559999999
 21
151.7701950000000
 31
0.000000000000000
  0
LINE
  5
91
100
AcDbEntity
  8
1
  6
CONTINUOUS
 62
7
100
AcDbLine
 10
312.1433559999999
 20
151.7701950000000
 30
0.000000000000000
 11
313.5433560000000
 21
151.7701950000000
 31
0.000000000000000
  0
LINE
  5
92
100
AcDbEntity
  8
1
  6
CONTINUOUS
 62
7
100
AcDbLine
 10
167.2003560000000
 20
119.6791949999998
 30
0.000000000000000
 11
165.5433559999999
 21
119.6791949999998
 31
0.000000000000000
  0
LINE
  5
93
100
AcDbEntity
  8
1
  6
CONTINUOUS
 62
7
100
AcDbLine
 10
168.4873559999998
 20
110.6791949999998
 30
0.000000000000000
 11
165.5433559999999
 21
110.6791949999998
 31
0.000000000000000
  0
LINE
  5
94
100
AcDbEntity
  8
4
  6
CENTER
 62
1
100
AcDbLine
 10
170.5433559999999
 20
138.6791949999999
 30
0.000000000000000
 11
176.0433559999999
 21
138.6791949999999
 31
0.000000000000000
  0
LINE
  5
95
100
AcDbEntity
  8
1
  6
CONTINUOUS
 62
7
100
AcDbLine
 10
31.34335599999999
 20
119.6791949999998
 30
0.000000000000000
 11
32.84335600000000
 21
119.6791949999998
 31
0.000000000000000
  0
LINE
  5
96
100
AcDbEntity
  8
1
  6
CONTINUOUS
 62
7
100
AcDbLine
 10
31.34335599999999
 20
110.6791949999998
 30
0.000000000000000
 11
32.84335600000000
 21
110.6791949999998
 31
0.000000000000000
  0
LINE
  5
97
100
AcDbEntity
  8
4
  6
CENTER
 62
1
100
AcDbLine
 10
29.29335599999999
 20
115.1791950000000
 30
0.000000000000000
 11
34.79335600000001
 21
115.1791950000000
 31
0.000000000000000
  0
LINE
  5
98
100
AcDbEntity
  8
1
  6
CONTINUOUS
 62
7
100
AcDbLine
 10
68.04335600000000
 20
245.0621950000000
 30
0.000000000000000
 11
96.04335600000000
 21
245.0621950000000
 31
0.000000000000000
  0
LINE
  5
99
100
AcDbEntity
  8
1
  6
CONTINUOUS
 62
7
100
AcDbLine
 10
22.94335600000000
 20
233.0741950000000
 30
0.000000000000000
 11
41.14335599999999
 21
233.0741950000000
 31
0.000000000000000
  0
LINE
  5
9A
100
AcDbEntity
  8
4
  6
CENTER
 62
1
100
AcDbLine
 10
32.04335600000000
 20
250.0621950000000
 30
0.000000000000000
 11
32.04335600000000
 21
228.0741950000000
 31
0.000000000000000
  0
LINE
  5
9B
100
AcDbEntity
  8
1
  6
CONTINUOUS
 62
7
100
AcDbLine
 10
23.09335600000000
 20
235.5621950000000
 30
0.000000000000000
 11
24.59335600000000
 21
235.5621950000000
 31
0.000000000000000
  0
LINE
  5
9C
100
AcDbEntity
  8
1
  6
CONTINUOUS
 62
7
100
AcDbLine
 10
24.59335600000000
 20
240.1621950000000
 30
0.000000000000000
 11
24.59335600000000
 21
235.5621950000000
 31
0.000000000000000
  0
LINE
  5
9D
100
AcDbEntity
  8
1
  6
CONTINUOUS
 62
7
100
AcDbLine
 10
39.49335599999999
 20
240.1621950000000
 30
0.000000000000000
 11
39.49335599999999
 21
235.5621950000000
 31
0.000000000000000
  0
LINE
  5
9E
100
AcDbEntity
  8
1
  6
CONTINUOUS
 62
7
100
AcDbLine
 10
39.49335599999999
 20
235.5621950000000
 30
0.000000000000000
 11
40.99335599999998
 21
235.5621950000000
 31
0.000000000000000
  0
LINE
  5
9F
100
AcDbEntity
  8
4
  6
CENTER
 62
1
100
AcDbLine
 10
15.79335600000000
 20
239.0621950000000
 30
0.000000000000000
 11
48.29335600000000
 21
239.0621950000000
 31
0.000000000000000
  0
LINE
  5
A0
100
AcDbEntity
  8
1
  6
CONTINUOUS
 62
7
100
AcDbLine
 10
22.94335600000000
 20
237.5621950000000
 30
0.000000000000000
 11
23.09335600000000
 21
237.5621950000000
 31
0.000000000000000
  0
LINE
  5
A1
100
AcDbEntity
  8
1
  6
CONTINUOUS
 62
7
100
AcDbLine
 10
20.79335599999998
 20
239.7305299999999
 30
0.000000000000000
 11
20.79335599999998
 21
237.3121950000000
 31
0.000000000000000
  0
LINE
  5
A2
100
AcDbEntity
  8
1
  6
CONTINUOUS
 62
7
100
AcDbLine
 10
43.29335600000000
 20
239.7305299999999
 30
0.000000000000000
 11
43.29335600000000
 21
237.3121950000000
 31
0.000000000000000
  0
LINE
  5
A3
100
AcDbEntity
  8
1
  6
CONTINUOUS
 62
7
100
AcDbLine
 10
20.79335599999998
 20
237.3121950000000
 30
0.000000000000000
 11
21.54335600000000
 21
237.3121950000000
 31
0.000000000000000
  0
LINE
  5
A4
100
AcDbEntity
  8
1
  6
CONTINUOUS
 62
7
100
AcDbLine
 10
42.54335600000000
 20
237.3121950000000
 30
0.000000000000000
 11
43.29335600000000
 21
237.3121950000000
 31
0.000000000000000
  0
LINE
  5
A5
100
AcDbEntity
  8
1
  6
CONTINUOUS
 62
7
100
AcDbLine
 10
40.99335599999998
 20
237.5621950000000
 30
0.000000000000000
 11
41.14335599999999
 21
237.5621950000000
 31
0.000000000000000
  0
LINE
  5
A6
100
AcDbEntity
  8
1
  6
CONTINUOUS
 62
7
100
AcDbLine
 10
68.04335600000000
 20
243.5621950000000
 30
0.000000000000000
 11
96.04335600000000
 21
243.5621950000000
 31
0.000000000000000
  0
LINE
  5
A7
100
AcDbEntity
  8
1
  6
CONTINUOUS
 62
7
100
AcDbLine
 10
31.29335600000000
 20
232.0621950000000
 30
0.000000000000000
 11
32.79335600000000
 21
232.0621950000000
 31
0.000000000000000
  0
LINE
  5
A8
100
AcDbEntity
  8
1
  6
CONTINUOUS
 62
7
100
AcDbLine
 10
31.29335600000000
 20
233.0741950000000
 30
0.000000000000000
 11
31.29335600000000
 21
232.0621950000000
 31
0.000000000000000
  0
LINE
  5
A9
100
AcDbEntity
  8
1
  6
CONTINUOUS
 62
7
100
AcDbLine
 10
32.79335600000000
 20
233.0741950000000
 30
0.000000000000000
 11
32.79335600000000
 21
232.0621950000000
 31
0.000000000000000
  0
LINE
  5
AA
100
AcDbEntity
  8
1
  6
CONTINUOUS
 62
7
100
AcDbLine
 10
68.04335600000000
 20
245.0621950000000
 30
0.000000000000000
 11
68.04335600000000
 21
243.5621950000000
 31
0.000000000000000
  0
LINE
  5
AB
100
AcDbEntity
  8
1
  6
CONTINUOUS
 62
7
100
AcDbLine
 10
96.04335600000000
 20
245.0621950000000
 30
0.000000000000000
 11
96.04335600000000
 21
243.5621950000000
 31
0.000000000000000
  0
LINE
  5
AC
100
AcDbEntity
  8
1
  6
CONTINUOUS
 62
7
100
AcDbLine
 10
76.04335600000000
 20
236.0621950000000
 30
0.000000000000000
 11
88.04335599999997
 21
236.0621950000000
 31
0.000000000000000
  0
LINE
  5
AD
100
AcDbEntity
  8
1
  6
CONTINUOUS
 62
7
100
AcDbLine
 10
76.04335600000000
 20
237.0681950000000
 30
0.000000000000000
 11
88.04335599999997
 21
237.0681950000000
 31
0.000000000000000
  0
LINE
  5
AE
100
AcDbEntity
  8
1
  6
CONTINUOUS
 62
7
100
AcDbLine
 10
42.54335600000000
 20
45.27449500000000
 30
0.000000000000000
 11
42.54335600000000
 21
54.36189500000000
 31
0.000000000000000
  0
LINE
  5
AF
100
AcDbEntity
  8
1
  6
CONTINUOUS
 62
7
100
AcDbLine
 10
22.94335600000000
 20
55.76189499999999
 30
0.000000000000000
 11
31.29335600000000
 21
55.76189499999999
 31
0.000000000000000
  0
LINE
  5
B0
100
AcDbEntity
  8
1
  6
CONTINUOUS
 62
7
100
AcDbLine
 10
21.54335600000000
 20
45.27449500000000
 30
0.000000000000000
 11
21.54335600000000
 21
54.36189500000000
 31
0.000000000000000
  0
LINE
  5
B1
100
AcDbEntity
  8
1
  6
CONTINUOUS
 62
7
100
AcDbLine
 10
22.94335600000000
 20
45.27449500000000
 30
0.000000000000000
 11
22.94335600000000
 21
47.50259500000000
 31
0.000000000000000
  0
LINE
  5
B2
100
AcDbEntity
  8
1
  6
CONTINUOUS
 62
7
100
AcDbLine
 10
41.14335599999999
 20
45.27449500000000
 30
0.000000000000000
 11
41.14335599999999
 21
47.50259500000000
 31
0.000000000000000
  0
LINE
  5
B3
100
AcDbEntity
  8
4
  6
CENTER
 62
1
100
AcDbLine
 10
32.04335600000000
 20
38.77449500000000
 30
0.000000000000000
 11
32.04335600000000
 21
60.76189499999999
 31
0.000000000000000
  0
LINE
  5
B4
100
AcDbEntity
  8
1
  6
CONTINUOUS
 62
7
100
AcDbLine
 10
23.09335600000000
 20
45.27449500000000
 30
0.000000000000000
 11
23.09335600000000
 21
47.07919500000000
 31
0.000000000000000
  0
LINE
  5
B5
100
AcDbEntity
  8
1
  6
CONTINUOUS
 62
7
100
AcDbLine
 10
40.99335599999998
 20
45.27449500000000
 30
0.000000000000000
 11
40.99335599999998
 21
47.07919500000000
 31
0.000000000000000
  0
LINE
  5
B6
100
AcDbEntity
  8
1
  6
CONTINUOUS
 62
7
100
AcDbLine
 10
24.59335600000000
 20
45.27449500000000
 30
0.000000000000000
 11
24.59335600000000
 21
47.07919500000000
 31
0.000000000000000
  0
LINE
  5
B7
100
AcDbEntity
  8
1
  6
CONTINUOUS
 62
7
100
AcDbLine
 10
39.49335599999999
 20
45.27449500000000
 30
0.000000000000000
 11
39.49335599999999
 21
47.07919500000000
 31
0.000000000000000
  0
LINE
  5
B8
100
AcDbEntity
  8
1
  6
CONTINUOUS
 62
7
100
AcDbLine
 10
20.79335599999998
 20
50.07919499999999
 30
0.000000000000000
 11
20.79335599999998
 21
51.52449500000000
 31
0.000000000000000
  0
LINE
  5
B9
100
AcDbEntity
  8
1
  6
CONTINUOUS
 62
7
100
AcDbLine
 10
43.29335600000000
 20
50.07919499999999
 30
0.000000000000000
 11
43.29335600000000
 21
51.52449500000000
 31
0.000000000000000
  0
LINE
  5
BA
100
AcDbEntity
  8
1
  6
CONTINUOUS
 62
7
100
AcDbLine
 10
25.04335600000000
 20
45.27449500000000
 30
0.000000000000000
 11
25.04335600000000
 21
47.07919500000000
 31
0.000000000000000
  0
LINE
  5
BB
100
AcDbEntity
  8
1
  6
CONTINUOUS
 62
7
100
AcDbLine
 10
26.04335600000000
 20
45.27449500000000
 30
0.000000000000000
 11
26.04335600000000
 21
47.07919500000000
 31
0.000000000000000
  0
LINE
  5
BC
100
AcDbEntity
  8
1
  6
CONTINUOUS
 62
7
100
AcDbLine
 10
27.88975600000000
 20
47.50259500000000
 30
0.000000000000000
 11
27.91785600000000
 21
47.37049499999999
 31
0.000000000000000
  0
LINE
  5
BD
100
AcDbEntity
  8
1
  6
CONTINUOUS
 62
7
100
AcDbLine
 10
28.91215600000000
 20
47.50259499999999
 30
0.000000000000000
 11
28.94015599999999
 21
47.37049500000000
 31
0.000000000000000
  0
LINE
  5
BE
100
AcDbEntity
  8
1
  6
CONTINUOUS
 62
7
100
AcDbLine
 10
29.93445600000001
 20
47.50259500000001
 30
0.000000000000000
 11
29.96255600000000
 21
47.37049500000001
 31
0.000000000000000
  0
LINE
  5
BF
100
AcDbEntity
  8
1
  6
CONTINUOUS
 62
7
100
AcDbLine
 10
30.95675599999999
 20
47.50259500000001
 30
0.000000000000000
 11
30.98485600000000
 21
47.37049500000000
 31
0.000000000000000
  0
LINE
  5
C0
100
AcDbEntity
  8
1
  6
CONTINUOUS
 62
7
100
AcDbLine
 10
31.97915599999999
 20
47.50259500000000
 30
0.000000000000000
 11
32.00725600000000
 21
47.37049500000001
 31
0.000000000000000
  0
LINE
  5
C1
100
AcDbEntity
  8
1
  6
CONTINUOUS
 62
7
100
AcDbLine
 10
33.00145600000000
 20
47.50259499999999
 30
0.000000000000000
 11
33.02955600000000
 21
47.37049500000000
 31
0.000000000000000
  0
LINE
  5
C2
100
AcDbEntity
  8
1
  6
CONTINUOUS
 62
7
100
AcDbLine
 10
34.02385600000001
 20
47.50259500000000
 30
0.000000000000000
 11
34.05185600000000
 21
47.37049500000000
 31
0.000000000000000
  0
LINE
  5
C3
100
AcDbEntity
  8
1
  6
CONTINUOUS
 62
7
100
AcDbLine
 10
35.04615599999999
 20
47.50259499999999
 30
0.000000000000000
 11
35.07425599999999
 21
47.37049500000000
 31
0.000000000000000
  0
LINE
  5
C4
100
AcDbEntity
  8
1
  6
CONTINUOUS
 62
7
100
AcDbLine
 10
36.06845599999999
 20
47.50259500000000
 30
0.000000000000000
 11
36.09655599999999
 21
47.37049500000000
 31
0.000000000000000
  0
LINE
  5
C5
100
AcDbEntity
  8
1
  6
CONTINUOUS
 62
7
100
AcDbLine
 10
24.54335600000000
 20
45.27449500000000
 30
0.000000000000000
 11
39.54335600000000
 21
45.27449500000000
 31
0.000000000000000
  0
LINE
  5
C6
100
AcDbEntity
  8
1
  6
CONTINUOUS
 62
7
100
AcDbLine
 10
31.29335600000000
 20
45.27449500000000
 30
0.000000000000000
 11
31.29335600000000
 21
47.00819500000000
 31
0.000000000000000
  0
LINE
  5
C7
100
AcDbEntity
  8
1
  6
CONTINUOUS
 62
7
100
AcDbLine
 10
32.79335600000000
 20
45.27449500000000
 30
0.000000000000000
 11
32.79335600000000
 21
47.07229499999999
 31
0.000000000000000
  0
LINE
  5
C8
100
AcDbEntity
  8
1
  6
CONTINUOUS
 62
7
100
AcDbLine
 10
31.29335600000000
 20
56.77449499999998
 30
0.000000000000000
 11
32.79335600000000
 21
56.77449499999998
 31
0.000000000000000
  0
LINE
  5
C9
100
AcDbEntity
  8
1
  6
CONTINUOUS
 62
7
100
AcDbLine
 10
31.29335600000000
 20
53.58479499999999
 30
0.000000000000000
 11
31.29335600000000
 21
56.77449499999998
 31
0.000000000000000
  0
LINE
  5
CA
100
AcDbEntity
  8
1
  6
CONTINUOUS
 62
7
100
AcDbLine
 10
32.79335600000000
 20
53.58479499999999
 30
0.000000000000000
 11
32.79335600000000
 21
56.77449499999998
 31
0.000000000000000
  0
LINE
  5
CB
100
AcDbEntity
  8
1
  6
CONTINUOUS
 62
7
100
AcDbLine
 10
40.99335599999998
 20
240.1621950000000
 30
0.000000000000000
 11
40.99335599999998
 21
235.5621950000000
 31
0.000000000000000
  0
LINE
  5
CC
100
AcDbEntity
  8
1
  6
CONTINUOUS
 62
7
100
AcDbLine
 10
42.54335600000000
 20
239.9529380000000
 30
0.000000000000000
 11
42.54335600000000
 21
234.4741949999999
 31
0.000000000000000
  0
LINE
  5
CD
100
AcDbEntity
  8
1
  6
CONTINUOUS
 62
7
100
AcDbLine
 10
90.04335600000000
 20
243.5621950000000
 30
0.000000000000000
 11
90.04335600000000
 21
238.0621950000000
 31
0.000000000000000
  0
LINE
  5
CE
100
AcDbEntity
  8
1
  6
CONTINUOUS
 62
7
100
AcDbLine
 10
74.04335600000000
 20
243.5621950000000
 30
0.000000000000000
 11
74.04335600000000
 21
238.0621950000000
 31
0.000000000000000
  0
LINE
  5
CF
100
AcDbEntity
  8
1
  6
CONTINUOUS
 62
7
100
AcDbLine
 10
23.09335600000000
 20
240.1621950000000
 30
0.000000000000000
 11
23.09335600000000
 21
235.5621950000000
 31
0.000000000000000
  0
LINE
  5
D0
100
AcDbEntity
  8
1
  6
CONTINUOUS
 62
7
100
AcDbLine
 10
21.54335600000000
 20
239.9529380000000
 30
0.000000000000000
 11
21.54335600000000
 21
234.4741949999999
 31
0.000000000000000
  0
LINE
  5
D1
100
AcDbEntity
  8
1
  6
CONTINUOUS
 62
7
100
AcDbLine
 10
42.54335600000000
 20
47.50259500000000
 30
0.000000000000000
 11
21.54335600000000
 21
47.50259500000000
 31
0.000000000000000
  0
LINE
  5
D2
100
AcDbEntity
  8
1
  6
CONTINUOUS
 62
7
100
AcDbLine
 10
32.79335600000000
 20
55.76189499999999
 30
0.000000000000000
 11
41.14335599999999
 21
55.76189499999999
 31
0.000000000000000
  0
LINE
  5
D3
100
AcDbEntity
  8
4
  6
CENTER
 62
1
100
AcDbLine
 10
168.0433559999999
 20
151.0291949999999
 30
0.000000000000000
 11
168.0433559999999
 21
143.5291949999998
 31
0.000000000000000
  0
LINE
  5
D4
100
AcDbEntity
  8
4
  6
CENTER
 62
1
100
AcDbLine
 10
164.2933559999999
 20
147.2791949999999
 30
0.000000000000000
 11
171.7933559999999
 21
147.2791949999999
 31
0.000000000000000
  0
LINE
  5
D5
100
AcDbEntity
  8
1
  6
CONTINUOUS
 62
7
100
AcDbLine
 10
162.0563559999999
 20
146.6461950000000
 30
0.000000000000000
 11
168.3485710000000
 21
113.6591590000000
 31
0.000000000000000
  0
LINE
  5
D6
100
AcDbEntity
  8
1
  6
CONTINUOUS
 62
7
100
AcDbLine
 10
164.2037130000000
 20
100.6246150000000
 30
0.000000000000000
 11
167.2893560000000
 21
106.5841950000000
 31
0.000000000000000
  0
LINE
  5
D7
100
AcDbEntity
  8
1
  6
CONTINUOUS
 62
7
100
AcDbLine
 10
164.0203559999999
 20
147.0211950000000
 30
0.000000000000000
 11
162.0563559999999
 21
146.6461950000000
 31
0.000000000000000
  0
LINE
  5
D8
100
AcDbEntity
  8
1
  6
CONTINUOUS
 62
7
100
AcDbLine
 10
172.4723559999999
 20
116.0561949999999
 30
0.000000000000000
 11
171.9493560000000
 21
147.8361950000000
 31
0.000000000000000
  0
LINE
  5
D9
100
AcDbEntity
  8
4
  6
CENTER
 62
1
100
AcDbLine
 10
282.2793560000000
 20
138.3451949999999
 30
0.000000000000000
 11
323.8073560000001
 21
138.3451949999999
 31
0.000000000000000
  0
LINE
  5
DA
100
AcDbEntity
  8
4
  6
CENTER
 62
1
100
AcDbLine
 10
11.27945600000000
 20
138.3451949999999
 30
0.000000000000000
 11
52.80725600000000
 21
138.3451949999999
 31
0.000000000000000
  0
LINE
  5
DB
100
AcDbEntity
  8
4
  6
CENTER
 62
1
100
AcDbLine
 10
10.79335600000000
 20
240.2571950000000
 30
0.000000000000000
 11
53.29335600000000
 21
240.2571950000000
 31
0.000000000000000
  0
LINE
  5
DC
100
AcDbEntity
  8
1
  6
CONTINUOUS
 62
7
100
AcDbLine
 10
43.29335600000000
 20
238.7571950000000
 30
0.000000000000000
 11
46.79335600000000
 21
238.7571950000000
 31
0.000000000000000
  0
LINE
  5
DD
100
AcDbEntity
  8
1
  6
CONTINUOUS
 62
7
100
AcDbLine
 10
20.79335599999998
 20
51.52449500000000
 30
0.000000000000000
 11
21.54335600000000
 21
51.52449500000000
 31
0.000000000000000
  0
LINE
  5
DE
100
AcDbEntity
  8
1
  6
CONTINUOUS
 62
7
100
AcDbLine
 10
42.54335600000000
 20
51.52449500000000
 30
0.000000000000000
 11
43.29335600000000
 21
51.52449500000000
 31
0.000000000000000
  0
LINE
  5
DF
100
AcDbEntity
  8
1
  6
CONTINUOUS
 62
7
100
AcDbLine
 10
41.14335599999999
 20
47.07919500000000
 30
0.000000000000000
 11
39.29335600000000
 21
47.07919500000000
 31
0.000000000000000
  0
LINE
  5
E0
100
AcDbEntity
  8
1
  6
CONTINUOUS
 62
7
100
AcDbLine
 10
36.29335600000000
 20
47.07919500000000
 30
0.000000000000000
 11
36.29335600000000
 21
47.50259500000000
 31
0.000000000000000
  0
LINE
  5
E1
100
AcDbEntity
  8
1
  6
CONTINUOUS
 62
7
100
AcDbLine
 10
27.79335600000000
 20
47.07919500000000
 30
0.000000000000000
 11
27.79335600000000
 21
47.50259500000000
 31
0.000000000000000
  0
LINE
  5
E2
100
AcDbEntity
  8
1
  6
CONTINUOUS
 62
7
100
AcDbLine
 10
38.29335600000000
 20
47.07919500000000
 30
0.000000000000000
 11
38.29335600000000
 21
47.50259500000000
 31
0.000000000000000
  0
LINE
  5
E3
100
AcDbEntity
  8
1
  6
CONTINUOUS
 62
7
100
AcDbLine
 10
39.29335600000000
 20
47.07919500000000
 30
0.000000000000000
 11
39.29335600000000
 21
47.50259500000000
 31
0.000000000000000
  0
LINE
  5
E4
100
AcDbEntity
  8
1
  6
CONTINUOUS
 62
7
100
AcDbLine
 10
27.79335600000000
 20
47.07919500000000
 30
0.000000000000000
 11
22.94335600000000
 21
47.07919500000000
 31
0.000000000000000
  0
LINE
  5
E5
100
AcDbEntity
  8
1
  6
CONTINUOUS
 62
7
100
AcDbLine
 10
38.29335600000000
 20
47.07919500000000
 30
0.000000000000000
 11
36.29335600000000
 21
47.07919500000000
 31
0.000000000000000
  0
LINE
  5
E6
100
AcDbEntity
  8
4
  6
CENTER
 62
1
100
AcDbLine
 10
300.3433560000000
 20
115.1791950000000
 30
0.000000000000000
 11
305.8433560000000
 21
115.1791950000000
 31
0.000000000000000
  0
LINE
  5
E7
100
AcDbEntity
  8
4
  6
CENTER
 62
1
100
AcDbLine
 10
15.54335599999999
 20
241.6621950000000
 30
0.000000000000000
 11
48.54335600000000
 21
241.6621950000000
 31
0.000000000000000
  0
LINE
  5
E8
100
AcDbEntity
  8
1
  6
CONTINUOUS
 62
7
100
AcDbLine
 10
22.24901099999998
 20
240.1621950000000
 30
0.000000000000000
 11
41.83769999999999
 21
240.1621950000000
 31
0.000000000000000
  0
LINE
  5
E9
100
AcDbEntity
  8
1
  6
CONTINUOUS
 62
7
100
AcDbLine
 10
294.0433560000000
 20
139.8451949999999
 30
0.000000000000000
 11
295.5433560000000
 21
139.8451949999999
 31
0.000000000000000
  0
LINE
  5
EA
100
AcDbEntity
  8
1
  6
CONTINUOUS
 62
7
100
AcDbLine
 10
294.0433560000000
 20
136.8451949999998
 30
0.000000000000000
 11
295.5433560000000
 21
136.8451949999998
 31
0.000000000000000
  0
LINE
  5
EB
100
AcDbEntity
  8
1
  6
CONTINUOUS
 62
7
100
AcDbLine
 10
310.5433560000000
 20
139.8451949999999
 30
0.000000000000000
 11
312.0433560000000
 21
139.8451949999999
 31
0.000000000000000
  0
LINE
  5
EC
100
AcDbEntity
  8
1
  6
CONTINUOUS
 62
7
100
AcDbLine
 10
310.5433560000000
 20
136.8451949999998
 30
0.000000000000000
 11
312.0433560000000
 21
136.8451949999998
 31
0.000000000000000
  0
LINE
  5
ED
100
AcDbEntity
  8
1
  6
CONTINUOUS
 62
7
100
AcDbLine
 10
24.59335600000000
 20
245.0621950000000
 30
0.000000000000000
 11
39.49335599999999
 21
245.0621950000000
 31
0.000000000000000
  0
LINE
  5
EE
100
AcDbEntity
  8
1
  6
CONTINUOUS
 62
7
100
AcDbLine
 10
22.04545600000000
 20
243.1671950000000
 30
0.000000000000000
 11
42.04125600000000
 21
243.1671950000000
 31
0.000000000000000
  0
LINE
  5
EF
100
AcDbEntity
  8
1
  6
CONTINUOUS
 62
7
100
AcDbLine
 10
24.61745600000000
 20
151.5791950000000
 30
0.000000000000000
 11
24.61745600000000
 21
148.7791949999999
 31
0.000000000000000
  0
LINE
  5
F0
100
AcDbEntity
  8
1
  6
CONTINUOUS
 62
7
100
AcDbLine
 10
25.61745600000000
 20
151.5791950000000
 30
0.000000000000000
 11
25.61745600000000
 21
148.9151949999999
 31
0.000000000000000
  0
LINE
  5
F1
100
AcDbEntity
  8
1
  6
CONTINUOUS
 62
7
100
AcDbLine
 10
25.10325599999999
 20
146.9271949999999
 30
0.000000000000000
 11
25.82145600000000
 21
149.7041950000000
 31
0.000000000000000
  0
LINE
  5
F2
100
AcDbEntity
  8
1
  6
CONTINUOUS
 62
7
100
AcDbLine
 10
26.13615600000000
 20
146.9271949999999
 30
0.000000000000000
 11
26.85435600000000
 21
149.7041950000000
 31
0.000000000000000
  0
LINE
  5
F3
100
AcDbEntity
  8
1
  6
CONTINUOUS
 62
7
100
AcDbLine
 10
27.16905600000001
 20
146.9271949999999
 30
0.000000000000000
 11
27.88725600000001
 21
149.7041950000000
 31
0.000000000000000
  0
LINE
  5
F4
100
AcDbEntity
  8
1
  6
CONTINUOUS
 62
7
100
AcDbLine
 10
28.20195600000000
 20
146.9271949999999
 30
0.000000000000000
 11
28.92015600000000
 21
149.7041950000000
 31
0.000000000000000
  0
LINE
  5
F5
100
AcDbEntity
  8
1
  6
CONTINUOUS
 62
7
100
AcDbLine
 10
29.23485600000001
 20
146.9271949999999
 30
0.000000000000000
 11
29.95305600000001
 21
149.7041950000000
 31
0.000000000000000
  0
LINE
  5
F6
100
AcDbEntity
  8
1
  6
CONTINUOUS
 62
7
100
AcDbLine
 10
30.26775600000001
 20
146.9271949999999
 30
0.000000000000000
 11
30.98595599999999
 21
149.7041950000000
 31
0.000000000000000
  0
LINE
  5
F7
100
AcDbEntity
  8
1
  6
CONTINUOUS
 62
7
100
AcDbLine
 10
31.30065600000000
 20
146.9271949999999
 30
0.000000000000000
 11
32.01885600000001
 21
149.7041950000000
 31
0.000000000000000
  0
LINE
  5
F8
100
AcDbEntity
  8
1
  6
CONTINUOUS
 62
7
100
AcDbLine
 10
32.33355600000001
 20
146.9271949999999
 30
0.000000000000000
 11
33.05175600000000
 21
149.7041950000000
 31
0.000000000000000
  0
LINE
  5
F9
100
AcDbEntity
  8
1
  6
CONTINUOUS
 62
7
100
AcDbLine
 10
33.36645600000000
 20
146.9271949999999
 30
0.000000000000000
 11
34.08465600000001
 21
149.7041950000000
 31
0.000000000000000
  0
LINE
  5
FA
100
AcDbEntity
  8
1
  6
CONTINUOUS
 62
7
100
AcDbLine
 10
34.39935600000000
 20
146.9271949999999
 30
0.000000000000000
 11
35.11755600000001
 21
149.7041950000000
 31
0.000000000000000
  0
LINE
  5
FB
100
AcDbEntity
  8
1
  6
CONTINUOUS
 62
7
100
AcDbLine
 10
35.43225600000000
 20
146.9271949999999
 30
0.000000000000000
 11
36.15045600000000
 21
149.7041950000000
 31
0.000000000000000
  0
LINE
  5
FC
100
AcDbEntity
  8
1
  6
CONTINUOUS
 62
7
100
AcDbLine
 10
36.46515600000000
 20
146.9271949999999
 30
0.000000000000000
 11
37.18335600000000
 21
149.7041950000000
 31
0.000000000000000
  0
LINE
  5
FD
100
AcDbEntity
  8
1
  6
CONTINUOUS
 62
7
100
AcDbLine
 10
37.49805600000001
 20
146.9271949999999
 30
0.000000000000000
 11
38.21625600000001
 21
149.7041950000000
 31
0.000000000000000
  0
LINE
  5
FE
100
AcDbEntity
  8
1
  6
CONTINUOUS
 62
7
100
AcDbLine
 10
38.53095600000001
 20
146.9271949999999
 30
0.000000000000000
 11
39.18445600000000
 21
149.4541950000000
 31
0.000000000000000
  0
LINE
  5
FF
100
AcDbEntity
  8
1
  6
CONTINUOUS
 62
7
100
AcDbLine
 10
39.20035600000000
 20
149.5791950000000
 30
0.000000000000000
 11
39.20035600000000
 21
148.7791949999999
 31
0.000000000000000
  0
LINE
  5
100
100
AcDbEntity
  8
1
  6
CONTINUOUS
 62
7
100
AcDbLine
 10
25.61745600000000
 20
150.6791950000000
 30
0.000000000000000
 11
41.04335600000000
 21
150.6791950000000
 31
0.000000000000000
  0
LINE
  5
101
100
AcDbEntity
  8
1
  6
CONTINUOUS
 62
7
100
AcDbLine
 10
24.61745600000000
 20
236.8311950000000
 30
0.000000000000000
 11
25.47899200000000
 21
240.1621950000000
 31
0.000000000000000
  0
LINE
  5
102
100
AcDbEntity
  8
1
  6
CONTINUOUS
 62
7
100
AcDbLine
 10
25.59995600000000
 20
236.6361949999999
 30
0.000000000000000
 11
26.51180599999999
 21
240.1621950000000
 31
0.000000000000000
  0
LINE
  5
103
100
AcDbEntity
  8
1
  6
CONTINUOUS
 62
7
100
AcDbLine
 10
26.63285599999999
 20
236.6361949999999
 30
0.000000000000000
 11
27.54470599999999
 21
240.1621950000000
 31
0.000000000000000
  0
LINE
  5
104
100
AcDbEntity
  8
1
  6
CONTINUOUS
 62
7
100
AcDbLine
 10
27.66575599999999
 20
236.6361949999999
 30
0.000000000000000
 11
28.57760599999999
 21
240.1621950000000
 31
0.000000000000000
  0
LINE
  5
105
100
AcDbEntity
  8
1
  6
CONTINUOUS
 62
7
100
AcDbLine
 10
28.69865599999999
 20
236.6361949999999
 30
0.000000000000000
 11
29.61050599999999
 21
240.1621950000000
 31
0.000000000000000
  0
LINE
  5
106
100
AcDbEntity
  8
1
  6
CONTINUOUS
 62
7
100
AcDbLine
 10
29.73155600000000
 20
236.6361949999999
 30
0.000000000000000
 11
30.64349599999999
 21
240.1621950000000
 31
0.000000000000000
  0
LINE
  5
107
100
AcDbEntity
  8
1
  6
CONTINUOUS
 62
7
100
AcDbLine
 10
30.76445599999999
 20
236.6361949999999
 30
0.000000000000000
 11
31.67630599999999
 21
240.1621950000000
 31
0.000000000000000
  0
LINE
  5
108
100
AcDbEntity
  8
1
  6
CONTINUOUS
 62
7
100
AcDbLine
 10
31.79735599999999
 20
236.6361949999999
 30
0.000000000000000
 11
32.70920599999999
 21
240.1621950000000
 31
0.000000000000000
  0
LINE
  5
109
100
AcDbEntity
  8
1
  6
CONTINUOUS
 62
7
100
AcDbLine
 10
32.83025600000001
 20
236.6361949999999
 30
0.000000000000000
 11
33.74219599999999
 21
240.1621950000000
 31
0.000000000000000
  0
LINE
  5
10A
100
AcDbEntity
  8
1
  6
CONTINUOUS
 62
7
100
AcDbLine
 10
33.86315600000000
 20
236.6361949999999
 30
0.000000000000000
 11
34.77509600000000
 21
240.1621950000000
 31
0.000000000000000
  0
LINE
  5
10B
100
AcDbEntity
  8
1
  6
CONTINUOUS
 62
7
100
AcDbLine
 10
34.89605600000001
 20
236.6361949999999
 30
0.000000000000000
 11
35.80790600000001
 21
240.1621950000000
 31
0.000000000000000
  0
LINE
  5
10C
100
AcDbEntity
  8
1
  6
CONTINUOUS
 62
7
100
AcDbLine
 10
35.92895600000001
 20
236.6361949999999
 30
0.000000000000000
 11
36.84089600000001
 21
240.1621950000000
 31
0.000000000000000
  0
LINE
  5
10D
100
AcDbEntity
  8
1
  6
CONTINUOUS
 62
7
100
AcDbLine
 10
36.96185600000000
 20
236.6361949999999
 30
0.000000000000000
 11
37.87379599999999
 21
240.1621950000000
 31
0.000000000000000
  0
LINE
  5
10E
100
AcDbEntity
  8
1
  6
CONTINUOUS
 62
7
100
AcDbLine
 10
37.99475600000000
 20
236.6361949999999
 30
0.000000000000000
 11
38.90669599999999
 21
240.1621950000000
 31
0.000000000000000
  0
LINE
  5
10F
100
AcDbEntity
  8
1
  6
CONTINUOUS
 62
7
100
AcDbLine
 10
24.61745600000000
 20
237.5621950000000
 30
0.000000000000000
 11
24.61745600000000
 21
236.7231950000000
 31
0.000000000000000
  0
LINE
  5
110
100
AcDbEntity
  8
1
  6
CONTINUOUS
 62
7
100
AcDbLine
 10
24.61745600000000
 20
244.5621950000000
 30
0.000000000000000
 11
24.61745600000000
 21
243.1671950000000
 31
0.000000000000000
  0
LINE
  5
111
100
AcDbEntity
  8
1
  6
CONTINUOUS
 62
7
100
AcDbLine
 10
25.61745600000000
 20
244.5621950000000
 30
0.000000000000000
 11
25.61745600000000
 21
243.1671950000000
 31
0.000000000000000
  0
LINE
  5
112
100
AcDbEntity
  8
1
  6
CONTINUOUS
 62
7
100
AcDbLine
 10
24.59335600000000
 20
237.5621950000000
 30
0.000000000000000
 11
24.80635600000000
 21
237.5621950000000
 31
0.000000000000000
  0
LINE
  5
113
100
AcDbEntity
  8
1
  6
CONTINUOUS
 62
7
100
AcDbLine
 10
38.23405600000000
 20
237.5621950000000
 30
0.000000000000000
 11
39.49335599999999
 21
237.5621950000000
 31
0.000000000000000
  0
LINE
  5
114
100
AcDbEntity
  8
1
  6
CONTINUOUS
 62
7
100
AcDbLine
 10
39.20035600000000
 20
237.5621950000000
 30
0.000000000000000
 11
39.20035600000000
 21
234.4741949999999
 31
0.000000000000000
  0
LINE
  5
115
100
AcDbEntity
  8
1
  6
CONTINUOUS
 62
7
100
AcDbLine
 10
38.20035600000000
 20
237.4311950000000
 30
0.000000000000000
 11
38.20035600000000
 21
234.4741949999999
 31
0.000000000000000
  0
LINE
  5
116
100
AcDbEntity
  8
1
  6
CONTINUOUS
 62
7
100
AcDbLine
 10
310.5433560000000
 20
108.6791950000000
 30
0.000000000000000
 11
310.5433560000000
 21
107.1791949999998
 31
0.000000000000000
  0
LINE
  5
117
100
AcDbEntity
  8
4
  6
CENTER
 62
1
100
AcDbLine
 10
32.04335600000000
 20
169.7801949999998
 30
0.000000000000000
 11
32.04335600000000
 21
94.67919499999998
 31
0.000000000000000
  0
LINE
  5
118
100
AcDbEntity
  8
1
  6
CONTINUOUS
 62
7
100
AcDbLine
 10
310.4693560000000
 20
151.5791950000000
 30
0.000000000000000
 11
310.4693560000000
 21
150.6791950000000
 31
0.000000000000000
  0
LINE
  5
119
100
AcDbEntity
  8
1
  6
CONTINUOUS
 62
7
100
AcDbLine
 10
309.4693560000000
 20
151.5791950000000
 30
0.000000000000000
 11
309.4693560000000
 21
150.6791950000000
 31
0.000000000000000
  0
LINE
  5
11A
100
AcDbEntity
  8
4
  6
CENTER
 62
1
100
AcDbLine
 10
27.04335600000000
 20
104.6791950000000
 30
0.000000000000000
 11
37.04335600000000
 21
104.6791950000000
 31
0.000000000000000
  0
LINE
  5
11B
100
AcDbEntity
  8
4
  6
CENTER
 62
1
100
AcDbLine
 10
170.5433559999999
 20
104.6791950000000
 30
0.000000000000000
 11
176.0433559999999
 21
104.6791950000000
 31
0.000000000000000
  0
LINE
  5
11C
100
AcDbEntity
  8
4
  6
CENTER
 62
1
100
AcDbLine
 10
27.04335600000000
 20
138.6791949999999
 30
0.000000000000000
 11
37.04335600000000
 21
138.6791949999999
 31
0.000000000000000
  0
LINE
  5
11D
100
AcDbEntity
  8
1
  6
CONTINUOUS
 62
7
100
AcDbLine
 10
32.84335600000000
 20
119.6791949999998
 30
0.000000000000000
 11
32.84335600000000
 21
110.6791949999998
 31
0.000000000000000
  0
LINE
  5
11E
100
AcDbEntity
  8
1
  6
CONTINUOUS
 62
7
100
AcDbLine
 10
31.34335599999999
 20
119.6791949999998
 30
0.000000000000000
 11
31.34335599999999
 21
110.6791949999998
 31
0.000000000000000
  0
LINE
  5
11F
100
AcDbEntity
  8
1
  6
CONTINUOUS
 62
7
100
AcDbLine
 10
21.54335600000000
 20
146.6461950000000
 30
0.000000000000000
 11
42.54335600000000
 21
146.6461950000000
 31
0.000000000000000
  0
LINE
  5
120
100
AcDbEntity
  8
1
  6
CONTINUOUS
 62
7
100
AcDbLine
 10
22.94335600000000
 20
146.9271949999999
 30
0.000000000000000
 11
41.14335599999999
 21
146.9271949999999
 31
0.000000000000000
  0
LINE
  5
121
100
AcDbEntity
  8
4
  6
CENTER
 62
1
100
AcDbLine
 10
15.79335600000000
 20
147.2791949999999
 30
0.000000000000000
 11
48.29335600000000
 21
147.2791949999999
 31
0.000000000000000
  0
LINE
  5
122
100
AcDbEntity
  8
4
  6
CENTER
 62
1
100
AcDbLine
 10
72.04335600000000
 20
242.0571950000000
 30
0.000000000000000
 11
92.04335600000000
 21
242.0571950000000
 31
0.000000000000000
  0
LINE
  5
123
100
AcDbEntity
  8
4
  6
CENTER
 62
1
100
AcDbLine
 10
82.04335600000000
 20
250.0621950000000
 30
0.000000000000000
 11
82.04335600000000
 21
231.0621950000000
 31
0.000000000000000
  0
LINE
  5
124
100
AcDbEntity
  8
4
  6
CENTER
 62
1
100
AcDbLine
 10
88.04335599999997
 20
247.0621950000000
 30
0.000000000000000
 11
88.04335599999997
 21
241.5621950000000
 31
0.000000000000000
  0
LINE
  5
125
100
AcDbEntity
  8
4
  6
CENTER
 62
1
100
AcDbLine
 10
76.04335600000000
 20
247.0621950000000
 30
0.000000000000000
 11
76.04335600000000
 21
241.5621950000000
 31
0.000000000000000
  0
ARC
  5
126
100
AcDbEntity
  8
1
  6
CONTINUOUS
 62
7
100
AcDbCircle
 10
165.5433559999999
 20
115.1791950000000
 30
0.000000000000000
 40
4.500000000000000
100
AcDbArc
 50
90.00000000000000
 51
270.0000000000000
  0
ARC
  5
127
100
AcDbEntity
  8
1
  6
CONTINUOUS
 62
7
100
AcDbCircle
 10
165.5433559999999
 20
115.1791950000000
 30
0.000000000000000
 40
2.500000000000000
100
AcDbArc
 50
19.58689999999998
 51
362.0130600000000
  0
ARC
  5
128
100
AcDbEntity
  8
1
  6
CONTINUOUS
 62
7
100
AcDbCircle
 10
303.0433560000000
 20
107.1791949999998
 30
0.000000000000000
 40
7.500000000000000
100
AcDbArc
 50
180.0000000000000
 51
360.0000100000000
  0
CIRCLE
  5
129
100
AcDbEntity
  8
1
  6
CONTINUOUS
 62
7
100
AcDbCircle
 10
303.0433560000000
 20
138.6791949999999
 30
0.000000000000000
 40
1.800000000000000
  0
CIRCLE
  5
12A
100
AcDbEntity
  8
1
  6
CONTINUOUS
 62
7
100
AcDbCircle
 10
303.0433560000000
 20
104.6791950000000
 30
0.000000000000000
 40
1.800000000000000
  0
ARC
  5
12B
100
AcDbEntity
  8
1
  6
CONTINUOUS
 62
7
100
AcDbCircle
 10
168.0433559999999
 20
147.2791949999999
 30
0.000000000000000
 40
1.750000000000000
100
AcDbArc
 50
74.99720000000001
 51
276.8029999999999
  0
ARC
  5
12C
100
AcDbEntity
  8
1
  6
CONTINUOUS
 62
7
100
AcDbCircle
 10
32.04335600000000
 20
111.6671949999998
 30
0.000000000000000
 40
11.00000000000000
100
AcDbArc
 50
197.3409999999999
 51
342.6590000000000
  0
ARC
  5
12D
100
AcDbEntity
  8
1
  6
CONTINUOUS
 62
7
100
AcDbCircle
 10
32.04335600000000
 20
110.7301949999999
 30
0.000000000000000
 40
10.75799999999998
100
AcDbArc
 50
192.5729999999999
 51
347.4269999999998
  0
ARC
  5
12E
100
AcDbEntity
  8
1
  6
CONTINUOUS
 62
7
100
AcDbCircle
 10
303.0433560000000
 20
110.7301949999999
 30
0.000000000000000
 40
10.75799999999998
100
AcDbArc
 50
192.5729999999999
 51
250.6710000000000
  0
ARC
  5
12F
100
AcDbEntity
  8
1
  6
CONTINUOUS
 62
7
100
AcDbCircle
 10
303.0433560000000
 20
110.7301949999999
 30
0.000000000000000
 40
10.75799999999998
100
AcDbArc
 50
289.3290000000000
 51
347.4269999999998
  0
ARC
  5
130
100
AcDbEntity
  8
1
  6
CONTINUOUS
 62
7
100
AcDbCircle
 10
169.2383560000000
 20
138.3451949999999
 30
0.000000000000000
 40
1.500000000000000
100
AcDbArc
 50
176.6263520000000
 51
356.6263520000000
  0
ARC
  5
131
100
AcDbEntity
  8
1
  6
CONTINUOUS
 62
7
100
AcDbCircle
 10
36.58565600000000
 20
47.47449500000000
 30
0.000000000000000
 40
0.5000000000000000
100
AcDbArc
 50
192.0000000000000
 51
307.7640000000001
  0
ARC
  5
132
100
AcDbEntity
  8
1
  6
CONTINUOUS
 62
7
100
AcDbCircle
 10
37.60795600000000
 20
47.47449500000000
 30
0.000000000000000
 40
0.5000000000000000
100
AcDbArc
 50
232.2360000000000
 51
307.7640000000001
  0
ARC
  5
133
100
AcDbEntity
  8
1
  6
CONTINUOUS
 62
7
100
AcDbCircle
 10
38.63035599999999
 20
47.47449500000000
 30
0.000000000000000
 40
0.5000000000000000
100
AcDbArc
 50
227.6279999999999
 51
315.3670000000000
  0
ARC
  5
134
100
AcDbEntity
  8
1
  6
CONTINUOUS
 62
7
100
AcDbCircle
 10
24.59335600000000
 20
45.27449500000000
 30
0.000000000000000
 40
1.500000000000000
100
AcDbArc
 50
180.0000000000000
 51
268.0897869999999
  0
ARC
  5
135
100
AcDbEntity
  8
1
  6
CONTINUOUS
 62
7
100
AcDbCircle
 10
39.49335599999999
 20
45.27449500000000
 30
0.000000000000000
 40
1.500000000000000
100
AcDbArc
 50
271.9102130000001
 51
360.0000030000000
  0
ARC
  5
136
100
AcDbEntity
  8
1
  6
CONTINUOUS
 62
7
100
AcDbCircle
 10
26.36225599999999
 20
47.47449500000000
 30
0.000000000000000
 40
0.5000000000000000
100
AcDbArc
 50
232.2360000000000
 51
307.7640000000001
  0
ARC
  5
137
100
AcDbEntity
  8
1
  6
CONTINUOUS
 62
7
100
AcDbCircle
 10
27.38455599999999
 20
47.47449500000000
 30
0.000000000000000
 40
0.5000000000000000
100
AcDbArc
 50
232.2360000000000
 51
307.7640000000001
  0
ARC
  5
138
100
AcDbEntity
  8
1
  6
CONTINUOUS
 62
7
100
AcDbCircle
 10
28.40695600000000
 20
47.47449500000000
 30
0.000000000000000
 40
0.5000000000000000
100
AcDbArc
 50
192.0000000000000
 51
363.2238900000000
  0
ARC
  5
139
100
AcDbEntity
  8
1
  6
CONTINUOUS
 62
7
100
AcDbCircle
 10
29.42925600000000
 20
47.47449500000000
 30
0.000000000000000
 40
0.5000000000000000
100
AcDbArc
 50
192.0000000000000
 51
363.2238900000000
  0
ARC
  5
13A
100
AcDbEntity
  8
1
  6
CONTINUOUS
 62
7
100
AcDbCircle
 10
30.45155600000000
 20
47.47449500000000
 30
0.000000000000000
 40
0.5000000000000000
100
AcDbArc
 50
192.0000000000000
 51
363.2238900000000
  0
ARC
  5
13B
100
AcDbEntity
  8
1
  6
CONTINUOUS
 62
7
100
AcDbCircle
 10
31.47395600000000
 20
47.47449500000000
 30
0.000000000000000
 40
0.5000000000000000
100
AcDbArc
 50
192.0000000000000
 51
363.2238900000000
  0
ARC
  5
13C
100
AcDbEntity
  8
1
  6
CONTINUOUS
 62
7
100
AcDbCircle
 10
32.49625600000000
 20
47.47449500000000
 30
0.000000000000000
 40
0.5000000000000000
100
AcDbArc
 50
192.0000000000000
 51
363.2238900000000
  0
ARC
  5
13D
100
AcDbEntity
  8
1
  6
CONTINUOUS
 62
7
100
AcDbCircle
 10
33.51865600000000
 20
47.47449500000000
 30
0.000000000000000
 40
0.5000000000000000
100
AcDbArc
 50
192.0000000000000
 51
363.2238900000000
  0
ARC
  5
13E
100
AcDbEntity
  8
1
  6
CONTINUOUS
 62
7
100
AcDbCircle
 10
34.54095600000000
 20
47.47449500000000
 30
0.000000000000000
 40
0.5000000000000000
100
AcDbArc
 50
192.0000000000000
 51
363.2238900000000
  0
ARC
  5
13F
100
AcDbEntity
  8
1
  6
CONTINUOUS
 62
7
100
AcDbCircle
 10
35.56335600000000
 20
47.47449500000000
 30
0.000000000000000
 40
0.5000000000000000
100
AcDbArc
 50
192.0000000000000
 51
363.2238900000000
  0
ARC
  5
140
100
AcDbEntity
  8
1
  6
CONTINUOUS
 62
7
100
AcDbCircle
 10
32.04335600000000
 20
38.65747899999997
 30
0.000000000000000
 40
13.72905600000000
100
AcDbArc
 50
40.11063299999999
 51
139.8894669999999
  0
ARC
  5
141
100
AcDbEntity
  8
1
  6
CONTINUOUS
 62
7
100
AcDbCircle
 10
32.04335600000000
 20
41.52659500000000
 30
0.000000000000000
 40
12.08150000000000
100
AcDbArc
 50
29.64600000000000
 51
150.3539999999999
  0
ARC
  5
142
100
AcDbEntity
  8
1
  6
CONTINUOUS
 62
7
100
AcDbCircle
 10
167.9493560000000
 20
147.7701949999998
 30
0.000000000000000
 40
4.000000000000000
100
AcDbArc
 50
1.095289999999997
 51
26.02959999999999
  0
ARC
  5
143
100
AcDbEntity
  8
1
  6
CONTINUOUS
 62
7
100
AcDbCircle
 10
169.2383560000000
 20
138.3451949999999
 30
0.000000000000000
 40
1.600000000000000
100
AcDbArc
 50
156.2622179999999
 51
376.9904870000000
  0
ARC
  5
144
100
AcDbEntity
  8
1
  6
CONTINUOUS
 62
7
100
AcDbCircle
 10
168.0523560000000
 20
115.2131950000000
 30
0.000000000000000
 40
4.500000000000000
100
AcDbArc
 50
296.5518609999999
 51
370.8000000000000
  0
ARC
  5
145
100
AcDbEntity
  8
1
  6
CONTINUOUS
 62
7
100
AcDbCircle
 10
46.79335600000000
 20
240.2571950000000
 30
0.000000000000000
 40
1.500000000000000
100
AcDbArc
 50
270.0000000000000
 51
433.4826580000001
  0
ARC
  5
146
100
AcDbEntity
  8
1
  6
CONTINUOUS
 62
7
100
AcDbCircle
 10
27.38455599999999
 20
47.47449500000000
 30
0.000000000000000
 40
0.5000000000000000
100
AcDbArc
 50
324.8399999999999
 51
363.2238900000000
  0
ARC
  5
147
100
AcDbEntity
  8
1
  6
CONTINUOUS
 62
7
100
AcDbCircle
 10
38.79335600000000
 20
47.58449500000000
 30
0.000000000000000
 40
0.5000000000000000
100
AcDbArc
 50
189.4320000000000
 51
350.5679999999999
  0
ARC
  5
148
100
AcDbEntity
  8
1
  6
CONTINUOUS
 62
7
100
AcDbCircle
 10
76.04335600000000
 20
239.0681950000000
 30
0.000000000000000
 40
2.000000000000000
100
AcDbArc
 50
180.0000000000000
 51
270.0000000000000
  0
ARC
  5
149
100
AcDbEntity
  8
1
  6
CONTINUOUS
 62
7
100
AcDbCircle
 10
88.04335599999997
 20
239.0681950000000
 30
0.000000000000000
 40
2.000000000000000
100
AcDbArc
 50
270.0000000000000
 51
360.0000000000000
  0
ARC
  5
14A
100
AcDbEntity
  8
1
  6
CONTINUOUS
 62
7
100
AcDbCircle
 10
76.04335600000000
 20
238.0621950000000
 30
0.000000000000000
 40
2.000000000000000
100
AcDbArc
 50
180.0000000000000
 51
270.0000000000000
  0
ARC
  5
14B
100
AcDbEntity
  8
1
  6
CONTINUOUS
 62
7
100
AcDbCircle
 10
88.04335599999997
 20
238.0621950000000
 30
0.000000000000000
 40
2.000000000000000
100
AcDbArc
 50
270.0000000000000
 51
360.0000000000000
  0
ARC
  5
14C
100
AcDbEntity
  8
1
  6
CONTINUOUS
 62
7
100
AcDbCircle
 10
167.9493560000000
 20
147.7701949999998
 30
0.000000000000000
 40
4.000000000000000
100
AcDbArc
 50
79.30260000000001
 51
190.8000000000000
  0
ARC
  5
14D
100
AcDbEntity
  8
1
  6
CONTINUOUS
 62
7
100
AcDbCircle
 10
157.5313559999999
 20
111.6621950000000
 30
0.000000000000000
 40
11.00000000000000
100
AcDbArc
 50
332.5079999999999
 51
370.8000000000000
  0
ARC
  5
14E
100
AcDbEntity
  8
1
  6
CONTINUOUS
 62
7
100
AcDbCircle
 10
24.59335600000000
 20
243.5621950000000
 30
0.000000000000000
 40
1.500000000000000
100
AcDbArc
 50
90.00000000000000
 51
180.0000000000000
  0
ARC
  5
14F
100
AcDbEntity
  8
1
  6
CONTINUOUS
 62
7
100
AcDbCircle
 10
39.49335599999999
 20
243.5621950000000
 30
0.000000000000000
 40
1.500000000000000
100
AcDbArc
 50
0.000000000000000
 51
90.00000000000000
  0
ARC
  5
150
100
AcDbEntity
  8
1
  6
CONTINUOUS
 62
7
100
AcDbCircle
 10
32.04335600000000
 20
107.1791949999998
 30
0.000000000000000
 40
7.500000000000000
100
AcDbArc
 50
241.6549999999999
 51
298.3450000000000
  0
ARC
  5
151
100
AcDbEntity
  8
1
  6
CONTINUOUS
 62
7
100
AcDbCircle
 10
25.11745600000000
 20
150.7131949999999
 30
0.000000000000000
 40
0.5000000000000000
100
AcDbArc
 50
36.86990000000000
 51
143.1300000000000
  0
ARC
  5
152
100
AcDbEntity
  8
1
  6
CONTINUOUS
 62
7
100
AcDbCircle
 10
25.11745600000000
 20
151.5791950000000
 30
0.000000000000000
 40
0.5000000000000000
100
AcDbArc
 50
0.000000000000000
 51
180.0000000000000
  0
ARC
  5
153
100
AcDbEntity
  8
1
  6
CONTINUOUS
 62
7
100
AcDbCircle
 10
26.30555600000000
 20
149.5791950000000
 30
0.000000000000000
 40
0.5000000000000000
100
AcDbArc
 50
345.5000000000000
 51
525.5000000000000
  0
ARC
  5
154
100
AcDbEntity
  8
1
  6
CONTINUOUS
 62
7
100
AcDbCircle
 10
27.33845600000000
 20
149.5791950000000
 30
0.000000000000000
 40
0.5000000000000000
100
AcDbArc
 50
345.5000000000000
 51
525.5000000000000
  0
ARC
  5
155
100
AcDbEntity
  8
1
  6
CONTINUOUS
 62
7
100
AcDbCircle
 10
28.37135599999999
 20
149.5791950000000
 30
0.000000000000000
 40
0.5000000000000000
100
AcDbArc
 50
345.5000000000000
 51
525.5000000000000
  0
ARC
  5
156
100
AcDbEntity
  8
1
  6
CONTINUOUS
 62
7
100
AcDbCircle
 10
29.40425600000000
 20
149.5791950000000
 30
0.000000000000000
 40
0.5000000000000000
100
AcDbArc
 50
345.5000000000000
 51
525.5000000000000
  0
ARC
  5
157
100
AcDbEntity
  8
1
  6
CONTINUOUS
 62
7
100
AcDbCircle
 10
30.43715600000000
 20
149.5791950000000
 30
0.000000000000000
 40
0.5000000000000000
100
AcDbArc
 50
345.5000000000000
 51
525.5000000000000
  0
ARC
  5
158
100
AcDbEntity
  8
1
  6
CONTINUOUS
 62
7
100
AcDbCircle
 10
31.47005599999999
 20
149.5791950000000
 30
0.000000000000000
 40
0.5000000000000000
100
AcDbArc
 50
345.5000000000000
 51
525.5000000000000
  0
ARC
  5
159
100
AcDbEntity
  8
1
  6
CONTINUOUS
 62
7
100
AcDbCircle
 10
32.50295599999999
 20
149.5791950000000
 30
0.000000000000000
 40
0.5000000000000000
100
AcDbArc
 50
345.5000000000000
 51
525.5000000000000
  0
ARC
  5
15A
100
AcDbEntity
  8
1
  6
CONTINUOUS
 62
7
100
AcDbCircle
 10
33.53585600000001
 20
149.5791950000000
 30
0.000000000000000
 40
0.5000000000000000
100
AcDbArc
 50
345.5000000000000
 51
525.5000000000000
  0
ARC
  5
15B
100
AcDbEntity
  8
1
  6
CONTINUOUS
 62
7
100
AcDbCircle
 10
34.56875600000000
 20
149.5791950000000
 30
0.000000000000000
 40
0.5000000000000000
100
AcDbArc
 50
345.5000000000000
 51
525.5000000000000
  0
ARC
  5
15C
100
AcDbEntity
  8
1
  6
CONTINUOUS
 62
7
100
AcDbCircle
 10
35.60165599999999
 20
149.5791950000000
 30
0.000000000000000
 40
0.5000000000000000
100
AcDbArc
 50
345.5000000000000
 51
525.5000000000000
  0
ARC
  5
15D
100
AcDbEntity
  8
1
  6
CONTINUOUS
 62
7
100
AcDbCircle
 10
36.63455599999998
 20
149.5791950000000
 30
0.000000000000000
 40
0.5000000000000000
100
AcDbArc
 50
345.5000000000000
 51
525.5000000000000
  0
ARC
  5
15E
100
AcDbEntity
  8
1
  6
CONTINUOUS
 62
7
100
AcDbCircle
 10
37.66745600000000
 20
149.5791950000000
 30
0.000000000000000
 40
0.5000000000000000
100
AcDbArc
 50
345.5000000000000
 51
525.5000000000000
  0
ARC
  5
15F
100
AcDbEntity
  8
1
  6
CONTINUOUS
 62
7
100
AcDbCircle
 10
38.70035599999999
 20
149.5791950000000
 30
0.000000000000000
 40
0.5000000000000000
100
AcDbArc
 50
345.5000000000000
 51
525.5000000000000
  0
ARC
  5
160
100
AcDbEntity
  8
1
  6
CONTINUOUS
 62
7
100
AcDbCircle
 10
37.51065599999999
 20
236.7621949999999
 30
0.000000000000000
 40
0.5000000000000000
100
AcDbArc
 50
165.5000000000000
 51
345.5000000000000
  0
ARC
  5
161
100
AcDbEntity
  8
1
  6
CONTINUOUS
 62
7
100
AcDbCircle
 10
36.47775600000000
 20
236.7621949999999
 30
0.000000000000000
 40
0.5000000000000000
100
AcDbArc
 50
165.5000000000000
 51
345.5000000000000
  0
ARC
  5
162
100
AcDbEntity
  8
1
  6
CONTINUOUS
 62
7
100
AcDbCircle
 10
35.44485600000000
 20
236.7621949999999
 30
0.000000000000000
 40
0.5000000000000000
100
AcDbArc
 50
165.5000000000000
 51
345.5000000000000
  0
ARC
  5
163
100
AcDbEntity
  8
1
  6
CONTINUOUS
 62
7
100
AcDbCircle
 10
34.41195599999999
 20
236.7621949999999
 30
0.000000000000000
 40
0.5000000000000000
100
AcDbArc
 50
165.5000000000000
 51
345.5000000000000
  0
ARC
  5
164
100
AcDbEntity
  8
1
  6
CONTINUOUS
 62
7
100
AcDbCircle
 10
33.37905600000000
 20
236.7621949999999
 30
0.000000000000000
 40
0.5000000000000000
100
AcDbArc
 50
165.5000000000000
 51
345.5000000000000
  0
ARC
  5
165
100
AcDbEntity
  8
1
  6
CONTINUOUS
 62
7
100
AcDbCircle
 10
32.34615600000000
 20
236.7621949999999
 30
0.000000000000000
 40
0.5000000000000000
100
AcDbArc
 50
165.5000000000000
 51
345.5000000000000
  0
ARC
  5
166
100
AcDbEntity
  8
1
  6
CONTINUOUS
 62
7
100
AcDbCircle
 10
31.31325600000000
 20
236.7621949999999
 30
0.000000000000000
 40
0.5000000000000000
100
AcDbArc
 50
165.5000000000000
 51
345.5000000000000
  0
ARC
  5
167
100
AcDbEntity
  8
1
  6
CONTINUOUS
 62
7
100
AcDbCircle
 10
30.28035600000000
 20
236.7621949999999
 30
0.000000000000000
 40
0.5000000000000000
100
AcDbArc
 50
165.5000000000000
 51
345.5000000000000
  0
ARC
  5
168
100
AcDbEntity
  8
1
  6
CONTINUOUS
 62
7
100
AcDbCircle
 10
29.24745599999999
 20
236.7621949999999
 30
0.000000000000000
 40
0.5000000000000000
100
AcDbArc
 50
165.5000000000000
 51
345.5000000000000
  0
ARC
  5
169
100
AcDbEntity
  8
1
  6
CONTINUOUS
 62
7
100
AcDbCircle
 10
28.21455600000000
 20
236.7621949999999
 30
0.000000000000000
 40
0.5000000000000000
100
AcDbArc
 50
165.5000000000000
 51
345.5000000000000
  0
ARC
  5
16A
100
AcDbEntity
  8
1
  6
CONTINUOUS
 62
7
100
AcDbCircle
 10
27.18165600000000
 20
236.7621949999999
 30
0.000000000000000
 40
0.5000000000000000
100
AcDbArc
 50
165.5000000000000
 51
345.5000000000000
  0
ARC
  5
16B
100
AcDbEntity
  8
1
  6
CONTINUOUS
 62
7
100
AcDbCircle
 10
26.14875599999999
 20
236.7621949999999
 30
0.000000000000000
 40
0.5000000000000000
100
AcDbArc
 50
165.5000000000000
 51
345.5000000000000
  0
ARC
  5
16C
100
AcDbEntity
  8
1
  6
CONTINUOUS
 62
7
100
AcDbCircle
 10
25.11585600000000
 20
236.7621949999999
 30
0.000000000000000
 40
0.5000000000000000
100
AcDbArc
 50
165.5000000000000
 51
345.5000000000000
  0
ARC
  5
16D
100
AcDbEntity
  8
1
  6
CONTINUOUS
 62
7
100
AcDbCircle
 10
309.9693559999999
 20
151.5791950000000
 30
0.000000000000000
 40
0.5000000000000000
100
AcDbArc
 50
0.000000000000000
 51
180.0000000000000
  0
ARC
  5
16E
100
AcDbEntity
  8
1
  6
CONTINUOUS
 62
7
100
AcDbCircle
 10
25.11745600000000
 20
244.6741950000000
 30
0.000000000000000
 40
0.5125000000000000
100
AcDbArc
 50
192.6800000000000
 51
347.3199999999999
  0
ARC
  5
16F
100
AcDbEntity
  8
1
  6
CONTINUOUS
 62
7
100
AcDbCircle
 10
25.11745600000000
 20
244.4491950000000
 30
0.000000000000000
 40
0.5125000000000000
100
AcDbArc
 50
12.68040000000000
 51
167.3200000000000
  0
ARC
  5
170
100
AcDbEntity
  8
1
  6
CONTINUOUS
 62
7
100
AcDbCircle
 10
42.04125600000000
 20
241.6641950000000
 30
0.000000000000000
 40
1.502110000000000
100
AcDbArc
 50
73.48265800000000
 51
90.00000000000000
  0
LINE
  5
171
100
AcDbEntity
  8
1
  6
CONTINUOUS
 62
7
100
AcDbLine
 10
302.2433560000000
 20
121.6791949999998
 30
0.000000000000000
 11
302.2433560000000
 21
119.6791949999998
 31
0.000000000000000
  0
LINE
  5
172
100
AcDbEntity
  8
1
  6
CONTINUOUS
 62
7
100
AcDbLine
 10
302.2433560000000
 20
110.6791949999998
 30
0.000000000000000
 11
302.2433560000000
 21
108.6791950000000
 31
0.000000000000000
  0
CIRCLE
  5
173
100
AcDbEntity
  8
3
  6
DASHED
 62
2
100
AcDbCircle
 10
303.0433560000000
 20
104.6791950000000
 30
0.000000000000000
 40
3.250000000000000
  0
CIRCLE
  5
174
100
AcDbEntity
  8
3
  6
DASHED
 62
2
100
AcDbCircle
 10
303.0433560000000
 20
138.6791949999999
 30
0.000000000000000
 40
3.250000000000000
  0
LINE
  5
175
100
AcDbEntity
  8
4
  6
CENTER
 62
1
100
AcDbLine
 10
167.8000069999999
 20
162.1791949999999
 30
0.000000000000000
 11
173.6797759999998
 21
162.1791949999999
 31
0.000000000000000
  0
ARC
  5
176
100
AcDbEntity
  8
1
  6
CONTINUOUS
 62
7
100
AcDbCircle
 10
170.6433560000000
 20
162.1791949999999
 30
0.000000000000000
 40
1.500000000000000
100
AcDbArc
 50
356.6263520000000
 51
536.6263520000000
  0
LINE
  5
177
100
AcDbEntity
  8
4
  6
CENTER
 62
1
100
AcDbLine
 10
170.6433560000000
 20
158.8932790000000
 30
0.000000000000000
 11
170.6433560000000
 21
165.4642720000000
 31
0.000000000000000
  0
LINE
  5
178
100
AcDbEntity
  8
1
  6
CONTINUOUS
 62
7
100
AcDbLine
 10
169.1459549999999
 20
162.2674649999999
 30
0.000000000000000
 11
167.7409550000000
 21
138.4334649999999
 31
0.000000000000000
  0
LINE
  5
179
100
AcDbEntity
  8
1
  6
CONTINUOUS
 62
7
100
AcDbLine
 10
172.1407560000000
 20
162.0909240000000
 30
0.000000000000000
 11
170.7357560000000
 21
138.2569240000000
 31
0.000000000000000
  0
LINE
  5
17A
100
AcDbEntity
  8
1
  6
CONTINUOUS
 62
7
100
AcDbLine
 10
294.7672430000000
 20
160.6791949999999
 30
0.000000000000000
 11
311.3194689999999
 21
160.6791949999999
 31
0.000000000000000
  0
LINE
  5
17B
100
AcDbEntity
  8
1
  6
CONTINUOUS
 62
7
100
AcDbLine
 10
294.7672430000000
 20
163.6791949999999
 30
0.000000000000000
 11
311.3194689999999
 21
163.6791949999999
 31
0.000000000000000
  0
LINE
  5
17C
100
AcDbEntity
  8
4
  6
CENTER
 62
1
100
AcDbLine
 10
286.1553559999999
 20
162.1791949999999
 30
0.000000000000000
 11
319.9313560000000
 21
162.1791949999999
 31
0.000000000000000
  0
LINE
  5
17D
100
AcDbEntity
  8
1
  6
CONTINUOUS
 62
7
100
AcDbLine
 10
312.2966470000000
 20
159.8916170000000
 30
0.000000000000000
 11
316.2688220000000
 21
141.6189280000000
 31
0.000000000000000
  0
LINE
  5
17E
100
AcDbEntity
  8
1
  6
CONTINUOUS
 62
7
100
AcDbLine
 10
315.2281810000001
 20
160.5288830000000
 30
0.000000000000000
 11
319.2003559999998
 21
142.2561949999999
 31
0.000000000000000
  0
ARC
  5
17F
100
AcDbEntity
  8
1
  6
CONTINUOUS
 62
7
100
AcDbCircle
 10
311.3194689999999
 20
159.6791950000000
 30
0.000000000000000
 40
4.000000000000000
100
AcDbArc
 50
12.26433000000000
 51
90.00000000000000
  0
ARC
  5
180
100
AcDbEntity
  8
1
  6
CONTINUOUS
 62
7
100
AcDbCircle
 10
311.3194689999999
 20
159.6791950000000
 30
0.000000000000000
 40
1.000000000000000
100
AcDbArc
 50
12.26433000000000
 51
90.00000000000000
  0
LINE
  5
181
100
AcDbEntity
  8
1
  6
CONTINUOUS
 62
7
100
AcDbLine
 10
293.7900650000000
 20
159.8916170000000
 30
0.000000000000000
 11
289.8178900000000
 21
141.6189280000000
 31
0.000000000000000
  0
LINE
  5
182
100
AcDbEntity
  8
1
  6
CONTINUOUS
 62
7
100
AcDbLine
 10
290.8585310000001
 20
160.5288830000001
 30
0.000000000000000
 11
286.8863560000000
 21
142.2561949999999
 31
0.000000000000000
  0
ARC
  5
183
100
AcDbEntity
  8
1
  6
CONTINUOUS
 62
7
100
AcDbCircle
 10
294.7672430000000
 20
159.6791950000000
 30
0.000000000000000
 40
4.000000000000000
100
AcDbArc
 50
90.00000000000000
 51
167.7356699999999
  0
ARC
  5
184
100
AcDbEntity
  8
1
  6
CONTINUOUS
 62
7
100
AcDbCircle
 10
294.7672430000000
 20
159.6791950000000
 30
0.000000000000000
 40
1.000000000000000
100
AcDbArc
 50
90.00000000000000
 51
167.7356699999999
  0
LINE
  5
185
100
AcDbEntity
  8
1
  6
CONTINUOUS
 62
7
100
AcDbLine
 10
291.2933560000000
 20
139.8451949999999
 30
0.000000000000000
 11
292.5433560000000
 21
139.8451949999999
 31
0.000000000000000
  0
ARC
  5
186
100
AcDbEntity
  8
1
  6
CONTINUOUS
 62
7
100
AcDbCircle
 10
291.2933560000000
 20
141.3451949999999
 30
0.000000000000000
 40
4.500000000000000
100
AcDbArc
 50
168.3259999999999
 51
270.0000000000000
  0
ARC
  5
187
100
AcDbEntity
  8
1
  6
CONTINUOUS
 62
7
100
AcDbCircle
 10
291.2933560000000
 20
141.3451949999999
 30
0.000000000000000
 40
1.500000000000000
100
AcDbArc
 50
167.2231909999998
 51
270.0000000000000
  0
LINE
  5
188
100
AcDbEntity
  8
1
  6
CONTINUOUS
 62
7
100
AcDbLine
 10
291.2933560000000
 20
136.8451949999998
 30
0.000000000000000
 11
292.5433560000000
 21
136.8451949999998
 31
0.000000000000000
  0
ARC
  5
189
100
AcDbEntity
  8
1
  6
CONTINUOUS
 62
7
100
AcDbCircle
 10
314.7933560000000
 20
141.3451949999999
 30
0.000000000000000
 40
4.500000000000000
100
AcDbArc
 50
270.0000000000000
 51
371.6739000000000
  0
LINE
  5
18A
100
AcDbEntity
  8
1
  6
CONTINUOUS
 62
7
100
AcDbLine
 10
313.5433560000000
 20
136.8451949999998
 30
0.000000000000000
 11
314.7933560000000
 21
136.8451949999998
 31
0.000000000000000
  0
ARC
  5
18B
100
AcDbEntity
  8
1
  6
CONTINUOUS
 62
7
100
AcDbCircle
 10
314.7933560000000
 20
141.3451949999999
 30
0.000000000000000
 40
1.500000000000000
100
AcDbArc
 50
270.0000000000000
 51
372.7768090000000
  0
LINE
  5
18C
100
AcDbEntity
  8
1
  6
CONTINUOUS
 62
7
100
AcDbLine
 10
313.5433560000000
 20
139.8451949999999
 30
0.000000000000000
 11
314.7933560000000
 21
139.8451949999999
 31
0.000000000000000
  0
LINE
  5
18D
100
AcDbEntity
  8
1
  6
CONTINUOUS
 62
7
100
AcDbLine
 10
44.22818099999999
 20
160.5288830000001
 30
0.000000000000000
 11
48.20035600000000
 21
142.2561949999999
 31
0.000000000000000
  0
LINE
  5
18E
100
AcDbEntity
  8
4
  6
CENTER
 62
1
100
AcDbLine
 10
15.15535599999999
 20
162.1791949999999
 30
0.000000000000000
 11
48.93135600000000
 21
162.1791949999999
 31
0.000000000000000
  0
LINE
  5
18F
100
AcDbEntity
  8
1
  6
CONTINUOUS
 62
7
100
AcDbLine
 10
41.29664700000000
 20
159.8916169999999
 30
0.000000000000000
 11
45.26882200000000
 21
141.6189280000000
 31
0.000000000000000
  0
LINE
  5
190
100
AcDbEntity
  8
1
  6
CONTINUOUS
 62
7
100
AcDbLine
 10
23.76724300000000
 20
163.6791949999999
 30
0.000000000000000
 11
40.31946900000000
 21
163.6791949999999
 31
0.000000000000000
  0
LINE
  5
191
100
AcDbEntity
  8
1
  6
CONTINUOUS
 62
7
100
AcDbLine
 10
23.76724300000000
 20
160.6791949999999
 30
0.000000000000000
 11
40.31946900000000
 21
160.6791949999999
 31
0.000000000000000
  0
ARC
  5
192
100
AcDbEntity
  8
1
  6
CONTINUOUS
 62
7
100
AcDbCircle
 10
40.31946900000000
 20
159.6791950000000
 30
0.000000000000000
 40
1.000000000000000
100
AcDbArc
 50
12.26433000000000
 51
90.00000000000000
  0
ARC
  5
193
100
AcDbEntity
  8
1
  6
CONTINUOUS
 62
7
100
AcDbCircle
 10
40.31946900000000
 20
159.6791950000000
 30
0.000000000000000
 40
4.000000000000000
100
AcDbArc
 50
12.26433000000000
 51
90.00000000000000
  0
LINE
  5
194
100
AcDbEntity
  8
1
  6
CONTINUOUS
 62
7
100
AcDbLine
 10
19.85853099999999
 20
160.5288830000000
 30
0.000000000000000
 11
15.88635599999999
 21
142.2561949999999
 31
0.000000000000000
  0
LINE
  5
195
100
AcDbEntity
  8
1
  6
CONTINUOUS
 62
7
100
AcDbLine
 10
22.79006499999998
 20
159.8916169999999
 30
0.000000000000000
 11
18.81788999999998
 21
141.6189280000000
 31
0.000000000000000
  0
ARC
  5
196
100
AcDbEntity
  8
1
  6
CONTINUOUS
 62
7
100
AcDbCircle
 10
23.76724300000000
 20
159.6791950000000
 30
0.000000000000000
 40
1.000000000000000
100
AcDbArc
 50
90.00000000000000
 51
167.7356699999999
  0
ARC
  5
197
100
AcDbEntity
  8
1
  6
CONTINUOUS
 62
7
100
AcDbCircle
 10
23.76724300000000
 20
159.6791950000000
 30
0.000000000000000
 40
4.000000000000000
100
AcDbArc
 50
90.00000000000000
 51
167.7356699999999
  0
ARC
  5
198
100
AcDbEntity
  8
1
  6
CONTINUOUS
 62
7
100
AcDbCircle
 10
20.29335600000000
 20
141.3451949999999
 30
0.000000000000000
 40
1.500000000000000
100
AcDbArc
 50
167.2231909999998
 51
270.0000000000000
  0
ARC
  5
199
100
AcDbEntity
  8
1
  6
CONTINUOUS
 62
7
100
AcDbCircle
 10
20.29335600000000
 20
141.3451949999999
 30
0.000000000000000
 40
4.500000000000000
100
AcDbArc
 50
168.3259999999999
 51
270.0000000000000
  0
LINE
  5
19A
100
AcDbEntity
  8
1
  6
CONTINUOUS
 62
7
100
AcDbLine
 10
20.29335600000000
 20
136.8451949999998
 30
0.000000000000000
 11
21.54335600000000
 21
136.8451949999998
 31
0.000000000000000
  0
LINE
  5
19B
100
AcDbEntity
  8
1
  6
CONTINUOUS
 62
7
100
AcDbLine
 10
20.29335600000000
 20
139.8451949999999
 30
0.000000000000000
 11
21.54335600000000
 21
139.8451949999999
 31
0.000000000000000
  0
ARC
  5
19C
100
AcDbEntity
  8
1
  6
CONTINUOUS
 62
7
100
AcDbCircle
 10
43.79335600000000
 20
141.3451949999999
 30
0.000000000000000
 40
1.500000000000000
100
AcDbArc
 50
270.0000000000000
 51
372.7768090000000
  0
LINE
  5
19D
100
AcDbEntity
  8
1
  6
CONTINUOUS
 62
7
100
AcDbLine
 10
42.54335600000000
 20
139.8451949999999
 30
0.000000000000000
 11
43.79335600000000
 21
139.8451949999999
 31
0.000000000000000
  0
ARC
  5
19E
100
AcDbEntity
  8
1
  6
CONTINUOUS
 62
7
100
AcDbCircle
 10
43.79335600000000
 20
141.3451949999999
 30
0.000000000000000
 40
4.500000000000000
100
AcDbArc
 50
270.0000000000000
 51
371.6739000000000
  0
LINE
  5
19F
100
AcDbEntity
  8
1
  6
CONTINUOUS
 62
7
100
AcDbLine
 10
42.54335600000000
 20
136.8451949999998
 30
0.000000000000000
 11
43.79335600000000
 21
136.8451949999998
 31
0.000000000000000
  0
LINE
  5
1A0
100
AcDbEntity
  8
1
  6
CONTINUOUS
 62
7
100
AcDbLine
 10
312.1433559999999
 20
151.7701950000000
 30
0.000000000000000
 11
312.1433559999999
 21
111.5251949999999
 31
0.000000000000000
  0
LINE
  5
1A1
100
AcDbEntity
  8
1
  6
CONTINUOUS
 62
7
100
AcDbLine
 10
293.9433559999999
 20
151.7701950000000
 30
0.000000000000000
 11
293.9433559999999
 21
111.5251949999999
 31
0.000000000000000
  0
LINE
  5
1A2
100
AcDbEntity
  8
1
  6
CONTINUOUS
 62
7
100
AcDbLine
 10
41.14335599999999
 20
151.7701950000000
 30
0.000000000000000
 11
41.14335599999999
 21
146.9271949999999
 31
0.000000000000000
  0
LINE
  5
1A3
100
AcDbEntity
  8
1
  6
CONTINUOUS
 62
7
100
AcDbLine
 10
22.94335600000000
 20
151.7701950000000
 30
0.000000000000000
 11
22.94335600000000
 21
146.9271949999999
 31
0.000000000000000
  0
LINE
  5
1A4
100
AcDbEntity
  8
1
  6
CONTINUOUS
 62
7
100
AcDbLine
 10
41.04335600000000
 20
148.7791949999999
 30
0.000000000000000
 11
41.14335599999999
 21
148.7791949999999
 31
0.000000000000000
  0
LINE
  5
1A5
100
AcDbEntity
  8
1
  6
CONTINUOUS
 62
7
100
AcDbLine
 10
22.94335600000000
 20
148.7791949999999
 30
0.000000000000000
 11
23.04335599999999
 21
148.7791949999999
 31
0.000000000000000
  0
LINE
  5
1A6
100
AcDbEntity
  8
1
  6
CONTINUOUS
 62
7
100
AcDbLine
 10
293.9433559999999
 20
148.7791949999999
 30
0.000000000000000
 11
294.0933560000000
 21
148.7791949999999
 31
0.000000000000000
  0
LINE
  5
1A7
100
AcDbEntity
  8
1
  6
CONTINUOUS
 62
7
100
AcDbLine
 10
293.9433559999999
 20
145.7791949999998
 30
0.000000000000000
 11
294.0933560000000
 21
145.7791949999998
 31
0.000000000000000
  0
LINE
  5
1A8
100
AcDbEntity
  8
1
  6
CONTINUOUS
 62
7
100
AcDbLine
 10
311.9933560000000
 20
148.7791949999999
 30
0.000000000000000
 11
312.1433559999999
 21
148.7791949999999
 31
0.000000000000000
  0
LINE
  5
1A9
100
AcDbEntity
  8
1
  6
CONTINUOUS
 62
7
100
AcDbLine
 10
311.9933560000000
 20
145.7791949999998
 30
0.000000000000000
 11
312.1433559999999
 21
145.7791949999998
 31
0.000000000000000
  0
ARC
  5
1AA
100
AcDbEntity
  8
1
  6
CONTINUOUS
 62
7
100
AcDbCircle
 10
157.4820680000000
 20
111.5930610000000
 30
0.000000000000000
 40
12.40000000000000
100
AcDbArc
 50
332.7361879999999
 51
357.5582450000000
  0
LINE
  5
1AB
100
AcDbEntity
  8
1
  6
CONTINUOUS
 62
7
100
AcDbLine
 10
165.4313149999999
 20
99.95056400000001
 30
0.000000000000000
 11
164.2037130000000
 21
100.6246150000000
 31
0.000000000000000
  0
LINE
  5
1AC
100
AcDbEntity
  8
1
  6
CONTINUOUS
 62
7
100
AcDbLine
 10
165.4313149999999
 20
99.95056400000000
 30
0.000000000000000
 11
168.5044699999999
 21
105.9127240000000
 31
0.000000000000000
  0
ARC
  5
1AD
100
AcDbEntity
  8
1
  6
CONTINUOUS
 62
7
100
AcDbCircle
 10
172.3848129999999
 20
107.3325120000000
 30
0.000000000000000
 40
4.500000000000000
100
AcDbArc
 50
121.0483100000000
 51
158.3256030000000
  0
LINE
  5
1AE
100
AcDbEntity
  8
1
  6
CONTINUOUS
 62
7
100
AcDbLine
 10
42.46831399999999
 20
243.1043180000000
 30
0.000000000000000
 11
47.21981399999999
 21
241.6952949999999
 31
0.000000000000000
  0
LINE
  5
1AF
100
AcDbEntity
  8
1
  6
CONTINUOUS
 62
7
100
AcDbLine
 10
41.83770000000000
 20
240.1621950000000
 30
0.000000000000000
 11
46.36689800000001
 21
238.8190940000000
 31
0.000000000000000
  0
LINE
  5
1B0
100
AcDbEntity
  8
1
  6
CONTINUOUS
 62
7
100
AcDbLine
 10
21.61839800000000
 20
243.1043180000000
 30
0.000000000000000
 11
16.86689799999999
 21
241.6952949999999
 31
0.000000000000000
  0
ARC
  5
1B1
100
AcDbEntity
  8
1
  6
CONTINUOUS
 62
7
100
AcDbCircle
 10
22.04545600000000
 20
241.6641950000000
 30
0.000000000000000
 40
1.502110000000000
100
AcDbArc
 50
90.00000000000000
 51
106.5173419999998
  0
ARC
  5
1B2
100
AcDbEntity
  8
1
  6
CONTINUOUS
 62
7
100
AcDbCircle
 10
17.29335599999998
 20
240.2571950000000
 30
0.000000000000000
 40
1.500000000000000
100
AcDbArc
 50
106.5173419999998
 51
270.0000000000000
  0
LINE
  5
1B3
100
AcDbEntity
  8
1
  6
CONTINUOUS
 62
7
100
AcDbLine
 10
22.24901099999999
 20
240.1621949999999
 30
0.000000000000000
 11
17.71981399999999
 21
238.8190940000000
 31
0.000000000000000
  0
LINE
  5
1B4
100
AcDbEntity
  8
1
  6
CONTINUOUS
 62
7
100
AcDbLine
 10
20.79335599999998
 20
238.7571950000000
 30
0.000000000000000
 11
17.29335599999998
 21
238.7571950000000
 31
0.000000000000000
  0
LINE
  5
1B5
100
AcDbEntity
  8
1
  6
CONTINUOUS
 62
7
100
AcDbLine
 10
40.99335599999998
 20
243.5621950000000
 30
0.000000000000000
 11
40.99335599999998
 21
243.1671950000000
 31
0.000000000000000
  0
LINE
  5
1B6
100
AcDbEntity
  8
1
  6
CONTINUOUS
 62
7
100
AcDbLine
 10
23.09335600000000
 20
243.5621950000000
 30
0.000000000000000
 11
23.09335600000000
 21
243.1671950000000
 31
0.000000000000000
  0
LINE
  5
1B7
100
AcDbEntity
  8
1
  6
CONTINUOUS
 62
7
100
AcDbLine
 10
24.59335600000000
 20
243.5621950000000
 30
0.000000000000000
 11
24.61745600000000
 21
243.5621950000000
 31
0.000000000000000
  0
LINE
  5
1B8
100
AcDbEntity
  8
1
  6
CONTINUOUS
 62
7
100
AcDbLine
 10
39.49335599999999
 20
243.5621950000000
 30
0.000000000000000
 11
39.49335599999999
 21
243.1671950000000
 31
0.000000000000000
  0
LINE
  5
1B9
100
AcDbEntity
  8
1
  6
CONTINUOUS
 62
7
100
AcDbLine
 10
24.59335600000000
 20
243.5621950000000
 30
0.000000000000000
 11
24.59335600000000
 21
243.1671950000000
 31
0.000000000000000
  0
LINE
  5
1BA
100
AcDbEntity
  8
1
  6
CONTINUOUS
 62
7
100
AcDbLine
 10
25.61745600000000
 20
243.5621950000000
 30
0.000000000000000
 11
39.49335599999999
 21
243.5621950000000
 31
0.000000000000000
  0
ARC
  5
1BB
100
AcDbEntity
  8
1
  6
CONTINUOUS
 62
7
100
AcDbCircle
 10
22.94335600000000
 20
234.4741949999999
 30
0.000000000000000
 40
1.399999999999999
100
AcDbArc
 50
180.0000000000000
 51
270.0000000000000
  0
ARC
  5
1BC
100
AcDbEntity
  8
1
  6
CONTINUOUS
 62
7
100
AcDbCircle
 10
41.14335599999999
 20
234.4741949999999
 30
0.000000000000000
 40
1.399999999999999
100
AcDbArc
 50
270.0000000000000
 51
360.0000000000000
  0
LINE
  5
1BD
100
AcDbEntity
  8
1
  6
CONTINUOUS
 62
7
100
AcDbLine
 10
41.14335599999999
 20
240.1621950000000
 30
0.000000000000000
 11
41.14335599999999
 21
234.4741949999999
 31
0.000000000000000
  0
LINE
  5
1BE
100
AcDbEntity
  8
1
  6
CONTINUOUS
 62
7
100
AcDbLine
 10
22.94335600000000
 20
234.4741949999999
 30
0.000000000000000
 11
41.14335599999999
 21
234.4741949999999
 31
0.000000000000000
  0
LINE
  5
1BF
100
AcDbEntity
  8
1
  6
CONTINUOUS
 62
7
100
AcDbLine
 10
22.94335600000000
 20
240.1621950000000
 30
0.000000000000000
 11
22.94335600000000
 21
234.4741949999999
 31
0.000000000000000
  0
LINE
  5
1C0
100
AcDbEntity
  8
1
  6
CONTINUOUS
 62
7
100
AcDbLine
 10
42.54335600000000
 20
50.07949500000000
 30
0.000000000000000
 11
46.79335600000000
 21
50.07949500000000
 31
0.000000000000000
  0
ARC
  5
1C1
100
AcDbEntity
  8
1
  6
CONTINUOUS
 62
7
100
AcDbCircle
 10
46.79335600000000
 20
48.57949500000000
 30
0.000000000000000
 40
1.500000000000000
100
AcDbArc
 50
286.5173419999999
 51
450.0000000000000
  0
LINE
  5
1C2
100
AcDbEntity
  8
1
  6
CONTINUOUS
 62
7
100
AcDbLine
 10
42.54335600000001
 20
45.75462400000001
 30
0.000000000000000
 11
47.21981399999999
 21
47.14139399999999
 31
0.000000000000000
  0
LINE
  5
1C3
100
AcDbEntity
  8
1
  6
CONTINUOUS
 62
7
100
AcDbLine
 10
24.54335600000000
 20
43.77449499999999
 30
0.000000000000000
 11
39.54335600000000
 21
43.77449499999999
 31
0.000000000000000
  0
LINE
  5
1C4
100
AcDbEntity
  8
1
  6
CONTINUOUS
 62
7
100
AcDbLine
 10
22.94335600000000
 20
45.66949499999998
 30
0.000000000000000
 11
23.09335600000000
 21
45.66949499999998
 31
0.000000000000000
  0
LINE
  5
1C5
100
AcDbEntity
  8
1
  6
CONTINUOUS
 62
7
100
AcDbLine
 10
21.54335600000000
 20
45.75462400000000
 30
0.000000000000000
 11
16.86689799999999
 21
47.14139399999999
 31
0.000000000000000
  0
ARC
  5
1C6
100
AcDbEntity
  8
1
  6
CONTINUOUS
 62
7
100
AcDbCircle
 10
17.29335599999998
 20
48.57949500000000
 30
0.000000000000000
 40
1.500000000000000
100
AcDbArc
 50
90.00000000000000
 51
253.4826579999999
  0
LINE
  5
1C7
100
AcDbEntity
  8
1
  6
CONTINUOUS
 62
7
100
AcDbLine
 10
21.54335600000000
 20
50.07949500000000
 30
0.000000000000000
 11
17.29335599999998
 21
50.07949500000000
 31
0.000000000000000
  0
LINE
  5
1C8
100
AcDbEntity
  8
4
  6
CENTER
 62
1
100
AcDbLine
 10
15.79335600000000
 20
49.77449500000000
 30
0.000000000000000
 11
48.29335600000000
 21
49.77449500000000
 31
0.000000000000000
  0
LINE
  5
1C9
100
AcDbEntity
  8
4
  6
CENTER
 62
1
100
AcDbLine
 10
10.79335600000000
 20
48.57949500000000
 30
0.000000000000000
 11
53.29335600000000
 21
48.57949500000000
 31
0.000000000000000
  0
LINE
  5
1CA
100
AcDbEntity
  8
4
  6
CENTER
 62
1
100
AcDbLine
 10
15.54335599999999
 20
47.17449499999999
 30
0.000000000000000
 11
48.54335600000000
 21
47.17449499999999
 31
0.000000000000000
  0
LINE
  5
1CB
100
AcDbEntity
  8
1
  6
CONTINUOUS
 62
7
100
AcDbLine
 10
41.14335599999999
 20
45.27449500000000
 30
0.000000000000000
 11
42.54335600000000
 21
45.27449500000000
 31
0.000000000000000
  0
LINE
  5
1CC
100
AcDbEntity
  8
1
  6
CONTINUOUS
 62
7
100
AcDbLine
 10
22.94335600000000
 20
45.27449500000000
 30
0.000000000000000
 11
21.54335600000000
 21
45.27449500000000
 31
0.000000000000000
  0
LINE
  5
1CD
100
AcDbEntity
  8
1
  6
CONTINUOUS
 62
7
100
AcDbLine
 10
21.54335600000000
 20
47.07949500000000
 30
0.000000000000000
 11
17.29335599999998
 21
47.07949500000000
 31
0.000000000000000
  0
LINE
  5
1CE
100
AcDbEntity
  8
1
  6
CONTINUOUS
 62
7
100
AcDbLine
 10
42.54335600000000
 20
47.07949500000000
 30
0.000000000000000
 11
46.79335600000000
 21
47.07949500000000
 31
0.000000000000000
  0
LINE
  5
1CF
100
AcDbEntity
  8
1
  6
CONTINUOUS
 62
7
100
AcDbLine
 10
40.99335599999998
 20
45.66949499999998
 30
0.000000000000000
 11
41.14335599999999
 21
45.66949499999998
 31
0.000000000000000
  0
LINE
  5
1D0
100
AcDbEntity
  8
1
  6
CONTINUOUS
 62
7
100
AcDbLine
 10
32.79335600000000
 20
45.66949499999998
 30
0.000000000000000
 11
39.49335599999999
 21
45.66949499999998
 31
0.000000000000000
  0
LINE
  5
1D1
100
AcDbEntity
  8
1
  6
CONTINUOUS
 62
7
100
AcDbLine
 10
26.04335600000000
 20
45.66949499999998
 30
0.000000000000000
 11
31.29335600000000
 21
45.66949499999998
 31
0.000000000000000
  0
LINE
  5
1D2
100
AcDbEntity
  8
1
  6
CONTINUOUS
 62
7
100
AcDbLine
 10
24.59335600000000
 20
45.66949499999998
 30
0.000000000000000
 11
25.04335600000000
 21
45.66949499999998
 31
0.000000000000000
  0
ARC
  5
1D3
100
AcDbEntity
  8
1
  6
CONTINUOUS
 62
7
100
AcDbCircle
 10
22.94335600000000
 20
54.36189500000000
 30
0.000000000000000
 40
1.399999999999999
100
AcDbArc
 50
90.00000000000000
 51
180.0000000000000
  0
ARC
  5
1D4
100
AcDbEntity
  8
1
  6
CONTINUOUS
 62
7
100
AcDbCircle
 10
41.14335599999999
 20
54.36189500000000
 30
0.000000000000000
 40
1.399999999999999
100
AcDbArc
 50
0.000000000000000
 51
90.00000000000000
  0
LINE
  5
1D5
100
AcDbEntity
  8
1
  6
CONTINUOUS
 62
7
100
AcDbLine
 10
39.54335600000000
 20
43.77449499999999
 30
0.000000000000000
 11
39.54335600000000
 21
45.27449500000000
 31
0.000000000000000
  0
LINE
  5
1D6
100
AcDbEntity
  8
1
  6
CONTINUOUS
 62
7
100
AcDbLine
 10
24.54335600000000
 20
43.77449499999999
 30
0.000000000000000
 11
24.54335600000000
 21
45.27449500000000
 31
0.000000000000000
  0
LINE
  5
1D7
100
AcDbEntity
  8
4
  6
CENTER
 62
1
100
AcDbLine
 10
300.2933560000000
 20
115.1791950000000
 30
0.000000000000000
 11
305.7933560000000
 21
115.1791950000000
 31
0.000000000000000
  0
LINE
  5
1D8
100
AcDbEntity
  8
1
  6
CONTINUOUS
 62
7
100
AcDbLine
 10
302.2433560000000
 20
109.2791950000000
 30
0.000000000000000
 11
304.5433560000000
 21
109.2791950000000
 31
0.000000000000000
  0
LINE
  5
1D9
100
AcDbEntity
  8
1
  6
CONTINUOUS
 62
7
100
AcDbLine
 10
302.2433560000000
 20
121.2791949999999
 30
0.000000000000000
 11
304.5433560000000
 21
121.2791949999999
 31
0.000000000000000
  0
LINE
  5
1DA
100
AcDbEntity
  8
1
  6
CONTINUOUS
 62
7
100
AcDbLine
 10
304.5433560000000
 20
121.2791949999999
 30
0.000000000000000
 11
304.5433560000000
 21
109.2791950000000
 31
0.000000000000000
  0
LINE
  5
1DB
100
AcDbEntity
  8
2
  6
CONTINUOUS
 62
7
100
AcDbLine
 10
74.04335600000000
 20
159.6791949999999
 30
0.000000000000000
 11
90.04335599999999
 21
159.6791949999999
 31
0.000000000000000
  0
LINE
  5
1DC
100
AcDbEntity
  8
2
  6
CONTINUOUS
 62
7
100
AcDbLine
 10
74.04335600000000
 20
165.6791950000001
 30
0.000000000000000
 11
74.04335600000000
 21
159.6791949999999
 31
0.000000000000000
  0
LINE
  5
1DD
100
AcDbEntity
  8
2
  6
CONTINUOUS
 62
7
100
AcDbLine
 10
90.04335599999999
 20
165.6791950000001
 30
0.000000000000000
 11
90.04335599999999
 21
159.6791949999999
 31
0.000000000000000
  0
LINE
  5
1DE
100
AcDbEntity
  8
2
  6
CONTINUOUS
 62
7
100
AcDbLine
 10
76.04335600000000
 20
164.6791949999999
 30
0.000000000000000
 11
88.04335600000000
 21
164.6791949999999
 31
0.000000000000000
  0
LINE
  5
1DF
100
AcDbEntity
  8
2
  6
CONTINUOUS
 62
7
100
AcDbLine
 10
74.04335600000000
 20
165.6791950000001
 30
0.000000000000000
 11
68.66835600000000
 21
170.1881950000001
 31
0.000000000000000
  0
LINE
  5
1E0
100
AcDbEntity
  8
2
  6
CONTINUOUS
 62
7
100
AcDbLine
 10
90.04335600000000
 20
165.6791950000001
 30
0.000000000000000
 11
95.41835600000000
 21
170.1881950000001
 31
0.000000000000000
  0
LINE
  5
1E1
100
AcDbEntity
  8
5
  6
CENTER
 62
1
100
AcDbLine
 10
88.04335600000000
 20
176.9291949999999
 30
0.000000000000000
 11
88.04335600000000
 21
166.4291949999999
 31
0.000000000000000
  0
LINE
  5
1E2
100
AcDbEntity
  8
5
  6
CENTER
 62
1
100
AcDbLine
 10
70.79335600000000
 20
171.6791949999999
 30
0.000000000000000
 11
93.29335600000000
 21
171.6791949999999
 31
0.000000000000000
  0
LINE
  5
1E3
100
AcDbEntity
  8
5
  6
CENTER
 62
1
100
AcDbLine
 10
76.04335600000000
 20
176.9291949999999
 30
0.000000000000000
 11
76.04335600000000
 21
166.4291949999999
 31
0.000000000000000
  0
LINE
  5
1E4
100
AcDbEntity
  8
2
  6
CONTINUOUS
 62
7
100
AcDbLine
 10
76.04335600000000
 20
163.5671949999999
 30
0.000000000000000
 11
88.04335600000000
 21
163.5671949999999
 31
0.000000000000000
  0
LINE
  5
1E5
100
AcDbEntity
  8
5
  6
CENTER
 62
1
100
AcDbLine
 10
82.04335600000000
 20
182.6791950000001
 30
0.000000000000000
 11
82.04335600000000
 21
154.1791950000001
 31
0.000000000000000
  0
ARC
  5
1E6
100
AcDbEntity
  8
2
  6
CONTINUOUS
 62
7
100
AcDbCircle
 10
82.04335600000000
 20
156.6791950000001
 30
0.000000000000000
 40
21.00000000000000
100
AcDbArc
 50
50.47879999999999
 51
129.5209999999999
  0
ARC
  5
1E7
100
AcDbEntity
  8
2
  6
CONTINUOUS
 62
7
100
AcDbCircle
 10
69.79335600000000
 20
171.5281950000001
 30
0.000000000000000
 40
1.750000000000000
100
AcDbArc
 50
129.5209999999999
 51
230.0090000000000
  0
ARC
  5
1E8
100
AcDbEntity
  8
2
  6
CONTINUOUS
 62
7
100
AcDbCircle
 10
94.29335600000002
 20
171.5281950000001
 30
0.000000000000000
 40
1.750000000000000
100
AcDbArc
 50
309.9909999999998
 51
410.4788000000000
  0
ARC
  5
1E9
100
AcDbEntity
  8
2
  6
CONTINUOUS
 62
7
100
AcDbCircle
 10
76.04335600000000
 20
162.6791949999999
 30
0.000000000000000
 40
2.000000000000000
100
AcDbArc
 50
90.00000000000000
 51
180.0000000000000
  0
ARC
  5
1EA
100
AcDbEntity
  8
2
  6
CONTINUOUS
 62
7
100
AcDbCircle
 10
88.04335600000000
 20
162.6791949999999
 30
0.000000000000000
 40
2.000000000000000
100
AcDbArc
 50
0.000000000000000
 51
90.00000000000000
  0
CIRCLE
  5
1EB
100
AcDbEntity
  8
2
  6
CONTINUOUS
 62
7
100
AcDbCircle
 10
88.04335600000000
 20
171.6791949999999
 30
0.000000000000000
 40
1.800000000000000
  0
CIRCLE
  5
1EC
100
AcDbEntity
  8
2
  6
CONTINUOUS
 62
7
100
AcDbCircle
 10
88.04335600000000
 20
171.6791949999999
 30
0.000000000000000
 40
3.250000000000000
  0
CIRCLE
  5
1ED
100
AcDbEntity
  8
2
  6
CONTINUOUS
 62
7
100
AcDbCircle
 10
76.04335600000000
 20
171.6791949999999
 30
0.000000000000000
 40
3.250000000000000
  0
CIRCLE
  5
1EE
100
AcDbEntity
  8
2
  6
CONTINUOUS
 62
7
100
AcDbCircle
 10
76.04335600000000
 20
171.6791949999999
 30
0.000000000000000
 40
1.800000000000000
  0
ARC
  5
1EF
100
AcDbEntity
  8
2
  6
CONTINUOUS
 62
7
100
AcDbCircle
 10
76.04335600000000
 20
161.5671949999999
 30
0.000000000000000
 40
2.000000000000000
100
AcDbArc
 50
90.00000000000000
 51
180.0000000000000
  0
ARC
  5
1F0
100
AcDbEntity
  8
2
  6
CONTINUOUS
 62
7
100
AcDbCircle
 10
88.04335600000000
 20
161.5671949999999
 30
0.000000000000000
 40
2.000000000000000
100
AcDbArc
 50
0.000000000000000
 51
90.00000000000000
  0
LINE
  5
1F1
100
AcDbEntity
  8
2
  6
CONTINUOUS
 62
7
100
AcDbLine
 10
202.5433559999999
 20
177.6791950000001
 30
0.000000000000000
 11
204.0433560000000
 21
177.6791950000001
 31
0.000000000000000
  0
LINE
  5
1F2
100
AcDbEntity
  8
2
  6
CONTINUOUS
 62
7
100
AcDbLine
 10
204.0433560000000
 20
177.6791950000001
 30
0.000000000000000
 11
204.0433560000000
 21
163.0791949999999
 31
0.000000000000000
  0
LINE
  5
1F3
100
AcDbEntity
  8
2
  6
CONTINUOUS
 62
7
100
AcDbLine
 10
202.5433559999999
 20
177.6791950000001
 30
0.000000000000000
 11
202.5433559999999
 21
163.0791949999999
 31
0.000000000000000
  0
LINE
  5
1F4
100
AcDbEntity
  8
2
  6
CONTINUOUS
 62
7
100
AcDbLine
 10
195.0433559999999
 20
163.5671949999999
 30
0.000000000000000
 11
198.3593559999998
 21
160.5601950000001
 31
0.000000000000000
  0
LINE
  5
1F5
100
AcDbEntity
  8
2
  6
CONTINUOUS
 62
7
100
AcDbLine
 10
196.0503560000000
 20
164.6791949999999
 30
0.000000000000000
 11
199.3823559999999
 21
161.6581950000000
 31
0.000000000000000
  0
LINE
  5
1F6
100
AcDbEntity
  8
2
  6
CONTINUOUS
 62
7
100
AcDbLine
 10
195.0433560000000
 20
163.5671949999999
 30
0.000000000000000
 11
196.0503560000000
 21
164.6791949999999
 31
0.000000000000000
  0
LINE
  5
1F7
100
AcDbEntity
  8
5
  6
CENTER
 62
1
100
AcDbLine
 10
200.5433560000000
 20
171.6791949999999
 30
0.000000000000000
 11
206.0433560000000
 21
171.6791949999999
 31
0.000000000000000
  0
ARC
  5
1F8
100
AcDbEntity
  8
2
  6
CONTINUOUS
 62
7
100
AcDbCircle
 10
200.6433560000000
 20
163.0791949999999
 30
0.000000000000000
 40
3.399999999999999
100
AcDbArc
 50
227.8000000000000
 51
360.0000000000000
  0
ARC
  5
1F9
100
AcDbEntity
  8
2
  6
CONTINUOUS
 62
7
100
AcDbCircle
 10
200.6433560000000
 20
163.0791949999999
 30
0.000000000000000
 40
1.900000000000000
100
AcDbArc
 50
227.8000000000000
 51
360.0000000000000
  0
LINE
  5
1FA
100
AcDbEntity
  8
2
  6
CONTINUOUS
 62
7
100
AcDbLine
 10
204.0433560000000
 20
165.6791950000001
 30
0.000000000000000
 11
202.5433559999999
 21
165.6791950000001
 31
0.000000000000000
  0
LINE
  5
1FB
100
AcDbEntity
  8
2
  6
CONTINUOUS
 62
7
100
AcDbLine
 10
361.0433560000001
 20
159.6791949999999
 30
0.000000000000000
 11
345.0433560000002
 21
159.6791949999999
 31
0.000000000000000
  0
LINE
  5
1FC
100
AcDbEntity
  8
2
  6
CONTINUOUS
 62
7
100
AcDbLine
 10
361.0433560000001
 20
165.6791950000001
 30
0.000000000000000
 11
361.0433560000001
 21
159.6791949999999
 31
0.000000000000000
  0
LINE
  5
1FD
100
AcDbEntity
  8
2
  6
CONTINUOUS
 62
7
100
AcDbLine
 10
345.0433560000002
 20
165.6791950000001
 30
0.000000000000000
 11
345.0433560000002
 21
159.6791949999999
 31
0.000000000000000
  0
LINE
  5
1FE
100
AcDbEntity
  8
2
  6
CONTINUOUS
 62
7
100
AcDbLine
 10
361.0433560000001
 20
165.6791950000001
 30
0.000000000000000
 11
366.4183560000000
 21
170.1881950000001
 31
0.000000000000000
  0
LINE
  5
1FF
100
AcDbEntity
  8
2
  6
CONTINUOUS
 62
7
100
AcDbLine
 10
345.0433560000002
 20
165.6791950000001
 30
0.000000000000000
 11
339.6683560000000
 21
170.1881950000001
 31
0.000000000000000
  0
LINE
  5
200
100
AcDbEntity
  8
5
  6
CENTER
 62
1
100
AcDbLine
 10
347.0433560000002
 20
175.4791950000000
 30
0.000000000000000
 11
347.0433560000002
 21
167.8791950000000
 31
0.000000000000000
  0
LINE
  5
201
100
AcDbEntity
  8
5
  6
CENTER
 62
1
100
AcDbLine
 10
343.2433560000002
 20
171.6791949999999
 30
0.000000000000000
 11
362.8433560000002
 21
171.6791949999999
 31
0.000000000000000
  0
LINE
  5
202
100
AcDbEntity
  8
5
  6
CENTER
 62
1
100
AcDbLine
 10
359.0433560000001
 20
175.4791950000000
 30
0.000000000000000
 11
359.0433560000001
 21
167.8791950000000
 31
0.000000000000000
  0
LINE
  5
203
100
AcDbEntity
  8
5
  6
CENTER
 62
1
100
AcDbLine
 10
353.0433560000000
 20
182.6791950000001
 30
0.000000000000000
 11
353.0433560000000
 21
154.1791950000001
 31
0.000000000000000
  0
ARC
  5
204
100
AcDbEntity
  8
2
  6
CONTINUOUS
 62
7
100
AcDbCircle
 10
353.0433560000000
 20
156.6791950000001
 30
0.000000000000000
 40
21.00000000000000
100
AcDbArc
 50
50.47879999999999
 51
129.5209999999999
  0
ARC
  5
205
100
AcDbEntity
  8
2
  6
CONTINUOUS
 62
7
100
AcDbCircle
 10
365.2933560000001
 20
171.5281950000001
 30
0.000000000000000
 40
1.750000000000000
100
AcDbArc
 50
309.9909999999998
 51
410.4788000000000
  0
ARC
  5
206
100
AcDbEntity
  8
2
  6
CONTINUOUS
 62
7
100
AcDbCircle
 10
340.7933560000002
 20
171.5281950000001
 30
0.000000000000000
 40
1.750000000000000
100
AcDbArc
 50
129.5209999999999
 51
230.0090000000000
  0
CIRCLE
  5
207
100
AcDbEntity
  8
2
  6
CONTINUOUS
 62
7
100
AcDbCircle
 10
347.0433560000002
 20
171.6791949999999
 30
0.000000000000000
 40
1.800000000000000
  0
CIRCLE
  5
208
100
AcDbEntity
  8
2
  6
CONTINUOUS
 62
7
100
AcDbCircle
 10
359.0433560000001
 20
171.6791949999999
 30
0.000000000000000
 40
1.800000000000000
  0
ENDSEC
  0
SECTION
  2
OBJECTS
  0
DICTIONARY
  5
232
100
AcDbDictionary
  3
ACAD_GROUP
350
233
  3
ACAD_LAYOUT
350
234
  3
ACAD_MLINESTYLE
350
235
  0
DICTIONARY
  5
233
102
{ACAD_REACTORS
330
232
102
}
330
232
100
AcDbDictionary
  0
DICTIONARY
  5
234
102
{ACAD_REACTORS
330
232
102
}
330
232
100
AcDbDictionary
  3
Model
350
236
  3
ﾚｲｱｳﾄ1
350
237
  3
ﾚｲｱｳﾄ2
350
238
  0
DICTIONARY
  5
235
102
{ACAD_REACTORS
330
232
102
}
330
232
100
AcDbDictionary
  3
STANDARD
350
239
  0
LAYOUT
  5
236
102
{ACAD_REACTORS
330
234
102
}
330
234
100
AcDbPlotSettings
 70
11952
  4
A3
 44
297.000000
 45
420.000000
 73
  1
 72
  1
100
AcDbLayout
  1
Model
 71
0
330
229
  0
LAYOUT
  5
237
102
{ACAD_REACTORS
330
234
102
}
330
234
100
AcDbPlotSettings
100
AcDbLayout
  1
ﾚｲｱｳﾄ1
 71
1
330
22A
  0
LAYOUT
  5
238
102
{ACAD_REACTORS
330
234
102
}
330
234
100
AcDbPlotSettings
100
AcDbLayout
  1
ﾚｲｱｳﾄ2
 71
2
330
22B
  0
MLINESTYLE
  5
239
102
{ACAD_REACTORS
330
235
102
}
330
235
100
AcDbMlineStyle
  2
STANDARD
 70
     0
  3

 62
   256
 51
90.00
 52
90.00
 71
     2
 49
0.50
 62
   256
  6
BYLAYER
 49
-0.50
 62
   256
  6
BYLAYER
  0
ENDSEC
  0
EOF
