  0
SECTION
  2
HEADER
  9
$ACADVER
  1
AC1015
  9
$DWGCODEPAGE
  3
ANSI_932
  9
$LTSCALE
 40
20.0
  9
$FILLMODE
 70
     1
  9
$CLAYER
  8
0
  9
$PDMODE
 70
     0
  9
$SPLFRAME
 70
     0
  9
$SPLINETYPE
 70
     6
  9
$SPLINESEGS
 70
     8
  9
$DIMASZ
 40
2.000000
  9
$DIMEXE
 40
1.500000
  9
$DIMEXO
 40
0.800000
  9
$DIMTAD
 70
     1
  9
$DIMTIH
 70
     0
  9
$DIMTOH
 70
     0
  9
$DIMTVP
 40
0.500000
  9
$DIMTXT
 40
3.100000
  9
$EXTMIN
 10
0.000000
 20
0.000000
 30
0.000000
  9
$EXTMAX
 10
297.000000
 20
420.000000
 30
0.000000
  9
$MEASUREMENT
 70
  1
  9
$LIMMIN
 10
0.000000
 20
0.000000
  9
$LIMMAX
 10
297.000000
 20
420.000000
  9
$HANDSEED
  5
25E
  9
$LWDISPLAY
290
     0
  9
$DIMBLK
  1
_OPEN
  9
$DIMDEC
 70
     2
  9
$DIMADEC
 70
     2
  9
$DIMAUNIT
 70
     0
  9
$DIMZIN
 70
     8
  9
$DIMAZIN
 70
     2
  9
$DIMTOFL
 70
     1
  0
ENDSEC
  0
SECTION
  2
CLASSES
  0
ENDSEC
  0
SECTION
  2
TABLES
  0
TABLE
  2
VPORT
  5
22D
100
AcDbSymbolTable
 70
     1
  0
VPORT
  5
22E
100
AcDbSymbolTableRecord
100
AcDbViewportTableRecord
  2
*ACTIVE
 70
     0
 12
210.000000
 22
148.500000
 40
432.537307
 41
1.283749
  0
ENDTAB
  0
TABLE
  2
LTYPE
  5
22F
100
AcDbSymbolTable
 70
     3
  0
LTYPE
  5
230
100
AcDbSymbolTableRecord
100
AcDbLinetypeTableRecord
  2
BYBLOCK
 70
     0
  3

 72
    65
 73
     0
 40
0.0
  0
LTYPE
  5
231
100
AcDbSymbolTableRecord
100
AcDbLinetypeTableRecord
  2
BYLAYER
 70
     0
  3

 72
    65
 73
     0
 40
0.0
  0
LTYPE
  5
232
100
AcDbSymbolTableRecord
100
AcDbLinetypeTableRecord
  2
CONTINUOUS
 70
     0
  3
Solid line (NEC CAE2D for Win R16.0 : 2021.10.21)
 72
    65
 73
     0
 40
0.0
  0
LTYPE
  5
233
100
AcDbSymbolTableRecord
100
AcDbLinetypeTableRecord
  2
DASHED
 70
     0
  3
__ __ __ __ __ __ __ __ __ __ __ __ __ _
 72
    65
 73
     2
 40
0.75
 49
0.5
 74
     0
 49
-0.25
 74
     0
  0
LTYPE
  5
234
100
AcDbSymbolTableRecord
100
AcDbLinetypeTableRecord
  2
CENTER
 70
     0
  3
____ _ ____ _ ____ _ ____ _ ____ _ ____
 72
    65
 73
     4
 40
2.0
 49
1.25
 74
     0
 49
-0.25
 74
     0
 49
0.25
 74
     0
 49
-0.25
 74
     0
  0
ENDTAB
  0
TABLE
  2
LAYER
  5
235
100
AcDbSymbolTable
 70
    10
  0
LAYER
  5
236
100
AcDbSymbolTableRecord
100
AcDbLayerTableRecord
  2
0
 70
     0
 62
     7
  6
CONTINUOUS
370
    -3
390

  0
LAYER
  5
237
100
AcDbSymbolTableRecord
100
AcDbLayerTableRecord
  2
DXF0
 70
     0
 62
     7
  6
CONTINUOUS
370
    -3
390

  0
LAYER
  5
238
100
AcDbSymbolTableRecord
100
AcDbLayerTableRecord
  2
4
 70
     0
 62
     1
  6
CONTINUOUS
370
    -3
390

  0
LAYER
  5
239
100
AcDbSymbolTableRecord
100
AcDbLayerTableRecord
  2
5
 70
     0
 62
     6
  6
CONTINUOUS
370
    -3
390

  0
LAYER
  5
23A
100
AcDbSymbolTableRecord
100
AcDbLayerTableRecord
  2
1
 70
     0
 62
     7
  6
CONTINUOUS
370
    -3
390

  0
LAYER
  5
23B
100
AcDbSymbolTableRecord
100
AcDbLayerTableRecord
  2
2
 70
     0
 62
     4
  6
CONTINUOUS
370
    -3
390

  0
LAYER
  5
23C
100
AcDbSymbolTableRecord
100
AcDbLayerTableRecord
  2
3
 70
     0
 62
     2
  6
CONTINUOUS
370
    -3
390

  0
LAYER
  5
23D
100
AcDbSymbolTableRecord
100
AcDbLayerTableRecord
  2
6
 70
     0
 62
     5
  6
CONTINUOUS
370
    -3
390

  0
LAYER
  5
23E
100
AcDbSymbolTableRecord
100
AcDbLayerTableRecord
  2
7
 70
     0
 62
     7
  6
CONTINUOUS
370
    -3
390

  0
LAYER
  5
23F
100
AcDbSymbolTableRecord
100
AcDbLayerTableRecord
  2
DXF1023
 70
     0
 62
    16
  6
CONTINUOUS
370
    -3
390

  0
ENDTAB
  0
TABLE
  2
STYLE
  5
240
100
AcDbSymbolTable
 70
     4
  0
STYLE
  5
241
100
AcDbSymbolTableRecord
100
AcDbTextStyleTableRecord
  2
STANDARD
 70
    64
 40
0.0
 41
1.0
 50
0.0
 71
     0
 42
3.000000000000000
  3
TXT
  4

  0
STYLE
  5
242
100
AcDbSymbolTableRecord
100
AcDbTextStyleTableRecord
  2
ANKTATE
 70
    68
 40
0.0
 41
1.0
 50
0.0
 71
     0
 42
3.000000000000000
  3
TXT
  4

  0
STYLE
  5
243
100
AcDbSymbolTableRecord
100
AcDbTextStyleTableRecord
  2
KNJYOKO
 70
    64
 40
0.0
 41
1.0
 50
0.0
 71
     0
 42
3.000000000000000
  3
TXT
  4
BIGFONT
  0
STYLE
  5
244
100
AcDbSymbolTableRecord
100
AcDbTextStyleTableRecord
  2
KNJTATE
 70
    68
 40
0.0
 41
1.0
 50
0.0
 71
     0
 42
3.000000000000000
  3
TXT
  4
BIGFONT
  0
ENDTAB
  0
TABLE
  2
VIEW
  5
245
100
AcDbSymbolTable
 70
     0
  0
ENDTAB
  0
TABLE
  2
UCS
  5
246
100
AcDbSymbolTable
 70
     0
  0
ENDTAB
  0
TABLE
  2
APPID
  5
247
100
AcDbSymbolTable
 70
     1
  0
APPID
  5
248
100
AcDbSymbolTableRecord
100
AcDbRegAppTableRecord
  2
ACAD
 70
     0
  0
ENDTAB
  0
TABLE
  2
DIMSTYLE
  5
249
100
AcDbSymbolTable
 70
     2
100
AcDbDimStyleTable
  0
DIMSTYLE
105
24A
100
AcDbSymbolTableRecord
100
AcDbDimStyleTableRecord
  2
STANDARD
 70
     0
 41
2.000000
 44
1.500000
 42
0.800000
145
0.661290
140
3.100000
144
1.000000
146
0.645161
340
241
  0
DIMSTYLE
105
24B
100
AcDbSymbolTableRecord
100
AcDbDimStyleTableRecord
  2
DXF001
 70
     0
 41
2.000000
 44
1.500000
 42
0.800000
145
0.661290
140
3.100000
144
1.000000
146
0.645161
 77
     1
 73
     0
 74
     0
271
     2
179
     2
275
     0
 78
     8
 79
     2
172
     1
340
241
  0
ENDTAB
  0
TABLE
  2
BLOCK_RECORD
  5
24C
100
AcDbSymbolTable
 70
    12
  0
BLOCK_RECORD
  5
24D
100
AcDbSymbolTableRecord
100
AcDbBlockTableRecord
  2
*MODEL_SPACE
  0
BLOCK_RECORD
  5
24E
100
AcDbSymbolTableRecord
100
AcDbBlockTableRecord
  2
*PAPER_SPACE
  0
BLOCK_RECORD
  5
24F
100
AcDbSymbolTableRecord
100
AcDbBlockTableRecord
  2
*PAPER_SPACE0
  0
BLOCK_RECORD
  5
1
100
AcDbSymbolTableRecord
100
AcDbBlockTableRecord
  2
_NONE
  0
BLOCK_RECORD
  5
4
100
AcDbSymbolTableRecord
100
AcDbBlockTableRecord
  2
_CLOSED
  0
BLOCK_RECORD
  5
B
100
AcDbSymbolTableRecord
100
AcDbBlockTableRecord
  2
_DOT
  0
BLOCK_RECORD
  5
13
100
AcDbSymbolTableRecord
100
AcDbBlockTableRecord
  2
_OPEN
  0
BLOCK_RECORD
  5
19
100
AcDbSymbolTableRecord
100
AcDbBlockTableRecord
  2
_ORIGIN
  0
BLOCK_RECORD
  5
1E
100
AcDbSymbolTableRecord
100
AcDbBlockTableRecord
  2
_OPEN30
  0
BLOCK_RECORD
  5
24
100
AcDbSymbolTableRecord
100
AcDbBlockTableRecord
  2
_BOXFILLED
  0
BLOCK_RECORD
  5
29
100
AcDbSymbolTableRecord
100
AcDbBlockTableRecord
  2
_BOXBLANK
  0
BLOCK_RECORD
  5
31
100
AcDbSymbolTableRecord
100
AcDbBlockTableRecord
  2
_OBLIQUE
  0
BLOCK_RECORD
  5
35
100
AcDbSymbolTableRecord
100
AcDbBlockTableRecord
  2
_OPEN90
  0
BLOCK_RECORD
  5
3B
100
AcDbSymbolTableRecord
100
AcDbBlockTableRecord
  2
_CLOSEDBLANK
  0
BLOCK_RECORD
  5
41
100
AcDbSymbolTableRecord
100
AcDbBlockTableRecord
  2
_DOTBLANK
  0
ENDTAB
  0
ENDSEC
  0
SECTION
  2
BLOCKS
  0
BLOCK
  5
250
100
AcDbEntity
  8
0
100
AcDbBlockBegin
  2
*MODEL_SPACE
 70
     0
 10
0.0
 20
0.0
 30
0.0
  3
*MODEL_SPACE
  1

  0
ENDBLK
  5
251
100
AcDbEntity
  8
0
100
AcDbBlockEnd
  0
BLOCK
  5
252
100
AcDbEntity
  8
0
100
AcDbBlockBegin
  2
*PAPER_SPACE
 70
     0
 10
0.0
 20
0.0
 30
0.0
  3
*PAPER_SPACE
  1

  0
ENDBLK
  5
253
100
AcDbEntity
  8
0
100
AcDbBlockEnd
  0
BLOCK
  5
254
100
AcDbEntity
  8
0
100
AcDbBlockBegin
  2
*PAPER_SPACE0
 70
     0
 10
0.0
 20
0.0
 30
0.0
  3
*PAPER_SPACE0
  1

  0
ENDBLK
  5
255
100
AcDbEntity
  8
0
100
AcDbBlockEnd
  0
BLOCK
  5
2
330
1
100
AcDbEntity
  8
0
100
AcDbBlockBegin
  2
_NONE
 70
     0
 10
0.0
 20
0.0
 30
0.0
  3
_NONE
  1

  0
ENDBLK
  5
3
330
1
100
AcDbEntity
  8
0
100
AcDbBlockEnd
  0
BLOCK
  5
5
330
4
100
AcDbEntity
  8
0
100
AcDbBlockBegin
  2
_CLOSED
 70
     0
 10
0.0
 20
0.0
 30
0.0
  3
_CLOSED
  1

  0
LINE
  5
6
330
4
100
AcDbEntity
  8
0
  6
BYBLOCK
 62
     0
370
    -2
100
AcDbLine
 10
-1.0
 20
0.166667
 30
0.0
 11
0.0
 21
0.0
 31
0.0
  0
LINE
  5
7
330
4
100
AcDbEntity
  8
0
  6
BYBLOCK
 62
     0
370
    -2
100
AcDbLine
 10
0.0
 20
0.0
 30
0.0
 11
-1.0
 21
-0.166667
 31
0.0
  0
LINE
  5
8
330
4
100
AcDbEntity
  8
0
  6
BYBLOCK
 62
     0
370
    -2
100
AcDbLine
 10
-1.0
 20
0.166667
 30
0.0
 11
-1.0
 21
-0.166667
 31
0.0
  0
LINE
  5
9
330
4
100
AcDbEntity
  8
0
  6
BYBLOCK
 62
     0
370
    -2
100
AcDbLine
 10
0.0
 20
0.0
 30
0.0
 11
-1.0
 21
0.0
 31
0.0
  0
ENDBLK
  5
A
330
4
100
AcDbEntity
  8
0
100
AcDbBlockEnd
  0
BLOCK
  5
C
330
B
100
AcDbEntity
  8
0
100
AcDbBlockBegin
  2
_DOT
 70
     0
 10
0.0
 20
0.0
 30
0.0
  3
_DOT
  1

  0
POLYLINE
  5
D
330
B
100
AcDbEntity
  8
0
  6
BYBLOCK
 62
     0
370
    -2
100
AcDb2dPolyline
 66
     1
 10
0.0
 20
0.0
 30
0.0
 70
     1
 40
0.5
 41
0.5
  0
VERTEX
  5
E
330
B
100
AcDbEntity
  8
0
  6
BYBLOCK
 62
     0
370
    -2
100
AcDbVertex
100
AcDb2dVertex
 10
-0.25
 20
0.0
 30
0.0
 42
1.0
  0
VERTEX
  5
F
330
B
100
AcDbEntity
  8
0
  6
BYBLOCK
 62
     0
370
    -2
100
AcDbVertex
100
AcDb2dVertex
 10
0.25
 20
0.0
 30
0.0
 42
1.0
  0
SEQEND
  5
10
330
B
100
AcDbEntity
  8
0
  6
BYBLOCK
 62
     0
370
    -2
  0
LINE
  5
11
330
B
100
AcDbEntity
  8
0
  6
BYBLOCK
 62
     0
370
    -2
100
AcDbLine
 10
-0.5
 20
0.0
 30
0.0
 11
-1.0
 21
0.0
 31
0.0
  0
ENDBLK
  5
12
330
B
100
AcDbEntity
  8
0
100
AcDbBlockEnd
  0
BLOCK
  5
14
330
13
100
AcDbEntity
  8
0
100
AcDbBlockBegin
  2
_OPEN
 70
     0
 10
0.0
 20
0.0
 30
0.0
  3
_OPEN
  1

  0
LINE
  5
15
330
13
100
AcDbEntity
  8
0
  6
BYBLOCK
 62
     0
370
    -2
100
AcDbLine
 10
-1.0
 20
0.166667
 30
0.0
 11
0.0
 21
0.0
 31
0.0
  0
LINE
  5
16
330
13
100
AcDbEntity
  8
0
  6
BYBLOCK
 62
     0
370
    -2
100
AcDbLine
 10
0.0
 20
0.0
 30
0.0
 11
-1.0
 21
-0.166667
 31
0.0
  0
LINE
  5
17
330
13
100
AcDbEntity
  8
0
  6
BYBLOCK
 62
     0
370
    -2
100
AcDbLine
 10
0.0
 20
0.0
 30
0.0
 11
-1.0
 21
0.0
 31
0.0
  0
ENDBLK
  5
18
330
13
100
AcDbEntity
  8
0
100
AcDbBlockEnd
  0
BLOCK
  5
1A
330
19
100
AcDbEntity
  8
0
100
AcDbBlockBegin
  2
_ORIGIN
 70
     0
 10
0.0
 20
0.0
 30
0.0
  3
_ORIGIN
  1

  0
CIRCLE
  5
1B
330
19
100
AcDbEntity
  8
0
  6
BYBLOCK
 62
     0
370
    -2
100
AcDbCircle
 10
0.0
 20
0.0
 30
0.0
 40
0.5
  0
LINE
  5
1C
330
19
100
AcDbEntity
  8
0
  6
BYBLOCK
 62
     0
370
    -2
100
AcDbLine
 10
0.0
 20
0.0
 30
0.0
 11
-1.0
 21
0.0
 31
0.0
  0
ENDBLK
  5
1D
330
19
100
AcDbEntity
  8
0
100
AcDbBlockEnd
  0
BLOCK
  5
1F
330
1E
100
AcDbEntity
  8
0
100
AcDbBlockBegin
  2
_OPEN30
 70
     0
 10
0.0
 20
0.0
 30
0.0
  3
_OPEN30
  1

  0
LINE
  5
20
330
1E
100
AcDbEntity
  8
0
  6
BYBLOCK
 62
     0
370
    -2
100
AcDbLine
 10
-1.0
 20
0.267949
 30
0.0
 11
0.0
 21
0.0
 31
0.0
  0
LINE
  5
21
330
1E
100
AcDbEntity
  8
0
  6
BYBLOCK
 62
     0
370
    -2
100
AcDbLine
 10
0.0
 20
0.0
 30
0.0
 11
-1.0
 21
-0.267949
 31
0.0
  0
LINE
  5
22
330
1E
100
AcDbEntity
  8
0
  6
BYBLOCK
 62
     0
370
    -2
100
AcDbLine
 10
0.0
 20
0.0
 30
0.0
 11
-1.0
 21
0.0
 31
0.0
  0
ENDBLK
  5
23
330
1E
100
AcDbEntity
  8
0
100
AcDbBlockEnd
  0
BLOCK
  5
25
330
24
100
AcDbEntity
  8
0
100
AcDbBlockBegin
  2
_BOXFILLED
 70
     0
 10
0.0
 20
0.0
 30
0.0
  3
_BOXFILLED
  1

  0
SOLID
  5
26
330
24
100
AcDbEntity
  8
0
  6
BYBLOCK
 62
     0
370
    -2
100
AcDbTrace
 10
-0.5
 20
0.5
 30
0.0
 11
0.5
 21
0.5
 31
0.0
 12
-0.5
 22
-0.5
 32
0.0
 13
0.5
 23
-0.5
 33
0.0
  0
LINE
  5
27
330
24
100
AcDbEntity
  8
0
  6
BYBLOCK
 62
     0
370
    -2
100
AcDbLine
 10
-0.5
 20
0.0
 30
0.0
 11
-1.0
 21
0.0
 31
0.0
  0
ENDBLK
  5
28
330
24
100
AcDbEntity
  8
0
100
AcDbBlockEnd
  0
BLOCK
  5
2A
330
29
100
AcDbEntity
  8
0
100
AcDbBlockBegin
  2
_BOXBLANK
 70
     0
 10
0.0
 20
0.0
 30
0.0
  3
_BOXBLANK
  1

  0
LINE
  5
2B
330
29
100
AcDbEntity
  8
0
  6
BYBLOCK
 62
     0
370
    -2
100
AcDbLine
 10
-0.5
 20
-0.5
 30
0.0
 11
0.5
 21
-0.5
 31
0.0
  0
LINE
  5
2C
330
29
100
AcDbEntity
  8
0
  6
BYBLOCK
 62
     0
370
    -2
100
AcDbLine
 10
0.5
 20
-0.5
 30
0.0
 11
0.5
 21
0.5
 31
0.0
  0
LINE
  5
2D
330
29
100
AcDbEntity
  8
0
  6
BYBLOCK
 62
     0
370
    -2
100
AcDbLine
 10
0.5
 20
0.5
 30
0.0
 11
-0.5
 21
0.5
 31
0.0
  0
LINE
  5
2E
330
29
100
AcDbEntity
  8
0
  6
BYBLOCK
 62
     0
370
    -2
100
AcDbLine
 10
-0.5
 20
0.5
 30
0.0
 11
-0.5
 21
-0.5
 31
0.0
  0
LINE
  5
2F
330
29
100
AcDbEntity
  8
0
  6
BYBLOCK
 62
     0
370
    -2
100
AcDbLine
 10
-0.5
 20
0.0
 30
0.0
 11
-1.0
 21
0.0
 31
0.0
  0
ENDBLK
  5
30
330
29
100
AcDbEntity
  8
0
100
AcDbBlockEnd
  0
BLOCK
  5
32
330
31
100
AcDbEntity
  8
0
100
AcDbBlockBegin
  2
_OBLIQUE
 70
     0
 10
0.0
 20
0.0
 30
0.0
  3
_OBLIQUE
  1

  0
LINE
  5
33
330
31
100
AcDbEntity
  8
0
  6
BYBLOCK
 62
     0
370
    -2
100
AcDbLine
 10
-0.5
 20
-0.5
 30
0.0
 11
0.5
 21
0.5
 31
0.0
  0
ENDBLK
  5
34
330
31
100
AcDbEntity
  8
0
100
AcDbBlockEnd
  0
BLOCK
  5
36
330
35
100
AcDbEntity
  8
0
100
AcDbBlockBegin
  2
_OPEN90
 70
     0
 10
0.0
 20
0.0
 30
0.0
  3
_OPEN90
  1

  0
LINE
  5
37
330
35
100
AcDbEntity
  8
0
  6
BYBLOCK
 62
     0
370
    -2
100
AcDbLine
 10
-0.5
 20
0.5
 30
0.0
 11
0.0
 21
0.0
 31
0.0
  0
LINE
  5
38
330
35
100
AcDbEntity
  8
0
  6
BYBLOCK
 62
     0
370
    -2
100
AcDbLine
 10
0.0
 20
0.0
 30
0.0
 11
-0.5
 21
-0.5
 31
0.0
  0
LINE
  5
39
330
35
100
AcDbEntity
  8
0
  6
BYBLOCK
 62
     0
370
    -2
100
AcDbLine
 10
0.0
 20
0.0
 30
0.0
 11
-1.0
 21
0.0
 31
0.0
  0
ENDBLK
  5
3A
330
35
100
AcDbEntity
  8
0
100
AcDbBlockEnd
  0
BLOCK
  5
3C
330
3B
100
AcDbEntity
  8
0
100
AcDbBlockBegin
  2
_CLOSEDBLANK
 70
     0
 10
0.0
 20
0.0
 30
0.0
  3
_CLOSEDBLANK
  1

  0
LINE
  5
3D
330
3B
100
AcDbEntity
  8
0
  6
BYBLOCK
 62
     0
370
    -2
100
AcDbLine
 10
-1.0
 20
0.1666666666666666
 30
0.0
 11
0.0
 21
0.0
 31
0.0
  0
LINE
  5
3E
330
3B
100
AcDbEntity
  8
0
  6
BYBLOCK
 62
     0
370
    -2
100
AcDbLine
 10
0.0
 20
0.0
 30
0.0
 11
-1.0
 21
-0.1666666666666666
 31
0.0
  0
LINE
  5
3F
330
3B
100
AcDbEntity
  8
0
  6
BYBLOCK
 62
     0
370
    -2
100
AcDbLine
 10
-1.0
 20
0.1666666666666666
 30
0.0
 11
-1.0
 21
-0.1666666666666666
 31
0.0
  0
ENDBLK
  5
40
330
3B
100
AcDbEntity
  8
0
100
AcDbBlockEnd
  0
BLOCK
  5
42
330
41
100
AcDbEntity
  8
0
100
AcDbBlockBegin
  2
_DOTBLANK
 70
     0
 10
0.0
 20
0.0
 30
0.0
  3
_DOTBLANK
  1

  0
CIRCLE
  5
43
330
41
100
AcDbEntity
  8
0
  6
BYBLOCK
 62
     0
370
    -2
100
AcDbCircle
 10
0.0
 20
0.0
 30
0.0
 40
0.5
  0
LINE
  5
44
330
41
100
AcDbEntity
  8
0
  6
BYBLOCK
 62
     0
370
    -2
100
AcDbLine
 10
-0.5
 20
0.0
 30
0.0
 11
-1.0
 21
0.0
 31
0.0
  0
ENDBLK
  5
45
330
41
100
AcDbEntity
  8
0
100
AcDbBlockEnd
  0
ENDSEC
  0
SECTION
  2
ENTITIES
  0
MTEXT
  5
46
100
AcDbEntity
  8
7
  6
CONTINUOUS
 62
7
100
AcDbMText
 10
10.00000000000000
 20
18.00000000000000
 30
0.000000000000000
 40
3.000000000000000
 41
0.000000000000000
 44
0.6739999771118164
 71
     7
 72
     1
  1
{\H0.93x;{TYPE No.TL-3K-3}}
 11
1.000000000000000
 21
0.000000000000000
 31
0.000000000000000
  7
STANDARD
  0
LINE
  5
47
100
AcDbEntity
  8
1
  6
CONTINUOUS
 62
7
100
AcDbLine
 10
232.1358889999999
 20
137.2031879999999
 30
0.000000000000000
 11
246.1358890000000
 21
137.2031879999999
 31
0.000000000000000
  0
LINE
  5
48
100
AcDbEntity
  8
1
  6
CONTINUOUS
 62
7
100
AcDbLine
 10
232.1358889999999
 20
137.2031879999999
 30
0.000000000000000
 11
232.1358889999999
 21
131.7031879999998
 31
0.000000000000000
  0
LINE
  5
49
100
AcDbEntity
  8
1
  6
CONTINUOUS
 62
7
100
AcDbLine
 10
246.1358890000000
 20
137.2031879999999
 30
0.000000000000000
 11
246.1358890000000
 21
131.7031879999998
 31
0.000000000000000
  0
LINE
  5
4A
100
AcDbEntity
  8
1
  6
CONTINUOUS
 62
7
100
AcDbLine
 10
232.1358889999999
 20
131.7031879999998
 30
0.000000000000000
 11
234.1358889999999
 21
131.7031879999998
 31
0.000000000000000
  0
LINE
  5
4B
100
AcDbEntity
  8
1
  6
CONTINUOUS
 62
7
100
AcDbLine
 10
232.8858889999999
 20
129.6031879999999
 30
0.000000000000000
 11
234.1358889999999
 21
129.6031879999999
 31
0.000000000000000
  0
LINE
  5
4C
100
AcDbEntity
  8
1
  6
CONTINUOUS
 62
7
100
AcDbLine
 10
234.1358889999999
 20
131.7031879999998
 30
0.000000000000000
 11
234.1358889999999
 21
129.6031879999999
 31
0.000000000000000
  0
LINE
  5
4D
100
AcDbEntity
  8
1
  6
CONTINUOUS
 62
7
100
AcDbLine
 10
244.1358890000000
 20
131.7031879999998
 30
0.000000000000000
 11
244.1358890000000
 21
129.6031879999999
 31
0.000000000000000
  0
LINE
  5
4E
100
AcDbEntity
  8
1
  6
CONTINUOUS
 62
7
100
AcDbLine
 10
244.1358890000000
 20
131.7031879999998
 30
0.000000000000000
 11
246.1358890000000
 21
131.7031879999998
 31
0.000000000000000
  0
LINE
  5
4F
100
AcDbEntity
  8
1
  6
CONTINUOUS
 62
7
100
AcDbLine
 10
232.8858889999999
 20
129.6031879999999
 30
0.000000000000000
 11
232.8858889999999
 21
123.2031879999998
 31
0.000000000000000
  0
LINE
  5
50
100
AcDbEntity
  8
1
  6
CONTINUOUS
 62
7
100
AcDbLine
 10
245.3858889999999
 20
129.6031879999999
 30
0.000000000000000
 11
245.3858889999999
 21
106.4531879999998
 31
0.000000000000000
  0
LINE
  5
51
100
AcDbEntity
  8
1
  6
CONTINUOUS
 62
7
100
AcDbLine
 10
244.1358890000000
 20
129.6031879999999
 30
0.000000000000000
 11
245.3858889999999
 21
129.6031879999999
 31
0.000000000000000
  0
LINE
  5
52
100
AcDbEntity
  8
1
  6
CONTINUOUS
 62
7
100
AcDbLine
 10
239.6858890000000
 20
123.2031879999998
 30
0.000000000000000
 11
239.6858890000000
 21
120.0031880000000
 31
0.000000000000000
  0
LINE
  5
53
100
AcDbEntity
  8
1
  6
CONTINUOUS
 62
7
100
AcDbLine
 10
239.6858890000000
 20
123.2031879999998
 30
0.000000000000000
 11
232.8858889999999
 21
123.2031879999998
 31
0.000000000000000
  0
LINE
  5
54
100
AcDbEntity
  8
1
  6
CONTINUOUS
 62
7
100
AcDbLine
 10
239.6858890000000
 20
107.2031879999999
 30
0.000000000000000
 11
232.8858889999999
 21
107.2031879999999
 31
0.000000000000000
  0
LINE
  5
55
100
AcDbEntity
  8
4
  6
CENTER
 62
1
100
AcDbLine
 10
235.3858890000000
 20
127.2031879999999
 30
0.000000000000000
 11
242.8858889999999
 21
127.2031879999999
 31
0.000000000000000
  0
LINE
  5
56
100
AcDbEntity
  8
4
  6
CENTER
 62
1
100
AcDbLine
 10
235.3858890000000
 20
104.2031879999999
 30
0.000000000000000
 11
242.8858889999999
 21
104.2031879999999
 31
0.000000000000000
  0
LINE
  5
57
100
AcDbEntity
  8
1
  6
CONTINUOUS
 62
7
100
AcDbLine
 10
232.8858889999999
 20
107.2031879999999
 30
0.000000000000000
 11
232.8858889999999
 21
106.4531879999998
 31
0.000000000000000
  0
LINE
  5
58
100
AcDbEntity
  8
4
  6
CENTER
 62
1
100
AcDbLine
 10
29.13588900000000
 20
155.5401879999998
 30
0.000000000000000
 11
29.13588900000000
 21
93.70358800000000
 31
0.000000000000000
  0
LINE
  5
59
100
AcDbEntity
  8
1
  6
CONTINUOUS
 62
7
100
AcDbLine
 10
37.13588899999999
 20
137.6911879999999
 30
0.000000000000000
 11
37.13588899999999
 21
100.8791879999999
 31
0.000000000000000
  0
LINE
  5
5A
100
AcDbEntity
  8
1
  6
CONTINUOUS
 62
7
100
AcDbLine
 10
21.13588899999999
 20
137.6911879999999
 30
0.000000000000000
 11
21.13588899999999
 21
100.8791879999999
 31
0.000000000000000
  0
LINE
  5
5B
100
AcDbEntity
  8
1
  6
CONTINUOUS
 62
7
100
AcDbLine
 10
21.93588900000000
 20
137.6911879999999
 30
0.000000000000000
 11
21.93588900000000
 21
132.0641879999998
 31
0.000000000000000
  0
LINE
  5
5C
100
AcDbEntity
  8
1
  6
CONTINUOUS
 62
7
100
AcDbLine
 10
36.33588900000000
 20
137.6911879999999
 30
0.000000000000000
 11
36.33588900000000
 21
132.0641879999998
 31
0.000000000000000
  0
LINE
  5
5D
100
AcDbEntity
  8
4
  6
CENTER
 62
1
100
AcDbLine
 10
239.1358889999999
 20
155.5401879999998
 30
0.000000000000000
 11
239.1358889999999
 21
93.70358800000000
 31
0.000000000000000
  0
LINE
  5
5E
100
AcDbEntity
  8
1
  6
CONTINUOUS
 62
7
100
AcDbLine
 10
231.1358890000000
 20
137.6911879999999
 30
0.000000000000000
 11
231.1358890000000
 21
100.8791879999999
 31
0.000000000000000
  0
LINE
  5
5F
100
AcDbEntity
  8
1
  6
CONTINUOUS
 62
7
100
AcDbLine
 10
247.1358889999999
 20
137.6911879999999
 30
0.000000000000000
 11
247.1358889999999
 21
100.8791879999999
 31
0.000000000000000
  0
LINE
  5
60
100
AcDbEntity
  8
1
  6
CONTINUOUS
 62
7
100
AcDbLine
 10
246.3358890000000
 20
137.6911879999999
 30
0.000000000000000
 11
246.3358890000000
 21
100.8791879999999
 31
0.000000000000000
  0
LINE
  5
61
100
AcDbEntity
  8
1
  6
CONTINUOUS
 62
7
100
AcDbLine
 10
231.9358890000000
 20
137.6911879999999
 30
0.000000000000000
 11
231.9358890000000
 21
100.8791879999999
 31
0.000000000000000
  0
LINE
  5
62
100
AcDbEntity
  8
1
  6
CONTINUOUS
 62
7
100
AcDbLine
 10
246.3358890000000
 20
132.7031879999998
 30
0.000000000000000
 11
246.1358890000000
 21
132.7031879999998
 31
0.000000000000000
  0
LINE
  5
63
100
AcDbEntity
  8
4
  6
CENTER
 62
1
100
AcDbLine
 10
227.3858890000000
 20
134.3031879999998
 30
0.000000000000000
 11
250.8858889999999
 21
134.3031879999998
 31
0.000000000000000
  0
LINE
  5
64
100
AcDbEntity
  8
1
  6
CONTINUOUS
 62
7
100
AcDbLine
 10
230.3858889999999
 20
136.0531879999998
 30
0.000000000000000
 11
230.3858889999999
 21
132.5531879999997
 31
0.000000000000000
  0
LINE
  5
65
100
AcDbEntity
  8
1
  6
CONTINUOUS
 62
7
100
AcDbLine
 10
247.8858890000000
 20
136.0531879999998
 30
0.000000000000000
 11
247.8858890000000
 21
132.5531879999997
 31
0.000000000000000
  0
LINE
  5
66
100
AcDbEntity
  8
1
  6
CONTINUOUS
 62
7
100
AcDbLine
 10
231.9358890000000
 20
135.8031879999997
 30
0.000000000000000
 11
232.1358889999999
 21
135.8031879999997
 31
0.000000000000000
  0
LINE
  5
67
100
AcDbEntity
  8
1
  6
CONTINUOUS
 62
7
100
AcDbLine
 10
231.9358890000000
 20
132.8031879999997
 30
0.000000000000000
 11
232.1358889999999
 21
132.8031879999997
 31
0.000000000000000
  0
LINE
  5
68
100
AcDbEntity
  8
1
  6
CONTINUOUS
 62
7
100
AcDbLine
 10
230.3858889999999
 20
132.5531879999997
 30
0.000000000000000
 11
231.1358890000000
 21
132.5531879999997
 31
0.000000000000000
  0
LINE
  5
69
100
AcDbEntity
  8
1
  6
CONTINUOUS
 62
7
100
AcDbLine
 10
230.3858889999999
 20
136.0531879999998
 30
0.000000000000000
 11
231.1358890000000
 21
136.0531879999998
 31
0.000000000000000
  0
LINE
  5
6A
100
AcDbEntity
  8
1
  6
CONTINUOUS
 62
7
100
AcDbLine
 10
247.1358889999999
 20
136.0531879999998
 30
0.000000000000000
 11
247.8858890000000
 21
136.0531879999998
 31
0.000000000000000
  0
LINE
  5
6B
100
AcDbEntity
  8
1
  6
CONTINUOUS
 62
7
100
AcDbLine
 10
247.1358889999999
 20
132.5531879999997
 30
0.000000000000000
 11
247.8858890000000
 21
132.5531879999997
 31
0.000000000000000
  0
LINE
  5
6C
100
AcDbEntity
  8
1
  6
CONTINUOUS
 62
7
100
AcDbLine
 10
20.38588900000000
 20
136.0531879999998
 30
0.000000000000000
 11
20.38588900000000
 21
132.5531879999997
 31
0.000000000000000
  0
LINE
  5
6D
100
AcDbEntity
  8
1
  6
CONTINUOUS
 62
7
100
AcDbLine
 10
37.88588900000000
 20
136.0531879999998
 30
0.000000000000000
 11
37.88588900000000
 21
132.5531879999997
 31
0.000000000000000
  0
LINE
  5
6E
100
AcDbEntity
  8
4
  6
CENTER
 62
1
100
AcDbLine
 10
17.38588899999999
 20
134.3031879999998
 30
0.000000000000000
 11
40.88588900000000
 21
134.3031879999998
 31
0.000000000000000
  0
LINE
  5
6F
100
AcDbEntity
  8
1
  6
CONTINUOUS
 62
7
100
AcDbLine
 10
20.38588900000000
 20
132.5531879999997
 30
0.000000000000000
 11
21.13588899999999
 21
132.5531879999997
 31
0.000000000000000
  0
LINE
  5
70
100
AcDbEntity
  8
1
  6
CONTINUOUS
 62
7
100
AcDbLine
 10
20.38588900000000
 20
136.0531879999998
 30
0.000000000000000
 11
21.13588899999999
 21
136.0531879999998
 31
0.000000000000000
  0
LINE
  5
71
100
AcDbEntity
  8
1
  6
CONTINUOUS
 62
7
100
AcDbLine
 10
37.13588899999999
 20
136.0531879999998
 30
0.000000000000000
 11
37.88588900000000
 21
136.0531879999998
 31
0.000000000000000
  0
LINE
  5
72
100
AcDbEntity
  8
1
  6
CONTINUOUS
 62
7
100
AcDbLine
 10
37.13588899999999
 20
132.5531879999997
 30
0.000000000000000
 11
37.88588900000000
 21
132.5531879999997
 31
0.000000000000000
  0
LINE
  5
73
100
AcDbEntity
  8
4
  6
CENTER
 62
1
100
AcDbLine
 10
29.13588900000000
 20
207.4931879999998
 30
0.000000000000000
 11
29.13588900000000
 21
226.2161879999999
 31
0.000000000000000
  0
LINE
  5
74
100
AcDbEntity
  8
1
  6
CONTINUOUS
 62
7
100
AcDbLine
 10
231.1358890000000
 20
100.8791879999999
 30
0.000000000000000
 11
231.9358890000000
 21
100.8791879999999
 31
0.000000000000000
  0
LINE
  5
75
100
AcDbEntity
  8
1
  6
CONTINUOUS
 62
7
100
AcDbLine
 10
246.3358890000000
 20
100.8791879999999
 30
0.000000000000000
 11
247.1358889999999
 21
100.8791879999999
 31
0.000000000000000
  0
LINE
  5
76
100
AcDbEntity
  8
1
  6
CONTINUOUS
 62
7
100
AcDbLine
 10
36.13588899999999
 20
137.2031879999999
 30
0.000000000000000
 11
36.13588899999999
 21
132.0641879999998
 31
0.000000000000000
  0
LINE
  5
77
100
AcDbEntity
  8
1
  6
CONTINUOUS
 62
7
100
AcDbLine
 10
34.93588900000001
 20
137.2031879999999
 30
0.000000000000000
 11
34.93588900000001
 21
132.0641879999998
 31
0.000000000000000
  0
LINE
  5
78
100
AcDbEntity
  8
1
  6
CONTINUOUS
 62
7
100
AcDbLine
 10
36.13588899999999
 20
137.2031879999999
 30
0.000000000000000
 11
24.33588900000000
 21
137.2031879999999
 31
0.000000000000000
  0
LINE
  5
79
100
AcDbEntity
  8
1
  6
CONTINUOUS
 62
7
100
AcDbLine
 10
23.33588900000000
 20
137.2031879999999
 30
0.000000000000000
 11
23.33588900000000
 21
132.0641879999998
 31
0.000000000000000
  0
LINE
  5
7A
100
AcDbEntity
  8
1
  6
CONTINUOUS
 62
7
100
AcDbLine
 10
22.13588899999999
 20
137.2031879999999
 30
0.000000000000000
 11
22.13588899999999
 21
132.0641879999998
 31
0.000000000000000
  0
LINE
  5
7B
100
AcDbEntity
  8
1
  6
CONTINUOUS
 62
7
100
AcDbLine
 10
23.33588900000000
 20
135.8031879999997
 30
0.000000000000000
 11
24.42548900000000
 21
135.8031879999997
 31
0.000000000000000
  0
LINE
  5
7C
100
AcDbEntity
  8
1
  6
CONTINUOUS
 62
7
100
AcDbLine
 10
23.33588900000000
 20
132.8031879999997
 30
0.000000000000000
 11
23.76038900000000
 21
132.8031879999997
 31
0.000000000000000
  0
LINE
  5
7D
100
AcDbEntity
  8
1
  6
CONTINUOUS
 62
7
100
AcDbLine
 10
36.13588899999999
 20
135.8031879999997
 30
0.000000000000000
 11
36.33588900000000
 21
135.8031879999997
 31
0.000000000000000
  0
LINE
  5
7E
100
AcDbEntity
  8
1
  6
CONTINUOUS
 62
7
100
AcDbLine
 10
36.13588899999999
 20
132.8031879999997
 30
0.000000000000000
 11
36.33588900000000
 21
132.8031879999997
 31
0.000000000000000
  0
LINE
  5
7F
100
AcDbEntity
  8
1
  6
CONTINUOUS
 62
7
100
AcDbLine
 10
23.63588899999999
 20
139.2531879999999
 30
0.000000000000000
 11
23.63588899999999
 21
135.8031879999997
 31
0.000000000000000
  0
LINE
  5
80
100
AcDbEntity
  8
1
  6
CONTINUOUS
 62
7
100
AcDbLine
 10
24.33588900000000
 20
139.2531879999999
 30
0.000000000000000
 11
24.33588900000000
 21
135.8031879999997
 31
0.000000000000000
  0
LINE
  5
81
100
AcDbEntity
  8
1
  6
CONTINUOUS
 62
7
100
AcDbLine
 10
23.64418899999999
 20
132.2791879999998
 30
0.000000000000000
 11
24.57528900000001
 21
136.4791880000000
 31
0.000000000000000
  0
LINE
  5
82
100
AcDbEntity
  8
1
  6
CONTINUOUS
 62
7
100
AcDbLine
 10
24.32758900000000
 20
132.1281879999999
 30
0.000000000000000
 11
25.29228900000000
 21
136.4791880000000
 31
0.000000000000000
  0
LINE
  5
83
100
AcDbEntity
  8
1
  6
CONTINUOUS
 62
7
100
AcDbLine
 10
25.04458899999999
 20
132.1281879999999
 30
0.000000000000000
 11
26.00928899999999
 21
136.4791880000000
 31
0.000000000000000
  0
LINE
  5
84
100
AcDbEntity
  8
1
  6
CONTINUOUS
 62
7
100
AcDbLine
 10
25.76158900000000
 20
132.1281879999999
 30
0.000000000000000
 11
26.72628900000000
 21
136.4791880000000
 31
0.000000000000000
  0
LINE
  5
85
100
AcDbEntity
  8
1
  6
CONTINUOUS
 62
7
100
AcDbLine
 10
26.47858900000001
 20
132.1281879999999
 30
0.000000000000000
 11
27.44328900000000
 21
136.4791880000000
 31
0.000000000000000
  0
LINE
  5
86
100
AcDbEntity
  8
1
  6
CONTINUOUS
 62
7
100
AcDbLine
 10
27.19558900000000
 20
132.1281879999999
 30
0.000000000000000
 11
28.16028900000000
 21
136.4791880000000
 31
0.000000000000000
  0
LINE
  5
87
100
AcDbEntity
  8
1
  6
CONTINUOUS
 62
7
100
AcDbLine
 10
27.91258900000000
 20
132.1281879999999
 30
0.000000000000000
 11
28.87728900000000
 21
136.4791880000000
 31
0.000000000000000
  0
LINE
  5
88
100
AcDbEntity
  8
1
  6
CONTINUOUS
 62
7
100
AcDbLine
 10
28.62958900000000
 20
132.1281879999999
 30
0.000000000000000
 11
29.59428900000000
 21
136.4791880000000
 31
0.000000000000000
  0
LINE
  5
89
100
AcDbEntity
  8
1
  6
CONTINUOUS
 62
7
100
AcDbLine
 10
29.34658900000000
 20
132.1281879999999
 30
0.000000000000000
 11
30.31128900000001
 21
136.4791880000000
 31
0.000000000000000
  0
LINE
  5
8A
100
AcDbEntity
  8
1
  6
CONTINUOUS
 62
7
100
AcDbLine
 10
30.06358900000000
 20
132.1281879999999
 30
0.000000000000000
 11
31.02828900000000
 21
136.4791880000000
 31
0.000000000000000
  0
LINE
  5
8B
100
AcDbEntity
  8
1
  6
CONTINUOUS
 62
7
100
AcDbLine
 10
30.78058900000000
 20
132.1281879999999
 30
0.000000000000000
 11
31.74528900000000
 21
136.4791880000000
 31
0.000000000000000
  0
LINE
  5
8C
100
AcDbEntity
  8
1
  6
CONTINUOUS
 62
7
100
AcDbLine
 10
31.49758900000000
 20
132.1281879999999
 30
0.000000000000000
 11
32.46228900000001
 21
136.4791880000000
 31
0.000000000000000
  0
LINE
  5
8D
100
AcDbEntity
  8
1
  6
CONTINUOUS
 62
7
100
AcDbLine
 10
32.21458900000000
 20
132.1281879999999
 30
0.000000000000000
 11
33.17928900000000
 21
136.4791880000000
 31
0.000000000000000
  0
LINE
  5
8E
100
AcDbEntity
  8
1
  6
CONTINUOUS
 62
7
100
AcDbLine
 10
32.93148900000000
 20
132.1281879999999
 30
0.000000000000000
 11
33.89628900000000
 21
136.4791880000000
 31
0.000000000000000
  0
LINE
  5
8F
100
AcDbEntity
  8
1
  6
CONTINUOUS
 62
7
100
AcDbLine
 10
33.64848900000000
 20
132.1281879999999
 30
0.000000000000000
 11
34.57968900000001
 21
136.3281880000000
 31
0.000000000000000
  0
LINE
  5
90
100
AcDbEntity
  8
1
  6
CONTINUOUS
 62
7
100
AcDbLine
 10
34.46338900000000
 20
135.8031879999997
 30
0.000000000000000
 11
34.93588900000001
 21
135.8031879999997
 31
0.000000000000000
  0
LINE
  5
91
100
AcDbEntity
  8
1
  6
CONTINUOUS
 62
7
100
AcDbLine
 10
34.58798900000000
 20
136.4031879999998
 30
0.000000000000000
 11
34.58798900000000
 21
135.8031879999997
 31
0.000000000000000
  0
LINE
  5
92
100
AcDbEntity
  8
1
  6
CONTINUOUS
 62
7
100
AcDbLine
 10
33.88798899999999
 20
132.8031879999997
 30
0.000000000000000
 11
33.88798899999999
 21
132.0641879999998
 31
0.000000000000000
  0
LINE
  5
93
100
AcDbEntity
  8
1
  6
CONTINUOUS
 62
7
100
AcDbLine
 10
33.79838900000000
 20
132.8031879999997
 30
0.000000000000000
 11
34.93588900000001
 21
132.8031879999997
 31
0.000000000000000
  0
LINE
  5
94
100
AcDbEntity
  8
1
  6
CONTINUOUS
 62
7
100
AcDbLine
 10
23.63588899999999
 20
132.8031879999997
 30
0.000000000000000
 11
23.63588899999999
 21
132.2031879999999
 31
0.000000000000000
  0
LINE
  5
95
100
AcDbEntity
  8
1
  6
CONTINUOUS
 62
7
100
AcDbLine
 10
34.58798900000000
 20
132.8031879999997
 30
0.000000000000000
 11
34.58798900000000
 21
132.0641879999998
 31
0.000000000000000
  0
LINE
  5
96
100
AcDbEntity
  8
1
  6
CONTINUOUS
 62
7
100
AcDbLine
 10
23.63588899999999
 20
137.2031879999999
 30
0.000000000000000
 11
22.13588899999999
 21
137.2031879999999
 31
0.000000000000000
  0
LINE
  5
97
100
AcDbEntity
  8
1
  6
CONTINUOUS
 62
7
100
AcDbLine
 10
244.6358889999999
 20
139.2531879999999
 30
0.000000000000000
 11
244.6358889999999
 21
137.2031879999999
 31
0.000000000000000
  0
LINE
  5
98
100
AcDbEntity
  8
1
  6
CONTINUOUS
 62
7
100
AcDbLine
 10
243.9358890000000
 20
139.2531879999999
 30
0.000000000000000
 11
243.9358890000000
 21
137.2031879999999
 31
0.000000000000000
  0
LINE
  5
99
100
AcDbEntity
  8
1
  6
CONTINUOUS
 62
7
100
AcDbLine
 10
246.1358890000000
 20
135.8031879999997
 30
0.000000000000000
 11
246.3358890000000
 21
135.8031879999997
 31
0.000000000000000
  0
LINE
  5
9A
100
AcDbEntity
  8
1
  6
CONTINUOUS
 62
7
100
AcDbLine
 10
246.1358890000000
 20
132.8031879999997
 30
0.000000000000000
 11
246.3358890000000
 21
132.8031879999997
 31
0.000000000000000
  0
LINE
  5
9B
100
AcDbEntity
  8
1
  6
CONTINUOUS
 62
7
100
AcDbLine
 10
232.1358889999999
 20
132.7031879999998
 30
0.000000000000000
 11
231.9358890000000
 21
132.7031879999998
 31
0.000000000000000
  0
LINE
  5
9C
100
AcDbEntity
  8
4
  6
CENTER
 62
1
100
AcDbLine
 10
11.37448900000000
 20
128.0591879999998
 30
0.000000000000000
 11
46.89728900000000
 21
128.0591879999998
 31
0.000000000000000
  0
LINE
  5
9D
100
AcDbEntity
  8
4
  6
CENTER
 62
1
100
AcDbLine
 10
256.8968889999998
 20
128.0591879999998
 30
0.000000000000000
 11
221.3748890000000
 21
128.0591879999998
 31
0.000000000000000
  0
LINE
  5
9E
100
AcDbEntity
  8
4
  6
CENTER
 62
1
100
AcDbLine
 10
29.13588900000000
 20
57.11408800000000
 30
0.000000000000000
 11
29.13588900000000
 21
38.39048800000000
 31
0.000000000000000
  0
LINE
  5
9F
100
AcDbEntity
  8
1
  6
CONTINUOUS
 62
7
100
AcDbLine
 10
21.13588899999999
 20
137.6911879999999
 30
0.000000000000000
 11
21.93588900000000
 21
137.6911879999999
 31
0.000000000000000
  0
LINE
  5
A0
100
AcDbEntity
  8
1
  6
CONTINUOUS
 62
7
100
AcDbLine
 10
36.33588900000000
 20
137.6911879999999
 30
0.000000000000000
 11
37.13588899999999
 21
137.6911879999999
 31
0.000000000000000
  0
LINE
  5
A1
100
AcDbEntity
  8
1
  6
CONTINUOUS
 62
7
100
AcDbLine
 10
231.1358890000000
 20
137.6911879999999
 30
0.000000000000000
 11
231.9358890000000
 21
137.6911879999999
 31
0.000000000000000
  0
LINE
  5
A2
100
AcDbEntity
  8
1
  6
CONTINUOUS
 62
7
100
AcDbLine
 10
246.3358890000000
 20
137.6911879999999
 30
0.000000000000000
 11
247.1358889999999
 21
137.6911879999999
 31
0.000000000000000
  0
LINE
  5
A3
100
AcDbEntity
  8
4
  6
CENTER
 62
1
100
AcDbLine
 10
26.63588900000001
 20
104.2031879999999
 30
0.000000000000000
 11
31.63588900000001
 21
104.2031879999999
 31
0.000000000000000
  0
LINE
  5
A4
100
AcDbEntity
  8
4
  6
CENTER
 62
1
100
AcDbLine
 10
26.63588900000001
 20
127.2031879999999
 30
0.000000000000000
 11
31.63588900000001
 21
127.2031879999999
 31
0.000000000000000
  0
LINE
  5
A5
100
AcDbEntity
  8
1
  6
CONTINUOUS
 62
7
100
AcDbLine
 10
239.6858890000000
 20
110.0031879999998
 30
0.000000000000000
 11
238.4858889999999
 21
110.0031879999998
 31
0.000000000000000
  0
LINE
  5
A6
100
AcDbEntity
  8
1
  6
CONTINUOUS
 62
7
100
AcDbLine
 10
239.6858890000000
 20
120.0031880000000
 30
0.000000000000000
 11
238.4858889999999
 21
120.0031880000000
 31
0.000000000000000
  0
LINE
  5
A7
100
AcDbEntity
  8
1
  6
CONTINUOUS
 62
7
100
AcDbLine
 10
238.4858889999999
 20
120.0031880000000
 30
0.000000000000000
 11
238.4858889999999
 21
110.0031879999998
 31
0.000000000000000
  0
LINE
  5
A8
100
AcDbEntity
  8
1
  6
CONTINUOUS
 62
7
100
AcDbLine
 10
126.1858889999998
 20
110.0031879999998
 30
0.000000000000000
 11
129.3978459999999
 21
110.0031879999998
 31
0.000000000000000
  0
LINE
  5
A9
100
AcDbEntity
  8
1
  6
CONTINUOUS
 62
7
100
AcDbLine
 10
126.1858889999998
 20
118.5031879999998
 30
0.000000000000000
 11
127.7747600000000
 21
118.5031879999998
 31
0.000000000000000
  0
LINE
  5
AA
100
AcDbEntity
  8
4
  6
CENTER
 62
1
100
AcDbLine
 10
126.4358890000000
 20
119.5031879999998
 30
0.000000000000000
 11
126.4358890000000
 21
109.5031880000000
 31
0.000000000000000
  0
LINE
  5
AB
100
AcDbEntity
  8
4
  6
CENTER
 62
1
100
AcDbLine
 10
121.4358889999999
 20
114.5031879999998
 30
0.000000000000000
 11
131.4358890000000
 21
114.5031879999998
 31
0.000000000000000
  0
LINE
  5
AC
100
AcDbEntity
  8
1
  6
CONTINUOUS
 62
7
100
AcDbLine
 10
27.63588900000000
 20
119.4451879999999
 30
0.000000000000000
 11
30.63588900000000
 21
119.4451879999999
 31
0.000000000000000
  0
LINE
  5
AD
100
AcDbEntity
  8
1
  6
CONTINUOUS
 62
7
100
AcDbLine
 10
27.63588900000000
 20
107.9611879999998
 30
0.000000000000000
 11
30.63588900000000
 21
107.9611879999998
 31
0.000000000000000
  0
LINE
  5
AE
100
AcDbEntity
  8
1
  6
CONTINUOUS
 62
7
100
AcDbLine
 10
28.58588900000000
 20
118.5031879999998
 30
0.000000000000000
 11
29.78588900000000
 21
118.5031879999998
 31
0.000000000000000
  0
LINE
  5
AF
100
AcDbEntity
  8
1
  6
CONTINUOUS
 62
7
100
AcDbLine
 10
28.58588900000000
 20
110.0031879999998
 30
0.000000000000000
 11
29.78588900000000
 21
110.0031879999998
 31
0.000000000000000
  0
LINE
  5
B0
100
AcDbEntity
  8
1
  6
CONTINUOUS
 62
7
100
AcDbLine
 10
27.63588900000000
 20
119.4451879999999
 30
0.000000000000000
 11
27.63588900000000
 21
107.9611879999998
 31
0.000000000000000
  0
LINE
  5
B1
100
AcDbEntity
  8
1
  6
CONTINUOUS
 62
7
100
AcDbLine
 10
30.63588900000000
 20
119.4451879999999
 30
0.000000000000000
 11
30.63588900000000
 21
107.9611879999998
 31
0.000000000000000
  0
LINE
  5
B2
100
AcDbEntity
  8
1
  6
CONTINUOUS
 62
7
100
AcDbLine
 10
29.78588900000000
 20
119.4451879999999
 30
0.000000000000000
 11
29.78588900000000
 21
110.0031879999998
 31
0.000000000000000
  0
LINE
  5
B3
100
AcDbEntity
  8
1
  6
CONTINUOUS
 62
7
100
AcDbLine
 10
28.58588900000000
 20
119.4451879999999
 30
0.000000000000000
 11
28.58588900000000
 21
110.0031879999998
 31
0.000000000000000
  0
LINE
  5
B4
100
AcDbEntity
  8
4
  6
CENTER
 62
1
100
AcDbLine
 10
26.58588900000000
 20
114.5031879999998
 30
0.000000000000000
 11
31.78588900000000
 21
114.5031879999998
 31
0.000000000000000
  0
LINE
  5
B5
100
AcDbEntity
  8
1
  6
CONTINUOUS
 62
7
100
AcDbLine
 10
21.13588899999999
 20
131.9121879999999
 30
0.000000000000000
 11
37.13588899999999
 21
131.9121879999999
 31
0.000000000000000
  0
LINE
  5
B6
100
AcDbEntity
  8
1
  6
CONTINUOUS
 62
7
100
AcDbLine
 10
21.93588900000000
 20
132.0641879999998
 30
0.000000000000000
 11
36.33588900000000
 21
132.0641879999998
 31
0.000000000000000
  0
LINE
  5
B7
100
AcDbEntity
  8
1
  6
CONTINUOUS
 62
7
100
AcDbLine
 10
21.93588900000000
 20
135.8031879999997
 30
0.000000000000000
 11
22.13588899999999
 21
135.8031879999997
 31
0.000000000000000
  0
LINE
  5
B8
100
AcDbEntity
  8
1
  6
CONTINUOUS
 62
7
100
AcDbLine
 10
21.93588900000000
 20
132.8031879999997
 30
0.000000000000000
 11
22.13588899999999
 21
132.8031879999997
 31
0.000000000000000
  0
LINE
  5
B9
100
AcDbEntity
  8
1
  6
CONTINUOUS
 62
7
100
AcDbLine
 10
29.73588900000000
 20
55.39048799999999
 30
0.000000000000000
 11
28.53588900000000
 21
55.39048799999999
 31
0.000000000000000
  0
LINE
  5
BA
100
AcDbEntity
  8
1
  6
CONTINUOUS
 62
7
100
AcDbLine
 10
29.73588900000000
 20
55.39048799999999
 30
0.000000000000000
 11
29.73588900000000
 21
48.80732200000000
 31
0.000000000000000
  0
LINE
  5
BB
100
AcDbEntity
  8
1
  6
CONTINUOUS
 62
7
100
AcDbLine
 10
28.53588900000000
 20
55.39048799999999
 30
0.000000000000000
 11
28.53588900000000
 21
48.80732200000000
 31
0.000000000000000
  0
LINE
  5
BC
100
AcDbEntity
  8
4
  6
CENTER
 62
1
100
AcDbLine
 10
31.13588899999999
 20
50.89048800000000
 30
0.000000000000000
 11
27.13588899999999
 21
50.89048800000000
 31
0.000000000000000
  0
LINE
  5
BD
100
AcDbEntity
  8
1
  6
CONTINUOUS
 62
7
100
AcDbLine
 10
28.53588900000000
 20
209.2161879999999
 30
0.000000000000000
 11
29.73588900000000
 21
209.2161879999999
 31
0.000000000000000
  0
LINE
  5
BE
100
AcDbEntity
  8
1
  6
CONTINUOUS
 62
7
100
AcDbLine
 10
28.53588900000000
 20
209.2161879999999
 30
0.000000000000000
 11
28.53588900000000
 21
212.5011879999999
 31
0.000000000000000
  0
LINE
  5
BF
100
AcDbEntity
  8
1
  6
CONTINUOUS
 62
7
100
AcDbLine
 10
29.73588900000000
 20
209.2161879999999
 30
0.000000000000000
 11
29.73588900000000
 21
212.5011879999999
 31
0.000000000000000
  0
LINE
  5
C0
100
AcDbEntity
  8
4
  6
CENTER
 62
1
100
AcDbLine
 10
236.4858889999999
 20
114.5031879999998
 30
0.000000000000000
 11
241.6858889999998
 21
114.5031879999998
 31
0.000000000000000
  0
ARC
  5
C1
100
AcDbEntity
  8
1
  6
CONTINUOUS
 62
7
100
AcDbCircle
 10
239.1358889999999
 20
106.4531879999998
 30
0.000000000000000
 40
6.250000000000000
100
AcDbArc
 50
180.0000000000000
 51
360.0000100000000
  0
CIRCLE
  5
C2
100
AcDbEntity
  8
1
  6
CONTINUOUS
 62
7
100
AcDbCircle
 10
239.1358889999999
 20
104.2031879999999
 30
0.000000000000000
 40
1.750000000000000
  0
CIRCLE
  5
C3
100
AcDbEntity
  8
1
  6
CONTINUOUS
 62
7
100
AcDbCircle
 10
239.1358889999999
 20
127.2031879999999
 30
0.000000000000000
 40
1.750000000000000
  0
ARC
  5
C4
100
AcDbEntity
  8
1
  6
CONTINUOUS
 62
7
100
AcDbCircle
 10
29.13588900000000
 20
110.7451879999999
 30
0.000000000000000
 40
12.70199999999998
100
AcDbArc
 50
230.9629999999999
 51
309.0370000000000
  0
ARC
  5
C5
100
AcDbEntity
  8
1
  6
CONTINUOUS
 62
7
100
AcDbCircle
 10
29.13588900000000
 20
114.1001879999999
 30
0.000000000000000
 40
15.45330000000000
100
AcDbArc
 50
238.8229999999999
 51
301.1770000000000
  0
ARC
  5
C6
100
AcDbEntity
  8
1
  6
CONTINUOUS
 62
7
100
AcDbCircle
 10
239.1358889999999
 20
110.7451879999999
 30
0.000000000000000
 40
12.70199999999998
100
AcDbArc
 50
230.9629999999999
 51
309.0370000000000
  0
ARC
  5
C7
100
AcDbEntity
  8
1
  6
CONTINUOUS
 62
7
100
AcDbCircle
 10
23.98588900000000
 20
138.3031879999998
 30
0.000000000000000
 40
0.3500000000000000
100
AcDbArc
 50
44.41530000000000
 51
135.5849999999998
  0
ARC
  5
C8
100
AcDbEntity
  8
1
  6
CONTINUOUS
 62
7
100
AcDbCircle
 10
23.98588900000000
 20
139.1991879999999
 30
0.000000000000000
 40
0.3541670000000000
100
AcDbArc
 50
8.797410000000001
 51
171.2030000000000
  0
ARC
  5
C9
100
AcDbEntity
  8
1
  6
CONTINUOUS
 62
7
100
AcDbCircle
 10
34.23798899999999
 20
136.4031879999998
 30
0.000000000000000
 40
0.3500000000000000
100
AcDbArc
 50
347.5000000000000
 51
527.5000000000000
  0
ARC
  5
CA
100
AcDbEntity
  8
1
  6
CONTINUOUS
 62
7
100
AcDbCircle
 10
33.52098900000000
 20
136.4031879999998
 30
0.000000000000000
 40
0.3500000000000000
100
AcDbArc
 50
347.5000000000000
 51
527.5000000000000
  0
ARC
  5
CB
100
AcDbEntity
  8
1
  6
CONTINUOUS
 62
7
100
AcDbCircle
 10
32.80398900000000
 20
136.4031879999998
 30
0.000000000000000
 40
0.3500000000000000
100
AcDbArc
 50
347.5000000000000
 51
527.5000000000000
  0
ARC
  5
CC
100
AcDbEntity
  8
1
  6
CONTINUOUS
 62
7
100
AcDbCircle
 10
32.08698900000000
 20
136.4031879999998
 30
0.000000000000000
 40
0.3500000000000000
100
AcDbArc
 50
347.5000000000000
 51
527.5000000000000
  0
ARC
  5
CD
100
AcDbEntity
  8
1
  6
CONTINUOUS
 62
7
100
AcDbCircle
 10
31.36998900000000
 20
136.4031879999998
 30
0.000000000000000
 40
0.3500000000000000
100
AcDbArc
 50
347.5000000000000
 51
527.5000000000000
  0
ARC
  5
CE
100
AcDbEntity
  8
1
  6
CONTINUOUS
 62
7
100
AcDbCircle
 10
30.65298900000000
 20
136.4031879999998
 30
0.000000000000000
 40
0.3500000000000000
100
AcDbArc
 50
347.5000000000000
 51
527.5000000000000
  0
ARC
  5
CF
100
AcDbEntity
  8
1
  6
CONTINUOUS
 62
7
100
AcDbCircle
 10
29.93598900000000
 20
136.4031879999998
 30
0.000000000000000
 40
0.3500000000000000
100
AcDbArc
 50
347.5000000000000
 51
527.5000000000000
  0
ARC
  5
D0
100
AcDbEntity
  8
1
  6
CONTINUOUS
 62
7
100
AcDbCircle
 10
29.21898900000000
 20
136.4031879999998
 30
0.000000000000000
 40
0.3500000000000000
100
AcDbArc
 50
347.5000000000000
 51
527.5000000000000
  0
ARC
  5
D1
100
AcDbEntity
  8
1
  6
CONTINUOUS
 62
7
100
AcDbCircle
 10
28.50198900000000
 20
136.4031879999998
 30
0.000000000000000
 40
0.3500000000000000
100
AcDbArc
 50
347.5000000000000
 51
527.5000000000000
  0
ARC
  5
D2
100
AcDbEntity
  8
1
  6
CONTINUOUS
 62
7
100
AcDbCircle
 10
27.78498900000001
 20
136.4031879999998
 30
0.000000000000000
 40
0.3500000000000000
100
AcDbArc
 50
347.5000000000000
 51
527.5000000000000
  0
ARC
  5
D3
100
AcDbEntity
  8
1
  6
CONTINUOUS
 62
7
100
AcDbCircle
 10
27.06798900000000
 20
136.4031879999998
 30
0.000000000000000
 40
0.3500000000000000
100
AcDbArc
 50
347.5000000000000
 51
527.5000000000000
  0
ARC
  5
D4
100
AcDbEntity
  8
1
  6
CONTINUOUS
 62
7
100
AcDbCircle
 10
26.35098900000000
 20
136.4031879999998
 30
0.000000000000000
 40
0.3500000000000000
100
AcDbArc
 50
347.5000000000000
 51
527.5000000000000
  0
ARC
  5
D5
100
AcDbEntity
  8
1
  6
CONTINUOUS
 62
7
100
AcDbCircle
 10
25.63398900000000
 20
136.4031879999998
 30
0.000000000000000
 40
0.3500000000000000
100
AcDbArc
 50
347.5000000000000
 51
527.5000000000000
  0
ARC
  5
D6
100
AcDbEntity
  8
1
  6
CONTINUOUS
 62
7
100
AcDbCircle
 10
24.91698900000000
 20
136.4031879999998
 30
0.000000000000000
 40
0.3500000000000000
100
AcDbArc
 50
347.5000000000000
 51
527.5000000000000
  0
ARC
  5
D7
100
AcDbEntity
  8
1
  6
CONTINUOUS
 62
7
100
AcDbCircle
 10
244.2858890000000
 20
139.1991879999999
 30
0.000000000000000
 40
0.3541670000000000
100
AcDbArc
 50
8.797419999999997
 51
171.2030000000000
  0
ARC
  5
D8
100
AcDbEntity
  8
1
  6
CONTINUOUS
 62
7
100
AcDbCircle
 10
244.2858890000000
 20
138.3031879999998
 30
0.000000000000000
 40
0.3500000000000000
100
AcDbArc
 50
44.41530000000000
 51
135.5849999999998
  0
ARC
  5
D9
100
AcDbEntity
  8
1
  6
CONTINUOUS
 62
7
100
AcDbCircle
 10
126.1858889999998
 20
114.2531879999998
 30
0.000000000000000
 40
4.250000000000000
100
AcDbArc
 50
90.00000000000000
 51
270.0000000000000
  0
ARC
  5
DA
100
AcDbEntity
  8
1
  6
CONTINUOUS
 62
7
100
AcDbCircle
 10
126.4358890000000
 20
114.5031879999998
 30
0.000000000000000
 40
2.500000000000000
100
AcDbArc
 50
42.50500000000000
 51
339.5150000000000
  0
ARC
  5
DB
100
AcDbEntity
  8
1
  6
CONTINUOUS
 62
7
100
AcDbCircle
 10
23.98588900000000
 20
132.2031879999999
 30
0.000000000000000
 40
0.3500000000000000
100
AcDbArc
 50
167.5000000000000
 51
203.3970000000000
  0
ARC
  5
DC
100
AcDbEntity
  8
1
  6
CONTINUOUS
 62
7
100
AcDbCircle
 10
24.70288899999999
 20
132.2031879999999
 30
0.000000000000000
 40
0.3499990000000000
100
AcDbArc
 50
167.5000000000000
 51
203.3970000000000
  0
ARC
  5
DD
100
AcDbEntity
  8
1
  6
CONTINUOUS
 62
7
100
AcDbCircle
 10
25.41988900000000
 20
132.2031879999999
 30
0.000000000000000
 40
0.3500000000000000
100
AcDbArc
 50
167.5000000000000
 51
203.3970000000000
  0
ARC
  5
DE
100
AcDbEntity
  8
1
  6
CONTINUOUS
 62
7
100
AcDbCircle
 10
26.13688900000000
 20
132.2031879999999
 30
0.000000000000000
 40
0.3499990000000000
100
AcDbArc
 50
167.5000000000000
 51
203.3970000000000
  0
ARC
  5
DF
100
AcDbEntity
  8
1
  6
CONTINUOUS
 62
7
100
AcDbCircle
 10
26.85388899999999
 20
132.2031879999999
 30
0.000000000000000
 40
0.3500000000000000
100
AcDbArc
 50
167.5000000000000
 51
203.3970000000000
  0
ARC
  5
E0
100
AcDbEntity
  8
1
  6
CONTINUOUS
 62
7
100
AcDbCircle
 10
27.57088900000000
 20
132.2031879999999
 30
0.000000000000000
 40
0.3499990000000000
100
AcDbArc
 50
167.5000000000000
 51
203.3970000000000
  0
ARC
  5
E1
100
AcDbEntity
  8
1
  6
CONTINUOUS
 62
7
100
AcDbCircle
 10
28.28788900000000
 20
132.2031879999999
 30
0.000000000000000
 40
0.3500000000000000
100
AcDbArc
 50
167.5000000000000
 51
203.3970000000000
  0
ARC
  5
E2
100
AcDbEntity
  8
1
  6
CONTINUOUS
 62
7
100
AcDbCircle
 10
29.00488900000000
 20
132.2031879999999
 30
0.000000000000000
 40
0.3500000000000000
100
AcDbArc
 50
167.5000000000000
 51
203.3970000000000
  0
ARC
  5
E3
100
AcDbEntity
  8
1
  6
CONTINUOUS
 62
7
100
AcDbCircle
 10
29.72188900000000
 20
132.2031879999999
 30
0.000000000000000
 40
0.3499990000000000
100
AcDbArc
 50
167.5000000000000
 51
203.3970000000000
  0
ARC
  5
E4
100
AcDbEntity
  8
1
  6
CONTINUOUS
 62
7
100
AcDbCircle
 10
30.43888900000000
 20
132.2031879999999
 30
0.000000000000000
 40
0.3500000000000000
100
AcDbArc
 50
167.5000000000000
 51
203.3970000000000
  0
ARC
  5
E5
100
AcDbEntity
  8
1
  6
CONTINUOUS
 62
7
100
AcDbCircle
 10
31.15578900000000
 20
132.2031879999999
 30
0.000000000000000
 40
0.3500000000000000
100
AcDbArc
 50
167.5000000000000
 51
203.3970000000000
  0
ARC
  5
E6
100
AcDbEntity
  8
1
  6
CONTINUOUS
 62
7
100
AcDbCircle
 10
31.87278900000000
 20
132.2031879999999
 30
0.000000000000000
 40
0.3500000000000000
100
AcDbArc
 50
167.5000000000000
 51
203.3970000000000
  0
ARC
  5
E7
100
AcDbEntity
  8
1
  6
CONTINUOUS
 62
7
100
AcDbCircle
 10
32.58978900000001
 20
132.2031879999999
 30
0.000000000000000
 40
0.3500000000000000
100
AcDbArc
 50
167.5000000000000
 51
203.3970000000000
  0
ARC
  5
E8
100
AcDbEntity
  8
1
  6
CONTINUOUS
 62
7
100
AcDbCircle
 10
33.30678900000000
 20
132.2031879999999
 30
0.000000000000000
 40
0.3500000000000000
100
AcDbArc
 50
167.5000000000000
 51
203.3970000000000
  0
ARC
  5
E9
100
AcDbEntity
  8
1
  6
CONTINUOUS
 62
7
100
AcDbCircle
 10
23.98588900000000
 20
132.2031879999999
 30
0.000000000000000
 40
0.3500000000000000
100
AcDbArc
 50
336.6030000000000
 51
347.5000000000000
  0
ARC
  5
EA
100
AcDbEntity
  8
1
  6
CONTINUOUS
 62
7
100
AcDbCircle
 10
24.70288899999999
 20
132.2031879999999
 30
0.000000000000000
 40
0.3499990000000000
100
AcDbArc
 50
336.6030000000000
 51
347.5000000000000
  0
ARC
  5
EB
100
AcDbEntity
  8
1
  6
CONTINUOUS
 62
7
100
AcDbCircle
 10
25.41988900000000
 20
132.2031879999999
 30
0.000000000000000
 40
0.3500000000000000
100
AcDbArc
 50
336.6030000000000
 51
347.5000000000000
  0
ARC
  5
EC
100
AcDbEntity
  8
1
  6
CONTINUOUS
 62
7
100
AcDbCircle
 10
26.13688900000000
 20
132.2031879999999
 30
0.000000000000000
 40
0.3499990000000000
100
AcDbArc
 50
336.6030000000000
 51
347.5000000000000
  0
ARC
  5
ED
100
AcDbEntity
  8
1
  6
CONTINUOUS
 62
7
100
AcDbCircle
 10
26.85388899999999
 20
132.2031879999999
 30
0.000000000000000
 40
0.3500000000000000
100
AcDbArc
 50
336.6030000000000
 51
347.5000000000000
  0
ARC
  5
EE
100
AcDbEntity
  8
1
  6
CONTINUOUS
 62
7
100
AcDbCircle
 10
27.57088900000000
 20
132.2031879999999
 30
0.000000000000000
 40
0.3499990000000000
100
AcDbArc
 50
336.6030000000000
 51
360.0000000000000
  0
ARC
  5
EF
100
AcDbEntity
  8
1
  6
CONTINUOUS
 62
7
100
AcDbCircle
 10
28.28788900000000
 20
132.2031879999999
 30
0.000000000000000
 40
0.3500000000000000
100
AcDbArc
 50
336.6030000000000
 51
347.5000000000000
  0
ARC
  5
F0
100
AcDbEntity
  8
1
  6
CONTINUOUS
 62
7
100
AcDbCircle
 10
29.00488900000000
 20
132.2031879999999
 30
0.000000000000000
 40
0.3500000000000000
100
AcDbArc
 50
336.6030000000000
 51
347.5000000000000
  0
ARC
  5
F1
100
AcDbEntity
  8
1
  6
CONTINUOUS
 62
7
100
AcDbCircle
 10
29.72188900000000
 20
132.2031879999999
 30
0.000000000000000
 40
0.3499990000000000
100
AcDbArc
 50
336.6030000000000
 51
347.5000000000000
  0
ARC
  5
F2
100
AcDbEntity
  8
1
  6
CONTINUOUS
 62
7
100
AcDbCircle
 10
30.43888900000000
 20
132.2031879999999
 30
0.000000000000000
 40
0.3500000000000000
100
AcDbArc
 50
336.6030000000000
 51
347.5000000000000
  0
ARC
  5
F3
100
AcDbEntity
  8
1
  6
CONTINUOUS
 62
7
100
AcDbCircle
 10
31.15578900000000
 20
132.2031879999999
 30
0.000000000000000
 40
0.3500000000000000
100
AcDbArc
 50
336.6030000000000
 51
347.5000000000000
  0
ARC
  5
F4
100
AcDbEntity
  8
1
  6
CONTINUOUS
 62
7
100
AcDbCircle
 10
31.87278900000000
 20
132.2031879999999
 30
0.000000000000000
 40
0.3500000000000000
100
AcDbArc
 50
336.6030000000000
 51
347.5000000000000
  0
ARC
  5
F5
100
AcDbEntity
  8
1
  6
CONTINUOUS
 62
7
100
AcDbCircle
 10
32.58978900000001
 20
132.2031879999999
 30
0.000000000000000
 40
0.3500000000000000
100
AcDbArc
 50
336.6030000000000
 51
347.5000000000000
  0
ARC
  5
F6
100
AcDbEntity
  8
1
  6
CONTINUOUS
 62
7
100
AcDbCircle
 10
33.30678900000000
 20
132.2031879999999
 30
0.000000000000000
 40
0.3500000000000000
100
AcDbArc
 50
336.6030000000000
 51
347.5000000000000
  0
LINE
  5
F7
100
AcDbEntity
  8
1
  6
CONTINUOUS
 62
7
100
AcDbLine
 10
237.6358890000000
 20
119.4451879999999
 30
0.000000000000000
 11
237.6358890000000
 21
107.9611879999998
 31
0.000000000000000
  0
LINE
  5
F8
100
AcDbEntity
  8
1
  6
CONTINUOUS
 62
7
100
AcDbLine
 10
239.6858890000000
 20
107.9611879999998
 30
0.000000000000000
 11
237.6358890000000
 21
107.9611879999998
 31
0.000000000000000
  0
LINE
  5
F9
100
AcDbEntity
  8
1
  6
CONTINUOUS
 62
7
100
AcDbLine
 10
238.4858889999999
 20
119.4451879999999
 30
0.000000000000000
 11
237.6358890000000
 21
119.4451879999999
 31
0.000000000000000
  0
LINE
  5
FA
100
AcDbEntity
  8
1
  6
CONTINUOUS
 62
7
100
AcDbLine
 10
128.9361889999999
 20
148.7327909999999
 30
0.000000000000000
 11
128.5231890000000
 21
128.0887909999999
 31
0.000000000000000
  0
LINE
  5
FB
100
AcDbEntity
  8
1
  6
CONTINUOUS
 62
7
100
AcDbLine
 10
131.9355889999999
 20
148.6727850000000
 30
0.000000000000000
 11
131.5225889999998
 21
128.0287850000000
 31
0.000000000000000
  0
LINE
  5
FC
100
AcDbEntity
  8
4
  6
CENTER
 62
1
100
AcDbLine
 10
130.4358890000000
 20
152.2027879999999
 30
0.000000000000000
 11
130.4358890000000
 21
145.2027879999999
 31
0.000000000000000
  0
LINE
  5
FD
100
AcDbEntity
  8
1
  6
CONTINUOUS
 62
7
100
AcDbLine
 10
132.7358889999999
 20
111.9027879999999
 30
0.000000000000000
 11
132.7358889999999
 21
100.2031880000000
 31
0.000000000000000
  0
LINE
  5
FE
100
AcDbEntity
  8
1
  6
CONTINUOUS
 62
7
100
AcDbLine
 10
131.5738889999997
 20
100.8787880000000
 30
0.000000000000000
 11
132.3078889999999
 21
134.3697880000000
 31
0.000000000000000
  0
LINE
  5
FF
100
AcDbEntity
  8
1
  6
CONTINUOUS
 62
7
100
AcDbLine
 10
125.2118889999999
 20
131.9247879999998
 30
0.000000000000000
 11
129.9008889999998
 21
107.3687880000000
 31
0.000000000000000
  0
LINE
  5
100
100
AcDbEntity
  8
1
  6
CONTINUOUS
 62
7
100
AcDbLine
 10
133.9358889999998
 20
137.2027880000000
 30
0.000000000000000
 11
133.9358889999998
 21
100.2031880000000
 31
0.000000000000000
  0
ARC
  5
101
100
AcDbEntity
  8
1
  6
CONTINUOUS
 62
7
100
AcDbCircle
 10
117.1318890000000
 20
104.9304879999999
 30
0.000000000000000
 40
13.76210000000000
100
AcDbArc
 50
329.9690000000000
 51
336.4060000000000
  0
ARC
  5
102
100
AcDbEntity
  8
1
  6
CONTINUOUS
 62
7
100
AcDbCircle
 10
117.1318890000000
 20
104.9304879999999
 30
0.000000000000000
 40
13.00000000000000
100
AcDbArc
 50
331.0950000000000
 51
370.8100000000000
  0
LINE
  5
103
100
AcDbEntity
  8
1
  6
CONTINUOUS
 62
7
100
AcDbLine
 10
128.5118889999999
 20
98.64678800000000
 30
0.000000000000000
 11
129.0458889999999
 21
98.04288800000002
 31
0.000000000000000
  0
ARC
  5
104
100
AcDbEntity
  8
1
  6
CONTINUOUS
 62
7
100
AcDbCircle
 10
132.0348889999999
 20
98.42148800000000
 30
0.000000000000000
 40
2.500000000000000
100
AcDbArc
 50
100.8099999999999
 51
156.4060000000000
  0
LINE
  5
105
100
AcDbEntity
  8
4
  6
CENTER
 62
1
100
AcDbLine
 10
130.7358889999999
 20
104.2031879999999
 30
0.000000000000000
 11
135.9358889999998
 21
104.2031879999999
 31
0.000000000000000
  0
LINE
  5
106
100
AcDbEntity
  8
1
  6
CONTINUOUS
 62
7
100
AcDbLine
 10
133.9358889999998
 20
107.2027879999998
 30
0.000000000000000
 11
132.7358889999999
 21
107.2027879999998
 31
0.000000000000000
  0
LINE
  5
107
100
AcDbEntity
  8
1
  6
CONTINUOUS
 62
7
100
AcDbLine
 10
133.9358889999998
 20
100.2031880000000
 30
0.000000000000000
 11
132.7358889999999
 21
100.2031880000000
 31
0.000000000000000
  0
ARC
  5
108
100
AcDbEntity
  8
1
  6
CONTINUOUS
 62
7
100
AcDbCircle
 10
130.0228889999999
 20
128.0587879999999
 30
0.000000000000000
 40
1.500000000000000
100
AcDbArc
 50
178.8539040000000
 51
358.8539040000000
  0
ARC
  5
109
100
AcDbEntity
  8
1
  6
CONTINUOUS
 62
7
100
AcDbCircle
 10
130.0228889999999
 20
128.0587879999999
 30
0.000000000000000
 40
1.600000000000000
100
AcDbArc
 50
158.4897690000000
 51
379.2180390000000
  0
LINE
  5
10A
100
AcDbEntity
  8
4
  6
CENTER
 62
1
100
AcDbLine
 10
126.4228889999998
 20
128.0587879999999
 30
0.000000000000000
 11
133.6228889999999
 21
128.0587879999999
 31
0.000000000000000
  0
LINE
  5
10B
100
AcDbEntity
  8
4
  6
CENTER
 62
1
100
AcDbLine
 10
125.5358889999999
 20
134.3027879999999
 30
0.000000000000000
 11
132.7358889999999
 21
134.3027879999999
 31
0.000000000000000
  0
ARC
  5
10C
100
AcDbEntity
  8
1
  6
CONTINUOUS
 62
7
100
AcDbCircle
 10
129.0588889999999
 20
134.4407880000000
 30
0.000000000000000
 40
3.250000000000000
100
AcDbArc
 50
96.07537600000001
 51
190.8100000000000
  0
ARC
  5
10D
100
AcDbEntity
  8
1
  6
CONTINUOUS
 62
7
100
AcDbCircle
 10
129.1358889999999
 20
134.3027879999999
 30
0.000000000000000
 40
1.750000000000000
100
AcDbArc
 50
105.0556669999999
 51
252.6521410000000
  0
LINE
  5
10E
100
AcDbEntity
  8
1
  6
CONTINUOUS
 62
7
100
AcDbLine
 10
125.8658889999999
 20
133.8317879999999
 30
0.000000000000000
 11
126.1948889999999
 21
132.1127879999999
 31
0.000000000000000
  0
LINE
  5
10F
100
AcDbEntity
  8
1
  6
CONTINUOUS
 62
7
100
AcDbLine
 10
125.2118889999999
 20
131.9247879999998
 30
0.000000000000000
 11
126.1948889999999
 21
132.1127879999999
 31
0.000000000000000
  0
LINE
  5
110
100
AcDbEntity
  8
4
  6
CENTER
 62
1
100
AcDbLine
 10
129.1358889999999
 20
137.9027879999999
 30
0.000000000000000
 11
129.1358889999999
 21
130.7027879999999
 31
0.000000000000000
  0
ARC
  5
111
100
AcDbEntity
  8
1
  6
CONTINUOUS
 62
7
100
AcDbCircle
 10
129.0588889999999
 20
134.4407880000000
 30
0.000000000000000
 40
3.250000000000000
100
AcDbArc
 50
358.7450000000001
 51
395.9740380000000
  0
LINE
  5
112
100
AcDbEntity
  8
4
  6
CENTER
 62
1
100
AcDbLine
 10
130.0228889999999
 20
131.6587879999999
 30
0.000000000000000
 11
130.0228889999999
 21
124.4587879999998
 31
0.000000000000000
  0
LINE
  5
113
100
AcDbEntity
  8
4
  6
CENTER
 62
1
100
AcDbLine
 10
130.7358889999999
 20
127.2027879999999
 30
0.000000000000000
 11
135.9358889999998
 21
127.2027879999999
 31
0.000000000000000
  0
LINE
  5
114
100
AcDbEntity
  8
1
  6
CONTINUOUS
 62
7
100
AcDbLine
 10
133.9358889999998
 20
111.9027879999999
 30
0.000000000000000
 11
131.8158890000000
 21
111.9027879999999
 31
0.000000000000000
  0
LINE
  5
115
100
AcDbEntity
  8
1
  6
CONTINUOUS
 62
7
100
AcDbLine
 10
133.9358889999998
 20
119.0027879999999
 30
0.000000000000000
 11
131.9708890000000
 21
119.0027879999999
 31
0.000000000000000
  0
LINE
  5
116
100
AcDbEntity
  8
1
  6
CONTINUOUS
 62
7
100
AcDbLine
 10
133.9358889999998
 20
123.2027879999999
 30
0.000000000000000
 11
132.7358889999999
 21
123.2027879999999
 31
0.000000000000000
  0
LINE
  5
117
100
AcDbEntity
  8
1
  6
CONTINUOUS
 62
7
100
AcDbLine
 10
133.9358889999998
 20
129.6027879999998
 30
0.000000000000000
 11
132.7358889999999
 21
129.6027879999998
 31
0.000000000000000
  0
LINE
  5
118
100
AcDbEntity
  8
1
  6
CONTINUOUS
 62
7
100
AcDbLine
 10
133.9358889999998
 20
131.7027879999999
 30
0.000000000000000
 11
132.2498890000000
 21
131.7027879999999
 31
0.000000000000000
  0
LINE
  5
119
100
AcDbEntity
  8
1
  6
CONTINUOUS
 62
7
100
AcDbLine
 10
133.9358889999998
 20
137.2027880000000
 30
0.000000000000000
 11
131.7061220000000
 21
137.2027880000000
 31
0.000000000000000
  0
LINE
  5
11A
100
AcDbEntity
  8
1
  6
CONTINUOUS
 62
7
100
AcDbLine
 10
132.7358889999999
 20
131.7027879999999
 30
0.000000000000000
 11
132.7358889999999
 21
119.0027879999999
 31
0.000000000000000
  0
ARC
  5
11B
100
AcDbEntity
  8
1
  6
CONTINUOUS
 62
7
100
AcDbCircle
 10
130.4358890000000
 20
148.7027880000000
 30
0.000000000000000
 40
1.500000000000000
100
AcDbArc
 50
358.8539040000000
 51
538.8539040000002
  0
LINE
  5
11C
100
AcDbEntity
  8
4
  6
CENTER
 62
1
100
AcDbLine
 10
126.9358889999999
 20
148.7027880000000
 30
0.000000000000000
 11
133.9358889999998
 21
148.7027880000000
 31
0.000000000000000
  0
ARC
  5
11D
100
AcDbEntity
  8
1
  6
CONTINUOUS
 62
7
100
AcDbCircle
 10
244.4542950000000
 20
145.7031879999999
 30
0.000000000000000
 40
1.500000000000000
100
AcDbArc
 50
11.42461699999999
 51
90.00000000000000
  0
ARC
  5
11E
100
AcDbEntity
  8
1
  6
CONTINUOUS
 62
7
100
AcDbCircle
 10
244.4542950000000
 20
145.7031879999999
 30
0.000000000000000
 40
4.500000000000000
100
AcDbArc
 50
11.42461699999999
 51
90.00000000000000
  0
LINE
  5
11F
100
AcDbEntity
  8
4
  6
CENTER
 62
1
100
AcDbLine
 10
253.4558890000000
 20
148.7031879999999
 30
0.000000000000000
 11
224.8158890000000
 21
148.7031879999999
 31
0.000000000000000
  0
LINE
  5
120
100
AcDbEntity
  8
1
  6
CONTINUOUS
 62
7
100
AcDbLine
 10
245.9245750000000
 20
146.0003060000000
 30
0.000000000000000
 11
249.1259819999999
 21
130.1582270000000
 31
0.000000000000000
  0
LINE
  5
121
100
AcDbEntity
  8
1
  6
CONTINUOUS
 62
7
100
AcDbLine
 10
248.8651329999999
 20
146.5945409999999
 30
0.000000000000000
 11
252.0665399999999
 21
130.7524629999998
 31
0.000000000000000
  0
LINE
  5
122
100
AcDbEntity
  8
1
  6
CONTINUOUS
 62
7
100
AcDbLine
 10
229.4066439999998
 20
146.5945409999999
 30
0.000000000000000
 11
226.2052370000000
 21
130.7524629999998
 31
0.000000000000000
  0
LINE
  5
123
100
AcDbEntity
  8
1
  6
CONTINUOUS
 62
7
100
AcDbLine
 10
232.3472030000000
 20
146.0003060000000
 30
0.000000000000000
 11
229.1457959999999
 21
130.1582270000000
 31
0.000000000000000
  0
ARC
  5
124
100
AcDbEntity
  8
1
  6
CONTINUOUS
 62
7
100
AcDbCircle
 10
233.8174819999999
 20
145.7031879999999
 30
0.000000000000000
 40
4.500000000000000
100
AcDbArc
 50
90.00000000000000
 51
168.5753829999999
  0
ARC
  5
125
100
AcDbEntity
  8
1
  6
CONTINUOUS
 62
7
100
AcDbCircle
 10
233.8174819999999
 20
145.7031879999999
 30
0.000000000000000
 40
1.500000000000000
100
AcDbArc
 50
90.00000000000000
 51
168.5753829999999
  0
LINE
  5
126
100
AcDbEntity
  8
1
  6
CONTINUOUS
 62
7
100
AcDbLine
 10
233.8174819999999
 20
147.2031879999998
 30
0.000000000000000
 11
244.4542950000000
 21
147.2031879999998
 31
0.000000000000000
  0
LINE
  5
127
100
AcDbEntity
  8
1
  6
CONTINUOUS
 62
7
100
AcDbLine
 10
233.8174819999999
 20
150.2031879999998
 30
0.000000000000000
 11
244.4542950000000
 21
150.2031879999998
 31
0.000000000000000
  0
ARC
  5
128
100
AcDbEntity
  8
1
  6
CONTINUOUS
 62
7
100
AcDbCircle
 10
229.6358890000000
 20
130.0591879999998
 30
0.000000000000000
 40
3.500000000000000
100
AcDbArc
 50
168.5753829999999
 51
270.0000000000000
  0
ARC
  5
129
100
AcDbEntity
  8
1
  6
CONTINUOUS
 62
7
100
AcDbCircle
 10
229.6358890000000
 20
130.0591879999998
 30
0.000000000000000
 40
0.5000000000000000
100
AcDbArc
 50
168.5753829999999
 51
270.0000000000000
  0
LINE
  5
12A
100
AcDbEntity
  8
1
  6
CONTINUOUS
 62
7
100
AcDbLine
 10
231.1358890000000
 20
129.5591879999998
 30
0.000000000000000
 11
229.6358890000000
 21
129.5591879999998
 31
0.000000000000000
  0
LINE
  5
12B
100
AcDbEntity
  8
1
  6
CONTINUOUS
 62
7
100
AcDbLine
 10
231.1358890000000
 20
126.5591879999999
 30
0.000000000000000
 11
229.6358890000000
 21
126.5591879999999
 31
0.000000000000000
  0
ARC
  5
12C
100
AcDbEntity
  8
1
  6
CONTINUOUS
 62
7
100
AcDbCircle
 10
248.6358889999999
 20
130.0591879999998
 30
0.000000000000000
 40
0.5000000000000000
100
AcDbArc
 50
270.0000000000000
 51
371.4246170000000
  0
ARC
  5
12D
100
AcDbEntity
  8
1
  6
CONTINUOUS
 62
7
100
AcDbCircle
 10
248.6358889999999
 20
130.0591879999998
 30
0.000000000000000
 40
3.500000000000000
100
AcDbArc
 50
270.0000000000000
 51
371.4246170000000
  0
LINE
  5
12E
100
AcDbEntity
  8
1
  6
CONTINUOUS
 62
7
100
AcDbLine
 10
248.6358889999999
 20
129.5591879999998
 30
0.000000000000000
 11
247.1358889999999
 21
129.5591879999998
 31
0.000000000000000
  0
LINE
  5
12F
100
AcDbEntity
  8
1
  6
CONTINUOUS
 62
7
100
AcDbLine
 10
248.6358889999999
 20
126.5591879999999
 30
0.000000000000000
 11
247.1358889999999
 21
126.5591879999999
 31
0.000000000000000
  0
CIRCLE
  5
130
100
AcDbEntity
  8
3
  6
DASHED
 62
2
100
AcDbCircle
 10
239.1358889999999
 20
127.2031879999999
 30
0.000000000000000
 40
2.799999999999998
  0
CIRCLE
  5
131
100
AcDbEntity
  8
3
  6
DASHED
 62
2
100
AcDbCircle
 10
239.1358889999999
 20
104.2035880000000
 30
0.000000000000000
 40
2.799999999999998
  0
LINE
  5
132
100
AcDbEntity
  8
1
  6
CONTINUOUS
 62
7
100
AcDbLine
 10
239.6858890000000
 20
110.0031879999998
 30
0.000000000000000
 11
239.6858890000000
 21
107.2031879999999
 31
0.000000000000000
  0
LINE
  5
133
100
AcDbEntity
  8
1
  6
CONTINUOUS
 62
7
100
AcDbLine
 10
38.86513300000000
 20
146.5945409999999
 30
0.000000000000000
 11
42.06654000000001
 21
130.7524629999998
 31
0.000000000000000
  0
LINE
  5
134
100
AcDbEntity
  8
1
  6
CONTINUOUS
 62
7
100
AcDbLine
 10
35.92457500000000
 20
146.0003060000000
 30
0.000000000000000
 11
39.12598200000001
 21
130.1582270000000
 31
0.000000000000000
  0
LINE
  5
135
100
AcDbEntity
  8
4
  6
CENTER
 62
1
100
AcDbLine
 10
43.45588900000000
 20
148.7031879999999
 30
0.000000000000000
 11
14.81588900000000
 21
148.7031879999999
 31
0.000000000000000
  0
LINE
  5
136
100
AcDbEntity
  8
1
  6
CONTINUOUS
 62
7
100
AcDbLine
 10
23.81748200000000
 20
150.2031879999998
 30
0.000000000000000
 11
34.45429500000000
 21
150.2031879999998
 31
0.000000000000000
  0
LINE
  5
137
100
AcDbEntity
  8
1
  6
CONTINUOUS
 62
7
100
AcDbLine
 10
23.81748200000000
 20
147.2031879999998
 30
0.000000000000000
 11
34.45429500000000
 21
147.2031879999998
 31
0.000000000000000
  0
ARC
  5
138
100
AcDbEntity
  8
1
  6
CONTINUOUS
 62
7
100
AcDbCircle
 10
34.45429500000000
 20
145.7031879999999
 30
0.000000000000000
 40
4.500000000000000
100
AcDbArc
 50
11.42461699999999
 51
90.00000000000000
  0
ARC
  5
139
100
AcDbEntity
  8
1
  6
CONTINUOUS
 62
7
100
AcDbCircle
 10
34.45429500000000
 20
145.7031879999999
 30
0.000000000000000
 40
1.500000000000000
100
AcDbArc
 50
11.42461699999999
 51
90.00000000000000
  0
LINE
  5
13A
100
AcDbEntity
  8
1
  6
CONTINUOUS
 62
7
100
AcDbLine
 10
22.34720299999999
 20
146.0003060000000
 30
0.000000000000000
 11
19.14579600000000
 21
130.1582270000000
 31
0.000000000000000
  0
LINE
  5
13B
100
AcDbEntity
  8
1
  6
CONTINUOUS
 62
7
100
AcDbLine
 10
19.40664400000000
 20
146.5945409999999
 30
0.000000000000000
 11
16.20523700000000
 21
130.7524629999998
 31
0.000000000000000
  0
ARC
  5
13C
100
AcDbEntity
  8
1
  6
CONTINUOUS
 62
7
100
AcDbCircle
 10
23.81748200000000
 20
145.7031879999999
 30
0.000000000000000
 40
1.500000000000000
100
AcDbArc
 50
90.00000000000000
 51
168.5753829999999
  0
ARC
  5
13D
100
AcDbEntity
  8
1
  6
CONTINUOUS
 62
7
100
AcDbCircle
 10
23.81748200000000
 20
145.7031879999999
 30
0.000000000000000
 40
4.500000000000000
100
AcDbArc
 50
90.00000000000000
 51
168.5753829999999
  0
ARC
  5
13E
100
AcDbEntity
  8
1
  6
CONTINUOUS
 62
7
100
AcDbCircle
 10
19.63588899999999
 20
130.0591879999998
 30
0.000000000000000
 40
3.500000000000000
100
AcDbArc
 50
168.5753829999999
 51
270.0000000000000
  0
ARC
  5
13F
100
AcDbEntity
  8
1
  6
CONTINUOUS
 62
7
100
AcDbCircle
 10
19.63588899999999
 20
130.0591879999998
 30
0.000000000000000
 40
0.5000000000000000
100
AcDbArc
 50
168.5753829999999
 51
270.0000000000000
  0
LINE
  5
140
100
AcDbEntity
  8
1
  6
CONTINUOUS
 62
7
100
AcDbLine
 10
19.63588899999999
 20
126.5591879999999
 30
0.000000000000000
 11
21.13588899999999
 21
126.5591879999999
 31
0.000000000000000
  0
LINE
  5
141
100
AcDbEntity
  8
1
  6
CONTINUOUS
 62
7
100
AcDbLine
 10
19.63588899999999
 20
129.5591879999998
 30
0.000000000000000
 11
21.13588899999999
 21
129.5591879999998
 31
0.000000000000000
  0
ARC
  5
142
100
AcDbEntity
  8
1
  6
CONTINUOUS
 62
7
100
AcDbCircle
 10
38.63588899999999
 20
130.0591879999998
 30
0.000000000000000
 40
3.500000000000000
100
AcDbArc
 50
270.0000000000000
 51
371.4246170000000
  0
ARC
  5
143
100
AcDbEntity
  8
1
  6
CONTINUOUS
 62
7
100
AcDbCircle
 10
38.63588899999999
 20
130.0591879999998
 30
0.000000000000000
 40
0.5000000000000000
100
AcDbArc
 50
270.0000000000000
 51
371.4246170000000
  0
LINE
  5
144
100
AcDbEntity
  8
1
  6
CONTINUOUS
 62
7
100
AcDbLine
 10
37.13588899999999
 20
126.5591879999999
 30
0.000000000000000
 11
38.63588899999999
 21
126.5591879999999
 31
0.000000000000000
  0
LINE
  5
145
100
AcDbEntity
  8
1
  6
CONTINUOUS
 62
7
100
AcDbLine
 10
37.13588899999999
 20
129.5591879999998
 30
0.000000000000000
 11
38.63588899999999
 21
129.5591879999998
 31
0.000000000000000
  0
ARC
  5
146
100
AcDbEntity
  8
1
  6
CONTINUOUS
 62
7
100
AcDbCircle
 10
26.35098900000000
 20
46.09048800000000
 30
0.000000000000000
 40
0.3500000000000000
100
AcDbArc
 50
192.4999999999998
 51
372.5000000000000
  0
LINE
  5
147
100
AcDbEntity
  8
1
  6
CONTINUOUS
 62
7
100
AcDbLine
 10
24.33588900000000
 20
45.39108800000000
 30
0.000000000000000
 11
28.53588900000000
 21
45.39108800000000
 31
0.000000000000000
  0
LINE
  5
148
100
AcDbEntity
  8
1
  6
CONTINUOUS
 62
7
100
AcDbLine
 10
21.93588900000000
 20
52.11408800000000
 30
0.000000000000000
 11
28.53588900000000
 21
52.11408800000000
 31
0.000000000000000
  0
LINE
  5
149
100
AcDbEntity
  8
1
  6
CONTINUOUS
 62
7
100
AcDbLine
 10
22.88588900000000
 20
43.39048799999999
 30
0.000000000000000
 11
35.38588900000000
 21
43.39048799999999
 31
0.000000000000000
  0
LINE
  5
14A
100
AcDbEntity
  8
1
  6
CONTINUOUS
 62
7
100
AcDbLine
 10
22.88588900000000
 20
44.59048800000000
 30
0.000000000000000
 11
35.38588900000000
 21
44.59048800000000
 31
0.000000000000000
  0
LINE
  5
14B
100
AcDbEntity
  8
1
  6
CONTINUOUS
 62
7
100
AcDbLine
 10
36.33588900000000
 20
46.39458799999998
 30
0.000000000000000
 11
21.93588900000000
 21
46.39458799999998
 31
0.000000000000000
  0
ARC
  5
14C
100
AcDbEntity
  8
1
  6
CONTINUOUS
 62
7
100
AcDbCircle
 10
29.13588900000000
 20
22.20718799999999
 30
0.000000000000000
 40
26.60690000000000
100
AcDbArc
 50
73.30480000000000
 51
106.6950000000000
  0
ARC
  5
14D
100
AcDbEntity
  8
1
  6
CONTINUOUS
 62
7
100
AcDbCircle
 10
29.13588900000000
 20
10.74778800000000
 30
0.000000000000000
 40
37.53220000000001
100
AcDbArc
 50
79.57650000000001
 51
100.4328120000000
  0
LINE
  5
14E
100
AcDbEntity
  8
4
  6
CENTER
 62
1
100
AcDbLine
 10
15.38588900000000
 20
48.19108800000000
 30
0.000000000000000
 11
42.88588899999999
 21
48.19108800000000
 31
0.000000000000000
  0
LINE
  5
14F
100
AcDbEntity
  8
4
  6
CENTER
 62
1
100
AcDbLine
 10
15.13588900000000
 20
46.89108800000000
 30
0.000000000000000
 11
43.13588900000000
 21
46.89108800000000
 31
0.000000000000000
  0
LINE
  5
150
100
AcDbEntity
  8
4
  6
CENTER
 62
1
100
AcDbLine
 10
11.13588900000000
 20
47.30408800000000
 30
0.000000000000000
 11
47.13588900000000
 21
47.30408800000000
 31
0.000000000000000
  0
LINE
  5
151
100
AcDbEntity
  8
1
  6
CONTINUOUS
 62
7
100
AcDbLine
 10
22.13588899999999
 20
45.80358799999999
 30
0.000000000000000
 11
22.13588899999999
 21
44.59048800000000
 31
0.000000000000000
  0
LINE
  5
152
100
AcDbEntity
  8
1
  6
CONTINUOUS
 62
7
100
AcDbLine
 10
23.33588900000000
 20
45.80358799999999
 30
0.000000000000000
 11
23.33588900000000
 21
44.59048800000000
 31
0.000000000000000
  0
LINE
  5
153
100
AcDbEntity
  8
1
  6
CONTINUOUS
 62
7
100
AcDbLine
 10
21.13588899999999
 20
51.31408799999999
 30
0.000000000000000
 11
21.13588899999999
 21
45.01768799999999
 31
0.000000000000000
  0
LINE
  5
154
100
AcDbEntity
  8
1
  6
CONTINUOUS
 62
7
100
AcDbLine
 10
21.93588900000000
 20
47.16888800000000
 30
0.000000000000000
 11
21.93588900000000
 21
45.01768799999999
 31
0.000000000000000
  0
LINE
  5
155
100
AcDbEntity
  8
1
  6
CONTINUOUS
 62
7
100
AcDbLine
 10
20.38588900000000
 20
49.94048800000000
 30
0.000000000000000
 11
21.13588899999999
 21
49.94048800000000
 31
0.000000000000000
  0
LINE
  5
156
100
AcDbEntity
  8
1
  6
CONTINUOUS
 62
7
100
AcDbLine
 10
20.38588900000000
 20
49.94048800000000
 30
0.000000000000000
 11
20.38588900000000
 21
48.80358799999999
 31
0.000000000000000
  0
LINE
  5
157
100
AcDbEntity
  8
1
  6
CONTINUOUS
 62
7
100
AcDbLine
 10
25.92508900000000
 20
46.39458799999997
 30
0.000000000000000
 11
26.00928899999999
 21
46.01468800000000
 31
0.000000000000000
  0
LINE
  5
158
100
AcDbEntity
  8
1
  6
CONTINUOUS
 62
7
100
AcDbLine
 10
23.63588899999999
 20
45.80358799999999
 30
0.000000000000000
 11
23.63588899999999
 21
44.59048800000000
 31
0.000000000000000
  0
LINE
  5
159
100
AcDbEntity
  8
1
  6
CONTINUOUS
 62
7
100
AcDbLine
 10
24.33588900000000
 20
45.80358799999999
 30
0.000000000000000
 11
24.33588900000000
 21
44.59048800000000
 31
0.000000000000000
  0
LINE
  5
15A
100
AcDbEntity
  8
1
  6
CONTINUOUS
 62
7
100
AcDbLine
 10
21.93588900000000
 20
45.01768799999999
 30
0.000000000000000
 11
21.13588899999999
 21
45.01768799999999
 31
0.000000000000000
  0
LINE
  5
15B
100
AcDbEntity
  8
1
  6
CONTINUOUS
 62
7
100
AcDbLine
 10
25.88588899999999
 20
46.39458799999998
 30
0.000000000000000
 11
25.88588899999999
 21
45.80358799999999
 31
0.000000000000000
  0
LINE
  5
15C
100
AcDbEntity
  8
1
  6
CONTINUOUS
 62
7
100
AcDbLine
 10
21.93588900000000
 20
45.80358799999999
 30
0.000000000000000
 11
25.88588899999999
 21
45.80358799999999
 31
0.000000000000000
  0
ARC
  5
15D
100
AcDbEntity
  8
1
  6
CONTINUOUS
 62
7
100
AcDbCircle
 10
25.63398900000000
 20
46.09048800000000
 30
0.000000000000000
 40
0.3500000000000000
100
AcDbArc
 50
235.0590000000000
 51
304.9409999999999
  0
ARC
  5
15E
100
AcDbEntity
  8
1
  6
CONTINUOUS
 62
7
100
AcDbCircle
 10
24.91698900000000
 20
46.09048800000000
 30
0.000000000000000
 40
0.3500000000000000
100
AcDbArc
 50
235.0590000000000
 51
304.9409999999999
  0
ARC
  5
15F
100
AcDbEntity
  8
1
  6
CONTINUOUS
 62
7
100
AcDbCircle
 10
22.43588900000000
 20
47.16888800000000
 30
0.000000000000000
 40
0.5000000000000000
100
AcDbArc
 50
100.4240000000000
 51
180.0000000000000
  0
ARC
  5
160
100
AcDbEntity
  8
1
  6
CONTINUOUS
 62
7
100
AcDbCircle
 10
21.63588900000000
 20
47.21358799999999
 30
0.000000000000000
 40
0.5000000000000000
100
AcDbArc
 50
106.6950000000000
 51
180.0000000000000
  0
ARC
  5
161
100
AcDbEntity
  8
1
  6
CONTINUOUS
 62
7
100
AcDbCircle
 10
25.63398900000000
 20
46.09048800000000
 30
0.000000000000000
 40
0.3500000000000000
100
AcDbArc
 50
316.0280000000000
 51
403.9715000000000
  0
ARC
  5
162
100
AcDbEntity
  8
1
  6
CONTINUOUS
 62
7
100
AcDbCircle
 10
21.93588900000000
 20
51.31408799999999
 30
0.000000000000000
 40
0.8000000000000000
100
AcDbArc
 50
90.00000000000000
 51
180.0000000000000
  0
ARC
  5
163
100
AcDbEntity
  8
1
  6
CONTINUOUS
 62
7
100
AcDbCircle
 10
23.33588900000000
 20
44.59048800000000
 30
0.000000000000000
 40
1.199999999999999
100
AcDbArc
 50
180.0000000000000
 51
247.9756870000000
  0
LINE
  5
164
100
AcDbEntity
  8
1
  6
CONTINUOUS
 62
7
100
AcDbLine
 10
22.88588900000000
 20
44.59048800000000
 30
0.000000000000000
 11
22.88588900000000
 21
43.39048799999999
 31
0.000000000000000
  0
LINE
  5
165
100
AcDbEntity
  8
1
  6
CONTINUOUS
 62
7
100
AcDbLine
 10
21.93588900000000
 20
45.39108800000000
 30
0.000000000000000
 11
22.13588899999999
 21
45.39108800000000
 31
0.000000000000000
  0
LINE
  5
166
100
AcDbEntity
  8
1
  6
CONTINUOUS
 62
7
100
AcDbLine
 10
21.13588899999999
 20
45.43473900000000
 30
0.000000000000000
 11
17.48183299999999
 21
45.81202000000000
 31
0.000000000000000
  0
ARC
  5
167
100
AcDbEntity
  8
1
  6
CONTINUOUS
 62
7
100
AcDbCircle
 10
17.63588900000000
 20
47.30408800000000
 30
0.000000000000000
 40
1.500000000000000
100
AcDbArc
 50
90.00000000000000
 51
264.1050990000000
  0
LINE
  5
168
100
AcDbEntity
  8
1
  6
CONTINUOUS
 62
7
100
AcDbLine
 10
21.13588899999999
 20
48.80408800000000
 30
0.000000000000000
 11
17.63588900000000
 21
48.80408800000000
 31
0.000000000000000
  0
LINE
  5
169
100
AcDbEntity
  8
1
  6
CONTINUOUS
 62
7
100
AcDbLine
 10
21.13588899999999
 20
45.80408799999999
 30
0.000000000000000
 11
17.63588900000000
 21
45.80408799999999
 31
0.000000000000000
  0
LINE
  5
16A
100
AcDbEntity
  8
1
  6
CONTINUOUS
 62
7
100
AcDbLine
 10
23.33588900000000
 20
45.39108800000000
 30
0.000000000000000
 11
23.63588899999999
 21
45.39108800000000
 31
0.000000000000000
  0
LINE
  5
16B
100
AcDbEntity
  8
1
  6
CONTINUOUS
 62
7
100
AcDbLine
 10
36.13588899999999
 20
45.80358799999999
 30
0.000000000000000
 11
36.13588899999999
 21
44.59048800000000
 31
0.000000000000000
  0
LINE
  5
16C
100
AcDbEntity
  8
1
  6
CONTINUOUS
 62
7
100
AcDbLine
 10
34.93588900000001
 20
45.80358799999999
 30
0.000000000000000
 11
34.93588900000001
 21
44.59048800000000
 31
0.000000000000000
  0
LINE
  5
16D
100
AcDbEntity
  8
1
  6
CONTINUOUS
 62
7
100
AcDbLine
 10
37.13588899999999
 20
51.31408799999999
 30
0.000000000000000
 11
37.13588899999999
 21
45.01768799999999
 31
0.000000000000000
  0
LINE
  5
16E
100
AcDbEntity
  8
1
  6
CONTINUOUS
 62
7
100
AcDbLine
 10
36.33588900000000
 20
47.16888800000000
 30
0.000000000000000
 11
36.33588900000000
 21
45.01768799999999
 31
0.000000000000000
  0
LINE
  5
16F
100
AcDbEntity
  8
1
  6
CONTINUOUS
 62
7
100
AcDbLine
 10
37.88588900000000
 20
49.94048800000000
 30
0.000000000000000
 11
37.88588900000000
 21
48.80358799999999
 31
0.000000000000000
  0
LINE
  5
170
100
AcDbEntity
  8
1
  6
CONTINUOUS
 62
7
100
AcDbLine
 10
37.13588899999999
 20
49.94048800000000
 30
0.000000000000000
 11
37.88588900000000
 21
49.94048800000000
 31
0.000000000000000
  0
LINE
  5
171
100
AcDbEntity
  8
1
  6
CONTINUOUS
 62
7
100
AcDbLine
 10
30.22708899999999
 20
46.39458799999998
 30
0.000000000000000
 11
30.31128900000000
 21
46.01468800000001
 31
0.000000000000000
  0
LINE
  5
172
100
AcDbEntity
  8
1
  6
CONTINUOUS
 62
7
100
AcDbLine
 10
30.94408900000000
 20
46.39458799999997
 30
0.000000000000000
 11
31.02828900000000
 21
46.01468799999999
 31
0.000000000000000
  0
LINE
  5
173
100
AcDbEntity
  8
1
  6
CONTINUOUS
 62
7
100
AcDbLine
 10
31.66108900000000
 20
46.39458799999997
 30
0.000000000000000
 11
31.74528900000000
 21
46.01468799999999
 31
0.000000000000000
  0
LINE
  5
174
100
AcDbEntity
  8
1
  6
CONTINUOUS
 62
7
100
AcDbLine
 10
32.37798900000000
 20
46.39458799999997
 30
0.000000000000000
 11
32.38588899999999
 21
46.35918800000000
 31
0.000000000000000
  0
LINE
  5
175
100
AcDbEntity
  8
1
  6
CONTINUOUS
 62
7
100
AcDbLine
 10
33.88758900000000
 20
46.05358799999999
 30
0.000000000000000
 11
33.89628900000000
 21
46.01468799999999
 31
0.000000000000000
  0
LINE
  5
176
100
AcDbEntity
  8
1
  6
CONTINUOUS
 62
7
100
AcDbLine
 10
37.13588899999999
 20
45.01768799999999
 30
0.000000000000000
 11
36.33588900000000
 21
45.01768799999999
 31
0.000000000000000
  0
LINE
  5
177
100
AcDbEntity
  8
1
  6
CONTINUOUS
 62
7
100
AcDbLine
 10
32.38588899999999
 20
45.80358799999999
 30
0.000000000000000
 11
33.88588900000000
 21
45.80358799999999
 31
0.000000000000000
  0
LINE
  5
178
100
AcDbEntity
  8
1
  6
CONTINUOUS
 62
7
100
AcDbLine
 10
32.38588899999999
 20
46.39458799999998
 30
0.000000000000000
 11
32.38588899999999
 21
45.80358799999999
 31
0.000000000000000
  0
LINE
  5
179
100
AcDbEntity
  8
1
  6
CONTINUOUS
 62
7
100
AcDbLine
 10
33.88588900000000
 20
46.05358800000000
 30
0.000000000000000
 11
33.88588900000000
 21
45.80358799999999
 31
0.000000000000000
  0
LINE
  5
17A
100
AcDbEntity
  8
1
  6
CONTINUOUS
 62
7
100
AcDbLine
 10
34.88588899999999
 20
46.05358800000000
 30
0.000000000000000
 11
34.88588899999999
 21
45.80358799999999
 31
0.000000000000000
  0
LINE
  5
17B
100
AcDbEntity
  8
1
  6
CONTINUOUS
 62
7
100
AcDbLine
 10
33.88588900000000
 20
46.05358800000000
 30
0.000000000000000
 11
34.88588899999999
 21
46.05358800000000
 31
0.000000000000000
  0
LINE
  5
17C
100
AcDbEntity
  8
1
  6
CONTINUOUS
 62
7
100
AcDbLine
 10
34.88588899999999
 20
45.80358799999999
 30
0.000000000000000
 11
36.33588900000000
 21
45.80358799999999
 31
0.000000000000000
  0
ARC
  5
17D
100
AcDbEntity
  8
1
  6
CONTINUOUS
 62
7
100
AcDbCircle
 10
34.23798899999999
 20
46.09048800000000
 30
0.000000000000000
 40
0.3500000000000000
100
AcDbArc
 50
192.4999999999998
 51
353.9469999999998
  0
ARC
  5
17E
100
AcDbEntity
  8
1
  6
CONTINUOUS
 62
7
100
AcDbCircle
 10
33.52098900000000
 20
46.09048800000000
 30
0.000000000000000
 40
0.3500000000000000
100
AcDbArc
 50
235.0590000000000
 51
304.9409999999999
  0
ARC
  5
17F
100
AcDbEntity
  8
1
  6
CONTINUOUS
 62
7
100
AcDbCircle
 10
32.80398900000000
 20
46.09048800000000
 30
0.000000000000000
 40
0.3500000000000000
100
AcDbArc
 50
235.0590000000000
 51
304.9409999999999
  0
ARC
  5
180
100
AcDbEntity
  8
1
  6
CONTINUOUS
 62
7
100
AcDbCircle
 10
32.08698900000000
 20
46.09048800000000
 30
0.000000000000000
 40
0.3500000000000000
100
AcDbArc
 50
192.4999999999998
 51
328.6589999999998
  0
ARC
  5
181
100
AcDbEntity
  8
1
  6
CONTINUOUS
 62
7
100
AcDbCircle
 10
31.36998900000000
 20
46.09048800000000
 30
0.000000000000000
 40
0.3500000000000000
100
AcDbArc
 50
192.4999999999998
 51
372.5000000000000
  0
ARC
  5
182
100
AcDbEntity
  8
1
  6
CONTINUOUS
 62
7
100
AcDbCircle
 10
30.65298900000000
 20
46.09048800000000
 30
0.000000000000000
 40
0.3500000000000000
100
AcDbArc
 50
192.4999999999998
 51
372.5000000000000
  0
ARC
  5
183
100
AcDbEntity
  8
1
  6
CONTINUOUS
 62
7
100
AcDbCircle
 10
35.83588900000000
 20
47.16888800000000
 30
0.000000000000000
 40
0.5000000000000000
100
AcDbArc
 50
3.000000000000000e-06
 51
79.57650000000001
  0
ARC
  5
184
100
AcDbEntity
  8
1
  6
CONTINUOUS
 62
7
100
AcDbCircle
 10
36.63588900000000
 20
47.21358799999999
 30
0.000000000000000
 40
0.5000000000000000
100
AcDbArc
 50
3.000000000000000e-06
 51
73.30480000000000
  0
ARC
  5
185
100
AcDbEntity
  8
1
  6
CONTINUOUS
 62
7
100
AcDbCircle
 10
36.33588900000000
 20
51.31408799999999
 30
0.000000000000000
 40
0.8000000000000000
100
AcDbArc
 50
0.000000000000000
 51
90.00000000000000
  0
ARC
  5
186
100
AcDbEntity
  8
1
  6
CONTINUOUS
 62
7
100
AcDbCircle
 10
34.93588900000001
 20
44.59048800000000
 30
0.000000000000000
 40
1.199999999999999
100
AcDbArc
 50
292.0243130000001
 51
360.0000000000000
  0
LINE
  5
187
100
AcDbEntity
  8
1
  6
CONTINUOUS
 62
7
100
AcDbLine
 10
35.38588900000000
 20
44.59048800000000
 30
0.000000000000000
 11
35.38588900000000
 21
43.39048799999999
 31
0.000000000000000
  0
ARC
  5
188
100
AcDbEntity
  8
1
  6
CONTINUOUS
 62
7
100
AcDbCircle
 10
40.63588900000000
 20
47.30408800000000
 30
0.000000000000000
 40
1.500000000000000
100
AcDbArc
 50
275.8949010000000
 51
450.0000000000000
  0
LINE
  5
189
100
AcDbEntity
  8
1
  6
CONTINUOUS
 62
7
100
AcDbLine
 10
37.13588899999999
 20
45.43473900000000
 30
0.000000000000000
 11
40.78994500000000
 21
45.81202000000000
 31
0.000000000000000
  0
LINE
  5
18A
100
AcDbEntity
  8
1
  6
CONTINUOUS
 62
7
100
AcDbLine
 10
37.13588899999999
 20
48.80408800000000
 30
0.000000000000000
 11
40.63588900000000
 21
48.80408800000000
 31
0.000000000000000
  0
LINE
  5
18B
100
AcDbEntity
  8
1
  6
CONTINUOUS
 62
7
100
AcDbLine
 10
37.13588899999999
 20
45.80408799999999
 30
0.000000000000000
 11
40.63588900000000
 21
45.80408799999999
 31
0.000000000000000
  0
LINE
  5
18C
100
AcDbEntity
  8
1
  6
CONTINUOUS
 62
7
100
AcDbLine
 10
36.13588899999999
 20
45.39108800000000
 30
0.000000000000000
 11
36.33588900000000
 21
45.39108800000000
 31
0.000000000000000
  0
LINE
  5
18D
100
AcDbEntity
  8
1
  6
CONTINUOUS
 62
7
100
AcDbLine
 10
26.64208900000000
 20
46.39458799999997
 30
0.000000000000000
 11
26.72628900000000
 21
46.01468799999999
 31
0.000000000000000
  0
LINE
  5
18E
100
AcDbEntity
  8
1
  6
CONTINUOUS
 62
7
100
AcDbLine
 10
27.35908899999999
 20
46.39458799999997
 30
0.000000000000000
 11
27.44328899999999
 21
46.01468799999999
 31
0.000000000000000
  0
LINE
  5
18F
100
AcDbEntity
  8
1
  6
CONTINUOUS
 62
7
100
AcDbLine
 10
28.07608899999999
 20
46.39458799999998
 30
0.000000000000000
 11
28.16028900000000
 21
46.01468800000001
 31
0.000000000000000
  0
LINE
  5
190
100
AcDbEntity
  8
1
  6
CONTINUOUS
 62
7
100
AcDbLine
 10
28.79308899999999
 20
46.39458799999998
 30
0.000000000000000
 11
28.87728900000000
 21
46.01468800000000
 31
0.000000000000000
  0
LINE
  5
191
100
AcDbEntity
  8
1
  6
CONTINUOUS
 62
7
100
AcDbLine
 10
29.51008900000000
 20
46.39458799999997
 30
0.000000000000000
 11
29.59428900000000
 21
46.01468799999999
 31
0.000000000000000
  0
LINE
  5
192
100
AcDbEntity
  8
1
  6
CONTINUOUS
 62
7
100
AcDbLine
 10
29.73588900000000
 20
45.80328800000000
 30
0.000000000000000
 11
29.73588900000000
 21
44.59048800000000
 31
0.000000000000000
  0
LINE
  5
193
100
AcDbEntity
  8
1
  6
CONTINUOUS
 62
7
100
AcDbLine
 10
28.53588900000000
 20
45.74208800000000
 30
0.000000000000000
 11
28.53588900000000
 21
44.59048800000000
 31
0.000000000000000
  0
ARC
  5
194
100
AcDbEntity
  8
1
  6
CONTINUOUS
 62
7
100
AcDbCircle
 10
29.21898900000000
 20
46.09048800000000
 30
0.000000000000000
 40
0.3500000000000000
100
AcDbArc
 50
192.4999999999998
 51
372.5000000000000
  0
ARC
  5
195
100
AcDbEntity
  8
1
  6
CONTINUOUS
 62
7
100
AcDbCircle
 10
28.50198900000000
 20
46.09048800000000
 30
0.000000000000000
 40
0.3500000000000000
100
AcDbArc
 50
192.4999999999998
 51
372.5000000000000
  0
ARC
  5
196
100
AcDbEntity
  8
1
  6
CONTINUOUS
 62
7
100
AcDbCircle
 10
27.78498900000001
 20
46.09048800000000
 30
0.000000000000000
 40
0.3500000000000000
100
AcDbArc
 50
192.4999999999998
 51
372.5000000000000
  0
ARC
  5
197
100
AcDbEntity
  8
1
  6
CONTINUOUS
 62
7
100
AcDbCircle
 10
27.06798900000000
 20
46.09048800000000
 30
0.000000000000000
 40
0.3500000000000000
100
AcDbArc
 50
192.4999999999998
 51
372.5000000000000
  0
ARC
  5
198
100
AcDbEntity
  8
1
  6
CONTINUOUS
 62
7
100
AcDbCircle
 10
29.93598900000000
 20
46.09048800000000
 30
0.000000000000000
 40
0.3500000000000000
100
AcDbArc
 50
192.4999999999998
 51
372.5000000000000
  0
LINE
  5
199
100
AcDbEntity
  8
1
  6
CONTINUOUS
 62
7
100
AcDbLine
 10
29.73588900000000
 20
45.39108800000000
 30
0.000000000000000
 11
34.93588900000001
 21
45.39108800000000
 31
0.000000000000000
  0
LINE
  5
19A
100
AcDbEntity
  8
1
  6
CONTINUOUS
 62
7
100
AcDbLine
 10
29.73588900000000
 20
52.11408800000000
 30
0.000000000000000
 11
36.33588900000000
 21
52.11408800000000
 31
0.000000000000000
  0
LINE
  5
19B
100
AcDbEntity
  8
1
  6
CONTINUOUS
 62
7
100
AcDbLine
 10
23.33588900000000
 20
221.2241880000000
 30
0.000000000000000
 11
34.93588900000001
 21
221.2241880000000
 31
0.000000000000000
  0
LINE
  5
19C
100
AcDbEntity
  8
4
  6
CENTER
 62
1
100
AcDbLine
 10
15.13588900000000
 20
217.7241879999999
 30
0.000000000000000
 11
43.13588900000000
 21
217.7241879999999
 31
0.000000000000000
  0
LINE
  5
19D
100
AcDbEntity
  8
1
  6
CONTINUOUS
 62
7
100
AcDbLine
 10
21.71312099999999
 20
216.2241879999999
 30
0.000000000000000
 11
36.55865600000000
 21
216.2241879999999
 31
0.000000000000000
  0
LINE
  5
19E
100
AcDbEntity
  8
1
  6
CONTINUOUS
 62
7
100
AcDbLine
 10
21.63588900000000
 20
219.2241880000000
 30
0.000000000000000
 11
36.63588900000000
 21
219.2241880000000
 31
0.000000000000000
  0
LINE
  5
19F
100
AcDbEntity
  8
4
  6
CENTER
 62
1
100
AcDbLine
 10
15.38588900000000
 20
216.4241880000000
 30
0.000000000000000
 11
42.88588899999999
 21
216.4241880000000
 31
0.000000000000000
  0
LINE
  5
1A0
100
AcDbEntity
  8
1
  6
CONTINUOUS
 62
7
100
AcDbLine
 10
24.33588900000000
 20
220.0241879999999
 30
0.000000000000000
 11
34.93588900000001
 21
220.0241879999999
 31
0.000000000000000
  0
LINE
  5
1A1
100
AcDbEntity
  8
1
  6
CONTINUOUS
 62
7
100
AcDbLine
 10
21.93588900000000
 20
212.5011879999999
 30
0.000000000000000
 11
36.33588900000000
 21
212.5011879999999
 31
0.000000000000000
  0
LINE
  5
1A2
100
AcDbEntity
  8
1
  6
CONTINUOUS
 62
7
100
AcDbLine
 10
23.33588900000000
 20
213.2871879999999
 30
0.000000000000000
 11
34.93588900000001
 21
213.2871879999999
 31
0.000000000000000
  0
ARC
  5
1A3
100
AcDbEntity
  8
1
  6
CONTINUOUS
 62
7
100
AcDbCircle
 10
30.43888900000000
 20
214.3241880000000
 30
0.000000000000000
 40
0.3500000000000000
100
AcDbArc
 50
167.5000000000000
 51
347.5000000000000
  0
LINE
  5
1A4
100
AcDbEntity
  8
4
  6
CENTER
 62
1
100
AcDbLine
 10
11.13588900000000
 20
217.3111879999999
 30
0.000000000000000
 11
47.13588900000000
 21
217.3111879999999
 31
0.000000000000000
  0
ARC
  5
1A5
100
AcDbEntity
  8
1
  6
CONTINUOUS
 62
7
100
AcDbCircle
 10
21.93588900000000
 20
213.3011880000000
 30
0.000000000000000
 40
0.8000000000000000
100
AcDbArc
 50
194.7735849999999
 51
270.0000000000000
  0
LINE
  5
1A6
100
AcDbEntity
  8
1
  6
CONTINUOUS
 62
7
100
AcDbLine
 10
23.33588900000000
 20
220.0241879999999
 30
0.000000000000000
 11
23.63588899999999
 21
220.0241879999999
 31
0.000000000000000
  0
LINE
  5
1A7
100
AcDbEntity
  8
1
  6
CONTINUOUS
 62
7
100
AcDbLine
 10
21.93588900000000
 20
214.9241879999999
 30
0.000000000000000
 11
22.13588899999999
 21
214.9241879999999
 31
0.000000000000000
  0
LINE
  5
1A8
100
AcDbEntity
  8
1
  6
CONTINUOUS
 62
7
100
AcDbLine
 10
23.33588900000000
 20
214.9241879999999
 30
0.000000000000000
 11
23.76038900000000
 21
214.9241879999999
 31
0.000000000000000
  0
LINE
  5
1A9
100
AcDbEntity
  8
1
  6
CONTINUOUS
 62
7
100
AcDbLine
 10
20.38588900000000
 20
214.6741879999999
 30
0.000000000000000
 11
21.13588899999999
 21
214.6741879999999
 31
0.000000000000000
  0
LINE
  5
1AA
100
AcDbEntity
  8
1
  6
CONTINUOUS
 62
7
100
AcDbLine
 10
20.38588900000000
 20
214.6741879999999
 30
0.000000000000000
 11
20.38588900000000
 21
216.0871509999998
 31
0.000000000000000
  0
LINE
  5
1AB
100
AcDbEntity
  8
1
  6
CONTINUOUS
 62
7
100
AcDbLine
 10
23.63588899999999
 20
214.3241880000000
 30
0.000000000000000
 11
23.63588899999999
 21
214.9241879999999
 31
0.000000000000000
  0
LINE
  5
1AC
100
AcDbEntity
  8
1
  6
CONTINUOUS
 62
7
100
AcDbLine
 10
23.64418899999999
 20
214.4001879999999
 30
0.000000000000000
 11
24.04847800000000
 21
216.2241879999999
 31
0.000000000000000
  0
LINE
  5
1AD
100
AcDbEntity
  8
1
  6
CONTINUOUS
 62
7
100
AcDbLine
 10
24.32758899999999
 20
214.2491879999998
 30
0.000000000000000
 11
24.76545299999999
 21
216.2241879999999
 31
0.000000000000000
  0
LINE
  5
1AE
100
AcDbEntity
  8
1
  6
CONTINUOUS
 62
7
100
AcDbLine
 10
25.04458899999999
 20
214.2491879999998
 30
0.000000000000000
 11
25.48245300000000
 21
216.2241879999999
 31
0.000000000000000
  0
LINE
  5
1AF
100
AcDbEntity
  8
1
  6
CONTINUOUS
 62
7
100
AcDbLine
 10
25.76158900000000
 20
214.2491879999998
 30
0.000000000000000
 11
26.19945299999999
 21
216.2241879999999
 31
0.000000000000000
  0
LINE
  5
1B0
100
AcDbEntity
  8
1
  6
CONTINUOUS
 62
7
100
AcDbLine
 10
26.47858900000000
 20
214.2491879999998
 30
0.000000000000000
 11
26.91645300000001
 21
216.2241879999999
 31
0.000000000000000
  0
LINE
  5
1B1
100
AcDbEntity
  8
1
  6
CONTINUOUS
 62
7
100
AcDbLine
 10
27.19558900000000
 20
214.2491879999998
 30
0.000000000000000
 11
27.63345300000001
 21
216.2241879999999
 31
0.000000000000000
  0
LINE
  5
1B2
100
AcDbEntity
  8
1
  6
CONTINUOUS
 62
7
100
AcDbLine
 10
27.91258900000000
 20
214.2491879999998
 30
0.000000000000000
 11
28.35045299999999
 21
216.2241879999999
 31
0.000000000000000
  0
LINE
  5
1B3
100
AcDbEntity
  8
1
  6
CONTINUOUS
 62
7
100
AcDbLine
 10
28.62958900000000
 20
214.2491879999998
 30
0.000000000000000
 11
29.06745300000001
 21
216.2241879999999
 31
0.000000000000000
  0
LINE
  5
1B4
100
AcDbEntity
  8
1
  6
CONTINUOUS
 62
7
100
AcDbLine
 10
29.34658900000000
 20
214.2491879999998
 30
0.000000000000000
 11
29.78445300000000
 21
216.2241879999999
 31
0.000000000000000
  0
LINE
  5
1B5
100
AcDbEntity
  8
1
  6
CONTINUOUS
 62
7
100
AcDbLine
 10
23.63588899999999
 20
219.2241880000000
 30
0.000000000000000
 11
23.63588899999999
 21
221.2241880000000
 31
0.000000000000000
  0
LINE
  5
1B6
100
AcDbEntity
  8
1
  6
CONTINUOUS
 62
7
100
AcDbLine
 10
24.33588900000000
 20
219.2241880000000
 30
0.000000000000000
 11
24.33588900000000
 21
221.2241880000000
 31
0.000000000000000
  0
LINE
  5
1B7
100
AcDbEntity
  8
1
  6
CONTINUOUS
 62
7
100
AcDbLine
 10
29.73588900000000
 20
219.2241880000000
 30
0.000000000000000
 11
29.73588900000000
 21
220.0241879999999
 31
0.000000000000000
  0
LINE
  5
1B8
100
AcDbEntity
  8
1
  6
CONTINUOUS
 62
7
100
AcDbLine
 10
28.53588900000000
 20
219.2241880000000
 30
0.000000000000000
 11
28.53588900000000
 21
220.0241879999999
 31
0.000000000000000
  0
LINE
  5
1B9
100
AcDbEntity
  8
1
  6
CONTINUOUS
 62
7
100
AcDbLine
 10
23.33588900000000
 20
219.2241880000000
 30
0.000000000000000
 11
23.33588900000000
 21
220.0241879999999
 31
0.000000000000000
  0
ARC
  5
1BA
100
AcDbEntity
  8
1
  6
CONTINUOUS
 62
7
100
AcDbCircle
 10
23.33588900000000
 20
220.0241879999999
 30
0.000000000000000
 40
1.199999999999999
100
AcDbArc
 50
90.00000000000000
 51
180.0000000000000
  0
LINE
  5
1BB
100
AcDbEntity
  8
1
  6
CONTINUOUS
 62
7
100
AcDbLine
 10
22.13588899999999
 20
219.2241880000000
 30
0.000000000000000
 11
22.13588899999999
 21
220.0241879999999
 31
0.000000000000000
  0
ARC
  5
1BC
100
AcDbEntity
  8
1
  6
CONTINUOUS
 62
7
100
AcDbCircle
 10
17.63588900000000
 20
217.3111879999999
 30
0.000000000000000
 40
1.500000000000000
100
AcDbArc
 50
95.89490100000002
 51
270.0000000000000
  0
LINE
  5
1BD
100
AcDbEntity
  8
1
  6
CONTINUOUS
 62
7
100
AcDbLine
 10
21.71312099999999
 20
216.2241879999999
 30
0.000000000000000
 11
17.78994500000000
 21
215.8191200000000
 31
0.000000000000000
  0
LINE
  5
1BE
100
AcDbEntity
  8
1
  6
CONTINUOUS
 62
7
100
AcDbLine
 10
20.38588900000000
 20
215.8111879999999
 30
0.000000000000000
 11
17.63588900000000
 21
215.8111879999999
 31
0.000000000000000
  0
LINE
  5
1BF
100
AcDbEntity
  8
1
  6
CONTINUOUS
 62
7
100
AcDbLine
 10
21.48183299999999
 20
219.2162560000000
 30
0.000000000000000
 11
17.48183299999999
 21
218.8032559999999
 31
0.000000000000000
  0
ARC
  5
1C0
100
AcDbEntity
  8
1
  6
CONTINUOUS
 62
7
100
AcDbCircle
 10
21.63588900000000
 20
217.7241879999999
 30
0.000000000000000
 40
1.500000000000000
100
AcDbArc
 50
90.00000000000000
 51
95.89490100000002
  0
LINE
  5
1C1
100
AcDbEntity
  8
1
  6
CONTINUOUS
 62
7
100
AcDbLine
 10
30.06358900000000
 20
214.2491879999998
 30
0.000000000000000
 11
30.50137199999999
 21
216.2241879999999
 31
0.000000000000000
  0
LINE
  5
1C2
100
AcDbEntity
  8
1
  6
CONTINUOUS
 62
7
100
AcDbLine
 10
22.13588899999999
 20
213.2241880000000
 30
0.000000000000000
 11
23.33588900000000
 21
213.2241880000000
 31
0.000000000000000
  0
LINE
  5
1C3
100
AcDbEntity
  8
1
  6
CONTINUOUS
 62
7
100
AcDbLine
 10
21.13588899999999
 20
213.0971879999999
 30
0.000000000000000
 11
21.93588900000000
 21
213.0971879999999
 31
0.000000000000000
  0
LINE
  5
1C4
100
AcDbEntity
  8
1
  6
CONTINUOUS
 62
7
100
AcDbLine
 10
21.93588900000000
 20
213.2871879999999
 30
0.000000000000000
 11
22.13588899999999
 21
213.2871879999999
 31
0.000000000000000
  0
LINE
  5
1C5
100
AcDbEntity
  8
1
  6
CONTINUOUS
 62
7
100
AcDbLine
 10
22.13588899999999
 20
213.2241880000000
 30
0.000000000000000
 11
22.13588899999999
 21
216.2241879999999
 31
0.000000000000000
  0
LINE
  5
1C6
100
AcDbEntity
  8
1
  6
CONTINUOUS
 62
7
100
AcDbLine
 10
23.33588900000000
 20
213.2241880000000
 30
0.000000000000000
 11
23.33588900000000
 21
216.2241879999999
 31
0.000000000000000
  0
LINE
  5
1C7
100
AcDbEntity
  8
1
  6
CONTINUOUS
 62
7
100
AcDbLine
 10
21.13588899999999
 20
213.0971879999999
 30
0.000000000000000
 11
21.13588899999999
 21
216.1645889999999
 31
0.000000000000000
  0
LINE
  5
1C8
100
AcDbEntity
  8
1
  6
CONTINUOUS
 62
7
100
AcDbLine
 10
21.93588900000000
 20
213.0971879999999
 30
0.000000000000000
 11
21.93588900000000
 21
216.2241879999999
 31
0.000000000000000
  0
ARC
  5
1C9
100
AcDbEntity
  8
1
  6
CONTINUOUS
 62
7
100
AcDbCircle
 10
23.98588900000000
 20
214.3241880000000
 30
0.000000000000000
 40
0.3500000000000000
100
AcDbArc
 50
167.5000000000000
 51
347.5000000000000
  0
ARC
  5
1CA
100
AcDbEntity
  8
1
  6
CONTINUOUS
 62
7
100
AcDbCircle
 10
24.70288899999999
 20
214.3241880000000
 30
0.000000000000000
 40
0.3500000000000000
100
AcDbArc
 50
167.5000000000000
 51
347.5000000000000
  0
ARC
  5
1CB
100
AcDbEntity
  8
1
  6
CONTINUOUS
 62
7
100
AcDbCircle
 10
25.41988900000000
 20
214.3241880000000
 30
0.000000000000000
 40
0.3500000000000000
100
AcDbArc
 50
167.5000000000000
 51
347.5000000000000
  0
ARC
  5
1CC
100
AcDbEntity
  8
1
  6
CONTINUOUS
 62
7
100
AcDbCircle
 10
26.13688900000000
 20
214.3241880000000
 30
0.000000000000000
 40
0.3500000000000000
100
AcDbArc
 50
167.5000000000000
 51
347.5000000000000
  0
ARC
  5
1CD
100
AcDbEntity
  8
1
  6
CONTINUOUS
 62
7
100
AcDbCircle
 10
26.85388899999999
 20
214.3241880000000
 30
0.000000000000000
 40
0.3500000000000000
100
AcDbArc
 50
167.5000000000000
 51
347.5000000000000
  0
ARC
  5
1CE
100
AcDbEntity
  8
1
  6
CONTINUOUS
 62
7
100
AcDbCircle
 10
27.57088900000000
 20
214.3241880000000
 30
0.000000000000000
 40
0.3500000000000000
100
AcDbArc
 50
167.5000000000000
 51
347.5000000000000
  0
ARC
  5
1CF
100
AcDbEntity
  8
1
  6
CONTINUOUS
 62
7
100
AcDbCircle
 10
28.28788900000000
 20
214.3241880000000
 30
0.000000000000000
 40
0.3500000000000000
100
AcDbArc
 50
167.5000000000000
 51
347.5000000000000
  0
ARC
  5
1D0
100
AcDbEntity
  8
1
  6
CONTINUOUS
 62
7
100
AcDbCircle
 10
29.00488900000000
 20
214.3241880000000
 30
0.000000000000000
 40
0.3500000000000000
100
AcDbArc
 50
167.5000000000000
 51
347.5000000000000
  0
ARC
  5
1D1
100
AcDbEntity
  8
1
  6
CONTINUOUS
 62
7
100
AcDbCircle
 10
29.72188900000000
 20
214.3241880000000
 30
0.000000000000000
 40
0.3500000000000000
100
AcDbArc
 50
167.5000000000000
 51
347.5000000000000
  0
ARC
  5
1D2
100
AcDbEntity
  8
1
  6
CONTINUOUS
 62
7
100
AcDbCircle
 10
36.33588900000000
 20
213.3011880000000
 30
0.000000000000000
 40
0.8000000000000000
100
AcDbArc
 50
270.0000000000000
 51
345.2264149999999
  0
LINE
  5
1D3
100
AcDbEntity
  8
1
  6
CONTINUOUS
 62
7
100
AcDbLine
 10
37.88588900000000
 20
215.8111879999999
 30
0.000000000000000
 11
40.63588900000000
 21
215.8111879999999
 31
0.000000000000000
  0
LINE
  5
1D4
100
AcDbEntity
  8
1
  6
CONTINUOUS
 62
7
100
AcDbLine
 10
36.13588899999999
 20
214.9241879999999
 30
0.000000000000000
 11
36.33588900000000
 21
214.9241879999999
 31
0.000000000000000
  0
LINE
  5
1D5
100
AcDbEntity
  8
1
  6
CONTINUOUS
 62
7
100
AcDbLine
 10
37.88588900000000
 20
214.6741879999999
 30
0.000000000000000
 11
37.88588900000000
 21
216.0871509999998
 31
0.000000000000000
  0
LINE
  5
1D6
100
AcDbEntity
  8
1
  6
CONTINUOUS
 62
7
100
AcDbLine
 10
37.13588899999999
 20
214.6741879999999
 30
0.000000000000000
 11
37.88588900000000
 21
214.6741879999999
 31
0.000000000000000
  0
LINE
  5
1D7
100
AcDbEntity
  8
1
  6
CONTINUOUS
 62
7
100
AcDbLine
 10
30.78058899999999
 20
214.2491879999998
 30
0.000000000000000
 11
31.21845300000000
 21
216.2241879999999
 31
0.000000000000000
  0
LINE
  5
1D8
100
AcDbEntity
  8
1
  6
CONTINUOUS
 62
7
100
AcDbLine
 10
31.49758900000000
 20
214.2491879999998
 30
0.000000000000000
 11
31.93537199999999
 21
216.2241879999999
 31
0.000000000000000
  0
LINE
  5
1D9
100
AcDbEntity
  8
1
  6
CONTINUOUS
 62
7
100
AcDbLine
 10
32.21448900000000
 20
214.2491879999998
 30
0.000000000000000
 11
32.65235300000000
 21
216.2241879999999
 31
0.000000000000000
  0
LINE
  5
1DA
100
AcDbEntity
  8
1
  6
CONTINUOUS
 62
7
100
AcDbLine
 10
32.93148900000000
 20
214.2491879999998
 30
0.000000000000000
 11
33.36935299999999
 21
216.2241879999999
 31
0.000000000000000
  0
LINE
  5
1DB
100
AcDbEntity
  8
1
  6
CONTINUOUS
 62
7
100
AcDbLine
 10
33.64848899999999
 20
214.2491879999997
 30
0.000000000000000
 11
34.08635299999999
 21
216.2241879999998
 31
0.000000000000000
  0
LINE
  5
1DC
100
AcDbEntity
  8
1
  6
CONTINUOUS
 62
7
100
AcDbLine
 10
33.79838900000000
 20
214.9241879999999
 30
0.000000000000000
 11
34.93588900000001
 21
214.9241879999999
 31
0.000000000000000
  0
ARC
  5
1DD
100
AcDbEntity
  8
1
  6
CONTINUOUS
 62
7
100
AcDbCircle
 10
40.63588900000000
 20
217.3111879999999
 30
0.000000000000000
 40
1.500000000000000
100
AcDbArc
 50
270.0000000000000
 51
444.1050990000000
  0
ARC
  5
1DE
100
AcDbEntity
  8
1
  6
CONTINUOUS
 62
7
100
AcDbCircle
 10
36.63588900000000
 20
217.7241879999999
 30
0.000000000000000
 40
1.500000000000000
100
AcDbArc
 50
84.10509900000000
 51
90.00000000000000
  0
LINE
  5
1DF
100
AcDbEntity
  8
1
  6
CONTINUOUS
 62
7
100
AcDbLine
 10
34.93588900000001
 20
219.2241880000000
 30
0.000000000000000
 11
34.93588900000001
 21
220.0241879999999
 31
0.000000000000000
  0
ARC
  5
1E0
100
AcDbEntity
  8
1
  6
CONTINUOUS
 62
7
100
AcDbCircle
 10
34.93588900000001
 20
220.0241879999999
 30
0.000000000000000
 40
1.199999999999999
100
AcDbArc
 50
0.000000000000000
 51
90.00000000000000
  0
LINE
  5
1E1
100
AcDbEntity
  8
1
  6
CONTINUOUS
 62
7
100
AcDbLine
 10
36.13588899999999
 20
219.2241880000000
 30
0.000000000000000
 11
36.13588899999999
 21
220.0241879999999
 31
0.000000000000000
  0
LINE
  5
1E2
100
AcDbEntity
  8
1
  6
CONTINUOUS
 62
7
100
AcDbLine
 10
36.78994500000002
 20
219.2162560000000
 30
0.000000000000000
 11
40.78994500000001
 21
218.8032559999999
 31
0.000000000000000
  0
LINE
  5
1E3
100
AcDbEntity
  8
1
  6
CONTINUOUS
 62
7
100
AcDbLine
 10
36.55865600000001
 20
216.2241879999999
 30
0.000000000000000
 11
40.48183300000001
 21
215.8191200000000
 31
0.000000000000000
  0
LINE
  5
1E4
100
AcDbEntity
  8
1
  6
CONTINUOUS
 62
7
100
AcDbLine
 10
34.93588900000001
 20
213.2241880000000
 30
0.000000000000000
 11
36.13588899999999
 21
213.2241880000000
 31
0.000000000000000
  0
LINE
  5
1E5
100
AcDbEntity
  8
1
  6
CONTINUOUS
 62
7
100
AcDbLine
 10
36.33588900000000
 20
213.0971879999999
 30
0.000000000000000
 11
37.13588899999999
 21
213.0971879999999
 31
0.000000000000000
  0
LINE
  5
1E6
100
AcDbEntity
  8
1
  6
CONTINUOUS
 62
7
100
AcDbLine
 10
36.13588899999999
 20
213.2871879999999
 30
0.000000000000000
 11
36.33588900000000
 21
213.2871879999999
 31
0.000000000000000
  0
LINE
  5
1E7
100
AcDbEntity
  8
1
  6
CONTINUOUS
 62
7
100
AcDbLine
 10
36.13588899999999
 20
213.2241880000000
 30
0.000000000000000
 11
36.13588899999999
 21
216.2241879999999
 31
0.000000000000000
  0
LINE
  5
1E8
100
AcDbEntity
  8
1
  6
CONTINUOUS
 62
7
100
AcDbLine
 10
34.93588900000001
 20
213.2241880000000
 30
0.000000000000000
 11
34.93588900000001
 21
216.2241879999999
 31
0.000000000000000
  0
LINE
  5
1E9
100
AcDbEntity
  8
1
  6
CONTINUOUS
 62
7
100
AcDbLine
 10
37.13588899999999
 20
213.0971879999999
 30
0.000000000000000
 11
37.13588899999999
 21
216.1645889999999
 31
0.000000000000000
  0
LINE
  5
1EA
100
AcDbEntity
  8
1
  6
CONTINUOUS
 62
7
100
AcDbLine
 10
36.33588900000000
 20
213.0971879999999
 30
0.000000000000000
 11
36.33588900000000
 21
216.2241879999999
 31
0.000000000000000
  0
ARC
  5
1EB
100
AcDbEntity
  8
1
  6
CONTINUOUS
 62
7
100
AcDbCircle
 10
31.15588900000000
 20
214.3241880000000
 30
0.000000000000000
 40
0.3500000000000000
100
AcDbArc
 50
167.5000000000000
 51
347.5000000000000
  0
ARC
  5
1EC
100
AcDbEntity
  8
1
  6
CONTINUOUS
 62
7
100
AcDbCircle
 10
31.87278900000000
 20
214.3241880000000
 30
0.000000000000000
 40
0.3500000000000000
100
AcDbArc
 50
167.5000000000000
 51
347.5000000000000
  0
ARC
  5
1ED
100
AcDbEntity
  8
1
  6
CONTINUOUS
 62
7
100
AcDbCircle
 10
32.58978900000001
 20
214.3241880000000
 30
0.000000000000000
 40
0.3500000000000000
100
AcDbArc
 50
167.5000000000000
 51
347.5000000000000
  0
ARC
  5
1EE
100
AcDbEntity
  8
1
  6
CONTINUOUS
 62
7
100
AcDbCircle
 10
33.30678900000000
 20
214.3241880000000
 30
0.000000000000000
 40
0.3500000000000000
100
AcDbArc
 50
167.5000000000000
 51
347.5000000000000
  0
LINE
  5
1EF
100
AcDbEntity
  8
1
  6
CONTINUOUS
 62
7
100
AcDbLine
 10
72.63588899999999
 20
145.7031879999998
 30
0.000000000000000
 11
85.63588899999999
 21
145.7031879999998
 31
0.000000000000000
  0
LINE
  5
1F0
100
AcDbEntity
  8
1
  6
CONTINUOUS
 62
7
100
AcDbLine
 10
74.63588899999999
 20
149.7031880000004
 30
0.000000000000000
 11
83.63588899999996
 21
149.7031880000004
 31
0.000000000000000
  0
LINE
  5
1F1
100
AcDbEntity
  8
4
  6
CENTER
 62
1
100
AcDbLine
 10
79.13588899999999
 20
168.2031879999998
 30
0.000000000000000
 11
79.13588899999999
 21
140.7031879999996
 31
0.000000000000000
  0
LINE
  5
1F2
100
AcDbEntity
  8
1
  6
CONTINUOUS
 62
7
100
AcDbLine
 10
85.63588899999999
 20
151.2031879999998
 30
0.000000000000000
 11
85.63588899999999
 21
145.7031879999998
 31
0.000000000000000
  0
LINE
  5
1F3
100
AcDbEntity
  8
1
  6
CONTINUOUS
 62
7
100
AcDbLine
 10
72.63588899999999
 20
151.2031879999998
 30
0.000000000000000
 11
72.63588899999999
 21
145.7031879999998
 31
0.000000000000000
  0
LINE
  5
1F4
100
AcDbEntity
  8
1
  6
CONTINUOUS
 62
7
100
AcDbLine
 10
72.63588899999999
 20
151.2031879999998
 30
0.000000000000000
 11
67.69098899999999
 21
155.8241879999998
 31
0.000000000000000
  0
LINE
  5
1F5
100
AcDbEntity
  8
1
  6
CONTINUOUS
 62
7
100
AcDbLine
 10
85.63588899999999
 20
151.2031879999998
 30
0.000000000000000
 11
90.58088899999996
 21
155.8241879999998
 31
0.000000000000000
  0
LINE
  5
1F6
100
AcDbEntity
  8
4
  6
CENTER
 62
1
100
AcDbLine
 10
83.88588899999999
 20
162.0031879999996
 30
0.000000000000000
 11
83.88588899999999
 21
152.4031879999997
 31
0.000000000000000
  0
LINE
  5
1F7
100
AcDbEntity
  8
4
  6
CENTER
 62
1
100
AcDbLine
 10
69.58588900000001
 20
157.2031879999996
 30
0.000000000000000
 11
88.68588899999997
 21
157.2031879999996
 31
0.000000000000000
  0
LINE
  5
1F8
100
AcDbEntity
  8
4
  6
CENTER
 62
1
100
AcDbLine
 10
74.38588899999999
 20
162.0031879999996
 30
0.000000000000000
 11
74.38588899999999
 21
152.4031879999997
 31
0.000000000000000
  0
LINE
  5
1F9
100
AcDbEntity
  8
1
  6
CONTINUOUS
 62
7
100
AcDbLine
 10
74.63588899999999
 20
148.8582096678318
 30
0.000000000000000
 11
83.63588899999996
 21
148.8582096678318
 31
0.000000000000000
  0
LINE
  5
1FA
100
AcDbEntity
  8
1
  6
CONTINUOUS
 62
7
100
AcDbLine
 10
67.13588899999999
 20
221.2241880000000
 30
0.000000000000000
 11
91.13588899999996
 21
221.2241880000000
 31
0.000000000000000
  0
LINE
  5
1FB
100
AcDbEntity
  8
1
  6
CONTINUOUS
 62
7
100
AcDbLine
 10
67.13588899999999
 20
219.7241880000001
 30
0.000000000000000
 11
91.13588899999996
 21
219.7241880000001
 31
0.000000000000000
  0
LINE
  5
1FC
100
AcDbEntity
  8
1
  6
CONTINUOUS
 62
7
100
AcDbLine
 10
74.63588899999999
 20
213.7233300144614
 30
0.000000000000000
 11
83.63588899999996
 21
213.7233300144614
 31
0.000000000000000
  0
LINE
  5
1FD
100
AcDbEntity
  8
1
  6
CONTINUOUS
 62
7
100
AcDbLine
 10
74.63588899999999
 20
214.9626893724226
 30
0.000000000000000
 11
83.63588899999996
 21
214.9626893724226
 31
0.000000000000000
  0
LINE
  5
1FE
100
AcDbEntity
  8
4
  6
CENTER
 62
1
100
AcDbLine
 10
79.13588899999999
 20
209.2241880000001
 30
0.000000000000000
 11
79.13588899999999
 21
226.2241880000001
 31
0.000000000000000
  0
LINE
  5
1FF
100
AcDbEntity
  8
1
  6
CONTINUOUS
 62
7
100
AcDbLine
 10
67.13588899999999
 20
219.7241880000001
 30
0.000000000000000
 11
67.13588899999999
 21
221.2241880000000
 31
0.000000000000000
  0
LINE
  5
200
100
AcDbEntity
  8
1
  6
CONTINUOUS
 62
7
100
AcDbLine
 10
91.13588899999996
 20
219.7241880000001
 30
0.000000000000000
 11
91.13588899999996
 21
221.2241880000000
 31
0.000000000000000
  0
LINE
  5
201
100
AcDbEntity
  8
1
  6
CONTINUOUS
 62
7
100
AcDbLine
 10
72.63588899999999
 20
215.7233300144614
 30
0.000000000000000
 11
72.63588899999999
 21
219.7241880000001
 31
0.000000000000000
  0
LINE
  5
202
100
AcDbEntity
  8
1
  6
CONTINUOUS
 62
7
100
AcDbLine
 10
85.63588899999999
 20
215.7233300144614
 30
0.000000000000000
 11
85.63588899999999
 21
219.7241880000001
 31
0.000000000000000
  0
LINE
  5
203
100
AcDbEntity
  8
4
  6
CENTER
 62
1
100
AcDbLine
 10
70.63588899999999
 20
218.1911880000001
 30
0.000000000000000
 11
87.63588899999999
 21
218.1911880000001
 31
0.000000000000000
  0
LINE
  5
204
100
AcDbEntity
  8
4
  6
CENTER
 62
1
100
AcDbLine
 10
74.38588899999999
 20
223.2241880000000
 30
0.000000000000000
 11
74.38588899999999
 21
217.7241880000001
 31
0.000000000000000
  0
LINE
  5
205
100
AcDbEntity
  8
4
  6
CENTER
 62
1
100
AcDbLine
 10
83.88588899999999
 20
223.2241880000000
 30
0.000000000000000
 11
83.88588899999999
 21
217.7241880000001
 31
0.000000000000000
  0
ARC
  5
206
100
AcDbEntity
  8
1
  6
CONTINUOUS
 62
7
100
AcDbCircle
 10
74.63588899999999
 20
147.7031880000004
 30
0.000000000000000
 40
2.000000000000000
100
AcDbArc
 50
90.00000000000000
 51
180.0000000000000
  0
ARC
  5
207
100
AcDbEntity
  8
1
  6
CONTINUOUS
 62
7
100
AcDbCircle
 10
83.63588899999996
 20
147.7031880000004
 30
0.000000000000000
 40
2.000000000000000
100
AcDbArc
 50
0.000000000000000
 51
90.00000000000000
  0
ARC
  5
208
100
AcDbEntity
  8
1
  6
CONTINUOUS
 62
7
100
AcDbCircle
 10
79.13588899999999
 20
147.2031879999996
 30
0.000000000000000
 40
16.00000000000000
100
AcDbArc
 50
44.00339999999999
 51
135.9970000000000
  0
ARC
  5
209
100
AcDbEntity
  8
1
  6
CONTINUOUS
 62
7
100
AcDbCircle
 10
68.88588899999999
 20
157.1031879999998
 30
0.000000000000000
 40
1.750000000000000
100
AcDbArc
 50
135.9970000000000
 51
226.9400000000000
  0
ARC
  5
20A
100
AcDbEntity
  8
1
  6
CONTINUOUS
 62
7
100
AcDbCircle
 10
89.38588899999999
 20
157.1031879999998
 30
0.000000000000000
 40
1.750000000000000
100
AcDbArc
 50
313.0600000000001
 51
404.0034000000000
  0
CIRCLE
  5
20B
100
AcDbEntity
  8
1
  6
CONTINUOUS
 62
7
100
AcDbCircle
 10
83.88588899999999
 20
157.2031879999996
 30
0.000000000000000
 40
1.649999999999999
  0
CIRCLE
  5
20C
100
AcDbEntity
  8
1
  6
CONTINUOUS
 62
7
100
AcDbCircle
 10
74.38588899999999
 20
157.2031879999996
 30
0.000000000000000
 40
1.649999999999999
  0
CIRCLE
  5
20D
100
AcDbEntity
  8
1
  6
CONTINUOUS
 62
7
100
AcDbCircle
 10
74.38588899999999
 20
157.2031879999996
 30
0.000000000000000
 40
2.799999999999998
  0
CIRCLE
  5
20E
100
AcDbEntity
  8
1
  6
CONTINUOUS
 62
7
100
AcDbCircle
 10
83.88588899999999
 20
157.2031879999996
 30
0.000000000000000
 40
2.799999999999998
  0
ARC
  5
20F
100
AcDbEntity
  8
1
  6
CONTINUOUS
 62
7
100
AcDbCircle
 10
74.63588899999999
 20
146.8582096678316
 30
0.000000000000000
 40
2.000000000000000
100
AcDbArc
 50
90.00000000000000
 51
180.0000000000000
  0
ARC
  5
210
100
AcDbEntity
  8
1
  6
CONTINUOUS
 62
7
100
AcDbCircle
 10
83.63588899999996
 20
146.8582096678316
 30
0.000000000000000
 40
2.000000000000000
100
AcDbArc
 50
0.000000000000000
 51
90.00000000000000
  0
ARC
  5
211
100
AcDbEntity
  8
1
  6
CONTINUOUS
 62
7
100
AcDbCircle
 10
74.63588899999999
 20
215.7233300144614
 30
0.000000000000000
 40
2.000000000000000
100
AcDbArc
 50
180.0000000000000
 51
270.0000000000000
  0
ARC
  5
212
100
AcDbEntity
  8
1
  6
CONTINUOUS
 62
7
100
AcDbCircle
 10
83.63588899999996
 20
215.7233300144614
 30
0.000000000000000
 40
2.000000000000000
100
AcDbArc
 50
270.0000000000000
 51
360.0000000000000
  0
ARC
  5
213
100
AcDbEntity
  8
1
  6
CONTINUOUS
 62
7
100
AcDbCircle
 10
74.63588899999999
 20
216.9626893724226
 30
0.000000000000000
 40
2.000000000000000
100
AcDbArc
 50
180.0000000000000
 51
270.0000000000000
  0
ARC
  5
214
100
AcDbEntity
  8
1
  6
CONTINUOUS
 62
7
100
AcDbCircle
 10
83.63588899999996
 20
216.9626893724226
 30
0.000000000000000
 40
2.000000000000000
100
AcDbArc
 50
270.0000000000000
 51
360.0000000000000
  0
LINE
  5
215
100
AcDbEntity
  8
1
  6
CONTINUOUS
 62
7
100
AcDbLine
 10
182.4358890000000
 20
163.2031879999998
 30
0.000000000000000
 11
183.9358889999999
 21
163.2031879999998
 31
0.000000000000000
  0
LINE
  5
216
100
AcDbEntity
  8
1
  6
CONTINUOUS
 62
7
100
AcDbLine
 10
183.9358889999999
 20
163.2031879999998
 30
0.000000000000000
 11
183.9358889999999
 21
149.2031879999996
 31
0.000000000000000
  0
LINE
  5
217
100
AcDbEntity
  8
1
  6
CONTINUOUS
 62
7
100
AcDbLine
 10
182.4358890000000
 20
163.2031879999998
 30
0.000000000000000
 11
182.4358890000000
 21
149.2031879999996
 31
0.000000000000000
  0
LINE
  5
218
100
AcDbEntity
  8
4
  6
CENTER
 62
1
100
AcDbLine
 10
178.7992280000000
 20
157.2031879999996
 30
0.000000000000000
 11
187.2142300000000
 21
157.2031879999996
 31
0.000000000000000
  0
ARC
  5
219
100
AcDbEntity
  8
1
  6
CONTINUOUS
 62
7
100
AcDbCircle
 10
180.4358889999999
 20
149.2031879999996
 30
0.000000000000000
 40
2.000000000000000
100
AcDbArc
 50
214.2856331551241
 51
360.0000000000000
  0
ARC
  5
21A
100
AcDbEntity
  8
1
  6
CONTINUOUS
 62
7
100
AcDbCircle
 10
180.4358889999999
 20
149.2031879999996
 30
0.000000000000000
 40
3.500000000000000
100
AcDbArc
 50
214.2856331551239
 51
360.0000000000000
  0
LINE
  5
21B
100
AcDbEntity
  8
1
  6
CONTINUOUS
 62
7
100
AcDbLine
 10
183.9358889999999
 20
151.2031879999998
 30
0.000000000000000
 11
182.4358890000000
 21
151.2031879999998
 31
0.000000000000000
  0
LINE
  5
21C
100
AcDbEntity
  8
1
  6
CONTINUOUS
 62
7
100
AcDbLine
 10
177.6743903724225
 20
149.7031880000005
 30
0.000000000000000
 11
176.4350310144615
 21
148.8582096678319
 31
0.000000000000000
  0
LINE
  5
21D
100
AcDbEntity
  8
1
  6
CONTINUOUS
 62
7
100
AcDbLine
 10
178.7834098560518
 20
148.0765502237751
 30
0.000000000000000
 11
177.6743903724225
 21
149.7031880000004
 31
0.000000000000000
  0
LINE
  5
21E
100
AcDbEntity
  8
1
  6
CONTINUOUS
 62
7
100
AcDbLine
 10
177.5440504980907
 20
147.2315718916064
 30
0.000000000000000
 11
176.4350310144614
 21
148.8582096678318
 31
0.000000000000000
  0
LINE
  5
21F
100
AcDbEntity
  8
1
  6
CONTINUOUS
 62
7
100
AcDbLine
 10
295.6358889999999
 20
145.7031879999999
 30
0.000000000000000
 11
282.6358890000000
 21
145.7031879999999
 31
0.000000000000000
  0
LINE
  5
220
100
AcDbEntity
  8
4
  6
CENTER
 62
1
100
AcDbLine
 10
289.1358890000000
 20
168.2031879999999
 30
0.000000000000000
 11
289.1358890000000
 21
140.7031879999997
 31
0.000000000000000
  0
LINE
  5
221
100
AcDbEntity
  8
1
  6
CONTINUOUS
 62
7
100
AcDbLine
 10
282.6358890000000
 20
151.2031879999999
 30
0.000000000000000
 11
282.6358890000000
 21
145.7031879999999
 31
0.000000000000000
  0
LINE
  5
222
100
AcDbEntity
  8
1
  6
CONTINUOUS
 62
7
100
AcDbLine
 10
295.6358889999999
 20
151.2031879999999
 30
0.000000000000000
 11
295.6358889999999
 21
145.7031879999999
 31
0.000000000000000
  0
LINE
  5
223
100
AcDbEntity
  8
1
  6
CONTINUOUS
 62
7
100
AcDbLine
 10
295.6358889999999
 20
151.2031879999999
 30
0.000000000000000
 11
300.5808889999999
 21
155.8241879999999
 31
0.000000000000000
  0
LINE
  5
224
100
AcDbEntity
  8
1
  6
CONTINUOUS
 62
7
100
AcDbLine
 10
282.6358890000000
 20
151.2031879999999
 30
0.000000000000000
 11
277.6908889999998
 21
155.8241879999999
 31
0.000000000000000
  0
LINE
  5
225
100
AcDbEntity
  8
4
  6
CENTER
 62
1
100
AcDbLine
 10
284.3858890000000
 20
160.8531879999999
 30
0.000000000000000
 11
284.3858890000000
 21
153.5531879999999
 31
0.000000000000000
  0
LINE
  5
226
100
AcDbEntity
  8
4
  6
CENTER
 62
1
100
AcDbLine
 10
297.5358890000000
 20
157.2031879999997
 30
0.000000000000000
 11
280.7358890000000
 21
157.2031879999997
 31
0.000000000000000
  0
LINE
  5
227
100
AcDbEntity
  8
4
  6
CENTER
 62
1
100
AcDbLine
 10
293.8858889999999
 20
160.8531879999999
 30
0.000000000000000
 11
293.8858889999999
 21
153.5531879999999
 31
0.000000000000000
  0
ARC
  5
228
100
AcDbEntity
  8
1
  6
CONTINUOUS
 62
7
100
AcDbCircle
 10
289.1358890000000
 20
147.2031879999997
 30
0.000000000000000
 40
16.00000000000000
100
AcDbArc
 50
44.00339999999999
 51
135.9970000000000
  0
ARC
  5
229
100
AcDbEntity
  8
1
  6
CONTINUOUS
 62
7
100
AcDbCircle
 10
299.3858889999999
 20
157.1031879999999
 30
0.000000000000000
 40
1.750000000000000
100
AcDbArc
 50
313.0600000000001
 51
404.0034000000000
  0
ARC
  5
22A
100
AcDbEntity
  8
1
  6
CONTINUOUS
 62
7
100
AcDbCircle
 10
278.8858889999999
 20
157.1031879999999
 30
0.000000000000000
 40
1.750000000000000
100
AcDbArc
 50
135.9970000000000
 51
226.9400000000000
  0
CIRCLE
  5
22B
100
AcDbEntity
  8
1
  6
CONTINUOUS
 62
7
100
AcDbCircle
 10
284.3858890000000
 20
157.2031879999997
 30
0.000000000000000
 40
1.649999999999999
  0
CIRCLE
  5
22C
100
AcDbEntity
  8
1
  6
CONTINUOUS
 62
7
100
AcDbCircle
 10
293.8858889999999
 20
157.2031879999997
 30
0.000000000000000
 40
1.649999999999999
  0
ENDSEC
  0
SECTION
  2
OBJECTS
  0
DICTIONARY
  5
256
100
AcDbDictionary
  3
ACAD_GROUP
350
257
  3
ACAD_LAYOUT
350
258
  3
ACAD_MLINESTYLE
350
259
  0
DICTIONARY
  5
257
102
{ACAD_REACTORS
330
256
102
}
330
256
100
AcDbDictionary
  0
DICTIONARY
  5
258
102
{ACAD_REACTORS
330
256
102
}
330
256
100
AcDbDictionary
  3
Model
350
25A
  3
ﾚｲｱｳﾄ1
350
25B
  3
ﾚｲｱｳﾄ2
350
25C
  0
DICTIONARY
  5
259
102
{ACAD_REACTORS
330
256
102
}
330
256
100
AcDbDictionary
  3
STANDARD
350
25D
  0
LAYOUT
  5
25A
102
{ACAD_REACTORS
330
258
102
}
330
258
100
AcDbPlotSettings
 70
11952
  4
A3
 44
297.000000
 45
420.000000
 73
  1
 72
  1
100
AcDbLayout
  1
Model
 71
0
330
24D
  0
LAYOUT
  5
25B
102
{ACAD_REACTORS
330
258
102
}
330
258
100
AcDbPlotSettings
100
AcDbLayout
  1
ﾚｲｱｳﾄ1
 71
1
330
24E
  0
LAYOUT
  5
25C
102
{ACAD_REACTORS
330
258
102
}
330
258
100
AcDbPlotSettings
100
AcDbLayout
  1
ﾚｲｱｳﾄ2
 71
2
330
24F
  0
MLINESTYLE
  5
25D
102
{ACAD_REACTORS
330
259
102
}
330
259
100
AcDbMlineStyle
  2
STANDARD
 70
     0
  3

 62
   256
 51
90.00
 52
90.00
 71
     2
 49
0.50
 62
   256
  6
BYLAYER
 49
-0.50
 62
   256
  6
BYLAYER
  0
ENDSEC
  0
EOF
