  0
SECTION
  2
HEADER
  9
$ACADVER
  1
AC1015
  9
$ACADMAINTVER
 70
    20
  9
$DWGCODEPAGE
  3
ANSI_932
  9
$INSBASE
 10
0.0
 20
0.0
 30
0.0
  9
$EXTMIN
 10
9.945685537608026
 20
9.999999806846743
 30
0.0
  9
$EXTMAX
 10
312.6451855376077
 20
248.3086928068467
 30
0.0
  9
$LIMMIN
 10
0.0000015376081137
 20
-0.0000001931532552
  9
$LIMMAX
 10
396.0000015376081
 20
272.9999998068465
  9
$ORTHOMODE
 70
     1
  9
$REGENMODE
 70
     1
  9
$FILLMODE
 70
     1
  9
$QTEXTMODE
 70
     0
  9
$MIRRTEXT
 70
     1
  9
$LTSCALE
 40
1.0
  9
$ATTMODE
 70
     1
  9
$TEXTSIZE
 40
2.5
  9
$TRACEWID
 40
1.0
  9
$TEXTSTYLE
  7
STANDARD
  9
$CLAYER
  8
0
  9
$CELTYPE
  6
BYLAYER
  9
$CECOLOR
 62
   256
  9
$CELTSCALE
 40
1.0
  9
$DISPSILH
 70
     0
  9
$DIMSCALE
 40
1.0
  9
$DIMASZ
 40
3.0
  9
$DIMEXO
 40
1.0
  9
$DIMDLI
 40
10.0
  9
$DIMRND
 40
0.0
  9
$DIMDLE
 40
0.0
  9
$DIMEXE
 40
1.0
  9
$DIMTP
 40
0.0
  9
$DIMTM
 40
0.0
  9
$DIMTXT
 40
3.2
  9
$DIMCEN
 40
0.0
  9
$DIMTSZ
 40
0.0
  9
$DIMTOL
 70
     0
  9
$DIMLIM
 70
     0
  9
$DIMTIH
 70
     0
  9
$DIMTOH
 70
     0
  9
$DIMSE1
 70
     0
  9
$DIMSE2
 70
     0
  9
$DIMTAD
 70
     3
  9
$DIMZIN
 70
     8
  9
$DIMBLK
  1

  9
$DIMASO
 70
     1
  9
$DIMSHO
 70
     1
  9
$DIMPOST
  1

  9
$DIMAPOST
  1

  9
$DIMALT
 70
     0
  9
$DIMALTD
 70
     2
  9
$DIMALTF
 40
25.4
  9
$DIMLFAC
 40
1.0
  9
$DIMTOFL
 70
     1
  9
$DIMTVP
 40
0.0
  9
$DIMTIX
 70
     0
  9
$DIMSOXD
 70
     0
  9
$DIMSAH
 70
     1
  9
$DIMBLK1
  1
OPEN
  9
$DIMBLK2
  1
OPEN
  9
$DIMSTYLE
  2
STANDARD
  9
$DIMCLRD
 70
     0
  9
$DIMCLRE
 70
     0
  9
$DIMCLRT
 70
     0
  9
$DIMTFAC
 40
1.0
  9
$DIMGAP
 40
1.0
  9
$DIMJUST
 70
     0
  9
$DIMSD1
 70
     0
  9
$DIMSD2
 70
     0
  9
$DIMTOLJ
 70
     1
  9
$DIMTZIN
 70
     0
  9
$DIMALTZ
 70
     0
  9
$DIMALTTZ
 70
     0
  9
$DIMUPT
 70
     0
  9
$DIMDEC
 70
     4
  9
$DIMTDEC
 70
     4
  9
$DIMALTU
 70
     2
  9
$DIMALTTD
 70
     2
  9
$DIMTXSTY
  7
STANDARD
  9
$DIMAUNIT
 70
     0
  9
$DIMADEC
 70
     0
  9
$DIMALTRND
 40
0.0
  9
$DIMAZIN
 70
     0
  9
$DIMDSEP
 70
    46
  9
$DIMATFIT
 70
     3
  9
$DIMFRAC
 70
     0
  9
$DIMLDRBLK
  1
OPEN
  9
$DIMLUNIT
 70
     2
  9
$DIMLWD
 70
    -2
  9
$DIMLWE
 70
    -2
  9
$DIMTMOVE
 70
     0
  9
$LUNITS
 70
     2
  9
$LUPREC
 70
     4
  9
$SKETCHINC
 40
1.0
  9
$FILLETRAD
 40
0.0
  9
$AUNITS
 70
     0
  9
$AUPREC
 70
     0
  9
$MENU
  1
.
  9
$ELEVATION
 40
0.0
  9
$PELEVATION
 40
0.0
  9
$THICKNESS
 40
0.0
  9
$LIMCHECK
 70
     0
  9
$CHAMFERA
 40
10.0
  9
$CHAMFERB
 40
10.0
  9
$CHAMFERC
 40
20.0
  9
$CHAMFERD
 40
0.0
  9
$SKPOLY
 70
     0
  9
$TDCREATE
 40
2455539.597063206
  9
$TDUCREATE
 40
2455539.222063206
  9
$TDUPDATE
 40
2457192.602871887
  9
$TDUUPDATE
 40
2457192.227871887
  9
$TDINDWG
 40
0.0616764468
  9
$TDUSRTIMER
 40
0.0616764236
  9
$USRTIMER
 70
     1
  9
$ANGBASE
 50
0.0
  9
$ANGDIR
 70
     0
  9
$PDMODE
 70
     0
  9
$PDSIZE
 40
0.0
  9
$PLINEWID
 40
0.0
  9
$SPLFRAME
 70
     0
  9
$SPLINETYPE
 70
     6
  9
$SPLINESEGS
 70
     8
  9
$HANDSEED
  5
10E9
  9
$SURFTAB1
 70
     6
  9
$SURFTAB2
 70
     6
  9
$SURFTYPE
 70
     6
  9
$SURFU
 70
     6
  9
$SURFV
 70
     6
  9
$UCSBASE
  2

  9
$UCSNAME
  2

  9
$UCSORG
 10
0.0
 20
0.0
 30
0.0
  9
$UCSXDIR
 10
1.0
 20
0.0
 30
0.0
  9
$UCSYDIR
 10
0.0
 20
1.0
 30
0.0
  9
$UCSORTHOREF
  2

  9
$UCSORTHOVIEW
 70
     0
  9
$UCSORGTOP
 10
0.0
 20
0.0
 30
0.0
  9
$UCSORGBOTTOM
 10
0.0
 20
0.0
 30
0.0
  9
$UCSORGLEFT
 10
0.0
 20
0.0
 30
0.0
  9
$UCSORGRIGHT
 10
0.0
 20
0.0
 30
0.0
  9
$UCSORGFRONT
 10
0.0
 20
0.0
 30
0.0
  9
$UCSORGBACK
 10
0.0
 20
0.0
 30
0.0
  9
$PUCSBASE
  2

  9
$PUCSNAME
  2

  9
$PUCSORG
 10
0.0
 20
0.0
 30
0.0
  9
$PUCSXDIR
 10
1.0
 20
0.0
 30
0.0
  9
$PUCSYDIR
 10
0.0
 20
1.0
 30
0.0
  9
$PUCSORTHOREF
  2

  9
$PUCSORTHOVIEW
 70
     0
  9
$PUCSORGTOP
 10
0.0
 20
0.0
 30
0.0
  9
$PUCSORGBOTTOM
 10
0.0
 20
0.0
 30
0.0
  9
$PUCSORGLEFT
 10
0.0
 20
0.0
 30
0.0
  9
$PUCSORGRIGHT
 10
0.0
 20
0.0
 30
0.0
  9
$PUCSORGFRONT
 10
0.0
 20
0.0
 30
0.0
  9
$PUCSORGBACK
 10
0.0
 20
0.0
 30
0.0
  9
$USERI1
 70
     0
  9
$USERI2
 70
     0
  9
$USERI3
 70
     0
  9
$USERI4
 70
     0
  9
$USERI5
 70
     0
  9
$USERR1
 40
0.0
  9
$USERR2
 40
0.0
  9
$USERR3
 40
0.0
  9
$USERR4
 40
0.0
  9
$USERR5
 40
0.0
  9
$WORLDVIEW
 70
     1
  9
$SHADEDGE
 70
     3
  9
$SHADEDIF
 70
    70
  9
$TILEMODE
 70
     1
  9
$MAXACTVP
 70
    48
  9
$PINSBASE
 10
0.0
 20
0.0
 30
0.0
  9
$PLIMCHECK
 70
     0
  9
$PEXTMIN
 10
1.000000000000000E+20
 20
1.000000000000000E+20
 30
1.000000000000000E+20
  9
$PEXTMAX
 10
-1.000000000000000E+20
 20
-1.000000000000000E+20
 30
-1.000000000000000E+20
  9
$PLIMMIN
 10
0.0
 20
0.0
  9
$PLIMMAX
 10
420.0
 20
297.0
  9
$UNITMODE
 70
     0
  9
$VISRETAIN
 70
     1
  9
$PLINEGEN
 70
     0
  9
$PSLTSCALE
 70
     1
  9
$TREEDEPTH
 70
  3020
  9
$CMLSTYLE
  2
STANDARD
  9
$CMLJUST
 70
     0
  9
$CMLSCALE
 40
20.0
  9
$PROXYGRAPHICS
 70
     1
  9
$MEASUREMENT
 70
     0
  9
$CELWEIGHT
370
    -1
  9
$ENDCAPS
280
     0
  9
$JOINSTYLE
280
     0
  9
$LWDISPLAY
290
     0
  9
$INSUNITS
 70
     0
  9
$HYPERLINKBASE
  1

  9
$STYLESHEET
  1

  9
$XEDIT
290
     1
  9
$CEPSNTYPE
380
     0
  9
$PSTYLEMODE
290
     1
  9
$FINGERPRINTGUID
  2
{0BBBD861-CF25-4D6C-88F3-5B0000C50610}
  9
$VERSIONGUID
  2
{03A6BECC-08FA-4155-8544-9818CE93AE1C}
  9
$EXTNAMES
290
     1
  9
$PSVPSCALE
 40
0.0
  9
$OLESTARTUP
290
     0
  0
ENDSEC
  0
SECTION
  2
CLASSES
  0
CLASS
  1
ACDBDICTIONARYWDFLT
  2
AcDbDictionaryWithDefault
  3
ObjectDBX Classes
 90
        0
280
     0
281
     0
  0
CLASS
  1
ACDBPLACEHOLDER
  2
AcDbPlaceHolder
  3
ObjectDBX Classes
 90
        0
280
     0
281
     0
  0
CLASS
  1
LAYOUT
  2
AcDbLayout
  3
ObjectDBX Classes
 90
        0
280
     0
281
     0
  0
CLASS
  1
MATERIAL
  2
AcDbMaterial
  3
ObjectDBX Classes
 90
     1153
280
     0
281
     0
  0
CLASS
  1
VISUALSTYLE
  2
AcDbVisualStyle
  3
ObjectDBX Classes
 90
     4095
280
     0
281
     0
  0
CLASS
  1
TABLESTYLE
  2
AcDbTableStyle
  3
ObjectDBX Classes
 90
     4095
280
     0
281
     0
  0
CLASS
  1
SCALE
  2
AcDbScale
  3
ObjectDBX Classes
 90
     1153
280
     0
281
     0
  0
CLASS
  1
MLEADERSTYLE
  2
AcDbMLeaderStyle
  3
ACDB_MLEADERSTYLE_CLASS
 90
     4095
280
     0
281
     0
  0
CLASS
  1
ACDBSECTIONVIEWSTYLE
  2
AcDbSectionViewStyle
  3
ObjectDBX Classes
 90
     1025
280
     0
281
     0
  0
CLASS
  1
ACDBDETAILVIEWSTYLE
  2
AcDbDetailViewStyle
  3
ObjectDBX Classes
 90
     1025
280
     0
281
     0
  0
CLASS
  1
DICTIONARYVAR
  2
AcDbDictionaryVar
  3
ObjectDBX Classes
 90
        0
280
     0
281
     0
  0
CLASS
  1
CELLSTYLEMAP
  2
AcDbCellStyleMap
  3
ObjectDBX Classes
 90
     1152
280
     0
281
     0
  0
ENDSEC
  0
SECTION
  2
TABLES
  0
TABLE
  2
VPORT
  5
8
330
0
100
AcDbSymbolTable
 70
     1
  0
VPORT
  5
1033
330
8
100
AcDbSymbolTableRecord
100
AcDbViewportTableRecord
  2
*ACTIVE
 70
     0
 10
0.0
 20
0.0
 11
1.0
 21
1.0
 12
256.9459181196461
 22
129.1580433416419
 13
0.0
 23
0.0
 14
10.0
 24
10.0
 15
10.0
 25
10.0
 16
0.0
 26
0.0
 36
1.0
 17
0.0
 27
0.0
 37
0.0
 40
240.212445207047
 41
1.899603698811096
 42
50.0
 43
0.0
 44
0.0
 50
0.0
 51
0.0
 71
     0
 72
   100
 73
     1
 74
     0
 75
     0
 76
     0
 77
     0
 78
     0
281
     0
 65
     1
110
0.0
120
0.0
130
0.0
111
1.0
121
0.0
131
0.0
112
0.0
122
1.0
132
0.0
 79
     0
146
0.0
1001
ACAD_NAV_VCDISPLAY
1070
     3
  0
ENDTAB
  0
TABLE
  2
LTYPE
  5
5
330
0
100
AcDbSymbolTable
 70
     4
  0
LTYPE
  5
12
330
5
100
AcDbSymbolTableRecord
100
AcDbLinetypeTableRecord
  2
BYBLOCK
 70
     0
  3

 72
    65
 73
     0
 40
0.0
  0
LTYPE
  5
13
330
5
100
AcDbSymbolTableRecord
100
AcDbLinetypeTableRecord
  2
BYLAYER
 70
     0
  3

 72
    65
 73
     0
 40
0.0
  0
LTYPE
  5
14
330
5
100
AcDbSymbolTableRecord
100
AcDbLinetypeTableRecord
  2
CONTINUOUS
 70
     0
  3
Solid line
 72
    65
 73
     0
 40
0.0
  0
LTYPE
  5
4B
330
5
100
AcDbSymbolTableRecord
100
AcDbLinetypeTableRecord
  2
DASHED
 70
     0
  3
Dashed __ __ __ __ __ __ __ __ __ __ __ __ __ _
 72
    65
 73
     2
 40
19.04999999999999
 49
12.7
 74
     0
 49
-6.349999999999998
 74
     0
  0
LTYPE
  5
4C
330
5
100
AcDbSymbolTableRecord
100
AcDbLinetypeTableRecord
  2
CENTER
 70
     0
  3
Center ____ _ ____ _ ____ _ ____ _ ____ _ ____
 72
    65
 73
     4
 40
50.8
 49
31.75
 74
     0
 49
-6.349999999999998
 74
     0
 49
6.349999999999998
 74
     0
 49
-6.349999999999998
 74
     0
  0
LTYPE
  5
4D
330
5
100
AcDbSymbolTableRecord
100
AcDbLinetypeTableRecord
  2
PHANTOM
 70
     0
  3
Phantom ______  __  __  ______  __  __  ______
 72
    65
 73
     6
 40
63.5
 49
31.75
 74
     0
 49
-6.349999999999998
 74
     0
 49
6.349999999999998
 74
     0
 49
-6.349999999999998
 74
     0
 49
6.349999999999998
 74
     0
 49
-6.349999999999998
 74
     0
  0
ENDTAB
  0
TABLE
  2
LAYER
  5
2
330
0
100
AcDbSymbolTable
 70
     8
  0
LAYER
  5
E
102
{ACAD_XDICTIONARY
360
108D
102
}
330
2
100
AcDbSymbolTableRecord
100
AcDbLayerTableRecord
  2
0
 70
     0
 62
     7
  6
CONTINUOUS
370
    -3
390
103C
  0
LAYER
  5
4E
102
{ACAD_XDICTIONARY
360
108F
102
}
330
2
100
AcDbSymbolTableRecord
100
AcDbLayerTableRecord
  2
4
 70
     0
 62
     1
  6
CENTER
370
    -3
390
103C
  0
LAYER
  5
4F
102
{ACAD_XDICTIONARY
360
1091
102
}
330
2
100
AcDbSymbolTableRecord
100
AcDbLayerTableRecord
  2
5
 70
     0
 62
     6
  6
PHANTOM
370
    -3
390
103C
  0
LAYER
  5
50
102
{ACAD_XDICTIONARY
360
1093
102
}
330
2
100
AcDbSymbolTableRecord
100
AcDbLayerTableRecord
  2
1
 70
     0
 62
     7
  6
CONTINUOUS
370
    -3
390
103C
  0
LAYER
  5
51
102
{ACAD_XDICTIONARY
360
1095
102
}
330
2
100
AcDbSymbolTableRecord
100
AcDbLayerTableRecord
  2
2
 70
     0
 62
     4
  6
CONTINUOUS
370
    -3
390
103C
  0
LAYER
  5
52
102
{ACAD_XDICTIONARY
360
1097
102
}
330
2
100
AcDbSymbolTableRecord
100
AcDbLayerTableRecord
  2
3
 70
     0
 62
     2
  6
DASHED
370
    -3
390
103C
  0
LAYER
  5
53
102
{ACAD_XDICTIONARY
360
1099
102
}
330
2
100
AcDbSymbolTableRecord
100
AcDbLayerTableRecord
  2
6
 70
     0
 62
     5
  6
CONTINUOUS
370
    -3
390
103C
  0
LAYER
  5
54
102
{ACAD_XDICTIONARY
360
109B
102
}
330
2
100
AcDbSymbolTableRecord
100
AcDbLayerTableRecord
  2
7
 70
     0
 62
     3
  6
CONTINUOUS
370
    -3
390
103C
  0
ENDTAB
  0
TABLE
  2
STYLE
  5
3
330
0
100
AcDbSymbolTable
 70
     1
  0
STYLE
  5
F
330
3
100
AcDbSymbolTableRecord
100
AcDbTextStyleTableRecord
  2
STANDARD
 70
     0
 40
0.0
 41
1.0
 50
0.0
 71
     0
 42
2.5
  3
simplex.shx
  4

  0
ENDTAB
  0
TABLE
  2
VIEW
  5
6
330
0
100
AcDbSymbolTable
 70
     0
  0
ENDTAB
  0
TABLE
  2
UCS
  5
7
330
0
100
AcDbSymbolTable
 70
     0
  0
ENDTAB
  0
TABLE
  2
APPID
  5
9
330
0
100
AcDbSymbolTable
 70
     5
  0
APPID
  5
10
330
9
100
AcDbSymbolTableRecord
100
AcDbRegAppTableRecord
  2
ACAD
 70
     0
  0
APPID
  5
3E
330
9
100
AcDbSymbolTableRecord
100
AcDbRegAppTableRecord
  2
CONTENTTABDATA
 70
     0
  0
APPID
  5
3F
330
9
100
AcDbSymbolTableRecord
100
AcDbRegAppTableRecord
  2
CONTENTCURRENTTAB
 70
     0
  0
APPID
  5
10A7
330
9
100
AcDbSymbolTableRecord
100
AcDbRegAppTableRecord
  2
ACAD_NAV_VCDISPLAY
 70
     0
  0
APPID
  5
10E0
330
9
100
AcDbSymbolTableRecord
100
AcDbRegAppTableRecord
  2
ACAD_MLEADERVER
 70
     0
  0
ENDTAB
  0
TABLE
  2
DIMSTYLE
  5
A
330
0
100
AcDbSymbolTable
 70
     1
100
AcDbDimStyleTable
 71
     0
  0
DIMSTYLE
105
1D
330
A
100
AcDbSymbolTableRecord
100
AcDbDimStyleTableRecord
  2
STANDARD
 70
     0
 41
3.0
 42
1.0
 43
10.0
 44
1.0
 73
     0
 74
     0
 77
     3
 78
     8
140
3.2
141
0.0
147
1.0
172
     1
173
     1
340
F
341
2E
343
2E
344
2E
  0
ENDTAB
  0
TABLE
  2
BLOCK_RECORD
  5
1
330
0
100
AcDbSymbolTable
 70
     1
  0
BLOCK_RECORD
  5
18
102
{ACAD_XDICTIONARY
360
1036
102
}
330
1
100
AcDbSymbolTableRecord
100
AcDbBlockTableRecord
  2
*MODEL_SPACE
340
108A
  0
BLOCK_RECORD
  5
15
102
{ACAD_XDICTIONARY
360
1034
102
}
330
1
100
AcDbSymbolTableRecord
100
AcDbBlockTableRecord
  2
*PAPER_SPACE
340
108B
  0
BLOCK_RECORD
  5
2E
330
1
100
AcDbSymbolTableRecord
100
AcDbBlockTableRecord
  2
_OPEN
340
0
  0
ENDTAB
  0
ENDSEC
  0
SECTION
  2
BLOCKS
  0
BLOCK
  5
19
330
18
100
AcDbEntity
  8
0
100
AcDbBlockBegin
  2
*MODEL_SPACE
 70
     0
 10
0.0
 20
0.0
 30
0.0
  3
*MODEL_SPACE
  1

  0
ENDBLK
  5
1A
330
18
100
AcDbEntity
  8
0
100
AcDbBlockEnd
  0
BLOCK
  5
16
330
15
100
AcDbEntity
 67
     1
  8
0
100
AcDbBlockBegin
  2
*PAPER_SPACE
 70
     0
 10
0.0
 20
0.0
 30
0.0
  3
*PAPER_SPACE
  1

  0
ENDBLK
  5
17
330
15
100
AcDbEntity
 67
     1
  8
0
100
AcDbBlockEnd
  0
BLOCK
  5
2F
330
2E
100
AcDbEntity
  8
0
100
AcDbBlockBegin
  2
_OPEN
 70
     0
 10
0.0
 20
0.0
 30
0.0
  3
_OPEN
  1

  0
LINE
  5
30
330
2E
100
AcDbEntity
  8
0
  6
ByBlock
 62
     0
100
AcDbLine
 10
-1.0
 20
0.1666666666666666
 30
0.0
 11
0.0
 21
0.0
 31
0.0
  0
LINE
  5
31
330
2E
100
AcDbEntity
  8
0
  6
ByBlock
 62
     0
100
AcDbLine
 10
0.0
 20
0.0
 30
0.0
 11
-1.0
 21
-0.1666666666666666
 31
0.0
  0
LINE
  5
32
330
2E
100
AcDbEntity
  8
0
  6
ByBlock
 62
     0
100
AcDbLine
 10
0.0
 20
0.0
 30
0.0
 11
-1.0
 21
0.0
 31
0.0
  0
ENDBLK
  5
33
330
2E
100
AcDbEntity
  8
0
100
AcDbBlockEnd
  0
ENDSEC
  0
SECTION
  2
ENTITIES
  0
LINE
  5
265
330
18
100
AcDbEntity
  8
4
  6
CENTER
100
AcDbLine
 10
135.475185537608
 20
143.4886928068466
 30
0.0
 11
135.475185537608
 21
136.2886928068466
 31
0.0
  0
LINE
  5
266
330
18
100
AcDbEntity
  8
1
  6
Continuous
100
AcDbLine
 10
38.69568553760803
 20
151.3476928068466
 30
0.0
 11
38.69568553760803
 21
110.7246928068465
 31
0.0
  0
LINE
  5
267
330
18
100
AcDbEntity
  8
1
  6
Continuous
100
AcDbLine
 10
20.19568553760803
 20
151.3476928068466
 30
0.0
 11
20.19568553760803
 21
110.7246928068465
 31
0.0
  0
LINE
  5
268
330
18
100
AcDbEntity
  8
4
  6
CENTER
100
AcDbLine
 10
29.44568553760802
 20
169.3586928068466
 30
0.0
 11
29.44568553760802
 21
99.43469280684679
 31
0.0
  0
LINE
  5
269
330
18
100
AcDbEntity
  8
1
  6
Continuous
100
AcDbLine
 10
138.9281855376078
 20
114.0746928068466
 30
0.0
 11
138.5451855376078
 21
147.3936928068465
 31
0.0
  0
LINE
  5
26A
330
18
100
AcDbEntity
  8
1
  6
Continuous
100
AcDbLine
 10
129.5241855376078
 20
144.3416928068465
 30
0.0
 11
135.4441855376079
 21
113.6576928068466
 31
0.0
  0
LINE
  5
26B
330
18
100
AcDbEntity
  8
1
  6
Continuous
100
AcDbLine
 10
139.6451855376079
 20
150.6476928068467
 30
0.0
 11
139.6451855376079
 21
107.1476928068466
 31
0.0
  0
LINE
  5
26C
330
18
100
AcDbEntity
  8
4
  6
CENTER
100
AcDbLine
 10
29.44568553760802
 20
55.75999280684675
 30
0.0
 11
29.44568553760802
 21
35.63849280684673
 31
0.0
  0
LINE
  5
26D
330
18
100
AcDbEntity
  8
4
  6
CENTER
100
AcDbLine
 10
9.945685537608026
 20
44.80799280684673
 30
0.0
 11
48.94568553760803
 21
44.80799280684673
 31
0.0
  0
TEXT
  5
26E
330
18
100
AcDbEntity
  8
1
  6
Continuous
100
AcDbText
 10
10.000001537608
 20
9.999999806846743
 30
0.0
 40
1.399999999999999
  1
LAYER
100
AcDbText
  0
TEXT
  5
26F
330
18
100
AcDbEntity
  8
7
  6
Continuous
100
AcDbText
 10
10.000001537608
 20
25.99999980684674
 30
0.0
 40
3.0
  1
CODE No.1008
100
AcDbText
  0
TEXT
  5
270
330
18
100
AcDbEntity
  8
7
  6
Continuous
100
AcDbText
 10
10.000001537608
 20
17.99999980684674
 30
0.0
 40
3.0
  1
TYPE No.TL-3-2
100
AcDbText
  0
ARC
  5
271
330
18
100
AcDbEntity
  8
1
  6
Continuous
100
AcDbCircle
 10
42.44568553760802
 20
44.80799280684673
 30
0.0
 40
1.5
100
AcDbArc
 50
282.9282339999969
 51
90.0
  0
LINE
  5
272
330
18
100
AcDbEntity
  8
4
  6
CENTER
100
AcDbLine
 10
14.19568553760802
 20
45.73799280684673
 30
0.0
 11
44.69568553760804
 21
45.73799280684673
 31
0.0
  0
LINE
  5
273
330
18
100
AcDbEntity
  8
4
  6
CENTER
100
AcDbLine
 10
14.19568553760802
 20
44.03799280684674
 30
0.0
 11
44.69568553760804
 21
44.03799280684674
 31
0.0
  0
TEXT
  5
274
330
18
100
AcDbEntity
  8
2
  6
Continuous
100
AcDbText
 10
19.979512537608
 20
10.04873680684672
 30
0.0
 40
1.399999999999999
  1
2
100
AcDbText
  0
TEXT
  5
275
330
18
100
AcDbEntity
  8
1
  6
Continuous
100
AcDbText
 10
17.979512537608
 20
10.04873680684672
 30
0.0
 40
1.399999999999999
  1
1
100
AcDbText
  0
TEXT
  5
276
330
18
100
AcDbEntity
  8
3
  6
DASHED
100
AcDbText
 10
21.979512537608
 20
10.04873680684672
 30
0.0
 40
1.399999999999999
  1
3
100
AcDbText
  0
TEXT
  5
277
330
18
100
AcDbEntity
  8
5
  6
PHANTOM
100
AcDbText
 10
25.979512537608
 20
10.04873680684672
 30
0.0
 40
1.399999999999999
  1
5
100
AcDbText
  0
TEXT
  5
278
330
18
100
AcDbEntity
  8
4
  6
CENTER
100
AcDbText
 10
23.979512537608
 20
10.04873680684672
 30
0.0
 40
1.399999999999999
  1
4
100
AcDbText
  0
TEXT
  5
279
330
18
100
AcDbEntity
  8
6
  6
Continuous
100
AcDbText
 10
27.979512537608
 20
10.04873680684672
 30
0.0
 40
1.399999999999999
  1
6
100
AcDbText
  0
TEXT
  5
27A
330
18
100
AcDbEntity
  8
7
  6
Continuous
100
AcDbText
 10
29.979512537608
 20
10.04873680684672
 30
0.0
 40
1.399999999999999
  1
7
100
AcDbText
  0
LINE
  5
27B
330
18
100
AcDbEntity
  8
1
  6
Continuous
100
AcDbLine
 10
22.44568553760803
 20
42.13799280684674
 30
0.0
 11
36.44568553760804
 21
42.13799280684674
 31
0.0
  0
LINE
  5
27C
330
18
100
AcDbEntity
  8
1
  6
Continuous
100
AcDbLine
 10
28.46190289923004
 20
42.53799280684673
 30
0.0
 11
28.69568553760803
 21
42.53799280684673
 31
0.0
  0
LINE
  5
27D
330
18
100
AcDbEntity
  8
1
  6
Continuous
100
AcDbLine
 10
22.44568553760803
 20
40.63799280684674
 30
0.0
 11
36.44568553760804
 21
40.63799280684674
 31
0.0
  0
ARC
  5
27E
330
18
100
AcDbEntity
  8
1
  6
Continuous
100
AcDbCircle
 10
29.44568553760802
 20
32.89019280684673
 30
0.0
 40
13.5657
100
AcDbArc
 50
52.54419999999911
 51
127.4560000000013
  0
ARC
  5
27F
330
18
100
AcDbEntity
  8
1
  6
Continuous
100
AcDbCircle
 10
29.44568553760802
 20
33.54909280684674
 30
0.0
 40
13.703
100
AcDbArc
 50
47.54310000000095
 51
132.4569999999978
  0
ARC
  5
280
330
18
100
AcDbEntity
  8
1
  6
Continuous
100
AcDbCircle
 10
28.25388553760797
 20
43.43849280684675
 30
0.0
 40
0.45
100
AcDbArc
 50
192.0
 51
12.00000000000017
  0
ARC
  5
281
330
18
100
AcDbEntity
  8
1
  6
Continuous
100
AcDbCircle
 10
27.33378553760803
 20
43.43849280684675
 30
0.0
 40
0.45
100
AcDbArc
 50
192.0
 51
12.00000000000017
  0
LINE
  5
282
330
18
100
AcDbEntity
  8
1
  6
Continuous
100
AcDbLine
 10
21.19568553760803
 20
50.75999280684674
 30
0.0
 11
37.69568553760804
 21
50.75999280684674
 31
0.0
  0
LINE
  5
283
330
18
100
AcDbEntity
  8
1
  6
Continuous
100
AcDbLine
 10
37.69568553760804
 20
43.65899280684675
 30
0.0
 11
21.19568553760803
 21
43.65899280684675
 31
0.0
  0
ARC
  5
284
330
18
100
AcDbEntity
  8
1
  6
Continuous
100
AcDbCircle
 10
22.74568553760798
 20
42.13799280684674
 30
0.0
 40
1.5
100
AcDbArc
 50
180.0
 51
258.4630409999969
  0
LINE
  5
285
330
18
100
AcDbEntity
  8
1
  6
Continuous
100
AcDbLine
 10
16.44568553760803
 20
43.30799280684671
 30
0.0
 11
20.19568553760803
 21
43.30799280684671
 31
0.0
  0
LINE
  5
286
330
18
100
AcDbEntity
  8
1
  6
Continuous
100
AcDbLine
 10
19.39568553760796
 20
47.48799280684672
 30
0.0
 11
20.19568553760803
 21
47.48799280684672
 31
0.0
  0
LINE
  5
287
330
18
100
AcDbEntity
  8
1
  6
Continuous
100
AcDbLine
 10
19.80008553760796
 20
42.53799280684673
 30
0.0
 11
20.19568553760803
 21
42.53799280684673
 31
0.0
  0
LINE
  5
288
330
18
100
AcDbEntity
  8
1
  6
Continuous
100
AcDbLine
 10
16.44568553760803
 20
46.30799280684671
 30
0.0
 11
20.19568553760803
 21
46.30799280684671
 31
0.0
  0
ARC
  5
289
330
18
100
AcDbEntity
  8
1
  6
Continuous
100
AcDbCircle
 10
21.19568553760803
 20
49.75999280684675
 30
0.0
 40
1.0
100
AcDbArc
 50
90.0
 51
180.0
  0
ARC
  5
28A
330
18
100
AcDbEntity
  8
1
  6
Continuous
100
AcDbCircle
 10
16.44568553760803
 20
44.80799280684673
 30
0.0
 40
1.5
100
AcDbArc
 50
90.0
 51
257.071766000003
  0
LINE
  5
28B
330
18
100
AcDbEntity
  8
1
  6
Continuous
100
AcDbLine
 10
19.46448953760796
 20
42.57601680684675
 30
0.0
 11
16.11008953760801
 21
43.34601680684673
 31
0.0
  0
ARC
  5
28C
330
18
100
AcDbEntity
  8
1
  6
Continuous
100
AcDbCircle
 10
19.80008553760796
 20
44.03799280684674
 30
0.0
 40
1.5
100
AcDbArc
 50
257.071766000003
 51
270.0
  0
LINE
  5
28D
330
18
100
AcDbEntity
  8
1
  6
Continuous
100
AcDbLine
 10
19.39568553760796
 20
47.48799280684672
 30
0.0
 11
19.39568553760796
 21
46.30799280684671
 31
0.0
  0
LINE
  5
28E
330
18
100
AcDbEntity
  8
1
  6
Continuous
100
AcDbLine
 10
20.19568553760803
 20
49.75999280684675
 30
0.0
 11
20.19568553760803
 21
41.73869280684672
 31
0.0
  0
LINE
  5
28F
330
18
100
AcDbEntity
  8
1
  6
Continuous
100
AcDbLine
 10
22.69568553760803
 20
43.30859280684673
 30
0.0
 11
24.94568553760803
 21
43.30859280684673
 31
0.0
  0
LINE
  5
290
330
18
100
AcDbEntity
  8
1
  6
Continuous
100
AcDbLine
 10
22.44568553760803
 20
42.13799280684674
 30
0.0
 11
22.44568553760803
 21
40.63799280684674
 31
0.0
  0
LINE
  5
291
330
18
100
AcDbEntity
  8
1
  6
Continuous
100
AcDbLine
 10
22.69568553760803
 20
42.53799280684673
 30
0.0
 11
23.30745406025318
 21
42.53799280684673
 31
0.0
  0
LINE
  5
292
330
18
100
AcDbEntity
  8
1
  6
Continuous
100
AcDbLine
 10
21.24568553760798
 20
42.13849280684672
 30
0.0
 11
21.19568553760803
 21
42.13849280684672
 31
0.0
  0
LINE
  5
293
330
18
100
AcDbEntity
  8
1
  6
Continuous
100
AcDbLine
 10
21.19568553760803
 20
42.15449280684675
 30
0.0
 11
21.24568553760798
 21
42.15449280684675
 31
0.0
  0
LINE
  5
294
330
18
100
AcDbEntity
  8
1
  6
Continuous
100
AcDbLine
 10
21.19568553760803
 20
43.30859280684673
 30
0.0
 11
21.24568553760798
 21
43.30859280684673
 31
0.0
  0
LINE
  5
295
330
18
100
AcDbEntity
  8
1
  6
Continuous
100
AcDbLine
 10
23.15578553760804
 20
43.30859280684671
 30
0.0
 11
23.15578553760804
 21
43.03799280684663
 31
0.0
  0
LINE
  5
296
330
18
100
AcDbEntity
  8
1
  6
Continuous
100
AcDbLine
 10
21.24568553760798
 20
43.65899280684675
 30
0.0
 11
21.24568553760798
 21
42.13799280684674
 31
0.0
  0
LINE
  5
297
330
18
100
AcDbEntity
  8
1
  6
Continuous
100
AcDbLine
 10
22.69568553760803
 20
43.65899280684675
 30
0.0
 11
22.69568553760803
 21
42.13799280684674
 31
0.0
  0
LINE
  5
298
330
18
100
AcDbEntity
  8
1
  6
Continuous
100
AcDbLine
 10
21.19568553760803
 20
43.65899280684675
 30
0.0
 11
21.19568553760803
 21
41.73869280684672
 31
0.0
  0
LINE
  5
299
330
18
100
AcDbEntity
  8
1
  6
Continuous
100
AcDbLine
 10
20.19568553760803
 20
41.73869280684672
 30
0.0
 11
21.19568553760803
 21
41.73869280684672
 31
0.0
  0
ARC
  5
29A
330
18
100
AcDbEntity
  8
1
  6
Continuous
100
AcDbCircle
 10
26.41368553760798
 20
43.43849280684675
 30
0.0
 40
0.45
100
AcDbArc
 50
192.0
 51
12.00000000000017
  0
ARC
  5
29B
330
18
100
AcDbEntity
  8
1
  6
Continuous
100
AcDbCircle
 10
25.49358553760805
 20
43.43849280684675
 30
0.0
 40
0.45
100
AcDbArc
 50
192.0
 51
12.00000000000017
  0
ARC
  5
29C
330
18
100
AcDbEntity
  8
1
  6
Continuous
100
AcDbCircle
 10
24.573485537608
 20
43.43849280684675
 30
0.0
 40
0.45
100
AcDbArc
 50
196.7739999999994
 51
12.00000000000017
  0
LINE
  5
29D
330
18
100
AcDbEntity
  8
1
  6
Continuous
100
AcDbLine
 10
24.94568553760803
 20
43.65899280684675
 30
0.0
 11
24.94568553760803
 21
43.30859280684673
 31
0.0
  0
LINE
  5
29E
330
18
100
AcDbEntity
  8
1
  6
Continuous
100
AcDbLine
 10
27.74698553760799
 20
43.65899280684675
 30
0.0
 11
27.81378553760794
 21
43.34489280684674
 31
0.0
  0
LINE
  5
29F
330
18
100
AcDbEntity
  8
1
  6
Continuous
100
AcDbLine
 10
26.82688553760795
 20
43.65899280684675
 30
0.0
 11
26.893685537608
 21
43.34489280684674
 31
0.0
  0
LINE
  5
2A0
330
18
100
AcDbEntity
  8
1
  6
Continuous
100
AcDbLine
 10
25.90678553760801
 20
43.65899280684675
 30
0.0
 11
25.97348553760798
 21
43.34489280684674
 31
0.0
  0
LINE
  5
2A1
330
18
100
AcDbEntity
  8
1
  6
Continuous
100
AcDbLine
 10
24.98668553760797
 20
43.65899280684675
 30
0.0
 11
25.05338553760805
 21
43.34489280684674
 31
0.0
  0
ARC
  5
2A3
330
18
100
AcDbEntity
  8
1
  6
Continuous
100
AcDbCircle
 10
36.14568553760796
 20
42.13799280684674
 30
0.0
 40
1.5
100
AcDbArc
 50
281.5369590000029
 51
0.0
  0
LINE
  5
2A4
330
18
100
AcDbEntity
  8
1
  6
Continuous
100
AcDbLine
 10
30.19568553760803
 20
42.53799280684673
 30
0.0
 11
36.19568553760803
 21
42.53799280684673
 31
0.0
  0
ARC
  5
2A5
330
18
100
AcDbEntity
  8
1
  6
Continuous
100
AcDbCircle
 10
35.61478553760797
 20
43.43849280684675
 30
0.0
 40
0.45
100
AcDbArc
 50
196.7739999999994
 51
12.00000000000017
  0
ARC
  5
2A6
330
18
100
AcDbEntity
  8
1
  6
Continuous
100
AcDbCircle
 10
31.93438553760802
 20
43.43849280684675
 30
0.0
 40
0.45
100
AcDbArc
 50
192.0
 51
12.00000000000017
  0
ARC
  5
2A7
330
18
100
AcDbEntity
  8
1
  6
Continuous
100
AcDbCircle
 10
31.01428553760797
 20
43.43849280684675
 30
0.0
 40
0.45
100
AcDbArc
 50
192.0
 51
12.00000000000017
  0
ARC
  5
2A8
330
18
100
AcDbEntity
  8
1
  6
Continuous
100
AcDbCircle
 10
30.09408553760795
 20
43.43849280684675
 30
0.0
 40
0.45
100
AcDbArc
 50
192.0
 51
12.00000000000017
  0
ARC
  5
2A9
330
18
100
AcDbEntity
  8
1
  6
Continuous
100
AcDbCircle
 10
29.17398553760802
 20
43.43849280684675
 30
0.0
 40
0.45
100
AcDbArc
 50
192.0
 51
12.00000000000017
  0
LINE
  5
2AA
330
18
100
AcDbEntity
  8
1
  6
Continuous
100
AcDbLine
 10
30.19568553760803
 20
43.00009280684674
 30
0.0
 11
30.19568553760803
 21
42.13849280684672
 31
0.0
  0
LINE
  5
2AB
330
18
100
AcDbEntity
  8
1
  6
Continuous
100
AcDbLine
 10
28.69568553760803
 20
43.35299280684671
 30
0.0
 11
28.69568553760803
 21
42.13849280684672
 31
0.0
  0
LINE
  5
2AC
330
18
100
AcDbEntity
  8
1
  6
Continuous
100
AcDbLine
 10
31.42738553760796
 20
43.65899280684675
 30
0.0
 11
31.49418553760801
 21
43.34489280684674
 31
0.0
  0
LINE
  5
2AD
330
18
100
AcDbEntity
  8
1
  6
Continuous
100
AcDbLine
 10
30.50728553760802
 20
43.65899280684675
 30
0.0
 11
30.57408553760797
 21
43.34489280684674
 31
0.0
  0
LINE
  5
2AE
330
18
100
AcDbEntity
  8
1
  6
Continuous
100
AcDbLine
 10
29.58718553760798
 20
43.65899280684675
 30
0.0
 11
29.65398553760803
 21
43.34489280684674
 31
0.0
  0
LINE
  5
2AF
330
18
100
AcDbEntity
  8
1
  6
Continuous
100
AcDbLine
 10
28.66708553760804
 20
43.65899280684675
 30
0.0
 11
28.73388553760799
 21
43.34489280684674
 31
0.0
  0
ARC
  5
2B0
330
18
100
AcDbEntity
  8
1
  6
Continuous
100
AcDbCircle
 10
34.69468553760805
 20
43.43849280684675
 30
0.0
 40
0.45
100
AcDbArc
 50
196.7739999999994
 51
343.2260000000004
  0
ARC
  5
2B1
330
18
100
AcDbEntity
  8
1
  6
Continuous
100
AcDbCircle
 10
33.774585537608
 20
43.43849280684675
 30
0.0
 40
0.45
100
AcDbArc
 50
192.0
 51
343.2260000000004
  0
ARC
  5
2B2
330
18
100
AcDbEntity
  8
1
  6
Continuous
100
AcDbCircle
 10
32.85448553760796
 20
43.43849280684675
 30
0.0
 40
0.45
100
AcDbArc
 50
192.0
 51
12.00000000000017
  0
LINE
  5
2B3
330
18
100
AcDbEntity
  8
1
  6
Continuous
100
AcDbLine
 10
35.44568553760802
 20
43.65899280684675
 30
0.0
 11
35.44568553760802
 21
43.30859280684673
 31
0.0
  0
LINE
  5
2B4
330
18
100
AcDbEntity
  8
1
  6
Continuous
100
AcDbLine
 10
35.44568553760802
 20
43.30859280684673
 30
0.0
 11
33.94568553760804
 21
43.30859280684673
 31
0.0
  0
LINE
  5
2B5
330
18
100
AcDbEntity
  8
1
  6
Continuous
100
AcDbLine
 10
33.94568553760804
 20
43.65899280684675
 30
0.0
 11
33.94568553760804
 21
43.30859280684673
 31
0.0
  0
LINE
  5
2B6
330
18
100
AcDbEntity
  8
1
  6
Continuous
100
AcDbLine
 10
33.26758553760794
 20
43.65899280684675
 30
0.0
 11
33.334385537608
 21
43.34489280684674
 31
0.0
  0
LINE
  5
2B7
330
18
100
AcDbEntity
  8
1
  6
Continuous
100
AcDbLine
 10
32.347485537608
 20
43.65899280684675
 30
0.0
 11
32.41428553760795
 21
43.34489280684674
 31
0.0
  0
LINE
  5
2B8
330
18
100
AcDbEntity
  8
1
  6
Continuous
100
AcDbLine
 10
38.69568553760803
 20
49.75999280684675
 30
0.0
 11
38.69568553760803
 21
41.73869280684672
 31
0.0
  0
LINE
  5
2B9
330
18
100
AcDbEntity
  8
1
  6
Continuous
100
AcDbLine
 10
42.44568553760802
 20
43.30799280684671
 30
0.0
 11
38.69568553760803
 21
43.30799280684671
 31
0.0
  0
LINE
  5
2BA
330
18
100
AcDbEntity
  8
1
  6
Continuous
100
AcDbLine
 10
39.42688153760798
 20
42.57601680684675
 30
0.0
 11
42.78128153760792
 21
43.34601680684673
 31
0.0
  0
LINE
  5
2BB
330
18
100
AcDbEntity
  8
1
  6
Continuous
100
AcDbLine
 10
36.44568553760804
 20
42.13799280684674
 30
0.0
 11
36.44568553760804
 21
40.63799280684674
 31
0.0
  0
LINE
  5
2BC
330
18
100
AcDbEntity
  8
1
  6
Continuous
100
AcDbLine
 10
38.69568553760803
 20
42.53799280684673
 30
0.0
 11
39.09128553760798
 21
42.53799280684673
 31
0.0
  0
ARC
  5
2BD
330
18
100
AcDbEntity
  8
1
  6
Continuous
100
AcDbCircle
 10
39.09128553760798
 20
44.03799280684674
 30
0.0
 40
1.5
100
AcDbArc
 50
270.0
 51
282.9282339999969
  0
LINE
  5
2BE
330
18
100
AcDbEntity
  8
1
  6
Continuous
100
AcDbLine
 10
37.69568553760804
 20
42.13849280684672
 30
0.0
 11
37.64568553760796
 21
42.13849280684672
 31
0.0
  0
LINE
  5
2BF
330
18
100
AcDbEntity
  8
1
  6
Continuous
100
AcDbLine
 10
36.02798553760794
 20
43.65899280684675
 30
0.0
 11
36.05488553760801
 21
43.53209280684671
 31
0.0
  0
LINE
  5
2C0
330
18
100
AcDbEntity
  8
1
  6
Continuous
100
AcDbLine
 10
37.64568553760796
 20
42.15449280684675
 30
0.0
 11
37.69568553760804
 21
42.15449280684675
 31
0.0
  0
LINE
  5
2C1
330
18
100
AcDbEntity
  8
1
  6
Continuous
100
AcDbLine
 10
37.64568553760796
 20
43.30859280684673
 30
0.0
 11
37.69568553760804
 21
43.30859280684673
 31
0.0
  0
LINE
  5
2C2
330
18
100
AcDbEntity
  8
1
  6
Continuous
100
AcDbLine
 10
37.64568553760796
 20
43.65899280684675
 30
0.0
 11
37.64568553760796
 21
42.13799280684674
 31
0.0
  0
LINE
  5
2C3
330
18
100
AcDbEntity
  8
1
  6
Continuous
100
AcDbLine
 10
36.19568553760803
 20
43.65899280684675
 30
0.0
 11
36.19568553760803
 21
42.13799280684674
 31
0.0
  0
LINE
  5
2C4
330
18
100
AcDbEntity
  8
1
  6
Continuous
100
AcDbLine
 10
37.69568553760804
 20
43.65899280684675
 30
0.0
 11
37.69568553760804
 21
41.73869280684672
 31
0.0
  0
LINE
  5
2C5
330
18
100
AcDbEntity
  8
1
  6
Continuous
100
AcDbLine
 10
37.69568553760804
 20
41.73869280684672
 30
0.0
 11
38.69568553760803
 21
41.73869280684672
 31
0.0
  0
LINE
  5
2C6
330
18
100
AcDbEntity
  8
1
  6
Continuous
100
AcDbLine
 10
38.69568553760803
 20
47.48799280684672
 30
0.0
 11
39.49568553760798
 21
47.48799280684672
 31
0.0
  0
LINE
  5
2C7
330
18
100
AcDbEntity
  8
1
  6
Continuous
100
AcDbLine
 10
42.44568553760802
 20
46.30799280684671
 30
0.0
 11
38.69568553760803
 21
46.30799280684671
 31
0.0
  0
ARC
  5
2C8
330
18
100
AcDbEntity
  8
1
  6
Continuous
100
AcDbCircle
 10
37.69568553760804
 20
49.75999280684675
 30
0.0
 40
1.0
100
AcDbArc
 50
0.000003
 51
90.0
  0
LINE
  5
2C9
330
18
100
AcDbEntity
  8
1
  6
Continuous
100
AcDbLine
 10
39.49568553760798
 20
47.48799280684672
 30
0.0
 11
39.49568553760798
 21
46.30799280684671
 31
0.0
  0
ARC
  5
2CA
330
18
100
AcDbEntity
  8
1
  6
Continuous
100
AcDbCircle
 10
29.44568553760802
 20
115.4166928068466
 30
0.0
 40
10.3717
100
AcDbArc
 50
206.8929999999999
 51
333.1069999999998
  0
ARC
  5
2CB
330
18
100
AcDbEntity
  8
1
  6
Continuous
100
AcDbCircle
 10
29.44568553760802
 20
114.3806928068465
 30
0.0
 40
9.94618
100
AcDbArc
 50
201.5640000000009
 51
338.435999999999
  0
LINE
  5
2CC
330
18
100
AcDbEntity
  8
4
  6
CENTER
100
AcDbLine
 10
25.845685537608
 20
111.6476928068466
 30
0.0
 11
33.04568553760805
 21
111.6476928068466
 31
0.0
  0
ARC
  5
2CD
330
18
100
AcDbEntity
  8
1
  6
Continuous
100
AcDbCircle
 10
125.6251855376079
 20
111.7626928068466
 30
0.0
 40
11.0
100
AcDbArc
 50
318.2220000000003
 51
356.156
  0
ARC
  5
2CE
330
18
100
AcDbEntity
  8
1
  6
Continuous
100
AcDbCircle
 10
125.6251855376079
 20
111.7626928068466
 30
0.0
 40
10.0
100
AcDbArc
 50
317.7900000000007
 51
10.91999999999947
  0
ARC
  5
2CF
330
18
100
AcDbEntity
  8
1
  6
Continuous
100
AcDbCircle
 10
134.974185537608
 20
114.6796928068467
 30
0.0
 40
4.0
100
AcDbArc
 50
278.5840000000014
 51
351.2999999999999
  0
LINE
  5
2D0
330
18
100
AcDbEntity
  8
4
  6
CENTER
100
AcDbLine
 10
135.1451855376077
 20
111.6476928068466
 30
0.0
 11
142.6451855376079
 21
111.6476928068466
 31
0.0
  0
LINE
  5
2D1
330
18
100
AcDbEntity
  8
1
  6
Continuous
100
AcDbLine
 10
133.032185537608
 20
105.0446928068466
 30
0.0
 11
133.8281855376079
 21
104.4346928068467
 31
0.0
  0
LINE
  5
2D2
330
18
100
AcDbEntity
  8
1
  6
Continuous
100
AcDbLine
 10
138.1451855376077
 20
112.2426928068466
 30
0.0
 11
138.1451855376077
 21
107.1476928068466
 31
0.0
  0
LINE
  5
2D3
330
18
100
AcDbEntity
  8
1
  6
Continuous
100
AcDbLine
 10
138.1451855376077
 20
107.1476928068466
 30
0.0
 11
139.6451855376079
 21
107.1476928068466
 31
0.0
  0
CIRCLE
  5
2D4
330
18
100
AcDbEntity
  8
1
  6
Continuous
100
AcDbCircle
 10
73.94618553760802
 20
171.6476928068467
 30
0.0
 40
3.25
  0
CIRCLE
  5
2D5
330
18
100
AcDbEntity
  8
1
  6
Continuous
100
AcDbCircle
 10
73.94618553760802
 20
171.6476928068467
 30
0.0
 40
1.8
  0
ARC
  5
2D6
330
18
100
AcDbEntity
  8
1
  6
Continuous
100
AcDbCircle
 10
79.44618553760801
 20
160.6476928068467
 30
0.0
 40
17.0
100
AcDbArc
 50
42.10339999999928
 51
137.8970000000011
  0
LINE
  5
2D7
330
18
100
AcDbEntity
  8
4
  6
CENTER
100
AcDbLine
 10
69.946185537608
 20
239.9086928068466
 30
0.0
 11
88.94618553760802
 21
239.9086928068466
 31
0.0
  0
LINE
  5
2D8
330
18
100
AcDbEntity
  8
4
  6
CENTER
100
AcDbLine
 10
69.946185537608
 20
162.8886928067954
 30
0.0
 11
88.94618553760802
 21
162.8886928067954
 31
0.0
  0
LINE
  5
2D9
330
18
100
AcDbEntity
  8
1
  6
Continuous
100
AcDbLine
 10
73.44618553760802
 20
235.3086928068466
 30
0.0
 11
85.44618553760802
 21
235.3086928068466
 31
0.0
  0
LINE
  5
2DA
330
18
100
AcDbEntity
  8
1
  6
Continuous
100
AcDbLine
 10
73.44618553760802
 20
236.2775939730951
 30
0.0
 11
85.44618553760802
 21
236.2775939730951
 31
0.0
  0
LINE
  5
2DB
330
18
100
AcDbEntity
  8
1
  6
Continuous
100
AcDbLine
 10
66.44618553760802
 20
241.8086928068467
 30
0.0
 11
92.44618553760799
 21
241.8086928068467
 31
0.0
  0
LINE
  5
2DC
330
18
100
AcDbEntity
  8
1
  6
Continuous
100
AcDbLine
 10
66.44618553760802
 20
243.3086928068466
 30
0.0
 11
92.44618553760799
 21
243.3086928068466
 31
0.0
  0
LINE
  5
2DD
330
18
100
AcDbEntity
  8
4
  6
CENTER
100
AcDbLine
 10
68.696185537608
 20
171.6476928068467
 30
0.0
 11
90.19618553760802
 21
171.6476928068467
 31
0.0
  0
LINE
  5
2DE
330
18
100
AcDbEntity
  8
1
  6
Continuous
100
AcDbLine
 10
73.44618553760802
 20
162.5065341333765
 30
0.0
 11
85.44618553760802
 21
162.5065341333765
 31
0.0
  0
LINE
  5
2DF
330
18
100
AcDbEntity
  8
1
  6
Continuous
100
AcDbLine
 10
73.44618553760802
 20
163.6476928068467
 30
0.0
 11
85.44618553760802
 21
163.6476928068467
 31
0.0
  0
LINE
  5
2E0
330
18
100
AcDbEntity
  8
1
  6
Continuous
100
AcDbLine
 10
71.94618553760801
 20
159.6476928068465
 30
0.0
 11
86.94618553760802
 21
159.6476928068465
 31
0.0
  0
LINE
  5
2E1
330
18
100
AcDbEntity
  8
4
  6
CENTER
100
AcDbLine
 10
10.29988553760802
 20
139.8886928068466
 30
0.0
 11
48.591585537608
 21
139.8886928068466
 31
0.0
  0
LINE
  5
2E4
330
18
100
AcDbEntity
  8
4
  6
CENTER
100
AcDbLine
 10
13.67568553760804
 20
162.8886928067954
 30
0.0
 11
45.21668553760799
 21
162.8886928067954
 31
0.0
  0
LINE
  5
2E5
330
18
100
AcDbEntity
  8
4
  6
CENTER
100
AcDbLine
 10
14.19568553760802
 20
147.3476928068466
 30
0.0
 11
44.69568553760804
 21
147.3476928068466
 31
0.0
  0
ARC
  5
2E9
330
18
100
AcDbEntity
  8
1
  6
Continuous
100
AcDbCircle
 10
28.21508553760804
 20
145.0476928068465
 30
0.0
 40
0.45
100
AcDbArc
 50
167.4999999999997
 51
347.4999999999997
  0
LINE
  5
2EA
330
18
100
AcDbEntity
  8
1
  6
Continuous
100
AcDbLine
 10
21.19568553760803
 20
144.5306928068466
 30
0.0
 11
37.69568553760804
 21
144.5306928068466
 31
0.0
  0
LINE
  5
2EB
330
18
100
AcDbEntity
  8
1
  6
Continuous
100
AcDbLine
 10
20.19568553760803
 20
144.3416928068465
 30
0.0
 11
38.69568553760803
 21
144.3416928068465
 31
0.0
  0
LINE
  5
2EC
330
18
100
AcDbEntity
  8
1
  6
Continuous
100
AcDbLine
 10
27.732485537608
 20
144.9496928068467
 30
0.0
 11
28.79548553760798
 21
149.7446928068466
 31
0.0
  0
LINE
  5
2ED
330
18
100
AcDbEntity
  8
1
  6
Continuous
100
AcDbLine
 10
26.81068553760804
 20
144.9496928068467
 30
0.0
 11
27.87368553760802
 21
149.7446928068466
 31
0.0
  0
LINE
  5
2EE
330
18
100
AcDbEntity
  8
4
  6
CENTER
100
AcDbLine
 10
25.845685537608
 20
140.6476928068467
 30
0.0
 11
33.04568553760805
 21
140.6476928068467
 31
0.0
  0
LINE
  5
2EF
330
18
100
AcDbEntity
  8
1
  6
Continuous
100
AcDbLine
 10
37.64578553760804
 20
150.6476928068467
 30
0.0
 11
28.40489862219429
 21
150.6476928068467
 31
0.0
  0
LINE
  5
2F0
330
18
100
AcDbEntity
  8
1
  6
Continuous
100
AcDbLine
 10
25.88878553760798
 20
144.9496928068467
 30
0.0
 11
26.95178553760797
 21
149.7446928068466
 31
0.0
  0
LINE
  5
2F1
330
18
100
AcDbEntity
  8
1
  6
Continuous
100
AcDbLine
 10
24.96698553760802
 20
144.9496928068467
 30
0.0
 11
26.02998553760802
 21
149.7446928068466
 31
0.0
  0
LINE
  5
2F2
330
18
100
AcDbEntity
  8
1
  6
Continuous
100
AcDbLine
 10
24.04508553760797
 20
144.9496928068467
 30
0.0
 11
25.10808553760796
 21
149.7446928068466
 31
0.0
  0
LINE
  5
2F3
330
18
100
AcDbEntity
  8
1
  6
Continuous
100
AcDbLine
 10
23.16648553760797
 20
145.1446928068466
 30
0.0
 11
24.186285537608
 21
149.7446928068466
 31
0.0
  0
LINE
  5
2F4
330
18
100
AcDbEntity
  8
1
  6
Continuous
100
AcDbLine
 10
22.74568553760798
 20
150.6476928068467
 30
0.0
 11
22.74568553760798
 21
144.5306928068466
 31
0.0
  0
LINE
  5
2F5
330
18
100
AcDbEntity
  8
1
  6
Continuous
100
AcDbLine
 10
21.24568553760798
 20
150.6476928068467
 30
0.0
 11
21.24568553760798
 21
144.5306928068466
 31
0.0
  0
LINE
  5
2F6
330
18
100
AcDbEntity
  8
1
  6
Continuous
100
AcDbLine
 10
19.39568553760796
 20
149.0976928068466
 30
0.0
 11
19.39568553760796
 21
145.5976928068467
 31
0.0
  0
LINE
  5
2F7
330
18
100
AcDbEntity
  8
1
  6
Continuous
100
AcDbLine
 10
21.19568553760803
 20
151.3476928068466
 30
0.0
 11
21.19568553760803
 21
144.5306928068466
 31
0.0
  0
LINE
  5
2FA
330
18
100
AcDbEntity
  8
1
  6
Continuous
100
AcDbLine
 10
19.39568553760796
 20
145.5976928068467
 30
0.0
 11
20.19568553760803
 21
145.5976928068467
 31
0.0
  0
ARC
  5
2FD
330
18
100
AcDbEntity
  8
1
  6
Continuous
100
AcDbCircle
 10
23.60578553760797
 20
145.0476928068465
 30
0.0
 40
0.449999
100
AcDbArc
 50
167.4999999999997
 51
347.4999999999997
  0
LINE
  5
2FE
330
18
100
AcDbEntity
  8
1
  6
Continuous
100
AcDbLine
 10
20.19568553760803
 20
144.6256928068465
 30
0.0
 11
21.19568553760803
 21
144.6256928068465
 31
0.0
  0
LINE
  5
2FF
330
18
100
AcDbEntity
  8
1
  6
Continuous
100
AcDbLine
 10
23.15578553760804
 20
145.8476928068466
 30
0.0
 11
23.15578553760804
 21
145.0476928068465
 31
0.0
  0
LINE
  5
300
330
18
100
AcDbEntity
  8
1
  6
Continuous
100
AcDbLine
 10
22.74568553760798
 20
145.8476928068466
 30
0.0
 11
23.32218553760799
 21
145.8476928068466
 31
0.0
  0
ARC
  5
301
330
18
100
AcDbEntity
  8
1
  6
Continuous
100
AcDbCircle
 10
27.293185537608
 20
145.0476928068465
 30
0.0
 40
0.45
100
AcDbArc
 50
167.4999999999997
 51
347.4999999999997
  0
ARC
  5
302
330
18
100
AcDbEntity
  8
1
  6
Continuous
100
AcDbCircle
 10
26.37138553760803
 20
145.0476928068465
 30
0.0
 40
0.45
100
AcDbArc
 50
167.4999999999997
 51
347.4999999999997
  0
ARC
  5
303
330
18
100
AcDbEntity
  8
1
  6
Continuous
100
AcDbCircle
 10
25.44948553760798
 20
145.0476928068465
 30
0.0
 40
0.45
100
AcDbArc
 50
167.4999999999997
 51
347.4999999999997
  0
ARC
  5
304
330
18
100
AcDbEntity
  8
1
  6
Continuous
100
AcDbCircle
 10
24.52768553760802
 20
145.0476928068465
 30
0.0
 40
0.45
100
AcDbArc
 50
167.4999999999997
 51
347.4999999999997
  0
LINE
  5
305
330
18
100
AcDbEntity
  8
1
  6
Continuous
100
AcDbLine
 10
19.39568553760796
 20
149.0976928068466
 30
0.0
 11
20.19568553760803
 21
149.0976928068466
 31
0.0
  0
LINE
  5
308
330
18
100
AcDbEntity
  8
1
  6
Continuous
100
AcDbLine
 10
22.74568553760798
 20
148.8476928068467
 30
0.0
 11
23.98742453760801
 21
148.8476928068467
 31
0.0
  0
LINE
  5
30A
330
18
100
AcDbEntity
  8
1
  6
Continuous
100
AcDbLine
 10
23.15578553760804
 20
150.6476928068467
 30
0.0
 11
21.24568553760798
 21
150.6476928068467
 31
0.0
  0
LINE
  5
30B
330
18
100
AcDbEntity
  8
1
  6
Continuous
100
AcDbLine
 10
20.19568553760803
 20
151.3476928068466
 30
0.0
 11
21.19568553760803
 21
151.3476928068466
 31
0.0
  0
ARC
  5
30C
330
18
100
AcDbEntity
  8
1
  6
Continuous
100
AcDbCircle
 10
27.39118553760795
 20
149.6476928068467
 30
0.0
 40
0.45
100
AcDbArc
 50
347.4999999999997
 51
167.4999999999997
  0
ARC
  5
30D
330
18
100
AcDbEntity
  8
1
  6
Continuous
100
AcDbCircle
 10
26.46928553760802
 20
149.6476928068467
 30
0.0
 40
0.45
100
AcDbArc
 50
347.4999999999997
 51
167.4999999999997
  0
ARC
  5
30E
330
18
100
AcDbEntity
  8
1
  6
Continuous
100
AcDbCircle
 10
25.54748553760805
 20
149.6476928068467
 30
0.0
 40
0.45
100
AcDbArc
 50
347.4999999999997
 51
167.4999999999997
  0
ARC
  5
30F
330
18
100
AcDbEntity
  8
1
  6
Continuous
100
AcDbCircle
 10
24.625585537608
 20
149.6476928068467
 30
0.0
 40
0.45
100
AcDbArc
 50
347.4999999999997
 51
167.4999999999997
  0
LINE
  5
311
330
18
100
AcDbEntity
  8
1
  6
Continuous
100
AcDbLine
 10
35.10738553760802
 20
144.9496928068467
 30
0.0
 11
36.12718553760794
 21
149.5496928068466
 31
0.0
  0
LINE
  5
312
330
18
100
AcDbEntity
  8
1
  6
Continuous
100
AcDbLine
 10
34.18548553760797
 20
144.9496928068467
 30
0.0
 11
35.24848553760796
 21
149.7446928068466
 31
0.0
  0
LINE
  5
313
330
18
100
AcDbEntity
  8
1
  6
Continuous
100
AcDbLine
 10
33.26368553760801
 20
144.9496928068467
 30
0.0
 11
34.32658553760802
 21
149.7446928068466
 31
0.0
  0
LINE
  5
314
330
18
100
AcDbEntity
  8
1
  6
Continuous
100
AcDbLine
 10
32.34178553760796
 20
144.9496928068467
 30
0.0
 11
33.40478553760795
 21
149.7446928068466
 31
0.0
  0
LINE
  5
315
330
18
100
AcDbEntity
  8
1
  6
Continuous
100
AcDbLine
 10
31.41998553760799
 20
144.9496928068467
 30
0.0
 11
32.48288553760801
 21
149.7446928068466
 31
0.0
  0
LINE
  5
316
330
18
100
AcDbEntity
  8
1
  6
Continuous
100
AcDbLine
 10
30.49808553760795
 20
144.9496928068467
 30
0.0
 11
31.56108553760805
 21
149.7446928068466
 31
0.0
  0
LINE
  5
317
330
18
100
AcDbEntity
  8
1
  6
Continuous
100
AcDbLine
 10
29.57618553760801
 20
144.9496928068467
 30
0.0
 11
30.639185537608
 21
149.7446928068466
 31
0.0
  0
LINE
  5
318
330
18
100
AcDbEntity
  8
1
  6
Continuous
100
AcDbLine
 10
28.65438553760805
 20
144.9496928068467
 30
0.0
 11
29.71738553760804
 21
149.7446928068466
 31
0.0
  0
LINE
  5
319
330
18
100
AcDbEntity
  8
1
  6
Continuous
100
AcDbLine
 10
36.14578553760805
 20
150.6476928068467
 30
0.0
 11
36.14578553760805
 21
144.5306928068466
 31
0.0
  0
LINE
  5
31A
330
18
100
AcDbEntity
  8
1
  6
Continuous
100
AcDbLine
 10
37.64578553760804
 20
150.6476928068467
 30
0.0
 11
37.64578553760804
 21
144.5306928068466
 31
0.0
  0
LINE
  5
31B
330
18
100
AcDbEntity
  8
1
  6
Continuous
100
AcDbLine
 10
39.49568553760798
 20
149.0976928068466
 30
0.0
 11
39.49568553760798
 21
145.5976928068467
 31
0.0
  0
LINE
  5
31C
330
18
100
AcDbEntity
  8
1
  6
Continuous
100
AcDbLine
 10
37.69568553760804
 20
151.3476928068466
 30
0.0
 11
37.69568553760804
 21
144.5306928068466
 31
0.0
  0
LINE
  5
31D
330
18
100
AcDbEntity
  8
1
  6
Continuous
100
AcDbLine
 10
35.306285537608
 20
145.8476928068466
 30
0.0
 11
36.14578553760805
 21
145.8476928068466
 31
0.0
  0
ARC
  5
31E
330
18
100
AcDbEntity
  8
1
  6
Continuous
100
AcDbCircle
 10
31.90248553760795
 20
145.0476928068465
 30
0.0
 40
0.45
100
AcDbArc
 50
167.4999999999997
 51
347.4999999999997
  0
ARC
  5
31F
330
18
100
AcDbEntity
  8
1
  6
Continuous
100
AcDbCircle
 10
30.98058553760802
 20
145.0476928068465
 30
0.0
 40
0.45
100
AcDbArc
 50
167.4999999999997
 51
347.4999999999997
  0
ARC
  5
320
330
18
100
AcDbEntity
  8
1
  6
Continuous
100
AcDbCircle
 10
30.05878553760806
 20
145.0476928068465
 30
0.0
 40
0.45
100
AcDbArc
 50
167.4999999999997
 51
347.4999999999997
  0
ARC
  5
321
330
18
100
AcDbEntity
  8
1
  6
Continuous
100
AcDbCircle
 10
29.13688553760801
 20
145.0476928068465
 30
0.0
 40
0.45
100
AcDbArc
 50
167.4999999999997
 51
0.00001
  0
ARC
  5
322
330
18
100
AcDbEntity
  8
1
  6
Continuous
100
AcDbCircle
 10
34.66798553760805
 20
145.0476928068465
 30
0.0
 40
0.45
100
AcDbArc
 50
167.4999999999997
 51
347.4999999999997
  0
ARC
  5
323
330
18
100
AcDbEntity
  8
1
  6
Continuous
100
AcDbCircle
 10
33.74618553760797
 20
145.0476928068465
 30
0.0
 40
0.45
100
AcDbArc
 50
167.4999999999997
 51
347.4999999999997
  0
ARC
  5
324
330
18
100
AcDbEntity
  8
1
  6
Continuous
100
AcDbCircle
 10
32.82428553760804
 20
145.0476928068465
 30
0.0
 40
0.45
100
AcDbArc
 50
167.4999999999997
 51
347.4999999999997
  0
LINE
  5
328
330
18
100
AcDbEntity
  8
1
  6
Continuous
100
AcDbLine
 10
38.69568553760803
 20
145.5976928068467
 30
0.0
 11
39.49568553760798
 21
145.5976928068467
 31
0.0
  0
LINE
  5
329
330
18
100
AcDbEntity
  8
1
  6
Continuous
100
AcDbLine
 10
37.69568553760804
 20
144.6256928068465
 30
0.0
 11
38.69568553760803
 21
144.6256928068465
 31
0.0
  0
ARC
  5
32A
330
18
100
AcDbEntity
  8
1
  6
Continuous
100
AcDbCircle
 10
35.68778553760796
 20
149.6476928068467
 30
0.0
 40
0.45
100
AcDbArc
 50
347.4999999999997
 51
167.4999999999997
  0
ARC
  5
32B
330
18
100
AcDbEntity
  8
1
  6
Continuous
100
AcDbCircle
 10
32.00038553760794
 20
149.6476928068467
 30
0.0
 40
0.45
100
AcDbArc
 50
347.4999999999997
 51
167.4999999999997
  0
ARC
  5
32C
330
18
100
AcDbEntity
  8
1
  6
Continuous
100
AcDbCircle
 10
31.07858553760797
 20
149.6476928068467
 30
0.0
 40
0.45
100
AcDbArc
 50
347.4999999999997
 51
167.4999999999997
  0
ARC
  5
32D
330
18
100
AcDbEntity
  8
1
  6
Continuous
100
AcDbCircle
 10
30.15668553760804
 20
149.6476928068467
 30
0.0
 40
0.45
100
AcDbArc
 50
347.4999999999997
 51
167.4999999999997
  0
ARC
  5
32E
330
18
100
AcDbEntity
  8
1
  6
Continuous
100
AcDbCircle
 10
29.23488553760796
 20
149.6476928068467
 30
0.0
 40
0.45
100
AcDbArc
 50
347.4999999999997
 51
167.4999999999997
  0
ARC
  5
32F
330
18
100
AcDbEntity
  8
1
  6
Continuous
100
AcDbCircle
 10
28.31298553760802
 20
149.6476928068467
 30
0.0
 40
0.45
100
AcDbArc
 50
347.4999999999997
 51
167.4999999999997
  0
ARC
  5
330
330
18
100
AcDbEntity
  8
1
  6
Continuous
100
AcDbCircle
 10
34.765985537608
 20
149.6476928068467
 30
0.0
 40
0.45
100
AcDbArc
 50
347.4999999999997
 51
167.4999999999997
  0
ARC
  5
331
330
18
100
AcDbEntity
  8
1
  6
Continuous
100
AcDbCircle
 10
33.84408553760795
 20
149.6476928068467
 30
0.0
 40
0.45
100
AcDbArc
 50
347.4999999999997
 51
167.4999999999997
  0
ARC
  5
332
330
18
100
AcDbEntity
  8
1
  6
Continuous
100
AcDbCircle
 10
32.92228553760799
 20
149.6476928068467
 30
0.0
 40
0.45
100
AcDbArc
 50
347.4999999999997
 51
167.4999999999997
  0
LINE
  5
333
330
18
100
AcDbEntity
  8
1
  6
Continuous
100
AcDbLine
 10
38.69568553760803
 20
149.0976928068466
 30
0.0
 11
39.49568553760798
 21
149.0976928068466
 31
0.0
  0
LINE
  5
334
330
18
100
AcDbEntity
  8
1
  6
Continuous
100
AcDbLine
 10
36.13778553760801
 20
149.6476928068467
 30
0.0
 11
36.13778553760801
 21
148.8476928068467
 31
0.0
  0
LINE
  5
335
330
18
100
AcDbEntity
  8
1
  6
Continuous
100
AcDbLine
 10
35.97138553760794
 20
148.8476928068467
 30
0.0
 11
36.14578553760805
 21
148.8476928068467
 31
0.0
  0
LINE
  5
336
330
18
100
AcDbEntity
  8
1
  6
Continuous
100
AcDbLine
 10
37.69568553760804
 20
151.3476928068466
 30
0.0
 11
38.69568553760803
 21
151.3476928068466
 31
0.0
  0
LINE
  5
33D
330
18
100
AcDbEntity
  8
4
  6
CENTER
100
AcDbLine
 10
73.94618553760802
 20
176.8976928068467
 30
0.0
 11
73.94618553760802
 21
166.3976928068467
 31
0.0
  0
LINE
  5
33E
330
18
100
AcDbEntity
  8
1
  6
Continuous
100
AcDbLine
 10
71.94618553760801
 20
165.6476928068467
 30
0.0
 11
66.97118553760799
 21
169.8996928068465
 31
0.0
  0
ARC
  5
33F
330
18
100
AcDbEntity
  8
1
  6
Continuous
100
AcDbCircle
 10
73.44618553760802
 20
162.1476928068467
 30
0.0
 40
1.5
100
AcDbArc
 50
90.0
 51
180.0
  0
LINE
  5
340
330
18
100
AcDbEntity
  8
1
  6
Continuous
100
AcDbLine
 10
71.94618553760801
 20
165.6476928068467
 30
0.0
 11
71.94618553760801
 21
159.6476928068465
 31
0.0
  0
ARC
  5
341
330
18
100
AcDbEntity
  8
1
  6
Continuous
100
AcDbCircle
 10
73.44618553760802
 20
161.0065341333766
 30
0.0
 40
1.5
100
AcDbArc
 50
90.0
 51
180.0
  0
ARC
  5
342
330
18
100
AcDbEntity
  8
1
  6
Continuous
100
AcDbCircle
 10
67.94618553760802
 20
171.0396928068467
 30
0.0
 40
1.5
100
AcDbArc
 50
137.8970000000011
 51
229.4780000000012
  0
LINE
  5
343
330
18
100
AcDbEntity
  8
4
  6
CENTER
100
AcDbLine
 10
9.945685537608026
 20
239.1386928068466
 30
0.0
 11
48.94568553760803
 21
239.1386928068466
 31
0.0
  0
ARC
  5
344
330
18
100
AcDbEntity
  8
1
  6
Continuous
100
AcDbCircle
 10
42.44568553760802
 20
239.1386928068466
 30
0.0
 40
1.5
100
AcDbArc
 50
270.0
 51
77.07176600000304
  0
LINE
  5
345
330
18
100
AcDbEntity
  8
4
  6
CENTER
100
AcDbLine
 10
14.19568553760802
 20
239.9086928068467
 30
0.0
 11
44.69568553760804
 21
239.9086928068467
 31
0.0
  0
LINE
  5
346
330
18
100
AcDbEntity
  8
4
  6
CENTER
100
AcDbLine
 10
14.19568553760802
 20
238.2086928068467
 30
0.0
 11
44.69568553760804
 21
238.2086928068467
 31
0.0
  0
ARC
  5
347
330
18
100
AcDbEntity
  8
1
  6
Continuous
100
AcDbCircle
 10
36.14568553760796
 20
241.8086928068467
 30
0.0
 40
1.5
100
AcDbArc
 50
0.0
 51
90.0
  0
ARC
  5
348
330
18
100
AcDbEntity
  8
1
  6
Continuous
100
AcDbCircle
 10
22.74568553760798
 20
241.8086928068467
 30
0.0
 40
1.5
100
AcDbArc
 50
90.0
 51
180.0
  0
LINE
  5
349
330
18
100
AcDbEntity
  8
4
  6
CENTER
100
AcDbLine
 10
29.44568553760802
 20
230.1469138068467
 30
0.0
 11
29.44568553760802
 21
248.3086928068467
 31
0.0
  0
LINE
  5
34A
330
18
100
AcDbEntity
  8
1
  6
Continuous
100
AcDbLine
 10
22.74568553760798
 20
241.8086928068468
 30
0.0
 11
36.14568553760796
 21
241.8086928068467
 31
0.0
  0
ARC
  5
34B
330
18
100
AcDbEntity
  8
1
  6
Continuous
100
AcDbCircle
 10
28.21588553760796
 20
235.9086928068467
 30
0.0
 40
0.45
100
AcDbArc
 50
167.4999999999997
 51
347.4999999999997
  0
LINE
  5
34C
330
18
100
AcDbEntity
  8
1
  6
Continuous
100
AcDbLine
 10
27.733385537608
 20
235.8106928068466
 30
0.0
 11
28.30917953760797
 21
238.4086928068467
 31
0.0
  0
LINE
  5
34D
330
18
100
AcDbEntity
  8
1
  6
Continuous
100
AcDbLine
 10
19.80008553760796
 20
241.4086928068467
 30
0.0
 11
39.09128553760798
 21
241.4086928068467
 31
0.0
  0
LINE
  5
34E
330
18
100
AcDbEntity
  8
1
  6
Continuous
100
AcDbLine
 10
19.97003753760805
 20
238.4086928068467
 30
0.0
 11
38.92133353760801
 21
238.4086928068467
 31
0.0
  0
LINE
  5
34F
330
18
100
AcDbEntity
  8
1
  6
Continuous
100
AcDbLine
 10
21.19568553760803
 20
234.1866928068467
 30
0.0
 11
37.69568553760804
 21
234.1866928068467
 31
0.0
  0
LINE
  5
350
330
18
100
AcDbEntity
  8
1
  6
Continuous
100
AcDbLine
 10
21.19568553760803
 20
233.1866928068466
 30
0.0
 11
37.69568553760804
 21
233.1866928068466
 31
0.0
  0
ARC
  5
351
330
18
100
AcDbEntity
  8
1
  6
Continuous
100
AcDbCircle
 10
21.19568553760803
 20
234.1866928068467
 30
0.0
 40
1.0
100
AcDbArc
 50
180.0
 51
270.0
  0
LINE
  5
352
330
18
100
AcDbEntity
  8
1
  6
Continuous
100
AcDbLine
 10
19.39568553760796
 20
236.4586928068467
 30
0.0
 11
20.19568553760803
 21
236.4586928068467
 31
0.0
  0
LINE
  5
353
330
18
100
AcDbEntity
  8
1
  6
Continuous
100
AcDbLine
 10
19.97003753760805
 20
238.4086928068467
 30
0.0
 11
16.78128153760803
 21
237.6767168068466
 31
0.0
  0
ARC
  5
354
330
18
100
AcDbEntity
  8
1
  6
Continuous
100
AcDbCircle
 10
16.44568553760803
 20
239.1386928068466
 30
0.0
 40
1.5
100
AcDbArc
 50
102.9282339999969
 51
270.0
  0
LINE
  5
355
330
18
100
AcDbEntity
  8
1
  6
Continuous
100
AcDbLine
 10
19.39568553760796
 20
236.4586928068467
 30
0.0
 11
19.39568553760796
 21
238.2768508068465
 31
0.0
  0
LINE
  5
356
330
18
100
AcDbEntity
  8
1
  6
Continuous
100
AcDbLine
 10
16.44568553760803
 20
237.6386928068466
 30
0.0
 11
19.39568553760796
 21
237.6386928068466
 31
0.0
  0
LINE
  5
357
330
18
100
AcDbEntity
  8
1
  6
Continuous
100
AcDbLine
 10
19.46448953760796
 20
241.3706698068467
 30
0.0
 11
16.11008953760801
 21
240.6006698068467
 31
0.0
  0
ARC
  5
358
330
18
100
AcDbEntity
  8
1
  6
Continuous
100
AcDbCircle
 10
19.80008553760796
 20
239.9086928068467
 30
0.0
 40
1.5
100
AcDbArc
 50
90.0
 51
102.9282339999969
  0
LINE
  5
359
330
18
100
AcDbEntity
  8
1
  6
Continuous
100
AcDbLine
 10
22.74568553760798
 20
234.9086928068467
 30
0.0
 11
22.74568553760798
 21
238.4086928068467
 31
0.0
  0
LINE
  5
35A
330
18
100
AcDbEntity
  8
1
  6
Continuous
100
AcDbLine
 10
26.81148553760795
 20
235.8106928068466
 30
0.0
 11
27.38736653760804
 21
238.4086928068467
 31
0.0
  0
LINE
  5
35B
330
18
100
AcDbEntity
  8
1
  6
Continuous
100
AcDbLine
 10
25.88968553760798
 20
235.8106928068466
 30
0.0
 11
26.46547953760796
 21
238.4086928068467
 31
0.0
  0
LINE
  5
35C
330
18
100
AcDbEntity
  8
1
  6
Continuous
100
AcDbLine
 10
24.96778553760805
 20
235.8116928068466
 30
0.0
 11
25.54363853760799
 21
238.4086928068467
 31
0.0
  0
LINE
  5
35D
330
18
100
AcDbEntity
  8
1
  6
Continuous
100
AcDbLine
 10
24.04598553760797
 20
235.8116928068466
 30
0.0
 11
24.62175153760802
 21
238.4086928068467
 31
0.0
  0
LINE
  5
35E
330
18
100
AcDbEntity
  8
1
  6
Continuous
100
AcDbLine
 10
23.16728553760799
 20
236.0056928068467
 30
0.0
 11
23.69996353760802
 21
238.4086928068467
 31
0.0
  0
LINE
  5
35F
330
18
100
AcDbEntity
  8
1
  6
Continuous
100
AcDbLine
 10
21.24568553760798
 20
234.9086928068467
 30
0.0
 11
21.24568553760798
 21
238.4086928068467
 31
0.0
  0
LINE
  5
360
330
18
100
AcDbEntity
  8
1
  6
Continuous
100
AcDbLine
 10
21.19568553760803
 20
234.1866928068467
 30
0.0
 11
21.19568553760803
 21
238.4086928068467
 31
0.0
  0
LINE
  5
361
330
18
100
AcDbEntity
  8
1
  6
Continuous
100
AcDbLine
 10
20.19568553760803
 20
234.1866928068467
 30
0.0
 11
20.19568553760803
 21
238.4086928068467
 31
0.0
  0
ARC
  5
362
330
18
100
AcDbEntity
  8
1
  6
Continuous
100
AcDbCircle
 10
23.60658553760799
 20
235.9086928068467
 30
0.0
 40
0.45
100
AcDbArc
 50
167.4999999999997
 51
347.4999999999997
  0
LINE
  5
363
330
18
100
AcDbEntity
  8
1
  6
Continuous
100
AcDbLine
 10
21.24568553760798
 20
234.9086928068467
 30
0.0
 11
22.74568553760798
 21
234.9086928068467
 31
0.0
  0
LINE
  5
364
330
18
100
AcDbEntity
  8
1
  6
Continuous
100
AcDbLine
 10
23.15658553760795
 20
235.9086928068467
 30
0.0
 11
23.15658553760795
 21
236.7086928068467
 31
0.0
  0
LINE
  5
365
330
18
100
AcDbEntity
  8
1
  6
Continuous
100
AcDbLine
 10
22.74568553760798
 20
236.7086928068467
 30
0.0
 11
23.32308553760799
 21
236.7086928068467
 31
0.0
  0
ARC
  5
366
330
18
100
AcDbEntity
  8
1
  6
Continuous
100
AcDbCircle
 10
24.52848553760806
 20
235.9086928068467
 30
0.0
 40
0.45
100
AcDbArc
 50
167.4999999999997
 51
347.4999999999997
  0
ARC
  5
367
330
18
100
AcDbEntity
  8
1
  6
Continuous
100
AcDbCircle
 10
25.45028553760801
 20
235.9086928068467
 30
0.0
 40
0.45
100
AcDbArc
 50
167.4999999999997
 51
347.4999999999997
  0
ARC
  5
368
330
18
100
AcDbEntity
  8
1
  6
Continuous
100
AcDbCircle
 10
26.37218553760806
 20
235.9086928068467
 30
0.0
 40
0.45
100
AcDbArc
 50
167.4999999999997
 51
347.4999999999997
  0
ARC
  5
369
330
18
100
AcDbEntity
  8
1
  6
Continuous
100
AcDbCircle
 10
27.294085537608
 20
235.9086928068467
 30
0.0
 40
0.45
100
AcDbArc
 50
167.4999999999997
 51
347.4999999999997
  0
LINE
  5
36C
330
18
100
AcDbEntity
  8
1
  6
Continuous
100
AcDbLine
 10
22.74568553760798
 20
241.4086928068467
 30
0.0
 11
22.74568553760798
 21
241.8086928068467
 31
0.0
  0
LINE
  5
36D
330
18
100
AcDbEntity
  8
1
  6
Continuous
100
AcDbLine
 10
21.24568553760798
 20
241.4086928068467
 30
0.0
 11
21.24568553760798
 21
241.8086928068467
 31
0.0
  0
LINE
  5
36E
330
18
100
AcDbEntity
  8
1
  6
Continuous
100
AcDbLine
 10
20.19568553760803
 20
242.6366928068466
 30
0.0
 11
21.19568553760803
 21
242.6366928068466
 31
0.0
  0
LINE
  5
36F
330
18
100
AcDbEntity
  8
1
  6
Continuous
100
AcDbLine
 10
21.19568553760803
 20
241.4086928068467
 30
0.0
 11
21.19568553760803
 21
242.6366928068466
 31
0.0
  0
LINE
  5
370
330
18
100
AcDbEntity
  8
1
  6
Continuous
100
AcDbLine
 10
20.19568553760803
 20
241.4086928068467
 30
0.0
 11
20.19568553760803
 21
242.6366928068466
 31
0.0
  0
LINE
  5
374
330
18
100
AcDbEntity
  8
1
  6
Continuous
100
AcDbLine
 10
35.10818553760805
 20
235.8116928068466
 30
0.0
 11
35.68403853760798
 21
238.4086928068467
 31
0.0
  0
LINE
  5
375
330
18
100
AcDbEntity
  8
1
  6
Continuous
100
AcDbLine
 10
35.30708553760803
 20
236.7086928068467
 30
0.0
 11
36.14568553760796
 21
236.7086928068467
 31
0.0
  0
LINE
  5
376
330
18
100
AcDbEntity
  8
1
  6
Continuous
100
AcDbLine
 10
34.186285537608
 20
235.8116928068466
 30
0.0
 11
34.76213853760806
 21
238.4086928068467
 31
0.0
  0
LINE
  5
377
330
18
100
AcDbEntity
  8
1
  6
Continuous
100
AcDbLine
 10
33.26448553760803
 20
235.8116928068466
 30
0.0
 11
33.84033853760797
 21
238.4086928068467
 31
0.0
  0
LINE
  5
378
330
18
100
AcDbEntity
  8
1
  6
Continuous
100
AcDbLine
 10
32.34258553760799
 20
235.8116928068466
 30
0.0
 11
32.91843853760804
 21
238.4086928068467
 31
0.0
  0
LINE
  5
379
330
18
100
AcDbEntity
  8
1
  6
Continuous
100
AcDbLine
 10
31.42078553760802
 20
235.8116928068466
 30
0.0
 11
31.99655153760796
 21
238.4086928068467
 31
0.0
  0
LINE
  5
37A
330
18
100
AcDbEntity
  8
1
  6
Continuous
100
AcDbLine
 10
30.49888553760797
 20
235.8106928068466
 30
0.0
 11
31.07476653760795
 21
238.4086928068467
 31
0.0
  0
LINE
  5
37B
330
18
100
AcDbEntity
  8
1
  6
Continuous
100
AcDbLine
 10
29.57708553760801
 20
235.8106928068466
 30
0.0
 11
30.15287953760799
 21
238.4086928068467
 31
0.0
  0
LINE
  5
37C
330
18
100
AcDbEntity
  8
1
  6
Continuous
100
AcDbLine
 10
28.65518553760796
 20
235.8106928068466
 30
0.0
 11
29.23106653760794
 21
238.4086928068467
 31
0.0
  0
ARC
  5
37D
330
18
100
AcDbEntity
  8
1
  6
Continuous
100
AcDbCircle
 10
31.90328553760798
 20
235.9086928068467
 30
0.0
 40
0.45
100
AcDbArc
 50
167.4999999999997
 51
347.4999999999997
  0
ARC
  5
37E
330
18
100
AcDbEntity
  8
1
  6
Continuous
100
AcDbCircle
 10
29.13778553760801
 20
235.9086928068467
 30
0.0
 40
0.45
100
AcDbArc
 50
167.4999999999997
 51
347.4999999999997
  0
ARC
  5
37F
330
18
100
AcDbEntity
  8
1
  6
Continuous
100
AcDbCircle
 10
30.05958553760797
 20
235.9086928068467
 30
0.0
 40
0.45
100
AcDbArc
 50
167.4999999999997
 51
347.4999999999997
  0
ARC
  5
380
330
18
100
AcDbEntity
  8
1
  6
Continuous
100
AcDbCircle
 10
30.98148553760802
 20
235.9086928068467
 30
0.0
 40
0.45
100
AcDbArc
 50
167.4999999999997
 51
347.4999999999997
  0
ARC
  5
381
330
18
100
AcDbEntity
  8
1
  6
Continuous
100
AcDbCircle
 10
32.82518553760804
 20
235.9086928068467
 30
0.0
 40
0.45
100
AcDbArc
 50
167.4999999999997
 51
347.4999999999997
  0
ARC
  5
382
330
18
100
AcDbEntity
  8
1
  6
Continuous
100
AcDbCircle
 10
33.74698553760799
 20
235.9086928068467
 30
0.0
 40
0.45
100
AcDbArc
 50
167.4999999999997
 51
347.4999999999997
  0
ARC
  5
383
330
18
100
AcDbEntity
  8
1
  6
Continuous
100
AcDbCircle
 10
34.66888553760805
 20
235.9086928068467
 30
0.0
 40
0.45
100
AcDbArc
 50
167.4999999999997
 51
347.4999999999997
  0
LINE
  5
384
330
18
100
AcDbEntity
  8
1
  6
Continuous
100
AcDbLine
 10
28.69568553760803
 20
241.4086928068467
 30
0.0
 11
28.69568553760803
 21
241.8081928068467
 31
0.0
  0
LINE
  5
385
330
18
100
AcDbEntity
  8
1
  6
Continuous
100
AcDbLine
 10
30.19568553760803
 20
241.4086928068467
 30
0.0
 11
30.19568553760803
 21
241.8081928068467
 31
0.0
  0
LINE
  5
386
330
18
100
AcDbEntity
  8
1
  6
Continuous
100
AcDbLine
 10
38.92133353760801
 20
238.4086928068467
 30
0.0
 11
42.11008953760802
 21
237.6767168068466
 31
0.0
  0
LINE
  5
387
330
18
100
AcDbEntity
  8
1
  6
Continuous
100
AcDbLine
 10
36.14568553760796
 20
234.9086928068467
 30
0.0
 11
36.14568553760796
 21
238.4086928068467
 31
0.0
  0
LINE
  5
388
330
18
100
AcDbEntity
  8
1
  6
Continuous
100
AcDbLine
 10
39.49568553760798
 20
236.4586928068467
 30
0.0
 11
39.49568553760798
 21
238.2768508068465
 31
0.0
  0
LINE
  5
389
330
18
100
AcDbEntity
  8
1
  6
Continuous
100
AcDbLine
 10
37.64568553760796
 20
234.9086928068467
 30
0.0
 11
37.64568553760796
 21
238.4086928068467
 31
0.0
  0
LINE
  5
38A
330
18
100
AcDbEntity
  8
1
  6
Continuous
100
AcDbLine
 10
37.69568553760804
 20
234.1866928068467
 30
0.0
 11
37.69568553760804
 21
238.4086928068467
 31
0.0
  0
LINE
  5
38B
330
18
100
AcDbEntity
  8
1
  6
Continuous
100
AcDbLine
 10
38.69568553760803
 20
234.1866928068467
 30
0.0
 11
38.69568553760803
 21
238.4086928068467
 31
0.0
  0
LINE
  5
38C
330
18
100
AcDbEntity
  8
1
  6
Continuous
100
AcDbLine
 10
38.69568553760803
 20
236.4586928068467
 30
0.0
 11
39.49568553760798
 21
236.4586928068467
 31
0.0
  0
ARC
  5
38D
330
18
100
AcDbEntity
  8
1
  6
Continuous
100
AcDbCircle
 10
37.69568553760804
 20
234.1866928068467
 30
0.0
 40
1.0
100
AcDbArc
 50
270.0
 51
0.000001
  0
LINE
  5
38E
330
18
100
AcDbEntity
  8
1
  6
Continuous
100
AcDbLine
 10
36.14568553760796
 20
234.9086928068467
 30
0.0
 11
37.64568553760796
 21
234.9086928068467
 31
0.0
  0
LINE
  5
38F
330
18
100
AcDbEntity
  8
1
  6
Continuous
100
AcDbLine
 10
42.44568553760802
 20
237.6386928068466
 30
0.0
 11
39.49568553760798
 21
237.6386928068466
 31
0.0
  0
LINE
  5
390
330
18
100
AcDbEntity
  8
1
  6
Continuous
100
AcDbLine
 10
39.42688153760798
 20
241.3706698068467
 30
0.0
 11
42.78128153760792
 21
240.6006698068467
 31
0.0
  0
LINE
  5
391
330
18
100
AcDbEntity
  8
1
  6
Continuous
100
AcDbLine
 10
36.14568553760796
 20
241.4086928068467
 30
0.0
 11
36.14568553760796
 21
241.8086928068467
 31
0.0
  0
LINE
  5
392
330
18
100
AcDbEntity
  8
1
  6
Continuous
100
AcDbLine
 10
37.64568553760796
 20
241.4086928068467
 30
0.0
 11
37.64568553760796
 21
241.8086928068467
 31
0.0
  0
ARC
  5
393
330
18
100
AcDbEntity
  8
1
  6
Continuous
100
AcDbCircle
 10
39.09128553760798
 20
239.9086928068467
 30
0.0
 40
1.5
100
AcDbArc
 50
77.07176600000304
 51
90.0
  0
LINE
  5
394
330
18
100
AcDbEntity
  8
1
  6
Continuous
100
AcDbLine
 10
37.69568553760804
 20
242.6366928068466
 30
0.0
 11
38.69568553760803
 21
242.6366928068466
 31
0.0
  0
LINE
  5
395
330
18
100
AcDbEntity
  8
1
  6
Continuous
100
AcDbLine
 10
37.69568553760804
 20
241.4086928068467
 30
0.0
 11
37.69568553760804
 21
242.6366928068466
 31
0.0
  0
LINE
  5
396
330
18
100
AcDbEntity
  8
1
  6
Continuous
100
AcDbLine
 10
38.69568553760803
 20
241.4086928068467
 30
0.0
 11
38.69568553760803
 21
242.6366928068466
 31
0.0
  0
LINE
  5
397
330
18
100
AcDbEntity
  8
1
  6
Continuous
100
AcDbLine
 10
22.74568553760798
 20
243.3086928068466
 30
0.0
 11
36.14568553760796
 21
243.3086928068466
 31
0.0
  0
LINE
  5
398
330
18
100
AcDbEntity
  8
4
  6
CENTER
100
AcDbLine
 10
73.94618553760802
 20
245.3086928068466
 30
0.0
 11
73.94618553760802
 21
239.8086928068467
 31
0.0
  0
LINE
  5
399
330
18
100
AcDbEntity
  8
1
  6
Continuous
100
AcDbLine
 10
66.44618553760802
 20
241.8086928068467
 30
0.0
 11
66.44618553760802
 21
243.3086928068466
 31
0.0
  0
ARC
  5
39A
330
18
100
AcDbEntity
  8
1
  6
Continuous
100
AcDbCircle
 10
73.44618553760802
 20
237.7775939730951
 30
0.0
 40
1.5
100
AcDbArc
 50
180.0
 51
270.0
  0
LINE
  5
39B
330
18
100
AcDbEntity
  8
1
  6
Continuous
100
AcDbLine
 10
71.94618553760801
 20
236.8086928068465
 30
0.0
 11
71.94618553760801
 21
241.8086928068467
 31
0.0
  0
ARC
  5
39C
330
18
100
AcDbEntity
  8
1
  6
Continuous
100
AcDbCircle
 10
73.44618553760802
 20
236.8086928068465
 30
0.0
 40
1.5
100
AcDbArc
 50
180.0
 51
270.0
  0
LINE
  5
39D
330
18
100
AcDbEntity
  8
4
  6
CENTER
100
AcDbLine
 10
132.7451855376078
 20
162.8886928067954
 30
0.0
 11
139.7451855376079
 21
162.8886928067954
 31
0.0
  0
ARC
  5
39F
330
18
100
AcDbEntity
  8
1
  6
Continuous
100
AcDbCircle
 10
135.475185537608
 20
139.8886928068466
 30
0.0
 40
1.5
100
AcDbArc
 50
178.0825530870546
 51
358.0825530870547
  0
ARC
  5
3A0
330
18
100
AcDbEntity
  8
1
  6
Continuous
100
AcDbCircle
 10
135.475185537608
 20
139.8886928068466
 30
0.0
 40
1.6
100
AcDbArc
 50
157.7184182808068
 51
18.44668789330368
  0
LINE
  5
3A1
330
18
100
AcDbEntity
  8
4
  6
CENTER
100
AcDbLine
 10
131.8751855376079
 20
139.8886928068466
 30
0.0
 11
139.075185537608
 21
139.8886928068466
 31
0.0
  0
LINE
  5
3A2
330
18
100
AcDbEntity
  8
4
  6
CENTER
100
AcDbLine
 10
135.1451855376077
 20
140.6476928068467
 30
0.0
 11
142.6451855376079
 21
140.6476928068467
 31
0.0
  0
LINE
  5
3A3
330
18
100
AcDbEntity
  8
4
  6
CENTER
100
AcDbLine
 10
130.9951855376078
 20
147.3476928068466
 30
0.0
 11
138.0961855376078
 21
147.3476928068466
 31
0.0
  0
LINE
  5
3A4
330
18
100
AcDbEntity
  8
4
  6
CENTER
100
AcDbLine
 10
79.44618553760801
 20
182.6476928068467
 30
0.0
 11
79.44618553760801
 21
154.6476928068465
 31
0.0
  0
LINE
  5
3A5
330
18
100
AcDbEntity
  8
1
  6
Continuous
100
AcDbLine
 10
86.94618553760802
 20
165.6476928068467
 30
0.0
 11
91.92018553760794
 21
169.8996928068465
 31
0.0
  0
CIRCLE
  5
3A6
330
18
100
AcDbEntity
  8
1
  6
Continuous
100
AcDbCircle
 10
84.94618553760801
 20
171.6476928068467
 30
0.0
 40
3.25
  0
LINE
  5
3A7
330
18
100
AcDbEntity
  8
4
  6
CENTER
100
AcDbLine
 10
84.94618553760801
 20
176.8976928068467
 30
0.0
 11
84.94618553760801
 21
166.3976928068467
 31
0.0
  0
ARC
  5
3A8
330
18
100
AcDbEntity
  8
1
  6
Continuous
100
AcDbCircle
 10
85.44618553760802
 20
162.1476928068467
 30
0.0
 40
1.5
100
AcDbArc
 50
0.0
 51
90.0
  0
LINE
  5
3A9
330
18
100
AcDbEntity
  8
1
  6
Continuous
100
AcDbLine
 10
86.94618553760802
 20
165.6476928068467
 30
0.0
 11
86.94618553760802
 21
159.6476928068465
 31
0.0
  0
ARC
  5
3AA
330
18
100
AcDbEntity
  8
1
  6
Continuous
100
AcDbCircle
 10
85.44618553760802
 20
161.0065341333766
 30
0.0
 40
1.5
100
AcDbArc
 50
0.0
 51
90.0
  0
CIRCLE
  5
3AB
330
18
100
AcDbEntity
  8
1
  6
Continuous
100
AcDbCircle
 10
84.94618553760801
 20
171.6476928068467
 30
0.0
 40
1.8
  0
ARC
  5
3AC
330
18
100
AcDbEntity
  8
1
  6
Continuous
100
AcDbCircle
 10
90.94618553760799
 20
171.0396928068467
 30
0.0
 40
1.5
100
AcDbArc
 50
310.5219999999988
 51
42.10339999999928
  0
ARC
  5
3AE
330
18
100
AcDbEntity
  8
1
  6
Continuous
100
AcDbCircle
 10
134.5461855376079
 20
147.3476928068466
 30
0.0
 40
4.0
100
AcDbArc
 50
92.69907830100729
 51
190.9199999999994
  0
ARC
  5
3AF
330
18
100
AcDbEntity
  8
1
  6
Continuous
100
AcDbCircle
 10
134.5461855376079
 20
147.3476928068466
 30
0.0
 40
1.75
100
AcDbArc
 50
98.68357839580944
 51
257.4815277783
  0
LINE
  5
3B0
330
18
100
AcDbEntity
  8
4
  6
CENTER
100
AcDbLine
 10
134.5461855376079
 20
150.8976928068467
 30
0.0
 11
134.5461855376079
 21
143.7976928068465
 31
0.0
  0
LINE
  5
3B1
330
18
100
AcDbEntity
  8
1
  6
Continuous
100
AcDbLine
 10
130.618185537608
 20
146.5896928068466
 30
0.0
 11
130.9971855376078
 21
144.6256928068465
 31
0.0
  0
LINE
  5
3B2
330
18
100
AcDbEntity
  8
1
  6
Continuous
100
AcDbLine
 10
129.5241855376078
 20
144.3416928068465
 30
0.0
 11
130.9971855376078
 21
144.6256928068465
 31
0.0
  0
LINE
  5
3B4
330
18
100
AcDbEntity
  8
1
  6
Continuous
100
AcDbLine
 10
138.6071855376079
 20
142.0476928068466
 30
0.0
 11
139.6451855376079
 21
142.0476928068466
 31
0.0
  0
LINE
  5
3B5
330
18
100
AcDbEntity
  8
1
  6
Continuous
100
AcDbLine
 10
138.5841855376079
 20
144.0476928068465
 30
0.0
 11
139.6451855376079
 21
144.0476928068465
 31
0.0
  0
ARC
  5
3B6
330
18
100
AcDbEntity
  8
1
  6
Continuous
100
AcDbCircle
 10
134.5461855376079
 20
147.3476928068466
 30
0.0
 40
4.0
100
AcDbArc
 50
0.6580100000000268
 51
46.05301865080728
  0
LINE
  5
3B7
330
18
100
AcDbEntity
  8
1
  6
Continuous
100
AcDbLine
 10
137.3362185063659
 20
150.6476928068467
 30
0.0
 11
139.6451855376079
 21
150.6476928068467
 31
0.0
  0
LINE
  5
3B8
330
18
100
AcDbEntity
  8
4
  6
CENTER
100
AcDbLine
 10
136.245185537608
 20
166.3886928067954
 30
0.0
 11
136.245185537608
 21
159.3886928067954
 31
0.0
  0
LINE
  5
3C3
330
18
100
AcDbEntity
  8
4
  6
CENTER
100
AcDbLine
 10
84.94618553760801
 20
245.3086928068466
 30
0.0
 11
84.94618553760801
 21
239.8086928068467
 31
0.0
  0
LINE
  5
3C4
330
18
100
AcDbEntity
  8
1
  6
Continuous
100
AcDbLine
 10
92.44618553760799
 20
241.8086928068467
 30
0.0
 11
92.44618553760799
 21
243.3086928068466
 31
0.0
  0
LINE
  5
3C5
330
18
100
AcDbEntity
  8
4
  6
CENTER
100
AcDbLine
 10
79.44618553760801
 20
230.8086928068466
 30
0.0
 11
79.44618553760801
 21
248.3086928068467
 31
0.0
  0
ARC
  5
3C6
330
18
100
AcDbEntity
  8
1
  6
Continuous
100
AcDbCircle
 10
85.44618553760802
 20
237.7775939730951
 30
0.0
 40
1.5
100
AcDbArc
 50
270.0
 51
0.000001
  0
LINE
  5
3C7
330
18
100
AcDbEntity
  8
1
  6
Continuous
100
AcDbLine
 10
86.94618553760802
 20
236.8086928330265
 30
0.0
 11
86.94618553760802
 21
241.8086928068467
 31
0.0
  0
ARC
  5
3C8
330
18
100
AcDbEntity
  8
1
  6
Continuous
100
AcDbCircle
 10
85.44618553760802
 20
236.8086928068465
 30
0.0
 40
1.5
100
AcDbArc
 50
270.0
 51
0.000001
  0
LINE
  5
3C9
330
18
100
AcDbEntity
  8
1
  6
Continuous
100
AcDbLine
 10
241.3951855376077
 20
151.3476928068466
 30
0.0
 11
241.3951855376077
 21
110.7246928068465
 31
0.0
  0
LINE
  5
3CA
330
18
100
AcDbEntity
  8
1
  6
Continuous
100
AcDbLine
 10
257.8951855376079
 20
151.3476928068466
 30
0.0
 11
257.8951855376079
 21
110.7246928068465
 31
0.0
  0
LINE
  5
3CB
330
18
100
AcDbEntity
  8
1
  6
Continuous
100
AcDbLine
 10
240.3951855376079
 20
151.3476928068466
 30
0.0
 11
240.3951855376079
 21
110.7246928068465
 31
0.0
  0
LINE
  5
3CC
330
18
100
AcDbEntity
  8
1
  6
Continuous
100
AcDbLine
 10
258.8951855376079
 20
151.3476928068466
 30
0.0
 11
258.8951855376079
 21
110.7246928068465
 31
0.0
  0
LINE
  5
3CD
330
18
100
AcDbEntity
  8
1
  6
Continuous
100
AcDbLine
 10
242.6451855376079
 20
142.0476928068466
 30
0.0
 11
242.6451855376079
 21
114.1476928068466
 31
0.0
  0
LINE
  5
3CE
330
18
100
AcDbEntity
  8
1
  6
Continuous
100
AcDbLine
 10
256.6451855376079
 20
142.0476928068466
 30
0.0
 11
256.6451855376079
 21
131.1476928068465
 31
0.0
  0
LINE
  5
3CF
330
18
100
AcDbEntity
  8
4
  6
CENTER
100
AcDbLine
 10
249.6451855376077
 20
169.3586928068466
 30
0.0
 11
249.6451855376077
 21
99.43469280684679
 31
0.0
  0
LINE
  5
3D0
330
18
100
AcDbEntity
  8
1
  6
Continuous
100
AcDbLine
 10
248.8461855376079
 20
117.4476928068466
 30
0.0
 11
248.8461855376079
 21
115.1476928068466
 31
0.0
  0
ARC
  5
3D1
330
18
100
AcDbEntity
  8
1
  6
Continuous
100
AcDbCircle
 10
249.6451855376077
 20
114.1476928068466
 30
0.0
 40
7.0
100
AcDbArc
 50
180.0
 51
0.00001
  0
ARC
  5
3D2
330
18
100
AcDbEntity
  8
1
  6
Continuous
100
AcDbCircle
 10
249.6451855376077
 20
114.3806928068465
 30
0.0
 40
9.94618
100
AcDbArc
 50
201.5640000000009
 51
338.435999999999
  0
LINE
  5
3D3
330
18
100
AcDbEntity
  8
1
  6
Continuous
100
AcDbLine
 10
240.3951855376079
 20
110.7246928068465
 30
0.0
 11
241.3951855376077
 21
110.7246928068465
 31
0.0
  0
CIRCLE
  5
3D4
330
18
100
AcDbEntity
  8
3
  6
DASHED
100
AcDbCircle
 10
249.6451855376077
 20
111.6476928068466
 30
0.0
 40
3.25
  0
LINE
  5
3D5
330
18
100
AcDbEntity
  8
4
  6
CENTER
100
AcDbLine
 10
245.3951855376077
 20
111.6476928068466
 30
0.0
 11
253.8951855376077
 21
111.6476928068466
 31
0.0
  0
LINE
  5
3D6
330
18
100
AcDbEntity
  8
1
  6
Continuous
100
AcDbLine
 10
256.6451855376079
 20
115.1476928068466
 30
0.0
 11
248.8461855376079
 21
115.1476928068466
 31
0.0
  0
CIRCLE
  5
3D7
330
18
100
AcDbEntity
  8
1
  6
Continuous
100
AcDbCircle
 10
249.6451855376077
 20
111.6476928068466
 30
0.0
 40
1.8
  0
LINE
  5
3D8
330
18
100
AcDbEntity
  8
1
  6
Continuous
100
AcDbLine
 10
256.6451855376079
 20
115.1476928068466
 30
0.0
 11
256.6451855376079
 21
114.1476928068466
 31
0.0
  0
LINE
  5
3D9
330
18
100
AcDbEntity
  8
1
  6
Continuous
100
AcDbLine
 10
257.8951855376079
 20
110.7246928068465
 30
0.0
 11
258.8951855376079
 21
110.7246928068465
 31
0.0
  0
LINE
  5
3DA
330
18
100
AcDbEntity
  8
1
  6
Continuous
100
AcDbLine
 10
250.3461855376079
 20
128.4476928068465
 30
0.0
 11
250.3461855376079
 21
117.4476928068466
 31
0.0
  0
LINE
  5
3DB
330
18
100
AcDbEntity
  8
1
  6
Continuous
100
AcDbLine
 10
250.3461855376079
 20
117.4476928068466
 30
0.0
 11
248.8461855376079
 21
117.4476928068466
 31
0.0
  0
LINE
  5
3DC
330
18
100
AcDbEntity
  8
1
  6
Continuous
100
AcDbLine
 10
256.6451855376079
 20
131.1476928068465
 30
0.0
 11
248.8461855376079
 21
131.1476928068465
 31
0.0
  0
LINE
  5
3DD
330
18
100
AcDbEntity
  8
1
  6
Continuous
100
AcDbLine
 10
250.3461855376079
 20
128.4476928068465
 30
0.0
 11
248.8461855376079
 21
128.4476928068465
 31
0.0
  0
LINE
  5
3DE
330
18
100
AcDbEntity
  8
1
  6
Continuous
100
AcDbLine
 10
248.8461855376079
 20
131.1476928068465
 30
0.0
 11
248.8461855376079
 21
128.4476928068465
 31
0.0
  0
LINE
  5
3E2
330
18
100
AcDbEntity
  8
4
  6
CENTER
100
AcDbLine
 10
230.500185537608
 20
139.8886928068466
 30
0.0
 11
268.7911855376079
 21
139.8886928068466
 31
0.0
  0
LINE
  5
3E5
330
18
100
AcDbEntity
  8
4
  6
CENTER
100
AcDbLine
 10
234.3951855376079
 20
147.3476928068466
 30
0.0
 11
264.8951855376079
 21
147.3476928068466
 31
0.0
  0
LINE
  5
3E8
330
18
100
AcDbEntity
  8
1
  6
Continuous
100
AcDbLine
 10
241.4451855376079
 20
150.6476928068467
 30
0.0
 11
257.846185537608
 21
150.6476928068467
 31
0.0
  0
LINE
  5
3E9
330
18
100
AcDbEntity
  8
1
  6
Continuous
100
AcDbLine
 10
239.595185537608
 20
149.0976928068466
 30
0.0
 11
239.595185537608
 21
145.5976928068467
 31
0.0
  0
LINE
  5
3EA
330
18
100
AcDbEntity
  8
1
  6
Continuous
100
AcDbLine
 10
241.4451855376079
 20
150.6476928068467
 30
0.0
 11
241.4451855376079
 21
144.0476928068465
 31
0.0
  0
LINE
  5
3EF
330
18
100
AcDbEntity
  8
1
  6
Continuous
100
AcDbLine
 10
239.595185537608
 20
145.5976928068467
 30
0.0
 11
240.3951855376079
 21
145.5976928068467
 31
0.0
  0
LINE
  5
3F0
330
18
100
AcDbEntity
  8
1
  6
Continuous
100
AcDbLine
 10
241.4451855376079
 20
145.3476928068466
 30
0.0
 11
241.3951855376077
 21
145.3476928068466
 31
0.0
  0
LINE
  5
3F1
330
18
100
AcDbEntity
  8
1
  6
Continuous
100
AcDbLine
 10
241.3951855376077
 20
145.8476928068466
 30
0.0
 11
241.4451855376079
 21
145.8476928068466
 31
0.0
  0
LINE
  5
3F2
330
18
100
AcDbEntity
  8
1
  6
Continuous
100
AcDbLine
 10
242.6451855376079
 20
142.0476928068466
 30
0.0
 11
243.6451855376077
 21
142.0476928068466
 31
0.0
  0
LINE
  5
3F3
330
18
100
AcDbEntity
  8
1
  6
Continuous
100
AcDbLine
 10
241.4451855376079
 20
144.0476928068465
 30
0.0
 11
243.6451855376077
 21
144.0476928068465
 31
0.0
  0
LINE
  5
3F4
330
18
100
AcDbEntity
  8
1
  6
Continuous
100
AcDbLine
 10
243.6451855376077
 20
144.0476928068465
 30
0.0
 11
243.6451855376077
 21
142.0476928068466
 31
0.0
  0
LINE
  5
3F5
330
18
100
AcDbEntity
  8
1
  6
Continuous
100
AcDbLine
 10
241.3951855376077
 20
151.3476928068466
 30
0.0
 11
240.3951855376079
 21
151.3476928068466
 31
0.0
  0
LINE
  5
3F6
330
18
100
AcDbEntity
  8
1
  6
Continuous
100
AcDbLine
 10
239.595185537608
 20
149.0976928068466
 30
0.0
 11
240.3951855376079
 21
149.0976928068466
 31
0.0
  0
LINE
  5
3F7
330
18
100
AcDbEntity
  8
1
  6
Continuous
100
AcDbLine
 10
241.3951855376077
 20
148.8476928068467
 30
0.0
 11
241.4451855376079
 21
148.8476928068467
 31
0.0
  0
LINE
  5
3F8
330
18
100
AcDbEntity
  8
1
  6
Continuous
100
AcDbLine
 10
259.6951855376079
 20
149.0976928068466
 30
0.0
 11
259.6951855376079
 21
145.5976928068467
 31
0.0
  0
LINE
  5
3F9
330
18
100
AcDbEntity
  8
1
  6
Continuous
100
AcDbLine
 10
257.846185537608
 20
150.6476928068467
 30
0.0
 11
257.846185537608
 21
144.0476928068465
 31
0.0
  0
CIRCLE
  5
3FA
330
18
100
AcDbEntity
  8
3
  6
DASHED
100
AcDbCircle
 10
249.6451855376077
 20
140.6476928068467
 30
0.0
 40
3.25
  0
LINE
  5
3FB
330
18
100
AcDbEntity
  8
4
  6
CENTER
100
AcDbLine
 10
245.3951855376077
 20
140.6476928068467
 30
0.0
 11
253.8951855376077
 21
140.6476928068467
 31
0.0
  0
CIRCLE
  5
3FC
330
18
100
AcDbEntity
  8
1
  6
Continuous
100
AcDbCircle
 10
249.6451855376077
 20
140.6476928068467
 30
0.0
 40
1.8
  0
LINE
  5
3FD
330
18
100
AcDbEntity
  8
1
  6
Continuous
100
AcDbLine
 10
255.6451855376077
 20
142.0476928068466
 30
0.0
 11
256.6451855376079
 21
142.0476928068466
 31
0.0
  0
LINE
  5
3FE
330
18
100
AcDbEntity
  8
1
  6
Continuous
100
AcDbLine
 10
255.6451855376077
 20
144.0476928068465
 30
0.0
 11
257.846185537608
 21
144.0476928068465
 31
0.0
  0
LINE
  5
3FF
330
18
100
AcDbEntity
  8
1
  6
Continuous
100
AcDbLine
 10
255.6451855376077
 20
144.0476928068465
 30
0.0
 11
255.6451855376077
 21
142.0476928068466
 31
0.0
  0
LINE
  5
400
330
18
100
AcDbEntity
  8
1
  6
Continuous
100
AcDbLine
 10
257.846185537608
 20
145.8476928068466
 30
0.0
 11
257.8951855376079
 21
145.8476928068466
 31
0.0
  0
LINE
  5
401
330
18
100
AcDbEntity
  8
1
  6
Continuous
100
AcDbLine
 10
258.8951855376079
 20
145.5976928068467
 30
0.0
 11
259.6951855376079
 21
145.5976928068467
 31
0.0
  0
LINE
  5
402
330
18
100
AcDbEntity
  8
1
  6
Continuous
100
AcDbLine
 10
257.8951855376079
 20
145.3476928068466
 30
0.0
 11
257.846185537608
 21
145.3476928068466
 31
0.0
  0
LINE
  5
407
330
18
100
AcDbEntity
  8
1
  6
Continuous
100
AcDbLine
 10
257.846185537608
 20
148.8476928068467
 30
0.0
 11
257.8951855376079
 21
148.8476928068467
 31
0.0
  0
LINE
  5
408
330
18
100
AcDbEntity
  8
1
  6
Continuous
100
AcDbLine
 10
258.8951855376079
 20
149.0976928068466
 30
0.0
 11
259.6951855376079
 21
149.0976928068466
 31
0.0
  0
LINE
  5
409
330
18
100
AcDbEntity
  8
1
  6
Continuous
100
AcDbLine
 10
258.8951855376079
 20
151.3476928068466
 30
0.0
 11
257.8951855376079
 21
151.3476928068466
 31
0.0
  0
LINE
  5
410
330
18
100
AcDbEntity
  8
4
  6
CENTER
100
AcDbLine
 10
299.6451855376077
 20
182.6476928068467
 30
0.0
 11
299.6451855376077
 21
154.6476928068465
 31
0.0
  0
ARC
  5
411
330
18
100
AcDbEntity
  8
1
  6
Continuous
100
AcDbCircle
 10
299.6451855376077
 20
160.6476928068467
 30
0.0
 40
17.0
100
AcDbArc
 50
42.10339999999928
 51
137.8970000000011
  0
LINE
  5
413
330
18
100
AcDbEntity
  8
4
  6
CENTER
100
AcDbLine
 10
308.9451855376079
 20
171.6476928068467
 30
0.0
 11
290.3461855376077
 21
171.6476928068467
 31
0.0
  0
LINE
  5
414
330
18
100
AcDbEntity
  8
1
  6
Continuous
100
AcDbLine
 10
292.1451855376077
 20
165.6476928068467
 30
0.0
 11
287.1711855376078
 21
169.8996928068465
 31
0.0
  0
ARC
  5
418
330
18
100
AcDbEntity
  8
1
  6
Continuous
100
AcDbCircle
 10
288.1451855376079
 20
171.0396928068467
 30
0.0
 40
1.5
100
AcDbArc
 50
137.8970000000011
 51
229.4780000000012
  0
CIRCLE
  5
419
330
18
100
AcDbEntity
  8
1
  6
Continuous
100
AcDbCircle
 10
305.1451855376077
 20
171.6476928068467
 30
0.0
 40
1.8
  0
LINE
  5
41A
330
18
100
AcDbEntity
  8
1
  6
Continuous
100
AcDbLine
 10
307.1451855376077
 20
159.6476928068465
 30
0.0
 11
292.1451855376077
 21
159.6476928068465
 31
0.0
  0
LINE
  5
41B
330
18
100
AcDbEntity
  8
4
  6
CENTER
100
AcDbLine
 10
305.1451855376077
 20
175.4476928068466
 30
0.0
 11
305.1451855376077
 21
167.8476928068466
 31
0.0
  0
LINE
  5
41C
330
18
100
AcDbEntity
  8
4
  6
CENTER
100
AcDbLine
 10
294.1451855376077
 20
175.4476928068466
 30
0.0
 11
294.1451855376077
 21
167.8476928068466
 31
0.0
  0
LINE
  5
41D
330
18
100
AcDbEntity
  8
1
  6
Continuous
100
AcDbLine
 10
292.1451855376077
 20
165.6476928068467
 30
0.0
 11
292.1451855376077
 21
159.6476928068465
 31
0.0
  0
CIRCLE
  5
41E
330
18
100
AcDbEntity
  8
1
  6
Continuous
100
AcDbCircle
 10
294.1451855376077
 20
171.6476928068467
 30
0.0
 40
1.8
  0
LINE
  5
41F
330
18
100
AcDbEntity
  8
1
  6
Continuous
100
AcDbLine
 10
307.1451855376077
 20
165.6476928068467
 30
0.0
 11
312.1201855376078
 21
169.8996928068465
 31
0.0
  0
LINE
  5
420
330
18
100
AcDbEntity
  8
1
  6
Continuous
100
AcDbLine
 10
307.1451855376077
 20
165.6476928068467
 30
0.0
 11
307.1451855376077
 21
159.6476928068465
 31
0.0
  0
ARC
  5
421
330
18
100
AcDbEntity
  8
1
  6
Continuous
100
AcDbCircle
 10
311.1451855376077
 20
171.0396928068467
 30
0.0
 40
1.5
100
AcDbArc
 50
310.5219999999988
 51
42.10339999999928
  0
LINE
  5
46D
330
18
100
AcDbEntity
  8
1
  6
Continuous
100
AcDbLine
 10
182.6140867038564
 20
163.6511832331171
 30
0.0
 11
181.6451855376079
 21
162.5065341333765
 31
0.0
  0
LINE
  5
46E
330
18
100
AcDbEntity
  8
1
  6
Continuous
100
AcDbLine
 10
188.1451855376079
 20
177.6476928068466
 30
0.0
 11
188.1451855376079
 21
163.0476928068465
 31
0.0
  0
LINE
  5
46F
330
18
100
AcDbEntity
  8
1
  6
Continuous
100
AcDbLine
 10
189.6451855376079
 20
177.6476928068466
 30
0.0
 11
189.6451855376079
 21
163.0476928068465
 31
0.0
  0
LINE
  5
470
330
18
100
AcDbEntity
  8
4
  6
CENTER
 48
0.1
100
AcDbLine
 10
185.6451855376079
 20
171.6476928068467
 30
0.0
 11
192.1451855376079
 21
171.6476928068467
 31
0.0
  0
ARC
  5
471
330
18
100
AcDbEntity
  8
1
  6
Continuous
100
AcDbCircle
 10
186.2451855376079
 20
163.0476928068465
 30
0.0
 40
3.399999999999999
100
AcDbArc
 50
229.4810821398314
 51
0.0
  0
LINE
  5
472
330
18
100
AcDbEntity
  8
1
  6
Continuous
100
AcDbLine
 10
189.6451855376079
 20
165.6476928068467
 30
0.0
 11
188.1451855376079
 21
165.6476928068467
 31
0.0
  0
ARC
  5
473
330
18
100
AcDbEntity
  8
1
  6
Continuous
100
AcDbCircle
 10
186.2451855376079
 20
163.0476928068465
 30
0.0
 40
1.9
100
AcDbArc
 50
229.4875031447383
 51
0.0
  0
LINE
  5
474
330
18
100
AcDbEntity
  8
1
  6
Continuous
100
AcDbLine
 10
188.1451855376079
 20
177.6476928068466
 30
0.0
 11
189.6451855376079
 21
177.6476928068466
 31
0.0
  0
LINE
  5
557
330
18
100
AcDbEntity
  8
1
  6
Continuous
100
AcDbLine
 10
18.34055805081684
 20
161.1159655340682
 30
0.0
 11
15.01235687346545
 21
143.1159655340682
 31
0.0
  0
LINE
  5
558
330
18
100
AcDbEntity
  8
1
  6
Continuous
100
AcDbLine
 10
21.29055454892371
 20
160.5705109886137
 30
0.0
 11
17.96235337157231
 21
142.5705109886137
 31
0.0
  0
LINE
  5
559
330
18
100
AcDbEntity
  8
1
  6
Continuous
100
AcDbLine
 10
40.55081302439915
 20
161.1159655340682
 30
0.0
 11
43.87901420175054
 21
143.1159655340682
 31
0.0
  0
LINE
  5
55A
330
18
100
AcDbEntity
  8
1
  6
Continuous
100
AcDbLine
 10
37.60081652629229
 20
160.5705109886136
 30
0.0
 11
40.92901770364367
 21
142.5705109886136
 31
0.0
  0
ARC
  5
568
330
18
100
AcDbEntity
  8
1
  6
Continuous
100
AcDbCircle
 10
18.94568553760803
 20
142.3886928067954
 30
0.0
 40
1.0
100
AcDbArc
 50
169.5243183036098
 51
270.0
  0
ARC
  5
569
330
18
100
AcDbEntity
  8
1
  6
Continuous
100
AcDbCircle
 10
18.94568553760803
 20
142.3886928067954
 30
0.0
 40
4.0
100
AcDbArc
 50
169.5243183036106
 51
270.0
  0
LINE
  5
56B
330
18
100
AcDbEntity
  8
1
  6
Continuous
100
AcDbLine
 10
18.94568553760803
 20
138.3886928067954
 30
0.0
 11
20.19568553760803
 21
138.3886928067954
 31
0.0
  0
LINE
  5
56C
330
18
100
AcDbEntity
  8
1
  6
Continuous
100
AcDbLine
 10
18.94568553760803
 20
141.3886928067954
 30
0.0
 11
20.19568553760803
 21
141.3886928067954
 31
0.0
  0
ARC
  5
57B
330
18
100
AcDbEntity
  8
1
  6
Continuous
100
AcDbCircle
 10
39.94568553760803
 20
142.3886928067954
 30
0.0
 40
1.0
100
AcDbArc
 50
270.0
 51
10.47568169639014
  0
ARC
  5
57C
330
18
100
AcDbEntity
  8
1
  6
Continuous
100
AcDbCircle
 10
39.94568553760803
 20
142.3886928067954
 30
0.0
 40
4.0
100
AcDbArc
 50
270.0
 51
10.47568169639014
  0
LINE
  5
580
330
18
100
AcDbEntity
  8
1
  6
Continuous
100
AcDbLine
 10
38.69568553760803
 20
141.3886928067954
 30
0.0
 11
39.94568553760803
 21
141.3886928067954
 31
0.0
  0
LINE
  5
581
330
18
100
AcDbEntity
  8
1
  6
Continuous
100
AcDbLine
 10
38.69568553760803
 20
138.3886928067954
 30
0.0
 11
39.94568553760803
 21
138.3886928067954
 31
0.0
  0
ARC
  5
58A
330
18
100
AcDbEntity
  8
1
  6
Continuous
100
AcDbCircle
 10
24.05578553760805
 20
150.7564368646994
 30
0.0
 40
0.9
100
AcDbArc
 50
84.999999999992
 51
180.0
  0
LINE
  5
58B
330
18
100
AcDbEntity
  8
1
  6
Continuous
100
AcDbLine
 10
22.27388671495943
 20
164.3886928067954
 30
0.0
 11
36.61748436025664
 21
164.3886928067954
 31
0.0
  0
LINE
  5
58C
330
18
100
AcDbEntity
  8
1
  6
Continuous
100
AcDbLine
 10
22.27388671495943
 20
161.3886928067954
 30
0.0
 11
36.61748436025664
 21
161.3886928067954
 31
0.0
  0
ARC
  5
594
330
18
100
AcDbEntity
  8
1
  6
Continuous
100
AcDbCircle
 10
22.27388671495943
 20
160.3886928067954
 30
0.0
 40
1.0
100
AcDbArc
 50
90.0
 51
169.5243183036098
  0
LINE
  5
59C
330
18
100
AcDbEntity
  8
1
  6
Continuous
100
AcDbLine
 10
23.15578553760804
 20
150.7564368646994
 30
0.0
 11
23.15578553760804
 21
148.8476928068467
 31
0.0
  0
ARC
  5
5A1
330
18
100
AcDbEntity
  8
1
  6
Continuous
100
AcDbCircle
 10
22.27388671495943
 20
160.3886928067954
 30
0.0
 40
4.0
100
AcDbArc
 50
90.0
 51
169.5243183036098
  0
LINE
  5
5AF
330
18
100
AcDbEntity
  8
1
  6
Continuous
100
AcDbLine
 10
24.13422570608105
 20
151.6530120929819
 30
0.0
 11
28.45974399432681
 21
151.2745782788857
 31
0.0
  0
LINE
  5
5B0
330
18
100
AcDbEntity
  8
1
  6
Continuous
100
AcDbLine
 10
24.05578553760799
 20
150.7564368646984
 30
0.0
 11
28.3813038258531
 21
150.378003050594
 31
0.0
  0
LINE
  5
5BB
330
18
100
AcDbEntity
  8
1
  6
Continuous
100
AcDbLine
 10
24.05578553760802
 20
150.7564368646985
 30
0.0
 11
24.05578553760802
 21
149.1566928068466
 31
0.0
  0
LINE
  5
5BC
330
18
100
AcDbEntity
  8
1
  6
Continuous
100
AcDbLine
 10
28.45974399432681
 20
151.2745782788857
 30
0.0
 11
28.3813038258531
 21
150.378003050594
 31
0.0
  0
ARC
  5
5D7
330
18
100
AcDbEntity
  8
1
  6
Continuous
100
AcDbCircle
 10
36.61748436025664
 20
160.3886928067954
 30
0.0
 40
1.0
100
AcDbArc
 50
10.47568169639014
 51
90.0
  0
ARC
  5
5E5
330
18
100
AcDbEntity
  8
1
  6
Continuous
100
AcDbCircle
 10
36.61748436025664
 20
160.3886928067954
 30
0.0
 40
4.0
100
AcDbArc
 50
10.47568169639014
 51
90.0
  0
LINE
  5
617
330
18
100
AcDbEntity
  8
1
  6
Continuous
100
AcDbLine
 10
25.29873580643829
 20
150.6476928068467
 30
0.0
 11
24.05578553760802
 21
150.6476928068467
 31
0.0
  0
ARC
  5
62B
330
18
100
AcDbEntity
  8
1
  6
Continuous
100
AcDbCircle
 10
136.245185537608
 20
162.8886928067954
 30
0.0
 40
1.5
100
AcDbArc
 50
358.0825530870547
 51
178.0825530870546
  0
LINE
  5
62C
330
18
100
AcDbEntity
  8
1
  6
Continuous
100
AcDbLine
 10
133.9760254271297
 20
139.9388820801106
 30
0.0
 11
134.7460254271297
 21
162.9388820800594
 31
0.0
  0
LINE
  5
62E
330
18
100
AcDbEntity
  8
1
  6
Continuous
100
AcDbLine
 10
137.7443456480862
 20
162.8385035335314
 30
0.0
 11
136.9743456480862
 21
139.8385035335826
 31
0.0
  0
LINE
  5
631
330
18
100
AcDbEntity
  8
4
  6
CENTER
100
AcDbLine
 10
290.1451855376077
 20
162.8886928067954
 30
0.0
 11
309.1451855376077
 21
162.8886928067954
 31
0.0
  0
LINE
  5
63E
330
18
100
AcDbEntity
  8
1
  6
Continuous
100
AcDbLine
 10
257.800316526292
 20
160.5705109886136
 30
0.0
 11
261.1285177036434
 21
142.5705109886136
 31
0.0
  0
LINE
  5
63F
330
18
100
AcDbEntity
  8
1
  6
Continuous
100
AcDbLine
 10
260.7503130243989
 20
161.1159655340682
 30
0.0
 11
264.0785142017502
 21
143.1159655340682
 31
0.0
  0
LINE
  5
640
330
18
100
AcDbEntity
  8
4
  6
CENTER
100
AcDbLine
 10
233.8751855376077
 20
162.8886928067954
 30
0.0
 11
265.4161855376077
 21
162.8886928067954
 31
0.0
  0
ARC
  5
641
330
18
100
AcDbEntity
  8
1
  6
Continuous
100
AcDbCircle
 10
256.8169843602563
 20
160.3886928067954
 30
0.0
 40
4.0
100
AcDbArc
 50
10.47568169639014
 51
90.0
  0
LINE
  5
642
330
18
100
AcDbEntity
  8
1
  6
Continuous
100
AcDbLine
 10
242.4733867149591
 20
164.3886928067954
 30
0.0
 11
256.8169843602563
 21
164.3886928067954
 31
0.0
  0
LINE
  5
643
330
18
100
AcDbEntity
  8
1
  6
Continuous
100
AcDbLine
 10
242.4733867149591
 20
161.3886928067954
 30
0.0
 11
256.8169843602563
 21
161.3886928067954
 31
0.0
  0
ARC
  5
644
330
18
100
AcDbEntity
  8
1
  6
Continuous
100
AcDbCircle
 10
256.8169843602563
 20
160.3886928067954
 30
0.0
 40
1.0
100
AcDbArc
 50
10.47568169639014
 51
90.0
  0
LINE
  5
645
330
18
100
AcDbEntity
  8
1
  6
Continuous
100
AcDbLine
 10
238.5400580508165
 20
161.1159655340682
 30
0.0
 11
235.2118568734651
 21
143.1159655340682
 31
0.0
  0
LINE
  5
646
330
18
100
AcDbEntity
  8
1
  6
Continuous
100
AcDbLine
 10
241.4900545489234
 20
160.5705109886137
 30
0.0
 11
238.161853371572
 21
142.5705109886137
 31
0.0
  0
ARC
  5
647
330
18
100
AcDbEntity
  8
1
  6
Continuous
100
AcDbCircle
 10
242.4733867149591
 20
160.3886928067954
 30
0.0
 40
4.0
100
AcDbArc
 50
90.0
 51
169.5243183036098
  0
ARC
  5
648
330
18
100
AcDbEntity
  8
1
  6
Continuous
100
AcDbCircle
 10
242.4733867149591
 20
160.3886928067954
 30
0.0
 40
1.0
100
AcDbArc
 50
90.0
 51
169.5243183036098
  0
LINE
  5
649
330
18
100
AcDbEntity
  8
1
  6
Continuous
100
AcDbLine
 10
239.1451855376077
 20
141.3886928067954
 30
0.0
 11
240.3951855376077
 21
141.3886928067954
 31
0.0
  0
ARC
  5
64A
330
18
100
AcDbEntity
  8
1
  6
Continuous
100
AcDbCircle
 10
239.1451855376077
 20
142.3886928067954
 30
0.0
 40
1.0
100
AcDbArc
 50
169.5243183036098
 51
270.0
  0
ARC
  5
64B
330
18
100
AcDbEntity
  8
1
  6
Continuous
100
AcDbCircle
 10
239.1451855376077
 20
142.3886928067954
 30
0.0
 40
4.0
100
AcDbArc
 50
169.5243183036106
 51
270.0
  0
LINE
  5
64C
330
18
100
AcDbEntity
  8
1
  6
Continuous
100
AcDbLine
 10
239.1451855376077
 20
138.3886928067954
 30
0.0
 11
240.3951855376077
 21
138.3886928067954
 31
0.0
  0
ARC
  5
64D
330
18
100
AcDbEntity
  8
1
  6
Continuous
100
AcDbCircle
 10
260.1451855376077
 20
142.3886928067954
 30
0.0
 40
4.0
100
AcDbArc
 50
270.0
 51
10.47568169639014
  0
LINE
  5
64E
330
18
100
AcDbEntity
  8
1
  6
Continuous
100
AcDbLine
 10
258.8951855376077
 20
141.3886928067954
 30
0.0
 11
260.1451855376077
 21
141.3886928067954
 31
0.0
  0
ARC
  5
64F
330
18
100
AcDbEntity
  8
1
  6
Continuous
100
AcDbCircle
 10
260.1451855376077
 20
142.3886928067954
 30
0.0
 40
1.0
100
AcDbArc
 50
270.0
 51
10.47568169639014
  0
LINE
  5
651
330
18
100
AcDbEntity
  8
1
  6
Continuous
100
AcDbLine
 10
260.1451855376077
 20
138.3886928067954
 30
0.0
 11
258.8951855376077
 21
138.3886928067954
 31
0.0
  0
LINE
  5
697
330
18
100
AcDbEntity
  8
1
  6
Continuous
100
AcDbLine
 10
255.0350855376077
 20
150.7564368646984
 30
0.0
 11
253.7921352687773
 21
150.6476928068467
 31
0.0
  0
LINE
  5
698
330
18
100
AcDbEntity
  8
1
  6
Continuous
100
AcDbLine
 10
254.9566453691347
 20
151.6530120929819
 30
0.0
 11
250.6311270808889
 21
151.2745782788857
 31
0.0
  0
LINE
  5
69C
330
18
100
AcDbEntity
  8
1
  6
Continuous
100
AcDbLine
 10
255.9350855376077
 20
150.7564368646994
 30
0.0
 11
255.9350855376077
 21
150.6476928068467
 31
0.0
  0
ARC
  5
69D
330
18
100
AcDbEntity
  8
1
  6
Continuous
100
AcDbCircle
 10
255.0350855376077
 20
150.7564368646994
 30
0.0
 40
0.9
100
AcDbArc
 50
0.000000000000007
 51
95.00000000000799
  0
LINE
  5
69E
330
18
100
AcDbEntity
  8
1
  6
Continuous
100
AcDbLine
 10
255.0350855376077
 20
150.7564368646985
 30
0.0
 11
255.0350855376077
 21
150.6476928068467
 31
0.0
  0
LINE
  5
6AF
330
18
100
AcDbEntity
  8
1
  6
Continuous
100
AcDbLine
 10
250.6311270808889
 20
151.2745782788857
 30
0.0
 11
250.6859724530214
 21
150.6476928068467
 31
0.0
  0
LINE
  5
711
330
18
100
AcDbEntity
  8
1
  6
Continuous
100
AcDbLine
 10
182.6140867038564
 20
163.6511832331171
 30
0.0
 11
185.0109191542228
 21
161.6031906452539
 31
0.0
  0
LINE
  5
712
330
18
100
AcDbEntity
  8
1
  6
Continuous
100
AcDbLine
 10
181.6451855376079
 20
162.5065341333765
 30
0.0
 11
184.0362086555231
 21
160.4630417405679
 31
0.0
  0
ARC
  5
E97
330
18
100
AcDbEntity
  8
1
  6
Continuous
100
AcDbCircle
 10
24.05578553760804
 20
240.9086928068467
 30
0.0
 40
0.9
100
AcDbArc
 50
90.0
 51
146.2510114041116
  0
LINE
  5
EC9
330
18
100
AcDbEntity
  8
1
  6
Continuous
100
AcDbLine
 10
28.45974399432681
 20
241.4086928068467
 30
0.0
 11
28.45974399432681
 21
241.8086928068467
 31
0.0
  0
ARC
  5
EFC
330
18
100
AcDbEntity
  8
1
  6
Continuous
100
AcDbCircle
 10
137.245185537608
 20
150.7564368646995
 30
0.0
 40
0.9
100
AcDbArc
 50
353.0601820403731
 51
81.20501188195508
  0
ARC
  5
EFD
330
18
100
AcDbEntity
  8
1
  6
Continuous
100
AcDbCircle
 10
137.245185537608
 20
150.3992546748193
 30
0.0
 40
0.9
100
AcDbArc
 50
16.02414217082062
 51
81.99610805134001
  0
ARC
  5
F79
330
18
100
AcDbEntity
  8
1
  6
Continuous
100
AcDbCircle
 10
24.05578553760804
 20
43.03799280684663
 30
0.0
 40
0.9
100
AcDbArc
 50
180.0
 51
270.0
  0
LINE
  5
FA5
330
18
100
AcDbEntity
  8
1
  6
Continuous
100
AcDbLine
 10
28.45974399432681
 20
43.03799280684674
 30
0.0
 11
28.45974399432681
 21
42.13799280684665
 31
0.0
  0
LINE
  5
FB1
330
18
100
AcDbEntity
  8
1
  6
Continuous
100
AcDbLine
 10
24.05578553760803
 20
43.03799280684674
 30
0.0
 11
24.36830330153482
 21
43.03799280684674
 31
0.0
  0
LINE
  5
FB2
330
18
100
AcDbEntity
  8
1
  6
Continuous
100
AcDbLine
 10
24.05578553760804
 20
43.30859280684671
 30
0.0
 11
24.05578553760803
 21
43.03799280684674
 31
0.0
  0
LINE
  5
FB3
330
18
100
AcDbEntity
  8
1
  6
Continuous
100
AcDbLine
 10
28.45906777368116
 20
43.03799280684674
 30
0.0
 11
28.45974399432681
 21
43.03799280684674
 31
0.0
  0
LINE
  5
FB4
330
18
100
AcDbEntity
  8
1
  6
Continuous
100
AcDbLine
 10
27.53896777368121
 20
43.03799280684672
 30
0.0
 11
28.04870330153478
 21
43.03799280684674
 31
0.0
  0
LINE
  5
FB5
330
18
100
AcDbEntity
  8
1
  6
Continuous
100
AcDbLine
 10
26.61886777368116
 20
43.03799280684672
 30
0.0
 11
27.12860330153485
 21
43.03799280684672
 31
0.0
  0
LINE
  5
FB6
330
18
100
AcDbEntity
  8
1
  6
Continuous
100
AcDbLine
 10
25.69876777368123
 20
43.03799280684671
 30
0.0
 11
26.20850330153482
 21
43.03799280684672
 31
0.0
  0
LINE
  5
FB7
330
18
100
AcDbEntity
  8
1
  6
Continuous
100
AcDbLine
 10
24.77866777368118
 20
43.03799280684672
 30
0.0
 11
25.28840330153489
 21
43.03799280684671
 31
0.0
  0
ENDSEC
  0
SECTION
  2
OBJECTS
  0
DICTIONARY
  5
C
330
0
100
AcDbDictionary
281
     1
  3
ACAD_CIP_PREVIOUS_PRODUCT_INFO
350
108C
  3
ACAD_COLOR
350
106F
  3
ACAD_DETAILVIEWSTYLE
350
1088
  3
ACAD_GROUP
350
D
  3
ACAD_LAYOUT
350
94
  3
ACAD_MATERIAL
350
103D
  3
ACAD_MLEADERSTYLE
350
1084
  3
ACAD_MLINESTYLE
350
1B
  3
ACAD_PLOTSETTINGS
350
95
  3
ACAD_PLOTSTYLENAME
350
103B
  3
ACAD_SCALELIST
350
1072
  3
ACAD_SECTIONVIEWSTYLE
350
1086
  3
ACAD_TABLESTYLE
350
1070
  3
ACAD_VISUALSTYLE
350
1056
  3
ACDB_RECOMPOSE_DATA
350
10AA
  3
AcDbVariableDictionary
350
109D
  3
CONTENTDICTIONARY
350
3D
  3
DWGPROPS
350
10AB
  0
DICTIONARY
  5
108D
330
E
100
AcDbDictionary
280
     1
281
     1
  3
ADSK_XREC_LAYER_RECONCILED
360
108E
  0
DICTIONARY
  5
108F
330
4E
100
AcDbDictionary
280
     1
281
     1
  3
ADSK_XREC_LAYER_RECONCILED
360
1090
  0
DICTIONARY
  5
1091
330
4F
100
AcDbDictionary
280
     1
281
     1
  3
ADSK_XREC_LAYER_RECONCILED
360
1092
  0
DICTIONARY
  5
1093
330
50
100
AcDbDictionary
280
     1
281
     1
  3
ADSK_XREC_LAYER_RECONCILED
360
1094
  0
DICTIONARY
  5
1095
330
51
100
AcDbDictionary
280
     1
281
     1
  3
ADSK_XREC_LAYER_RECONCILED
360
1096
  0
DICTIONARY
  5
1097
330
52
100
AcDbDictionary
280
     1
281
     1
  3
ADSK_XREC_LAYER_RECONCILED
360
1098
  0
DICTIONARY
  5
1099
330
53
100
AcDbDictionary
280
     1
281
     1
  3
ADSK_XREC_LAYER_RECONCILED
360
109A
  0
DICTIONARY
  5
109B
330
54
100
AcDbDictionary
280
     1
281
     1
  3
ADSK_XREC_LAYER_RECONCILED
360
109C
  0
DICTIONARY
  5
1036
330
18
100
AcDbDictionary
281
     1
  3
ACAD_LAYOUTSELFREF
350
1037
  0
DICTIONARY
  5
1034
330
15
100
AcDbDictionary
281
     1
  3
ACAD_LAYOUTSELFREF
350
1035
  0
XRECORD
  5
108C
102
{ACAD_REACTORS
330
C
102
}
330
C
100
AcDbXrecord
280
     1
300
ACDLT
300
2014
300
ACDLT_F_S
  0
DICTIONARY
  5
106F
102
{ACAD_REACTORS
330
C
102
}
330
C
100
AcDbDictionary
281
     1
  0
DICTIONARY
  5
1088
102
{ACAD_REACTORS
330
C
102
}
330
C
100
AcDbDictionary
281
     1
  3
Imperial24
350
1089
  0
DICTIONARY
  5
D
102
{ACAD_REACTORS
330
C
102
}
330
C
100
AcDbDictionary
281
     1
  0
DICTIONARY
  5
94
102
{ACAD_REACTORS
330
C
102
}
330
C
100
AcDbDictionary
281
     1
  3
Model
350
108A
  3
レイアウト1
350
108B
  0
DICTIONARY
  5
103D
102
{ACAD_REACTORS
330
C
102
}
330
C
100
AcDbDictionary
281
     1
  3
ByBlock
350
1046
  3
ByLayer
350
103E
  3
Global
350
104E
  0
DICTIONARY
  5
1084
102
{ACAD_REACTORS
330
C
102
}
330
C
100
AcDbDictionary
281
     1
  3
Standard
350
1085
  0
DICTIONARY
  5
1B
102
{ACAD_REACTORS
330
C
102
}
330
C
100
AcDbDictionary
281
     1
  3
STANDARD
350
1C
  0
DICTIONARY
  5
95
102
{ACAD_REACTORS
330
C
102
}
330
C
100
AcDbDictionary
281
     1
  0
ACDBDICTIONARYWDFLT
  5
103B
102
{ACAD_REACTORS
330
C
102
}
330
C
100
AcDbDictionary
281
     1
  3
Normal
350
103C
100
AcDbDictionaryWithDefault
340
103C
  0
DICTIONARY
  5
1072
102
{ACAD_REACTORS
330
C
102
}
330
C
100
AcDbDictionary
281
     1
  3
A0
350
1073
  3
A1
350
1074
  3
A2
350
1075
  3
A3
350
1076
  3
A4
350
1077
  3
A5
350
1078
  3
A6
350
1079
  3
A7
350
107A
  3
A8
350
107B
  3
A9
350
107C
  3
B0
350
107D
  3
B1
350
107E
  3
B2
350
107F
  3
B3
350
1080
  3
B4
350
1081
  3
B5
350
1082
  3
B6
350
1083
  0
DICTIONARY
  5
1086
102
{ACAD_REACTORS
330
C
102
}
330
C
100
AcDbDictionary
281
     1
  3
Imperial24
350
1087
  0
DICTIONARY
  5
1070
102
{ACAD_REACTORS
330
C
102
}
330
C
100
AcDbDictionary
281
     1
  3
Standard
350
1071
  0
DICTIONARY
  5
1056
102
{ACAD_REACTORS
330
C
102
}
330
C
100
AcDbDictionary
281
     1
  3
2dWireframe
350
105C
  3
Basic
350
105B
  3
Brighten
350
1062
  3
ColorChange
350
1066
  3
Conceptual
350
105F
  3
Dim
350
1061
  3
EdgeColorOff
350
106E
  3
Facepattern
350
1065
  3
Flat
350
1057
  3
FlatWithEdges
350
1058
  3
Gouraud
350
1059
  3
GouraudWithEdges
350
105A
  3
Hidden
350
105E
  3
JitterOff
350
106C
  3
Linepattern
350
1064
  3
OverhangOff
350
106D
  3
Realistic
350
1060
  3
Shaded
350
106B
  3
Shaded with edges
350
106A
  3
Shades of Gray
350
1067
  3
Sketchy
350
1068
  3
Thicken
350
1063
  3
Wireframe
350
105D
  3
X-Ray
350
1069
  0
XRECORD
  5
10AA
102
{ACAD_REACTORS
330
C
102
}
330
C
100
AcDbXrecord
280
     1
 90
        1
330
1071
  0
DICTIONARY
  5
109D
102
{ACAD_REACTORS
330
C
102
}
330
C
100
AcDbDictionary
281
     1
  3
CANNOSCALE
350
10A2
  3
CMLEADERSTYLE
350
109F
  3
CTABLESTYLE
350
109E
  3
CVIEWDETAILSTYLE
350
10A0
  3
CVIEWSECTIONSTYLE
350
10A1
  3
DIMASSOC
350
10A5
  3
INDEXCTL
350
10A4
  3
SORTENTS
350
10A3
  3
XCLIPFRAME
350
10A6
  0
DICTIONARY
  5
3D
102
{ACAD_REACTORS
330
C
102
}
330
C
100
AcDbDictionary
281
     1
  0
XRECORD
  5
10AB
102
{ACAD_REACTORS
330
C
102
}
330
C
100
AcDbXrecord
280
     1
  1
DWGPROPS COOKIE
  2

  3

  4

  6

  7

  8
Yoshitsune
  9

300
=
301
=
302
=
303
=
304
=
305
=
306
=
307
=
308
=
309
=
 40
0.061675775462963
 41
2455539.597063206
 42
2457192.602871887
  1

 90
        0
  0
XRECORD
  5
108E
102
{ACAD_REACTORS
330
108D
102
}
330
108D
100
AcDbXrecord
280
     1
290
     1
  0
XRECORD
  5
1090
102
{ACAD_REACTORS
330
108F
102
}
330
108F
100
AcDbXrecord
280
     1
290
     1
  0
XRECORD
  5
1092
102
{ACAD_REACTORS
330
1091
102
}
330
1091
100
AcDbXrecord
280
     1
290
     1
  0
XRECORD
  5
1094
102
{ACAD_REACTORS
330
1093
102
}
330
1093
100
AcDbXrecord
280
     1
290
     1
  0
XRECORD
  5
1096
102
{ACAD_REACTORS
330
1095
102
}
330
1095
100
AcDbXrecord
280
     1
290
     1
  0
XRECORD
  5
1098
102
{ACAD_REACTORS
330
1097
102
}
330
1097
100
AcDbXrecord
280
     1
290
     1
  0
XRECORD
  5
109A
102
{ACAD_REACTORS
330
1099
102
}
330
1099
100
AcDbXrecord
280
     1
290
     1
  0
XRECORD
  5
109C
102
{ACAD_REACTORS
330
109B
102
}
330
109B
100
AcDbXrecord
280
     1
290
     1
  0
XRECORD
  5
1037
102
{ACAD_REACTORS
330
1036
102
}
330
1036
100
AcDbXrecord
280
     1
340
18
  0
XRECORD
  5
1035
102
{ACAD_REACTORS
330
1034
102
}
330
1034
100
AcDbXrecord
280
     1
340
15
  0
ACDBDETAILVIEWSTYLE
  5
1089
102
{ACAD_XDICTIONARY
360
10E3
102
}
102
{ACAD_REACTORS
330
1088
102
}
330
1088
100
AcDbModelDocViewStyle
 70
     0
  3
Imperial24
290
     0
100
AcDbDetailViewStyle
 70
     0
 71
     0
 90
        3
 71
     1
340
F
 40
0.24
340
0
 40
0.24
300

 40
0.36
280
     3
 71
     2
340
14
 90
       25
 71
     3
340
F
 40
0.24
 90
        1
 40
0.75
 90
        1
300
%<\AcVar ViewType \f "%tc1">% %<\AcVar ViewDetailId>%\PSCALE %<\AcVar ViewScale \f "%sn">%
 71
     4
340
14
 90
       25
340
14
 90
       25
280
     0
  0
LAYOUT
  5
108A
102
{ACAD_XDICTIONARY
360
10E5
102
}
102
{ACAD_REACTORS
330
94
102
}
330
94
100
AcDbPlotSettings
  1

  2
Canon LBP9100C
  4

  6

 40
0.0
 41
0.0
 42
0.0
 43
0.0
 44
0.0
 45
0.0
 46
0.0
 47
0.0
 48
0.0
 49
0.0
140
0.0
141
0.0
142
1.0
143
1.0
 70
  1712
 72
     0
 73
     0
 74
     0
  7

 75
     0
147
1.0
148
0.0
149
0.0
100
AcDbLayout
  1
Model
 70
     1
 71
     0
 10
0.0
 20
0.0
 11
12.0
 21
9.0
 12
0.0
 22
0.0
 32
0.0
 14
0.0
 24
0.0
 34
0.0
 15
0.0
 25
0.0
 35
0.0
146
0.0
 13
0.0
 23
0.0
 33
0.0
 16
1.0
 26
0.0
 36
0.0
 17
0.0
 27
1.0
 37
0.0
 76
     0
330
18
331
1033
  0
LAYOUT
  5
108B
102
{ACAD_XDICTIONARY
360
10E7
102
}
102
{ACAD_REACTORS
330
94
102
}
330
94
100
AcDbPlotSettings
  1

  2
Canon LBP9100C
  4

  6

 40
0.0
 41
0.0
 42
0.0
 43
0.0
 44
0.0
 45
0.0
 46
0.0
 47
0.0
 48
0.0
 49
0.0
140
0.0
141
0.0
142
1.0
143
1.0
 70
   688
 72
     0
 73
     0
 74
     5
  7

 75
    16
147
1.0
148
0.0
149
0.0
100
AcDbLayout
  1
レイアウト1
 70
     1
 71
     1
 10
0.0
 20
0.0
 11
420.0
 21
297.0
 12
0.0
 22
0.0
 32
0.0
 14
1.000000000000000E+20
 24
1.000000000000000E+20
 34
1.000000000000000E+20
 15
-1.000000000000000E+20
 25
-1.000000000000000E+20
 35
-1.000000000000000E+20
146
0.0
 13
0.0
 23
0.0
 33
0.0
 16
1.0
 26
0.0
 36
0.0
 17
0.0
 27
1.0
 37
0.0
 76
     0
330
15
  0
MATERIAL
  5
1046
102
{ACAD_XDICTIONARY
360
1047
102
}
102
{ACAD_REACTORS
330
103D
102
}
330
103D
100
AcDbMaterial
  1
ByBlock
 72
     0
 43
0.0208333333333333
 43
0.0
 43
0.0
 43
0.0
 43
0.0
 43
0.0208333333333333
 43
0.0
 43
0.0
 43
0.0
 43
0.0
 43
1.0
 43
0.0
 43
0.0
 43
0.0
 43
0.0
 43
1.0
 77
     0
 47
0.0208333333333333
 47
0.0
 47
0.0
 47
0.0
 47
0.0
 47
0.0208333333333333
 47
0.0
 47
0.0
 47
0.0
 47
0.0
 47
1.0
 47
0.0
 47
0.0
 47
0.0
 47
0.0
 47
1.0
171
     0
 49
0.0208333333333333
 49
0.0
 49
0.0
 49
0.0
 49
0.0
 49
0.0208333333333333
 49
0.0
 49
0.0
 49
0.0
 49
0.0
 49
1.0
 49
0.0
 49
0.0
 49
0.0
 49
0.0
 49
1.0
175
     0
142
0.0208333333333333
142
0.0
142
0.0
142
0.0
142
0.0
142
0.0208333333333333
142
0.0
142
0.0
142
0.0
142
0.0
142
1.0
142
0.0
142
0.0
142
0.0
142
0.0
142
1.0
179
     0
144
0.0208333333333333
144
0.0
144
0.0
144
0.0
144
0.0
144
0.0208333333333333
144
0.0
144
0.0
144
0.0
144
0.0
144
1.0
144
0.0
144
0.0
144
0.0
144
0.0
144
1.0
147
0.0208333333333333
147
0.0
147
0.0
147
0.0
147
0.0
147
0.0208333333333333
147
0.0
147
0.0
147
0.0
147
0.0
147
1.0
147
0.0
147
0.0
147
0.0
147
0.0
147
1.0
  0
MATERIAL
  5
103E
102
{ACAD_XDICTIONARY
360
103F
102
}
102
{ACAD_REACTORS
330
103D
102
}
330
103D
100
AcDbMaterial
  1
ByLayer
 72
     0
 43
0.0208333333333333
 43
0.0
 43
0.0
 43
0.0
 43
0.0
 43
0.0208333333333333
 43
0.0
 43
0.0
 43
0.0
 43
0.0
 43
1.0
 43
0.0
 43
0.0
 43
0.0
 43
0.0
 43
1.0
 77
     0
 47
0.0208333333333333
 47
0.0
 47
0.0
 47
0.0
 47
0.0
 47
0.0208333333333333
 47
0.0
 47
0.0
 47
0.0
 47
0.0
 47
1.0
 47
0.0
 47
0.0
 47
0.0
 47
0.0
 47
1.0
171
     0
 49
0.0208333333333333
 49
0.0
 49
0.0
 49
0.0
 49
0.0
 49
0.0208333333333333
 49
0.0
 49
0.0
 49
0.0
 49
0.0
 49
1.0
 49
0.0
 49
0.0
 49
0.0
 49
0.0
 49
1.0
175
     0
142
0.0208333333333333
142
0.0
142
0.0
142
0.0
142
0.0
142
0.0208333333333333
142
0.0
142
0.0
142
0.0
142
0.0
142
1.0
142
0.0
142
0.0
142
0.0
142
0.0
142
1.0
179
     0
144
0.0208333333333333
144
0.0
144
0.0
144
0.0
144
0.0
144
0.0208333333333333
144
0.0
144
0.0
144
0.0
144
0.0
144
1.0
144
0.0
144
0.0
144
0.0
144
0.0
144
1.0
147
0.0208333333333333
147
0.0
147
0.0
147
0.0
147
0.0
147
0.0208333333333333
147
0.0
147
0.0
147
0.0
147
0.0
147
1.0
147
0.0
147
0.0
147
0.0
147
0.0
147
1.0
  0
MATERIAL
  5
104E
102
{ACAD_XDICTIONARY
360
104F
102
}
102
{ACAD_REACTORS
330
103D
102
}
330
103D
100
AcDbMaterial
  1
Global
 72
     0
 43
0.0208333333333333
 43
0.0
 43
0.0
 43
0.0
 43
0.0
 43
0.0208333333333333
 43
0.0
 43
0.0
 43
0.0
 43
0.0
 43
1.0
 43
0.0
 43
0.0
 43
0.0
 43
0.0
 43
1.0
 77
     0
 47
0.0208333333333333
 47
0.0
 47
0.0
 47
0.0
 47
0.0
 47
0.0208333333333333
 47
0.0
 47
0.0
 47
0.0
 47
0.0
 47
1.0
 47
0.0
 47
0.0
 47
0.0
 47
0.0
 47
1.0
171
     0
 49
0.0208333333333333
 49
0.0
 49
0.0
 49
0.0
 49
0.0
 49
0.0208333333333333
 49
0.0
 49
0.0
 49
0.0
 49
0.0
 49
1.0
 49
0.0
 49
0.0
 49
0.0
 49
0.0
 49
1.0
175
     0
142
0.0208333333333333
142
0.0
142
0.0
142
0.0
142
0.0
142
0.0208333333333333
142
0.0
142
0.0
142
0.0
142
0.0
142
1.0
142
0.0
142
0.0
142
0.0
142
0.0
142
1.0
179
     0
144
0.0208333333333333
144
0.0
144
0.0
144
0.0
144
0.0
144
0.0208333333333333
144
0.0
144
0.0
144
0.0
144
0.0
144
1.0
144
0.0
144
0.0
144
0.0
144
0.0
144
1.0
147
0.0208333333333333
147
0.0
147
0.0
147
0.0
147
0.0
147
0.0208333333333333
147
0.0
147
0.0
147
0.0
147
0.0
147
1.0
147
0.0
147
0.0
147
0.0
147
0.0
147
1.0
  0
MLEADERSTYLE
  5
1085
102
{ACAD_REACTORS
330
1084
102
}
330
1084
100
AcDbMLeaderStyle
170
     2
171
     1
172
     0
 90
        2
 40
0.0
 41
0.0
173
     1
 91
-1056964608
340
12
 92
       -2
290
     1
 42
0.09
291
     1
 43
0.36
  3
Standard
 44
0.18
300

342
F
174
     1
178
     6
175
     1
176
     0
 93
-1056964608
 45
0.18
292
     0
297
     0
 46
0.18
 94
-1056964608
 47
1.0
 49
1.0
140
1.0
293
     1
141
0.0
294
     1
177
     0
142
1.0
295
     0
296
     0
143
0.125
1001
ACAD_MLEADERVER
1070
     2
  0
MLINESTYLE
  5
1C
102
{ACAD_REACTORS
330
1B
102
}
330
1B
100
AcDbMlineStyle
  2
STANDARD
 70
     0
  3

 62
   256
 51
90.0
 52
90.0
 71
     2
 49
0.5
 62
   256
  6
BYLAYER
 49
-0.5
 62
   256
  6
BYLAYER
  0
ACDBPLACEHOLDER
  5
103C
102
{ACAD_REACTORS
330
103B
102
}
330
103B
  0
SCALE
  5
1073
102
{ACAD_REACTORS
330
1072
102
}
330
1072
100
AcDbScale
 70
     0
300
1:1
140
1.0
141
1.0
290
     1
  0
SCALE
  5
1074
102
{ACAD_REACTORS
330
1072
102
}
330
1072
100
AcDbScale
 70
     0
300
1/128" = 1'-0"
140
0.0078125
141
12.0
290
     0
  0
SCALE
  5
1075
102
{ACAD_REACTORS
330
1072
102
}
330
1072
100
AcDbScale
 70
     0
300
1/64" = 1'-0"
140
0.015625
141
12.0
290
     0
  0
SCALE
  5
1076
102
{ACAD_REACTORS
330
1072
102
}
330
1072
100
AcDbScale
 70
     0
300
1/32" = 1'-0"
140
0.03125
141
12.0
290
     0
  0
SCALE
  5
1077
102
{ACAD_REACTORS
330
1072
102
}
330
1072
100
AcDbScale
 70
     0
300
1/16" = 1'-0"
140
0.0625
141
12.0
290
     0
  0
SCALE
  5
1078
102
{ACAD_REACTORS
330
1072
102
}
330
1072
100
AcDbScale
 70
     0
300
3/32" = 1'-0"
140
0.09375
141
12.0
290
     0
  0
SCALE
  5
1079
102
{ACAD_REACTORS
330
1072
102
}
330
1072
100
AcDbScale
 70
     0
300
1/8" = 1'-0"
140
0.125
141
12.0
290
     0
  0
SCALE
  5
107A
102
{ACAD_REACTORS
330
1072
102
}
330
1072
100
AcDbScale
 70
     0
300
3/16" = 1'-0"
140
0.1875
141
12.0
290
     0
  0
SCALE
  5
107B
102
{ACAD_REACTORS
330
1072
102
}
330
1072
100
AcDbScale
 70
     0
300
1/4" = 1'-0"
140
0.25
141
12.0
290
     0
  0
SCALE
  5
107C
102
{ACAD_REACTORS
330
1072
102
}
330
1072
100
AcDbScale
 70
     0
300
3/8" = 1'-0"
140
0.375
141
12.0
290
     0
  0
SCALE
  5
107D
102
{ACAD_REACTORS
330
1072
102
}
330
1072
100
AcDbScale
 70
     0
300
1/2" = 1'-0"
140
0.5
141
12.0
290
     0
  0
SCALE
  5
107E
102
{ACAD_REACTORS
330
1072
102
}
330
1072
100
AcDbScale
 70
     0
300
3/4" = 1'-0"
140
0.75
141
12.0
290
     0
  0
SCALE
  5
107F
102
{ACAD_REACTORS
330
1072
102
}
330
1072
100
AcDbScale
 70
     0
300
1" = 1'-0"
140
1.0
141
12.0
290
     0
  0
SCALE
  5
1080
102
{ACAD_REACTORS
330
1072
102
}
330
1072
100
AcDbScale
 70
     0
300
1-1/2" = 1'-0"
140
1.5
141
12.0
290
     0
  0
SCALE
  5
1081
102
{ACAD_REACTORS
330
1072
102
}
330
1072
100
AcDbScale
 70
     0
300
3" = 1'-0"
140
3.0
141
12.0
290
     0
  0
SCALE
  5
1082
102
{ACAD_REACTORS
330
1072
102
}
330
1072
100
AcDbScale
 70
     0
300
6" = 1'-0"
140
6.0
141
12.0
290
     0
  0
SCALE
  5
1083
102
{ACAD_REACTORS
330
1072
102
}
330
1072
100
AcDbScale
 70
     0
300
1'-0" = 1'-0"
140
12.0
141
12.0
290
     0
  0
ACDBSECTIONVIEWSTYLE
  5
1087
102
{ACAD_XDICTIONARY
360
10E1
102
}
102
{ACAD_REACTORS
330
1086
102
}
330
1086
100
AcDbModelDocViewStyle
 70
     0
  3
Imperial24
290
     0
100
AcDbSectionViewStyle
 70
     0
 71
     0
 90
       78
 71
     1
340
F
 40
0.24
340
0
340
0
 40
0.24
300
I, O, Q, S, X, Z
 40
0.48
 90
        3
 40
0.18
 90
        1
 71
     2
340
14
 90
       25
340
14
 90
       50
 40
0.24
 40
0.0
 40
0.24
 71
     3
340
F
 40
0.24
 90
        1
 40
0.75
 90
        1
300
%<\AcVar ViewType \f "%tc1">% %<\AcVar ViewSectionStartId>%-%<\AcVar ViewSectionEndId>%\PSCALE %<\AcVar ViewScale \f "%sn">%
 71
     4
300
ANSI31
 40
1.0
 90
        0
290
     0
290
     0
 90
        6
 40
0.0
 40
1.570796326794896
 40
0.2617993877991494
 40
1.308996938995747
 40
-0.2617993877991494
 40
1.832595714594046
  0
TABLESTYLE
  5
1071
102
{ACAD_XDICTIONARY
360
10A8
102
}
102
{ACAD_REACTORS
330
1070
102
}
330
1070
100
AcDbTableStyle
  3
Standard
 70
     0
 71
     0
 40
0.06
 41
0.06
280
     0
281
     0
  7
STANDARD
140
0.18
170
     2
 62
     0
 63
     7
283
     0
274
    -2
284
     1
 64
     0
275
    -2
285
     1
 65
     0
276
    -2
286
     1
 66
     0
277
    -2
287
     1
 67
     0
278
    -2
288
     1
 68
     0
279
    -2
289
     1
 69
     0
  7
STANDARD
140
0.25
170
     5
 62
     0
 63
     7
283
     0
274
    -2
284
     1
 64
     0
275
    -2
285
     1
 65
     0
276
    -2
286
     1
 66
     0
277
    -2
287
     1
 67
     0
278
    -2
288
     1
 68
     0
279
    -2
289
     1
 69
     0
  7
STANDARD
140
0.18
170
     5
 62
     0
 63
     7
283
     0
274
    -2
284
     1
 64
     0
275
    -2
285
     1
 65
     0
276
    -2
286
     1
 66
     0
277
    -2
287
     1
 67
     0
278
    -2
288
     1
 68
     0
279
    -2
289
     1
 69
     0
  0
VISUALSTYLE
  5
105C
102
{ACAD_XDICTIONARY
360
10B9
102
}
102
{ACAD_REACTORS
330
1056
102
}
330
1056
100
AcDbVisualStyle
  2
2dWireframe
 70
     4
 71
     0
 72
     2
 73
     0
 90
        0
 40
-0.6
 41
-30.0
 62
     5
 63
     7
 74
     1
 91
        4
 64
     7
 65
   257
 75
     1
175
     1
 42
1.0
 92
        0
 66
   257
 43
1.0
 76
     1
 77
     6
 78
     2
 67
     7
 79
     5
170
     0
171
     0
290
     0
174
     0
 93
        1
 44
0.0
173
     0
291
     0
 45
0.0
1001
ACAD
1000
AcDbSavedByObjectVersion
1070
     0
  0
VISUALSTYLE
  5
105B
102
{ACAD_XDICTIONARY
360
10B7
102
}
102
{ACAD_REACTORS
330
1056
102
}
330
1056
100
AcDbVisualStyle
  2
Basic
 70
     7
 71
     1
 72
     0
 73
     1
 90
        0
 40
-0.6
 41
-30.0
 62
     5
 63
     7
 74
     0
 91
        4
 64
     7
 65
   257
 75
     1
175
     1
 42
1.0
 92
        8
 66
     7
 43
1.0
 76
     1
 77
     6
 78
     2
 67
     7
 79
     5
170
     0
171
     0
290
     0
174
     0
 93
        1
 44
0.0
173
     0
291
     1
 45
0.0
1001
ACAD
1000
AcDbSavedByObjectVersion
1070
     0
  0
VISUALSTYLE
  5
1062
102
{ACAD_XDICTIONARY
360
10C5
102
}
102
{ACAD_REACTORS
330
1056
102
}
330
1056
100
AcDbVisualStyle
  2
Brighten
 70
    12
 71
     2
 72
     2
 73
     0
 90
        0
 40
-0.6
 41
-30.0
 62
     5
 63
     7
 74
     1
 91
        4
 64
     7
 65
   257
 75
     1
175
     1
 42
1.0
 92
        8
 66
     7
 43
1.0
 76
     1
 77
     6
 78
     2
 67
     7
 79
     5
170
     0
171
     0
290
     0
174
     0
 93
        1
 44
50.0
173
     0
291
     1
 45
0.0
1001
ACAD
1000
AcDbSavedByObjectVersion
1070
     0
  0
VISUALSTYLE
  5
1066
102
{ACAD_XDICTIONARY
360
10CD
102
}
102
{ACAD_REACTORS
330
1056
102
}
330
1056
100
AcDbVisualStyle
  2
ColorChange
 70
    16
 71
     2
 72
     2
 73
     3
 90
        0
 40
-0.6
 41
-30.0
 62
     5
 63
     8
 74
     1
 91
        4
 64
     7
 65
   257
 75
     1
175
     1
 42
1.0
 92
        8
 66
     8
 43
1.0
 76
     1
 77
     6
 78
     2
 67
     7
 79
     5
170
     0
171
     0
290
     0
174
     0
 93
        1
 44
0.0
173
     0
291
     1
 45
0.0
1001
ACAD
1000
AcDbSavedByObjectVersion
1070
     0
  0
VISUALSTYLE
  5
105F
102
{ACAD_XDICTIONARY
360
10BF
102
}
102
{ACAD_REACTORS
330
1056
102
}
330
1056
100
AcDbVisualStyle
  2
Conceptual
 70
     9
 71
     3
 72
     2
 73
     0
 90
        0
 40
-0.6
 41
-30.0
 62
     5
 63
     7
 74
     2
 91
        2
 64
     7
 65
   257
 75
     1
175
     1
 42
179.0
 92
        8
 66
     7
 43
1.0
 76
     1
 77
     6
 78
     2
 67
     7
 79
     3
170
     0
171
     0
290
     0
174
     0
 93
        1
 44
0.0
173
     0
291
     0
 45
0.0
1001
ACAD
1000
AcDbSavedByObjectVersion
1070
     0
  0
VISUALSTYLE
  5
1061
102
{ACAD_XDICTIONARY
360
10C3
102
}
102
{ACAD_REACTORS
330
1056
102
}
330
1056
100
AcDbVisualStyle
  2
Dim
 70
    11
 71
     2
 72
     2
 73
     0
 90
        0
 40
-0.6
 41
-30.0
 62
     5
 63
     7
 74
     1
 91
        4
 64
     7
 65
   257
 75
     1
175
     1
 42
1.0
 92
        8
 66
     7
 43
1.0
 76
     1
 77
     6
 78
     2
 67
     7
 79
     5
170
     0
171
     0
290
     0
174
     0
 93
        1
 44
-50.0
173
     0
291
     1
 45
0.0
1001
ACAD
1000
AcDbSavedByObjectVersion
1070
     0
  0
VISUALSTYLE
  5
106E
102
{ACAD_XDICTIONARY
360
10DD
102
}
102
{ACAD_REACTORS
330
1056
102
}
330
1056
100
AcDbVisualStyle
  2
EdgeColorOff
 70
    22
 71
     2
 72
     2
 73
     0
 90
        0
 40
-0.6
 41
-30.0
 62
     5
 63
     7
 74
     1
 91
        4
 64
     7
 65
   257
 75
     1
175
     1
 42
1.0
 92
        8
 66
     7
 43
1.0
 76
     1
 77
     6
 78
     2
 67
     7
 79
     5
170
     0
171
     0
290
     0
174
     0
 93
        1
 44
0.0
173
     0
291
     1
 45
0.0
1001
ACAD
1000
AcDbSavedByObjectVersion
1070
     0
  0
VISUALSTYLE
  5
1065
102
{ACAD_XDICTIONARY
360
10CB
102
}
102
{ACAD_REACTORS
330
1056
102
}
330
1056
100
AcDbVisualStyle
  2
Facepattern
 70
    15
 71
     2
 72
     2
 73
     0
 90
        0
 40
-0.6
 41
-30.0
 62
     5
 63
     7
 74
     1
 91
        4
 64
     7
 65
   257
 75
     1
175
     1
 42
1.0
 92
        8
 66
     7
 43
1.0
 76
     1
 77
     6
 78
     2
 67
     7
 79
     5
170
     0
171
     0
290
     0
174
     0
 93
        1
 44
0.0
173
     0
291
     1
 45
0.0
1001
ACAD
1000
AcDbSavedByObjectVersion
1070
     0
  0
VISUALSTYLE
  5
1057
102
{ACAD_XDICTIONARY
360
10AF
102
}
102
{ACAD_REACTORS
330
1056
102
}
330
1056
100
AcDbVisualStyle
  2
Flat
 70
     0
 71
     2
 72
     1
 73
     1
 90
        2
 40
-0.6
 41
30.0
 62
     5
 63
     7
 74
     0
 91
        0
 64
     7
 65
   257
 75
     1
175
     1
 42
1.0
 92
        8
 66
     7
 43
1.0
 76
     1
 77
     6
 78
     2
 67
     7
 79
     5
170
     0
171
     0
290
     0
174
     0
 93
       13
 44
0.0
173
     0
291
     1
 45
0.0
1001
ACAD
1000
AcDbSavedByObjectVersion
1070
     0
  0
VISUALSTYLE
  5
1058
102
{ACAD_XDICTIONARY
360
10B1
102
}
102
{ACAD_REACTORS
330
1056
102
}
330
1056
100
AcDbVisualStyle
  2
FlatWithEdges
 70
     1
 71
     2
 72
     1
 73
     1
 90
        2
 40
-0.6
 41
30.0
 62
     5
 63
     7
 74
     1
 91
        0
 64
     7
 65
   257
 75
     1
175
     1
 42
1.0
 92
        0
 66
   257
 43
1.0
 76
     1
 77
     6
 78
     2
 67
     7
 79
     5
170
     0
171
     0
290
     0
174
     0
 93
       13
 44
0.0
173
     0
291
     1
 45
0.0
1001
ACAD
1000
AcDbSavedByObjectVersion
1070
     0
  0
VISUALSTYLE
  5
1059
102
{ACAD_XDICTIONARY
360
10B3
102
}
102
{ACAD_REACTORS
330
1056
102
}
330
1056
100
AcDbVisualStyle
  2
Gouraud
 70
     2
 71
     2
 72
     2
 73
     1
 90
        2
 40
-0.6
 41
30.0
 62
     5
 63
     7
 74
     0
 91
        0
 64
     7
 65
   257
 75
     1
175
     1
 42
1.0
 92
        0
 66
     7
 43
1.0
 76
     1
 77
     6
 78
     2
 67
     7
 79
     5
170
     0
171
     0
290
     0
174
     0
 93
       13
 44
0.0
173
     0
291
     1
 45
0.0
1001
ACAD
1000
AcDbSavedByObjectVersion
1070
     0
  0
VISUALSTYLE
  5
105A
102
{ACAD_XDICTIONARY
360
10B5
102
}
102
{ACAD_REACTORS
330
1056
102
}
330
1056
100
AcDbVisualStyle
  2
GouraudWithEdges
 70
     3
 71
     2
 72
     2
 73
     1
 90
        2
 40
-0.6
 41
30.0
 62
     5
 63
     7
 74
     1
 91
        0
 64
     7
 65
   257
 75
     1
175
     1
 42
1.0
 92
        0
 66
   257
 43
1.0
 76
     1
 77
     6
 78
     2
 67
     7
 79
     5
170
     0
171
     0
290
     0
174
     0
 93
       13
 44
0.0
173
     0
291
     1
 45
0.0
1001
ACAD
1000
AcDbSavedByObjectVersion
1070
     0
  0
VISUALSTYLE
  5
105E
102
{ACAD_XDICTIONARY
360
10BD
102
}
102
{ACAD_REACTORS
330
1056
102
}
330
1056
100
AcDbVisualStyle
  2
Hidden
 70
     6
 71
     1
 72
     2
 73
     2
 90
        0
 40
-0.6
 41
-30.0
 62
     5
 63
     7
 74
     2
 91
        2
 64
     7
 65
   257
 75
     2
175
     1
 42
40.0
 92
        0
 66
   257
 43
1.0
 76
     1
 77
     6
 78
     2
 67
     7
 79
     3
170
     0
171
     0
290
     0
174
     0
 93
        1
 44
0.0
173
     0
291
     0
 45
0.0
1001
ACAD
1000
AcDbSavedByObjectVersion
1070
     0
  0
VISUALSTYLE
  5
106C
102
{ACAD_XDICTIONARY
360
10D9
102
}
102
{ACAD_REACTORS
330
1056
102
}
330
1056
100
AcDbVisualStyle
  2
JitterOff
 70
    20
 71
     2
 72
     2
 73
     0
 90
        0
 40
-0.6
 41
-30.0
 62
     5
 63
     7
 74
     1
 91
        4
 64
     7
 65
   257
 75
     1
175
     1
 42
1.0
 92
       10
 66
     7
 43
1.0
 76
     1
 77
     6
 78
     2
 67
     7
 79
     5
170
     0
171
     0
290
     0
174
     0
 93
        1
 44
0.0
173
     0
291
     1
 45
0.0
1001
ACAD
1000
AcDbSavedByObjectVersion
1070
     0
  0
VISUALSTYLE
  5
1064
102
{ACAD_XDICTIONARY
360
10C9
102
}
102
{ACAD_REACTORS
330
1056
102
}
330
1056
100
AcDbVisualStyle
  2
Linepattern
 70
    14
 71
     2
 72
     2
 73
     0
 90
        0
 40
-0.6
 41
-30.0
 62
     5
 63
     7
 74
     1
 91
        4
 64
     7
 65
   257
 75
     7
175
     7
 42
1.0
 92
        8
 66
     7
 43
1.0
 76
     1
 77
     6
 78
     2
 67
     7
 79
     5
170
     0
171
     0
290
     0
174
     0
 93
        1
 44
0.0
173
     0
291
     1
 45
0.0
1001
ACAD
1000
AcDbSavedByObjectVersion
1070
     0
  0
VISUALSTYLE
  5
106D
102
{ACAD_XDICTIONARY
360
10DB
102
}
102
{ACAD_REACTORS
330
1056
102
}
330
1056
100
AcDbVisualStyle
  2
OverhangOff
 70
    21
 71
     2
 72
     2
 73
     0
 90
        0
 40
-0.6
 41
-30.0
 62
     5
 63
     7
 74
     1
 91
        4
 64
     7
 65
   257
 75
     1
175
     1
 42
1.0
 92
        9
 66
     7
 43
1.0
 76
     1
 77
     6
 78
     2
 67
     7
 79
     5
170
     0
171
     0
290
     0
174
     0
 93
        1
 44
0.0
173
     0
291
     1
 45
0.0
1001
ACAD
1000
AcDbSavedByObjectVersion
1070
     0
  0
VISUALSTYLE
  5
1060
102
{ACAD_XDICTIONARY
360
10C1
102
}
102
{ACAD_REACTORS
330
1056
102
}
330
1056
100
AcDbVisualStyle
  2
Realistic
 70
     8
 71
     2
 72
     3
 73
     0
 90
        2
 40
-0.6
 41
30.0
 62
     5
 63
     7
 74
     0
 91
        0
 64
     7
 65
   257
 75
     1
175
     1
 42
1.0
 92
        8
 66
   257
 43
1.0
 76
     1
 77
     6
 78
     2
 67
     7
 79
     3
170
     0
171
     0
290
     0
174
     0
 93
       13
 44
0.0
173
     0
291
     0
 45
0.0
1001
ACAD
1000
AcDbSavedByObjectVersion
1070
     0
  0
VISUALSTYLE
  5
106B
102
{ACAD_XDICTIONARY
360
10D7
102
}
102
{ACAD_REACTORS
330
1056
102
}
330
1056
100
AcDbVisualStyle
  2
Shaded
 70
    27
 71
     2
 72
     2
 73
     1
 90
        2
 40
-0.6
 41
30.0
 62
     5
 63
     7
 74
     0
 91
        4
 64
     7
 65
   257
 75
     1
175
     1
 42
1.0
 92
        8
 66
   257
 43
1.0
 76
     1
 77
     6
 78
     2
 67
     8
 79
     3
170
     0
171
     0
290
     0
174
     0
 93
        5
 44
0.0
173
     0
291
     0
 45
0.0
1001
ACAD
1000
AcDbSavedByObjectVersion
1070
     0
  0
VISUALSTYLE
  5
106A
102
{ACAD_XDICTIONARY
360
10D5
102
}
102
{ACAD_REACTORS
330
1056
102
}
330
1056
100
AcDbVisualStyle
  2
Shaded with edges
 70
    26
 71
     2
 72
     2
 73
     1
 90
        2
 40
-0.6
 41
30.0
 62
     5
 63
     7
 74
     1
 91
       10
 64
     7
 65
   257
 75
     2
175
     1
 42
1.0
 92
        8
 66
   257
 43
1.0
 76
     1
 77
     6
 78
     2
 67
     7
 79
     3
170
     0
171
     0
290
     0
174
     0
 93
        5
 44
0.0
173
     0
291
     0
 45
0.0
1001
ACAD
1000
AcDbSavedByObjectVersion
1070
     0
  0
VISUALSTYLE
  5
1067
102
{ACAD_XDICTIONARY
360
10CF
102
}
102
{ACAD_REACTORS
330
1056
102
}
330
1056
100
AcDbVisualStyle
  2
Shades of Gray
 70
    23
 71
     2
 72
     2
 73
     3
 90
        0
 40
-0.6
 41
-30.0
 62
     5
 63
     7
 74
     2
 91
        2
 64
     7
 65
     7
 75
     1
175
     1
 42
40.0
 92
        8
 66
     7
 43
1.0
 76
     1
 77
     6
 78
     2
 67
     7
 79
     3
170
     0
171
     0
290
     0
174
     0
 93
        1
 44
0.0
173
     0
291
     0
 45
0.0
1001
ACAD
1000
AcDbSavedByObjectVersion
1070
     0
  0
VISUALSTYLE
  5
1068
102
{ACAD_XDICTIONARY
360
10D1
102
}
102
{ACAD_REACTORS
330
1056
102
}
330
1056
100
AcDbVisualStyle
  2
Sketchy
 70
    24
 71
     1
 72
     2
 73
     2
 90
        0
 40
-0.6
 41
-30.0
 62
     5
 63
     7
 74
     2
 91
        2
 64
     7
 65
     7
 75
     1
175
     1
 42
40.0
 92
       11
 66
     7
 43
1.0
 76
     1
 77
     6
 78
     2
 67
     7
 79
     6
170
     0
171
     0
290
     0
174
     0
 93
        1
 44
0.0
173
     0
291
     0
 45
0.0
1001
ACAD
1000
AcDbSavedByObjectVersion
1070
     0
  0
VISUALSTYLE
  5
1063
102
{ACAD_XDICTIONARY
360
10C7
102
}
102
{ACAD_REACTORS
330
1056
102
}
330
1056
100
AcDbVisualStyle
  2
Thicken
 70
    13
 71
     2
 72
     2
 73
     0
 90
        0
 40
-0.6
 41
-30.0
 62
     5
 63
     7
 74
     1
 91
        4
 64
     7
 65
   257
 75
     1
175
     1
 42
1.0
 92
       12
 66
     7
 43
1.0
 76
     1
 77
     6
 78
     2
 67
     7
 79
     5
170
     0
171
     0
290
     0
174
     0
 93
        1
 44
0.0
173
     0
291
     1
 45
0.0
1001
ACAD
1000
AcDbSavedByObjectVersion
1070
     0
  0
VISUALSTYLE
  5
105D
102
{ACAD_XDICTIONARY
360
10BB
102
}
102
{ACAD_REACTORS
330
1056
102
}
330
1056
100
AcDbVisualStyle
  2
Wireframe
 70
     5
 71
     0
 72
     2
 73
     0
 90
        0
 40
-0.6
 41
-30.0
 62
     5
 63
     7
 74
     1
 91
        4
 64
     7
 65
   257
 75
     1
175
     1
 42
1.0
 92
        0
 66
   257
 43
1.0
 76
     1
 77
     6
 78
     2
 67
     7
 79
     3
170
     0
171
     0
290
     0
174
     0
 93
        1
 44
0.0
173
     0
291
     0
 45
0.0
1001
ACAD
1000
AcDbSavedByObjectVersion
1070
     0
  0
VISUALSTYLE
  5
1069
102
{ACAD_XDICTIONARY
360
10D3
102
}
102
{ACAD_REACTORS
330
1056
102
}
330
1056
100
AcDbVisualStyle
  2
X-Ray
 70
    25
 71
     2
 72
     2
 73
     1
 90
        1
 40
0.5
 41
-30.0
 62
     5
 63
     7
 74
     1
 91
        0
 64
     7
 65
   257
 75
     1
175
     1
 42
1.0
 92
        8
 66
     7
 43
1.0
 76
     1
 77
     6
 78
     2
 67
     7
 79
     3
170
     0
171
     0
290
     0
174
     0
 93
       13
 44
0.0
173
     0
291
     0
 45
0.0
1001
ACAD
1000
AcDbSavedByObjectVersion
1070
     0
  0
DICTIONARYVAR
  5
10A2
102
{ACAD_REACTORS
330
109D
102
}
330
109D
100
DictionaryVariables
280
     0
  1
1:1
  0
DICTIONARYVAR
  5
109F
102
{ACAD_REACTORS
330
109D
102
}
330
109D
100
DictionaryVariables
280
     0
  1
STANDARD
  0
DICTIONARYVAR
  5
109E
102
{ACAD_REACTORS
330
109D
102
}
330
109D
100
DictionaryVariables
280
     0
  1
STANDARD
  0
DICTIONARYVAR
  5
10A0
102
{ACAD_REACTORS
330
109D
102
}
330
109D
100
DictionaryVariables
280
     0
  1
Imperial24
  0
DICTIONARYVAR
  5
10A1
102
{ACAD_REACTORS
330
109D
102
}
330
109D
100
DictionaryVariables
280
     0
  1
Imperial24
  0
DICTIONARYVAR
  5
10A5
102
{ACAD_REACTORS
330
109D
102
}
330
109D
100
DictionaryVariables
280
     0
  1
1
  0
DICTIONARYVAR
  5
10A4
102
{ACAD_REACTORS
330
109D
102
}
330
109D
100
DictionaryVariables
280
     0
  1
0
  0
DICTIONARYVAR
  5
10A3
102
{ACAD_REACTORS
330
109D
102
}
330
109D
100
DictionaryVariables
280
     0
  1
127
  0
DICTIONARYVAR
  5
10A6
102
{ACAD_REACTORS
330
109D
102
}
330
109D
100
DictionaryVariables
280
     0
  1
2
  0
DICTIONARY
  5
10E3
330
1089
100
AcDbDictionary
280
     1
281
     1
  3
ACAD_XREC_ROUNDTRIP
360
10E4
  0
DICTIONARY
  5
10E5
330
108A
100
AcDbDictionary
280
     1
281
     1
  3
ACAD_XREC_ROUNDTRIP
360
10E6
  0
DICTIONARY
  5
10E7
330
108B
100
AcDbDictionary
280
     1
281
     1
  3
ACAD_XREC_ROUNDTRIP
360
10E8
  0
DICTIONARY
  5
1047
330
1046
100
AcDbDictionary
280
     1
281
     1
  3
ACAD_XREC_ROUNDTRIP
360
10AD
  3
BUMPTILE
360
1049
  3
DIFFUSETILE
360
1048
  3
OPACITYTILE
360
104C
  3
REFLECTIONTILE
360
104B
  3
REFRACTIONTILE
360
104D
  3
SPECULARTILE
360
104A
  0
DICTIONARY
  5
103F
330
103E
100
AcDbDictionary
280
     1
281
     1
  3
ACAD_XREC_ROUNDTRIP
360
10AC
  3
BUMPTILE
360
1041
  3
DIFFUSETILE
360
1040
  3
OPACITYTILE
360
1044
  3
REFLECTIONTILE
360
1043
  3
REFRACTIONTILE
360
1045
  3
SPECULARTILE
360
1042
  0
DICTIONARY
  5
104F
330
104E
100
AcDbDictionary
280
     1
281
     1
  3
ACAD_XREC_ROUNDTRIP
360
10AE
  3
BUMPTILE
360
1051
  3
DIFFUSETILE
360
1050
  3
OPACITYTILE
360
1054
  3
REFLECTIONTILE
360
1053
  3
REFRACTIONTILE
360
1055
  3
SPECULARTILE
360
1052
  0
DICTIONARY
  5
10E1
330
1087
100
AcDbDictionary
280
     1
281
     1
  3
ACAD_XREC_ROUNDTRIP
360
10E2
  0
DICTIONARY
  5
10A8
330
1071
100
AcDbDictionary
280
     1
281
     1
  3
ACAD_ROUNDTRIP_2008_TABLESTYLE_CELLSTYLEMAP
360
10A9
  3
ACAD_XREC_ROUNDTRIP
360
10DF
  0
DICTIONARY
  5
10B9
330
105C
100
AcDbDictionary
280
     1
281
     1
  3
ACAD_XREC_ROUNDTRIP
360
10BA
  0
DICTIONARY
  5
10B7
330
105B
100
AcDbDictionary
280
     1
281
     1
  3
ACAD_XREC_ROUNDTRIP
360
10B8
  0
DICTIONARY
  5
10C5
330
1062
100
AcDbDictionary
280
     1
281
     1
  3
ACAD_XREC_ROUNDTRIP
360
10C6
  0
DICTIONARY
  5
10CD
330
1066
100
AcDbDictionary
280
     1
281
     1
  3
ACAD_XREC_ROUNDTRIP
360
10CE
  0
DICTIONARY
  5
10BF
330
105F
100
AcDbDictionary
280
     1
281
     1
  3
ACAD_XREC_ROUNDTRIP
360
10C0
  0
DICTIONARY
  5
10C3
330
1061
100
AcDbDictionary
280
     1
281
     1
  3
ACAD_XREC_ROUNDTRIP
360
10C4
  0
DICTIONARY
  5
10DD
330
106E
100
AcDbDictionary
280
     1
281
     1
  3
ACAD_XREC_ROUNDTRIP
360
10DE
  0
DICTIONARY
  5
10CB
330
1065
100
AcDbDictionary
280
     1
281
     1
  3
ACAD_XREC_ROUNDTRIP
360
10CC
  0
DICTIONARY
  5
10AF
330
1057
100
AcDbDictionary
280
     1
281
     1
  3
ACAD_XREC_ROUNDTRIP
360
10B0
  0
DICTIONARY
  5
10B1
330
1058
100
AcDbDictionary
280
     1
281
     1
  3
ACAD_XREC_ROUNDTRIP
360
10B2
  0
DICTIONARY
  5
10B3
330
1059
100
AcDbDictionary
280
     1
281
     1
  3
ACAD_XREC_ROUNDTRIP
360
10B4
  0
DICTIONARY
  5
10B5
330
105A
100
AcDbDictionary
280
     1
281
     1
  3
ACAD_XREC_ROUNDTRIP
360
10B6
  0
DICTIONARY
  5
10BD
330
105E
100
AcDbDictionary
280
     1
281
     1
  3
ACAD_XREC_ROUNDTRIP
360
10BE
  0
DICTIONARY
  5
10D9
330
106C
100
AcDbDictionary
280
     1
281
     1
  3
ACAD_XREC_ROUNDTRIP
360
10DA
  0
DICTIONARY
  5
10C9
330
1064
100
AcDbDictionary
280
     1
281
     1
  3
ACAD_XREC_ROUNDTRIP
360
10CA
  0
DICTIONARY
  5
10DB
330
106D
100
AcDbDictionary
280
     1
281
     1
  3
ACAD_XREC_ROUNDTRIP
360
10DC
  0
DICTIONARY
  5
10C1
330
1060
100
AcDbDictionary
280
     1
281
     1
  3
ACAD_XREC_ROUNDTRIP
360
10C2
  0
DICTIONARY
  5
10D7
330
106B
100
AcDbDictionary
280
     1
281
     1
  3
ACAD_XREC_ROUNDTRIP
360
10D8
  0
DICTIONARY
  5
10D5
330
106A
100
AcDbDictionary
280
     1
281
     1
  3
ACAD_XREC_ROUNDTRIP
360
10D6
  0
DICTIONARY
  5
10CF
330
1067
100
AcDbDictionary
280
     1
281
     1
  3
ACAD_XREC_ROUNDTRIP
360
10D0
  0
DICTIONARY
  5
10D1
330
1068
100
AcDbDictionary
280
     1
281
     1
  3
ACAD_XREC_ROUNDTRIP
360
10D2
  0
DICTIONARY
  5
10C7
330
1063
100
AcDbDictionary
280
     1
281
     1
  3
ACAD_XREC_ROUNDTRIP
360
10C8
  0
DICTIONARY
  5
10BB
330
105D
100
AcDbDictionary
280
     1
281
     1
  3
ACAD_XREC_ROUNDTRIP
360
10BC
  0
DICTIONARY
  5
10D3
330
1069
100
AcDbDictionary
280
     1
281
     1
  3
ACAD_XREC_ROUNDTRIP
360
10D4
  0
XRECORD
  5
10E4
102
{ACAD_REACTORS
330
10E3
102
}
330
10E3
100
AcDbXrecord
280
     1
102
DISPLAYNAME
  1
Imperial24
102
FLAGS
 90
        0
  0
XRECORD
  5
10E6
102
{ACAD_REACTORS
330
10E5
102
}
330
10E5
100
AcDbXrecord
280
     1
102
SHADEPLOT
 70
     0
102
SHADEPLOTRESLEVEL
 70
     2
102
SHADEPLOTCUSTOMDPI
 70
   300
  0
XRECORD
  5
10E8
102
{ACAD_REACTORS
330
10E7
102
}
330
10E7
100
AcDbXrecord
280
     1
102
SHADEPLOT
 70
     0
102
SHADEPLOTRESLEVEL
 70
     2
102
SHADEPLOTCUSTOMDPI
 70
   300
  0
XRECORD
  5
10AD
102
{ACAD_REACTORS
330
1047
102
}
330
1047
100
AcDbXrecord
280
     1
102
MATERIAL
148
0.0
149
0.0
149
0.0
 93
        0
 94
      127
282
     0
 72
     0
 77
     0
171
     0
175
     0
179
     0
273
     0
  0
XRECORD
  5
1049
102
{ACAD_REACTORS
330
1047
102
}
330
1047
100
AcDbXrecord
280
     1
270
     1
271
     1
  0
XRECORD
  5
1048
102
{ACAD_REACTORS
330
1047
102
}
330
1047
100
AcDbXrecord
280
     1
270
     1
271
     1
  0
XRECORD
  5
104C
102
{ACAD_REACTORS
330
1047
102
}
330
1047
100
AcDbXrecord
280
     1
270
     1
271
     1
  0
XRECORD
  5
104B
102
{ACAD_REACTORS
330
1047
102
}
330
1047
100
AcDbXrecord
280
     1
270
     1
271
     1
  0
XRECORD
  5
104D
102
{ACAD_REACTORS
330
1047
102
}
330
1047
100
AcDbXrecord
280
     1
270
     1
271
     1
  0
XRECORD
  5
104A
102
{ACAD_REACTORS
330
1047
102
}
330
1047
100
AcDbXrecord
280
     1
270
     1
271
     1
  0
XRECORD
  5
10AC
102
{ACAD_REACTORS
330
103F
102
}
330
103F
100
AcDbXrecord
280
     1
102
MATERIAL
148
0.0
149
0.0
149
0.0
 93
        0
 94
      127
282
     0
 72
     0
 77
     0
171
     0
175
     0
179
     0
273
     0
  0
XRECORD
  5
1041
102
{ACAD_REACTORS
330
103F
102
}
330
103F
100
AcDbXrecord
280
     1
270
     1
271
     1
  0
XRECORD
  5
1040
102
{ACAD_REACTORS
330
103F
102
}
330
103F
100
AcDbXrecord
280
     1
270
     1
271
     1
  0
XRECORD
  5
1044
102
{ACAD_REACTORS
330
103F
102
}
330
103F
100
AcDbXrecord
280
     1
270
     1
271
     1
  0
XRECORD
  5
1043
102
{ACAD_REACTORS
330
103F
102
}
330
103F
100
AcDbXrecord
280
     1
270
     1
271
     1
  0
XRECORD
  5
1045
102
{ACAD_REACTORS
330
103F
102
}
330
103F
100
AcDbXrecord
280
     1
270
     1
271
     1
  0
XRECORD
  5
1042
102
{ACAD_REACTORS
330
103F
102
}
330
103F
100
AcDbXrecord
280
     1
270
     1
271
     1
  0
XRECORD
  5
10AE
102
{ACAD_REACTORS
330
104F
102
}
330
104F
100
AcDbXrecord
280
     1
102
MATERIAL
148
0.0
149
0.0
149
0.0
 93
        0
 94
      127
282
     0
 72
     0
 77
     0
171
     0
175
     0
179
     0
273
     0
  0
XRECORD
  5
1051
102
{ACAD_REACTORS
330
104F
102
}
330
104F
100
AcDbXrecord
280
     1
270
     1
271
     1
  0
XRECORD
  5
1050
102
{ACAD_REACTORS
330
104F
102
}
330
104F
100
AcDbXrecord
280
     1
270
     1
271
     1
  0
XRECORD
  5
1054
102
{ACAD_REACTORS
330
104F
102
}
330
104F
100
AcDbXrecord
280
     1
270
     1
271
     1
  0
XRECORD
  5
1053
102
{ACAD_REACTORS
330
104F
102
}
330
104F
100
AcDbXrecord
280
     1
270
     1
271
     1
  0
XRECORD
  5
1055
102
{ACAD_REACTORS
330
104F
102
}
330
104F
100
AcDbXrecord
280
     1
270
     1
271
     1
  0
XRECORD
  5
1052
102
{ACAD_REACTORS
330
104F
102
}
330
104F
100
AcDbXrecord
280
     1
270
     1
271
     1
  0
XRECORD
  5
10E2
102
{ACAD_REACTORS
330
10E1
102
}
330
10E1
100
AcDbXrecord
280
     1
102
DISPLAYNAME
  1
Imperial24
102
FLAGS
 90
        0
  0
CELLSTYLEMAP
  5
10A9
102
{ACAD_REACTORS
330
10A8
102
}
330
10A8
100
AcDbCellStyleMap
 90
        3
300
CELLSTYLE
  1
TABLEFORMAT_BEGIN
 90
        5
170
     1
 91
        0
 92
    32768
 62
   257
 93
        1
300
CONTENTFORMAT
  1
CONTENTFORMAT_BEGIN
 90
        0
 91
        0
 92
      512
 93
        0
300

 40
0.0
140
1.0
 94
        5
 62
     0
340
F
144
0.25
309
CONTENTFORMAT_END
171
     0
 94
        0
309
TABLEFORMAT_END
  1
CELLSTYLE_BEGIN
 90
        1
 91
        1
300
_TITLE
309
CELLSTYLE_END
300
CELLSTYLE
  1
TABLEFORMAT_BEGIN
 90
        5
170
     1
 91
        0
 92
        0
 62
   257
 93
        1
300
CONTENTFORMAT
  1
CONTENTFORMAT_BEGIN
 90
        0
 91
        0
 92
      512
 93
        0
300

 40
0.0
140
1.0
 94
        5
 62
     0
340
F
144
0.18
309
CONTENTFORMAT_END
171
     0
 94
        0
309
TABLEFORMAT_END
  1
CELLSTYLE_BEGIN
 90
        2
 91
        1
300
_HEADER
309
CELLSTYLE_END
300
CELLSTYLE
  1
TABLEFORMAT_BEGIN
 90
        5
170
     1
 91
        0
 92
        0
 62
   257
 93
        1
300
CONTENTFORMAT
  1
CONTENTFORMAT_BEGIN
 90
        0
 91
        0
 92
      512
 93
        0
300

 40
0.0
140
1.0
 94
        2
 62
     0
340
F
144
0.18
309
CONTENTFORMAT_END
171
     0
 94
        0
309
TABLEFORMAT_END
  1
CELLSTYLE_BEGIN
 90
        3
 91
        2
300
_DATA
309
CELLSTYLE_END
  0
XRECORD
  5
10DF
102
{ACAD_REACTORS
330
10A8
102
}
330
10A8
100
AcDbXrecord
280
     1
102
ACAD_ROUNDTRIP_PRE2007_TABLESTYLE
 90
      512
 91
        0
  1

 92
      512
 93
        0
  2

 94
      512
 95
        0
  3

  0
XRECORD
  5
10BA
102
{ACAD_REACTORS
330
10B9
102
}
330
10B9
100
AcDbXrecord
280
     1
102
RTVSPost2010Prop28
280
     1
102
RTVSPost2010PropOp28
 70
     1
102
RTVSPost2010Prop29
280
     1
102
RTVSPost2010PropOp29
 70
     1
102
RTVSPost2010Prop30
280
     0
102
RTVSPost2010PropOp30
 70
     1
102
RTVSPost2010Prop31
280
     0
102
RTVSPost2010PropOp31
 70
     1
102
RTVSPost2010Prop32
280
     0
102
RTVSPost2010PropOp32
 70
     1
102
RTVSPost2010Prop33
280
     0
102
RTVSPost2010PropOp33
 70
     1
102
RTVSPost2010Prop34
280
     0
102
RTVSPost2010PropOp34
 70
     1
102
RTVSPost2010Prop35
280
     0
102
RTVSPost2010PropOp35
 70
     1
102
RTVSPost2010Prop36
280
     0
102
RTVSPost2010PropOp36
 70
     1
102
RTVSPost2010Prop37
 90
       50
102
RTVSPost2010PropOp37
 70
     1
102
RTVSPost2010Prop38
140
0.0
102
RTVSPost2010PropOp38
 70
     1
102
RTVSPost2010Prop39
140
1.0
102
RTVSPost2010PropOp39
 70
     1
102
RTVSPost2010Prop40
 90
        0
102
RTVSPost2010PropOp40
 70
     1
102
RTVSPost2010Prop41ColorIndex
 90
       18
102
RTVSPost2010Prop41ColorRGB
 90
        0
102
RTVSPost2010PropOp41
 70
     1
102
RTVSPost2010Prop42
 90
       50
102
RTVSPost2010PropOp42
 70
     1
102
RTVSPost2010Prop43
 90
        3
102
RTVSPost2010PropOp43
 70
     1
102
RTVSPost2010Prop44ColorIndex
 90
        5
102
RTVSPost2010Prop44ColorRGB
 90
      255
102
RTVSPost2010PropOp44
 70
     1
102
RTVSPost2010Prop45
280
     0
102
RTVSPost2010PropOp45
 70
     1
102
RTVSPost2010Prop46
 90
       50
102
RTVSPost2010PropOp46
 70
     1
102
RTVSPost2010Prop47
 90
       50
102
RTVSPost2010PropOp47
 70
     1
102
RTVSPost2010Prop48
 90
       50
102
RTVSPost2010PropOp48
 70
     1
102
RTVSPost2010Prop49
280
     0
102
RTVSPost2010PropOp49
 70
     1
102
RTVSPost2010Prop50
 90
       50
102
RTVSPost2010PropOp50
 70
     1
102
RTVSPost2010Prop51ColorIndex
 90
      256
102
RTVSPost2010Prop51ColorRGB
 90
-16777216
102
RTVSPost2010PropOp51
 70
     0
102
RTVSPost2010Prop52
140
1.0
102
RTVSPost2010PropOp52
 70
     0
102
RTVSPost2010Prop53
 90
        2
102
RTVSPost2010PropOp53
 70
     1
102
RTVSPost2010Prop54
  1
strokes_ogs.tif
102
RTVSPost2010PropOp54
 70
     1
102
RTVSPost2010Prop55
280
     0
102
RTVSPost2010PropOp55
 70
     1
102
RTVSPost2010Prop56
140
1.0
102
RTVSPost2010PropOp56
 70
     1
102
RTVSPost2010Prop57
140
1.0
102
RTVSPost2010PropOp57
 70
     1
102
RTVSPropertyOp0
 70
     1
102
RTVSPropertyOp1
 70
     1
102
RTVSPropertyOp2
 70
     1
102
RTVSPropertyOp3
 70
     1
102
RTVSPropertyOp4
 70
     1
102
RTVSPropertyOp5
 70
     1
102
RTVSPropertyOp6
 70
     1
102
RTVSPropertyOp7
 70
     1
102
RTVSPropertyOp8
 70
     1
102
RTVSPropertyOp9
 70
     1
102
RTVSPropertyOp10
 70
     1
102
RTVSPropertyOp11
 70
     1
102
RTVSPropertyOp12
 70
     1
102
RTVSPropertyOp13
 70
     1
102
RTVSPropertyOp14
 70
     1
102
RTVSPropertyOp15
 70
     1
102
RTVSPropertyOp16
 70
     1
102
RTVSPropertyOp17
 70
     1
102
RTVSPropertyOp18
 70
     1
102
RTVSPropertyOp19
 70
     1
102
RTVSPropertyOp20
 70
     1
102
RTVSPropertyOp21
 70
     1
102
RTVSPropertyOp22
 70
     1
102
RTVSPropertyOp23
 70
     1
102
RTVSPropertyOp24
 70
     1
102
RTVSPropertyOp25
 70
     1
102
RTVSPropertyOp26
 70
     1
102
RTVSPropertyOp27
 70
     1
102
RTVSPropertyOp28
 70
     1
102
RTVSPropertyOp29
 70
     1
102
RTVSPropertyOp30
 70
     1
102
RTVSPropertyOp31
 70
     1
102
RTVSPropertyOp32
 70
     1
102
RTVSPropertyOp33
 70
     1
102
RTVSPropertyOp34
 70
     1
102
RTVSPropertyOp35
 70
     1
102
RTVSPropertyOp36
 70
     1
102
RTVSPropertyOp37
 70
     1
102
RTVSPropertyOp38
 70
     1
102
RTVSPropertyOp39
 70
     1
102
RTVSPropertyOp40
 70
     1
102
RTVSPropertyOp41
 70
     1
102
RTVSPropertyOp42
 70
     1
102
RTVSPropertyOp43
 70
     1
102
RTVSPropertyOp44
 70
     1
102
RTVSPropertyOp45
 70
     1
102
RTVSPropertyOp46
 70
     1
102
RTVSPropertyOp47
 70
     1
102
RTVSPropertyOp48
 70
     1
102
RTVSPropertyOp49
 70
     1
102
RTVSPropertyOp50
 70
     1
102
RTVSPropertyOp51
 70
     0
102
RTVSPropertyOp52
 70
     0
102
RTVSPropertyOp53
 70
     1
102
RTVSPropertyOp54
 70
     1
102
RTVSPropertyOp55
 70
     1
102
RTVSPropertyOp56
 70
     1
102
RTVSPropertyOp57
 70
     1
102
RTVSPropertyOp58
 70
     1
102
RTVSPropertyOp59
 70
     1
102
RTVSPropertyOp60
 70
     1
102
RTVSPropertyOp61
 70
     1
102
RTVSPropertyOp62
 70
     1
  0
XRECORD
  5
10B8
102
{ACAD_REACTORS
330
10B7
102
}
330
10B7
100
AcDbXrecord
280
     1
102
RTVSPost2010Prop28
280
     0
102
RTVSPost2010PropOp28
 70
     1
102
RTVSPost2010Prop29
280
     1
102
RTVSPost2010PropOp29
 70
     1
102
RTVSPost2010Prop30
280
     1
102
RTVSPost2010PropOp30
 70
     1
102
RTVSPost2010Prop31
280
     0
102
RTVSPost2010PropOp31
 70
     1
102
RTVSPost2010Prop32
280
     0
102
RTVSPost2010PropOp32
 70
     1
102
RTVSPost2010Prop33
280
     0
102
RTVSPost2010PropOp33
 70
     1
102
RTVSPost2010Prop34
280
     0
102
RTVSPost2010PropOp34
 70
     1
102
RTVSPost2010Prop35
280
     0
102
RTVSPost2010PropOp35
 70
     1
102
RTVSPost2010Prop36
280
     0
102
RTVSPost2010PropOp36
 70
     1
102
RTVSPost2010Prop37
 90
       50
102
RTVSPost2010PropOp37
 70
     1
102
RTVSPost2010Prop38
140
0.0
102
RTVSPost2010PropOp38
 70
     1
102
RTVSPost2010Prop39
140
1.0
102
RTVSPost2010PropOp39
 70
     1
102
RTVSPost2010Prop40
 90
        0
102
RTVSPost2010PropOp40
 70
     1
102
RTVSPost2010Prop41ColorIndex
 90
       18
102
RTVSPost2010Prop41ColorRGB
 90
        0
102
RTVSPost2010PropOp41
 70
     1
102
RTVSPost2010Prop42
 90
       50
102
RTVSPost2010PropOp42
 70
     1
102
RTVSPost2010Prop43
 90
        3
102
RTVSPost2010PropOp43
 70
     1
102
RTVSPost2010Prop44ColorIndex
 90
        5
102
RTVSPost2010Prop44ColorRGB
 90
      255
102
RTVSPost2010PropOp44
 70
     1
102
RTVSPost2010Prop45
280
     0
102
RTVSPost2010PropOp45
 70
     1
102
RTVSPost2010Prop46
 90
       50
102
RTVSPost2010PropOp46
 70
     1
102
RTVSPost2010Prop47
 90
       50
102
RTVSPost2010PropOp47
 70
     1
102
RTVSPost2010Prop48
 90
       50
102
RTVSPost2010PropOp48
 70
     1
102
RTVSPost2010Prop49
280
     0
102
RTVSPost2010PropOp49
 70
     1
102
RTVSPost2010Prop50
 90
       50
102
RTVSPost2010PropOp50
 70
     1
102
RTVSPost2010Prop51ColorIndex
 90
      256
102
RTVSPost2010Prop51ColorRGB
 90
-16777216
102
RTVSPost2010PropOp51
 70
     0
102
RTVSPost2010Prop52
140
1.0
102
RTVSPost2010PropOp52
 70
     0
102
RTVSPost2010Prop53
 90
        2
102
RTVSPost2010PropOp53
 70
     1
102
RTVSPost2010Prop54
  1
strokes_ogs.tif
102
RTVSPost2010PropOp54
 70
     1
102
RTVSPost2010Prop55
280
     0
102
RTVSPost2010PropOp55
 70
     1
102
RTVSPost2010Prop56
140
1.0
102
RTVSPost2010PropOp56
 70
     1
102
RTVSPost2010Prop57
140
1.0
102
RTVSPost2010PropOp57
 70
     1
102
RTVSPropertyOp0
 70
     1
102
RTVSPropertyOp1
 70
     1
102
RTVSPropertyOp2
 70
     1
102
RTVSPropertyOp3
 70
     1
102
RTVSPropertyOp4
 70
     1
102
RTVSPropertyOp5
 70
     1
102
RTVSPropertyOp6
 70
     1
102
RTVSPropertyOp7
 70
     1
102
RTVSPropertyOp8
 70
     1
102
RTVSPropertyOp9
 70
     1
102
RTVSPropertyOp10
 70
     1
102
RTVSPropertyOp11
 70
     1
102
RTVSPropertyOp12
 70
     1
102
RTVSPropertyOp13
 70
     1
102
RTVSPropertyOp14
 70
     1
102
RTVSPropertyOp15
 70
     1
102
RTVSPropertyOp16
 70
     1
102
RTVSPropertyOp17
 70
     1
102
RTVSPropertyOp18
 70
     1
102
RTVSPropertyOp19
 70
     1
102
RTVSPropertyOp20
 70
     1
102
RTVSPropertyOp21
 70
     1
102
RTVSPropertyOp22
 70
     1
102
RTVSPropertyOp23
 70
     1
102
RTVSPropertyOp24
 70
     1
102
RTVSPropertyOp25
 70
     1
102
RTVSPropertyOp26
 70
     1
102
RTVSPropertyOp27
 70
     1
102
RTVSPropertyOp28
 70
     1
102
RTVSPropertyOp29
 70
     1
102
RTVSPropertyOp30
 70
     1
102
RTVSPropertyOp31
 70
     1
102
RTVSPropertyOp32
 70
     1
102
RTVSPropertyOp33
 70
     1
102
RTVSPropertyOp34
 70
     1
102
RTVSPropertyOp35
 70
     1
102
RTVSPropertyOp36
 70
     1
102
RTVSPropertyOp37
 70
     1
102
RTVSPropertyOp38
 70
     1
102
RTVSPropertyOp39
 70
     1
102
RTVSPropertyOp40
 70
     1
102
RTVSPropertyOp41
 70
     1
102
RTVSPropertyOp42
 70
     1
102
RTVSPropertyOp43
 70
     1
102
RTVSPropertyOp44
 70
     1
102
RTVSPropertyOp45
 70
     1
102
RTVSPropertyOp46
 70
     1
102
RTVSPropertyOp47
 70
     1
102
RTVSPropertyOp48
 70
     1
102
RTVSPropertyOp49
 70
     1
102
RTVSPropertyOp50
 70
     1
102
RTVSPropertyOp51
 70
     0
102
RTVSPropertyOp52
 70
     0
102
RTVSPropertyOp53
 70
     1
102
RTVSPropertyOp54
 70
     1
102
RTVSPropertyOp55
 70
     1
102
RTVSPropertyOp56
 70
     1
102
RTVSPropertyOp57
 70
     1
102
RTVSPropertyOp58
 70
     1
102
RTVSPropertyOp59
 70
     1
102
RTVSPropertyOp60
 70
     1
102
RTVSPropertyOp61
 70
     1
102
RTVSPropertyOp62
 70
     1
  0
XRECORD
  5
10C6
102
{ACAD_REACTORS
330
10C5
102
}
330
10C5
100
AcDbXrecord
280
     1
102
RTVSPost2010Prop28
280
     0
102
RTVSPost2010PropOp28
 70
     1
102
RTVSPost2010Prop29
280
     1
102
RTVSPost2010PropOp29
 70
     1
102
RTVSPost2010Prop30
280
     1
102
RTVSPost2010PropOp30
 70
     1
102
RTVSPost2010Prop31
280
     0
102
RTVSPost2010PropOp31
 70
     1
102
RTVSPost2010Prop32
280
     0
102
RTVSPost2010PropOp32
 70
     1
102
RTVSPost2010Prop33
280
     0
102
RTVSPost2010PropOp33
 70
     1
102
RTVSPost2010Prop34
280
     0
102
RTVSPost2010PropOp34
 70
     1
102
RTVSPost2010Prop35
280
     0
102
RTVSPost2010PropOp35
 70
     1
102
RTVSPost2010Prop36
280
     0
102
RTVSPost2010PropOp36
 70
     1
102
RTVSPost2010Prop37
 90
       50
102
RTVSPost2010PropOp37
 70
     1
102
RTVSPost2010Prop38
140
0.0
102
RTVSPost2010PropOp38
 70
     1
102
RTVSPost2010Prop39
140
1.0
102
RTVSPost2010PropOp39
 70
     1
102
RTVSPost2010Prop40
 90
        0
102
RTVSPost2010PropOp40
 70
     1
102
RTVSPost2010Prop41ColorIndex
 90
       18
102
RTVSPost2010Prop41ColorRGB
 90
        0
102
RTVSPost2010PropOp41
 70
     1
102
RTVSPost2010Prop42
 90
       50
102
RTVSPost2010PropOp42
 70
     1
102
RTVSPost2010Prop43
 90
        3
102
RTVSPost2010PropOp43
 70
     1
102
RTVSPost2010Prop44ColorIndex
 90
        5
102
RTVSPost2010Prop44ColorRGB
 90
      255
102
RTVSPost2010PropOp44
 70
     1
102
RTVSPost2010Prop45
280
     0
102
RTVSPost2010PropOp45
 70
     1
102
RTVSPost2010Prop46
 90
       50
102
RTVSPost2010PropOp46
 70
     1
102
RTVSPost2010Prop47
 90
       50
102
RTVSPost2010PropOp47
 70
     1
102
RTVSPost2010Prop48
 90
       50
102
RTVSPost2010PropOp48
 70
     1
102
RTVSPost2010Prop49
280
     0
102
RTVSPost2010PropOp49
 70
     1
102
RTVSPost2010Prop50
 90
       50
102
RTVSPost2010PropOp50
 70
     1
102
RTVSPost2010Prop51ColorIndex
 90
      256
102
RTVSPost2010Prop51ColorRGB
 90
-16777216
102
RTVSPost2010PropOp51
 70
     0
102
RTVSPost2010Prop52
140
1.0
102
RTVSPost2010PropOp52
 70
     0
102
RTVSPost2010Prop53
 90
        2
102
RTVSPost2010PropOp53
 70
     1
102
RTVSPost2010Prop54
  1
strokes_ogs.tif
102
RTVSPost2010PropOp54
 70
     1
102
RTVSPost2010Prop55
280
     0
102
RTVSPost2010PropOp55
 70
     1
102
RTVSPost2010Prop56
140
1.0
102
RTVSPost2010PropOp56
 70
     1
102
RTVSPost2010Prop57
140
1.0
102
RTVSPost2010PropOp57
 70
     1
102
RTVSPropertyOp0
 70
     1
102
RTVSPropertyOp1
 70
     1
102
RTVSPropertyOp2
 70
     1
102
RTVSPropertyOp3
 70
     1
102
RTVSPropertyOp4
 70
     1
102
RTVSPropertyOp5
 70
     1
102
RTVSPropertyOp6
 70
     1
102
RTVSPropertyOp7
 70
     1
102
RTVSPropertyOp8
 70
     1
102
RTVSPropertyOp9
 70
     1
102
RTVSPropertyOp10
 70
     1
102
RTVSPropertyOp11
 70
     1
102
RTVSPropertyOp12
 70
     1
102
RTVSPropertyOp13
 70
     1
102
RTVSPropertyOp14
 70
     1
102
RTVSPropertyOp15
 70
     1
102
RTVSPropertyOp16
 70
     1
102
RTVSPropertyOp17
 70
     1
102
RTVSPropertyOp18
 70
     1
102
RTVSPropertyOp19
 70
     1
102
RTVSPropertyOp20
 70
     1
102
RTVSPropertyOp21
 70
     1
102
RTVSPropertyOp22
 70
     1
102
RTVSPropertyOp23
 70
     1
102
RTVSPropertyOp24
 70
     1
102
RTVSPropertyOp25
 70
     1
102
RTVSPropertyOp26
 70
     1
102
RTVSPropertyOp27
 70
     1
102
RTVSPropertyOp28
 70
     1
102
RTVSPropertyOp29
 70
     1
102
RTVSPropertyOp30
 70
     1
102
RTVSPropertyOp31
 70
     1
102
RTVSPropertyOp32
 70
     1
102
RTVSPropertyOp33
 70
     1
102
RTVSPropertyOp34
 70
     1
102
RTVSPropertyOp35
 70
     1
102
RTVSPropertyOp36
 70
     1
102
RTVSPropertyOp37
 70
     1
102
RTVSPropertyOp38
 70
     1
102
RTVSPropertyOp39
 70
     1
102
RTVSPropertyOp40
 70
     1
102
RTVSPropertyOp41
 70
     1
102
RTVSPropertyOp42
 70
     1
102
RTVSPropertyOp43
 70
     1
102
RTVSPropertyOp44
 70
     1
102
RTVSPropertyOp45
 70
     1
102
RTVSPropertyOp46
 70
     1
102
RTVSPropertyOp47
 70
     1
102
RTVSPropertyOp48
 70
     1
102
RTVSPropertyOp49
 70
     1
102
RTVSPropertyOp50
 70
     1
102
RTVSPropertyOp51
 70
     0
102
RTVSPropertyOp52
 70
     0
102
RTVSPropertyOp53
 70
     1
102
RTVSPropertyOp54
 70
     1
102
RTVSPropertyOp55
 70
     1
102
RTVSPropertyOp56
 70
     1
102
RTVSPropertyOp57
 70
     1
102
RTVSPropertyOp58
 70
     1
102
RTVSPropertyOp59
 70
     1
102
RTVSPropertyOp60
 70
     1
102
RTVSPropertyOp61
 70
     1
102
RTVSPropertyOp62
 70
     1
  0
XRECORD
  5
10CE
102
{ACAD_REACTORS
330
10CD
102
}
330
10CD
100
AcDbXrecord
280
     1
102
RTVSPost2010Prop28
280
     0
102
RTVSPost2010PropOp28
 70
     1
102
RTVSPost2010Prop29
280
     1
102
RTVSPost2010PropOp29
 70
     1
102
RTVSPost2010Prop30
280
     1
102
RTVSPost2010PropOp30
 70
     1
102
RTVSPost2010Prop31
280
     0
102
RTVSPost2010PropOp31
 70
     1
102
RTVSPost2010Prop32
280
     0
102
RTVSPost2010PropOp32
 70
     1
102
RTVSPost2010Prop33
280
     0
102
RTVSPost2010PropOp33
 70
     1
102
RTVSPost2010Prop34
280
     0
102
RTVSPost2010PropOp34
 70
     1
102
RTVSPost2010Prop35
280
     0
102
RTVSPost2010PropOp35
 70
     1
102
RTVSPost2010Prop36
280
     0
102
RTVSPost2010PropOp36
 70
     1
102
RTVSPost2010Prop37
 90
       50
102
RTVSPost2010PropOp37
 70
     1
102
RTVSPost2010Prop38
140
0.0
102
RTVSPost2010PropOp38
 70
     1
102
RTVSPost2010Prop39
140
1.0
102
RTVSPost2010PropOp39
 70
     1
102
RTVSPost2010Prop40
 90
        0
102
RTVSPost2010PropOp40
 70
     1
102
RTVSPost2010Prop41ColorIndex
 90
       18
102
RTVSPost2010Prop41ColorRGB
 90
        0
102
RTVSPost2010PropOp41
 70
     1
102
RTVSPost2010Prop42
 90
       50
102
RTVSPost2010PropOp42
 70
     1
102
RTVSPost2010Prop43
 90
        3
102
RTVSPost2010PropOp43
 70
     1
102
RTVSPost2010Prop44ColorIndex
 90
        5
102
RTVSPost2010Prop44ColorRGB
 90
      255
102
RTVSPost2010PropOp44
 70
     1
102
RTVSPost2010Prop45
280
     0
102
RTVSPost2010PropOp45
 70
     1
102
RTVSPost2010Prop46
 90
       50
102
RTVSPost2010PropOp46
 70
     1
102
RTVSPost2010Prop47
 90
       50
102
RTVSPost2010PropOp47
 70
     1
102
RTVSPost2010Prop48
 90
       50
102
RTVSPost2010PropOp48
 70
     1
102
RTVSPost2010Prop49
280
     0
102
RTVSPost2010PropOp49
 70
     1
102
RTVSPost2010Prop50
 90
       50
102
RTVSPost2010PropOp50
 70
     1
102
RTVSPost2010Prop51ColorIndex
 90
      256
102
RTVSPost2010Prop51ColorRGB
 90
-16777216
102
RTVSPost2010PropOp51
 70
     0
102
RTVSPost2010Prop52
140
1.0
102
RTVSPost2010PropOp52
 70
     0
102
RTVSPost2010Prop53
 90
        2
102
RTVSPost2010PropOp53
 70
     1
102
RTVSPost2010Prop54
  1
strokes_ogs.tif
102
RTVSPost2010PropOp54
 70
     1
102
RTVSPost2010Prop55
280
     0
102
RTVSPost2010PropOp55
 70
     1
102
RTVSPost2010Prop56
140
1.0
102
RTVSPost2010PropOp56
 70
     1
102
RTVSPost2010Prop57
140
1.0
102
RTVSPost2010PropOp57
 70
     1
102
RTVSPropertyOp0
 70
     1
102
RTVSPropertyOp1
 70
     1
102
RTVSPropertyOp2
 70
     1
102
RTVSPropertyOp3
 70
     1
102
RTVSPropertyOp4
 70
     1
102
RTVSPropertyOp5
 70
     1
102
RTVSPropertyOp6
 70
     1
102
RTVSPropertyOp7
 70
     1
102
RTVSPropertyOp8
 70
     1
102
RTVSPropertyOp9
 70
     1
102
RTVSPropertyOp10
 70
     1
102
RTVSPropertyOp11
 70
     1
102
RTVSPropertyOp12
 70
     1
102
RTVSPropertyOp13
 70
     1
102
RTVSPropertyOp14
 70
     1
102
RTVSPropertyOp15
 70
     1
102
RTVSPropertyOp16
 70
     1
102
RTVSPropertyOp17
 70
     1
102
RTVSPropertyOp18
 70
     1
102
RTVSPropertyOp19
 70
     1
102
RTVSPropertyOp20
 70
     1
102
RTVSPropertyOp21
 70
     1
102
RTVSPropertyOp22
 70
     1
102
RTVSPropertyOp23
 70
     1
102
RTVSPropertyOp24
 70
     1
102
RTVSPropertyOp25
 70
     1
102
RTVSPropertyOp26
 70
     1
102
RTVSPropertyOp27
 70
     1
102
RTVSPropertyOp28
 70
     1
102
RTVSPropertyOp29
 70
     1
102
RTVSPropertyOp30
 70
     1
102
RTVSPropertyOp31
 70
     1
102
RTVSPropertyOp32
 70
     1
102
RTVSPropertyOp33
 70
     1
102
RTVSPropertyOp34
 70
     1
102
RTVSPropertyOp35
 70
     1
102
RTVSPropertyOp36
 70
     1
102
RTVSPropertyOp37
 70
     1
102
RTVSPropertyOp38
 70
     1
102
RTVSPropertyOp39
 70
     1
102
RTVSPropertyOp40
 70
     1
102
RTVSPropertyOp41
 70
     1
102
RTVSPropertyOp42
 70
     1
102
RTVSPropertyOp43
 70
     1
102
RTVSPropertyOp44
 70
     1
102
RTVSPropertyOp45
 70
     1
102
RTVSPropertyOp46
 70
     1
102
RTVSPropertyOp47
 70
     1
102
RTVSPropertyOp48
 70
     1
102
RTVSPropertyOp49
 70
     1
102
RTVSPropertyOp50
 70
     1
102
RTVSPropertyOp51
 70
     0
102
RTVSPropertyOp52
 70
     0
102
RTVSPropertyOp53
 70
     1
102
RTVSPropertyOp54
 70
     1
102
RTVSPropertyOp55
 70
     1
102
RTVSPropertyOp56
 70
     1
102
RTVSPropertyOp57
 70
     1
102
RTVSPropertyOp58
 70
     1
102
RTVSPropertyOp59
 70
     1
102
RTVSPropertyOp60
 70
     1
102
RTVSPropertyOp61
 70
     1
102
RTVSPropertyOp62
 70
     1
  0
XRECORD
  5
10C0
102
{ACAD_REACTORS
330
10BF
102
}
330
10BF
100
AcDbXrecord
280
     1
102
RTVSPost2010Prop28
280
     0
102
RTVSPost2010PropOp28
 70
     1
102
RTVSPost2010Prop29
280
     1
102
RTVSPost2010PropOp29
 70
     1
102
RTVSPost2010Prop30
280
     1
102
RTVSPost2010PropOp30
 70
     1
102
RTVSPost2010Prop31
280
     0
102
RTVSPost2010PropOp31
 70
     1
102
RTVSPost2010Prop32
280
     0
102
RTVSPost2010PropOp32
 70
     1
102
RTVSPost2010Prop33
280
     0
102
RTVSPost2010PropOp33
 70
     1
102
RTVSPost2010Prop34
280
     0
102
RTVSPost2010PropOp34
 70
     1
102
RTVSPost2010Prop35
280
     0
102
RTVSPost2010PropOp35
 70
     1
102
RTVSPost2010Prop36
280
     0
102
RTVSPost2010PropOp36
 70
     1
102
RTVSPost2010Prop37
 90
       50
102
RTVSPost2010PropOp37
 70
     1
102
RTVSPost2010Prop38
140
0.0
102
RTVSPost2010PropOp38
 70
     1
102
RTVSPost2010Prop39
140
1.0
102
RTVSPost2010PropOp39
 70
     1
102
RTVSPost2010Prop40
 90
        0
102
RTVSPost2010PropOp40
 70
     1
102
RTVSPost2010Prop41ColorIndex
 90
       18
102
RTVSPost2010Prop41ColorRGB
 90
        0
102
RTVSPost2010PropOp41
 70
     1
102
RTVSPost2010Prop42
 90
       50
102
RTVSPost2010PropOp42
 70
     1
102
RTVSPost2010Prop43
 90
        3
102
RTVSPost2010PropOp43
 70
     1
102
RTVSPost2010Prop44ColorIndex
 90
        5
102
RTVSPost2010Prop44ColorRGB
 90
      255
102
RTVSPost2010PropOp44
 70
     1
102
RTVSPost2010Prop45
280
     0
102
RTVSPost2010PropOp45
 70
     1
102
RTVSPost2010Prop46
 90
       50
102
RTVSPost2010PropOp46
 70
     1
102
RTVSPost2010Prop47
 90
       50
102
RTVSPost2010PropOp47
 70
     1
102
RTVSPost2010Prop48
 90
       50
102
RTVSPost2010PropOp48
 70
     1
102
RTVSPost2010Prop49
280
     0
102
RTVSPost2010PropOp49
 70
     1
102
RTVSPost2010Prop50
 90
       50
102
RTVSPost2010PropOp50
 70
     1
102
RTVSPost2010Prop51ColorIndex
 90
      256
102
RTVSPost2010Prop51ColorRGB
 90
-16777216
102
RTVSPost2010PropOp51
 70
     0
102
RTVSPost2010Prop52
140
1.0
102
RTVSPost2010PropOp52
 70
     0
102
RTVSPost2010Prop53
 90
        2
102
RTVSPost2010PropOp53
 70
     1
102
RTVSPost2010Prop54
  1
strokes_ogs.tif
102
RTVSPost2010PropOp54
 70
     1
102
RTVSPost2010Prop55
280
     0
102
RTVSPost2010PropOp55
 70
     1
102
RTVSPost2010Prop56
140
1.0
102
RTVSPost2010PropOp56
 70
     1
102
RTVSPost2010Prop57
140
1.0
102
RTVSPost2010PropOp57
 70
     1
102
RTVSPropertyOp0
 70
     1
102
RTVSPropertyOp1
 70
     1
102
RTVSPropertyOp2
 70
     1
102
RTVSPropertyOp3
 70
     1
102
RTVSPropertyOp4
 70
     1
102
RTVSPropertyOp5
 70
     1
102
RTVSPropertyOp6
 70
     1
102
RTVSPropertyOp7
 70
     1
102
RTVSPropertyOp8
 70
     1
102
RTVSPropertyOp9
 70
     1
102
RTVSPropertyOp10
 70
     1
102
RTVSPropertyOp11
 70
     1
102
RTVSPropertyOp12
 70
     1
102
RTVSPropertyOp13
 70
     1
102
RTVSPropertyOp14
 70
     1
102
RTVSPropertyOp15
 70
     1
102
RTVSPropertyOp16
 70
     1
102
RTVSPropertyOp17
 70
     1
102
RTVSPropertyOp18
 70
     1
102
RTVSPropertyOp19
 70
     1
102
RTVSPropertyOp20
 70
     1
102
RTVSPropertyOp21
 70
     1
102
RTVSPropertyOp22
 70
     1
102
RTVSPropertyOp23
 70
     1
102
RTVSPropertyOp24
 70
     1
102
RTVSPropertyOp25
 70
     1
102
RTVSPropertyOp26
 70
     1
102
RTVSPropertyOp27
 70
     1
102
RTVSPropertyOp28
 70
     1
102
RTVSPropertyOp29
 70
     1
102
RTVSPropertyOp30
 70
     1
102
RTVSPropertyOp31
 70
     1
102
RTVSPropertyOp32
 70
     1
102
RTVSPropertyOp33
 70
     1
102
RTVSPropertyOp34
 70
     1
102
RTVSPropertyOp35
 70
     1
102
RTVSPropertyOp36
 70
     1
102
RTVSPropertyOp37
 70
     1
102
RTVSPropertyOp38
 70
     1
102
RTVSPropertyOp39
 70
     1
102
RTVSPropertyOp40
 70
     1
102
RTVSPropertyOp41
 70
     1
102
RTVSPropertyOp42
 70
     1
102
RTVSPropertyOp43
 70
     1
102
RTVSPropertyOp44
 70
     1
102
RTVSPropertyOp45
 70
     1
102
RTVSPropertyOp46
 70
     1
102
RTVSPropertyOp47
 70
     1
102
RTVSPropertyOp48
 70
     1
102
RTVSPropertyOp49
 70
     1
102
RTVSPropertyOp50
 70
     1
102
RTVSPropertyOp51
 70
     0
102
RTVSPropertyOp52
 70
     0
102
RTVSPropertyOp53
 70
     1
102
RTVSPropertyOp54
 70
     1
102
RTVSPropertyOp55
 70
     1
102
RTVSPropertyOp56
 70
     1
102
RTVSPropertyOp57
 70
     1
102
RTVSPropertyOp58
 70
     1
102
RTVSPropertyOp59
 70
     1
102
RTVSPropertyOp60
 70
     1
102
RTVSPropertyOp61
 70
     1
102
RTVSPropertyOp62
 70
     1
  0
XRECORD
  5
10C4
102
{ACAD_REACTORS
330
10C3
102
}
330
10C3
100
AcDbXrecord
280
     1
102
RTVSPost2010Prop28
280
     0
102
RTVSPost2010PropOp28
 70
     1
102
RTVSPost2010Prop29
280
     1
102
RTVSPost2010PropOp29
 70
     1
102
RTVSPost2010Prop30
280
     1
102
RTVSPost2010PropOp30
 70
     1
102
RTVSPost2010Prop31
280
     0
102
RTVSPost2010PropOp31
 70
     1
102
RTVSPost2010Prop32
280
     0
102
RTVSPost2010PropOp32
 70
     1
102
RTVSPost2010Prop33
280
     0
102
RTVSPost2010PropOp33
 70
     1
102
RTVSPost2010Prop34
280
     0
102
RTVSPost2010PropOp34
 70
     1
102
RTVSPost2010Prop35
280
     0
102
RTVSPost2010PropOp35
 70
     1
102
RTVSPost2010Prop36
280
     0
102
RTVSPost2010PropOp36
 70
     1
102
RTVSPost2010Prop37
 90
       50
102
RTVSPost2010PropOp37
 70
     1
102
RTVSPost2010Prop38
140
0.0
102
RTVSPost2010PropOp38
 70
     1
102
RTVSPost2010Prop39
140
1.0
102
RTVSPost2010PropOp39
 70
     1
102
RTVSPost2010Prop40
 90
        0
102
RTVSPost2010PropOp40
 70
     1
102
RTVSPost2010Prop41ColorIndex
 90
       18
102
RTVSPost2010Prop41ColorRGB
 90
        0
102
RTVSPost2010PropOp41
 70
     1
102
RTVSPost2010Prop42
 90
       50
102
RTVSPost2010PropOp42
 70
     1
102
RTVSPost2010Prop43
 90
        3
102
RTVSPost2010PropOp43
 70
     1
102
RTVSPost2010Prop44ColorIndex
 90
        5
102
RTVSPost2010Prop44ColorRGB
 90
      255
102
RTVSPost2010PropOp44
 70
     1
102
RTVSPost2010Prop45
280
     0
102
RTVSPost2010PropOp45
 70
     1
102
RTVSPost2010Prop46
 90
       50
102
RTVSPost2010PropOp46
 70
     1
102
RTVSPost2010Prop47
 90
       50
102
RTVSPost2010PropOp47
 70
     1
102
RTVSPost2010Prop48
 90
       50
102
RTVSPost2010PropOp48
 70
     1
102
RTVSPost2010Prop49
280
     0
102
RTVSPost2010PropOp49
 70
     1
102
RTVSPost2010Prop50
 90
       50
102
RTVSPost2010PropOp50
 70
     1
102
RTVSPost2010Prop51ColorIndex
 90
      256
102
RTVSPost2010Prop51ColorRGB
 90
-16777216
102
RTVSPost2010PropOp51
 70
     0
102
RTVSPost2010Prop52
140
1.0
102
RTVSPost2010PropOp52
 70
     0
102
RTVSPost2010Prop53
 90
        2
102
RTVSPost2010PropOp53
 70
     1
102
RTVSPost2010Prop54
  1
strokes_ogs.tif
102
RTVSPost2010PropOp54
 70
     1
102
RTVSPost2010Prop55
280
     0
102
RTVSPost2010PropOp55
 70
     1
102
RTVSPost2010Prop56
140
1.0
102
RTVSPost2010PropOp56
 70
     1
102
RTVSPost2010Prop57
140
1.0
102
RTVSPost2010PropOp57
 70
     1
102
RTVSPropertyOp0
 70
     1
102
RTVSPropertyOp1
 70
     1
102
RTVSPropertyOp2
 70
     1
102
RTVSPropertyOp3
 70
     1
102
RTVSPropertyOp4
 70
     1
102
RTVSPropertyOp5
 70
     1
102
RTVSPropertyOp6
 70
     1
102
RTVSPropertyOp7
 70
     1
102
RTVSPropertyOp8
 70
     1
102
RTVSPropertyOp9
 70
     1
102
RTVSPropertyOp10
 70
     1
102
RTVSPropertyOp11
 70
     1
102
RTVSPropertyOp12
 70
     1
102
RTVSPropertyOp13
 70
     1
102
RTVSPropertyOp14
 70
     1
102
RTVSPropertyOp15
 70
     1
102
RTVSPropertyOp16
 70
     1
102
RTVSPropertyOp17
 70
     1
102
RTVSPropertyOp18
 70
     1
102
RTVSPropertyOp19
 70
     1
102
RTVSPropertyOp20
 70
     1
102
RTVSPropertyOp21
 70
     1
102
RTVSPropertyOp22
 70
     1
102
RTVSPropertyOp23
 70
     1
102
RTVSPropertyOp24
 70
     1
102
RTVSPropertyOp25
 70
     1
102
RTVSPropertyOp26
 70
     1
102
RTVSPropertyOp27
 70
     1
102
RTVSPropertyOp28
 70
     1
102
RTVSPropertyOp29
 70
     1
102
RTVSPropertyOp30
 70
     1
102
RTVSPropertyOp31
 70
     1
102
RTVSPropertyOp32
 70
     1
102
RTVSPropertyOp33
 70
     1
102
RTVSPropertyOp34
 70
     1
102
RTVSPropertyOp35
 70
     1
102
RTVSPropertyOp36
 70
     1
102
RTVSPropertyOp37
 70
     1
102
RTVSPropertyOp38
 70
     1
102
RTVSPropertyOp39
 70
     1
102
RTVSPropertyOp40
 70
     1
102
RTVSPropertyOp41
 70
     1
102
RTVSPropertyOp42
 70
     1
102
RTVSPropertyOp43
 70
     1
102
RTVSPropertyOp44
 70
     1
102
RTVSPropertyOp45
 70
     1
102
RTVSPropertyOp46
 70
     1
102
RTVSPropertyOp47
 70
     1
102
RTVSPropertyOp48
 70
     1
102
RTVSPropertyOp49
 70
     1
102
RTVSPropertyOp50
 70
     1
102
RTVSPropertyOp51
 70
     0
102
RTVSPropertyOp52
 70
     0
102
RTVSPropertyOp53
 70
     1
102
RTVSPropertyOp54
 70
     1
102
RTVSPropertyOp55
 70
     1
102
RTVSPropertyOp56
 70
     1
102
RTVSPropertyOp57
 70
     1
102
RTVSPropertyOp58
 70
     1
102
RTVSPropertyOp59
 70
     1
102
RTVSPropertyOp60
 70
     1
102
RTVSPropertyOp61
 70
     1
102
RTVSPropertyOp62
 70
     1
  0
XRECORD
  5
10DE
102
{ACAD_REACTORS
330
10DD
102
}
330
10DD
100
AcDbXrecord
280
     1
102
RTVSPost2010Prop28
280
     0
102
RTVSPost2010PropOp28
 70
     1
102
RTVSPost2010Prop29
280
     1
102
RTVSPost2010PropOp29
 70
     1
102
RTVSPost2010Prop30
280
     1
102
RTVSPost2010PropOp30
 70
     1
102
RTVSPost2010Prop31
280
     0
102
RTVSPost2010PropOp31
 70
     1
102
RTVSPost2010Prop32
280
     0
102
RTVSPost2010PropOp32
 70
     1
102
RTVSPost2010Prop33
280
     0
102
RTVSPost2010PropOp33
 70
     1
102
RTVSPost2010Prop34
280
     0
102
RTVSPost2010PropOp34
 70
     1
102
RTVSPost2010Prop35
280
     0
102
RTVSPost2010PropOp35
 70
     1
102
RTVSPost2010Prop36
280
     0
102
RTVSPost2010PropOp36
 70
     1
102
RTVSPost2010Prop37
 90
       50
102
RTVSPost2010PropOp37
 70
     0
102
RTVSPost2010Prop38
140
0.0
102
RTVSPost2010PropOp38
 70
     0
102
RTVSPost2010Prop39
140
1.0
102
RTVSPost2010PropOp39
 70
     0
102
RTVSPost2010Prop40
 90
        0
102
RTVSPost2010PropOp40
 70
     0
102
RTVSPost2010Prop41ColorIndex
 90
       18
102
RTVSPost2010Prop41ColorRGB
 90
        0
102
RTVSPost2010PropOp41
 70
     0
102
RTVSPost2010Prop42
 90
       50
102
RTVSPost2010PropOp42
 70
     0
102
RTVSPost2010Prop43
 90
        3
102
RTVSPost2010PropOp43
 70
     0
102
RTVSPost2010Prop44ColorIndex
 90
        5
102
RTVSPost2010Prop44ColorRGB
 90
      255
102
RTVSPost2010PropOp44
 70
     0
102
RTVSPost2010Prop45
280
     0
102
RTVSPost2010PropOp45
 70
     1
102
RTVSPost2010Prop46
 90
       50
102
RTVSPost2010PropOp46
 70
     0
102
RTVSPost2010Prop47
 90
       50
102
RTVSPost2010PropOp47
 70
     0
102
RTVSPost2010Prop48
 90
       50
102
RTVSPost2010PropOp48
 70
     0
102
RTVSPost2010Prop49
280
     0
102
RTVSPost2010PropOp49
 70
     1
102
RTVSPost2010Prop50
 90
       50
102
RTVSPost2010PropOp50
 70
     0
102
RTVSPost2010Prop51ColorIndex
 90
      256
102
RTVSPost2010Prop51ColorRGB
 90
-16777216
102
RTVSPost2010PropOp51
 70
     0
102
RTVSPost2010Prop52
140
1.0
102
RTVSPost2010PropOp52
 70
     0
102
RTVSPost2010Prop53
 90
        2
102
RTVSPost2010PropOp53
 70
     0
102
RTVSPost2010Prop54
  1
strokes_ogs.tif
102
RTVSPost2010PropOp54
 70
     0
102
RTVSPost2010Prop55
280
     0
102
RTVSPost2010PropOp55
 70
     1
102
RTVSPost2010Prop56
140
1.0
102
RTVSPost2010PropOp56
 70
     0
102
RTVSPost2010Prop57
140
1.0
102
RTVSPost2010PropOp57
 70
     0
102
RTVSPropertyOp0
 70
     0
102
RTVSPropertyOp1
 70
     0
102
RTVSPropertyOp2
 70
     0
102
RTVSPropertyOp3
 70
     0
102
RTVSPropertyOp4
 70
     0
102
RTVSPropertyOp5
 70
     0
102
RTVSPropertyOp6
 70
     0
102
RTVSPropertyOp7
 70
     0
102
RTVSPropertyOp8
 70
     0
102
RTVSPropertyOp9
 70
     0
102
RTVSPropertyOp10
 70
     0
102
RTVSPropertyOp11
 70
     0
102
RTVSPropertyOp12
 70
     0
102
RTVSPropertyOp13
 70
     0
102
RTVSPropertyOp14
 70
     2
102
RTVSPropertyOp15
 70
     0
102
RTVSPropertyOp16
 70
     0
102
RTVSPropertyOp17
 70
     0
102
RTVSPropertyOp18
 70
     0
102
RTVSPropertyOp19
 70
     0
102
RTVSPropertyOp20
 70
     0
102
RTVSPropertyOp21
 70
     0
102
RTVSPropertyOp22
 70
     0
102
RTVSPropertyOp23
 70
     0
102
RTVSPropertyOp24
 70
     0
102
RTVSPropertyOp25
 70
     0
102
RTVSPropertyOp26
 70
     0
102
RTVSPropertyOp27
 70
     0
102
RTVSPropertyOp28
 70
     1
102
RTVSPropertyOp29
 70
     1
102
RTVSPropertyOp30
 70
     1
102
RTVSPropertyOp31
 70
     1
102
RTVSPropertyOp32
 70
     1
102
RTVSPropertyOp33
 70
     1
102
RTVSPropertyOp34
 70
     1
102
RTVSPropertyOp35
 70
     1
102
RTVSPropertyOp36
 70
     1
102
RTVSPropertyOp37
 70
     0
102
RTVSPropertyOp38
 70
     0
102
RTVSPropertyOp39
 70
     0
102
RTVSPropertyOp40
 70
     0
102
RTVSPropertyOp41
 70
     0
102
RTVSPropertyOp42
 70
     0
102
RTVSPropertyOp43
 70
     0
102
RTVSPropertyOp44
 70
     0
102
RTVSPropertyOp45
 70
     1
102
RTVSPropertyOp46
 70
     0
102
RTVSPropertyOp47
 70
     0
102
RTVSPropertyOp48
 70
     0
102
RTVSPropertyOp49
 70
     1
102
RTVSPropertyOp50
 70
     0
102
RTVSPropertyOp51
 70
     0
102
RTVSPropertyOp52
 70
     0
102
RTVSPropertyOp53
 70
     0
102
RTVSPropertyOp54
 70
     0
102
RTVSPropertyOp55
 70
     1
102
RTVSPropertyOp56
 70
     0
102
RTVSPropertyOp57
 70
     0
102
RTVSPropertyOp58
 70
     0
102
RTVSPropertyOp59
 70
     0
102
RTVSPropertyOp60
 70
     0
102
RTVSPropertyOp61
 70
     0
102
RTVSPropertyOp62
 70
     0
  0
XRECORD
  5
10CC
102
{ACAD_REACTORS
330
10CB
102
}
330
10CB
100
AcDbXrecord
280
     1
102
RTVSPost2010Prop28
280
     0
102
RTVSPost2010PropOp28
 70
     1
102
RTVSPost2010Prop29
280
     1
102
RTVSPost2010PropOp29
 70
     1
102
RTVSPost2010Prop30
280
     1
102
RTVSPost2010PropOp30
 70
     1
102
RTVSPost2010Prop31
280
     0
102
RTVSPost2010PropOp31
 70
     1
102
RTVSPost2010Prop32
280
     0
102
RTVSPost2010PropOp32
 70
     1
102
RTVSPost2010Prop33
280
     0
102
RTVSPost2010PropOp33
 70
     1
102
RTVSPost2010Prop34
280
     0
102
RTVSPost2010PropOp34
 70
     1
102
RTVSPost2010Prop35
280
     0
102
RTVSPost2010PropOp35
 70
     1
102
RTVSPost2010Prop36
280
     0
102
RTVSPost2010PropOp36
 70
     1
102
RTVSPost2010Prop37
 90
       50
102
RTVSPost2010PropOp37
 70
     1
102
RTVSPost2010Prop38
140
0.0
102
RTVSPost2010PropOp38
 70
     1
102
RTVSPost2010Prop39
140
1.0
102
RTVSPost2010PropOp39
 70
     1
102
RTVSPost2010Prop40
 90
        0
102
RTVSPost2010PropOp40
 70
     1
102
RTVSPost2010Prop41ColorIndex
 90
       18
102
RTVSPost2010Prop41ColorRGB
 90
        0
102
RTVSPost2010PropOp41
 70
     1
102
RTVSPost2010Prop42
 90
       50
102
RTVSPost2010PropOp42
 70
     1
102
RTVSPost2010Prop43
 90
        3
102
RTVSPost2010PropOp43
 70
     1
102
RTVSPost2010Prop44ColorIndex
 90
        5
102
RTVSPost2010Prop44ColorRGB
 90
      255
102
RTVSPost2010PropOp44
 70
     1
102
RTVSPost2010Prop45
280
     0
102
RTVSPost2010PropOp45
 70
     1
102
RTVSPost2010Prop46
 90
       50
102
RTVSPost2010PropOp46
 70
     1
102
RTVSPost2010Prop47
 90
       50
102
RTVSPost2010PropOp47
 70
     1
102
RTVSPost2010Prop48
 90
       50
102
RTVSPost2010PropOp48
 70
     1
102
RTVSPost2010Prop49
280
     0
102
RTVSPost2010PropOp49
 70
     1
102
RTVSPost2010Prop50
 90
       50
102
RTVSPost2010PropOp50
 70
     1
102
RTVSPost2010Prop51ColorIndex
 90
      256
102
RTVSPost2010Prop51ColorRGB
 90
-16777216
102
RTVSPost2010PropOp51
 70
     0
102
RTVSPost2010Prop52
140
1.0
102
RTVSPost2010PropOp52
 70
     0
102
RTVSPost2010Prop53
 90
        2
102
RTVSPost2010PropOp53
 70
     1
102
RTVSPost2010Prop54
  1
strokes_ogs.tif
102
RTVSPost2010PropOp54
 70
     1
102
RTVSPost2010Prop55
280
     0
102
RTVSPost2010PropOp55
 70
     1
102
RTVSPost2010Prop56
140
1.0
102
RTVSPost2010PropOp56
 70
     1
102
RTVSPost2010Prop57
140
1.0
102
RTVSPost2010PropOp57
 70
     1
102
RTVSPropertyOp0
 70
     1
102
RTVSPropertyOp1
 70
     1
102
RTVSPropertyOp2
 70
     1
102
RTVSPropertyOp3
 70
     1
102
RTVSPropertyOp4
 70
     1
102
RTVSPropertyOp5
 70
     1
102
RTVSPropertyOp6
 70
     1
102
RTVSPropertyOp7
 70
     1
102
RTVSPropertyOp8
 70
     1
102
RTVSPropertyOp9
 70
     1
102
RTVSPropertyOp10
 70
     1
102
RTVSPropertyOp11
 70
     1
102
RTVSPropertyOp12
 70
     1
102
RTVSPropertyOp13
 70
     1
102
RTVSPropertyOp14
 70
     1
102
RTVSPropertyOp15
 70
     1
102
RTVSPropertyOp16
 70
     1
102
RTVSPropertyOp17
 70
     1
102
RTVSPropertyOp18
 70
     1
102
RTVSPropertyOp19
 70
     1
102
RTVSPropertyOp20
 70
     1
102
RTVSPropertyOp21
 70
     1
102
RTVSPropertyOp22
 70
     1
102
RTVSPropertyOp23
 70
     1
102
RTVSPropertyOp24
 70
     1
102
RTVSPropertyOp25
 70
     1
102
RTVSPropertyOp26
 70
     1
102
RTVSPropertyOp27
 70
     1
102
RTVSPropertyOp28
 70
     1
102
RTVSPropertyOp29
 70
     1
102
RTVSPropertyOp30
 70
     1
102
RTVSPropertyOp31
 70
     1
102
RTVSPropertyOp32
 70
     1
102
RTVSPropertyOp33
 70
     1
102
RTVSPropertyOp34
 70
     1
102
RTVSPropertyOp35
 70
     1
102
RTVSPropertyOp36
 70
     1
102
RTVSPropertyOp37
 70
     1
102
RTVSPropertyOp38
 70
     1
102
RTVSPropertyOp39
 70
     1
102
RTVSPropertyOp40
 70
     1
102
RTVSPropertyOp41
 70
     1
102
RTVSPropertyOp42
 70
     1
102
RTVSPropertyOp43
 70
     1
102
RTVSPropertyOp44
 70
     1
102
RTVSPropertyOp45
 70
     1
102
RTVSPropertyOp46
 70
     1
102
RTVSPropertyOp47
 70
     1
102
RTVSPropertyOp48
 70
     1
102
RTVSPropertyOp49
 70
     1
102
RTVSPropertyOp50
 70
     1
102
RTVSPropertyOp51
 70
     0
102
RTVSPropertyOp52
 70
     0
102
RTVSPropertyOp53
 70
     1
102
RTVSPropertyOp54
 70
     1
102
RTVSPropertyOp55
 70
     1
102
RTVSPropertyOp56
 70
     1
102
RTVSPropertyOp57
 70
     1
102
RTVSPropertyOp58
 70
     1
102
RTVSPropertyOp59
 70
     1
102
RTVSPropertyOp60
 70
     1
102
RTVSPropertyOp61
 70
     1
102
RTVSPropertyOp62
 70
     1
  0
XRECORD
  5
10B0
102
{ACAD_REACTORS
330
10AF
102
}
330
10AF
100
AcDbXrecord
280
     1
102
RTVSPost2010Prop28
280
     0
102
RTVSPost2010PropOp28
 70
     1
102
RTVSPost2010Prop29
280
     1
102
RTVSPost2010PropOp29
 70
     1
102
RTVSPost2010Prop30
280
     1
102
RTVSPost2010PropOp30
 70
     1
102
RTVSPost2010Prop31
280
     0
102
RTVSPost2010PropOp31
 70
     1
102
RTVSPost2010Prop32
280
     0
102
RTVSPost2010PropOp32
 70
     1
102
RTVSPost2010Prop33
280
     0
102
RTVSPost2010PropOp33
 70
     1
102
RTVSPost2010Prop34
280
     0
102
RTVSPost2010PropOp34
 70
     1
102
RTVSPost2010Prop35
280
     0
102
RTVSPost2010PropOp35
 70
     1
102
RTVSPost2010Prop36
280
     0
102
RTVSPost2010PropOp36
 70
     1
102
RTVSPost2010Prop37
 90
       50
102
RTVSPost2010PropOp37
 70
     1
102
RTVSPost2010Prop38
140
0.0
102
RTVSPost2010PropOp38
 70
     1
102
RTVSPost2010Prop39
140
1.0
102
RTVSPost2010PropOp39
 70
     1
102
RTVSPost2010Prop40
 90
        0
102
RTVSPost2010PropOp40
 70
     1
102
RTVSPost2010Prop41ColorIndex
 90
       18
102
RTVSPost2010Prop41ColorRGB
 90
        0
102
RTVSPost2010PropOp41
 70
     1
102
RTVSPost2010Prop42
 90
       50
102
RTVSPost2010PropOp42
 70
     1
102
RTVSPost2010Prop43
 90
        3
102
RTVSPost2010PropOp43
 70
     1
102
RTVSPost2010Prop44ColorIndex
 90
        5
102
RTVSPost2010Prop44ColorRGB
 90
      255
102
RTVSPost2010PropOp44
 70
     1
102
RTVSPost2010Prop45
280
     0
102
RTVSPost2010PropOp45
 70
     1
102
RTVSPost2010Prop46
 90
       50
102
RTVSPost2010PropOp46
 70
     1
102
RTVSPost2010Prop47
 90
       50
102
RTVSPost2010PropOp47
 70
     1
102
RTVSPost2010Prop48
 90
       50
102
RTVSPost2010PropOp48
 70
     1
102
RTVSPost2010Prop49
280
     0
102
RTVSPost2010PropOp49
 70
     1
102
RTVSPost2010Prop50
 90
       50
102
RTVSPost2010PropOp50
 70
     1
102
RTVSPost2010Prop51ColorIndex
 90
      256
102
RTVSPost2010Prop51ColorRGB
 90
-16777216
102
RTVSPost2010PropOp51
 70
     0
102
RTVSPost2010Prop52
140
1.0
102
RTVSPost2010PropOp52
 70
     0
102
RTVSPost2010Prop53
 90
        2
102
RTVSPost2010PropOp53
 70
     1
102
RTVSPost2010Prop54
  1
strokes_ogs.tif
102
RTVSPost2010PropOp54
 70
     1
102
RTVSPost2010Prop55
280
     0
102
RTVSPost2010PropOp55
 70
     1
102
RTVSPost2010Prop56
140
1.0
102
RTVSPost2010PropOp56
 70
     1
102
RTVSPost2010Prop57
140
1.0
102
RTVSPost2010PropOp57
 70
     1
102
RTVSPropertyOp0
 70
     1
102
RTVSPropertyOp1
 70
     1
102
RTVSPropertyOp2
 70
     1
102
RTVSPropertyOp3
 70
     1
102
RTVSPropertyOp4
 70
     1
102
RTVSPropertyOp5
 70
     1
102
RTVSPropertyOp6
 70
     1
102
RTVSPropertyOp7
 70
     1
102
RTVSPropertyOp8
 70
     1
102
RTVSPropertyOp9
 70
     1
102
RTVSPropertyOp10
 70
     1
102
RTVSPropertyOp11
 70
     1
102
RTVSPropertyOp12
 70
     1
102
RTVSPropertyOp13
 70
     1
102
RTVSPropertyOp14
 70
     1
102
RTVSPropertyOp15
 70
     1
102
RTVSPropertyOp16
 70
     1
102
RTVSPropertyOp17
 70
     1
102
RTVSPropertyOp18
 70
     1
102
RTVSPropertyOp19
 70
     1
102
RTVSPropertyOp20
 70
     1
102
RTVSPropertyOp21
 70
     1
102
RTVSPropertyOp22
 70
     1
102
RTVSPropertyOp23
 70
     1
102
RTVSPropertyOp24
 70
     1
102
RTVSPropertyOp25
 70
     1
102
RTVSPropertyOp26
 70
     1
102
RTVSPropertyOp27
 70
     1
102
RTVSPropertyOp28
 70
     1
102
RTVSPropertyOp29
 70
     1
102
RTVSPropertyOp30
 70
     1
102
RTVSPropertyOp31
 70
     1
102
RTVSPropertyOp32
 70
     1
102
RTVSPropertyOp33
 70
     1
102
RTVSPropertyOp34
 70
     1
102
RTVSPropertyOp35
 70
     1
102
RTVSPropertyOp36
 70
     1
102
RTVSPropertyOp37
 70
     1
102
RTVSPropertyOp38
 70
     1
102
RTVSPropertyOp39
 70
     1
102
RTVSPropertyOp40
 70
     1
102
RTVSPropertyOp41
 70
     1
102
RTVSPropertyOp42
 70
     1
102
RTVSPropertyOp43
 70
     1
102
RTVSPropertyOp44
 70
     1
102
RTVSPropertyOp45
 70
     1
102
RTVSPropertyOp46
 70
     1
102
RTVSPropertyOp47
 70
     1
102
RTVSPropertyOp48
 70
     1
102
RTVSPropertyOp49
 70
     1
102
RTVSPropertyOp50
 70
     1
102
RTVSPropertyOp51
 70
     0
102
RTVSPropertyOp52
 70
     0
102
RTVSPropertyOp53
 70
     1
102
RTVSPropertyOp54
 70
     1
102
RTVSPropertyOp55
 70
     1
102
RTVSPropertyOp56
 70
     1
102
RTVSPropertyOp57
 70
     1
102
RTVSPropertyOp58
 70
     1
102
RTVSPropertyOp59
 70
     1
102
RTVSPropertyOp60
 70
     1
102
RTVSPropertyOp61
 70
     1
102
RTVSPropertyOp62
 70
     1
  0
XRECORD
  5
10B2
102
{ACAD_REACTORS
330
10B1
102
}
330
10B1
100
AcDbXrecord
280
     1
102
RTVSPost2010Prop28
280
     0
102
RTVSPost2010PropOp28
 70
     1
102
RTVSPost2010Prop29
280
     1
102
RTVSPost2010PropOp29
 70
     1
102
RTVSPost2010Prop30
280
     1
102
RTVSPost2010PropOp30
 70
     1
102
RTVSPost2010Prop31
280
     0
102
RTVSPost2010PropOp31
 70
     1
102
RTVSPost2010Prop32
280
     0
102
RTVSPost2010PropOp32
 70
     1
102
RTVSPost2010Prop33
280
     0
102
RTVSPost2010PropOp33
 70
     1
102
RTVSPost2010Prop34
280
     0
102
RTVSPost2010PropOp34
 70
     1
102
RTVSPost2010Prop35
280
     0
102
RTVSPost2010PropOp35
 70
     1
102
RTVSPost2010Prop36
280
     0
102
RTVSPost2010PropOp36
 70
     1
102
RTVSPost2010Prop37
 90
       50
102
RTVSPost2010PropOp37
 70
     1
102
RTVSPost2010Prop38
140
0.0
102
RTVSPost2010PropOp38
 70
     1
102
RTVSPost2010Prop39
140
1.0
102
RTVSPost2010PropOp39
 70
     1
102
RTVSPost2010Prop40
 90
        0
102
RTVSPost2010PropOp40
 70
     1
102
RTVSPost2010Prop41ColorIndex
 90
       18
102
RTVSPost2010Prop41ColorRGB
 90
        0
102
RTVSPost2010PropOp41
 70
     1
102
RTVSPost2010Prop42
 90
       50
102
RTVSPost2010PropOp42
 70
     1
102
RTVSPost2010Prop43
 90
        3
102
RTVSPost2010PropOp43
 70
     1
102
RTVSPost2010Prop44ColorIndex
 90
        5
102
RTVSPost2010Prop44ColorRGB
 90
      255
102
RTVSPost2010PropOp44
 70
     1
102
RTVSPost2010Prop45
280
     0
102
RTVSPost2010PropOp45
 70
     1
102
RTVSPost2010Prop46
 90
       50
102
RTVSPost2010PropOp46
 70
     1
102
RTVSPost2010Prop47
 90
       50
102
RTVSPost2010PropOp47
 70
     1
102
RTVSPost2010Prop48
 90
       50
102
RTVSPost2010PropOp48
 70
     1
102
RTVSPost2010Prop49
280
     0
102
RTVSPost2010PropOp49
 70
     1
102
RTVSPost2010Prop50
 90
       50
102
RTVSPost2010PropOp50
 70
     1
102
RTVSPost2010Prop51ColorIndex
 90
      256
102
RTVSPost2010Prop51ColorRGB
 90
-16777216
102
RTVSPost2010PropOp51
 70
     0
102
RTVSPost2010Prop52
140
1.0
102
RTVSPost2010PropOp52
 70
     0
102
RTVSPost2010Prop53
 90
        2
102
RTVSPost2010PropOp53
 70
     1
102
RTVSPost2010Prop54
  1
strokes_ogs.tif
102
RTVSPost2010PropOp54
 70
     1
102
RTVSPost2010Prop55
280
     0
102
RTVSPost2010PropOp55
 70
     1
102
RTVSPost2010Prop56
140
1.0
102
RTVSPost2010PropOp56
 70
     1
102
RTVSPost2010Prop57
140
1.0
102
RTVSPost2010PropOp57
 70
     1
102
RTVSPropertyOp0
 70
     1
102
RTVSPropertyOp1
 70
     1
102
RTVSPropertyOp2
 70
     1
102
RTVSPropertyOp3
 70
     1
102
RTVSPropertyOp4
 70
     1
102
RTVSPropertyOp5
 70
     1
102
RTVSPropertyOp6
 70
     1
102
RTVSPropertyOp7
 70
     1
102
RTVSPropertyOp8
 70
     1
102
RTVSPropertyOp9
 70
     1
102
RTVSPropertyOp10
 70
     1
102
RTVSPropertyOp11
 70
     1
102
RTVSPropertyOp12
 70
     1
102
RTVSPropertyOp13
 70
     1
102
RTVSPropertyOp14
 70
     1
102
RTVSPropertyOp15
 70
     1
102
RTVSPropertyOp16
 70
     1
102
RTVSPropertyOp17
 70
     1
102
RTVSPropertyOp18
 70
     1
102
RTVSPropertyOp19
 70
     1
102
RTVSPropertyOp20
 70
     1
102
RTVSPropertyOp21
 70
     1
102
RTVSPropertyOp22
 70
     1
102
RTVSPropertyOp23
 70
     1
102
RTVSPropertyOp24
 70
     1
102
RTVSPropertyOp25
 70
     1
102
RTVSPropertyOp26
 70
     1
102
RTVSPropertyOp27
 70
     1
102
RTVSPropertyOp28
 70
     1
102
RTVSPropertyOp29
 70
     1
102
RTVSPropertyOp30
 70
     1
102
RTVSPropertyOp31
 70
     1
102
RTVSPropertyOp32
 70
     1
102
RTVSPropertyOp33
 70
     1
102
RTVSPropertyOp34
 70
     1
102
RTVSPropertyOp35
 70
     1
102
RTVSPropertyOp36
 70
     1
102
RTVSPropertyOp37
 70
     1
102
RTVSPropertyOp38
 70
     1
102
RTVSPropertyOp39
 70
     1
102
RTVSPropertyOp40
 70
     1
102
RTVSPropertyOp41
 70
     1
102
RTVSPropertyOp42
 70
     1
102
RTVSPropertyOp43
 70
     1
102
RTVSPropertyOp44
 70
     1
102
RTVSPropertyOp45
 70
     1
102
RTVSPropertyOp46
 70
     1
102
RTVSPropertyOp47
 70
     1
102
RTVSPropertyOp48
 70
     1
102
RTVSPropertyOp49
 70
     1
102
RTVSPropertyOp50
 70
     1
102
RTVSPropertyOp51
 70
     0
102
RTVSPropertyOp52
 70
     0
102
RTVSPropertyOp53
 70
     1
102
RTVSPropertyOp54
 70
     1
102
RTVSPropertyOp55
 70
     1
102
RTVSPropertyOp56
 70
     1
102
RTVSPropertyOp57
 70
     1
102
RTVSPropertyOp58
 70
     1
102
RTVSPropertyOp59
 70
     1
102
RTVSPropertyOp60
 70
     1
102
RTVSPropertyOp61
 70
     1
102
RTVSPropertyOp62
 70
     1
  0
XRECORD
  5
10B4
102
{ACAD_REACTORS
330
10B3
102
}
330
10B3
100
AcDbXrecord
280
     1
102
RTVSPost2010Prop28
280
     0
102
RTVSPost2010PropOp28
 70
     1
102
RTVSPost2010Prop29
280
     1
102
RTVSPost2010PropOp29
 70
     1
102
RTVSPost2010Prop30
280
     1
102
RTVSPost2010PropOp30
 70
     1
102
RTVSPost2010Prop31
280
     0
102
RTVSPost2010PropOp31
 70
     1
102
RTVSPost2010Prop32
280
     0
102
RTVSPost2010PropOp32
 70
     1
102
RTVSPost2010Prop33
280
     0
102
RTVSPost2010PropOp33
 70
     1
102
RTVSPost2010Prop34
280
     0
102
RTVSPost2010PropOp34
 70
     1
102
RTVSPost2010Prop35
280
     0
102
RTVSPost2010PropOp35
 70
     1
102
RTVSPost2010Prop36
280
     0
102
RTVSPost2010PropOp36
 70
     1
102
RTVSPost2010Prop37
 90
       50
102
RTVSPost2010PropOp37
 70
     1
102
RTVSPost2010Prop38
140
0.0
102
RTVSPost2010PropOp38
 70
     1
102
RTVSPost2010Prop39
140
1.0
102
RTVSPost2010PropOp39
 70
     1
102
RTVSPost2010Prop40
 90
        0
102
RTVSPost2010PropOp40
 70
     1
102
RTVSPost2010Prop41ColorIndex
 90
       18
102
RTVSPost2010Prop41ColorRGB
 90
        0
102
RTVSPost2010PropOp41
 70
     1
102
RTVSPost2010Prop42
 90
       50
102
RTVSPost2010PropOp42
 70
     1
102
RTVSPost2010Prop43
 90
        3
102
RTVSPost2010PropOp43
 70
     1
102
RTVSPost2010Prop44ColorIndex
 90
        5
102
RTVSPost2010Prop44ColorRGB
 90
      255
102
RTVSPost2010PropOp44
 70
     1
102
RTVSPost2010Prop45
280
     0
102
RTVSPost2010PropOp45
 70
     1
102
RTVSPost2010Prop46
 90
       50
102
RTVSPost2010PropOp46
 70
     1
102
RTVSPost2010Prop47
 90
       50
102
RTVSPost2010PropOp47
 70
     1
102
RTVSPost2010Prop48
 90
       50
102
RTVSPost2010PropOp48
 70
     1
102
RTVSPost2010Prop49
280
     0
102
RTVSPost2010PropOp49
 70
     1
102
RTVSPost2010Prop50
 90
       50
102
RTVSPost2010PropOp50
 70
     1
102
RTVSPost2010Prop51ColorIndex
 90
      256
102
RTVSPost2010Prop51ColorRGB
 90
-16777216
102
RTVSPost2010PropOp51
 70
     0
102
RTVSPost2010Prop52
140
1.0
102
RTVSPost2010PropOp52
 70
     0
102
RTVSPost2010Prop53
 90
        2
102
RTVSPost2010PropOp53
 70
     1
102
RTVSPost2010Prop54
  1
strokes_ogs.tif
102
RTVSPost2010PropOp54
 70
     1
102
RTVSPost2010Prop55
280
     0
102
RTVSPost2010PropOp55
 70
     1
102
RTVSPost2010Prop56
140
1.0
102
RTVSPost2010PropOp56
 70
     1
102
RTVSPost2010Prop57
140
1.0
102
RTVSPost2010PropOp57
 70
     1
102
RTVSPropertyOp0
 70
     1
102
RTVSPropertyOp1
 70
     1
102
RTVSPropertyOp2
 70
     1
102
RTVSPropertyOp3
 70
     1
102
RTVSPropertyOp4
 70
     1
102
RTVSPropertyOp5
 70
     1
102
RTVSPropertyOp6
 70
     1
102
RTVSPropertyOp7
 70
     1
102
RTVSPropertyOp8
 70
     1
102
RTVSPropertyOp9
 70
     1
102
RTVSPropertyOp10
 70
     1
102
RTVSPropertyOp11
 70
     1
102
RTVSPropertyOp12
 70
     1
102
RTVSPropertyOp13
 70
     1
102
RTVSPropertyOp14
 70
     1
102
RTVSPropertyOp15
 70
     1
102
RTVSPropertyOp16
 70
     1
102
RTVSPropertyOp17
 70
     1
102
RTVSPropertyOp18
 70
     1
102
RTVSPropertyOp19
 70
     1
102
RTVSPropertyOp20
 70
     1
102
RTVSPropertyOp21
 70
     1
102
RTVSPropertyOp22
 70
     1
102
RTVSPropertyOp23
 70
     1
102
RTVSPropertyOp24
 70
     1
102
RTVSPropertyOp25
 70
     1
102
RTVSPropertyOp26
 70
     1
102
RTVSPropertyOp27
 70
     1
102
RTVSPropertyOp28
 70
     1
102
RTVSPropertyOp29
 70
     1
102
RTVSPropertyOp30
 70
     1
102
RTVSPropertyOp31
 70
     1
102
RTVSPropertyOp32
 70
     1
102
RTVSPropertyOp33
 70
     1
102
RTVSPropertyOp34
 70
     1
102
RTVSPropertyOp35
 70
     1
102
RTVSPropertyOp36
 70
     1
102
RTVSPropertyOp37
 70
     1
102
RTVSPropertyOp38
 70
     1
102
RTVSPropertyOp39
 70
     1
102
RTVSPropertyOp40
 70
     1
102
RTVSPropertyOp41
 70
     1
102
RTVSPropertyOp42
 70
     1
102
RTVSPropertyOp43
 70
     1
102
RTVSPropertyOp44
 70
     1
102
RTVSPropertyOp45
 70
     1
102
RTVSPropertyOp46
 70
     1
102
RTVSPropertyOp47
 70
     1
102
RTVSPropertyOp48
 70
     1
102
RTVSPropertyOp49
 70
     1
102
RTVSPropertyOp50
 70
     1
102
RTVSPropertyOp51
 70
     0
102
RTVSPropertyOp52
 70
     0
102
RTVSPropertyOp53
 70
     1
102
RTVSPropertyOp54
 70
     1
102
RTVSPropertyOp55
 70
     1
102
RTVSPropertyOp56
 70
     1
102
RTVSPropertyOp57
 70
     1
102
RTVSPropertyOp58
 70
     1
102
RTVSPropertyOp59
 70
     1
102
RTVSPropertyOp60
 70
     1
102
RTVSPropertyOp61
 70
     1
102
RTVSPropertyOp62
 70
     1
  0
XRECORD
  5
10B6
102
{ACAD_REACTORS
330
10B5
102
}
330
10B5
100
AcDbXrecord
280
     1
102
RTVSPost2010Prop28
280
     0
102
RTVSPost2010PropOp28
 70
     1
102
RTVSPost2010Prop29
280
     1
102
RTVSPost2010PropOp29
 70
     1
102
RTVSPost2010Prop30
280
     1
102
RTVSPost2010PropOp30
 70
     1
102
RTVSPost2010Prop31
280
     0
102
RTVSPost2010PropOp31
 70
     1
102
RTVSPost2010Prop32
280
     0
102
RTVSPost2010PropOp32
 70
     1
102
RTVSPost2010Prop33
280
     0
102
RTVSPost2010PropOp33
 70
     1
102
RTVSPost2010Prop34
280
     0
102
RTVSPost2010PropOp34
 70
     1
102
RTVSPost2010Prop35
280
     0
102
RTVSPost2010PropOp35
 70
     1
102
RTVSPost2010Prop36
280
     0
102
RTVSPost2010PropOp36
 70
     1
102
RTVSPost2010Prop37
 90
       50
102
RTVSPost2010PropOp37
 70
     1
102
RTVSPost2010Prop38
140
0.0
102
RTVSPost2010PropOp38
 70
     1
102
RTVSPost2010Prop39
140
1.0
102
RTVSPost2010PropOp39
 70
     1
102
RTVSPost2010Prop40
 90
        0
102
RTVSPost2010PropOp40
 70
     1
102
RTVSPost2010Prop41ColorIndex
 90
       18
102
RTVSPost2010Prop41ColorRGB
 90
        0
102
RTVSPost2010PropOp41
 70
     1
102
RTVSPost2010Prop42
 90
       50
102
RTVSPost2010PropOp42
 70
     1
102
RTVSPost2010Prop43
 90
        3
102
RTVSPost2010PropOp43
 70
     1
102
RTVSPost2010Prop44ColorIndex
 90
        5
102
RTVSPost2010Prop44ColorRGB
 90
      255
102
RTVSPost2010PropOp44
 70
     1
102
RTVSPost2010Prop45
280
     0
102
RTVSPost2010PropOp45
 70
     1
102
RTVSPost2010Prop46
 90
       50
102
RTVSPost2010PropOp46
 70
     1
102
RTVSPost2010Prop47
 90
       50
102
RTVSPost2010PropOp47
 70
     1
102
RTVSPost2010Prop48
 90
       50
102
RTVSPost2010PropOp48
 70
     1
102
RTVSPost2010Prop49
280
     0
102
RTVSPost2010PropOp49
 70
     1
102
RTVSPost2010Prop50
 90
       50
102
RTVSPost2010PropOp50
 70
     1
102
RTVSPost2010Prop51ColorIndex
 90
      256
102
RTVSPost2010Prop51ColorRGB
 90
-16777216
102
RTVSPost2010PropOp51
 70
     0
102
RTVSPost2010Prop52
140
1.0
102
RTVSPost2010PropOp52
 70
     0
102
RTVSPost2010Prop53
 90
        2
102
RTVSPost2010PropOp53
 70
     1
102
RTVSPost2010Prop54
  1
strokes_ogs.tif
102
RTVSPost2010PropOp54
 70
     1
102
RTVSPost2010Prop55
280
     0
102
RTVSPost2010PropOp55
 70
     1
102
RTVSPost2010Prop56
140
1.0
102
RTVSPost2010PropOp56
 70
     1
102
RTVSPost2010Prop57
140
1.0
102
RTVSPost2010PropOp57
 70
     1
102
RTVSPropertyOp0
 70
     1
102
RTVSPropertyOp1
 70
     1
102
RTVSPropertyOp2
 70
     1
102
RTVSPropertyOp3
 70
     1
102
RTVSPropertyOp4
 70
     1
102
RTVSPropertyOp5
 70
     1
102
RTVSPropertyOp6
 70
     1
102
RTVSPropertyOp7
 70
     1
102
RTVSPropertyOp8
 70
     1
102
RTVSPropertyOp9
 70
     1
102
RTVSPropertyOp10
 70
     1
102
RTVSPropertyOp11
 70
     1
102
RTVSPropertyOp12
 70
     1
102
RTVSPropertyOp13
 70
     1
102
RTVSPropertyOp14
 70
     1
102
RTVSPropertyOp15
 70
     1
102
RTVSPropertyOp16
 70
     1
102
RTVSPropertyOp17
 70
     1
102
RTVSPropertyOp18
 70
     1
102
RTVSPropertyOp19
 70
     1
102
RTVSPropertyOp20
 70
     1
102
RTVSPropertyOp21
 70
     1
102
RTVSPropertyOp22
 70
     1
102
RTVSPropertyOp23
 70
     1
102
RTVSPropertyOp24
 70
     1
102
RTVSPropertyOp25
 70
     1
102
RTVSPropertyOp26
 70
     1
102
RTVSPropertyOp27
 70
     1
102
RTVSPropertyOp28
 70
     1
102
RTVSPropertyOp29
 70
     1
102
RTVSPropertyOp30
 70
     1
102
RTVSPropertyOp31
 70
     1
102
RTVSPropertyOp32
 70
     1
102
RTVSPropertyOp33
 70
     1
102
RTVSPropertyOp34
 70
     1
102
RTVSPropertyOp35
 70
     1
102
RTVSPropertyOp36
 70
     1
102
RTVSPropertyOp37
 70
     1
102
RTVSPropertyOp38
 70
     1
102
RTVSPropertyOp39
 70
     1
102
RTVSPropertyOp40
 70
     1
102
RTVSPropertyOp41
 70
     1
102
RTVSPropertyOp42
 70
     1
102
RTVSPropertyOp43
 70
     1
102
RTVSPropertyOp44
 70
     1
102
RTVSPropertyOp45
 70
     1
102
RTVSPropertyOp46
 70
     1
102
RTVSPropertyOp47
 70
     1
102
RTVSPropertyOp48
 70
     1
102
RTVSPropertyOp49
 70
     1
102
RTVSPropertyOp50
 70
     1
102
RTVSPropertyOp51
 70
     0
102
RTVSPropertyOp52
 70
     0
102
RTVSPropertyOp53
 70
     1
102
RTVSPropertyOp54
 70
     1
102
RTVSPropertyOp55
 70
     1
102
RTVSPropertyOp56
 70
     1
102
RTVSPropertyOp57
 70
     1
102
RTVSPropertyOp58
 70
     1
102
RTVSPropertyOp59
 70
     1
102
RTVSPropertyOp60
 70
     1
102
RTVSPropertyOp61
 70
     1
102
RTVSPropertyOp62
 70
     1
  0
XRECORD
  5
10BE
102
{ACAD_REACTORS
330
10BD
102
}
330
10BD
100
AcDbXrecord
280
     1
102
RTVSPost2010Prop28
280
     0
102
RTVSPost2010PropOp28
 70
     1
102
RTVSPost2010Prop29
280
     1
102
RTVSPost2010PropOp29
 70
     1
102
RTVSPost2010Prop30
280
     1
102
RTVSPost2010PropOp30
 70
     1
102
RTVSPost2010Prop31
280
     0
102
RTVSPost2010PropOp31
 70
     1
102
RTVSPost2010Prop32
280
     0
102
RTVSPost2010PropOp32
 70
     1
102
RTVSPost2010Prop33
280
     0
102
RTVSPost2010PropOp33
 70
     1
102
RTVSPost2010Prop34
280
     0
102
RTVSPost2010PropOp34
 70
     1
102
RTVSPost2010Prop35
280
     0
102
RTVSPost2010PropOp35
 70
     1
102
RTVSPost2010Prop36
280
     0
102
RTVSPost2010PropOp36
 70
     1
102
RTVSPost2010Prop37
 90
       50
102
RTVSPost2010PropOp37
 70
     1
102
RTVSPost2010Prop38
140
0.0
102
RTVSPost2010PropOp38
 70
     1
102
RTVSPost2010Prop39
140
1.0
102
RTVSPost2010PropOp39
 70
     1
102
RTVSPost2010Prop40
 90
        0
102
RTVSPost2010PropOp40
 70
     1
102
RTVSPost2010Prop41ColorIndex
 90
       18
102
RTVSPost2010Prop41ColorRGB
 90
        0
102
RTVSPost2010PropOp41
 70
     1
102
RTVSPost2010Prop42
 90
       50
102
RTVSPost2010PropOp42
 70
     1
102
RTVSPost2010Prop43
 90
        3
102
RTVSPost2010PropOp43
 70
     1
102
RTVSPost2010Prop44ColorIndex
 90
        5
102
RTVSPost2010Prop44ColorRGB
 90
      255
102
RTVSPost2010PropOp44
 70
     1
102
RTVSPost2010Prop45
280
     0
102
RTVSPost2010PropOp45
 70
     1
102
RTVSPost2010Prop46
 90
       50
102
RTVSPost2010PropOp46
 70
     1
102
RTVSPost2010Prop47
 90
       50
102
RTVSPost2010PropOp47
 70
     1
102
RTVSPost2010Prop48
 90
       50
102
RTVSPost2010PropOp48
 70
     1
102
RTVSPost2010Prop49
280
     0
102
RTVSPost2010PropOp49
 70
     1
102
RTVSPost2010Prop50
 90
       50
102
RTVSPost2010PropOp50
 70
     1
102
RTVSPost2010Prop51ColorIndex
 90
      256
102
RTVSPost2010Prop51ColorRGB
 90
-16777216
102
RTVSPost2010PropOp51
 70
     0
102
RTVSPost2010Prop52
140
1.0
102
RTVSPost2010PropOp52
 70
     0
102
RTVSPost2010Prop53
 90
        2
102
RTVSPost2010PropOp53
 70
     1
102
RTVSPost2010Prop54
  1
strokes_ogs.tif
102
RTVSPost2010PropOp54
 70
     1
102
RTVSPost2010Prop55
280
     0
102
RTVSPost2010PropOp55
 70
     1
102
RTVSPost2010Prop56
140
1.0
102
RTVSPost2010PropOp56
 70
     1
102
RTVSPost2010Prop57
140
1.0
102
RTVSPost2010PropOp57
 70
     1
102
RTVSPropertyOp0
 70
     1
102
RTVSPropertyOp1
 70
     1
102
RTVSPropertyOp2
 70
     1
102
RTVSPropertyOp3
 70
     1
102
RTVSPropertyOp4
 70
     1
102
RTVSPropertyOp5
 70
     1
102
RTVSPropertyOp6
 70
     1
102
RTVSPropertyOp7
 70
     1
102
RTVSPropertyOp8
 70
     1
102
RTVSPropertyOp9
 70
     1
102
RTVSPropertyOp10
 70
     1
102
RTVSPropertyOp11
 70
     1
102
RTVSPropertyOp12
 70
     1
102
RTVSPropertyOp13
 70
     1
102
RTVSPropertyOp14
 70
     1
102
RTVSPropertyOp15
 70
     1
102
RTVSPropertyOp16
 70
     1
102
RTVSPropertyOp17
 70
     1
102
RTVSPropertyOp18
 70
     1
102
RTVSPropertyOp19
 70
     1
102
RTVSPropertyOp20
 70
     1
102
RTVSPropertyOp21
 70
     1
102
RTVSPropertyOp22
 70
     1
102
RTVSPropertyOp23
 70
     1
102
RTVSPropertyOp24
 70
     1
102
RTVSPropertyOp25
 70
     1
102
RTVSPropertyOp26
 70
     1
102
RTVSPropertyOp27
 70
     1
102
RTVSPropertyOp28
 70
     1
102
RTVSPropertyOp29
 70
     1
102
RTVSPropertyOp30
 70
     1
102
RTVSPropertyOp31
 70
     1
102
RTVSPropertyOp32
 70
     1
102
RTVSPropertyOp33
 70
     1
102
RTVSPropertyOp34
 70
     1
102
RTVSPropertyOp35
 70
     1
102
RTVSPropertyOp36
 70
     1
102
RTVSPropertyOp37
 70
     1
102
RTVSPropertyOp38
 70
     1
102
RTVSPropertyOp39
 70
     1
102
RTVSPropertyOp40
 70
     1
102
RTVSPropertyOp41
 70
     1
102
RTVSPropertyOp42
 70
     1
102
RTVSPropertyOp43
 70
     1
102
RTVSPropertyOp44
 70
     1
102
RTVSPropertyOp45
 70
     1
102
RTVSPropertyOp46
 70
     1
102
RTVSPropertyOp47
 70
     1
102
RTVSPropertyOp48
 70
     1
102
RTVSPropertyOp49
 70
     1
102
RTVSPropertyOp50
 70
     1
102
RTVSPropertyOp51
 70
     0
102
RTVSPropertyOp52
 70
     0
102
RTVSPropertyOp53
 70
     1
102
RTVSPropertyOp54
 70
     1
102
RTVSPropertyOp55
 70
     1
102
RTVSPropertyOp56
 70
     1
102
RTVSPropertyOp57
 70
     1
102
RTVSPropertyOp58
 70
     1
102
RTVSPropertyOp59
 70
     1
102
RTVSPropertyOp60
 70
     1
102
RTVSPropertyOp61
 70
     1
102
RTVSPropertyOp62
 70
     1
  0
XRECORD
  5
10DA
102
{ACAD_REACTORS
330
10D9
102
}
330
10D9
100
AcDbXrecord
280
     1
102
RTVSPost2010Prop28
280
     0
102
RTVSPost2010PropOp28
 70
     1
102
RTVSPost2010Prop29
280
     1
102
RTVSPost2010PropOp29
 70
     1
102
RTVSPost2010Prop30
280
     1
102
RTVSPost2010PropOp30
 70
     1
102
RTVSPost2010Prop31
280
     0
102
RTVSPost2010PropOp31
 70
     1
102
RTVSPost2010Prop32
280
     0
102
RTVSPost2010PropOp32
 70
     1
102
RTVSPost2010Prop33
280
     0
102
RTVSPost2010PropOp33
 70
     1
102
RTVSPost2010Prop34
280
     0
102
RTVSPost2010PropOp34
 70
     1
102
RTVSPost2010Prop35
280
     0
102
RTVSPost2010PropOp35
 70
     1
102
RTVSPost2010Prop36
280
     0
102
RTVSPost2010PropOp36
 70
     1
102
RTVSPost2010Prop37
 90
       50
102
RTVSPost2010PropOp37
 70
     0
102
RTVSPost2010Prop38
140
0.0
102
RTVSPost2010PropOp38
 70
     0
102
RTVSPost2010Prop39
140
1.0
102
RTVSPost2010PropOp39
 70
     0
102
RTVSPost2010Prop40
 90
        0
102
RTVSPost2010PropOp40
 70
     0
102
RTVSPost2010Prop41ColorIndex
 90
       18
102
RTVSPost2010Prop41ColorRGB
 90
        0
102
RTVSPost2010PropOp41
 70
     0
102
RTVSPost2010Prop42
 90
       50
102
RTVSPost2010PropOp42
 70
     0
102
RTVSPost2010Prop43
 90
        3
102
RTVSPost2010PropOp43
 70
     0
102
RTVSPost2010Prop44ColorIndex
 90
        5
102
RTVSPost2010Prop44ColorRGB
 90
      255
102
RTVSPost2010PropOp44
 70
     0
102
RTVSPost2010Prop45
280
     0
102
RTVSPost2010PropOp45
 70
     1
102
RTVSPost2010Prop46
 90
       50
102
RTVSPost2010PropOp46
 70
     0
102
RTVSPost2010Prop47
 90
       50
102
RTVSPost2010PropOp47
 70
     0
102
RTVSPost2010Prop48
 90
       50
102
RTVSPost2010PropOp48
 70
     0
102
RTVSPost2010Prop49
280
     0
102
RTVSPost2010PropOp49
 70
     1
102
RTVSPost2010Prop50
 90
       50
102
RTVSPost2010PropOp50
 70
     0
102
RTVSPost2010Prop51ColorIndex
 90
      256
102
RTVSPost2010Prop51ColorRGB
 90
-16777216
102
RTVSPost2010PropOp51
 70
     0
102
RTVSPost2010Prop52
140
1.0
102
RTVSPost2010PropOp52
 70
     0
102
RTVSPost2010Prop53
 90
        2
102
RTVSPost2010PropOp53
 70
     0
102
RTVSPost2010Prop54
  1
strokes_ogs.tif
102
RTVSPost2010PropOp54
 70
     0
102
RTVSPost2010Prop55
280
     0
102
RTVSPost2010PropOp55
 70
     1
102
RTVSPost2010Prop56
140
1.0
102
RTVSPost2010PropOp56
 70
     0
102
RTVSPost2010Prop57
140
1.0
102
RTVSPost2010PropOp57
 70
     0
102
RTVSPropertyOp0
 70
     0
102
RTVSPropertyOp1
 70
     0
102
RTVSPropertyOp2
 70
     0
102
RTVSPropertyOp3
 70
     0
102
RTVSPropertyOp4
 70
     0
102
RTVSPropertyOp5
 70
     0
102
RTVSPropertyOp6
 70
     0
102
RTVSPropertyOp7
 70
     0
102
RTVSPropertyOp8
 70
     0
102
RTVSPropertyOp9
 70
     0
102
RTVSPropertyOp10
 70
     0
102
RTVSPropertyOp11
 70
     0
102
RTVSPropertyOp12
 70
     0
102
RTVSPropertyOp13
 70
     0
102
RTVSPropertyOp14
 70
     2
102
RTVSPropertyOp15
 70
     0
102
RTVSPropertyOp16
 70
     0
102
RTVSPropertyOp17
 70
     0
102
RTVSPropertyOp18
 70
     0
102
RTVSPropertyOp19
 70
     0
102
RTVSPropertyOp20
 70
     0
102
RTVSPropertyOp21
 70
     0
102
RTVSPropertyOp22
 70
     0
102
RTVSPropertyOp23
 70
     0
102
RTVSPropertyOp24
 70
     0
102
RTVSPropertyOp25
 70
     0
102
RTVSPropertyOp26
 70
     0
102
RTVSPropertyOp27
 70
     0
102
RTVSPropertyOp28
 70
     1
102
RTVSPropertyOp29
 70
     1
102
RTVSPropertyOp30
 70
     1
102
RTVSPropertyOp31
 70
     1
102
RTVSPropertyOp32
 70
     1
102
RTVSPropertyOp33
 70
     1
102
RTVSPropertyOp34
 70
     1
102
RTVSPropertyOp35
 70
     1
102
RTVSPropertyOp36
 70
     1
102
RTVSPropertyOp37
 70
     0
102
RTVSPropertyOp38
 70
     0
102
RTVSPropertyOp39
 70
     0
102
RTVSPropertyOp40
 70
     0
102
RTVSPropertyOp41
 70
     0
102
RTVSPropertyOp42
 70
     0
102
RTVSPropertyOp43
 70
     0
102
RTVSPropertyOp44
 70
     0
102
RTVSPropertyOp45
 70
     1
102
RTVSPropertyOp46
 70
     0
102
RTVSPropertyOp47
 70
     0
102
RTVSPropertyOp48
 70
     0
102
RTVSPropertyOp49
 70
     1
102
RTVSPropertyOp50
 70
     0
102
RTVSPropertyOp51
 70
     0
102
RTVSPropertyOp52
 70
     0
102
RTVSPropertyOp53
 70
     0
102
RTVSPropertyOp54
 70
     0
102
RTVSPropertyOp55
 70
     1
102
RTVSPropertyOp56
 70
     0
102
RTVSPropertyOp57
 70
     0
102
RTVSPropertyOp58
 70
     0
102
RTVSPropertyOp59
 70
     0
102
RTVSPropertyOp60
 70
     0
102
RTVSPropertyOp61
 70
     0
102
RTVSPropertyOp62
 70
     0
  0
XRECORD
  5
10CA
102
{ACAD_REACTORS
330
10C9
102
}
330
10C9
100
AcDbXrecord
280
     1
102
RTVSPost2010Prop28
280
     0
102
RTVSPost2010PropOp28
 70
     1
102
RTVSPost2010Prop29
280
     1
102
RTVSPost2010PropOp29
 70
     1
102
RTVSPost2010Prop30
280
     1
102
RTVSPost2010PropOp30
 70
     1
102
RTVSPost2010Prop31
280
     0
102
RTVSPost2010PropOp31
 70
     1
102
RTVSPost2010Prop32
280
     0
102
RTVSPost2010PropOp32
 70
     1
102
RTVSPost2010Prop33
280
     0
102
RTVSPost2010PropOp33
 70
     1
102
RTVSPost2010Prop34
280
     0
102
RTVSPost2010PropOp34
 70
     1
102
RTVSPost2010Prop35
280
     0
102
RTVSPost2010PropOp35
 70
     1
102
RTVSPost2010Prop36
280
     0
102
RTVSPost2010PropOp36
 70
     1
102
RTVSPost2010Prop37
 90
       50
102
RTVSPost2010PropOp37
 70
     1
102
RTVSPost2010Prop38
140
0.0
102
RTVSPost2010PropOp38
 70
     1
102
RTVSPost2010Prop39
140
1.0
102
RTVSPost2010PropOp39
 70
     1
102
RTVSPost2010Prop40
 90
        0
102
RTVSPost2010PropOp40
 70
     1
102
RTVSPost2010Prop41ColorIndex
 90
       18
102
RTVSPost2010Prop41ColorRGB
 90
        0
102
RTVSPost2010PropOp41
 70
     1
102
RTVSPost2010Prop42
 90
       50
102
RTVSPost2010PropOp42
 70
     1
102
RTVSPost2010Prop43
 90
        3
102
RTVSPost2010PropOp43
 70
     1
102
RTVSPost2010Prop44ColorIndex
 90
        5
102
RTVSPost2010Prop44ColorRGB
 90
      255
102
RTVSPost2010PropOp44
 70
     1
102
RTVSPost2010Prop45
280
     0
102
RTVSPost2010PropOp45
 70
     1
102
RTVSPost2010Prop46
 90
       50
102
RTVSPost2010PropOp46
 70
     1
102
RTVSPost2010Prop47
 90
       50
102
RTVSPost2010PropOp47
 70
     1
102
RTVSPost2010Prop48
 90
       50
102
RTVSPost2010PropOp48
 70
     1
102
RTVSPost2010Prop49
280
     0
102
RTVSPost2010PropOp49
 70
     1
102
RTVSPost2010Prop50
 90
       50
102
RTVSPost2010PropOp50
 70
     1
102
RTVSPost2010Prop51ColorIndex
 90
      256
102
RTVSPost2010Prop51ColorRGB
 90
-16777216
102
RTVSPost2010PropOp51
 70
     0
102
RTVSPost2010Prop52
140
1.0
102
RTVSPost2010PropOp52
 70
     0
102
RTVSPost2010Prop53
 90
        2
102
RTVSPost2010PropOp53
 70
     1
102
RTVSPost2010Prop54
  1
strokes_ogs.tif
102
RTVSPost2010PropOp54
 70
     1
102
RTVSPost2010Prop55
280
     0
102
RTVSPost2010PropOp55
 70
     1
102
RTVSPost2010Prop56
140
1.0
102
RTVSPost2010PropOp56
 70
     1
102
RTVSPost2010Prop57
140
1.0
102
RTVSPost2010PropOp57
 70
     1
102
RTVSPropertyOp0
 70
     1
102
RTVSPropertyOp1
 70
     1
102
RTVSPropertyOp2
 70
     1
102
RTVSPropertyOp3
 70
     1
102
RTVSPropertyOp4
 70
     1
102
RTVSPropertyOp5
 70
     1
102
RTVSPropertyOp6
 70
     1
102
RTVSPropertyOp7
 70
     1
102
RTVSPropertyOp8
 70
     1
102
RTVSPropertyOp9
 70
     1
102
RTVSPropertyOp10
 70
     1
102
RTVSPropertyOp11
 70
     1
102
RTVSPropertyOp12
 70
     1
102
RTVSPropertyOp13
 70
     1
102
RTVSPropertyOp14
 70
     1
102
RTVSPropertyOp15
 70
     1
102
RTVSPropertyOp16
 70
     1
102
RTVSPropertyOp17
 70
     1
102
RTVSPropertyOp18
 70
     1
102
RTVSPropertyOp19
 70
     1
102
RTVSPropertyOp20
 70
     1
102
RTVSPropertyOp21
 70
     1
102
RTVSPropertyOp22
 70
     1
102
RTVSPropertyOp23
 70
     1
102
RTVSPropertyOp24
 70
     1
102
RTVSPropertyOp25
 70
     1
102
RTVSPropertyOp26
 70
     1
102
RTVSPropertyOp27
 70
     1
102
RTVSPropertyOp28
 70
     1
102
RTVSPropertyOp29
 70
     1
102
RTVSPropertyOp30
 70
     1
102
RTVSPropertyOp31
 70
     1
102
RTVSPropertyOp32
 70
     1
102
RTVSPropertyOp33
 70
     1
102
RTVSPropertyOp34
 70
     1
102
RTVSPropertyOp35
 70
     1
102
RTVSPropertyOp36
 70
     1
102
RTVSPropertyOp37
 70
     1
102
RTVSPropertyOp38
 70
     1
102
RTVSPropertyOp39
 70
     1
102
RTVSPropertyOp40
 70
     1
102
RTVSPropertyOp41
 70
     1
102
RTVSPropertyOp42
 70
     1
102
RTVSPropertyOp43
 70
     1
102
RTVSPropertyOp44
 70
     1
102
RTVSPropertyOp45
 70
     1
102
RTVSPropertyOp46
 70
     1
102
RTVSPropertyOp47
 70
     1
102
RTVSPropertyOp48
 70
     1
102
RTVSPropertyOp49
 70
     1
102
RTVSPropertyOp50
 70
     1
102
RTVSPropertyOp51
 70
     0
102
RTVSPropertyOp52
 70
     0
102
RTVSPropertyOp53
 70
     1
102
RTVSPropertyOp54
 70
     1
102
RTVSPropertyOp55
 70
     1
102
RTVSPropertyOp56
 70
     1
102
RTVSPropertyOp57
 70
     1
102
RTVSPropertyOp58
 70
     1
102
RTVSPropertyOp59
 70
     1
102
RTVSPropertyOp60
 70
     1
102
RTVSPropertyOp61
 70
     1
102
RTVSPropertyOp62
 70
     1
  0
XRECORD
  5
10DC
102
{ACAD_REACTORS
330
10DB
102
}
330
10DB
100
AcDbXrecord
280
     1
102
RTVSPost2010Prop28
280
     0
102
RTVSPost2010PropOp28
 70
     1
102
RTVSPost2010Prop29
280
     1
102
RTVSPost2010PropOp29
 70
     1
102
RTVSPost2010Prop30
280
     1
102
RTVSPost2010PropOp30
 70
     1
102
RTVSPost2010Prop31
280
     0
102
RTVSPost2010PropOp31
 70
     1
102
RTVSPost2010Prop32
280
     0
102
RTVSPost2010PropOp32
 70
     1
102
RTVSPost2010Prop33
280
     0
102
RTVSPost2010PropOp33
 70
     1
102
RTVSPost2010Prop34
280
     0
102
RTVSPost2010PropOp34
 70
     1
102
RTVSPost2010Prop35
280
     0
102
RTVSPost2010PropOp35
 70
     1
102
RTVSPost2010Prop36
280
     0
102
RTVSPost2010PropOp36
 70
     1
102
RTVSPost2010Prop37
 90
       50
102
RTVSPost2010PropOp37
 70
     0
102
RTVSPost2010Prop38
140
0.0
102
RTVSPost2010PropOp38
 70
     0
102
RTVSPost2010Prop39
140
1.0
102
RTVSPost2010PropOp39
 70
     0
102
RTVSPost2010Prop40
 90
        0
102
RTVSPost2010PropOp40
 70
     0
102
RTVSPost2010Prop41ColorIndex
 90
       18
102
RTVSPost2010Prop41ColorRGB
 90
        0
102
RTVSPost2010PropOp41
 70
     0
102
RTVSPost2010Prop42
 90
       50
102
RTVSPost2010PropOp42
 70
     0
102
RTVSPost2010Prop43
 90
        3
102
RTVSPost2010PropOp43
 70
     0
102
RTVSPost2010Prop44ColorIndex
 90
        5
102
RTVSPost2010Prop44ColorRGB
 90
      255
102
RTVSPost2010PropOp44
 70
     0
102
RTVSPost2010Prop45
280
     0
102
RTVSPost2010PropOp45
 70
     1
102
RTVSPost2010Prop46
 90
       50
102
RTVSPost2010PropOp46
 70
     0
102
RTVSPost2010Prop47
 90
       50
102
RTVSPost2010PropOp47
 70
     0
102
RTVSPost2010Prop48
 90
       50
102
RTVSPost2010PropOp48
 70
     0
102
RTVSPost2010Prop49
280
     0
102
RTVSPost2010PropOp49
 70
     1
102
RTVSPost2010Prop50
 90
       50
102
RTVSPost2010PropOp50
 70
     0
102
RTVSPost2010Prop51ColorIndex
 90
      256
102
RTVSPost2010Prop51ColorRGB
 90
-16777216
102
RTVSPost2010PropOp51
 70
     0
102
RTVSPost2010Prop52
140
1.0
102
RTVSPost2010PropOp52
 70
     0
102
RTVSPost2010Prop53
 90
        2
102
RTVSPost2010PropOp53
 70
     0
102
RTVSPost2010Prop54
  1
strokes_ogs.tif
102
RTVSPost2010PropOp54
 70
     0
102
RTVSPost2010Prop55
280
     0
102
RTVSPost2010PropOp55
 70
     1
102
RTVSPost2010Prop56
140
1.0
102
RTVSPost2010PropOp56
 70
     0
102
RTVSPost2010Prop57
140
1.0
102
RTVSPost2010PropOp57
 70
     0
102
RTVSPropertyOp0
 70
     0
102
RTVSPropertyOp1
 70
     0
102
RTVSPropertyOp2
 70
     0
102
RTVSPropertyOp3
 70
     0
102
RTVSPropertyOp4
 70
     0
102
RTVSPropertyOp5
 70
     0
102
RTVSPropertyOp6
 70
     0
102
RTVSPropertyOp7
 70
     0
102
RTVSPropertyOp8
 70
     0
102
RTVSPropertyOp9
 70
     0
102
RTVSPropertyOp10
 70
     0
102
RTVSPropertyOp11
 70
     0
102
RTVSPropertyOp12
 70
     0
102
RTVSPropertyOp13
 70
     0
102
RTVSPropertyOp14
 70
     2
102
RTVSPropertyOp15
 70
     0
102
RTVSPropertyOp16
 70
     0
102
RTVSPropertyOp17
 70
     0
102
RTVSPropertyOp18
 70
     0
102
RTVSPropertyOp19
 70
     0
102
RTVSPropertyOp20
 70
     0
102
RTVSPropertyOp21
 70
     0
102
RTVSPropertyOp22
 70
     0
102
RTVSPropertyOp23
 70
     0
102
RTVSPropertyOp24
 70
     0
102
RTVSPropertyOp25
 70
     0
102
RTVSPropertyOp26
 70
     0
102
RTVSPropertyOp27
 70
     0
102
RTVSPropertyOp28
 70
     1
102
RTVSPropertyOp29
 70
     1
102
RTVSPropertyOp30
 70
     1
102
RTVSPropertyOp31
 70
     1
102
RTVSPropertyOp32
 70
     1
102
RTVSPropertyOp33
 70
     1
102
RTVSPropertyOp34
 70
     1
102
RTVSPropertyOp35
 70
     1
102
RTVSPropertyOp36
 70
     1
102
RTVSPropertyOp37
 70
     0
102
RTVSPropertyOp38
 70
     0
102
RTVSPropertyOp39
 70
     0
102
RTVSPropertyOp40
 70
     0
102
RTVSPropertyOp41
 70
     0
102
RTVSPropertyOp42
 70
     0
102
RTVSPropertyOp43
 70
     0
102
RTVSPropertyOp44
 70
     0
102
RTVSPropertyOp45
 70
     1
102
RTVSPropertyOp46
 70
     0
102
RTVSPropertyOp47
 70
     0
102
RTVSPropertyOp48
 70
     0
102
RTVSPropertyOp49
 70
     1
102
RTVSPropertyOp50
 70
     0
102
RTVSPropertyOp51
 70
     0
102
RTVSPropertyOp52
 70
     0
102
RTVSPropertyOp53
 70
     0
102
RTVSPropertyOp54
 70
     0
102
RTVSPropertyOp55
 70
     1
102
RTVSPropertyOp56
 70
     0
102
RTVSPropertyOp57
 70
     0
102
RTVSPropertyOp58
 70
     0
102
RTVSPropertyOp59
 70
     0
102
RTVSPropertyOp60
 70
     0
102
RTVSPropertyOp61
 70
     0
102
RTVSPropertyOp62
 70
     0
  0
XRECORD
  5
10C2
102
{ACAD_REACTORS
330
10C1
102
}
330
10C1
100
AcDbXrecord
280
     1
102
RTVSPost2010Prop28
280
     0
102
RTVSPost2010PropOp28
 70
     1
102
RTVSPost2010Prop29
280
     1
102
RTVSPost2010PropOp29
 70
     1
102
RTVSPost2010Prop30
280
     1
102
RTVSPost2010PropOp30
 70
     1
102
RTVSPost2010Prop31
280
     0
102
RTVSPost2010PropOp31
 70
     1
102
RTVSPost2010Prop32
280
     0
102
RTVSPost2010PropOp32
 70
     1
102
RTVSPost2010Prop33
280
     0
102
RTVSPost2010PropOp33
 70
     1
102
RTVSPost2010Prop34
280
     0
102
RTVSPost2010PropOp34
 70
     1
102
RTVSPost2010Prop35
280
     0
102
RTVSPost2010PropOp35
 70
     1
102
RTVSPost2010Prop36
280
     0
102
RTVSPost2010PropOp36
 70
     1
102
RTVSPost2010Prop37
 90
       50
102
RTVSPost2010PropOp37
 70
     1
102
RTVSPost2010Prop38
140
0.0
102
RTVSPost2010PropOp38
 70
     1
102
RTVSPost2010Prop39
140
1.0
102
RTVSPost2010PropOp39
 70
     1
102
RTVSPost2010Prop40
 90
        0
102
RTVSPost2010PropOp40
 70
     1
102
RTVSPost2010Prop41ColorIndex
 90
       18
102
RTVSPost2010Prop41ColorRGB
 90
        0
102
RTVSPost2010PropOp41
 70
     1
102
RTVSPost2010Prop42
 90
       50
102
RTVSPost2010PropOp42
 70
     1
102
RTVSPost2010Prop43
 90
        3
102
RTVSPost2010PropOp43
 70
     1
102
RTVSPost2010Prop44ColorIndex
 90
        5
102
RTVSPost2010Prop44ColorRGB
 90
      255
102
RTVSPost2010PropOp44
 70
     1
102
RTVSPost2010Prop45
280
     0
102
RTVSPost2010PropOp45
 70
     1
102
RTVSPost2010Prop46
 90
       50
102
RTVSPost2010PropOp46
 70
     1
102
RTVSPost2010Prop47
 90
       50
102
RTVSPost2010PropOp47
 70
     1
102
RTVSPost2010Prop48
 90
       50
102
RTVSPost2010PropOp48
 70
     1
102
RTVSPost2010Prop49
280
     0
102
RTVSPost2010PropOp49
 70
     1
102
RTVSPost2010Prop50
 90
       50
102
RTVSPost2010PropOp50
 70
     1
102
RTVSPost2010Prop51ColorIndex
 90
      256
102
RTVSPost2010Prop51ColorRGB
 90
-16777216
102
RTVSPost2010PropOp51
 70
     0
102
RTVSPost2010Prop52
140
1.0
102
RTVSPost2010PropOp52
 70
     0
102
RTVSPost2010Prop53
 90
        2
102
RTVSPost2010PropOp53
 70
     1
102
RTVSPost2010Prop54
  1
strokes_ogs.tif
102
RTVSPost2010PropOp54
 70
     1
102
RTVSPost2010Prop55
280
     0
102
RTVSPost2010PropOp55
 70
     1
102
RTVSPost2010Prop56
140
1.0
102
RTVSPost2010PropOp56
 70
     1
102
RTVSPost2010Prop57
140
1.0
102
RTVSPost2010PropOp57
 70
     1
102
RTVSPropertyOp0
 70
     1
102
RTVSPropertyOp1
 70
     1
102
RTVSPropertyOp2
 70
     1
102
RTVSPropertyOp3
 70
     1
102
RTVSPropertyOp4
 70
     1
102
RTVSPropertyOp5
 70
     1
102
RTVSPropertyOp6
 70
     1
102
RTVSPropertyOp7
 70
     1
102
RTVSPropertyOp8
 70
     1
102
RTVSPropertyOp9
 70
     1
102
RTVSPropertyOp10
 70
     1
102
RTVSPropertyOp11
 70
     1
102
RTVSPropertyOp12
 70
     1
102
RTVSPropertyOp13
 70
     1
102
RTVSPropertyOp14
 70
     1
102
RTVSPropertyOp15
 70
     1
102
RTVSPropertyOp16
 70
     1
102
RTVSPropertyOp17
 70
     1
102
RTVSPropertyOp18
 70
     1
102
RTVSPropertyOp19
 70
     1
102
RTVSPropertyOp20
 70
     1
102
RTVSPropertyOp21
 70
     1
102
RTVSPropertyOp22
 70
     1
102
RTVSPropertyOp23
 70
     1
102
RTVSPropertyOp24
 70
     1
102
RTVSPropertyOp25
 70
     1
102
RTVSPropertyOp26
 70
     1
102
RTVSPropertyOp27
 70
     1
102
RTVSPropertyOp28
 70
     1
102
RTVSPropertyOp29
 70
     1
102
RTVSPropertyOp30
 70
     1
102
RTVSPropertyOp31
 70
     1
102
RTVSPropertyOp32
 70
     1
102
RTVSPropertyOp33
 70
     1
102
RTVSPropertyOp34
 70
     1
102
RTVSPropertyOp35
 70
     1
102
RTVSPropertyOp36
 70
     1
102
RTVSPropertyOp37
 70
     1
102
RTVSPropertyOp38
 70
     1
102
RTVSPropertyOp39
 70
     1
102
RTVSPropertyOp40
 70
     1
102
RTVSPropertyOp41
 70
     1
102
RTVSPropertyOp42
 70
     1
102
RTVSPropertyOp43
 70
     1
102
RTVSPropertyOp44
 70
     1
102
RTVSPropertyOp45
 70
     1
102
RTVSPropertyOp46
 70
     1
102
RTVSPropertyOp47
 70
     1
102
RTVSPropertyOp48
 70
     1
102
RTVSPropertyOp49
 70
     1
102
RTVSPropertyOp50
 70
     1
102
RTVSPropertyOp51
 70
     0
102
RTVSPropertyOp52
 70
     0
102
RTVSPropertyOp53
 70
     1
102
RTVSPropertyOp54
 70
     1
102
RTVSPropertyOp55
 70
     1
102
RTVSPropertyOp56
 70
     1
102
RTVSPropertyOp57
 70
     1
102
RTVSPropertyOp58
 70
     1
102
RTVSPropertyOp59
 70
     1
102
RTVSPropertyOp60
 70
     1
102
RTVSPropertyOp61
 70
     1
102
RTVSPropertyOp62
 70
     1
  0
XRECORD
  5
10D8
102
{ACAD_REACTORS
330
10D7
102
}
330
10D7
100
AcDbXrecord
280
     1
102
RTVSPost2010Prop28
280
     0
102
RTVSPost2010PropOp28
 70
     1
102
RTVSPost2010Prop29
280
     1
102
RTVSPost2010PropOp29
 70
     1
102
RTVSPost2010Prop30
280
     1
102
RTVSPost2010PropOp30
 70
     1
102
RTVSPost2010Prop31
280
     0
102
RTVSPost2010PropOp31
 70
     1
102
RTVSPost2010Prop32
280
     0
102
RTVSPost2010PropOp32
 70
     1
102
RTVSPost2010Prop33
280
     0
102
RTVSPost2010PropOp33
 70
     1
102
RTVSPost2010Prop34
280
     0
102
RTVSPost2010PropOp34
 70
     1
102
RTVSPost2010Prop35
280
     0
102
RTVSPost2010PropOp35
 70
     1
102
RTVSPost2010Prop36
280
     0
102
RTVSPost2010PropOp36
 70
     1
102
RTVSPost2010Prop37
 90
       50
102
RTVSPost2010PropOp37
 70
     1
102
RTVSPost2010Prop38
140
0.0
102
RTVSPost2010PropOp38
 70
     1
102
RTVSPost2010Prop39
140
1.0
102
RTVSPost2010PropOp39
 70
     1
102
RTVSPost2010Prop40
 90
        0
102
RTVSPost2010PropOp40
 70
     1
102
RTVSPost2010Prop41ColorIndex
 90
       18
102
RTVSPost2010Prop41ColorRGB
 90
        0
102
RTVSPost2010PropOp41
 70
     1
102
RTVSPost2010Prop42
 90
       50
102
RTVSPost2010PropOp42
 70
     1
102
RTVSPost2010Prop43
 90
        3
102
RTVSPost2010PropOp43
 70
     1
102
RTVSPost2010Prop44ColorIndex
 90
        5
102
RTVSPost2010Prop44ColorRGB
 90
      255
102
RTVSPost2010PropOp44
 70
     1
102
RTVSPost2010Prop45
280
     0
102
RTVSPost2010PropOp45
 70
     1
102
RTVSPost2010Prop46
 90
       50
102
RTVSPost2010PropOp46
 70
     1
102
RTVSPost2010Prop47
 90
       50
102
RTVSPost2010PropOp47
 70
     1
102
RTVSPost2010Prop48
 90
       50
102
RTVSPost2010PropOp48
 70
     1
102
RTVSPost2010Prop49
280
     0
102
RTVSPost2010PropOp49
 70
     1
102
RTVSPost2010Prop50
 90
       50
102
RTVSPost2010PropOp50
 70
     1
102
RTVSPost2010Prop51ColorIndex
 90
      256
102
RTVSPost2010Prop51ColorRGB
 90
-16777216
102
RTVSPost2010PropOp51
 70
     0
102
RTVSPost2010Prop52
140
1.0
102
RTVSPost2010PropOp52
 70
     0
102
RTVSPost2010Prop53
 90
        2
102
RTVSPost2010PropOp53
 70
     1
102
RTVSPost2010Prop54
  1
strokes_ogs.tif
102
RTVSPost2010PropOp54
 70
     1
102
RTVSPost2010Prop55
280
     0
102
RTVSPost2010PropOp55
 70
     1
102
RTVSPost2010Prop56
140
1.0
102
RTVSPost2010PropOp56
 70
     1
102
RTVSPost2010Prop57
140
1.0
102
RTVSPost2010PropOp57
 70
     1
102
RTVSPropertyOp0
 70
     1
102
RTVSPropertyOp1
 70
     1
102
RTVSPropertyOp2
 70
     1
102
RTVSPropertyOp3
 70
     1
102
RTVSPropertyOp4
 70
     1
102
RTVSPropertyOp5
 70
     1
102
RTVSPropertyOp6
 70
     1
102
RTVSPropertyOp7
 70
     1
102
RTVSPropertyOp8
 70
     1
102
RTVSPropertyOp9
 70
     1
102
RTVSPropertyOp10
 70
     1
102
RTVSPropertyOp11
 70
     1
102
RTVSPropertyOp12
 70
     1
102
RTVSPropertyOp13
 70
     1
102
RTVSPropertyOp14
 70
     1
102
RTVSPropertyOp15
 70
     1
102
RTVSPropertyOp16
 70
     1
102
RTVSPropertyOp17
 70
     1
102
RTVSPropertyOp18
 70
     1
102
RTVSPropertyOp19
 70
     1
102
RTVSPropertyOp20
 70
     1
102
RTVSPropertyOp21
 70
     1
102
RTVSPropertyOp22
 70
     1
102
RTVSPropertyOp23
 70
     1
102
RTVSPropertyOp24
 70
     1
102
RTVSPropertyOp25
 70
     1
102
RTVSPropertyOp26
 70
     1
102
RTVSPropertyOp27
 70
     1
102
RTVSPropertyOp28
 70
     1
102
RTVSPropertyOp29
 70
     1
102
RTVSPropertyOp30
 70
     1
102
RTVSPropertyOp31
 70
     1
102
RTVSPropertyOp32
 70
     1
102
RTVSPropertyOp33
 70
     1
102
RTVSPropertyOp34
 70
     1
102
RTVSPropertyOp35
 70
     1
102
RTVSPropertyOp36
 70
     1
102
RTVSPropertyOp37
 70
     1
102
RTVSPropertyOp38
 70
     1
102
RTVSPropertyOp39
 70
     1
102
RTVSPropertyOp40
 70
     1
102
RTVSPropertyOp41
 70
     1
102
RTVSPropertyOp42
 70
     1
102
RTVSPropertyOp43
 70
     1
102
RTVSPropertyOp44
 70
     1
102
RTVSPropertyOp45
 70
     1
102
RTVSPropertyOp46
 70
     1
102
RTVSPropertyOp47
 70
     1
102
RTVSPropertyOp48
 70
     1
102
RTVSPropertyOp49
 70
     1
102
RTVSPropertyOp50
 70
     1
102
RTVSPropertyOp51
 70
     0
102
RTVSPropertyOp52
 70
     0
102
RTVSPropertyOp53
 70
     1
102
RTVSPropertyOp54
 70
     1
102
RTVSPropertyOp55
 70
     1
102
RTVSPropertyOp56
 70
     1
102
RTVSPropertyOp57
 70
     1
102
RTVSPropertyOp58
 70
     1
102
RTVSPropertyOp59
 70
     1
102
RTVSPropertyOp60
 70
     1
102
RTVSPropertyOp61
 70
     1
102
RTVSPropertyOp62
 70
     1
  0
XRECORD
  5
10D6
102
{ACAD_REACTORS
330
10D5
102
}
330
10D5
100
AcDbXrecord
280
     1
102
RTVSPost2010Prop28
280
     0
102
RTVSPost2010PropOp28
 70
     1
102
RTVSPost2010Prop29
280
     1
102
RTVSPost2010PropOp29
 70
     1
102
RTVSPost2010Prop30
280
     1
102
RTVSPost2010PropOp30
 70
     1
102
RTVSPost2010Prop31
280
     0
102
RTVSPost2010PropOp31
 70
     1
102
RTVSPost2010Prop32
280
     0
102
RTVSPost2010PropOp32
 70
     1
102
RTVSPost2010Prop33
280
     0
102
RTVSPost2010PropOp33
 70
     1
102
RTVSPost2010Prop34
280
     0
102
RTVSPost2010PropOp34
 70
     1
102
RTVSPost2010Prop35
280
     0
102
RTVSPost2010PropOp35
 70
     1
102
RTVSPost2010Prop36
280
     0
102
RTVSPost2010PropOp36
 70
     1
102
RTVSPost2010Prop37
 90
       50
102
RTVSPost2010PropOp37
 70
     1
102
RTVSPost2010Prop38
140
0.0
102
RTVSPost2010PropOp38
 70
     1
102
RTVSPost2010Prop39
140
1.0
102
RTVSPost2010PropOp39
 70
     1
102
RTVSPost2010Prop40
 90
        0
102
RTVSPost2010PropOp40
 70
     1
102
RTVSPost2010Prop41ColorIndex
 90
       18
102
RTVSPost2010Prop41ColorRGB
 90
        0
102
RTVSPost2010PropOp41
 70
     1
102
RTVSPost2010Prop42
 90
       50
102
RTVSPost2010PropOp42
 70
     1
102
RTVSPost2010Prop43
 90
        3
102
RTVSPost2010PropOp43
 70
     1
102
RTVSPost2010Prop44ColorIndex
 90
        5
102
RTVSPost2010Prop44ColorRGB
 90
      255
102
RTVSPost2010PropOp44
 70
     1
102
RTVSPost2010Prop45
280
     0
102
RTVSPost2010PropOp45
 70
     1
102
RTVSPost2010Prop46
 90
       50
102
RTVSPost2010PropOp46
 70
     1
102
RTVSPost2010Prop47
 90
       50
102
RTVSPost2010PropOp47
 70
     1
102
RTVSPost2010Prop48
 90
       50
102
RTVSPost2010PropOp48
 70
     1
102
RTVSPost2010Prop49
280
     0
102
RTVSPost2010PropOp49
 70
     1
102
RTVSPost2010Prop50
 90
       50
102
RTVSPost2010PropOp50
 70
     1
102
RTVSPost2010Prop51ColorIndex
 90
      256
102
RTVSPost2010Prop51ColorRGB
 90
-16777216
102
RTVSPost2010PropOp51
 70
     0
102
RTVSPost2010Prop52
140
1.0
102
RTVSPost2010PropOp52
 70
     0
102
RTVSPost2010Prop53
 90
        2
102
RTVSPost2010PropOp53
 70
     1
102
RTVSPost2010Prop54
  1
strokes_ogs.tif
102
RTVSPost2010PropOp54
 70
     1
102
RTVSPost2010Prop55
280
     0
102
RTVSPost2010PropOp55
 70
     1
102
RTVSPost2010Prop56
140
1.0
102
RTVSPost2010PropOp56
 70
     1
102
RTVSPost2010Prop57
140
1.0
102
RTVSPost2010PropOp57
 70
     1
102
RTVSPropertyOp0
 70
     1
102
RTVSPropertyOp1
 70
     1
102
RTVSPropertyOp2
 70
     1
102
RTVSPropertyOp3
 70
     1
102
RTVSPropertyOp4
 70
     1
102
RTVSPropertyOp5
 70
     1
102
RTVSPropertyOp6
 70
     1
102
RTVSPropertyOp7
 70
     1
102
RTVSPropertyOp8
 70
     1
102
RTVSPropertyOp9
 70
     1
102
RTVSPropertyOp10
 70
     1
102
RTVSPropertyOp11
 70
     1
102
RTVSPropertyOp12
 70
     1
102
RTVSPropertyOp13
 70
     1
102
RTVSPropertyOp14
 70
     1
102
RTVSPropertyOp15
 70
     1
102
RTVSPropertyOp16
 70
     1
102
RTVSPropertyOp17
 70
     1
102
RTVSPropertyOp18
 70
     1
102
RTVSPropertyOp19
 70
     1
102
RTVSPropertyOp20
 70
     1
102
RTVSPropertyOp21
 70
     1
102
RTVSPropertyOp22
 70
     1
102
RTVSPropertyOp23
 70
     1
102
RTVSPropertyOp24
 70
     1
102
RTVSPropertyOp25
 70
     1
102
RTVSPropertyOp26
 70
     1
102
RTVSPropertyOp27
 70
     1
102
RTVSPropertyOp28
 70
     1
102
RTVSPropertyOp29
 70
     1
102
RTVSPropertyOp30
 70
     1
102
RTVSPropertyOp31
 70
     1
102
RTVSPropertyOp32
 70
     1
102
RTVSPropertyOp33
 70
     1
102
RTVSPropertyOp34
 70
     1
102
RTVSPropertyOp35
 70
     1
102
RTVSPropertyOp36
 70
     1
102
RTVSPropertyOp37
 70
     1
102
RTVSPropertyOp38
 70
     1
102
RTVSPropertyOp39
 70
     1
102
RTVSPropertyOp40
 70
     1
102
RTVSPropertyOp41
 70
     1
102
RTVSPropertyOp42
 70
     1
102
RTVSPropertyOp43
 70
     1
102
RTVSPropertyOp44
 70
     1
102
RTVSPropertyOp45
 70
     1
102
RTVSPropertyOp46
 70
     1
102
RTVSPropertyOp47
 70
     1
102
RTVSPropertyOp48
 70
     1
102
RTVSPropertyOp49
 70
     1
102
RTVSPropertyOp50
 70
     1
102
RTVSPropertyOp51
 70
     0
102
RTVSPropertyOp52
 70
     0
102
RTVSPropertyOp53
 70
     1
102
RTVSPropertyOp54
 70
     1
102
RTVSPropertyOp55
 70
     1
102
RTVSPropertyOp56
 70
     1
102
RTVSPropertyOp57
 70
     1
102
RTVSPropertyOp58
 70
     1
102
RTVSPropertyOp59
 70
     1
102
RTVSPropertyOp60
 70
     1
102
RTVSPropertyOp61
 70
     1
102
RTVSPropertyOp62
 70
     1
  0
XRECORD
  5
10D0
102
{ACAD_REACTORS
330
10CF
102
}
330
10CF
100
AcDbXrecord
280
     1
102
RTVSPost2010Prop28
280
     0
102
RTVSPost2010PropOp28
 70
     1
102
RTVSPost2010Prop29
280
     1
102
RTVSPost2010PropOp29
 70
     1
102
RTVSPost2010Prop30
280
     1
102
RTVSPost2010PropOp30
 70
     1
102
RTVSPost2010Prop31
280
     0
102
RTVSPost2010PropOp31
 70
     1
102
RTVSPost2010Prop32
280
     0
102
RTVSPost2010PropOp32
 70
     1
102
RTVSPost2010Prop33
280
     0
102
RTVSPost2010PropOp33
 70
     1
102
RTVSPost2010Prop34
280
     0
102
RTVSPost2010PropOp34
 70
     1
102
RTVSPost2010Prop35
280
     0
102
RTVSPost2010PropOp35
 70
     1
102
RTVSPost2010Prop36
280
     0
102
RTVSPost2010PropOp36
 70
     1
102
RTVSPost2010Prop37
 90
       50
102
RTVSPost2010PropOp37
 70
     1
102
RTVSPost2010Prop38
140
0.0
102
RTVSPost2010PropOp38
 70
     1
102
RTVSPost2010Prop39
140
1.0
102
RTVSPost2010PropOp39
 70
     1
102
RTVSPost2010Prop40
 90
        0
102
RTVSPost2010PropOp40
 70
     1
102
RTVSPost2010Prop41ColorIndex
 90
       18
102
RTVSPost2010Prop41ColorRGB
 90
        0
102
RTVSPost2010PropOp41
 70
     1
102
RTVSPost2010Prop42
 90
       50
102
RTVSPost2010PropOp42
 70
     1
102
RTVSPost2010Prop43
 90
        3
102
RTVSPost2010PropOp43
 70
     1
102
RTVSPost2010Prop44ColorIndex
 90
        5
102
RTVSPost2010Prop44ColorRGB
 90
      255
102
RTVSPost2010PropOp44
 70
     1
102
RTVSPost2010Prop45
280
     0
102
RTVSPost2010PropOp45
 70
     1
102
RTVSPost2010Prop46
 90
       50
102
RTVSPost2010PropOp46
 70
     1
102
RTVSPost2010Prop47
 90
       50
102
RTVSPost2010PropOp47
 70
     1
102
RTVSPost2010Prop48
 90
       50
102
RTVSPost2010PropOp48
 70
     1
102
RTVSPost2010Prop49
280
     0
102
RTVSPost2010PropOp49
 70
     1
102
RTVSPost2010Prop50
 90
       50
102
RTVSPost2010PropOp50
 70
     1
102
RTVSPost2010Prop51ColorIndex
 90
      256
102
RTVSPost2010Prop51ColorRGB
 90
-16777216
102
RTVSPost2010PropOp51
 70
     0
102
RTVSPost2010Prop52
140
1.0
102
RTVSPost2010PropOp52
 70
     0
102
RTVSPost2010Prop53
 90
        2
102
RTVSPost2010PropOp53
 70
     1
102
RTVSPost2010Prop54
  1
strokes_ogs.tif
102
RTVSPost2010PropOp54
 70
     1
102
RTVSPost2010Prop55
280
     0
102
RTVSPost2010PropOp55
 70
     1
102
RTVSPost2010Prop56
140
1.0
102
RTVSPost2010PropOp56
 70
     1
102
RTVSPost2010Prop57
140
1.0
102
RTVSPost2010PropOp57
 70
     1
102
RTVSPropertyOp0
 70
     1
102
RTVSPropertyOp1
 70
     1
102
RTVSPropertyOp2
 70
     1
102
RTVSPropertyOp3
 70
     1
102
RTVSPropertyOp4
 70
     1
102
RTVSPropertyOp5
 70
     1
102
RTVSPropertyOp6
 70
     1
102
RTVSPropertyOp7
 70
     1
102
RTVSPropertyOp8
 70
     1
102
RTVSPropertyOp9
 70
     1
102
RTVSPropertyOp10
 70
     1
102
RTVSPropertyOp11
 70
     1
102
RTVSPropertyOp12
 70
     1
102
RTVSPropertyOp13
 70
     1
102
RTVSPropertyOp14
 70
     1
102
RTVSPropertyOp15
 70
     1
102
RTVSPropertyOp16
 70
     1
102
RTVSPropertyOp17
 70
     1
102
RTVSPropertyOp18
 70
     1
102
RTVSPropertyOp19
 70
     1
102
RTVSPropertyOp20
 70
     1
102
RTVSPropertyOp21
 70
     1
102
RTVSPropertyOp22
 70
     1
102
RTVSPropertyOp23
 70
     1
102
RTVSPropertyOp24
 70
     1
102
RTVSPropertyOp25
 70
     1
102
RTVSPropertyOp26
 70
     1
102
RTVSPropertyOp27
 70
     1
102
RTVSPropertyOp28
 70
     1
102
RTVSPropertyOp29
 70
     1
102
RTVSPropertyOp30
 70
     1
102
RTVSPropertyOp31
 70
     1
102
RTVSPropertyOp32
 70
     1
102
RTVSPropertyOp33
 70
     1
102
RTVSPropertyOp34
 70
     1
102
RTVSPropertyOp35
 70
     1
102
RTVSPropertyOp36
 70
     1
102
RTVSPropertyOp37
 70
     1
102
RTVSPropertyOp38
 70
     1
102
RTVSPropertyOp39
 70
     1
102
RTVSPropertyOp40
 70
     1
102
RTVSPropertyOp41
 70
     1
102
RTVSPropertyOp42
 70
     1
102
RTVSPropertyOp43
 70
     1
102
RTVSPropertyOp44
 70
     1
102
RTVSPropertyOp45
 70
     1
102
RTVSPropertyOp46
 70
     1
102
RTVSPropertyOp47
 70
     1
102
RTVSPropertyOp48
 70
     1
102
RTVSPropertyOp49
 70
     1
102
RTVSPropertyOp50
 70
     1
102
RTVSPropertyOp51
 70
     0
102
RTVSPropertyOp52
 70
     0
102
RTVSPropertyOp53
 70
     1
102
RTVSPropertyOp54
 70
     1
102
RTVSPropertyOp55
 70
     1
102
RTVSPropertyOp56
 70
     1
102
RTVSPropertyOp57
 70
     1
102
RTVSPropertyOp58
 70
     1
102
RTVSPropertyOp59
 70
     1
102
RTVSPropertyOp60
 70
     1
102
RTVSPropertyOp61
 70
     1
102
RTVSPropertyOp62
 70
     1
  0
XRECORD
  5
10D2
102
{ACAD_REACTORS
330
10D1
102
}
330
10D1
100
AcDbXrecord
280
     1
102
RTVSPost2010Prop28
280
     0
102
RTVSPost2010PropOp28
 70
     1
102
RTVSPost2010Prop29
280
     1
102
RTVSPost2010PropOp29
 70
     1
102
RTVSPost2010Prop30
280
     1
102
RTVSPost2010PropOp30
 70
     1
102
RTVSPost2010Prop31
280
     0
102
RTVSPost2010PropOp31
 70
     1
102
RTVSPost2010Prop32
280
     0
102
RTVSPost2010PropOp32
 70
     1
102
RTVSPost2010Prop33
280
     0
102
RTVSPost2010PropOp33
 70
     1
102
RTVSPost2010Prop34
280
     0
102
RTVSPost2010PropOp34
 70
     1
102
RTVSPost2010Prop35
280
     0
102
RTVSPost2010PropOp35
 70
     1
102
RTVSPost2010Prop36
280
     0
102
RTVSPost2010PropOp36
 70
     1
102
RTVSPost2010Prop37
 90
       50
102
RTVSPost2010PropOp37
 70
     1
102
RTVSPost2010Prop38
140
0.0
102
RTVSPost2010PropOp38
 70
     1
102
RTVSPost2010Prop39
140
1.0
102
RTVSPost2010PropOp39
 70
     1
102
RTVSPost2010Prop40
 90
        0
102
RTVSPost2010PropOp40
 70
     1
102
RTVSPost2010Prop41ColorIndex
 90
       18
102
RTVSPost2010Prop41ColorRGB
 90
        0
102
RTVSPost2010PropOp41
 70
     1
102
RTVSPost2010Prop42
 90
       50
102
RTVSPost2010PropOp42
 70
     1
102
RTVSPost2010Prop43
 90
        3
102
RTVSPost2010PropOp43
 70
     1
102
RTVSPost2010Prop44ColorIndex
 90
        5
102
RTVSPost2010Prop44ColorRGB
 90
      255
102
RTVSPost2010PropOp44
 70
     1
102
RTVSPost2010Prop45
280
     0
102
RTVSPost2010PropOp45
 70
     1
102
RTVSPost2010Prop46
 90
       50
102
RTVSPost2010PropOp46
 70
     1
102
RTVSPost2010Prop47
 90
       50
102
RTVSPost2010PropOp47
 70
     1
102
RTVSPost2010Prop48
 90
       50
102
RTVSPost2010PropOp48
 70
     1
102
RTVSPost2010Prop49
280
     0
102
RTVSPost2010PropOp49
 70
     1
102
RTVSPost2010Prop50
 90
       50
102
RTVSPost2010PropOp50
 70
     1
102
RTVSPost2010Prop51ColorIndex
 90
      256
102
RTVSPost2010Prop51ColorRGB
 90
-16777216
102
RTVSPost2010PropOp51
 70
     0
102
RTVSPost2010Prop52
140
1.0
102
RTVSPost2010PropOp52
 70
     0
102
RTVSPost2010Prop53
 90
        2
102
RTVSPost2010PropOp53
 70
     1
102
RTVSPost2010Prop54
  1
strokes_ogs.tif
102
RTVSPost2010PropOp54
 70
     1
102
RTVSPost2010Prop55
280
     0
102
RTVSPost2010PropOp55
 70
     1
102
RTVSPost2010Prop56
140
1.0
102
RTVSPost2010PropOp56
 70
     1
102
RTVSPost2010Prop57
140
1.0
102
RTVSPost2010PropOp57
 70
     1
102
RTVSPropertyOp0
 70
     1
102
RTVSPropertyOp1
 70
     1
102
RTVSPropertyOp2
 70
     1
102
RTVSPropertyOp3
 70
     1
102
RTVSPropertyOp4
 70
     1
102
RTVSPropertyOp5
 70
     1
102
RTVSPropertyOp6
 70
     1
102
RTVSPropertyOp7
 70
     1
102
RTVSPropertyOp8
 70
     1
102
RTVSPropertyOp9
 70
     1
102
RTVSPropertyOp10
 70
     1
102
RTVSPropertyOp11
 70
     1
102
RTVSPropertyOp12
 70
     1
102
RTVSPropertyOp13
 70
     1
102
RTVSPropertyOp14
 70
     1
102
RTVSPropertyOp15
 70
     1
102
RTVSPropertyOp16
 70
     1
102
RTVSPropertyOp17
 70
     1
102
RTVSPropertyOp18
 70
     1
102
RTVSPropertyOp19
 70
     1
102
RTVSPropertyOp20
 70
     1
102
RTVSPropertyOp21
 70
     1
102
RTVSPropertyOp22
 70
     1
102
RTVSPropertyOp23
 70
     1
102
RTVSPropertyOp24
 70
     1
102
RTVSPropertyOp25
 70
     1
102
RTVSPropertyOp26
 70
     1
102
RTVSPropertyOp27
 70
     1
102
RTVSPropertyOp28
 70
     1
102
RTVSPropertyOp29
 70
     1
102
RTVSPropertyOp30
 70
     1
102
RTVSPropertyOp31
 70
     1
102
RTVSPropertyOp32
 70
     1
102
RTVSPropertyOp33
 70
     1
102
RTVSPropertyOp34
 70
     1
102
RTVSPropertyOp35
 70
     1
102
RTVSPropertyOp36
 70
     1
102
RTVSPropertyOp37
 70
     1
102
RTVSPropertyOp38
 70
     1
102
RTVSPropertyOp39
 70
     1
102
RTVSPropertyOp40
 70
     1
102
RTVSPropertyOp41
 70
     1
102
RTVSPropertyOp42
 70
     1
102
RTVSPropertyOp43
 70
     1
102
RTVSPropertyOp44
 70
     1
102
RTVSPropertyOp45
 70
     1
102
RTVSPropertyOp46
 70
     1
102
RTVSPropertyOp47
 70
     1
102
RTVSPropertyOp48
 70
     1
102
RTVSPropertyOp49
 70
     1
102
RTVSPropertyOp50
 70
     1
102
RTVSPropertyOp51
 70
     0
102
RTVSPropertyOp52
 70
     0
102
RTVSPropertyOp53
 70
     1
102
RTVSPropertyOp54
 70
     1
102
RTVSPropertyOp55
 70
     1
102
RTVSPropertyOp56
 70
     1
102
RTVSPropertyOp57
 70
     1
102
RTVSPropertyOp58
 70
     1
102
RTVSPropertyOp59
 70
     1
102
RTVSPropertyOp60
 70
     1
102
RTVSPropertyOp61
 70
     1
102
RTVSPropertyOp62
 70
     1
  0
XRECORD
  5
10C8
102
{ACAD_REACTORS
330
10C7
102
}
330
10C7
100
AcDbXrecord
280
     1
102
RTVSPost2010Prop28
280
     0
102
RTVSPost2010PropOp28
 70
     1
102
RTVSPost2010Prop29
280
     1
102
RTVSPost2010PropOp29
 70
     1
102
RTVSPost2010Prop30
280
     1
102
RTVSPost2010PropOp30
 70
     1
102
RTVSPost2010Prop31
280
     0
102
RTVSPost2010PropOp31
 70
     1
102
RTVSPost2010Prop32
280
     0
102
RTVSPost2010PropOp32
 70
     1
102
RTVSPost2010Prop33
280
     0
102
RTVSPost2010PropOp33
 70
     1
102
RTVSPost2010Prop34
280
     0
102
RTVSPost2010PropOp34
 70
     1
102
RTVSPost2010Prop35
280
     0
102
RTVSPost2010PropOp35
 70
     1
102
RTVSPost2010Prop36
280
     0
102
RTVSPost2010PropOp36
 70
     1
102
RTVSPost2010Prop37
 90
       50
102
RTVSPost2010PropOp37
 70
     1
102
RTVSPost2010Prop38
140
0.0
102
RTVSPost2010PropOp38
 70
     1
102
RTVSPost2010Prop39
140
1.0
102
RTVSPost2010PropOp39
 70
     1
102
RTVSPost2010Prop40
 90
        0
102
RTVSPost2010PropOp40
 70
     1
102
RTVSPost2010Prop41ColorIndex
 90
       18
102
RTVSPost2010Prop41ColorRGB
 90
        0
102
RTVSPost2010PropOp41
 70
     1
102
RTVSPost2010Prop42
 90
       50
102
RTVSPost2010PropOp42
 70
     1
102
RTVSPost2010Prop43
 90
        3
102
RTVSPost2010PropOp43
 70
     1
102
RTVSPost2010Prop44ColorIndex
 90
        5
102
RTVSPost2010Prop44ColorRGB
 90
      255
102
RTVSPost2010PropOp44
 70
     1
102
RTVSPost2010Prop45
280
     0
102
RTVSPost2010PropOp45
 70
     1
102
RTVSPost2010Prop46
 90
       50
102
RTVSPost2010PropOp46
 70
     1
102
RTVSPost2010Prop47
 90
       50
102
RTVSPost2010PropOp47
 70
     1
102
RTVSPost2010Prop48
 90
       50
102
RTVSPost2010PropOp48
 70
     1
102
RTVSPost2010Prop49
280
     0
102
RTVSPost2010PropOp49
 70
     1
102
RTVSPost2010Prop50
 90
       50
102
RTVSPost2010PropOp50
 70
     1
102
RTVSPost2010Prop51ColorIndex
 90
      256
102
RTVSPost2010Prop51ColorRGB
 90
-16777216
102
RTVSPost2010PropOp51
 70
     0
102
RTVSPost2010Prop52
140
1.0
102
RTVSPost2010PropOp52
 70
     0
102
RTVSPost2010Prop53
 90
        2
102
RTVSPost2010PropOp53
 70
     1
102
RTVSPost2010Prop54
  1
strokes_ogs.tif
102
RTVSPost2010PropOp54
 70
     1
102
RTVSPost2010Prop55
280
     0
102
RTVSPost2010PropOp55
 70
     1
102
RTVSPost2010Prop56
140
1.0
102
RTVSPost2010PropOp56
 70
     1
102
RTVSPost2010Prop57
140
1.0
102
RTVSPost2010PropOp57
 70
     1
102
RTVSPropertyOp0
 70
     1
102
RTVSPropertyOp1
 70
     1
102
RTVSPropertyOp2
 70
     1
102
RTVSPropertyOp3
 70
     1
102
RTVSPropertyOp4
 70
     1
102
RTVSPropertyOp5
 70
     1
102
RTVSPropertyOp6
 70
     1
102
RTVSPropertyOp7
 70
     1
102
RTVSPropertyOp8
 70
     1
102
RTVSPropertyOp9
 70
     1
102
RTVSPropertyOp10
 70
     1
102
RTVSPropertyOp11
 70
     1
102
RTVSPropertyOp12
 70
     1
102
RTVSPropertyOp13
 70
     1
102
RTVSPropertyOp14
 70
     1
102
RTVSPropertyOp15
 70
     1
102
RTVSPropertyOp16
 70
     1
102
RTVSPropertyOp17
 70
     1
102
RTVSPropertyOp18
 70
     1
102
RTVSPropertyOp19
 70
     1
102
RTVSPropertyOp20
 70
     1
102
RTVSPropertyOp21
 70
     1
102
RTVSPropertyOp22
 70
     1
102
RTVSPropertyOp23
 70
     1
102
RTVSPropertyOp24
 70
     1
102
RTVSPropertyOp25
 70
     1
102
RTVSPropertyOp26
 70
     1
102
RTVSPropertyOp27
 70
     1
102
RTVSPropertyOp28
 70
     1
102
RTVSPropertyOp29
 70
     1
102
RTVSPropertyOp30
 70
     1
102
RTVSPropertyOp31
 70
     1
102
RTVSPropertyOp32
 70
     1
102
RTVSPropertyOp33
 70
     1
102
RTVSPropertyOp34
 70
     1
102
RTVSPropertyOp35
 70
     1
102
RTVSPropertyOp36
 70
     1
102
RTVSPropertyOp37
 70
     1
102
RTVSPropertyOp38
 70
     1
102
RTVSPropertyOp39
 70
     1
102
RTVSPropertyOp40
 70
     1
102
RTVSPropertyOp41
 70
     1
102
RTVSPropertyOp42
 70
     1
102
RTVSPropertyOp43
 70
     1
102
RTVSPropertyOp44
 70
     1
102
RTVSPropertyOp45
 70
     1
102
RTVSPropertyOp46
 70
     1
102
RTVSPropertyOp47
 70
     1
102
RTVSPropertyOp48
 70
     1
102
RTVSPropertyOp49
 70
     1
102
RTVSPropertyOp50
 70
     1
102
RTVSPropertyOp51
 70
     0
102
RTVSPropertyOp52
 70
     0
102
RTVSPropertyOp53
 70
     1
102
RTVSPropertyOp54
 70
     1
102
RTVSPropertyOp55
 70
     1
102
RTVSPropertyOp56
 70
     1
102
RTVSPropertyOp57
 70
     1
102
RTVSPropertyOp58
 70
     1
102
RTVSPropertyOp59
 70
     1
102
RTVSPropertyOp60
 70
     1
102
RTVSPropertyOp61
 70
     1
102
RTVSPropertyOp62
 70
     1
  0
XRECORD
  5
10BC
102
{ACAD_REACTORS
330
10BB
102
}
330
10BB
100
AcDbXrecord
280
     1
102
RTVSPost2010Prop28
280
     0
102
RTVSPost2010PropOp28
 70
     1
102
RTVSPost2010Prop29
280
     1
102
RTVSPost2010PropOp29
 70
     1
102
RTVSPost2010Prop30
280
     1
102
RTVSPost2010PropOp30
 70
     1
102
RTVSPost2010Prop31
280
     0
102
RTVSPost2010PropOp31
 70
     1
102
RTVSPost2010Prop32
280
     0
102
RTVSPost2010PropOp32
 70
     1
102
RTVSPost2010Prop33
280
     0
102
RTVSPost2010PropOp33
 70
     1
102
RTVSPost2010Prop34
280
     0
102
RTVSPost2010PropOp34
 70
     1
102
RTVSPost2010Prop35
280
     0
102
RTVSPost2010PropOp35
 70
     1
102
RTVSPost2010Prop36
280
     0
102
RTVSPost2010PropOp36
 70
     1
102
RTVSPost2010Prop37
 90
       50
102
RTVSPost2010PropOp37
 70
     1
102
RTVSPost2010Prop38
140
0.0
102
RTVSPost2010PropOp38
 70
     1
102
RTVSPost2010Prop39
140
1.0
102
RTVSPost2010PropOp39
 70
     1
102
RTVSPost2010Prop40
 90
        0
102
RTVSPost2010PropOp40
 70
     1
102
RTVSPost2010Prop41ColorIndex
 90
       18
102
RTVSPost2010Prop41ColorRGB
 90
        0
102
RTVSPost2010PropOp41
 70
     1
102
RTVSPost2010Prop42
 90
       50
102
RTVSPost2010PropOp42
 70
     1
102
RTVSPost2010Prop43
 90
        3
102
RTVSPost2010PropOp43
 70
     1
102
RTVSPost2010Prop44ColorIndex
 90
        5
102
RTVSPost2010Prop44ColorRGB
 90
      255
102
RTVSPost2010PropOp44
 70
     1
102
RTVSPost2010Prop45
280
     0
102
RTVSPost2010PropOp45
 70
     1
102
RTVSPost2010Prop46
 90
       50
102
RTVSPost2010PropOp46
 70
     1
102
RTVSPost2010Prop47
 90
       50
102
RTVSPost2010PropOp47
 70
     1
102
RTVSPost2010Prop48
 90
       50
102
RTVSPost2010PropOp48
 70
     1
102
RTVSPost2010Prop49
280
     0
102
RTVSPost2010PropOp49
 70
     1
102
RTVSPost2010Prop50
 90
       50
102
RTVSPost2010PropOp50
 70
     1
102
RTVSPost2010Prop51ColorIndex
 90
      256
102
RTVSPost2010Prop51ColorRGB
 90
-16777216
102
RTVSPost2010PropOp51
 70
     0
102
RTVSPost2010Prop52
140
1.0
102
RTVSPost2010PropOp52
 70
     0
102
RTVSPost2010Prop53
 90
        2
102
RTVSPost2010PropOp53
 70
     1
102
RTVSPost2010Prop54
  1
strokes_ogs.tif
102
RTVSPost2010PropOp54
 70
     1
102
RTVSPost2010Prop55
280
     0
102
RTVSPost2010PropOp55
 70
     1
102
RTVSPost2010Prop56
140
1.0
102
RTVSPost2010PropOp56
 70
     1
102
RTVSPost2010Prop57
140
1.0
102
RTVSPost2010PropOp57
 70
     1
102
RTVSPropertyOp0
 70
     1
102
RTVSPropertyOp1
 70
     1
102
RTVSPropertyOp2
 70
     1
102
RTVSPropertyOp3
 70
     1
102
RTVSPropertyOp4
 70
     1
102
RTVSPropertyOp5
 70
     1
102
RTVSPropertyOp6
 70
     1
102
RTVSPropertyOp7
 70
     1
102
RTVSPropertyOp8
 70
     1
102
RTVSPropertyOp9
 70
     1
102
RTVSPropertyOp10
 70
     1
102
RTVSPropertyOp11
 70
     1
102
RTVSPropertyOp12
 70
     1
102
RTVSPropertyOp13
 70
     1
102
RTVSPropertyOp14
 70
     1
102
RTVSPropertyOp15
 70
     1
102
RTVSPropertyOp16
 70
     1
102
RTVSPropertyOp17
 70
     1
102
RTVSPropertyOp18
 70
     1
102
RTVSPropertyOp19
 70
     1
102
RTVSPropertyOp20
 70
     1
102
RTVSPropertyOp21
 70
     1
102
RTVSPropertyOp22
 70
     1
102
RTVSPropertyOp23
 70
     1
102
RTVSPropertyOp24
 70
     1
102
RTVSPropertyOp25
 70
     1
102
RTVSPropertyOp26
 70
     1
102
RTVSPropertyOp27
 70
     1
102
RTVSPropertyOp28
 70
     1
102
RTVSPropertyOp29
 70
     1
102
RTVSPropertyOp30
 70
     1
102
RTVSPropertyOp31
 70
     1
102
RTVSPropertyOp32
 70
     1
102
RTVSPropertyOp33
 70
     1
102
RTVSPropertyOp34
 70
     1
102
RTVSPropertyOp35
 70
     1
102
RTVSPropertyOp36
 70
     1
102
RTVSPropertyOp37
 70
     1
102
RTVSPropertyOp38
 70
     1
102
RTVSPropertyOp39
 70
     1
102
RTVSPropertyOp40
 70
     1
102
RTVSPropertyOp41
 70
     1
102
RTVSPropertyOp42
 70
     1
102
RTVSPropertyOp43
 70
     1
102
RTVSPropertyOp44
 70
     1
102
RTVSPropertyOp45
 70
     1
102
RTVSPropertyOp46
 70
     1
102
RTVSPropertyOp47
 70
     1
102
RTVSPropertyOp48
 70
     1
102
RTVSPropertyOp49
 70
     1
102
RTVSPropertyOp50
 70
     1
102
RTVSPropertyOp51
 70
     0
102
RTVSPropertyOp52
 70
     0
102
RTVSPropertyOp53
 70
     1
102
RTVSPropertyOp54
 70
     1
102
RTVSPropertyOp55
 70
     1
102
RTVSPropertyOp56
 70
     1
102
RTVSPropertyOp57
 70
     1
102
RTVSPropertyOp58
 70
     1
102
RTVSPropertyOp59
 70
     1
102
RTVSPropertyOp60
 70
     1
102
RTVSPropertyOp61
 70
     1
102
RTVSPropertyOp62
 70
     1
  0
XRECORD
  5
10D4
102
{ACAD_REACTORS
330
10D3
102
}
330
10D3
100
AcDbXrecord
280
     1
102
RTVSPost2010Prop28
280
     0
102
RTVSPost2010PropOp28
 70
     1
102
RTVSPost2010Prop29
280
     1
102
RTVSPost2010PropOp29
 70
     1
102
RTVSPost2010Prop30
280
     1
102
RTVSPost2010PropOp30
 70
     1
102
RTVSPost2010Prop31
280
     0
102
RTVSPost2010PropOp31
 70
     1
102
RTVSPost2010Prop32
280
     0
102
RTVSPost2010PropOp32
 70
     1
102
RTVSPost2010Prop33
280
     0
102
RTVSPost2010PropOp33
 70
     1
102
RTVSPost2010Prop34
280
     0
102
RTVSPost2010PropOp34
 70
     1
102
RTVSPost2010Prop35
280
     0
102
RTVSPost2010PropOp35
 70
     1
102
RTVSPost2010Prop36
280
     0
102
RTVSPost2010PropOp36
 70
     1
102
RTVSPost2010Prop37
 90
       50
102
RTVSPost2010PropOp37
 70
     1
102
RTVSPost2010Prop38
140
0.0
102
RTVSPost2010PropOp38
 70
     1
102
RTVSPost2010Prop39
140
1.0
102
RTVSPost2010PropOp39
 70
     1
102
RTVSPost2010Prop40
 90
        0
102
RTVSPost2010PropOp40
 70
     1
102
RTVSPost2010Prop41ColorIndex
 90
       18
102
RTVSPost2010Prop41ColorRGB
 90
        0
102
RTVSPost2010PropOp41
 70
     1
102
RTVSPost2010Prop42
 90
       50
102
RTVSPost2010PropOp42
 70
     1
102
RTVSPost2010Prop43
 90
        3
102
RTVSPost2010PropOp43
 70
     1
102
RTVSPost2010Prop44ColorIndex
 90
        5
102
RTVSPost2010Prop44ColorRGB
 90
      255
102
RTVSPost2010PropOp44
 70
     1
102
RTVSPost2010Prop45
280
     0
102
RTVSPost2010PropOp45
 70
     1
102
RTVSPost2010Prop46
 90
       50
102
RTVSPost2010PropOp46
 70
     1
102
RTVSPost2010Prop47
 90
       50
102
RTVSPost2010PropOp47
 70
     1
102
RTVSPost2010Prop48
 90
       50
102
RTVSPost2010PropOp48
 70
     1
102
RTVSPost2010Prop49
280
     0
102
RTVSPost2010PropOp49
 70
     1
102
RTVSPost2010Prop50
 90
       50
102
RTVSPost2010PropOp50
 70
     1
102
RTVSPost2010Prop51ColorIndex
 90
      256
102
RTVSPost2010Prop51ColorRGB
 90
-16777216
102
RTVSPost2010PropOp51
 70
     0
102
RTVSPost2010Prop52
140
1.0
102
RTVSPost2010PropOp52
 70
     0
102
RTVSPost2010Prop53
 90
        2
102
RTVSPost2010PropOp53
 70
     1
102
RTVSPost2010Prop54
  1
strokes_ogs.tif
102
RTVSPost2010PropOp54
 70
     1
102
RTVSPost2010Prop55
280
     0
102
RTVSPost2010PropOp55
 70
     1
102
RTVSPost2010Prop56
140
1.0
102
RTVSPost2010PropOp56
 70
     1
102
RTVSPost2010Prop57
140
1.0
102
RTVSPost2010PropOp57
 70
     1
102
RTVSPropertyOp0
 70
     1
102
RTVSPropertyOp1
 70
     1
102
RTVSPropertyOp2
 70
     1
102
RTVSPropertyOp3
 70
     1
102
RTVSPropertyOp4
 70
     1
102
RTVSPropertyOp5
 70
     1
102
RTVSPropertyOp6
 70
     1
102
RTVSPropertyOp7
 70
     1
102
RTVSPropertyOp8
 70
     1
102
RTVSPropertyOp9
 70
     1
102
RTVSPropertyOp10
 70
     1
102
RTVSPropertyOp11
 70
     1
102
RTVSPropertyOp12
 70
     1
102
RTVSPropertyOp13
 70
     1
102
RTVSPropertyOp14
 70
     1
102
RTVSPropertyOp15
 70
     1
102
RTVSPropertyOp16
 70
     1
102
RTVSPropertyOp17
 70
     1
102
RTVSPropertyOp18
 70
     1
102
RTVSPropertyOp19
 70
     1
102
RTVSPropertyOp20
 70
     1
102
RTVSPropertyOp21
 70
     1
102
RTVSPropertyOp22
 70
     1
102
RTVSPropertyOp23
 70
     1
102
RTVSPropertyOp24
 70
     1
102
RTVSPropertyOp25
 70
     1
102
RTVSPropertyOp26
 70
     1
102
RTVSPropertyOp27
 70
     1
102
RTVSPropertyOp28
 70
     1
102
RTVSPropertyOp29
 70
     1
102
RTVSPropertyOp30
 70
     1
102
RTVSPropertyOp31
 70
     1
102
RTVSPropertyOp32
 70
     1
102
RTVSPropertyOp33
 70
     1
102
RTVSPropertyOp34
 70
     1
102
RTVSPropertyOp35
 70
     1
102
RTVSPropertyOp36
 70
     1
102
RTVSPropertyOp37
 70
     1
102
RTVSPropertyOp38
 70
     1
102
RTVSPropertyOp39
 70
     1
102
RTVSPropertyOp40
 70
     1
102
RTVSPropertyOp41
 70
     1
102
RTVSPropertyOp42
 70
     1
102
RTVSPropertyOp43
 70
     1
102
RTVSPropertyOp44
 70
     1
102
RTVSPropertyOp45
 70
     1
102
RTVSPropertyOp46
 70
     1
102
RTVSPropertyOp47
 70
     1
102
RTVSPropertyOp48
 70
     1
102
RTVSPropertyOp49
 70
     1
102
RTVSPropertyOp50
 70
     1
102
RTVSPropertyOp51
 70
     0
102
RTVSPropertyOp52
 70
     0
102
RTVSPropertyOp53
 70
     1
102
RTVSPropertyOp54
 70
     1
102
RTVSPropertyOp55
 70
     1
102
RTVSPropertyOp56
 70
     1
102
RTVSPropertyOp57
 70
     1
102
RTVSPropertyOp58
 70
     1
102
RTVSPropertyOp59
 70
     1
102
RTVSPropertyOp60
 70
     1
102
RTVSPropertyOp61
 70
     1
102
RTVSPropertyOp62
 70
     1
  0
ENDSEC
  0
EOF
