  0
SECTION
  2
HEADER
  9
$ACADVER
  1
AC1015
  9
$DWGCODEPAGE
  3
ANSI_932
  9
$LTSCALE
 40
20.0
  9
$FILLMODE
 70
     1
  9
$CLAYER
  8
0
  9
$PDMODE
 70
     0
  9
$SPLFRAME
 70
     0
  9
$SPLINETYPE
 70
     6
  9
$SPLINESEGS
 70
     8
  9
$DIMASZ
 40
2.000000
  9
$DIMEXE
 40
1.500000
  9
$DIMEXO
 40
0.800000
  9
$DIMTAD
 70
     1
  9
$DIMTIH
 70
     0
  9
$DIMTOH
 70
     0
  9
$DIMTVP
 40
0.500000
  9
$DIMTXT
 40
3.100000
  9
$EXTMIN
 10
0.000000
 20
0.000000
 30
0.000000
  9
$EXTMAX
 10
297.000000
 20
420.000000
 30
0.000000
  9
$MEASUREMENT
 70
  1
  9
$LIMMIN
 10
0.000000
 20
0.000000
  9
$LIMMAX
 10
297.000000
 20
420.000000
  9
$HANDSEED
  5
227
  9
$LWDISPLAY
290
     0
  9
$DIMBLK
  1
_OPEN
  9
$DIMDEC
 70
     2
  9
$DIMADEC
 70
     2
  9
$DIMAUNIT
 70
     0
  9
$DIMZIN
 70
     8
  9
$DIMAZIN
 70
     2
  9
$DIMTOFL
 70
     1
  0
ENDSEC
  0
SECTION
  2
CLASSES
  0
ENDSEC
  0
SECTION
  2
TABLES
  0
TABLE
  2
VPORT
  5
1F5
100
AcDbSymbolTable
 70
     1
  0
VPORT
  5
1F6
100
AcDbSymbolTableRecord
100
AcDbViewportTableRecord
  2
*ACTIVE
 70
     0
 12
187.383963
 22
137.705784
 40
243.566582
 41
1.910082
  0
ENDTAB
  0
TABLE
  2
LTYPE
  5
1F7
100
AcDbSymbolTable
 70
     3
  0
LTYPE
  5
1F8
100
AcDbSymbolTableRecord
100
AcDbLinetypeTableRecord
  2
BYBLOCK
 70
     0
  3

 72
    65
 73
     0
 40
0.0
  0
LTYPE
  5
1F9
100
AcDbSymbolTableRecord
100
AcDbLinetypeTableRecord
  2
BYLAYER
 70
     0
  3

 72
    65
 73
     0
 40
0.0
  0
LTYPE
  5
1FA
100
AcDbSymbolTableRecord
100
AcDbLinetypeTableRecord
  2
CONTINUOUS
 70
     0
  3
Solid line (NEC CAE2D for Win R16.0 : 2021.10.21)
 72
    65
 73
     0
 40
0.0
  0
LTYPE
  5
1FB
100
AcDbSymbolTableRecord
100
AcDbLinetypeTableRecord
  2
DASHED
 70
     0
  3
__ __ __ __ __ __ __ __ __ __ __ __ __ _
 72
    65
 73
     2
 40
0.75
 49
0.5
 74
     0
 49
-0.25
 74
     0
  0
LTYPE
  5
1FC
100
AcDbSymbolTableRecord
100
AcDbLinetypeTableRecord
  2
CENTER
 70
     0
  3
____ _ ____ _ ____ _ ____ _ ____ _ ____
 72
    65
 73
     4
 40
2.0
 49
1.25
 74
     0
 49
-0.25
 74
     0
 49
0.25
 74
     0
 49
-0.25
 74
     0
  0
ENDTAB
  0
TABLE
  2
LAYER
  5
1FD
100
AcDbSymbolTable
 70
    11
  0
LAYER
  5
1FE
100
AcDbSymbolTableRecord
100
AcDbLayerTableRecord
  2
0
 70
     0
 62
     7
  6
CONTINUOUS
370
    -3
390

  0
LAYER
  5
1FF
100
AcDbSymbolTableRecord
100
AcDbLayerTableRecord
  2
DXF0
 70
     0
 62
     7
  6
CONTINUOUS
370
    -3
390

  0
LAYER
  5
200
100
AcDbSymbolTableRecord
100
AcDbLayerTableRecord
  2
4
 70
     0
 62
     1
  6
CONTINUOUS
370
    -3
390

  0
LAYER
  5
201
100
AcDbSymbolTableRecord
100
AcDbLayerTableRecord
  2
5
 70
     0
 62
     6
  6
CONTINUOUS
370
    -3
390

  0
LAYER
  5
202
100
AcDbSymbolTableRecord
100
AcDbLayerTableRecord
  2
1
 70
     0
 62
     7
  6
CONTINUOUS
370
    -3
390

  0
LAYER
  5
203
100
AcDbSymbolTableRecord
100
AcDbLayerTableRecord
  2
2
 70
     0
 62
     4
  6
CONTINUOUS
370
    -3
390

  0
LAYER
  5
204
100
AcDbSymbolTableRecord
100
AcDbLayerTableRecord
  2
3
 70
     0
 62
     2
  6
CONTINUOUS
370
    -3
390

  0
LAYER
  5
205
100
AcDbSymbolTableRecord
100
AcDbLayerTableRecord
  2
6
 70
     0
 62
     5
  6
CONTINUOUS
370
    -3
390

  0
LAYER
  5
206
100
AcDbSymbolTableRecord
100
AcDbLayerTableRecord
  2
7
 70
     0
 62
     7
  6
CONTINUOUS
370
    -3
390

  0
LAYER
  5
207
100
AcDbSymbolTableRecord
100
AcDbLayerTableRecord
  2
DXF10
 70
     0
 62
    12
  6
CONTINUOUS
370
    -3
390

  0
LAYER
  5
208
100
AcDbSymbolTableRecord
100
AcDbLayerTableRecord
  2
DXF1023
 70
     0
 62
    16
  6
CONTINUOUS
370
    -3
390

  0
ENDTAB
  0
TABLE
  2
STYLE
  5
209
100
AcDbSymbolTable
 70
     4
  0
STYLE
  5
20A
100
AcDbSymbolTableRecord
100
AcDbTextStyleTableRecord
  2
STANDARD
 70
    64
 40
0.0
 41
1.0
 50
0.0
 71
     0
 42
3.000000000000000
  3
TXT
  4

  0
STYLE
  5
20B
100
AcDbSymbolTableRecord
100
AcDbTextStyleTableRecord
  2
ANKTATE
 70
    68
 40
0.0
 41
1.0
 50
0.0
 71
     0
 42
3.000000000000000
  3
TXT
  4

  0
STYLE
  5
20C
100
AcDbSymbolTableRecord
100
AcDbTextStyleTableRecord
  2
KNJYOKO
 70
    64
 40
0.0
 41
1.0
 50
0.0
 71
     0
 42
3.000000000000000
  3
TXT
  4
BIGFONT
  0
STYLE
  5
20D
100
AcDbSymbolTableRecord
100
AcDbTextStyleTableRecord
  2
KNJTATE
 70
    68
 40
0.0
 41
1.0
 50
0.0
 71
     0
 42
3.000000000000000
  3
TXT
  4
BIGFONT
  0
ENDTAB
  0
TABLE
  2
VIEW
  5
20E
100
AcDbSymbolTable
 70
     0
  0
ENDTAB
  0
TABLE
  2
UCS
  5
20F
100
AcDbSymbolTable
 70
     0
  0
ENDTAB
  0
TABLE
  2
APPID
  5
210
100
AcDbSymbolTable
 70
     1
  0
APPID
  5
211
100
AcDbSymbolTableRecord
100
AcDbRegAppTableRecord
  2
ACAD
 70
     0
  0
ENDTAB
  0
TABLE
  2
DIMSTYLE
  5
212
100
AcDbSymbolTable
 70
     2
100
AcDbDimStyleTable
  0
DIMSTYLE
105
213
100
AcDbSymbolTableRecord
100
AcDbDimStyleTableRecord
  2
STANDARD
 70
     0
 41
2.000000
 44
1.500000
 42
0.800000
145
0.661290
140
3.100000
144
1.000000
146
0.645161
340
20A
  0
DIMSTYLE
105
214
100
AcDbSymbolTableRecord
100
AcDbDimStyleTableRecord
  2
DXF001
 70
     0
 41
2.000000
 44
1.500000
 42
0.800000
145
0.661290
140
3.100000
144
1.000000
146
0.645161
 77
     1
 73
     0
 74
     0
271
     2
179
     2
275
     0
 78
     8
 79
     2
172
     1
340
20A
  0
ENDTAB
  0
TABLE
  2
BLOCK_RECORD
  5
215
100
AcDbSymbolTable
 70
    12
  0
BLOCK_RECORD
  5
216
100
AcDbSymbolTableRecord
100
AcDbBlockTableRecord
  2
*MODEL_SPACE
  0
BLOCK_RECORD
  5
217
100
AcDbSymbolTableRecord
100
AcDbBlockTableRecord
  2
*PAPER_SPACE
  0
BLOCK_RECORD
  5
218
100
AcDbSymbolTableRecord
100
AcDbBlockTableRecord
  2
*PAPER_SPACE0
  0
BLOCK_RECORD
  5
1
100
AcDbSymbolTableRecord
100
AcDbBlockTableRecord
  2
_NONE
  0
BLOCK_RECORD
  5
4
100
AcDbSymbolTableRecord
100
AcDbBlockTableRecord
  2
_CLOSED
  0
BLOCK_RECORD
  5
B
100
AcDbSymbolTableRecord
100
AcDbBlockTableRecord
  2
_DOT
  0
BLOCK_RECORD
  5
13
100
AcDbSymbolTableRecord
100
AcDbBlockTableRecord
  2
_OPEN
  0
BLOCK_RECORD
  5
19
100
AcDbSymbolTableRecord
100
AcDbBlockTableRecord
  2
_ORIGIN
  0
BLOCK_RECORD
  5
1E
100
AcDbSymbolTableRecord
100
AcDbBlockTableRecord
  2
_OPEN30
  0
BLOCK_RECORD
  5
24
100
AcDbSymbolTableRecord
100
AcDbBlockTableRecord
  2
_BOXFILLED
  0
BLOCK_RECORD
  5
29
100
AcDbSymbolTableRecord
100
AcDbBlockTableRecord
  2
_BOXBLANK
  0
BLOCK_RECORD
  5
31
100
AcDbSymbolTableRecord
100
AcDbBlockTableRecord
  2
_OBLIQUE
  0
BLOCK_RECORD
  5
35
100
AcDbSymbolTableRecord
100
AcDbBlockTableRecord
  2
_OPEN90
  0
BLOCK_RECORD
  5
3B
100
AcDbSymbolTableRecord
100
AcDbBlockTableRecord
  2
_CLOSEDBLANK
  0
BLOCK_RECORD
  5
41
100
AcDbSymbolTableRecord
100
AcDbBlockTableRecord
  2
_DOTBLANK
  0
ENDTAB
  0
ENDSEC
  0
SECTION
  2
BLOCKS
  0
BLOCK
  5
219
100
AcDbEntity
  8
0
100
AcDbBlockBegin
  2
*MODEL_SPACE
 70
     0
 10
0.0
 20
0.0
 30
0.0
  3
*MODEL_SPACE
  1

  0
ENDBLK
  5
21A
100
AcDbEntity
  8
0
100
AcDbBlockEnd
  0
BLOCK
  5
21B
100
AcDbEntity
  8
0
100
AcDbBlockBegin
  2
*PAPER_SPACE
 70
     0
 10
0.0
 20
0.0
 30
0.0
  3
*PAPER_SPACE
  1

  0
ENDBLK
  5
21C
100
AcDbEntity
  8
0
100
AcDbBlockEnd
  0
BLOCK
  5
21D
100
AcDbEntity
  8
0
100
AcDbBlockBegin
  2
*PAPER_SPACE0
 70
     0
 10
0.0
 20
0.0
 30
0.0
  3
*PAPER_SPACE0
  1

  0
ENDBLK
  5
21E
100
AcDbEntity
  8
0
100
AcDbBlockEnd
  0
BLOCK
  5
2
330
1
100
AcDbEntity
  8
0
100
AcDbBlockBegin
  2
_NONE
 70
     0
 10
0.0
 20
0.0
 30
0.0
  3
_NONE
  1

  0
ENDBLK
  5
3
330
1
100
AcDbEntity
  8
0
100
AcDbBlockEnd
  0
BLOCK
  5
5
330
4
100
AcDbEntity
  8
0
100
AcDbBlockBegin
  2
_CLOSED
 70
     0
 10
0.0
 20
0.0
 30
0.0
  3
_CLOSED
  1

  0
LINE
  5
6
330
4
100
AcDbEntity
  8
0
  6
BYBLOCK
 62
     0
370
    -2
100
AcDbLine
 10
-1.0
 20
0.166667
 30
0.0
 11
0.0
 21
0.0
 31
0.0
  0
LINE
  5
7
330
4
100
AcDbEntity
  8
0
  6
BYBLOCK
 62
     0
370
    -2
100
AcDbLine
 10
0.0
 20
0.0
 30
0.0
 11
-1.0
 21
-0.166667
 31
0.0
  0
LINE
  5
8
330
4
100
AcDbEntity
  8
0
  6
BYBLOCK
 62
     0
370
    -2
100
AcDbLine
 10
-1.0
 20
0.166667
 30
0.0
 11
-1.0
 21
-0.166667
 31
0.0
  0
LINE
  5
9
330
4
100
AcDbEntity
  8
0
  6
BYBLOCK
 62
     0
370
    -2
100
AcDbLine
 10
0.0
 20
0.0
 30
0.0
 11
-1.0
 21
0.0
 31
0.0
  0
ENDBLK
  5
A
330
4
100
AcDbEntity
  8
0
100
AcDbBlockEnd
  0
BLOCK
  5
C
330
B
100
AcDbEntity
  8
0
100
AcDbBlockBegin
  2
_DOT
 70
     0
 10
0.0
 20
0.0
 30
0.0
  3
_DOT
  1

  0
POLYLINE
  5
D
330
B
100
AcDbEntity
  8
0
  6
BYBLOCK
 62
     0
370
    -2
100
AcDb2dPolyline
 66
     1
 10
0.0
 20
0.0
 30
0.0
 70
     1
 40
0.5
 41
0.5
  0
VERTEX
  5
E
330
B
100
AcDbEntity
  8
0
  6
BYBLOCK
 62
     0
370
    -2
100
AcDbVertex
100
AcDb2dVertex
 10
-0.25
 20
0.0
 30
0.0
 42
1.0
  0
VERTEX
  5
F
330
B
100
AcDbEntity
  8
0
  6
BYBLOCK
 62
     0
370
    -2
100
AcDbVertex
100
AcDb2dVertex
 10
0.25
 20
0.0
 30
0.0
 42
1.0
  0
SEQEND
  5
10
330
B
100
AcDbEntity
  8
0
  6
BYBLOCK
 62
     0
370
    -2
  0
LINE
  5
11
330
B
100
AcDbEntity
  8
0
  6
BYBLOCK
 62
     0
370
    -2
100
AcDbLine
 10
-0.5
 20
0.0
 30
0.0
 11
-1.0
 21
0.0
 31
0.0
  0
ENDBLK
  5
12
330
B
100
AcDbEntity
  8
0
100
AcDbBlockEnd
  0
BLOCK
  5
14
330
13
100
AcDbEntity
  8
0
100
AcDbBlockBegin
  2
_OPEN
 70
     0
 10
0.0
 20
0.0
 30
0.0
  3
_OPEN
  1

  0
LINE
  5
15
330
13
100
AcDbEntity
  8
0
  6
BYBLOCK
 62
     0
370
    -2
100
AcDbLine
 10
-1.0
 20
0.166667
 30
0.0
 11
0.0
 21
0.0
 31
0.0
  0
LINE
  5
16
330
13
100
AcDbEntity
  8
0
  6
BYBLOCK
 62
     0
370
    -2
100
AcDbLine
 10
0.0
 20
0.0
 30
0.0
 11
-1.0
 21
-0.166667
 31
0.0
  0
LINE
  5
17
330
13
100
AcDbEntity
  8
0
  6
BYBLOCK
 62
     0
370
    -2
100
AcDbLine
 10
0.0
 20
0.0
 30
0.0
 11
-1.0
 21
0.0
 31
0.0
  0
ENDBLK
  5
18
330
13
100
AcDbEntity
  8
0
100
AcDbBlockEnd
  0
BLOCK
  5
1A
330
19
100
AcDbEntity
  8
0
100
AcDbBlockBegin
  2
_ORIGIN
 70
     0
 10
0.0
 20
0.0
 30
0.0
  3
_ORIGIN
  1

  0
CIRCLE
  5
1B
330
19
100
AcDbEntity
  8
0
  6
BYBLOCK
 62
     0
370
    -2
100
AcDbCircle
 10
0.0
 20
0.0
 30
0.0
 40
0.5
  0
LINE
  5
1C
330
19
100
AcDbEntity
  8
0
  6
BYBLOCK
 62
     0
370
    -2
100
AcDbLine
 10
0.0
 20
0.0
 30
0.0
 11
-1.0
 21
0.0
 31
0.0
  0
ENDBLK
  5
1D
330
19
100
AcDbEntity
  8
0
100
AcDbBlockEnd
  0
BLOCK
  5
1F
330
1E
100
AcDbEntity
  8
0
100
AcDbBlockBegin
  2
_OPEN30
 70
     0
 10
0.0
 20
0.0
 30
0.0
  3
_OPEN30
  1

  0
LINE
  5
20
330
1E
100
AcDbEntity
  8
0
  6
BYBLOCK
 62
     0
370
    -2
100
AcDbLine
 10
-1.0
 20
0.267949
 30
0.0
 11
0.0
 21
0.0
 31
0.0
  0
LINE
  5
21
330
1E
100
AcDbEntity
  8
0
  6
BYBLOCK
 62
     0
370
    -2
100
AcDbLine
 10
0.0
 20
0.0
 30
0.0
 11
-1.0
 21
-0.267949
 31
0.0
  0
LINE
  5
22
330
1E
100
AcDbEntity
  8
0
  6
BYBLOCK
 62
     0
370
    -2
100
AcDbLine
 10
0.0
 20
0.0
 30
0.0
 11
-1.0
 21
0.0
 31
0.0
  0
ENDBLK
  5
23
330
1E
100
AcDbEntity
  8
0
100
AcDbBlockEnd
  0
BLOCK
  5
25
330
24
100
AcDbEntity
  8
0
100
AcDbBlockBegin
  2
_BOXFILLED
 70
     0
 10
0.0
 20
0.0
 30
0.0
  3
_BOXFILLED
  1

  0
SOLID
  5
26
330
24
100
AcDbEntity
  8
0
  6
BYBLOCK
 62
     0
370
    -2
100
AcDbTrace
 10
-0.5
 20
0.5
 30
0.0
 11
0.5
 21
0.5
 31
0.0
 12
-0.5
 22
-0.5
 32
0.0
 13
0.5
 23
-0.5
 33
0.0
  0
LINE
  5
27
330
24
100
AcDbEntity
  8
0
  6
BYBLOCK
 62
     0
370
    -2
100
AcDbLine
 10
-0.5
 20
0.0
 30
0.0
 11
-1.0
 21
0.0
 31
0.0
  0
ENDBLK
  5
28
330
24
100
AcDbEntity
  8
0
100
AcDbBlockEnd
  0
BLOCK
  5
2A
330
29
100
AcDbEntity
  8
0
100
AcDbBlockBegin
  2
_BOXBLANK
 70
     0
 10
0.0
 20
0.0
 30
0.0
  3
_BOXBLANK
  1

  0
LINE
  5
2B
330
29
100
AcDbEntity
  8
0
  6
BYBLOCK
 62
     0
370
    -2
100
AcDbLine
 10
-0.5
 20
-0.5
 30
0.0
 11
0.5
 21
-0.5
 31
0.0
  0
LINE
  5
2C
330
29
100
AcDbEntity
  8
0
  6
BYBLOCK
 62
     0
370
    -2
100
AcDbLine
 10
0.5
 20
-0.5
 30
0.0
 11
0.5
 21
0.5
 31
0.0
  0
LINE
  5
2D
330
29
100
AcDbEntity
  8
0
  6
BYBLOCK
 62
     0
370
    -2
100
AcDbLine
 10
0.5
 20
0.5
 30
0.0
 11
-0.5
 21
0.5
 31
0.0
  0
LINE
  5
2E
330
29
100
AcDbEntity
  8
0
  6
BYBLOCK
 62
     0
370
    -2
100
AcDbLine
 10
-0.5
 20
0.5
 30
0.0
 11
-0.5
 21
-0.5
 31
0.0
  0
LINE
  5
2F
330
29
100
AcDbEntity
  8
0
  6
BYBLOCK
 62
     0
370
    -2
100
AcDbLine
 10
-0.5
 20
0.0
 30
0.0
 11
-1.0
 21
0.0
 31
0.0
  0
ENDBLK
  5
30
330
29
100
AcDbEntity
  8
0
100
AcDbBlockEnd
  0
BLOCK
  5
32
330
31
100
AcDbEntity
  8
0
100
AcDbBlockBegin
  2
_OBLIQUE
 70
     0
 10
0.0
 20
0.0
 30
0.0
  3
_OBLIQUE
  1

  0
LINE
  5
33
330
31
100
AcDbEntity
  8
0
  6
BYBLOCK
 62
     0
370
    -2
100
AcDbLine
 10
-0.5
 20
-0.5
 30
0.0
 11
0.5
 21
0.5
 31
0.0
  0
ENDBLK
  5
34
330
31
100
AcDbEntity
  8
0
100
AcDbBlockEnd
  0
BLOCK
  5
36
330
35
100
AcDbEntity
  8
0
100
AcDbBlockBegin
  2
_OPEN90
 70
     0
 10
0.0
 20
0.0
 30
0.0
  3
_OPEN90
  1

  0
LINE
  5
37
330
35
100
AcDbEntity
  8
0
  6
BYBLOCK
 62
     0
370
    -2
100
AcDbLine
 10
-0.5
 20
0.5
 30
0.0
 11
0.0
 21
0.0
 31
0.0
  0
LINE
  5
38
330
35
100
AcDbEntity
  8
0
  6
BYBLOCK
 62
     0
370
    -2
100
AcDbLine
 10
0.0
 20
0.0
 30
0.0
 11
-0.5
 21
-0.5
 31
0.0
  0
LINE
  5
39
330
35
100
AcDbEntity
  8
0
  6
BYBLOCK
 62
     0
370
    -2
100
AcDbLine
 10
0.0
 20
0.0
 30
0.0
 11
-1.0
 21
0.0
 31
0.0
  0
ENDBLK
  5
3A
330
35
100
AcDbEntity
  8
0
100
AcDbBlockEnd
  0
BLOCK
  5
3C
330
3B
100
AcDbEntity
  8
0
100
AcDbBlockBegin
  2
_CLOSEDBLANK
 70
     0
 10
0.0
 20
0.0
 30
0.0
  3
_CLOSEDBLANK
  1

  0
LINE
  5
3D
330
3B
100
AcDbEntity
  8
0
  6
BYBLOCK
 62
     0
370
    -2
100
AcDbLine
 10
-1.0
 20
0.1666666666666666
 30
0.0
 11
0.0
 21
0.0
 31
0.0
  0
LINE
  5
3E
330
3B
100
AcDbEntity
  8
0
  6
BYBLOCK
 62
     0
370
    -2
100
AcDbLine
 10
0.0
 20
0.0
 30
0.0
 11
-1.0
 21
-0.1666666666666666
 31
0.0
  0
LINE
  5
3F
330
3B
100
AcDbEntity
  8
0
  6
BYBLOCK
 62
     0
370
    -2
100
AcDbLine
 10
-1.0
 20
0.1666666666666666
 30
0.0
 11
-1.0
 21
-0.1666666666666666
 31
0.0
  0
ENDBLK
  5
40
330
3B
100
AcDbEntity
  8
0
100
AcDbBlockEnd
  0
BLOCK
  5
42
330
41
100
AcDbEntity
  8
0
100
AcDbBlockBegin
  2
_DOTBLANK
 70
     0
 10
0.0
 20
0.0
 30
0.0
  3
_DOTBLANK
  1

  0
CIRCLE
  5
43
330
41
100
AcDbEntity
  8
0
  6
BYBLOCK
 62
     0
370
    -2
100
AcDbCircle
 10
0.0
 20
0.0
 30
0.0
 40
0.5
  0
LINE
  5
44
330
41
100
AcDbEntity
  8
0
  6
BYBLOCK
 62
     0
370
    -2
100
AcDbLine
 10
-0.5
 20
0.0
 30
0.0
 11
-1.0
 21
0.0
 31
0.0
  0
ENDBLK
  5
45
330
41
100
AcDbEntity
  8
0
100
AcDbBlockEnd
  0
ENDSEC
  0
SECTION
  2
ENTITIES
  0
MTEXT
  5
46
100
AcDbEntity
  8
7
  6
CONTINUOUS
 62
7
100
AcDbMText
 10
10.00000000000000
 20
18.00000000000000
 30
0.000000000000000
 40
3.000000000000000
 41
0.000000000000000
 44
0.6739999771118164
 71
     7
 72
     1
  1
{\H0.93x;{TYPE No.TL-3-3}}
 11
1.000000000000000
 21
0.000000000000000
 31
0.000000000000000
  7
STANDARD
  0
LINE
  5
47
100
AcDbEntity
  8
1
  6
CONTINUOUS
 62
7
100
AcDbLine
 10
133.2780099999999
 20
136.7376960000000
 30
0.000000000000000
 11
133.2780099999999
 21
99.73809600000001
 31
0.000000000000000
  0
LINE
  5
48
100
AcDbEntity
  8
1
  6
CONTINUOUS
 62
7
100
AcDbLine
 10
132.0780100000000
 20
131.2376959999998
 30
0.000000000000000
 11
132.0780100000000
 21
118.5376959999999
 31
0.000000000000000
  0
LINE
  5
49
100
AcDbEntity
  8
1
  6
CONTINUOUS
 62
7
100
AcDbLine
 10
133.2780099999999
 20
136.7376960000000
 30
0.000000000000000
 11
131.0482429999999
 21
136.7376960000000
 31
0.000000000000000
  0
LINE
  5
4A
100
AcDbEntity
  8
1
  6
CONTINUOUS
 62
7
100
AcDbLine
 10
133.2780099999999
 20
131.2376959999998
 30
0.000000000000000
 11
131.5920099999999
 21
131.2376959999998
 31
0.000000000000000
  0
LINE
  5
4B
100
AcDbEntity
  8
1
  6
CONTINUOUS
 62
7
100
AcDbLine
 10
133.2780099999999
 20
129.1376960000000
 30
0.000000000000000
 11
132.0780100000000
 21
129.1376960000000
 31
0.000000000000000
  0
LINE
  5
4C
100
AcDbEntity
  8
1
  6
CONTINUOUS
 62
7
100
AcDbLine
 10
133.2780099999999
 20
99.73809600000001
 30
0.000000000000000
 11
132.0780100000000
 21
99.73809600000001
 31
0.000000000000000
  0
LINE
  5
4D
100
AcDbEntity
  8
1
  6
CONTINUOUS
 62
7
100
AcDbLine
 10
133.2780099999999
 20
122.7376959999999
 30
0.000000000000000
 11
132.0780100000000
 21
122.7376959999999
 31
0.000000000000000
  0
LINE
  5
4E
100
AcDbEntity
  8
1
  6
CONTINUOUS
 62
7
100
AcDbLine
 10
133.2780099999999
 20
118.5376959999999
 30
0.000000000000000
 11
131.3130099999999
 21
118.5376959999999
 31
0.000000000000000
  0
LINE
  5
4F
100
AcDbEntity
  8
1
  6
CONTINUOUS
 62
7
100
AcDbLine
 10
133.2780099999999
 20
111.4376959999999
 30
0.000000000000000
 11
131.1580100000000
 21
111.4376959999999
 31
0.000000000000000
  0
LINE
  5
50
100
AcDbEntity
  8
1
  6
CONTINUOUS
 62
7
100
AcDbLine
 10
133.2780099999999
 20
106.7376960000000
 30
0.000000000000000
 11
132.0780100000000
 21
106.7376960000000
 31
0.000000000000000
  0
LINE
  5
51
100
AcDbEntity
  8
4
  6
CENTER
 62
1
100
AcDbLine
 10
128.4780100000000
 20
137.4376959999999
 30
0.000000000000000
 11
128.4780100000000
 21
130.2376959999998
 31
0.000000000000000
  0
LINE
  5
52
100
AcDbEntity
  8
4
  6
CENTER
 62
1
100
AcDbLine
 10
124.8780100000000
 20
133.8376959999999
 30
0.000000000000000
 11
132.0780100000000
 21
133.8376959999999
 31
0.000000000000000
  0
LINE
  5
53
100
AcDbEntity
  8
1
  6
CONTINUOUS
 62
7
100
AcDbLine
 10
231.4780100000000
 20
136.7376960000000
 30
0.000000000000000
 11
245.4780100000000
 21
136.7376960000000
 31
0.000000000000000
  0
LINE
  5
54
100
AcDbEntity
  8
1
  6
CONTINUOUS
 62
7
100
AcDbLine
 10
231.4780100000000
 20
136.7376960000000
 30
0.000000000000000
 11
231.4780100000000
 21
131.2376959999998
 31
0.000000000000000
  0
LINE
  5
55
100
AcDbEntity
  8
1
  6
CONTINUOUS
 62
7
100
AcDbLine
 10
245.4780100000000
 20
136.7376960000000
 30
0.000000000000000
 11
245.4780100000000
 21
131.2376959999998
 31
0.000000000000000
  0
LINE
  5
56
100
AcDbEntity
  8
1
  6
CONTINUOUS
 62
7
100
AcDbLine
 10
231.4780100000000
 20
131.2376959999998
 30
0.000000000000000
 11
233.4780100000000
 21
131.2376959999998
 31
0.000000000000000
  0
LINE
  5
57
100
AcDbEntity
  8
1
  6
CONTINUOUS
 62
7
100
AcDbLine
 10
232.2280099999999
 20
129.1376960000000
 30
0.000000000000000
 11
233.4780100000000
 21
129.1376960000000
 31
0.000000000000000
  0
LINE
  5
58
100
AcDbEntity
  8
1
  6
CONTINUOUS
 62
7
100
AcDbLine
 10
233.4780100000000
 20
131.2376959999998
 30
0.000000000000000
 11
233.4780100000000
 21
129.1376960000000
 31
0.000000000000000
  0
LINE
  5
59
100
AcDbEntity
  8
1
  6
CONTINUOUS
 62
7
100
AcDbLine
 10
243.4780100000000
 20
131.2376959999998
 30
0.000000000000000
 11
243.4780100000000
 21
129.1376960000000
 31
0.000000000000000
  0
LINE
  5
5A
100
AcDbEntity
  8
1
  6
CONTINUOUS
 62
7
100
AcDbLine
 10
243.4780100000000
 20
131.2376959999998
 30
0.000000000000000
 11
245.4780100000000
 21
131.2376959999998
 31
0.000000000000000
  0
LINE
  5
5B
100
AcDbEntity
  8
1
  6
CONTINUOUS
 62
7
100
AcDbLine
 10
232.2280099999999
 20
129.1376960000000
 30
0.000000000000000
 11
232.2280099999999
 21
122.7376959999999
 31
0.000000000000000
  0
LINE
  5
5C
100
AcDbEntity
  8
1
  6
CONTINUOUS
 62
7
100
AcDbLine
 10
244.7280099999999
 20
129.1376960000000
 30
0.000000000000000
 11
244.7280099999999
 21
105.9876959999999
 31
0.000000000000000
  0
LINE
  5
5D
100
AcDbEntity
  8
1
  6
CONTINUOUS
 62
7
100
AcDbLine
 10
243.4780100000000
 20
129.1376960000000
 30
0.000000000000000
 11
244.7280099999999
 21
129.1376960000000
 31
0.000000000000000
  0
LINE
  5
5E
100
AcDbEntity
  8
1
  6
CONTINUOUS
 62
7
100
AcDbLine
 10
239.0280100000000
 20
122.7376959999999
 30
0.000000000000000
 11
239.0280100000000
 21
118.5376959999999
 31
0.000000000000000
  0
LINE
  5
5F
100
AcDbEntity
  8
1
  6
CONTINUOUS
 62
7
100
AcDbLine
 10
239.0280100000000
 20
122.7376959999999
 30
0.000000000000000
 11
232.2280099999999
 21
122.7376959999999
 31
0.000000000000000
  0
LINE
  5
60
100
AcDbEntity
  8
1
  6
CONTINUOUS
 62
7
100
AcDbLine
 10
239.0280100000000
 20
106.7376960000000
 30
0.000000000000000
 11
232.2280099999999
 21
106.7376960000000
 31
0.000000000000000
  0
LINE
  5
61
100
AcDbEntity
  8
1
  6
CONTINUOUS
 62
7
100
AcDbLine
 10
239.0280100000000
 20
118.5376959999999
 30
0.000000000000000
 11
237.8280100000000
 21
118.5376959999999
 31
0.000000000000000
  0
LINE
  5
62
100
AcDbEntity
  8
1
  6
CONTINUOUS
 62
7
100
AcDbLine
 10
239.0280100000000
 20
111.4376959999999
 30
0.000000000000000
 11
237.8280100000000
 21
111.4376959999999
 31
0.000000000000000
  0
LINE
  5
63
100
AcDbEntity
  8
1
  6
CONTINUOUS
 62
7
100
AcDbLine
 10
237.8280100000000
 20
118.5376959999999
 30
0.000000000000000
 11
237.8280100000000
 21
111.4376959999999
 31
0.000000000000000
  0
LINE
  5
64
100
AcDbEntity
  8
4
  6
CENTER
 62
1
100
AcDbLine
 10
234.7280100000000
 20
126.7376959999999
 30
0.000000000000000
 11
242.2280100000000
 21
126.7376959999999
 31
0.000000000000000
  0
LINE
  5
65
100
AcDbEntity
  8
4
  6
CENTER
 62
1
100
AcDbLine
 10
234.7280100000000
 20
103.7380959999999
 30
0.000000000000000
 11
242.2280100000000
 21
103.7380959999999
 31
0.000000000000000
  0
LINE
  5
66
100
AcDbEntity
  8
4
  6
CENTER
 62
1
100
AcDbLine
 10
130.0780100000000
 20
126.7376959999999
 30
0.000000000000000
 11
135.2780099999999
 21
126.7376959999999
 31
0.000000000000000
  0
LINE
  5
67
100
AcDbEntity
  8
4
  6
CENTER
 62
1
100
AcDbLine
 10
130.0780100000000
 20
103.7380959999999
 30
0.000000000000000
 11
135.2780099999999
 21
103.7380959999999
 31
0.000000000000000
  0
LINE
  5
68
100
AcDbEntity
  8
1
  6
CONTINUOUS
 62
7
100
AcDbLine
 10
232.2280099999999
 20
106.7376960000000
 30
0.000000000000000
 11
232.2280099999999
 21
105.9876959999999
 31
0.000000000000000
  0
LINE
  5
69
100
AcDbEntity
  8
1
  6
CONTINUOUS
 62
7
100
AcDbLine
 10
124.5540100000000
 20
131.4596960000000
 30
0.000000000000000
 11
129.2430100000000
 21
106.9036960000000
 31
0.000000000000000
  0
LINE
  5
6A
100
AcDbEntity
  8
1
  6
CONTINUOUS
 62
7
100
AcDbLine
 10
124.5540100000000
 20
131.4596960000000
 30
0.000000000000000
 11
125.5370100000000
 21
131.6476959999999
 31
0.000000000000000
  0
LINE
  5
6B
100
AcDbEntity
  8
1
  6
CONTINUOUS
 62
7
100
AcDbLine
 10
127.8540100000000
 20
98.18169599999999
 30
0.000000000000000
 11
128.3880100000000
 21
97.57779599999998
 31
0.000000000000000
  0
LINE
  5
6C
100
AcDbEntity
  8
4
  6
CENTER
 62
1
100
AcDbLine
 10
28.47801000000000
 20
155.0086959999999
 30
0.000000000000000
 11
28.47801000000000
 21
93.23809600000001
 31
0.000000000000000
  0
LINE
  5
6D
100
AcDbEntity
  8
1
  6
CONTINUOUS
 62
7
100
AcDbLine
 10
36.47800999999999
 20
137.2256960000000
 30
0.000000000000000
 11
36.47800999999999
 21
100.4136960000000
 31
0.000000000000000
  0
LINE
  5
6E
100
AcDbEntity
  8
1
  6
CONTINUOUS
 62
7
100
AcDbLine
 10
20.47801000000000
 20
137.2256960000000
 30
0.000000000000000
 11
20.47801000000000
 21
100.4136960000000
 31
0.000000000000000
  0
LINE
  5
6F
100
AcDbEntity
  8
1
  6
CONTINUOUS
 62
7
100
AcDbLine
 10
130.9160099999998
 20
100.4136960000000
 30
0.000000000000000
 11
131.6500100000000
 21
133.9046960000000
 31
0.000000000000000
  0
LINE
  5
70
100
AcDbEntity
  8
1
  6
CONTINUOUS
 62
7
100
AcDbLine
 10
125.2080100000000
 20
133.3666959999999
 30
0.000000000000000
 11
125.5370100000000
 21
131.6476959999999
 31
0.000000000000000
  0
LINE
  5
71
100
AcDbEntity
  8
1
  6
CONTINUOUS
 62
7
100
AcDbLine
 10
21.27800999999999
 20
137.2256960000000
 30
0.000000000000000
 11
21.27800999999999
 21
131.4596960000000
 31
0.000000000000000
  0
LINE
  5
72
100
AcDbEntity
  8
1
  6
CONTINUOUS
 62
7
100
AcDbLine
 10
35.67801000000000
 20
137.2256960000000
 30
0.000000000000000
 11
35.67801000000000
 21
131.4596960000000
 31
0.000000000000000
  0
LINE
  5
73
100
AcDbEntity
  8
4
  6
CENTER
 62
1
100
AcDbLine
 10
238.4780099999999
 20
154.1481120000000
 30
0.000000000000000
 11
238.4780099999999
 21
93.23809600000001
 31
0.000000000000000
  0
LINE
  5
74
100
AcDbEntity
  8
1
  6
CONTINUOUS
 62
7
100
AcDbLine
 10
230.4780100000000
 20
137.2256960000000
 30
0.000000000000000
 11
230.4780100000000
 21
100.4136960000000
 31
0.000000000000000
  0
LINE
  5
75
100
AcDbEntity
  8
1
  6
CONTINUOUS
 62
7
100
AcDbLine
 10
246.4780100000000
 20
137.2256960000000
 30
0.000000000000000
 11
246.4780100000000
 21
100.4136960000000
 31
0.000000000000000
  0
LINE
  5
76
100
AcDbEntity
  8
1
  6
CONTINUOUS
 62
7
100
AcDbLine
 10
245.6780100000000
 20
137.2256960000000
 30
0.000000000000000
 11
245.6780100000000
 21
100.4136960000000
 31
0.000000000000000
  0
LINE
  5
77
100
AcDbEntity
  8
1
  6
CONTINUOUS
 62
7
100
AcDbLine
 10
231.2780099999999
 20
137.2256960000000
 30
0.000000000000000
 11
231.2780099999999
 21
100.4136960000000
 31
0.000000000000000
  0
LINE
  5
78
100
AcDbEntity
  8
1
  6
CONTINUOUS
 62
7
100
AcDbLine
 10
245.6780100000000
 20
132.2376959999998
 30
0.000000000000000
 11
245.4780100000000
 21
132.2376959999998
 31
0.000000000000000
  0
LINE
  5
79
100
AcDbEntity
  8
4
  6
CENTER
 62
1
100
AcDbLine
 10
226.7280100000000
 20
133.8376959999999
 30
0.000000000000000
 11
250.2280100000000
 21
133.8376959999999
 31
0.000000000000000
  0
LINE
  5
7A
100
AcDbEntity
  8
1
  6
CONTINUOUS
 62
7
100
AcDbLine
 10
229.7280100000000
 20
135.5876960000000
 30
0.000000000000000
 11
229.7280100000000
 21
132.0876959999999
 31
0.000000000000000
  0
LINE
  5
7B
100
AcDbEntity
  8
1
  6
CONTINUOUS
 62
7
100
AcDbLine
 10
247.2280100000000
 20
135.5876960000000
 30
0.000000000000000
 11
247.2280100000000
 21
132.0876959999999
 31
0.000000000000000
  0
LINE
  5
7C
100
AcDbEntity
  8
1
  6
CONTINUOUS
 62
7
100
AcDbLine
 10
231.2780099999999
 20
135.3376960000000
 30
0.000000000000000
 11
231.4780100000000
 21
135.3376960000000
 31
0.000000000000000
  0
LINE
  5
7D
100
AcDbEntity
  8
1
  6
CONTINUOUS
 62
7
100
AcDbLine
 10
231.2780099999999
 20
132.3376960000000
 30
0.000000000000000
 11
231.4780100000000
 21
132.3376960000000
 31
0.000000000000000
  0
LINE
  5
7E
100
AcDbEntity
  8
1
  6
CONTINUOUS
 62
7
100
AcDbLine
 10
229.7280100000000
 20
132.0876959999999
 30
0.000000000000000
 11
230.4780100000000
 21
132.0876959999999
 31
0.000000000000000
  0
LINE
  5
7F
100
AcDbEntity
  8
1
  6
CONTINUOUS
 62
7
100
AcDbLine
 10
229.7280100000000
 20
135.5876960000000
 30
0.000000000000000
 11
230.4780100000000
 21
135.5876960000000
 31
0.000000000000000
  0
LINE
  5
80
100
AcDbEntity
  8
1
  6
CONTINUOUS
 62
7
100
AcDbLine
 10
246.4780100000000
 20
135.5876960000000
 30
0.000000000000000
 11
247.2280100000000
 21
135.5876960000000
 31
0.000000000000000
  0
LINE
  5
81
100
AcDbEntity
  8
1
  6
CONTINUOUS
 62
7
100
AcDbLine
 10
246.4780100000000
 20
132.0876959999999
 30
0.000000000000000
 11
247.2280100000000
 21
132.0876959999999
 31
0.000000000000000
  0
LINE
  5
82
100
AcDbEntity
  8
1
  6
CONTINUOUS
 62
7
100
AcDbLine
 10
19.72801000000000
 20
135.5876960000000
 30
0.000000000000000
 11
19.72801000000000
 21
132.0876959999999
 31
0.000000000000000
  0
LINE
  5
83
100
AcDbEntity
  8
1
  6
CONTINUOUS
 62
7
100
AcDbLine
 10
37.22801000000000
 20
135.5876960000000
 30
0.000000000000000
 11
37.22801000000000
 21
132.0876959999999
 31
0.000000000000000
  0
LINE
  5
84
100
AcDbEntity
  8
4
  6
CENTER
 62
1
100
AcDbLine
 10
16.72801000000000
 20
133.8376959999999
 30
0.000000000000000
 11
40.22801000000000
 21
133.8376959999999
 31
0.000000000000000
  0
LINE
  5
85
100
AcDbEntity
  8
1
  6
CONTINUOUS
 62
7
100
AcDbLine
 10
21.27800999999999
 20
135.3376960000000
 30
0.000000000000000
 11
21.47801000000000
 21
135.3376960000000
 31
0.000000000000000
  0
LINE
  5
86
100
AcDbEntity
  8
1
  6
CONTINUOUS
 62
7
100
AcDbLine
 10
21.27800999999999
 20
132.3376960000000
 30
0.000000000000000
 11
21.47801000000000
 21
132.3376960000000
 31
0.000000000000000
  0
LINE
  5
87
100
AcDbEntity
  8
1
  6
CONTINUOUS
 62
7
100
AcDbLine
 10
19.72801000000000
 20
132.0876959999999
 30
0.000000000000000
 11
20.47801000000000
 21
132.0876959999999
 31
0.000000000000000
  0
LINE
  5
88
100
AcDbEntity
  8
1
  6
CONTINUOUS
 62
7
100
AcDbLine
 10
19.72801000000000
 20
135.5876960000000
 30
0.000000000000000
 11
20.47801000000000
 21
135.5876960000000
 31
0.000000000000000
  0
LINE
  5
89
100
AcDbEntity
  8
1
  6
CONTINUOUS
 62
7
100
AcDbLine
 10
36.47800999999999
 20
135.5876960000000
 30
0.000000000000000
 11
37.22801000000000
 21
135.5876960000000
 31
0.000000000000000
  0
LINE
  5
8A
100
AcDbEntity
  8
1
  6
CONTINUOUS
 62
7
100
AcDbLine
 10
36.47800999999999
 20
132.0876959999999
 30
0.000000000000000
 11
37.22801000000000
 21
132.0876959999999
 31
0.000000000000000
  0
LINE
  5
8B
100
AcDbEntity
  8
1
  6
CONTINUOUS
 62
7
100
AcDbLine
 10
21.27800999999999
 20
212.0276959999999
 30
0.000000000000000
 11
35.67801000000000
 21
212.0276959999999
 31
0.000000000000000
  0
LINE
  5
8C
100
AcDbEntity
  8
1
  6
CONTINUOUS
 62
7
100
AcDbLine
 10
22.67800999999999
 20
220.7506959999999
 30
0.000000000000000
 11
34.27800999999998
 21
220.7506959999999
 31
0.000000000000000
  0
LINE
  5
8D
100
AcDbEntity
  8
1
  6
CONTINUOUS
 62
7
100
AcDbLine
 10
21.47801000000000
 20
212.7506960000000
 30
0.000000000000000
 11
21.47801000000000
 21
215.7506960000000
 31
0.000000000000000
  0
LINE
  5
8E
100
AcDbEntity
  8
1
  6
CONTINUOUS
 62
7
100
AcDbLine
 10
35.47800999999999
 20
212.7506960000000
 30
0.000000000000000
 11
35.47800999999999
 21
215.7506960000000
 31
0.000000000000000
  0
LINE
  5
8F
100
AcDbEntity
  8
4
  6
CENTER
 62
1
100
AcDbLine
 10
28.47801000000000
 20
207.0276960000000
 30
0.000000000000000
 11
28.47801000000000
 21
223.1133199999999
 31
0.000000000000000
  0
LINE
  5
90
100
AcDbEntity
  8
1
  6
CONTINUOUS
 62
7
100
AcDbLine
 10
22.67800999999999
 20
212.7506960000000
 30
0.000000000000000
 11
22.67800999999999
 21
215.7506960000000
 31
0.000000000000000
  0
LINE
  5
91
100
AcDbEntity
  8
1
  6
CONTINUOUS
 62
7
100
AcDbLine
 10
34.27800999999998
 20
212.7506960000000
 30
0.000000000000000
 11
34.27800999999998
 21
215.7506960000000
 31
0.000000000000000
  0
LINE
  5
92
100
AcDbEntity
  8
1
  6
CONTINUOUS
 62
7
100
AcDbLine
 10
21.47801000000000
 20
212.7506960000000
 30
0.000000000000000
 11
22.67800999999999
 21
212.7506960000000
 31
0.000000000000000
  0
LINE
  5
93
100
AcDbEntity
  8
1
  6
CONTINUOUS
 62
7
100
AcDbLine
 10
34.27800999999998
 20
212.7506960000000
 30
0.000000000000000
 11
35.47800999999999
 21
212.7506960000000
 31
0.000000000000000
  0
LINE
  5
94
100
AcDbEntity
  8
1
  6
CONTINUOUS
 62
7
100
AcDbLine
 10
22.67800999999999
 20
219.5506959999999
 30
0.000000000000000
 11
22.97801000000000
 21
219.5506959999999
 31
0.000000000000000
  0
LINE
  5
95
100
AcDbEntity
  8
1
  6
CONTINUOUS
 62
7
100
AcDbLine
 10
20.47801000000000
 20
212.6236959999999
 30
0.000000000000000
 11
21.27800999999999
 21
212.6236959999999
 31
0.000000000000000
  0
LINE
  5
96
100
AcDbEntity
  8
1
  6
CONTINUOUS
 62
7
100
AcDbLine
 10
35.67801000000000
 20
212.6236959999999
 30
0.000000000000000
 11
36.47800999999999
 21
212.6236959999999
 31
0.000000000000000
  0
LINE
  5
97
100
AcDbEntity
  8
1
  6
CONTINUOUS
 62
7
100
AcDbLine
 10
21.27800999999999
 20
212.8136959999999
 30
0.000000000000000
 11
21.47801000000000
 21
212.8136959999999
 31
0.000000000000000
  0
LINE
  5
98
100
AcDbEntity
  8
1
  6
CONTINUOUS
 62
7
100
AcDbLine
 10
22.67800999999999
 20
212.8136959999999
 30
0.000000000000000
 11
34.27800999999998
 21
212.8136959999999
 31
0.000000000000000
  0
LINE
  5
99
100
AcDbEntity
  8
1
  6
CONTINUOUS
 62
7
100
AcDbLine
 10
35.47800999999999
 20
212.8136959999999
 30
0.000000000000000
 11
35.67801000000000
 21
212.8136959999999
 31
0.000000000000000
  0
LINE
  5
9A
100
AcDbEntity
  8
1
  6
CONTINUOUS
 62
7
100
AcDbLine
 10
20.47801000000000
 20
212.6236959999999
 30
0.000000000000000
 11
20.47801000000000
 21
215.6910970000000
 31
0.000000000000000
  0
LINE
  5
9B
100
AcDbEntity
  8
1
  6
CONTINUOUS
 62
7
100
AcDbLine
 10
36.47800999999999
 20
212.6236959999999
 30
0.000000000000000
 11
36.47800999999999
 21
215.6910970000000
 31
0.000000000000000
  0
LINE
  5
9C
100
AcDbEntity
  8
1
  6
CONTINUOUS
 62
7
100
AcDbLine
 10
21.27800999999999
 20
212.6236959999999
 30
0.000000000000000
 11
21.27800999999999
 21
215.7506960000000
 31
0.000000000000000
  0
LINE
  5
9D
100
AcDbEntity
  8
1
  6
CONTINUOUS
 62
7
100
AcDbLine
 10
35.67801000000000
 20
212.6236959999999
 30
0.000000000000000
 11
35.67801000000000
 21
215.7506960000000
 31
0.000000000000000
  0
LINE
  5
9E
100
AcDbEntity
  8
1
  6
CONTINUOUS
 62
7
100
AcDbLine
 10
230.4780100000000
 20
100.4136960000000
 30
0.000000000000000
 11
231.2780099999999
 21
100.4136960000000
 31
0.000000000000000
  0
LINE
  5
9F
100
AcDbEntity
  8
1
  6
CONTINUOUS
 62
7
100
AcDbLine
 10
245.6780100000000
 20
100.4136960000000
 30
0.000000000000000
 11
246.4780100000000
 21
100.4136960000000
 31
0.000000000000000
  0
LINE
  5
A0
100
AcDbEntity
  8
1
  6
CONTINUOUS
 62
7
100
AcDbLine
 10
35.47800999999999
 20
136.7376960000000
 30
0.000000000000000
 11
35.47800999999999
 21
131.4596960000000
 31
0.000000000000000
  0
LINE
  5
A1
100
AcDbEntity
  8
1
  6
CONTINUOUS
 62
7
100
AcDbLine
 10
34.27800999999998
 20
136.7376960000000
 30
0.000000000000000
 11
34.27800999999998
 21
131.4596960000000
 31
0.000000000000000
  0
LINE
  5
A2
100
AcDbEntity
  8
1
  6
CONTINUOUS
 62
7
100
AcDbLine
 10
35.47800999999999
 20
136.7376960000000
 30
0.000000000000000
 11
23.67801000000000
 21
136.7376960000000
 31
0.000000000000000
  0
LINE
  5
A3
100
AcDbEntity
  8
1
  6
CONTINUOUS
 62
7
100
AcDbLine
 10
22.67800999999999
 20
136.7376960000000
 30
0.000000000000000
 11
22.67800999999999
 21
131.4596960000000
 31
0.000000000000000
  0
LINE
  5
A4
100
AcDbEntity
  8
1
  6
CONTINUOUS
 62
7
100
AcDbLine
 10
21.47801000000000
 20
136.7376960000000
 30
0.000000000000000
 11
21.47801000000000
 21
131.4596960000000
 31
0.000000000000000
  0
LINE
  5
A5
100
AcDbEntity
  8
1
  6
CONTINUOUS
 62
7
100
AcDbLine
 10
22.67800999999999
 20
135.3376960000000
 30
0.000000000000000
 11
23.76761000000000
 21
135.3376960000000
 31
0.000000000000000
  0
LINE
  5
A6
100
AcDbEntity
  8
1
  6
CONTINUOUS
 62
7
100
AcDbLine
 10
22.67800999999999
 20
132.3376960000000
 30
0.000000000000000
 11
23.10251000000000
 21
132.3376960000000
 31
0.000000000000000
  0
LINE
  5
A7
100
AcDbEntity
  8
1
  6
CONTINUOUS
 62
7
100
AcDbLine
 10
35.47800999999999
 20
135.3376960000000
 30
0.000000000000000
 11
35.67801000000000
 21
135.3376960000000
 31
0.000000000000000
  0
LINE
  5
A8
100
AcDbEntity
  8
1
  6
CONTINUOUS
 62
7
100
AcDbLine
 10
35.47800999999999
 20
132.3376960000000
 30
0.000000000000000
 11
35.67801000000000
 21
132.3376960000000
 31
0.000000000000000
  0
LINE
  5
A9
100
AcDbEntity
  8
1
  6
CONTINUOUS
 62
7
100
AcDbLine
 10
22.97801000000000
 20
138.7876959999998
 30
0.000000000000000
 11
22.97801000000000
 21
135.3376960000000
 31
0.000000000000000
  0
LINE
  5
AA
100
AcDbEntity
  8
1
  6
CONTINUOUS
 62
7
100
AcDbLine
 10
23.67801000000000
 20
138.7876959999998
 30
0.000000000000000
 11
23.67801000000000
 21
135.3376960000000
 31
0.000000000000000
  0
LINE
  5
AB
100
AcDbEntity
  8
1
  6
CONTINUOUS
 62
7
100
AcDbLine
 10
22.90781000000000
 20
131.4596960000000
 30
0.000000000000000
 11
23.91741000000000
 21
136.0136960000000
 31
0.000000000000000
  0
LINE
  5
AC
100
AcDbEntity
  8
1
  6
CONTINUOUS
 62
7
100
AcDbLine
 10
24.34181000000000
 20
131.4596960000000
 30
0.000000000000000
 11
25.35141000000000
 21
136.0136960000000
 31
0.000000000000000
  0
LINE
  5
AD
100
AcDbEntity
  8
1
  6
CONTINUOUS
 62
7
100
AcDbLine
 10
26.49281000000000
 20
131.4596960000000
 30
0.000000000000000
 11
27.50240999999999
 21
136.0136960000000
 31
0.000000000000000
  0
LINE
  5
AE
100
AcDbEntity
  8
1
  6
CONTINUOUS
 62
7
100
AcDbLine
 10
27.20981000000000
 20
131.4596960000000
 30
0.000000000000000
 11
28.21940999999997
 21
136.0136960000000
 31
0.000000000000000
  0
LINE
  5
AF
100
AcDbEntity
  8
1
  6
CONTINUOUS
 62
7
100
AcDbLine
 10
27.92680999999999
 20
131.4596960000000
 30
0.000000000000000
 11
28.93641000000000
 21
136.0136960000000
 31
0.000000000000000
  0
LINE
  5
B0
100
AcDbEntity
  8
1
  6
CONTINUOUS
 62
7
100
AcDbLine
 10
28.64381000000000
 20
131.4596960000000
 30
0.000000000000000
 11
29.65341000000000
 21
136.0136960000000
 31
0.000000000000000
  0
LINE
  5
B1
100
AcDbEntity
  8
1
  6
CONTINUOUS
 62
7
100
AcDbLine
 10
29.36080999999999
 20
131.4596960000000
 30
0.000000000000000
 11
30.37040999999998
 21
136.0136960000000
 31
0.000000000000000
  0
LINE
  5
B2
100
AcDbEntity
  8
1
  6
CONTINUOUS
 62
7
100
AcDbLine
 10
30.07780999999999
 20
131.4596960000000
 30
0.000000000000000
 11
31.08741000000000
 21
136.0136960000000
 31
0.000000000000000
  0
LINE
  5
B3
100
AcDbEntity
  8
1
  6
CONTINUOUS
 62
7
100
AcDbLine
 10
30.79481000000000
 20
131.4596960000000
 30
0.000000000000000
 11
31.80441000000000
 21
136.0136960000000
 31
0.000000000000000
  0
LINE
  5
B4
100
AcDbEntity
  8
1
  6
CONTINUOUS
 62
7
100
AcDbLine
 10
31.51181000000000
 20
131.4596960000000
 30
0.000000000000000
 11
32.52140999999999
 21
136.0136960000000
 31
0.000000000000000
  0
LINE
  5
B5
100
AcDbEntity
  8
1
  6
CONTINUOUS
 62
7
100
AcDbLine
 10
32.22880999999999
 20
131.4596960000000
 30
0.000000000000000
 11
33.23840999999998
 21
136.0136960000000
 31
0.000000000000000
  0
LINE
  5
B6
100
AcDbEntity
  8
1
  6
CONTINUOUS
 62
7
100
AcDbLine
 10
32.94580999999999
 20
131.4596960000000
 30
0.000000000000000
 11
33.92180999999999
 21
135.8626960000000
 31
0.000000000000000
  0
LINE
  5
B7
100
AcDbEntity
  8
1
  6
CONTINUOUS
 62
7
100
AcDbLine
 10
33.80551000000000
 20
135.3376960000000
 30
0.000000000000000
 11
34.27800999999998
 21
135.3376960000000
 31
0.000000000000000
  0
LINE
  5
B8
100
AcDbEntity
  8
1
  6
CONTINUOUS
 62
7
100
AcDbLine
 10
33.93010999999999
 20
135.9376959999998
 30
0.000000000000000
 11
33.93010999999999
 21
135.3376960000000
 31
0.000000000000000
  0
LINE
  5
B9
100
AcDbEntity
  8
1
  6
CONTINUOUS
 62
7
100
AcDbLine
 10
33.23010999999999
 20
132.3376960000000
 30
0.000000000000000
 11
33.23010999999999
 21
131.4596960000000
 31
0.000000000000000
  0
LINE
  5
BA
100
AcDbEntity
  8
1
  6
CONTINUOUS
 62
7
100
AcDbLine
 10
33.14051000000000
 20
132.3376960000000
 30
0.000000000000000
 11
34.27800999999998
 21
132.3376960000000
 31
0.000000000000000
  0
LINE
  5
BB
100
AcDbEntity
  8
1
  6
CONTINUOUS
 62
7
100
AcDbLine
 10
22.97801000000000
 20
132.3376960000000
 30
0.000000000000000
 11
22.97801000000000
 21
131.7766959999999
 31
0.000000000000000
  0
LINE
  5
BC
100
AcDbEntity
  8
1
  6
CONTINUOUS
 62
7
100
AcDbLine
 10
33.93010999999999
 20
132.3376960000000
 30
0.000000000000000
 11
33.93010999999999
 21
131.4596960000000
 31
0.000000000000000
  0
LINE
  5
BD
100
AcDbEntity
  8
1
  6
CONTINUOUS
 62
7
100
AcDbLine
 10
22.97801000000000
 20
136.7376960000000
 30
0.000000000000000
 11
21.47801000000000
 21
136.7376960000000
 31
0.000000000000000
  0
LINE
  5
BE
100
AcDbEntity
  8
1
  6
CONTINUOUS
 62
7
100
AcDbLine
 10
243.9780100000000
 20
138.7876959999998
 30
0.000000000000000
 11
243.9780100000000
 21
136.7376960000000
 31
0.000000000000000
  0
LINE
  5
BF
100
AcDbEntity
  8
1
  6
CONTINUOUS
 62
7
100
AcDbLine
 10
243.2780100000000
 20
138.7876959999998
 30
0.000000000000000
 11
243.2780100000000
 21
136.7376960000000
 31
0.000000000000000
  0
LINE
  5
C0
100
AcDbEntity
  8
1
  6
CONTINUOUS
 62
7
100
AcDbLine
 10
245.4780100000000
 20
135.3376960000000
 30
0.000000000000000
 11
245.6780100000000
 21
135.3376960000000
 31
0.000000000000000
  0
LINE
  5
C1
100
AcDbEntity
  8
1
  6
CONTINUOUS
 62
7
100
AcDbLine
 10
245.4780100000000
 20
132.3376960000000
 30
0.000000000000000
 11
245.6780100000000
 21
132.3376960000000
 31
0.000000000000000
  0
LINE
  5
C2
100
AcDbEntity
  8
1
  6
CONTINUOUS
 62
7
100
AcDbLine
 10
231.4780100000000
 20
132.2376959999998
 30
0.000000000000000
 11
231.2780099999999
 21
132.2376959999998
 31
0.000000000000000
  0
LINE
  5
C3
100
AcDbEntity
  8
4
  6
CENTER
 62
1
100
AcDbLine
 10
10.47800999999999
 20
216.8376959999999
 30
0.000000000000000
 11
46.47801000000000
 21
216.8376959999999
 31
0.000000000000000
  0
LINE
  5
C4
100
AcDbEntity
  8
4
  6
CENTER
 62
1
100
AcDbLine
 10
10.71660999999999
 20
127.5936959999998
 30
0.000000000000000
 11
46.23941000000000
 21
127.5936959999998
 31
0.000000000000000
  0
LINE
  5
C5
100
AcDbEntity
  8
1
  6
CONTINUOUS
 62
7
100
AcDbLine
 10
18.97801000000000
 20
129.0936960000000
 30
0.000000000000000
 11
20.47801000000000
 21
129.0936960000000
 31
0.000000000000000
  0
LINE
  5
C6
100
AcDbEntity
  8
1
  6
CONTINUOUS
 62
7
100
AcDbLine
 10
18.97801000000000
 20
126.0936959999998
 30
0.000000000000000
 11
20.47801000000000
 21
126.0936959999998
 31
0.000000000000000
  0
LINE
  5
C7
100
AcDbEntity
  8
1
  6
CONTINUOUS
 62
7
100
AcDbLine
 10
36.47800999999999
 20
129.0936960000000
 30
0.000000000000000
 11
37.97800999999999
 21
129.0936960000000
 31
0.000000000000000
  0
LINE
  5
C8
100
AcDbEntity
  8
1
  6
CONTINUOUS
 62
7
100
AcDbLine
 10
36.47800999999999
 20
126.0936959999998
 30
0.000000000000000
 11
37.97800999999999
 21
126.0936959999998
 31
0.000000000000000
  0
LINE
  5
C9
100
AcDbEntity
  8
1
  6
CONTINUOUS
 62
7
100
AcDbLine
 10
230.4780100000000
 20
126.0936959999998
 30
0.000000000000000
 11
228.9780100000000
 21
126.0936959999998
 31
0.000000000000000
  0
LINE
  5
CA
100
AcDbEntity
  8
1
  6
CONTINUOUS
 62
7
100
AcDbLine
 10
247.9780100000000
 20
126.0936959999998
 30
0.000000000000000
 11
246.4780100000000
 21
126.0936959999998
 31
0.000000000000000
  0
LINE
  5
CB
100
AcDbEntity
  8
1
  6
CONTINUOUS
 62
7
100
AcDbLine
 10
247.9780100000000
 20
129.0936960000000
 30
0.000000000000000
 11
246.4780100000000
 21
129.0936960000000
 31
0.000000000000000
  0
LINE
  5
CC
100
AcDbEntity
  8
1
  6
CONTINUOUS
 62
7
100
AcDbLine
 10
230.4780100000000
 20
129.0936960000000
 30
0.000000000000000
 11
228.9780100000000
 21
129.0936960000000
 31
0.000000000000000
  0
LINE
  5
CD
100
AcDbEntity
  8
4
  6
CENTER
 62
1
100
AcDbLine
 10
256.2390100000000
 20
127.5936959999998
 30
0.000000000000000
 11
220.7170099999999
 21
127.5936959999998
 31
0.000000000000000
  0
LINE
  5
CE
100
AcDbEntity
  8
4
  6
CENTER
 62
1
100
AcDbLine
 10
14.47801000000000
 20
217.2506960000000
 30
0.000000000000000
 11
42.47800999999999
 21
217.2506960000000
 31
0.000000000000000
  0
LINE
  5
CF
100
AcDbEntity
  8
1
  6
CONTINUOUS
 62
7
100
AcDbLine
 10
21.05524200000000
 20
215.7506960000000
 30
0.000000000000000
 11
35.90077700000001
 21
215.7506960000000
 31
0.000000000000000
  0
LINE
  5
D0
100
AcDbEntity
  8
1
  6
CONTINUOUS
 62
7
100
AcDbLine
 10
20.97801000000000
 20
218.7506959999999
 30
0.000000000000000
 11
35.97801000000000
 21
218.7506959999999
 31
0.000000000000000
  0
LINE
  5
D1
100
AcDbEntity
  8
1
  6
CONTINUOUS
 62
7
100
AcDbLine
 10
37.22801000000000
 20
215.3376960000000
 30
0.000000000000000
 11
39.97800999999999
 21
215.3376960000000
 31
0.000000000000000
  0
LINE
  5
D2
100
AcDbEntity
  8
4
  6
CENTER
 62
1
100
AcDbLine
 10
14.72801000000000
 20
215.9506959999999
 30
0.000000000000000
 11
42.22800999999999
 21
215.9506959999999
 31
0.000000000000000
  0
LINE
  5
D3
100
AcDbEntity
  8
1
  6
CONTINUOUS
 62
7
100
AcDbLine
 10
21.27800999999999
 20
214.4506960000000
 30
0.000000000000000
 11
21.47801000000000
 21
214.4506960000000
 31
0.000000000000000
  0
LINE
  5
D4
100
AcDbEntity
  8
1
  6
CONTINUOUS
 62
7
100
AcDbLine
 10
22.67800999999999
 20
214.4506960000000
 30
0.000000000000000
 11
23.10251000000000
 21
214.4506960000000
 31
0.000000000000000
  0
LINE
  5
D5
100
AcDbEntity
  8
1
  6
CONTINUOUS
 62
7
100
AcDbLine
 10
35.47800999999999
 20
214.4506960000000
 30
0.000000000000000
 11
35.67801000000000
 21
214.4506960000000
 31
0.000000000000000
  0
LINE
  5
D6
100
AcDbEntity
  8
1
  6
CONTINUOUS
 62
7
100
AcDbLine
 10
19.72801000000000
 20
214.2006959999999
 30
0.000000000000000
 11
20.47801000000000
 21
214.2006959999999
 31
0.000000000000000
  0
LINE
  5
D7
100
AcDbEntity
  8
1
  6
CONTINUOUS
 62
7
100
AcDbLine
 10
37.22801000000000
 20
214.2006959999999
 30
0.000000000000000
 11
37.22801000000000
 21
215.6136590000000
 31
0.000000000000000
  0
LINE
  5
D8
100
AcDbEntity
  8
1
  6
CONTINUOUS
 62
7
100
AcDbLine
 10
19.72801000000000
 20
214.2006959999999
 30
0.000000000000000
 11
19.72801000000000
 21
215.6136590000000
 31
0.000000000000000
  0
LINE
  5
D9
100
AcDbEntity
  8
1
  6
CONTINUOUS
 62
7
100
AcDbLine
 10
36.47800999999999
 20
214.2006959999999
 30
0.000000000000000
 11
37.22801000000000
 21
214.2006959999999
 31
0.000000000000000
  0
LINE
  5
DA
100
AcDbEntity
  8
1
  6
CONTINUOUS
 62
7
100
AcDbLine
 10
22.97801000000000
 20
213.8506959999999
 30
0.000000000000000
 11
22.97801000000000
 21
214.4506960000000
 31
0.000000000000000
  0
LINE
  5
DB
100
AcDbEntity
  8
1
  6
CONTINUOUS
 62
7
100
AcDbLine
 10
22.98630999999997
 20
213.9266959999999
 30
0.000000000000000
 11
23.39059899999999
 21
215.7506959999999
 31
0.000000000000000
  0
LINE
  5
DC
100
AcDbEntity
  8
1
  6
CONTINUOUS
 62
7
100
AcDbLine
 10
23.66970999999999
 20
213.7756959999999
 30
0.000000000000000
 11
24.10757400000000
 21
215.7506960000000
 31
0.000000000000000
  0
LINE
  5
DD
100
AcDbEntity
  8
1
  6
CONTINUOUS
 62
7
100
AcDbLine
 10
24.38670999999999
 20
213.7756959999999
 30
0.000000000000000
 11
24.82457399999999
 21
215.7506960000000
 31
0.000000000000000
  0
LINE
  5
DE
100
AcDbEntity
  8
1
  6
CONTINUOUS
 62
7
100
AcDbLine
 10
25.10370999999999
 20
213.7756959999999
 30
0.000000000000000
 11
25.54157399999999
 21
215.7506959999999
 31
0.000000000000000
  0
LINE
  5
DF
100
AcDbEntity
  8
1
  6
CONTINUOUS
 62
7
100
AcDbLine
 10
25.82070999999999
 20
213.7756959999999
 30
0.000000000000000
 11
26.25857399999999
 21
215.7506959999999
 31
0.000000000000000
  0
LINE
  5
E0
100
AcDbEntity
  8
1
  6
CONTINUOUS
 62
7
100
AcDbLine
 10
26.53770999999998
 20
213.7756959999998
 30
0.000000000000000
 11
26.97557399999999
 21
215.7506960000000
 31
0.000000000000000
  0
LINE
  5
E1
100
AcDbEntity
  8
1
  6
CONTINUOUS
 62
7
100
AcDbLine
 10
27.25470999999999
 20
213.7756959999999
 30
0.000000000000000
 11
27.69257399999999
 21
215.7506960000000
 31
0.000000000000000
  0
LINE
  5
E2
100
AcDbEntity
  8
1
  6
CONTINUOUS
 62
7
100
AcDbLine
 10
27.97171000000001
 20
213.7756959999999
 30
0.000000000000000
 11
28.40957400000000
 21
215.7506960000000
 31
0.000000000000000
  0
LINE
  5
E3
100
AcDbEntity
  8
1
  6
CONTINUOUS
 62
7
100
AcDbLine
 10
28.68870999999999
 20
213.7756959999999
 30
0.000000000000000
 11
29.12657399999999
 21
215.7506959999999
 31
0.000000000000000
  0
LINE
  5
E4
100
AcDbEntity
  8
1
  6
CONTINUOUS
 62
7
100
AcDbLine
 10
29.40571000000000
 20
213.7756959999999
 30
0.000000000000000
 11
29.84349300000000
 21
215.7506960000000
 31
0.000000000000000
  0
LINE
  5
E5
100
AcDbEntity
  8
1
  6
CONTINUOUS
 62
7
100
AcDbLine
 10
30.12271000000000
 20
213.7756959999999
 30
0.000000000000000
 11
30.56057400000000
 21
215.7506960000000
 31
0.000000000000000
  0
LINE
  5
E6
100
AcDbEntity
  8
1
  6
CONTINUOUS
 62
7
100
AcDbLine
 10
30.83971000000000
 20
213.7756959999999
 30
0.000000000000000
 11
31.27749300000000
 21
215.7506960000000
 31
0.000000000000000
  0
LINE
  5
E7
100
AcDbEntity
  8
1
  6
CONTINUOUS
 62
7
100
AcDbLine
 10
31.55661000000000
 20
213.7756959999999
 30
0.000000000000000
 11
31.99447400000000
 21
215.7506960000000
 31
0.000000000000000
  0
LINE
  5
E8
100
AcDbEntity
  8
1
  6
CONTINUOUS
 62
7
100
AcDbLine
 10
32.27360999999998
 20
213.7756959999998
 30
0.000000000000000
 11
32.71147400000000
 21
215.7506960000000
 31
0.000000000000000
  0
LINE
  5
E9
100
AcDbEntity
  8
1
  6
CONTINUOUS
 62
7
100
AcDbLine
 10
32.99060999999998
 20
213.7756959999998
 30
0.000000000000000
 11
33.42847399999999
 21
215.7506959999999
 31
0.000000000000000
  0
LINE
  5
EA
100
AcDbEntity
  8
1
  6
CONTINUOUS
 62
7
100
AcDbLine
 10
22.97801000000000
 20
218.7506959999999
 30
0.000000000000000
 11
22.97801000000000
 21
220.7506959999999
 31
0.000000000000000
  0
LINE
  5
EB
100
AcDbEntity
  8
1
  6
CONTINUOUS
 62
7
100
AcDbLine
 10
23.67801000000000
 20
218.7506959999999
 30
0.000000000000000
 11
23.67801000000000
 21
220.7506959999999
 31
0.000000000000000
  0
LINE
  5
EC
100
AcDbEntity
  8
1
  6
CONTINUOUS
 62
7
100
AcDbLine
 10
33.14051000000000
 20
214.4506960000000
 30
0.000000000000000
 11
34.27800999999998
 21
214.4506960000000
 31
0.000000000000000
  0
LINE
  5
ED
100
AcDbEntity
  8
1
  6
CONTINUOUS
 62
7
100
AcDbLine
 10
29.07801000000000
 20
218.7506959999999
 30
0.000000000000000
 11
29.07801000000000
 21
219.5506959999999
 31
0.000000000000000
  0
LINE
  5
EE
100
AcDbEntity
  8
1
  6
CONTINUOUS
 62
7
100
AcDbLine
 10
27.87800999999999
 20
218.7506959999999
 30
0.000000000000000
 11
27.87800999999999
 21
219.5506959999999
 31
0.000000000000000
  0
LINE
  5
EF
100
AcDbEntity
  8
1
  6
CONTINUOUS
 62
7
100
AcDbLine
 10
21.27800999999999
 20
51.64859599999999
 30
0.000000000000000
 11
35.67801000000000
 21
51.64859599999999
 31
0.000000000000000
  0
LINE
  5
F0
100
AcDbEntity
  8
1
  6
CONTINUOUS
 62
7
100
AcDbLine
 10
22.22801000000000
 20
42.92499600000000
 30
0.000000000000000
 11
34.72801000000000
 21
42.92499600000000
 31
0.000000000000000
  0
LINE
  5
F1
100
AcDbEntity
  8
1
  6
CONTINUOUS
 62
7
100
AcDbLine
 10
21.47801000000000
 20
45.33809600000000
 30
0.000000000000000
 11
21.47801000000000
 21
44.12499600000000
 31
0.000000000000000
  0
LINE
  5
F2
100
AcDbEntity
  8
1
  6
CONTINUOUS
 62
7
100
AcDbLine
 10
35.47800999999999
 20
45.33809600000000
 30
0.000000000000000
 11
35.47800999999999
 21
44.12499600000000
 31
0.000000000000000
  0
LINE
  5
F3
100
AcDbEntity
  8
4
  6
CENTER
 62
1
100
AcDbLine
 10
28.47801000000000
 20
56.64859599999999
 30
0.000000000000000
 11
28.47801000000000
 21
37.92499600000000
 31
0.000000000000000
  0
LINE
  5
F4
100
AcDbEntity
  8
1
  6
CONTINUOUS
 62
7
100
AcDbLine
 10
22.67800999999999
 20
45.33809600000000
 30
0.000000000000000
 11
22.67800999999999
 21
44.12499600000000
 31
0.000000000000000
  0
LINE
  5
F5
100
AcDbEntity
  8
1
  6
CONTINUOUS
 62
7
100
AcDbLine
 10
34.27800999999998
 20
45.33809600000000
 30
0.000000000000000
 11
34.27800999999998
 21
44.12499600000000
 31
0.000000000000000
  0
LINE
  5
F6
100
AcDbEntity
  8
1
  6
CONTINUOUS
 62
7
100
AcDbLine
 10
22.22801000000000
 20
44.12499600000000
 30
0.000000000000000
 11
34.72801000000000
 21
44.12499600000000
 31
0.000000000000000
  0
LINE
  5
F7
100
AcDbEntity
  8
1
  6
CONTINUOUS
 62
7
100
AcDbLine
 10
20.47801000000000
 20
50.84859600000000
 30
0.000000000000000
 11
20.47801000000000
 21
44.55219600000000
 31
0.000000000000000
  0
LINE
  5
F8
100
AcDbEntity
  8
1
  6
CONTINUOUS
 62
7
100
AcDbLine
 10
36.47800999999999
 20
50.84859600000000
 30
0.000000000000000
 11
36.47800999999999
 21
44.55219600000000
 31
0.000000000000000
  0
LINE
  5
F9
100
AcDbEntity
  8
1
  6
CONTINUOUS
 62
7
100
AcDbLine
 10
21.27800999999999
 20
46.70339600000001
 30
0.000000000000000
 11
21.27800999999999
 21
44.55219600000000
 31
0.000000000000000
  0
LINE
  5
FA
100
AcDbEntity
  8
1
  6
CONTINUOUS
 62
7
100
AcDbLine
 10
35.67801000000000
 20
46.70339600000001
 30
0.000000000000000
 11
35.67801000000000
 21
44.55219600000000
 31
0.000000000000000
  0
LINE
  5
FB
100
AcDbEntity
  8
1
  6
CONTINUOUS
 62
7
100
AcDbLine
 10
19.72801000000000
 20
49.47499600000000
 30
0.000000000000000
 11
20.47801000000000
 21
49.47499600000000
 31
0.000000000000000
  0
LINE
  5
FC
100
AcDbEntity
  8
1
  6
CONTINUOUS
 62
7
100
AcDbLine
 10
37.22801000000000
 20
49.47499600000000
 30
0.000000000000000
 11
37.22801000000000
 21
48.33809600000000
 31
0.000000000000000
  0
LINE
  5
FD
100
AcDbEntity
  8
1
  6
CONTINUOUS
 62
7
100
AcDbLine
 10
19.72801000000000
 20
49.47499600000000
 30
0.000000000000000
 11
19.72801000000000
 21
48.33809600000000
 31
0.000000000000000
  0
LINE
  5
FE
100
AcDbEntity
  8
1
  6
CONTINUOUS
 62
7
100
AcDbLine
 10
36.47800999999999
 20
49.47499600000000
 30
0.000000000000000
 11
37.22801000000000
 21
49.47499600000000
 31
0.000000000000000
  0
LINE
  5
FF
100
AcDbEntity
  8
1
  6
CONTINUOUS
 62
7
100
AcDbLine
 10
25.26721000000000
 20
45.92909600000000
 30
0.000000000000000
 11
25.35141000000000
 21
45.54919600000000
 31
0.000000000000000
  0
LINE
  5
100
100
AcDbEntity
  8
1
  6
CONTINUOUS
 62
7
100
AcDbLine
 10
25.98420999999999
 20
45.92909599999999
 30
0.000000000000000
 11
26.06840999999999
 21
45.54919599999999
 31
0.000000000000000
  0
LINE
  5
101
100
AcDbEntity
  8
1
  6
CONTINUOUS
 62
7
100
AcDbLine
 10
26.70120999999999
 20
45.92909600000000
 30
0.000000000000000
 11
26.78541000000000
 21
45.54919600000001
 31
0.000000000000000
  0
LINE
  5
102
100
AcDbEntity
  8
1
  6
CONTINUOUS
 62
7
100
AcDbLine
 10
27.41820999999999
 20
45.92909599999999
 30
0.000000000000000
 11
27.50240999999999
 21
45.54919599999999
 31
0.000000000000000
  0
LINE
  5
103
100
AcDbEntity
  8
1
  6
CONTINUOUS
 62
7
100
AcDbLine
 10
28.13520999999999
 20
45.92909600000000
 30
0.000000000000000
 11
28.21940999999998
 21
45.54919599999999
 31
0.000000000000000
  0
LINE
  5
104
100
AcDbEntity
  8
1
  6
CONTINUOUS
 62
7
100
AcDbLine
 10
28.85220999999999
 20
45.92909600000000
 30
0.000000000000000
 11
28.93641000000000
 21
45.54919600000000
 31
0.000000000000000
  0
LINE
  5
105
100
AcDbEntity
  8
1
  6
CONTINUOUS
 62
7
100
AcDbLine
 10
29.56920999999999
 20
45.92909600000000
 30
0.000000000000000
 11
29.65341000000000
 21
45.54919600000001
 31
0.000000000000000
  0
LINE
  5
106
100
AcDbEntity
  8
1
  6
CONTINUOUS
 62
7
100
AcDbLine
 10
30.28620999999999
 20
45.92909600000000
 30
0.000000000000000
 11
30.37040999999998
 21
45.54919600000001
 31
0.000000000000000
  0
LINE
  5
107
100
AcDbEntity
  8
1
  6
CONTINUOUS
 62
7
100
AcDbLine
 10
31.00321000000000
 20
45.92909599999999
 30
0.000000000000000
 11
31.08740999999999
 21
45.54919599999999
 31
0.000000000000000
  0
LINE
  5
108
100
AcDbEntity
  8
1
  6
CONTINUOUS
 62
7
100
AcDbLine
 10
31.72010999999999
 20
45.92909600000001
 30
0.000000000000000
 11
31.72800999999999
 21
45.89369600000001
 31
0.000000000000000
  0
LINE
  5
109
100
AcDbEntity
  8
1
  6
CONTINUOUS
 62
7
100
AcDbLine
 10
33.22971000000000
 20
45.58809600000000
 30
0.000000000000000
 11
33.23840999999999
 21
45.54919599999999
 31
0.000000000000000
  0
LINE
  5
10A
100
AcDbEntity
  8
1
  6
CONTINUOUS
 62
7
100
AcDbLine
 10
22.97801000000000
 20
45.33809600000000
 30
0.000000000000000
 11
22.97801000000000
 21
44.12499600000000
 31
0.000000000000000
  0
LINE
  5
10B
100
AcDbEntity
  8
1
  6
CONTINUOUS
 62
7
100
AcDbLine
 10
23.67801000000000
 20
45.33809600000000
 30
0.000000000000000
 11
23.67801000000000
 21
44.12499600000000
 31
0.000000000000000
  0
LINE
  5
10C
100
AcDbEntity
  8
1
  6
CONTINUOUS
 62
7
100
AcDbLine
 10
29.07801000000000
 20
45.33779599999999
 30
0.000000000000000
 11
29.07801000000000
 21
44.12499600000000
 31
0.000000000000000
  0
LINE
  5
10D
100
AcDbEntity
  8
1
  6
CONTINUOUS
 62
7
100
AcDbLine
 10
27.87800999999999
 20
45.27659599999998
 30
0.000000000000000
 11
27.87800999999999
 21
44.12499600000000
 31
0.000000000000000
  0
LINE
  5
10E
100
AcDbEntity
  8
1
  6
CONTINUOUS
 62
7
100
AcDbLine
 10
36.47800999999999
 20
44.55219600000000
 30
0.000000000000000
 11
35.67801000000000
 21
44.55219600000000
 31
0.000000000000000
  0
LINE
  5
10F
100
AcDbEntity
  8
1
  6
CONTINUOUS
 62
7
100
AcDbLine
 10
21.27800999999999
 20
44.55219600000000
 30
0.000000000000000
 11
20.47801000000000
 21
44.55219600000000
 31
0.000000000000000
  0
LINE
  5
110
100
AcDbEntity
  8
1
  6
CONTINUOUS
 62
7
100
AcDbLine
 10
31.72800999999999
 20
45.33809600000000
 30
0.000000000000000
 11
33.22801000000000
 21
45.33809600000000
 31
0.000000000000000
  0
LINE
  5
111
100
AcDbEntity
  8
1
  6
CONTINUOUS
 62
7
100
AcDbLine
 10
35.67801000000000
 20
45.92909600000000
 30
0.000000000000000
 11
21.27800999999999
 21
45.92909600000000
 31
0.000000000000000
  0
LINE
  5
112
100
AcDbEntity
  8
1
  6
CONTINUOUS
 62
7
100
AcDbLine
 10
25.22801000000000
 20
45.92909600000000
 30
0.000000000000000
 11
25.22801000000000
 21
45.33809600000000
 31
0.000000000000000
  0
LINE
  5
113
100
AcDbEntity
  8
1
  6
CONTINUOUS
 62
7
100
AcDbLine
 10
31.72800999999999
 20
45.92909600000000
 30
0.000000000000000
 11
31.72800999999999
 21
45.33809600000000
 31
0.000000000000000
  0
LINE
  5
114
100
AcDbEntity
  8
1
  6
CONTINUOUS
 62
7
100
AcDbLine
 10
33.22801000000000
 20
45.58809600000000
 30
0.000000000000000
 11
33.22801000000000
 21
45.33809600000000
 31
0.000000000000000
  0
LINE
  5
115
100
AcDbEntity
  8
1
  6
CONTINUOUS
 62
7
100
AcDbLine
 10
34.22800999999999
 20
45.58809600000000
 30
0.000000000000000
 11
34.22800999999999
 21
45.33809600000000
 31
0.000000000000000
  0
LINE
  5
116
100
AcDbEntity
  8
1
  6
CONTINUOUS
 62
7
100
AcDbLine
 10
21.27800999999999
 20
45.33809600000000
 30
0.000000000000000
 11
25.22801000000000
 21
45.33809600000000
 31
0.000000000000000
  0
LINE
  5
117
100
AcDbEntity
  8
1
  6
CONTINUOUS
 62
7
100
AcDbLine
 10
33.22801000000000
 20
45.58809600000000
 30
0.000000000000000
 11
34.22800999999999
 21
45.58809600000000
 31
0.000000000000000
  0
LINE
  5
118
100
AcDbEntity
  8
1
  6
CONTINUOUS
 62
7
100
AcDbLine
 10
34.22800999999999
 20
45.33809600000000
 30
0.000000000000000
 11
35.67801000000000
 21
45.33809600000000
 31
0.000000000000000
  0
LINE
  5
119
100
AcDbEntity
  8
1
  6
CONTINUOUS
 62
7
100
AcDbLine
 10
181.7780100000000
 20
162.7376960000000
 30
0.000000000000000
 11
183.2780099999999
 21
162.7376960000000
 31
0.000000000000000
  0
LINE
  5
11A
100
AcDbEntity
  8
1
  6
CONTINUOUS
 62
7
100
AcDbLine
 10
183.2780099999999
 20
162.7376960000000
 30
0.000000000000000
 11
183.2780099999999
 21
148.7376959999998
 31
0.000000000000000
  0
LINE
  5
11B
100
AcDbEntity
  8
1
  6
CONTINUOUS
 62
7
100
AcDbLine
 10
181.7780100000000
 20
162.7376960000000
 30
0.000000000000000
 11
181.7780100000000
 21
148.7376959999998
 31
0.000000000000000
  0
LINE
  5
11C
100
AcDbEntity
  8
1
  6
CONTINUOUS
 62
7
100
AcDbLine
 10
71.97801000000000
 20
145.2376960000000
 30
0.000000000000000
 11
84.97801000000000
 21
145.2376960000000
 31
0.000000000000000
  0
LINE
  5
11D
100
AcDbEntity
  8
1
  6
CONTINUOUS
 62
7
100
AcDbLine
 10
73.97801000000000
 20
149.2376960000006
 30
0.000000000000000
 11
82.97800999999997
 21
149.2376960000006
 31
0.000000000000000
  0
LINE
  5
11E
100
AcDbEntity
  8
4
  6
CENTER
 62
1
100
AcDbLine
 10
78.47801000000000
 20
167.7376960000000
 30
0.000000000000000
 11
78.47801000000000
 21
140.2376959999998
 31
0.000000000000000
  0
LINE
  5
11F
100
AcDbEntity
  8
1
  6
CONTINUOUS
 62
7
100
AcDbLine
 10
84.97801000000000
 20
150.7376960000000
 30
0.000000000000000
 11
84.97801000000000
 21
145.2376960000000
 31
0.000000000000000
  0
LINE
  5
120
100
AcDbEntity
  8
1
  6
CONTINUOUS
 62
7
100
AcDbLine
 10
71.97801000000000
 20
150.7376960000000
 30
0.000000000000000
 11
71.97801000000000
 21
145.2376960000000
 31
0.000000000000000
  0
LINE
  5
121
100
AcDbEntity
  8
1
  6
CONTINUOUS
 62
7
100
AcDbLine
 10
71.97800999999998
 20
150.7376960000000
 30
0.000000000000000
 11
67.03310999999997
 21
155.3586960000000
 31
0.000000000000000
  0
LINE
  5
122
100
AcDbEntity
  8
1
  6
CONTINUOUS
 62
7
100
AcDbLine
 10
84.97801000000001
 20
150.7376960000000
 30
0.000000000000000
 11
89.92300999999995
 21
155.3586960000000
 31
0.000000000000000
  0
LINE
  5
123
100
AcDbEntity
  8
4
  6
CENTER
 62
1
100
AcDbLine
 10
83.22801000000000
 20
161.5376959999998
 30
0.000000000000000
 11
83.22801000000000
 21
151.9376959999999
 31
0.000000000000000
  0
LINE
  5
124
100
AcDbEntity
  8
4
  6
CENTER
 62
1
100
AcDbLine
 10
68.92801000000000
 20
156.7376959999998
 30
0.000000000000000
 11
88.02800999999998
 21
156.7376959999998
 31
0.000000000000000
  0
LINE
  5
125
100
AcDbEntity
  8
4
  6
CENTER
 62
1
100
AcDbLine
 10
73.72800999999998
 20
161.5376959999998
 30
0.000000000000000
 11
73.72800999999998
 21
151.9376959999999
 31
0.000000000000000
  0
LINE
  5
126
100
AcDbEntity
  8
1
  6
CONTINUOUS
 62
7
100
AcDbLine
 10
73.97801000000000
 20
148.3927176678320
 30
0.000000000000000
 11
82.97800999999997
 21
148.3927176678320
 31
0.000000000000000
  0
LINE
  5
127
100
AcDbEntity
  8
1
  6
CONTINUOUS
 62
7
100
AcDbLine
 10
294.9780099999999
 20
145.2376960000000
 30
0.000000000000000
 11
281.9780100000000
 21
145.2376960000000
 31
0.000000000000000
  0
LINE
  5
128
100
AcDbEntity
  8
4
  6
CENTER
 62
1
100
AcDbLine
 10
288.4780100000000
 20
167.7376960000000
 30
0.000000000000000
 11
288.4780100000000
 21
140.2376959999998
 31
0.000000000000000
  0
LINE
  5
129
100
AcDbEntity
  8
1
  6
CONTINUOUS
 62
7
100
AcDbLine
 10
281.9780100000000
 20
150.7376960000000
 30
0.000000000000000
 11
281.9780100000000
 21
145.2376960000000
 31
0.000000000000000
  0
LINE
  5
12A
100
AcDbEntity
  8
1
  6
CONTINUOUS
 62
7
100
AcDbLine
 10
294.9780099999999
 20
150.7376960000000
 30
0.000000000000000
 11
294.9780099999999
 21
145.2376960000000
 31
0.000000000000000
  0
LINE
  5
12B
100
AcDbEntity
  8
1
  6
CONTINUOUS
 62
7
100
AcDbLine
 10
294.9780099999999
 20
150.7376960000000
 30
0.000000000000000
 11
299.9230099999999
 21
155.3586960000000
 31
0.000000000000000
  0
LINE
  5
12C
100
AcDbEntity
  8
1
  6
CONTINUOUS
 62
7
100
AcDbLine
 10
281.9780100000000
 20
150.7376960000000
 30
0.000000000000000
 11
277.0330099999998
 21
155.3586960000000
 31
0.000000000000000
  0
LINE
  5
12D
100
AcDbEntity
  8
4
  6
CENTER
 62
1
100
AcDbLine
 10
283.7280100000000
 20
160.3876960000000
 30
0.000000000000000
 11
283.7280100000000
 21
153.0876960000000
 31
0.000000000000000
  0
LINE
  5
12E
100
AcDbEntity
  8
4
  6
CENTER
 62
1
100
AcDbLine
 10
296.8780100000000
 20
156.7376959999998
 30
0.000000000000000
 11
280.0780100000000
 21
156.7376959999998
 31
0.000000000000000
  0
LINE
  5
12F
100
AcDbEntity
  8
4
  6
CENTER
 62
1
100
AcDbLine
 10
293.2280099999999
 20
160.3876960000000
 30
0.000000000000000
 11
293.2280099999999
 21
153.0876960000000
 31
0.000000000000000
  0
LINE
  5
130
100
AcDbEntity
  8
4
  6
CENTER
 62
1
100
AcDbLine
 10
178.1413490000000
 20
156.7376959999998
 30
0.000000000000000
 11
186.5563510000000
 21
156.7376959999998
 31
0.000000000000000
  0
LINE
  5
131
100
AcDbEntity
  8
1
  6
CONTINUOUS
 62
7
100
AcDbLine
 10
66.47801000000000
 20
220.7506959999999
 30
0.000000000000000
 11
90.47800999999995
 21
220.7506959999999
 31
0.000000000000000
  0
LINE
  5
132
100
AcDbEntity
  8
1
  6
CONTINUOUS
 62
7
100
AcDbLine
 10
66.47801000000000
 20
219.2506960000000
 30
0.000000000000000
 11
90.47800999999995
 21
219.2506960000000
 31
0.000000000000000
  0
LINE
  5
133
100
AcDbEntity
  8
1
  6
CONTINUOUS
 62
7
100
AcDbLine
 10
73.97801000000000
 20
213.2498380144613
 30
0.000000000000000
 11
82.97800999999997
 21
213.2498380144613
 31
0.000000000000000
  0
LINE
  5
134
100
AcDbEntity
  8
1
  6
CONTINUOUS
 62
7
100
AcDbLine
 10
73.97801000000000
 20
214.4891973724225
 30
0.000000000000000
 11
82.97800999999997
 21
214.4891973724225
 31
0.000000000000000
  0
LINE
  5
135
100
AcDbEntity
  8
4
  6
CENTER
 62
1
100
AcDbLine
 10
78.47801000000000
 20
208.7506960000000
 30
0.000000000000000
 11
78.47801000000000
 21
225.7506960000000
 31
0.000000000000000
  0
LINE
  5
136
100
AcDbEntity
  8
1
  6
CONTINUOUS
 62
7
100
AcDbLine
 10
66.47801000000000
 20
219.2506960000000
 30
0.000000000000000
 11
66.47801000000000
 21
220.7506959999999
 31
0.000000000000000
  0
LINE
  5
137
100
AcDbEntity
  8
1
  6
CONTINUOUS
 62
7
100
AcDbLine
 10
90.47800999999995
 20
219.2506960000000
 30
0.000000000000000
 11
90.47800999999995
 21
220.7506959999999
 31
0.000000000000000
  0
LINE
  5
138
100
AcDbEntity
  8
1
  6
CONTINUOUS
 62
7
100
AcDbLine
 10
71.97801000000000
 20
215.2498380144613
 30
0.000000000000000
 11
71.97801000000000
 21
219.2506960000000
 31
0.000000000000000
  0
LINE
  5
139
100
AcDbEntity
  8
1
  6
CONTINUOUS
 62
7
100
AcDbLine
 10
84.97801000000000
 20
215.2498380144613
 30
0.000000000000000
 11
84.97801000000000
 21
219.2506960000000
 31
0.000000000000000
  0
LINE
  5
13A
100
AcDbEntity
  8
4
  6
CENTER
 62
1
100
AcDbLine
 10
129.7780099999999
 20
151.7376959999998
 30
0.000000000000000
 11
129.7780099999999
 21
144.7376959999998
 31
0.000000000000000
  0
LINE
  5
13B
100
AcDbEntity
  8
4
  6
CENTER
 62
1
100
AcDbLine
 10
126.2780100000000
 20
148.2376960000000
 30
0.000000000000000
 11
133.2780099999999
 21
148.2376960000000
 31
0.000000000000000
  0
LINE
  5
13C
100
AcDbEntity
  8
1
  6
CONTINUOUS
 62
7
100
AcDbLine
 10
20.47801000000000
 20
137.2256960000000
 30
0.000000000000000
 11
21.27800999999999
 21
137.2256960000000
 31
0.000000000000000
  0
LINE
  5
13D
100
AcDbEntity
  8
1
  6
CONTINUOUS
 62
7
100
AcDbLine
 10
35.67801000000000
 20
137.2256960000000
 30
0.000000000000000
 11
36.47800999999999
 21
137.2256960000000
 31
0.000000000000000
  0
LINE
  5
13E
100
AcDbEntity
  8
1
  6
CONTINUOUS
 62
7
100
AcDbLine
 10
230.4780100000000
 20
137.2256960000000
 30
0.000000000000000
 11
231.2780099999999
 21
137.2256960000000
 31
0.000000000000000
  0
LINE
  5
13F
100
AcDbEntity
  8
1
  6
CONTINUOUS
 62
7
100
AcDbLine
 10
245.6780100000000
 20
137.2256960000000
 30
0.000000000000000
 11
246.4780100000000
 21
137.2256960000000
 31
0.000000000000000
  0
LINE
  5
140
100
AcDbEntity
  8
4
  6
CENTER
 62
1
100
AcDbLine
 10
25.97801000000000
 20
103.7380959999999
 30
0.000000000000000
 11
30.97801000000000
 21
103.7380959999999
 31
0.000000000000000
  0
LINE
  5
141
100
AcDbEntity
  8
4
  6
CENTER
 62
1
100
AcDbLine
 10
25.97801000000000
 20
126.7376959999999
 30
0.000000000000000
 11
30.97801000000000
 21
126.7376959999999
 31
0.000000000000000
  0
LINE
  5
142
100
AcDbEntity
  8
4
  6
CENTER
 62
1
100
AcDbLine
 10
129.3650100000000
 20
131.1936959999999
 30
0.000000000000000
 11
129.3650100000000
 21
123.9936960000000
 31
0.000000000000000
  0
LINE
  5
143
100
AcDbEntity
  8
4
  6
CENTER
 62
1
100
AcDbLine
 10
125.7650099999999
 20
127.5936959999998
 30
0.000000000000000
 11
132.9650100000000
 21
127.5936959999998
 31
0.000000000000000
  0
LINE
  5
144
100
AcDbEntity
  8
1
  6
CONTINUOUS
 62
7
100
AcDbLine
 10
23.62481000000000
 20
131.4596960000000
 30
0.000000000000000
 11
24.63440999999999
 21
136.0136960000000
 31
0.000000000000000
  0
LINE
  5
145
100
AcDbEntity
  8
1
  6
CONTINUOUS
 62
7
100
AcDbLine
 10
25.05881000000000
 20
131.4596960000000
 30
0.000000000000000
 11
26.03481000000000
 21
135.8626960000000
 31
0.000000000000000
  0
LINE
  5
146
100
AcDbEntity
  8
1
  6
CONTINUOUS
 62
7
100
AcDbLine
 10
25.77581000000000
 20
131.4596960000000
 30
0.000000000000000
 11
26.71821000000000
 21
135.7106959999998
 31
0.000000000000000
  0
LINE
  5
147
100
AcDbEntity
  8
4
  6
CENTER
 62
1
100
AcDbLine
 10
69.97800999999998
 20
217.7176960000000
 30
0.000000000000000
 11
86.97801000000000
 21
217.7176960000000
 31
0.000000000000000
  0
LINE
  5
148
100
AcDbEntity
  8
4
  6
CENTER
 62
1
100
AcDbLine
 10
252.7980100000000
 20
148.2376960000000
 30
0.000000000000000
 11
224.1580099999999
 21
148.2376960000000
 31
0.000000000000000
  0
LINE
  5
149
100
AcDbEntity
  8
1
  6
CONTINUOUS
 62
7
100
AcDbLine
 10
132.0780100000000
 20
111.4376959999999
 30
0.000000000000000
 11
132.0780100000000
 21
99.73809600000001
 31
0.000000000000000
  0
LINE
  5
14A
100
AcDbEntity
  8
1
  6
CONTINUOUS
 62
7
100
AcDbLine
 10
20.47801000000000
 20
131.4596960000000
 30
0.000000000000000
 11
36.47800999999999
 21
131.4596960000000
 31
0.000000000000000
  0
LINE
  5
14B
100
AcDbEntity
  8
4
  6
CENTER
 62
1
100
AcDbLine
 10
73.72800999999998
 20
222.7506959999999
 30
0.000000000000000
 11
73.72800999999998
 21
217.2506960000000
 31
0.000000000000000
  0
LINE
  5
14C
100
AcDbEntity
  8
4
  6
CENTER
 62
1
100
AcDbLine
 10
83.22801000000000
 20
222.7506959999999
 30
0.000000000000000
 11
83.22801000000000
 21
217.2506960000000
 31
0.000000000000000
  0
ARC
  5
14D
100
AcDbEntity
  8
1
  6
CONTINUOUS
 62
7
100
AcDbCircle
 10
238.4780099999999
 20
105.9876959999999
 30
0.000000000000000
 40
6.250000000000000
100
AcDbArc
 50
180.0000000000000
 51
360.0000100000000
  0
CIRCLE
  5
14E
100
AcDbEntity
  8
1
  6
CONTINUOUS
 62
7
100
AcDbCircle
 10
238.4780099999999
 20
103.7380959999999
 30
0.000000000000000
 40
1.750000000000000
  0
CIRCLE
  5
14F
100
AcDbEntity
  8
1
  6
CONTINUOUS
 62
7
100
AcDbCircle
 10
238.4780099999999
 20
126.7376959999999
 30
0.000000000000000
 40
1.750000000000000
  0
ARC
  5
150
100
AcDbEntity
  8
1
  6
CONTINUOUS
 62
7
100
AcDbCircle
 10
128.4010100000000
 20
133.9756960000000
 30
0.000000000000000
 40
3.250000000000000
100
AcDbArc
 50
358.7450000000001
 51
395.9740380000000
  0
ARC
  5
151
100
AcDbEntity
  8
1
  6
CONTINUOUS
 62
7
100
AcDbCircle
 10
116.4740100000000
 20
104.4653959999999
 30
0.000000000000000
 40
13.00000000000000
100
AcDbArc
 50
331.0950000000000
 51
370.8100000000000
  0
ARC
  5
152
100
AcDbEntity
  8
1
  6
CONTINUOUS
 62
7
100
AcDbCircle
 10
116.4740100000000
 20
104.4653959999999
 30
0.000000000000000
 40
13.76210000000000
100
AcDbArc
 50
329.9690000000000
 51
336.4060000000000
  0
ARC
  5
153
100
AcDbEntity
  8
1
  6
CONTINUOUS
 62
7
100
AcDbCircle
 10
131.3770100000000
 20
97.95639600000001
 30
0.000000000000000
 40
2.500000000000000
100
AcDbArc
 50
100.8099999999999
 51
156.4060000000000
  0
ARC
  5
154
100
AcDbEntity
  8
1
  6
CONTINUOUS
 62
7
100
AcDbCircle
 10
129.3650100000000
 20
127.5936959999998
 30
0.000000000000000
 40
1.600000000000000
100
AcDbArc
 50
158.4897690000000
 51
379.2180390000000
  0
ARC
  5
155
100
AcDbEntity
  8
1
  6
CONTINUOUS
 62
7
100
AcDbCircle
 10
128.4780100000000
 20
133.8376959999999
 30
0.000000000000000
 40
1.750000000000000
100
AcDbArc
 50
105.0556669999999
 51
252.6521410000000
  0
ARC
  5
156
100
AcDbEntity
  8
1
  6
CONTINUOUS
 62
7
100
AcDbCircle
 10
28.47801000000000
 20
110.2796960000000
 30
0.000000000000000
 40
12.70199999999998
100
AcDbArc
 50
230.9629999999999
 51
309.0370000000000
  0
ARC
  5
157
100
AcDbEntity
  8
1
  6
CONTINUOUS
 62
7
100
AcDbCircle
 10
28.47801000000000
 20
113.6346960000000
 30
0.000000000000000
 40
15.45330000000000
100
AcDbArc
 50
238.8229999999999
 51
301.1770000000000
  0
ARC
  5
158
100
AcDbEntity
  8
1
  6
CONTINUOUS
 62
7
100
AcDbCircle
 10
238.4780099999999
 20
110.2796960000000
 30
0.000000000000000
 40
12.70199999999998
100
AcDbArc
 50
230.9629999999999
 51
309.0370000000000
  0
ARC
  5
159
100
AcDbEntity
  8
1
  6
CONTINUOUS
 62
7
100
AcDbCircle
 10
23.32800999999999
 20
137.8376959999999
 30
0.000000000000000
 40
0.3500000000000000
100
AcDbArc
 50
44.41530000000000
 51
135.5849999999998
  0
ARC
  5
15A
100
AcDbEntity
  8
1
  6
CONTINUOUS
 62
7
100
AcDbCircle
 10
23.32800999999999
 20
138.7336960000000
 30
0.000000000000000
 40
0.3541670000000000
100
AcDbArc
 50
8.797410000000001
 51
171.2030000000000
  0
ARC
  5
15B
100
AcDbEntity
  8
1
  6
CONTINUOUS
 62
7
100
AcDbCircle
 10
33.58010999999999
 20
135.9376959999998
 30
0.000000000000000
 40
0.3500000000000000
100
AcDbArc
 50
347.5000000000000
 51
527.5000000000000
  0
ARC
  5
15C
100
AcDbEntity
  8
1
  6
CONTINUOUS
 62
7
100
AcDbCircle
 10
32.86310999999999
 20
135.9376959999998
 30
0.000000000000000
 40
0.3500000000000000
100
AcDbArc
 50
347.5000000000000
 51
527.5000000000000
  0
ARC
  5
15D
100
AcDbEntity
  8
1
  6
CONTINUOUS
 62
7
100
AcDbCircle
 10
32.14611000000000
 20
135.9376959999998
 30
0.000000000000000
 40
0.3500000000000000
100
AcDbArc
 50
347.5000000000000
 51
527.5000000000000
  0
ARC
  5
15E
100
AcDbEntity
  8
1
  6
CONTINUOUS
 62
7
100
AcDbCircle
 10
31.42910999999999
 20
135.9376959999998
 30
0.000000000000000
 40
0.3500000000000000
100
AcDbArc
 50
347.5000000000000
 51
527.5000000000000
  0
ARC
  5
15F
100
AcDbEntity
  8
1
  6
CONTINUOUS
 62
7
100
AcDbCircle
 10
30.71210999999999
 20
135.9376959999998
 30
0.000000000000000
 40
0.3500000000000000
100
AcDbArc
 50
347.5000000000000
 51
527.5000000000000
  0
ARC
  5
160
100
AcDbEntity
  8
1
  6
CONTINUOUS
 62
7
100
AcDbCircle
 10
29.99511000000000
 20
135.9376959999998
 30
0.000000000000000
 40
0.3500000000000000
100
AcDbArc
 50
347.5000000000000
 51
527.5000000000000
  0
ARC
  5
161
100
AcDbEntity
  8
1
  6
CONTINUOUS
 62
7
100
AcDbCircle
 10
29.27811000000000
 20
135.9376959999998
 30
0.000000000000000
 40
0.3500000000000000
100
AcDbArc
 50
347.5000000000000
 51
527.5000000000000
  0
ARC
  5
162
100
AcDbEntity
  8
1
  6
CONTINUOUS
 62
7
100
AcDbCircle
 10
28.56111000000000
 20
135.9376959999998
 30
0.000000000000000
 40
0.3500000000000000
100
AcDbArc
 50
347.5000000000000
 51
527.5000000000000
  0
ARC
  5
163
100
AcDbEntity
  8
1
  6
CONTINUOUS
 62
7
100
AcDbCircle
 10
27.84410999999999
 20
135.9376959999998
 30
0.000000000000000
 40
0.3500000000000000
100
AcDbArc
 50
347.5000000000000
 51
527.5000000000000
  0
ARC
  5
164
100
AcDbEntity
  8
1
  6
CONTINUOUS
 62
7
100
AcDbCircle
 10
27.12711000000000
 20
135.9376959999998
 30
0.000000000000000
 40
0.3500000000000000
100
AcDbArc
 50
347.5000000000000
 51
527.5000000000000
  0
ARC
  5
165
100
AcDbEntity
  8
1
  6
CONTINUOUS
 62
7
100
AcDbCircle
 10
26.41010999999998
 20
135.9376959999998
 30
0.000000000000000
 40
0.3500000000000000
100
AcDbArc
 50
347.5000000000000
 51
527.5000000000000
  0
ARC
  5
166
100
AcDbEntity
  8
1
  6
CONTINUOUS
 62
7
100
AcDbCircle
 10
25.69311000000000
 20
135.9376959999998
 30
0.000000000000000
 40
0.3500000000000000
100
AcDbArc
 50
347.5000000000000
 51
527.5000000000000
  0
ARC
  5
167
100
AcDbEntity
  8
1
  6
CONTINUOUS
 62
7
100
AcDbCircle
 10
24.97611000000000
 20
135.9376959999998
 30
0.000000000000000
 40
0.3500000000000000
100
AcDbArc
 50
347.5000000000000
 51
527.5000000000000
  0
ARC
  5
168
100
AcDbEntity
  8
1
  6
CONTINUOUS
 62
7
100
AcDbCircle
 10
24.25911000000000
 20
135.9376959999998
 30
0.000000000000000
 40
0.3500000000000000
100
AcDbArc
 50
347.5000000000000
 51
527.5000000000000
  0
ARC
  5
169
100
AcDbEntity
  8
1
  6
CONTINUOUS
 62
7
100
AcDbCircle
 10
243.6280099999999
 20
138.7336960000000
 30
0.000000000000000
 40
0.3541670000000000
100
AcDbArc
 50
8.797419999999997
 51
171.2030000000000
  0
ARC
  5
16A
100
AcDbEntity
  8
1
  6
CONTINUOUS
 62
7
100
AcDbCircle
 10
243.6280099999999
 20
137.8376959999999
 30
0.000000000000000
 40
0.3500000000000000
100
AcDbArc
 50
44.41530000000000
 51
135.5849999999998
  0
ARC
  5
16B
100
AcDbEntity
  8
1
  6
CONTINUOUS
 62
7
100
AcDbCircle
 10
129.3650100000000
 20
127.5936959999998
 30
0.000000000000000
 40
1.500000000000000
100
AcDbArc
 50
178.8539040000000
 51
358.8539040000000
  0
ARC
  5
16C
100
AcDbEntity
  8
1
  6
CONTINUOUS
 62
7
100
AcDbCircle
 10
247.9780100000000
 20
129.5936959999999
 30
0.000000000000000
 40
3.500000000000000
100
AcDbArc
 50
270.0000000000000
 51
371.4246170000000
  0
ARC
  5
16D
100
AcDbEntity
  8
1
  6
CONTINUOUS
 62
7
100
AcDbCircle
 10
39.97800999999999
 20
216.8376959999999
 30
0.000000000000000
 40
1.500000000000000
100
AcDbArc
 50
270.0000000000000
 51
444.1050990000000
  0
ARC
  5
16E
100
AcDbEntity
  8
1
  6
CONTINUOUS
 62
7
100
AcDbCircle
 10
35.97801000000000
 20
217.2506960000000
 30
0.000000000000000
 40
1.500000000000000
100
AcDbArc
 50
84.10509900000000
 51
90.00000000000000
  0
ARC
  5
16F
100
AcDbEntity
  8
1
  6
CONTINUOUS
 62
7
100
AcDbCircle
 10
23.32800999999999
 20
213.8506959999999
 30
0.000000000000000
 40
0.3500000000000000
100
AcDbArc
 50
167.5000000000000
 51
347.5000000000000
  0
ARC
  5
170
100
AcDbEntity
  8
1
  6
CONTINUOUS
 62
7
100
AcDbCircle
 10
24.04501000000000
 20
213.8506959999999
 30
0.000000000000000
 40
0.3500000000000000
100
AcDbArc
 50
167.5000000000000
 51
347.5000000000000
  0
ARC
  5
171
100
AcDbEntity
  8
1
  6
CONTINUOUS
 62
7
100
AcDbCircle
 10
24.76201000000000
 20
213.8506959999999
 30
0.000000000000000
 40
0.3500000000000000
100
AcDbArc
 50
167.5000000000000
 51
347.5000000000000
  0
ARC
  5
172
100
AcDbEntity
  8
1
  6
CONTINUOUS
 62
7
100
AcDbCircle
 10
25.47900999999999
 20
213.8506959999999
 30
0.000000000000000
 40
0.3500000000000000
100
AcDbArc
 50
167.5000000000000
 51
347.5000000000000
  0
ARC
  5
173
100
AcDbEntity
  8
1
  6
CONTINUOUS
 62
7
100
AcDbCircle
 10
26.19601000000000
 20
213.8506959999999
 30
0.000000000000000
 40
0.3500000000000000
100
AcDbArc
 50
167.5000000000000
 51
347.5000000000000
  0
ARC
  5
174
100
AcDbEntity
  8
1
  6
CONTINUOUS
 62
7
100
AcDbCircle
 10
26.91300999999999
 20
213.8506959999999
 30
0.000000000000000
 40
0.3500000000000000
100
AcDbArc
 50
167.5000000000000
 51
347.5000000000000
  0
ARC
  5
175
100
AcDbEntity
  8
1
  6
CONTINUOUS
 62
7
100
AcDbCircle
 10
27.63001000000000
 20
213.8506959999999
 30
0.000000000000000
 40
0.3500000000000000
100
AcDbArc
 50
167.5000000000000
 51
347.5000000000000
  0
ARC
  5
176
100
AcDbEntity
  8
1
  6
CONTINUOUS
 62
7
100
AcDbCircle
 10
28.34700999999999
 20
213.8506959999999
 30
0.000000000000000
 40
0.3500000000000000
100
AcDbArc
 50
167.5000000000000
 51
347.5000000000000
  0
ARC
  5
177
100
AcDbEntity
  8
1
  6
CONTINUOUS
 62
7
100
AcDbCircle
 10
29.06400999999998
 20
213.8506959999999
 30
0.000000000000000
 40
0.3500000000000000
100
AcDbArc
 50
167.5000000000000
 51
347.5000000000000
  0
ARC
  5
178
100
AcDbEntity
  8
1
  6
CONTINUOUS
 62
7
100
AcDbCircle
 10
29.78101000000000
 20
213.8506959999999
 30
0.000000000000000
 40
0.3500000000000000
100
AcDbArc
 50
167.5000000000000
 51
347.5000000000000
  0
ARC
  5
179
100
AcDbEntity
  8
1
  6
CONTINUOUS
 62
7
100
AcDbCircle
 10
30.49800999999999
 20
213.8506959999999
 30
0.000000000000000
 40
0.3500000000000000
100
AcDbArc
 50
167.5000000000000
 51
347.5000000000000
  0
ARC
  5
17A
100
AcDbEntity
  8
1
  6
CONTINUOUS
 62
7
100
AcDbCircle
 10
31.21490999999998
 20
213.8506959999999
 30
0.000000000000000
 40
0.3500000000000000
100
AcDbArc
 50
167.5000000000000
 51
347.5000000000000
  0
ARC
  5
17B
100
AcDbEntity
  8
1
  6
CONTINUOUS
 62
7
100
AcDbCircle
 10
31.93191000000000
 20
213.8506959999999
 30
0.000000000000000
 40
0.3500000000000000
100
AcDbArc
 50
167.5000000000000
 51
347.5000000000000
  0
ARC
  5
17C
100
AcDbEntity
  8
1
  6
CONTINUOUS
 62
7
100
AcDbCircle
 10
32.64891000000000
 20
213.8506959999999
 30
0.000000000000000
 40
0.3500000000000000
100
AcDbArc
 50
167.5000000000000
 51
347.5000000000000
  0
ARC
  5
17D
100
AcDbEntity
  8
1
  6
CONTINUOUS
 62
7
100
AcDbCircle
 10
33.58010999999999
 20
45.62499600000000
 30
0.000000000000000
 40
0.3500000000000000
100
AcDbArc
 50
192.4999999999998
 51
353.9469999999998
  0
ARC
  5
17E
100
AcDbEntity
  8
1
  6
CONTINUOUS
 62
7
100
AcDbCircle
 10
32.86310999999999
 20
45.62499600000000
 30
0.000000000000000
 40
0.3500000000000000
100
AcDbArc
 50
235.0590000000000
 51
304.9409999999999
  0
ARC
  5
17F
100
AcDbEntity
  8
1
  6
CONTINUOUS
 62
7
100
AcDbCircle
 10
32.14611000000000
 20
45.62499600000000
 30
0.000000000000000
 40
0.3500000000000000
100
AcDbArc
 50
235.0590000000000
 51
304.9409999999999
  0
ARC
  5
180
100
AcDbEntity
  8
1
  6
CONTINUOUS
 62
7
100
AcDbCircle
 10
31.42910999999999
 20
45.62499600000000
 30
0.000000000000000
 40
0.3500000000000000
100
AcDbArc
 50
192.4999999999998
 51
328.6589999999998
  0
ARC
  5
181
100
AcDbEntity
  8
1
  6
CONTINUOUS
 62
7
100
AcDbCircle
 10
30.71210999999999
 20
45.62499600000000
 30
0.000000000000000
 40
0.3500000000000000
100
AcDbArc
 50
192.4999999999998
 51
372.5000000000000
  0
ARC
  5
182
100
AcDbEntity
  8
1
  6
CONTINUOUS
 62
7
100
AcDbCircle
 10
29.99511000000000
 20
45.62499600000000
 30
0.000000000000000
 40
0.3500000000000000
100
AcDbArc
 50
192.4999999999998
 51
372.5000000000000
  0
ARC
  5
183
100
AcDbEntity
  8
1
  6
CONTINUOUS
 62
7
100
AcDbCircle
 10
29.27811000000000
 20
45.62499600000000
 30
0.000000000000000
 40
0.3500000000000000
100
AcDbArc
 50
192.4999999999998
 51
372.5000000000000
  0
ARC
  5
184
100
AcDbEntity
  8
1
  6
CONTINUOUS
 62
7
100
AcDbCircle
 10
28.56111000000000
 20
45.62499600000000
 30
0.000000000000000
 40
0.3500000000000000
100
AcDbArc
 50
192.4999999999998
 51
372.5000000000000
  0
ARC
  5
185
100
AcDbEntity
  8
1
  6
CONTINUOUS
 62
7
100
AcDbCircle
 10
27.84410999999999
 20
45.62499600000000
 30
0.000000000000000
 40
0.3500000000000000
100
AcDbArc
 50
192.4999999999998
 51
372.5000000000000
  0
ARC
  5
186
100
AcDbEntity
  8
1
  6
CONTINUOUS
 62
7
100
AcDbCircle
 10
27.12711000000000
 20
45.62499600000000
 30
0.000000000000000
 40
0.3500000000000000
100
AcDbArc
 50
192.4999999999998
 51
372.5000000000000
  0
ARC
  5
187
100
AcDbEntity
  8
1
  6
CONTINUOUS
 62
7
100
AcDbCircle
 10
26.41010999999998
 20
45.62499600000000
 30
0.000000000000000
 40
0.3500000000000000
100
AcDbArc
 50
192.4999999999998
 51
372.5000000000000
  0
ARC
  5
188
100
AcDbEntity
  8
1
  6
CONTINUOUS
 62
7
100
AcDbCircle
 10
25.69311000000000
 20
45.62499600000000
 30
0.000000000000000
 40
0.3500000000000000
100
AcDbArc
 50
192.4999999999998
 51
372.5000000000000
  0
ARC
  5
189
100
AcDbEntity
  8
1
  6
CONTINUOUS
 62
7
100
AcDbCircle
 10
24.97611000000000
 20
45.62499600000000
 30
0.000000000000000
 40
0.3500000000000000
100
AcDbArc
 50
235.0590000000000
 51
304.9409999999999
  0
ARC
  5
18A
100
AcDbEntity
  8
1
  6
CONTINUOUS
 62
7
100
AcDbCircle
 10
24.25911000000000
 20
45.62499600000000
 30
0.000000000000000
 40
0.3500000000000000
100
AcDbArc
 50
235.0590000000000
 51
304.9409999999999
  0
ARC
  5
18B
100
AcDbEntity
  8
1
  6
CONTINUOUS
 62
7
100
AcDbCircle
 10
28.47801000000000
 20
21.74169599999999
 30
0.000000000000000
 40
26.60690000000000
100
AcDbArc
 50
73.30480000000000
 51
106.6950000000000
  0
ARC
  5
18C
100
AcDbEntity
  8
1
  6
CONTINUOUS
 62
7
100
AcDbCircle
 10
28.47801000000000
 20
10.28229600000000
 30
0.000000000000000
 40
37.53220000000001
100
AcDbArc
 50
79.57650000000001
 51
100.4328120000000
  0
ARC
  5
18D
100
AcDbEntity
  8
1
  6
CONTINUOUS
 62
7
100
AcDbCircle
 10
35.17801000000000
 20
46.70339600000001
 30
0.000000000000000
 40
0.5000000000000000
100
AcDbArc
 50
3.000000000000000e-06
 51
79.57650000000001
  0
ARC
  5
18E
100
AcDbEntity
  8
1
  6
CONTINUOUS
 62
7
100
AcDbCircle
 10
35.97801000000000
 20
46.74809599999998
 30
0.000000000000000
 40
0.5000000000000000
100
AcDbArc
 50
3.000000000000000e-06
 51
73.30480000000000
  0
ARC
  5
18F
100
AcDbEntity
  8
1
  6
CONTINUOUS
 62
7
100
AcDbCircle
 10
21.77801000000000
 20
46.70339600000001
 30
0.000000000000000
 40
0.5000000000000000
100
AcDbArc
 50
100.4240000000000
 51
180.0000000000000
  0
ARC
  5
190
100
AcDbEntity
  8
1
  6
CONTINUOUS
 62
7
100
AcDbCircle
 10
20.97801000000000
 20
46.74809599999998
 30
0.000000000000000
 40
0.5000000000000000
100
AcDbArc
 50
106.6950000000000
 51
180.0000000000000
  0
ARC
  5
191
100
AcDbEntity
  8
1
  6
CONTINUOUS
 62
7
100
AcDbCircle
 10
24.97611000000000
 20
45.62499600000000
 30
0.000000000000000
 40
0.3500000000000000
100
AcDbArc
 50
316.0280000000000
 51
403.9715000000000
  0
ARC
  5
192
100
AcDbEntity
  8
1
  6
CONTINUOUS
 62
7
100
AcDbCircle
 10
73.97801000000000
 20
147.2376960000006
 30
0.000000000000000
 40
2.000000000000000
100
AcDbArc
 50
90.00000000000000
 51
180.0000000000000
  0
ARC
  5
193
100
AcDbEntity
  8
1
  6
CONTINUOUS
 62
7
100
AcDbCircle
 10
82.97800999999997
 20
147.2376960000006
 30
0.000000000000000
 40
2.000000000000000
100
AcDbArc
 50
0.000000000000000
 51
90.00000000000000
  0
ARC
  5
194
100
AcDbEntity
  8
1
  6
CONTINUOUS
 62
7
100
AcDbCircle
 10
78.47801000000000
 20
146.7376959999998
 30
0.000000000000000
 40
16.00000000000000
100
AcDbArc
 50
44.00339999999999
 51
135.9970000000000
  0
ARC
  5
195
100
AcDbEntity
  8
1
  6
CONTINUOUS
 62
7
100
AcDbCircle
 10
68.22801000000000
 20
156.6376960000000
 30
0.000000000000000
 40
1.750000000000000
100
AcDbArc
 50
135.9970000000000
 51
226.9400000000000
  0
ARC
  5
196
100
AcDbEntity
  8
1
  6
CONTINUOUS
 62
7
100
AcDbCircle
 10
88.72801000000000
 20
156.6376960000000
 30
0.000000000000000
 40
1.750000000000000
100
AcDbArc
 50
313.0600000000001
 51
404.0034000000000
  0
CIRCLE
  5
197
100
AcDbEntity
  8
1
  6
CONTINUOUS
 62
7
100
AcDbCircle
 10
83.22801000000000
 20
156.7376959999998
 30
0.000000000000000
 40
1.649999999999999
  0
CIRCLE
  5
198
100
AcDbEntity
  8
1
  6
CONTINUOUS
 62
7
100
AcDbCircle
 10
73.72800999999998
 20
156.7376959999998
 30
0.000000000000000
 40
1.649999999999999
  0
CIRCLE
  5
199
100
AcDbEntity
  8
1
  6
CONTINUOUS
 62
7
100
AcDbCircle
 10
73.72800999999998
 20
156.7376959999998
 30
0.000000000000000
 40
2.799999999999998
  0
CIRCLE
  5
19A
100
AcDbEntity
  8
1
  6
CONTINUOUS
 62
7
100
AcDbCircle
 10
83.22801000000000
 20
156.7376959999998
 30
0.000000000000000
 40
2.799999999999998
  0
ARC
  5
19B
100
AcDbEntity
  8
1
  6
CONTINUOUS
 62
7
100
AcDbCircle
 10
179.7780099999999
 20
148.7376959999998
 30
0.000000000000000
 40
2.000000000000000
100
AcDbArc
 50
214.2856331551241
 51
360.0000000000000
  0
ARC
  5
19C
100
AcDbEntity
  8
1
  6
CONTINUOUS
 62
7
100
AcDbCircle
 10
179.7780099999999
 20
148.7376959999998
 30
0.000000000000000
 40
3.500000000000000
100
AcDbArc
 50
214.2856331551239
 51
360.0000000000000
  0
ARC
  5
19D
100
AcDbEntity
  8
1
  6
CONTINUOUS
 62
7
100
AcDbCircle
 10
73.97801000000000
 20
146.3927176678318
 30
0.000000000000000
 40
2.000000000000000
100
AcDbArc
 50
90.00000000000000
 51
180.0000000000000
  0
ARC
  5
19E
100
AcDbEntity
  8
1
  6
CONTINUOUS
 62
7
100
AcDbCircle
 10
82.97800999999997
 20
146.3927176678318
 30
0.000000000000000
 40
2.000000000000000
100
AcDbArc
 50
0.000000000000000
 51
90.00000000000000
  0
ARC
  5
19F
100
AcDbEntity
  8
1
  6
CONTINUOUS
 62
7
100
AcDbCircle
 10
288.4780100000000
 20
146.7376959999998
 30
0.000000000000000
 40
16.00000000000000
100
AcDbArc
 50
44.00339999999999
 51
135.9970000000000
  0
ARC
  5
1A0
100
AcDbEntity
  8
1
  6
CONTINUOUS
 62
7
100
AcDbCircle
 10
298.7280099999999
 20
156.6376960000000
 30
0.000000000000000
 40
1.750000000000000
100
AcDbArc
 50
313.0600000000001
 51
404.0034000000000
  0
ARC
  5
1A1
100
AcDbEntity
  8
1
  6
CONTINUOUS
 62
7
100
AcDbCircle
 10
278.2280099999999
 20
156.6376960000000
 30
0.000000000000000
 40
1.750000000000000
100
AcDbArc
 50
135.9970000000000
 51
226.9400000000000
  0
CIRCLE
  5
1A2
100
AcDbEntity
  8
1
  6
CONTINUOUS
 62
7
100
AcDbCircle
 10
283.7280100000000
 20
156.7376959999998
 30
0.000000000000000
 40
1.649999999999999
  0
CIRCLE
  5
1A3
100
AcDbEntity
  8
1
  6
CONTINUOUS
 62
7
100
AcDbCircle
 10
293.2280099999999
 20
156.7376959999998
 30
0.000000000000000
 40
1.649999999999999
  0
ARC
  5
1A4
100
AcDbEntity
  8
1
  6
CONTINUOUS
 62
7
100
AcDbCircle
 10
128.4010100000000
 20
133.9756960000000
 30
0.000000000000000
 40
3.250000000000000
100
AcDbArc
 50
96.07537600000001
 51
190.8100000000000
  0
ARC
  5
1A5
100
AcDbEntity
  8
1
  6
CONTINUOUS
 62
7
100
AcDbCircle
 10
73.97801000000000
 20
215.2498380144613
 30
0.000000000000000
 40
2.000000000000000
100
AcDbArc
 50
180.0000000000000
 51
270.0000000000000
  0
ARC
  5
1A6
100
AcDbEntity
  8
1
  6
CONTINUOUS
 62
7
100
AcDbCircle
 10
82.97800999999997
 20
215.2498380144613
 30
0.000000000000000
 40
2.000000000000000
100
AcDbArc
 50
270.0000000000000
 51
360.0000000000000
  0
ARC
  5
1A7
100
AcDbEntity
  8
1
  6
CONTINUOUS
 62
7
100
AcDbCircle
 10
73.97801000000000
 20
216.4891973724225
 30
0.000000000000000
 40
2.000000000000000
100
AcDbArc
 50
180.0000000000000
 51
270.0000000000000
  0
ARC
  5
1A8
100
AcDbEntity
  8
1
  6
CONTINUOUS
 62
7
100
AcDbCircle
 10
82.97800999999997
 20
216.4891973724225
 30
0.000000000000000
 40
2.000000000000000
100
AcDbArc
 50
270.0000000000000
 51
360.0000000000000
  0
ARC
  5
1A9
100
AcDbEntity
  8
1
  6
CONTINUOUS
 62
7
100
AcDbCircle
 10
129.7780099999999
 20
148.2376960000000
 30
0.000000000000000
 40
1.500000000000000
100
AcDbArc
 50
358.8539040000000
 51
538.8539040000002
  0
LINE
  5
1AA
100
AcDbEntity
  8
1
  6
CONTINUOUS
 62
7
100
AcDbLine
 10
183.2780099999999
 20
150.7376960000000
 30
0.000000000000000
 11
181.7780100000000
 21
150.7376960000000
 31
0.000000000000000
  0
LINE
  5
1AB
100
AcDbEntity
  8
1
  6
CONTINUOUS
 62
7
100
AcDbLine
 10
131.2777089999999
 20
148.2076930000000
 30
0.000000000000000
 11
130.8647090000000
 21
127.5636929999999
 31
0.000000000000000
  0
LINE
  5
1AC
100
AcDbEntity
  8
1
  6
CONTINUOUS
 62
7
100
AcDbLine
 10
128.2783100000000
 20
148.2676989999999
 30
0.000000000000000
 11
127.8653099999999
 21
127.6236990000000
 31
0.000000000000000
  0
LINE
  5
1AD
100
AcDbEntity
  8
1
  6
CONTINUOUS
 62
7
100
AcDbLine
 10
239.0280100000000
 20
111.4376959999999
 30
0.000000000000000
 11
239.0280100000000
 21
106.7376960000000
 31
0.000000000000000
  0
CIRCLE
  5
1AE
100
AcDbEntity
  8
3
  6
DASHED
 62
2
100
AcDbCircle
 10
238.4780099999999
 20
103.7380959999999
 30
0.000000000000000
 40
2.799999999999998
  0
CIRCLE
  5
1AF
100
AcDbEntity
  8
3
  6
DASHED
 62
2
100
AcDbCircle
 10
238.4780099999999
 20
126.7376959999999
 30
0.000000000000000
 40
2.799999999999998
  0
ARC
  5
1B0
100
AcDbEntity
  8
1
  6
CONTINUOUS
 62
7
100
AcDbCircle
 10
21.27800999999999
 20
212.8276959999999
 30
0.000000000000000
 40
0.8000000000000000
100
AcDbArc
 50
194.7735849999999
 51
270.0000000000000
  0
ARC
  5
1B1
100
AcDbEntity
  8
1
  6
CONTINUOUS
 62
7
100
AcDbCircle
 10
35.67801000000000
 20
212.8276959999999
 30
0.000000000000000
 40
0.8000000000000000
100
AcDbArc
 50
270.0000000000000
 51
345.2264149999999
  0
LINE
  5
1B2
100
AcDbEntity
  8
1
  6
CONTINUOUS
 62
7
100
AcDbLine
 10
34.27800999999998
 20
218.7506959999999
 30
0.000000000000000
 11
34.27800999999998
 21
219.5506959999999
 31
0.000000000000000
  0
LINE
  5
1B3
100
AcDbEntity
  8
1
  6
CONTINUOUS
 62
7
100
AcDbLine
 10
22.67800999999999
 20
218.7506959999999
 30
0.000000000000000
 11
22.67800999999999
 21
219.5506959999999
 31
0.000000000000000
  0
ARC
  5
1B4
100
AcDbEntity
  8
1
  6
CONTINUOUS
 62
7
100
AcDbCircle
 10
22.67800999999999
 20
219.5506959999999
 30
0.000000000000000
 40
1.199999999999999
100
AcDbArc
 50
90.00000000000000
 51
180.0000000000000
  0
ARC
  5
1B5
100
AcDbEntity
  8
1
  6
CONTINUOUS
 62
7
100
AcDbCircle
 10
34.27800999999998
 20
219.5506959999999
 30
0.000000000000000
 40
1.199999999999999
100
AcDbArc
 50
0.000000000000000
 51
90.00000000000000
  0
LINE
  5
1B6
100
AcDbEntity
  8
1
  6
CONTINUOUS
 62
7
100
AcDbLine
 10
35.47800999999999
 20
218.7506959999999
 30
0.000000000000000
 11
35.47800999999999
 21
219.5506959999999
 31
0.000000000000000
  0
LINE
  5
1B7
100
AcDbEntity
  8
1
  6
CONTINUOUS
 62
7
100
AcDbLine
 10
21.47801000000000
 20
218.7506959999999
 30
0.000000000000000
 11
21.47801000000000
 21
219.5506959999999
 31
0.000000000000000
  0
ARC
  5
1B8
100
AcDbEntity
  8
1
  6
CONTINUOUS
 62
7
100
AcDbCircle
 10
21.27800999999999
 20
50.84859600000000
 30
0.000000000000000
 40
0.8000000000000000
100
AcDbArc
 50
90.00000000000000
 51
180.0000000000000
  0
ARC
  5
1B9
100
AcDbEntity
  8
1
  6
CONTINUOUS
 62
7
100
AcDbCircle
 10
35.67801000000000
 20
50.84859600000000
 30
0.000000000000000
 40
0.8000000000000000
100
AcDbArc
 50
0.000000000000000
 51
90.00000000000000
  0
ARC
  5
1BA
100
AcDbEntity
  8
1
  6
CONTINUOUS
 62
7
100
AcDbCircle
 10
22.67800999999999
 20
44.12499600000000
 30
0.000000000000000
 40
1.199999999999999
100
AcDbArc
 50
180.0000000000000
 51
247.9756870000000
  0
ARC
  5
1BB
100
AcDbEntity
  8
1
  6
CONTINUOUS
 62
7
100
AcDbCircle
 10
34.27800999999998
 20
44.12499600000000
 30
0.000000000000000
 40
1.199999999999999
100
AcDbArc
 50
292.0243130000001
 51
360.0000000000000
  0
LINE
  5
1BC
100
AcDbEntity
  8
1
  6
CONTINUOUS
 62
7
100
AcDbLine
 10
34.72801000000000
 20
44.12499600000000
 30
0.000000000000000
 11
34.72801000000000
 21
42.92499600000000
 31
0.000000000000000
  0
LINE
  5
1BD
100
AcDbEntity
  8
1
  6
CONTINUOUS
 62
7
100
AcDbLine
 10
22.22801000000000
 20
44.12499600000000
 30
0.000000000000000
 11
22.22801000000000
 21
42.92499600000000
 31
0.000000000000000
  0
LINE
  5
1BE
100
AcDbEntity
  8
1
  6
CONTINUOUS
 62
7
100
AcDbLine
 10
233.1596029999999
 20
149.7376959999998
 30
0.000000000000000
 11
243.7964159999999
 21
149.7376959999998
 31
0.000000000000000
  0
LINE
  5
1BF
100
AcDbEntity
  8
1
  6
CONTINUOUS
 62
7
100
AcDbLine
 10
248.2072540000000
 20
146.1290490000000
 30
0.000000000000000
 11
251.4086610000000
 21
130.2869709999999
 31
0.000000000000000
  0
ARC
  5
1C0
100
AcDbEntity
  8
1
  6
CONTINUOUS
 62
7
100
AcDbCircle
 10
243.7964159999999
 20
145.2376960000000
 30
0.000000000000000
 40
4.500000000000000
100
AcDbArc
 50
11.42461699999999
 51
90.00000000000000
  0
ARC
  5
1C1
100
AcDbEntity
  8
1
  6
CONTINUOUS
 62
7
100
AcDbCircle
 10
247.9780100000000
 20
129.5936959999999
 30
0.000000000000000
 40
0.5000000000000000
100
AcDbArc
 50
270.0000000000000
 51
371.4246170000000
  0
LINE
  5
1C2
100
AcDbEntity
  8
1
  6
CONTINUOUS
 62
7
100
AcDbLine
 10
245.2666960000000
 20
145.5348139999999
 30
0.000000000000000
 11
248.4681029999999
 21
129.6927350000000
 31
0.000000000000000
  0
ARC
  5
1C3
100
AcDbEntity
  8
1
  6
CONTINUOUS
 62
7
100
AcDbCircle
 10
243.7964159999999
 20
145.2376960000000
 30
0.000000000000000
 40
1.500000000000000
100
AcDbArc
 50
11.42461699999999
 51
90.00000000000000
  0
LINE
  5
1C4
100
AcDbEntity
  8
1
  6
CONTINUOUS
 62
7
100
AcDbLine
 10
233.1596029999999
 20
146.7376959999998
 30
0.000000000000000
 11
243.7964159999999
 21
146.7376959999998
 31
0.000000000000000
  0
ARC
  5
1C5
100
AcDbEntity
  8
1
  6
CONTINUOUS
 62
7
100
AcDbCircle
 10
233.1596029999999
 20
145.2376960000000
 30
0.000000000000000
 40
1.500000000000000
100
AcDbArc
 50
90.00000000000000
 51
168.5753829999999
  0
ARC
  5
1C6
100
AcDbEntity
  8
1
  6
CONTINUOUS
 62
7
100
AcDbCircle
 10
233.1596029999999
 20
145.2376960000000
 30
0.000000000000000
 40
4.500000000000000
100
AcDbArc
 50
90.00000000000000
 51
168.5753829999999
  0
LINE
  5
1C7
100
AcDbEntity
  8
1
  6
CONTINUOUS
 62
7
100
AcDbLine
 10
231.6893240000001
 20
145.5348139999999
 30
0.000000000000000
 11
228.4879160000001
 21
129.6927350000000
 31
0.000000000000000
  0
LINE
  5
1C8
100
AcDbEntity
  8
1
  6
CONTINUOUS
 62
7
100
AcDbLine
 10
228.7487650000000
 20
146.1290490000000
 30
0.000000000000000
 11
225.5473579999998
 21
130.2869709999999
 31
0.000000000000000
  0
ARC
  5
1C9
100
AcDbEntity
  8
1
  6
CONTINUOUS
 62
7
100
AcDbCircle
 10
228.9780100000000
 20
129.5936959999999
 30
0.000000000000000
 40
0.5000000000000000
100
AcDbArc
 50
168.5753829999999
 51
270.0000000000000
  0
ARC
  5
1CA
100
AcDbEntity
  8
1
  6
CONTINUOUS
 62
7
100
AcDbCircle
 10
228.9780100000000
 20
129.5936959999999
 30
0.000000000000000
 40
3.500000000000000
100
AcDbArc
 50
168.5753829999999
 51
270.0000000000000
  0
LINE
  5
1CB
100
AcDbEntity
  8
1
  6
CONTINUOUS
 62
7
100
AcDbLine
 10
35.26669600000000
 20
145.5348139999998
 30
0.000000000000000
 11
38.46810299999999
 21
129.6927349999999
 31
0.000000000000000
  0
LINE
  5
1CC
100
AcDbEntity
  8
1
  6
CONTINUOUS
 62
7
100
AcDbLine
 10
38.20725400000001
 20
146.1290490000000
 30
0.000000000000000
 11
41.40866099999999
 21
130.2869709999999
 31
0.000000000000000
  0
LINE
  5
1CD
100
AcDbEntity
  8
1
  6
CONTINUOUS
 62
7
100
AcDbLine
 10
23.15960299999999
 20
146.7376959999998
 30
0.000000000000000
 11
33.79641600000000
 21
146.7376959999998
 31
0.000000000000000
  0
LINE
  5
1CE
100
AcDbEntity
  8
1
  6
CONTINUOUS
 62
7
100
AcDbLine
 10
23.15960299999999
 20
149.7376959999998
 30
0.000000000000000
 11
33.79641600000000
 21
149.7376959999998
 31
0.000000000000000
  0
LINE
  5
1CF
100
AcDbEntity
  8
4
  6
CENTER
 62
1
100
AcDbLine
 10
42.79800999999999
 20
148.2376960000000
 30
0.000000000000000
 11
14.15801000000000
 21
148.2376960000000
 31
0.000000000000000
  0
ARC
  5
1D0
100
AcDbEntity
  8
1
  6
CONTINUOUS
 62
7
100
AcDbCircle
 10
33.79641600000000
 20
145.2376960000000
 30
0.000000000000000
 40
1.500000000000000
100
AcDbArc
 50
11.42461699999999
 51
90.00000000000000
  0
ARC
  5
1D1
100
AcDbEntity
  8
1
  6
CONTINUOUS
 62
7
100
AcDbCircle
 10
33.79641600000000
 20
145.2376960000000
 30
0.000000000000000
 40
4.500000000000000
100
AcDbArc
 50
11.42461699999999
 51
90.00000000000000
  0
LINE
  5
1D2
100
AcDbEntity
  8
1
  6
CONTINUOUS
 62
7
100
AcDbLine
 10
18.74876500000000
 20
146.1290490000000
 30
0.000000000000000
 11
15.54735800000000
 21
130.2869709999999
 31
0.000000000000000
  0
LINE
  5
1D3
100
AcDbEntity
  8
1
  6
CONTINUOUS
 62
7
100
AcDbLine
 10
21.68932400000001
 20
145.5348139999999
 30
0.000000000000000
 11
18.48791600000000
 21
129.6927350000000
 31
0.000000000000000
  0
ARC
  5
1D4
100
AcDbEntity
  8
1
  6
CONTINUOUS
 62
7
100
AcDbCircle
 10
23.15960299999999
 20
145.2376960000000
 30
0.000000000000000
 40
4.500000000000000
100
AcDbArc
 50
90.00000000000000
 51
168.5753829999999
  0
ARC
  5
1D5
100
AcDbEntity
  8
1
  6
CONTINUOUS
 62
7
100
AcDbCircle
 10
23.15960299999999
 20
145.2376960000000
 30
0.000000000000000
 40
1.500000000000000
100
AcDbArc
 50
90.00000000000000
 51
168.5753829999999
  0
ARC
  5
1D6
100
AcDbEntity
  8
1
  6
CONTINUOUS
 62
7
100
AcDbCircle
 10
18.97801000000000
 20
129.5936959999999
 30
0.000000000000000
 40
0.5000000000000000
100
AcDbArc
 50
168.5753829999999
 51
270.0000000000000
  0
ARC
  5
1D7
100
AcDbEntity
  8
1
  6
CONTINUOUS
 62
7
100
AcDbCircle
 10
18.97801000000000
 20
129.5936959999999
 30
0.000000000000000
 40
3.500000000000000
100
AcDbArc
 50
168.5753829999999
 51
270.0000000000000
  0
ARC
  5
1D8
100
AcDbEntity
  8
1
  6
CONTINUOUS
 62
7
100
AcDbCircle
 10
37.97800999999999
 20
129.5936959999999
 30
0.000000000000000
 40
0.5000000000000000
100
AcDbArc
 50
270.0000000000000
 51
371.4246170000000
  0
ARC
  5
1D9
100
AcDbEntity
  8
1
  6
CONTINUOUS
 62
7
100
AcDbCircle
 10
37.97800999999999
 20
129.5936959999999
 30
0.000000000000000
 40
3.500000000000000
100
AcDbArc
 50
270.0000000000000
 51
371.4246170000000
  0
LINE
  5
1DA
100
AcDbEntity
  8
1
  6
CONTINUOUS
 62
7
100
AcDbLine
 10
23.67801000000000
 20
219.5506959999999
 30
0.000000000000000
 11
34.27800999999998
 21
219.5506959999999
 31
0.000000000000000
  0
LINE
  5
1DB
100
AcDbEntity
  8
1
  6
CONTINUOUS
 62
7
100
AcDbLine
 10
36.13206599999998
 20
218.7427640000000
 30
0.000000000000000
 11
40.13206599999999
 21
218.3297640000000
 31
0.000000000000000
  0
LINE
  5
1DC
100
AcDbEntity
  8
1
  6
CONTINUOUS
 62
7
100
AcDbLine
 10
35.90077700000002
 20
215.7506960000000
 30
0.000000000000000
 11
39.82395400000000
 21
215.3456279999999
 31
0.000000000000000
  0
ARC
  5
1DD
100
AcDbEntity
  8
1
  6
CONTINUOUS
 62
7
100
AcDbCircle
 10
16.97801000000000
 20
216.8376959999999
 30
0.000000000000000
 40
1.500000000000000
100
AcDbArc
 50
95.89490100000002
 51
270.0000000000000
  0
LINE
  5
1DE
100
AcDbEntity
  8
1
  6
CONTINUOUS
 62
7
100
AcDbLine
 10
21.05524200000000
 20
215.7506960000000
 30
0.000000000000000
 11
17.13206599999999
 21
215.3456279999999
 31
0.000000000000000
  0
LINE
  5
1DF
100
AcDbEntity
  8
1
  6
CONTINUOUS
 62
7
100
AcDbLine
 10
19.72801000000000
 20
215.3376960000000
 30
0.000000000000000
 11
16.97801000000000
 21
215.3376960000000
 31
0.000000000000000
  0
LINE
  5
1E0
100
AcDbEntity
  8
1
  6
CONTINUOUS
 62
7
100
AcDbLine
 10
20.82395400000000
 20
218.7427640000000
 30
0.000000000000000
 11
16.82395400000000
 21
218.3297640000000
 31
0.000000000000000
  0
ARC
  5
1E1
100
AcDbEntity
  8
1
  6
CONTINUOUS
 62
7
100
AcDbCircle
 10
20.97801000000000
 20
217.2506960000000
 30
0.000000000000000
 40
1.500000000000000
100
AcDbArc
 50
90.00000000000000
 51
95.89490100000002
  0
LINE
  5
1E2
100
AcDbEntity
  8
4
  6
CENTER
 62
1
100
AcDbLine
 10
14.72801000000000
 20
47.72559600000000
 30
0.000000000000000
 11
42.22800999999999
 21
47.72559600000000
 31
0.000000000000000
  0
LINE
  5
1E3
100
AcDbEntity
  8
4
  6
CENTER
 62
1
100
AcDbLine
 10
14.47801000000000
 20
46.42559600000000
 30
0.000000000000000
 11
42.47800999999999
 21
46.42559600000000
 31
0.000000000000000
  0
LINE
  5
1E4
100
AcDbEntity
  8
4
  6
CENTER
 62
1
100
AcDbLine
 10
10.47800999999999
 20
46.83859600000000
 30
0.000000000000000
 11
46.47801000000000
 21
46.83859600000000
 31
0.000000000000000
  0
ARC
  5
1E5
100
AcDbEntity
  8
1
  6
CONTINUOUS
 62
7
100
AcDbCircle
 10
39.97800999999999
 20
46.83859600000000
 30
0.000000000000000
 40
1.500000000000000
100
AcDbArc
 50
275.8949010000000
 51
450.0000000000000
  0
LINE
  5
1E6
100
AcDbEntity
  8
1
  6
CONTINUOUS
 62
7
100
AcDbLine
 10
36.47801000000000
 20
44.96924700000001
 30
0.000000000000000
 11
40.13206599999999
 21
45.34652800000000
 31
0.000000000000000
  0
LINE
  5
1E7
100
AcDbEntity
  8
1
  6
CONTINUOUS
 62
7
100
AcDbLine
 10
36.47800999999999
 20
48.33859600000000
 30
0.000000000000000
 11
39.97800999999999
 21
48.33859600000000
 31
0.000000000000000
  0
LINE
  5
1E8
100
AcDbEntity
  8
1
  6
CONTINUOUS
 62
7
100
AcDbLine
 10
21.27800999999999
 20
44.92559599999998
 30
0.000000000000000
 11
21.47801000000000
 21
44.92559599999998
 31
0.000000000000000
  0
LINE
  5
1E9
100
AcDbEntity
  8
1
  6
CONTINUOUS
 62
7
100
AcDbLine
 10
20.47801000000000
 20
44.96924700000000
 30
0.000000000000000
 11
16.82395400000000
 21
45.34652799999999
 31
0.000000000000000
  0
ARC
  5
1EA
100
AcDbEntity
  8
1
  6
CONTINUOUS
 62
7
100
AcDbCircle
 10
16.97801000000000
 20
46.83859600000000
 30
0.000000000000000
 40
1.500000000000000
100
AcDbArc
 50
90.00000000000000
 51
264.1050990000000
  0
LINE
  5
1EB
100
AcDbEntity
  8
1
  6
CONTINUOUS
 62
7
100
AcDbLine
 10
20.47801000000000
 20
48.33859600000000
 30
0.000000000000000
 11
16.97801000000000
 21
48.33859600000000
 31
0.000000000000000
  0
LINE
  5
1EC
100
AcDbEntity
  8
1
  6
CONTINUOUS
 62
7
100
AcDbLine
 10
36.47800999999999
 20
45.33859600000000
 30
0.000000000000000
 11
39.97800999999999
 21
45.33859600000000
 31
0.000000000000000
  0
LINE
  5
1ED
100
AcDbEntity
  8
1
  6
CONTINUOUS
 62
7
100
AcDbLine
 10
20.47801000000000
 20
45.33859600000000
 30
0.000000000000000
 11
16.97801000000000
 21
45.33859600000000
 31
0.000000000000000
  0
LINE
  5
1EE
100
AcDbEntity
  8
1
  6
CONTINUOUS
 62
7
100
AcDbLine
 10
22.67800999999999
 20
44.92559599999998
 30
0.000000000000000
 11
22.97801000000000
 21
44.92559599999998
 31
0.000000000000000
  0
LINE
  5
1EF
100
AcDbEntity
  8
1
  6
CONTINUOUS
 62
7
100
AcDbLine
 10
23.67801000000000
 20
44.92559599999998
 30
0.000000000000000
 11
27.87800999999999
 21
44.92559599999998
 31
0.000000000000000
  0
LINE
  5
1F0
100
AcDbEntity
  8
1
  6
CONTINUOUS
 62
7
100
AcDbLine
 10
29.07801000000000
 20
44.92559599999998
 30
0.000000000000000
 11
34.27800999999998
 21
44.92559599999998
 31
0.000000000000000
  0
LINE
  5
1F1
100
AcDbEntity
  8
1
  6
CONTINUOUS
 62
7
100
AcDbLine
 10
35.47800999999999
 20
44.92559599999998
 30
0.000000000000000
 11
35.67801000000000
 21
44.92559599999998
 31
0.000000000000000
  0
LINE
  5
1F2
100
AcDbEntity
  8
1
  6
CONTINUOUS
 62
7
100
AcDbLine
 10
177.0165113724225
 20
149.2376960000007
 30
0.000000000000000
 11
175.7771520144615
 21
148.3927176678320
 31
0.000000000000000
  0
LINE
  5
1F3
100
AcDbEntity
  8
1
  6
CONTINUOUS
 62
7
100
AcDbLine
 10
178.1255308560518
 20
147.6110582237752
 30
0.000000000000000
 11
177.0165113724225
 21
149.2376960000006
 31
0.000000000000000
  0
LINE
  5
1F4
100
AcDbEntity
  8
1
  6
CONTINUOUS
 62
7
100
AcDbLine
 10
176.8861714980907
 20
146.7660798916066
 30
0.000000000000000
 11
175.7771520144614
 21
148.3927176678320
 31
0.000000000000000
  0
ENDSEC
  0
SECTION
  2
OBJECTS
  0
DICTIONARY
  5
21F
100
AcDbDictionary
  3
ACAD_GROUP
350
220
  3
ACAD_LAYOUT
350
221
  3
ACAD_MLINESTYLE
350
222
  0
DICTIONARY
  5
220
102
{ACAD_REACTORS
330
21F
102
}
330
21F
100
AcDbDictionary
  0
DICTIONARY
  5
221
102
{ACAD_REACTORS
330
21F
102
}
330
21F
100
AcDbDictionary
  3
Model
350
223
  3
ﾚｲｱｳﾄ1
350
224
  3
ﾚｲｱｳﾄ2
350
225
  0
DICTIONARY
  5
222
102
{ACAD_REACTORS
330
21F
102
}
330
21F
100
AcDbDictionary
  3
STANDARD
350
226
  0
LAYOUT
  5
223
102
{ACAD_REACTORS
330
221
102
}
330
221
100
AcDbPlotSettings
 70
11952
  4
A3
 44
297.000000
 45
420.000000
 73
  1
 72
  1
100
AcDbLayout
  1
Model
 71
0
330
216
  0
LAYOUT
  5
224
102
{ACAD_REACTORS
330
221
102
}
330
221
100
AcDbPlotSettings
100
AcDbLayout
  1
ﾚｲｱｳﾄ1
 71
1
330
217
  0
LAYOUT
  5
225
102
{ACAD_REACTORS
330
221
102
}
330
221
100
AcDbPlotSettings
100
AcDbLayout
  1
ﾚｲｱｳﾄ2
 71
2
330
218
  0
MLINESTYLE
  5
226
102
{ACAD_REACTORS
330
222
102
}
330
222
100
AcDbMlineStyle
  2
STANDARD
 70
     0
  3

 62
   256
 51
90.00
 52
90.00
 71
     2
 49
0.50
 62
   256
  6
BYLAYER
 49
-0.50
 62
   256
  6
BYLAYER
  0
ENDSEC
  0
EOF
