  0
SECTION
  2
HEADER
  9
$ACADVER
  1
AC1015
  9
$DWGCODEPAGE
  3
ANSI_932
  9
$LTSCALE
 40
20.0
  9
$FILLMODE
 70
     1
  9
$CLAYER
  8
0
  9
$PDMODE
 70
     0
  9
$SPLFRAME
 70
     0
  9
$SPLINETYPE
 70
     6
  9
$SPLINESEGS
 70
     8
  9
$DIMASZ
 40
2.000000
  9
$DIMEXE
 40
1.500000
  9
$DIMEXO
 40
0.800000
  9
$DIMTAD
 70
     1
  9
$DIMTIH
 70
     0
  9
$DIMTOH
 70
     0
  9
$DIMTVP
 40
0.500000
  9
$DIMTXT
 40
3.100000
  9
$EXTMIN
 10
0.000000
 20
0.000000
 30
0.000000
  9
$EXTMAX
 10
297.000000
 20
420.000000
 30
0.000000
  9
$MEASUREMENT
 70
  1
  9
$LIMMIN
 10
0.000000
 20
0.000000
  9
$LIMMAX
 10
297.000000
 20
420.000000
  9
$HANDSEED
  5
1C1
  9
$LWDISPLAY
290
     0
  9
$DIMBLK
  1
_OPEN
  9
$DIMDEC
 70
     2
  9
$DIMADEC
 70
     2
  9
$DIMAUNIT
 70
     0
  9
$DIMZIN
 70
     8
  9
$DIMAZIN
 70
     2
  9
$DIMTOFL
 70
     1
  0
ENDSEC
  0
SECTION
  2
CLASSES
  0
ENDSEC
  0
SECTION
  2
TABLES
  0
TABLE
  2
VPORT
  5
18E
100
AcDbSymbolTable
 70
     1
  0
VPORT
  5
18F
100
AcDbSymbolTableRecord
100
AcDbViewportTableRecord
  2
*ACTIVE
 70
     0
 12
210.000000
 22
147.955334
 40
294.963423
 41
1.688525
  0
ENDTAB
  0
TABLE
  2
LTYPE
  5
190
100
AcDbSymbolTable
 70
     4
  0
LTYPE
  5
191
100
AcDbSymbolTableRecord
100
AcDbLinetypeTableRecord
  2
BYBLOCK
 70
     0
  3

 72
    65
 73
     0
 40
0.0
  0
LTYPE
  5
192
100
AcDbSymbolTableRecord
100
AcDbLinetypeTableRecord
  2
BYLAYER
 70
     0
  3

 72
    65
 73
     0
 40
0.0
  0
LTYPE
  5
193
100
AcDbSymbolTableRecord
100
AcDbLinetypeTableRecord
  2
CONTINUOUS
 70
     0
  3
Solid line (NEC CAE2D for Win R15.2 : 2020.03.04)
 72
    65
 73
     0
 40
0.0
  0
LTYPE
  5
194
100
AcDbSymbolTableRecord
100
AcDbLinetypeTableRecord
  2
DASHED
 70
     0
  3
__ __ __ __ __ __ __ __ __ __ __ __ __ _
 72
    65
 73
     2
 40
0.75
 49
0.5
 74
     0
 49
-0.25
 74
     0
  0
LTYPE
  5
195
100
AcDbSymbolTableRecord
100
AcDbLinetypeTableRecord
  2
CENTER
 70
     0
  3
____ _ ____ _ ____ _ ____ _ ____ _ ____
 72
    65
 73
     4
 40
2.0
 49
1.25
 74
     0
 49
-0.25
 74
     0
 49
0.25
 74
     0
 49
-0.25
 74
     0
  0
LTYPE
  5
196
100
AcDbSymbolTableRecord
100
AcDbLinetypeTableRecord
  2
PHANTOM
 70
     0
  3
______  __  __  ______  __  __  ______ 
 72
    65
 73
     6
 40
2.5
 49
1.25
 74
     0
 49
-0.25
 74
     0
 49
0.25
 74
     0
 49
-0.25
 74
     0
 49
0.25
 74
     0
 49
-0.25
 74
     0
  0
ENDTAB
  0
TABLE
  2
LAYER
  5
197
100
AcDbSymbolTable
 70
    11
  0
LAYER
  5
198
100
AcDbSymbolTableRecord
100
AcDbLayerTableRecord
  2
0
 70
     0
 62
     7
  6
CONTINUOUS
370
    -3
390

  0
LAYER
  5
199
100
AcDbSymbolTableRecord
100
AcDbLayerTableRecord
  2
A0
 70
     0
 62
     9
  6
CONTINUOUS
370
    -3
390

  0
LAYER
  5
19A
100
AcDbSymbolTableRecord
100
AcDbLayerTableRecord
  2
A2
 70
     0
 62
     9
  6
CONTINUOUS
370
    -3
390

  0
LAYER
  5
19B
100
AcDbSymbolTableRecord
100
AcDbLayerTableRecord
  2
A7
 70
     0
 62
    12
  6
CONTINUOUS
370
    -3
390

  0
LAYER
  5
19C
100
AcDbSymbolTableRecord
100
AcDbLayerTableRecord
  2
A8
 70
     0
 62
    10
  6
CONTINUOUS
370
    -3
390

  0
LAYER
  5
19D
100
AcDbSymbolTableRecord
100
AcDbLayerTableRecord
  2
A10
 70
     0
 62
     6
  6
CONTINUOUS
370
    -3
390

  0
LAYER
  5
19E
100
AcDbSymbolTableRecord
100
AcDbLayerTableRecord
  2
A20
 70
     0
 62
     1
  6
CONTINUOUS
370
    -3
390

  0
LAYER
  5
19F
100
AcDbSymbolTableRecord
100
AcDbLayerTableRecord
  2
A30
 70
     0
 62
     1
  6
CONTINUOUS
370
    -3
390

  0
LAYER
  5
1A0
100
AcDbSymbolTableRecord
100
AcDbLayerTableRecord
  2
A40
 70
     0
 62
     9
  6
CONTINUOUS
370
    -3
390

  0
LAYER
  5
1A1
100
AcDbSymbolTableRecord
100
AcDbLayerTableRecord
  2
A50
 70
     0
 62
    12
  6
CONTINUOUS
370
    -3
390

  0
LAYER
  5
1A2
100
AcDbSymbolTableRecord
100
AcDbLayerTableRecord
  2
A1023
 70
     0
 62
    16
  6
CONTINUOUS
370
    -3
390

  0
ENDTAB
  0
TABLE
  2
STYLE
  5
1A3
100
AcDbSymbolTable
 70
     4
  0
STYLE
  5
1A4
100
AcDbSymbolTableRecord
100
AcDbTextStyleTableRecord
  2
STANDARD
 70
    64
 40
0.0
 41
1.0
 50
0.0
 71
     0
 42
3.000000000000000
  3
TXT
  4

  0
STYLE
  5
1A5
100
AcDbSymbolTableRecord
100
AcDbTextStyleTableRecord
  2
ANKTATE
 70
    68
 40
0.0
 41
1.0
 50
0.0
 71
     0
 42
3.000000000000000
  3
TXT
  4

  0
STYLE
  5
1A6
100
AcDbSymbolTableRecord
100
AcDbTextStyleTableRecord
  2
KNJYOKO
 70
    64
 40
0.0
 41
1.0
 50
0.0
 71
     0
 42
3.000000000000000
  3
TXT
  4
BIGFONT
  0
STYLE
  5
1A7
100
AcDbSymbolTableRecord
100
AcDbTextStyleTableRecord
  2
KNJTATE
 70
    68
 40
0.0
 41
1.0
 50
0.0
 71
     0
 42
3.000000000000000
  3
TXT
  4
BIGFONT
  0
ENDTAB
  0
TABLE
  2
VIEW
  5
1A8
100
AcDbSymbolTable
 70
     0
  0
ENDTAB
  0
TABLE
  2
UCS
  5
1A9
100
AcDbSymbolTable
 70
     0
  0
ENDTAB
  0
TABLE
  2
APPID
  5
1AA
100
AcDbSymbolTable
 70
     1
  0
APPID
  5
1AB
100
AcDbSymbolTableRecord
100
AcDbRegAppTableRecord
  2
ACAD
 70
     0
  0
ENDTAB
  0
TABLE
  2
DIMSTYLE
  5
1AC
100
AcDbSymbolTable
 70
     2
100
AcDbDimStyleTable
  0
DIMSTYLE
105
1AD
100
AcDbSymbolTableRecord
100
AcDbDimStyleTableRecord
  2
STANDARD
 70
     0
 41
2.000000
 44
1.500000
 42
0.800000
145
0.661290
140
3.100000
144
1.000000
146
0.645161
340
1A4
  0
DIMSTYLE
105
1AE
100
AcDbSymbolTableRecord
100
AcDbDimStyleTableRecord
  2
A001
 70
     0
 41
2.000000
 44
1.500000
 42
0.800000
145
0.661290
140
3.100000
144
1.000000
146
0.645161
 77
     1
 73
     0
 74
     0
271
     2
179
     2
275
     0
 78
     8
 79
     2
172
     1
340
1A4
  0
ENDTAB
  0
TABLE
  2
BLOCK_RECORD
  5
1AF
100
AcDbSymbolTable
 70
    12
  0
BLOCK_RECORD
  5
1B0
100
AcDbSymbolTableRecord
100
AcDbBlockTableRecord
  2
*MODEL_SPACE
  0
BLOCK_RECORD
  5
1B1
100
AcDbSymbolTableRecord
100
AcDbBlockTableRecord
  2
*PAPER_SPACE
  0
BLOCK_RECORD
  5
1B2
100
AcDbSymbolTableRecord
100
AcDbBlockTableRecord
  2
*PAPER_SPACE0
  0
BLOCK_RECORD
  5
1
100
AcDbSymbolTableRecord
100
AcDbBlockTableRecord
  2
_NONE
  0
BLOCK_RECORD
  5
4
100
AcDbSymbolTableRecord
100
AcDbBlockTableRecord
  2
_CLOSED
  0
BLOCK_RECORD
  5
B
100
AcDbSymbolTableRecord
100
AcDbBlockTableRecord
  2
_DOT
  0
BLOCK_RECORD
  5
13
100
AcDbSymbolTableRecord
100
AcDbBlockTableRecord
  2
_OPEN
  0
BLOCK_RECORD
  5
19
100
AcDbSymbolTableRecord
100
AcDbBlockTableRecord
  2
_ORIGIN
  0
BLOCK_RECORD
  5
1E
100
AcDbSymbolTableRecord
100
AcDbBlockTableRecord
  2
_OPEN30
  0
BLOCK_RECORD
  5
24
100
AcDbSymbolTableRecord
100
AcDbBlockTableRecord
  2
_BOXFILLED
  0
BLOCK_RECORD
  5
29
100
AcDbSymbolTableRecord
100
AcDbBlockTableRecord
  2
_BOXBLANK
  0
BLOCK_RECORD
  5
31
100
AcDbSymbolTableRecord
100
AcDbBlockTableRecord
  2
_OBLIQUE
  0
BLOCK_RECORD
  5
35
100
AcDbSymbolTableRecord
100
AcDbBlockTableRecord
  2
_OPEN90
  0
BLOCK_RECORD
  5
3B
100
AcDbSymbolTableRecord
100
AcDbBlockTableRecord
  2
_CLOSEDBLANK
  0
BLOCK_RECORD
  5
41
100
AcDbSymbolTableRecord
100
AcDbBlockTableRecord
  2
_DOTBLANK
  0
ENDTAB
  0
ENDSEC
  0
SECTION
  2
BLOCKS
  0
BLOCK
  5
1B3
100
AcDbEntity
  8
0
100
AcDbBlockBegin
  2
*MODEL_SPACE
 70
     0
 10
0.0
 20
0.0
 30
0.0
  3
*MODEL_SPACE
  1

  0
ENDBLK
  5
1B4
100
AcDbEntity
  8
0
100
AcDbBlockEnd
  0
BLOCK
  5
1B5
100
AcDbEntity
  8
0
100
AcDbBlockBegin
  2
*PAPER_SPACE
 70
     0
 10
0.0
 20
0.0
 30
0.0
  3
*PAPER_SPACE
  1

  0
ENDBLK
  5
1B6
100
AcDbEntity
  8
0
100
AcDbBlockEnd
  0
BLOCK
  5
1B7
100
AcDbEntity
  8
0
100
AcDbBlockBegin
  2
*PAPER_SPACE0
 70
     0
 10
0.0
 20
0.0
 30
0.0
  3
*PAPER_SPACE0
  1

  0
ENDBLK
  5
1B8
100
AcDbEntity
  8
0
100
AcDbBlockEnd
  0
BLOCK
  5
2
330
1
100
AcDbEntity
  8
0
100
AcDbBlockBegin
  2
_NONE
 70
     0
 10
0.0
 20
0.0
 30
0.0
  3
_NONE
  1

  0
ENDBLK
  5
3
330
1
100
AcDbEntity
  8
0
100
AcDbBlockEnd
  0
BLOCK
  5
5
330
4
100
AcDbEntity
  8
0
100
AcDbBlockBegin
  2
_CLOSED
 70
     0
 10
0.0
 20
0.0
 30
0.0
  3
_CLOSED
  1

  0
LINE
  5
6
330
4
100
AcDbEntity
  8
0
  6
BYBLOCK
 62
     0
370
    -2
100
AcDbLine
 10
-1.0
 20
0.166667
 30
0.0
 11
0.0
 21
0.0
 31
0.0
  0
LINE
  5
7
330
4
100
AcDbEntity
  8
0
  6
BYBLOCK
 62
     0
370
    -2
100
AcDbLine
 10
0.0
 20
0.0
 30
0.0
 11
-1.0
 21
-0.166667
 31
0.0
  0
LINE
  5
8
330
4
100
AcDbEntity
  8
0
  6
BYBLOCK
 62
     0
370
    -2
100
AcDbLine
 10
-1.0
 20
0.166667
 30
0.0
 11
-1.0
 21
-0.166667
 31
0.0
  0
LINE
  5
9
330
4
100
AcDbEntity
  8
0
  6
BYBLOCK
 62
     0
370
    -2
100
AcDbLine
 10
0.0
 20
0.0
 30
0.0
 11
-1.0
 21
0.0
 31
0.0
  0
ENDBLK
  5
A
330
4
100
AcDbEntity
  8
0
100
AcDbBlockEnd
  0
BLOCK
  5
C
330
B
100
AcDbEntity
  8
0
100
AcDbBlockBegin
  2
_DOT
 70
     0
 10
0.0
 20
0.0
 30
0.0
  3
_DOT
  1

  0
POLYLINE
  5
D
330
B
100
AcDbEntity
  8
0
  6
BYBLOCK
 62
     0
370
    -2
100
AcDb2dPolyline
 66
     1
 10
0.0
 20
0.0
 30
0.0
 70
     1
 40
0.5
 41
0.5
  0
VERTEX
  5
E
330
B
100
AcDbEntity
  8
0
  6
BYBLOCK
 62
     0
370
    -2
100
AcDbVertex
100
AcDb2dVertex
 10
-0.25
 20
0.0
 30
0.0
 42
1.0
  0
VERTEX
  5
F
330
B
100
AcDbEntity
  8
0
  6
BYBLOCK
 62
     0
370
    -2
100
AcDbVertex
100
AcDb2dVertex
 10
0.25
 20
0.0
 30
0.0
 42
1.0
  0
SEQEND
  5
10
330
B
100
AcDbEntity
  8
0
  6
BYBLOCK
 62
     0
370
    -2
  0
LINE
  5
11
330
B
100
AcDbEntity
  8
0
  6
BYBLOCK
 62
     0
370
    -2
100
AcDbLine
 10
-0.5
 20
0.0
 30
0.0
 11
-1.0
 21
0.0
 31
0.0
  0
ENDBLK
  5
12
330
B
100
AcDbEntity
  8
0
100
AcDbBlockEnd
  0
BLOCK
  5
14
330
13
100
AcDbEntity
  8
0
100
AcDbBlockBegin
  2
_OPEN
 70
     0
 10
0.0
 20
0.0
 30
0.0
  3
_OPEN
  1

  0
LINE
  5
15
330
13
100
AcDbEntity
  8
0
  6
BYBLOCK
 62
     0
370
    -2
100
AcDbLine
 10
-1.0
 20
0.166667
 30
0.0
 11
0.0
 21
0.0
 31
0.0
  0
LINE
  5
16
330
13
100
AcDbEntity
  8
0
  6
BYBLOCK
 62
     0
370
    -2
100
AcDbLine
 10
0.0
 20
0.0
 30
0.0
 11
-1.0
 21
-0.166667
 31
0.0
  0
LINE
  5
17
330
13
100
AcDbEntity
  8
0
  6
BYBLOCK
 62
     0
370
    -2
100
AcDbLine
 10
0.0
 20
0.0
 30
0.0
 11
-1.0
 21
0.0
 31
0.0
  0
ENDBLK
  5
18
330
13
100
AcDbEntity
  8
0
100
AcDbBlockEnd
  0
BLOCK
  5
1A
330
19
100
AcDbEntity
  8
0
100
AcDbBlockBegin
  2
_ORIGIN
 70
     0
 10
0.0
 20
0.0
 30
0.0
  3
_ORIGIN
  1

  0
CIRCLE
  5
1B
330
19
100
AcDbEntity
  8
0
  6
BYBLOCK
 62
     0
370
    -2
100
AcDbCircle
 10
0.0
 20
0.0
 30
0.0
 40
0.5
  0
LINE
  5
1C
330
19
100
AcDbEntity
  8
0
  6
BYBLOCK
 62
     0
370
    -2
100
AcDbLine
 10
0.0
 20
0.0
 30
0.0
 11
-1.0
 21
0.0
 31
0.0
  0
ENDBLK
  5
1D
330
19
100
AcDbEntity
  8
0
100
AcDbBlockEnd
  0
BLOCK
  5
1F
330
1E
100
AcDbEntity
  8
0
100
AcDbBlockBegin
  2
_OPEN30
 70
     0
 10
0.0
 20
0.0
 30
0.0
  3
_OPEN30
  1

  0
LINE
  5
20
330
1E
100
AcDbEntity
  8
0
  6
BYBLOCK
 62
     0
370
    -2
100
AcDbLine
 10
-1.0
 20
0.267949
 30
0.0
 11
0.0
 21
0.0
 31
0.0
  0
LINE
  5
21
330
1E
100
AcDbEntity
  8
0
  6
BYBLOCK
 62
     0
370
    -2
100
AcDbLine
 10
0.0
 20
0.0
 30
0.0
 11
-1.0
 21
-0.267949
 31
0.0
  0
LINE
  5
22
330
1E
100
AcDbEntity
  8
0
  6
BYBLOCK
 62
     0
370
    -2
100
AcDbLine
 10
0.0
 20
0.0
 30
0.0
 11
-1.0
 21
0.0
 31
0.0
  0
ENDBLK
  5
23
330
1E
100
AcDbEntity
  8
0
100
AcDbBlockEnd
  0
BLOCK
  5
25
330
24
100
AcDbEntity
  8
0
100
AcDbBlockBegin
  2
_BOXFILLED
 70
     0
 10
0.0
 20
0.0
 30
0.0
  3
_BOXFILLED
  1

  0
SOLID
  5
26
330
24
100
AcDbEntity
  8
0
  6
BYBLOCK
 62
     0
370
    -2
100
AcDbTrace
 10
-0.5
 20
0.5
 30
0.0
 11
0.5
 21
0.5
 31
0.0
 12
-0.5
 22
-0.5
 32
0.0
 13
0.5
 23
-0.5
 33
0.0
  0
LINE
  5
27
330
24
100
AcDbEntity
  8
0
  6
BYBLOCK
 62
     0
370
    -2
100
AcDbLine
 10
-0.5
 20
0.0
 30
0.0
 11
-1.0
 21
0.0
 31
0.0
  0
ENDBLK
  5
28
330
24
100
AcDbEntity
  8
0
100
AcDbBlockEnd
  0
BLOCK
  5
2A
330
29
100
AcDbEntity
  8
0
100
AcDbBlockBegin
  2
_BOXBLANK
 70
     0
 10
0.0
 20
0.0
 30
0.0
  3
_BOXBLANK
  1

  0
LINE
  5
2B
330
29
100
AcDbEntity
  8
0
  6
BYBLOCK
 62
     0
370
    -2
100
AcDbLine
 10
-0.5
 20
-0.5
 30
0.0
 11
0.5
 21
-0.5
 31
0.0
  0
LINE
  5
2C
330
29
100
AcDbEntity
  8
0
  6
BYBLOCK
 62
     0
370
    -2
100
AcDbLine
 10
0.5
 20
-0.5
 30
0.0
 11
0.5
 21
0.5
 31
0.0
  0
LINE
  5
2D
330
29
100
AcDbEntity
  8
0
  6
BYBLOCK
 62
     0
370
    -2
100
AcDbLine
 10
0.5
 20
0.5
 30
0.0
 11
-0.5
 21
0.5
 31
0.0
  0
LINE
  5
2E
330
29
100
AcDbEntity
  8
0
  6
BYBLOCK
 62
     0
370
    -2
100
AcDbLine
 10
-0.5
 20
0.5
 30
0.0
 11
-0.5
 21
-0.5
 31
0.0
  0
LINE
  5
2F
330
29
100
AcDbEntity
  8
0
  6
BYBLOCK
 62
     0
370
    -2
100
AcDbLine
 10
-0.5
 20
0.0
 30
0.0
 11
-1.0
 21
0.0
 31
0.0
  0
ENDBLK
  5
30
330
29
100
AcDbEntity
  8
0
100
AcDbBlockEnd
  0
BLOCK
  5
32
330
31
100
AcDbEntity
  8
0
100
AcDbBlockBegin
  2
_OBLIQUE
 70
     0
 10
0.0
 20
0.0
 30
0.0
  3
_OBLIQUE
  1

  0
LINE
  5
33
330
31
100
AcDbEntity
  8
0
  6
BYBLOCK
 62
     0
370
    -2
100
AcDbLine
 10
-0.5
 20
-0.5
 30
0.0
 11
0.5
 21
0.5
 31
0.0
  0
ENDBLK
  5
34
330
31
100
AcDbEntity
  8
0
100
AcDbBlockEnd
  0
BLOCK
  5
36
330
35
100
AcDbEntity
  8
0
100
AcDbBlockBegin
  2
_OPEN90
 70
     0
 10
0.0
 20
0.0
 30
0.0
  3
_OPEN90
  1

  0
LINE
  5
37
330
35
100
AcDbEntity
  8
0
  6
BYBLOCK
 62
     0
370
    -2
100
AcDbLine
 10
-0.5
 20
0.5
 30
0.0
 11
0.0
 21
0.0
 31
0.0
  0
LINE
  5
38
330
35
100
AcDbEntity
  8
0
  6
BYBLOCK
 62
     0
370
    -2
100
AcDbLine
 10
0.0
 20
0.0
 30
0.0
 11
-0.5
 21
-0.5
 31
0.0
  0
LINE
  5
39
330
35
100
AcDbEntity
  8
0
  6
BYBLOCK
 62
     0
370
    -2
100
AcDbLine
 10
0.0
 20
0.0
 30
0.0
 11
-1.0
 21
0.0
 31
0.0
  0
ENDBLK
  5
3A
330
35
100
AcDbEntity
  8
0
100
AcDbBlockEnd
  0
BLOCK
  5
3C
330
3B
100
AcDbEntity
  8
0
100
AcDbBlockBegin
  2
_CLOSEDBLANK
 70
     0
 10
0.0
 20
0.0
 30
0.0
  3
_CLOSEDBLANK
  1

  0
LINE
  5
3D
330
3B
100
AcDbEntity
  8
0
  6
BYBLOCK
 62
     0
370
    -2
100
AcDbLine
 10
-1.0
 20
0.1666666666666666
 30
0.0
 11
0.0
 21
0.0
 31
0.0
  0
LINE
  5
3E
330
3B
100
AcDbEntity
  8
0
  6
BYBLOCK
 62
     0
370
    -2
100
AcDbLine
 10
0.0
 20
0.0
 30
0.0
 11
-1.0
 21
-0.1666666666666666
 31
0.0
  0
LINE
  5
3F
330
3B
100
AcDbEntity
  8
0
  6
BYBLOCK
 62
     0
370
    -2
100
AcDbLine
 10
-1.0
 20
0.1666666666666666
 30
0.0
 11
-1.0
 21
-0.1666666666666666
 31
0.0
  0
ENDBLK
  5
40
330
3B
100
AcDbEntity
  8
0
100
AcDbBlockEnd
  0
BLOCK
  5
42
330
41
100
AcDbEntity
  8
0
100
AcDbBlockBegin
  2
_DOTBLANK
 70
     0
 10
0.0
 20
0.0
 30
0.0
  3
_DOTBLANK
  1

  0
CIRCLE
  5
43
330
41
100
AcDbEntity
  8
0
  6
BYBLOCK
 62
     0
370
    -2
100
AcDbCircle
 10
0.0
 20
0.0
 30
0.0
 40
0.5
  0
LINE
  5
44
330
41
100
AcDbEntity
  8
0
  6
BYBLOCK
 62
     0
370
    -2
100
AcDbLine
 10
-0.5
 20
0.0
 30
0.0
 11
-1.0
 21
0.0
 31
0.0
  0
ENDBLK
  5
45
330
41
100
AcDbEntity
  8
0
100
AcDbBlockEnd
  0
ENDSEC
  0
SECTION
  2
ENTITIES
  0
MTEXT
  5
46
100
AcDbEntity
  8
A8
  6
CONTINUOUS
 62
7
100
AcDbMText
 10
9.999997526638502
 20
18.00000076076889
 30
0.0000000000000000
 40
3.000000000000000
 41
0.0000000000000000
 44
0.6739999771118164
 71
     7
 72
     1
  1
{\H0.93x;{TYPE No.TL-432}}
 11
1.000000000000000
 21
0.0000000000000000
 31
0.0000000000000000
  7
STANDARD
  0
POINT
  5
47
100
AcDbEntity
  8
A0
  6
CONTINUOUS
 62
5
100
AcDbPoint
 10
9.999997526638502
 20
18.00000076076889
 30
0.0000000000000000
  0
POINT
  5
48
100
AcDbEntity
  8
A10
  6
CONTINUOUS
 62
5
100
AcDbPoint
 10
50.00000000000000
 20
50.00000000000000
 30
0.0000000000000000
  0
LINE
  5
49
100
AcDbEntity
  8
A2
  6
CONTINUOUS
 62
7
100
AcDbLine
 10
287.8530922965297
 20
127.0000000000000
 30
0.0000000000000000
 11
287.8530922965297
 21
129.6000000000002
 31
0.0000000000000000
  0
LINE
  5
4A
100
AcDbEntity
  8
A2
  6
CONTINUOUS
 62
7
100
AcDbLine
 10
282.8530922965297
 20
129.6000000000002
 30
0.0000000000000000
 11
282.8530922965297
 21
127.0000000000000
 31
0.0000000000000000
  0
LINE
  5
4B
100
AcDbEntity
  8
A2
  6
CONTINUOUS
 62
7
100
AcDbLine
 10
282.8530922965297
 20
129.6000000000002
 30
0.0000000000000000
 11
287.8530922965297
 21
129.6000000000002
 31
0.0000000000000000
  0
LINE
  5
4C
100
AcDbEntity
  8
A2
  6
DASHED
 62
4
100
AcDbLine
 10
287.8530922965297
 20
129.6000000000002
 30
0.0000000000000000
 11
298.8530922965297
 21
129.6000000000002
 31
0.0000000000000000
  0
LINE
  5
4D
100
AcDbEntity
  8
A2
  6
CONTINUOUS
 62
7
100
AcDbLine
 10
191.8530922965297
 20
61.00000000000003
 30
0.0000000000000000
 11
191.8530922965297
 21
50.00000000000003
 31
0.0000000000000000
  0
LINE
  5
4E
100
AcDbEntity
  8
A2
  6
DASHED
 62
4
100
AcDbLine
 10
189.2530922965298
 20
61.00000000000003
 30
0.0000000000000000
 11
189.2530922965298
 21
50.00000000000003
 31
0.0000000000000000
  0
LINE
  5
4F
100
AcDbEntity
  8
A2
  6
CONTINUOUS
 62
7
100
AcDbLine
 10
191.8530922965297
 20
61.00000000000003
 30
0.0000000000000000
 11
189.2530922965298
 21
61.00000000000003
 31
0.0000000000000000
  0
LINE
  5
50
100
AcDbEntity
  8
A2
  6
CONTINUOUS
 62
7
100
AcDbLine
 10
189.2530922965298
 20
66.00000000000003
 30
0.0000000000000000
 11
189.2530922965298
 21
61.00000000000003
 31
0.0000000000000000
  0
LINE
  5
51
100
AcDbEntity
  8
A2
  6
CONTINUOUS
 62
7
100
AcDbLine
 10
191.8530922965297
 20
66.00000000000003
 30
0.0000000000000000
 11
189.2530922965298
 21
66.00000000000003
 31
0.0000000000000000
  0
LINE
  5
52
100
AcDbEntity
  8
A2
  6
CENTER
 62
1
100
AcDbLine
 10
165.3530922965297
 20
125.5000000000000
 30
0.0000000000000000
 11
165.3530922965297
 21
131.1000000000002
 31
0.0000000000000000
  0
LINE
  5
53
100
AcDbEntity
  8
A2
  6
CENTER
 62
1
100
AcDbLine
 10
185.3530922965297
 20
125.5000000000000
 30
0.0000000000000000
 11
185.3530922965297
 21
131.1000000000002
 31
0.0000000000000000
  0
LINE
  5
54
100
AcDbEntity
  8
A2
  6
CONTINUOUS
 62
7
100
AcDbLine
 10
188.7530922965298
 20
129.6000000000002
 30
0.0000000000000000
 11
116.8530922965297
 21
129.6000000000002
 31
0.0000000000000000
  0
LINE
  5
55
100
AcDbEntity
  8
A2
  6
CONTINUOUS
 62
7
100
AcDbLine
 10
191.8530922965297
 20
129.0000000000000
 30
0.0000000000000000
 11
191.8530922965297
 21
159.6000000000003
 31
0.0000000000000000
  0
LINE
  5
56
100
AcDbEntity
  8
A2
  6
CONTINUOUS
 62
7
100
AcDbLine
 10
189.2530922965298
 20
159.6000000000003
 30
0.0000000000000000
 11
189.2530922965298
 21
130.1000000000002
 31
0.0000000000000000
  0
LINE
  5
57
100
AcDbEntity
  8
A2
  6
CONTINUOUS
 62
7
100
AcDbLine
 10
191.8530922965297
 20
159.6000000000003
 30
0.0000000000000000
 11
189.2530922965298
 21
159.6000000000003
 31
0.0000000000000000
  0
LINE
  5
58
100
AcDbEntity
  8
A2
  6
CONTINUOUS
 62
7
100
AcDbLine
 10
116.8530922965297
 20
127.0000000000000
 30
0.0000000000000000
 11
189.8530922965297
 21
127.0000000000000
 31
0.0000000000000000
  0
LINE
  5
59
100
AcDbEntity
  8
A2
  6
CONTINUOUS
 62
7
100
AcDbLine
 10
116.8530922965297
 20
129.6000000000002
 30
0.0000000000000000
 11
116.8530922965297
 21
127.0000000000000
 31
0.0000000000000000
  0
LINE
  5
5A
100
AcDbEntity
  8
A2
  6
CONTINUOUS
 62
7
100
AcDbLine
 10
116.8530922965297
 20
53.00000000000003
 30
0.0000000000000000
 11
116.8530922965297
 21
74.00000000000003
 31
0.0000000000000000
  0
LINE
  5
5B
100
AcDbEntity
  8
A2
  6
CONTINUOUS
 62
7
100
AcDbLine
 10
191.8530922965297
 20
77.00000000000003
 30
0.0000000000000000
 11
191.8530922965297
 21
66.00000000000003
 31
0.0000000000000000
  0
LINE
  5
5C
100
AcDbEntity
  8
A2
  6
DASHED
 62
4
100
AcDbLine
 10
189.2530922965298
 20
77.00000000000003
 30
0.0000000000000000
 11
189.2530922965298
 21
66.00000000000003
 31
0.0000000000000000
  0
LINE
  5
5D
100
AcDbEntity
  8
A2
  6
CONTINUOUS
 62
7
100
AcDbLine
 10
171.0030922965298
 20
65.15000000000018
 30
0.0000000000000000
 11
179.7030922965300
 21
65.15000000000018
 31
0.0000000000000000
  0
LINE
  5
5E
100
AcDbEntity
  8
A2
  6
CONTINUOUS
 62
7
100
AcDbLine
 10
179.7030922965300
 20
61.85000000000005
 30
0.0000000000000000
 11
171.0030922965298
 21
61.85000000000005
 31
0.0000000000000000
  0
LINE
  5
5F
100
AcDbEntity
  8
A2
  6
CENTER
 62
1
100
AcDbLine
 10
155.8530922965297
 20
133.0999999999918
 30
0.0000000000000000
 11
155.8530922965297
 21
125.5000000000000
 31
0.0000000000000000
  0
LINE
  5
60
100
AcDbEntity
  8
A2
  6
CENTER
 62
1
100
AcDbLine
 10
125.8530922965210
 20
125.5000000000000
 30
0.0000000000000000
 11
125.8530922965210
 21
133.0999999999918
 31
0.0000000000000000
  0
LINE
  5
61
100
AcDbEntity
  8
A2
  6
CONTINUOUS
 62
7
100
AcDbLine
 10
271.8530922965297
 20
127.0000000000000
 30
0.0000000000000000
 11
298.8530922965297
 21
127.0000000000000
 31
0.0000000000000000
  0
LINE
  5
62
100
AcDbEntity
  8
A2
  6
CONTINUOUS
 62
7
100
AcDbLine
 10
298.8530922965297
 20
159.6000000000003
 30
0.0000000000000000
 11
271.8530922965297
 21
159.6000000000003
 31
0.0000000000000000
  0
LINE
  5
63
100
AcDbEntity
  8
A2
  6
CENTER
 62
1
100
AcDbLine
 10
275.3530922965297
 20
125.5000000000000
 30
0.0000000000000000
 11
275.3530922965297
 21
131.1000000000002
 31
0.0000000000000000
  0
LINE
  5
64
100
AcDbEntity
  8
A2
  6
CENTER
 62
1
100
AcDbLine
 10
286.8530922965294
 20
125.5000000000000
 30
0.0000000000000000
 11
286.8530922965294
 21
131.1000000000002
 31
0.0000000000000000
  0
LINE
  5
65
100
AcDbEntity
  8
A2
  6
CENTER
 62
1
100
AcDbLine
 10
295.3530922965297
 20
131.1000000000002
 30
0.0000000000000000
 11
295.3530922965297
 21
125.5000000000000
 31
0.0000000000000000
  0
LINE
  5
66
100
AcDbEntity
  8
A2
  6
CONTINUOUS
 62
7
100
AcDbLine
 10
298.8530922965297
 20
127.0000000000000
 30
0.0000000000000000
 11
298.8530922965297
 21
159.6000000000003
 31
0.0000000000000000
  0
LINE
  5
67
100
AcDbEntity
  8
A2
  6
DASHED
 62
4
100
AcDbLine
 10
271.8530922965299
 20
129.6000000000001
 30
0.0000000000000000
 11
282.8530922965299
 21
129.6000000000002
 31
0.0000000000000000
  0
ARC
  5
68
100
AcDbEntity
  8
A2
  6
CONTINUOUS
 62
7
100
AcDbCircle
 10
179.7030922965300
 20
63.50000000000003
 30
0.0000000000000000
 40
1.649999999999977
100
AcDbArc
 50
270.0000000000000
 51
360.0000000000000
  0
ARC
  5
69
100
AcDbEntity
  8
A2
  6
CONTINUOUS
 62
7
100
AcDbCircle
 10
171.0030922965298
 20
63.50000000000003
 30
0.0000000000000000
 40
1.650000000000148
100
AcDbArc
 50
90.00000000000000
 51
180.0000000000000
  0
ARC
  5
6A
100
AcDbEntity
  8
A2
  6
CONTINUOUS
 62
7
100
AcDbCircle
 10
179.7030922965300
 20
63.50000000000003
 30
0.0000000000000000
 40
1.649999999999636
100
AcDbArc
 50
0.0000000000000000
 51
90.00000000000000
  0
ARC
  5
6B
100
AcDbEntity
  8
A2
  6
CONTINUOUS
 62
7
100
AcDbCircle
 10
171.0030922965298
 20
63.50000000000003
 30
0.0000000000000000
 40
1.650000000000091
100
AcDbArc
 50
180.0000000000000
 51
270.0000000000000
  0
CIRCLE
  5
6C
100
AcDbEntity
  8
A2
  6
CONTINUOUS
 62
1
100
AcDbCircle
 10
165.3530922965297
 20
72.00000000000003
 30
0.0000000000000000
 40
1.500000000000000
  0
CIRCLE
  5
6D
100
AcDbEntity
  8
A2
  6
CONTINUOUS
 62
1
100
AcDbCircle
 10
185.3530922965297
 20
62.00000000000003
 30
0.0000000000000000
 40
1.500000000000000
  0
CIRCLE
  5
6E
100
AcDbEntity
  8
A2
  6
CONTINUOUS
 62
7
100
AcDbCircle
 10
285.3530922965297
 20
144.6000000000003
 30
0.0000000000000000
 40
4.150000000000091
  0
CIRCLE
  5
6F
100
AcDbEntity
  8
A2
  6
CONTINUOUS
 62
1
100
AcDbCircle
 10
277.8530922965297
 20
154.6000000000003
 30
0.0000000000000000
 40
1.500000000000000
  0
CIRCLE
  5
70
100
AcDbEntity
  8
A2
  6
CONTINUOUS
 62
1
100
AcDbCircle
 10
292.8530922965297
 20
154.6000000000003
 30
0.0000000000000000
 40
1.500000000000000
  0
CIRCLE
  5
71
100
AcDbEntity
  8
A2
  6
CONTINUOUS
 62
1
100
AcDbCircle
 10
285.3530922965297
 20
134.6000000000002
 30
0.0000000000000000
 40
1.500000000000000
  0
CIRCLE
  5
72
100
AcDbEntity
  8
A2
  6
CONTINUOUS
 62
7
100
AcDbCircle
 10
125.8530922965210
 20
73.50000000000003
 30
0.0000000000000000
 40
3.500000000000000
  0
CIRCLE
  5
73
100
AcDbEntity
  8
A2
  6
CONTINUOUS
 62
7
100
AcDbCircle
 10
155.8530922965297
 20
53.49999999999997
 30
0.0000000000000000
 40
3.500000000000000
  0
ARC
  5
74
100
AcDbEntity
  8
A2
  6
CONTINUOUS
 62
7
100
AcDbCircle
 10
189.8530922965297
 20
129.0000000000000
 30
0.0000000000000000
 40
2.000000000000000
100
AcDbArc
 50
270.0000000000000
 51
360.0000000000000
  0
ARC
  5
75
100
AcDbEntity
  8
A2
  6
CONTINUOUS
 62
7
100
AcDbCircle
 10
188.7530922965298
 20
130.1000000000002
 30
0.0000000000000000
 40
0.5000000000000000
100
AcDbArc
 50
270.0000000000000
 51
360.0000000000000
  0
ARC
  5
76
100
AcDbEntity
  8
A2
  6
CONTINUOUS
 62
7
100
AcDbCircle
 10
119.8530922965297
 20
53.00000000000003
 30
0.0000000000000000
 40
3.000000000000000
100
AcDbArc
 50
180.0000000000000
 51
270.0000000000000
  0
ARC
  5
77
100
AcDbEntity
  8
A2
  6
CONTINUOUS
 62
7
100
AcDbCircle
 10
119.8530922965297
 20
74.00000000000003
 30
0.0000000000000000
 40
3.000000000000000
100
AcDbArc
 50
90.00000000000000
 51
180.0000000000000
  0
ARC
  5
78
100
AcDbEntity
  8
A2
  6
CONTINUOUS
 62
7
100
AcDbCircle
 10
274.8530922965297
 20
156.6000000000003
 30
0.0000000000000000
 40
3.000000000000000
100
AcDbArc
 50
90.00000000000000
 51
180.0000000000000
  0
ARC
  5
79
100
AcDbEntity
  8
A2
  6
CONTINUOUS
 62
7
100
AcDbCircle
 10
295.8030922965295
 20
156.5500000000001
 30
0.0000000000000000
 40
3.050409808534111
100
AcDbArc
 50
359.0608090542643
 51
449.0608090542611
  0
LINE
  5
7A
100
AcDbEntity
  8
A2
  6
CENTER
 62
1
100
AcDbLine
 10
300.3530922965297
 20
144.6000000000003
 30
0.0000000000000000
 11
268.3530922965297
 21
144.6000000000003
 31
0.0000000000000000
  0
LINE
  5
7B
100
AcDbEntity
  8
A2
  6
CENTER
 62
1
100
AcDbLine
 10
295.8530922965297
 20
154.6000000000003
 30
0.0000000000000000
 11
289.8530922965297
 21
154.6000000000003
 31
0.0000000000000000
  0
LINE
  5
7C
100
AcDbEntity
  8
A2
  6
CENTER
 62
1
100
AcDbLine
 10
292.8530922965297
 20
157.6000000000003
 30
0.0000000000000000
 11
292.8530922965297
 21
151.6000000000003
 31
0.0000000000000000
  0
LINE
  5
7D
100
AcDbEntity
  8
A2
  6
CENTER
 62
1
100
AcDbLine
 10
280.8530922965297
 20
154.6000000000003
 30
0.0000000000000000
 11
274.8530922965297
 21
154.6000000000003
 31
0.0000000000000000
  0
LINE
  5
7E
100
AcDbEntity
  8
A2
  6
CENTER
 62
1
100
AcDbLine
 10
277.8530922965297
 20
157.6000000000003
 30
0.0000000000000000
 11
277.8530922965297
 21
151.6000000000003
 31
0.0000000000000000
  0
LINE
  5
7F
100
AcDbEntity
  8
A2
  6
CENTER
 62
1
100
AcDbLine
 10
288.3530922965297
 20
134.6000000000002
 30
0.0000000000000000
 11
282.3530922965297
 21
134.6000000000002
 31
0.0000000000000000
  0
LINE
  5
80
100
AcDbEntity
  8
A2
  6
CENTER
 62
1
100
AcDbLine
 10
285.3530922965297
 20
125.5000000000000
 30
0.0000000000000000
 11
285.3530922965297
 21
161.1000000000001
 31
0.0000000000000000
  0
LINE
  5
81
100
AcDbEntity
  8
A2
  6
CONTINUOUS
 62
7
100
AcDbLine
 10
101.8864124909528
 20
77.00000000000003
 30
0.0000000000000000
 11
191.8530922965297
 21
77.00000000000003
 31
0.0000000000000000
  0
LINE
  5
82
100
AcDbEntity
  8
A2
  6
CONTINUOUS
 62
7
100
AcDbLine
 10
119.8530922965298
 20
49.99999999999995
 30
0.0000000000000000
 11
191.8530922965297
 21
50.00000000000001
 31
0.0000000000000000
  0
LINE
  5
83
100
AcDbEntity
  8
A2
  6
CONTINUOUS
 62
7
100
AcDbLine
 10
191.8530922965297
 20
50.00000000000003
 30
0.0000000000000000
 11
191.8530922965297
 21
77.00000000000003
 31
0.0000000000000000
  0
LINE
  5
84
100
AcDbEntity
  8
A2
  6
CONTINUOUS
 62
7
100
AcDbLine
 10
271.8530922965297
 20
127.0000000000000
 30
0.0000000000000000
 11
271.8530922965297
 21
159.6000000000003
 31
0.0000000000000000
  0
LINE
  5
85
100
AcDbEntity
  8
A2
  6
CENTER
 62
1
100
AcDbLine
 10
160.8530922965297
 20
53.49999999999997
 30
0.0000000000000000
 11
150.8530922965297
 21
53.49999999999997
 31
0.0000000000000000
  0
LINE
  5
86
100
AcDbEntity
  8
A2
  6
CENTER
 62
1
100
AcDbLine
 10
155.8530922965297
 20
58.49999999999997
 30
0.0000000000000000
 11
155.8530922965297
 21
48.49999999999997
 31
0.0000000000000000
  0
LINE
  5
87
100
AcDbEntity
  8
A2
  6
CENTER
 62
1
100
AcDbLine
 10
130.8530922965210
 20
73.50000000000003
 30
0.0000000000000000
 11
120.8530922965210
 21
73.50000000000003
 31
0.0000000000000000
  0
LINE
  5
88
100
AcDbEntity
  8
A2
  6
CENTER
 62
1
100
AcDbLine
 10
125.8530922965210
 20
78.50000000000003
 30
0.0000000000000000
 11
125.8530922965210
 21
68.50000000000003
 31
0.0000000000000000
  0
LINE
  5
89
100
AcDbEntity
  8
A2
  6
CENTER
 62
1
100
AcDbLine
 10
168.3530922965297
 20
72.00000000000003
 30
0.0000000000000000
 11
162.3530922965297
 21
72.00000000000003
 31
0.0000000000000000
  0
LINE
  5
8A
100
AcDbEntity
  8
A2
  6
CENTER
 62
1
100
AcDbLine
 10
165.3530922965297
 20
75.00000000000003
 30
0.0000000000000000
 11
165.3530922965297
 21
69.00000000000003
 31
0.0000000000000000
  0
LINE
  5
8B
100
AcDbEntity
  8
A2
  6
CENTER
 62
1
100
AcDbLine
 10
188.3530922965297
 20
62.00000000000003
 30
0.0000000000000000
 11
182.3530922965297
 21
62.00000000000003
 31
0.0000000000000000
  0
LINE
  5
8C
100
AcDbEntity
  8
A2
  6
CENTER
 62
1
100
AcDbLine
 10
185.3530922965297
 20
65.00000000000003
 30
0.0000000000000000
 11
185.3530922965297
 21
59.00000000000003
 31
0.0000000000000000
  0
LINE
  5
8D
100
AcDbEntity
  8
A2
  6
CENTER
 62
1
100
AcDbLine
 10
99.95309229652962
 20
63.50000000000003
 30
0.0000000000000000
 11
157.8530922965297
 21
63.50000000000003
 31
0.0000000000000000
  0
LINE
  5
8E
100
AcDbEntity
  8
A2
  6
CENTER
 62
1
100
AcDbLine
 10
160.8530922965297
 20
63.50000000000003
 30
0.0000000000000000
 11
198.3530922965306
 21
63.50000000000003
 31
0.0000000000000000
  0
ARC
  5
8F
100
AcDbEntity
  8
A10
  6
CONTINUOUS
 62
1
100
AcDbCircle
 10
135.3531404716251
 20
67.24996386867298
 30
0.0000000000000000
 40
1.718119093483294
100
AcDbArc
 50
125.5376777920008
 51
166.5374393917331
  0
ARC
  5
90
100
AcDbEntity
  8
A10
  6
CONTINUOUS
 62
1
100
AcDbCircle
 10
139.3530922965297
 20
61.65003131381218
 30
0.0000000000000000
 40
8.599896423544767
100
AcDbArc
 50
54.46232220799912
 51
125.5376777920008
  0
ARC
  5
91
100
AcDbEntity
  8
A10
  6
CONTINUOUS
 62
1
100
AcDbCircle
 10
143.3530441214342
 20
67.24996386867298
 30
0.0000000000000000
 40
1.718119093483296
100
AcDbArc
 50
332.2496545546281
 51
414.4623222079991
  0
ARC
  5
92
100
AcDbEntity
  8
A10
  6
CONTINUOUS
 62
1
100
AcDbCircle
 10
135.3531404716251
 20
67.24996386867298
 30
0.0000000000000000
 40
1.718119093483294
100
AcDbArc
 50
180.0000000000000
 51
234.4623222080521
  0
ARC
  5
93
100
AcDbEntity
  8
A10
  6
CONTINUOUS
 62
1
100
AcDbCircle
 10
139.3530922965297
 20
72.84989642354478
 30
0.0000000000000000
 40
8.599896423544767
100
AcDbArc
 50
234.4623222080520
 51
305.5376777919479
  0
ARC
  5
94
100
AcDbEntity
  8
A10
  6
CONTINUOUS
 62
1
100
AcDbCircle
 10
143.3530441214342
 20
67.24996386867298
 30
0.0000000000000000
 40
1.718119093483296
100
AcDbArc
 50
305.5376777919479
 51
315.6988392796171
  0
LINE
  5
95
100
AcDbEntity
  8
A10
  6
CONTINUOUS
 62
1
100
AcDbLine
 10
135.0198111528831
 20
69.07841559478572
 30
0.0000000000000000
 11
135.0198111528831
 21
66.20467736768992
 31
0.0000000000000000
  0
LINE
  5
96
100
AcDbEntity
  8
A10
  6
CONTINUOUS
 62
1
100
AcDbLine
 10
135.6864697903671
 20
66.01997949591555
 30
0.0000000000000000
 11
135.6864697903671
 21
68.47994824144141
 31
0.0000000000000000
  0
ARC
  5
97
100
AcDbEntity
  8
A10
  6
CONTINUOUS
 62
1
100
AcDbCircle
 10
136.0197991091092
 20
68.47994824144141
 30
0.0000000000000000
 40
0.3333293187420452
100
AcDbArc
 50
116.0143659996366
 51
180.0000000000000
  0
ARC
  5
98
100
AcDbEntity
  8
A10
  6
CONTINUOUS
 62
1
100
AcDbCircle
 10
139.3530922965297
 20
61.65003131381218
 30
0.0000000000000000
 40
7.933237786060675
100
AcDbArc
 50
112.9439535565378
 51
116.0143659996366
  0
ARC
  5
99
100
AcDbEntity
  8
A10
  6
CONTINUOUS
 62
1
100
AcDbCircle
 10
136.2864625641029
 20
68.89425217551340
 30
0.0000000000000000
 40
0.06666586374840902
100
AcDbArc
 50
0.0000000000000000
 51
112.9439535565375
  0
LINE
  5
9A
100
AcDbEntity
  8
A10
  6
CONTINUOUS
 62
1
100
AcDbLine
 10
136.3531284278512
 20
68.89425217551340
 30
0.0000000000000000
 11
136.3531284278512
 21
65.60567556184347
 31
0.0000000000000000
  0
ARC
  5
9B
100
AcDbEntity
  8
A10
  6
CONTINUOUS
 62
1
100
AcDbCircle
 10
136.2864625641029
 20
65.60567556184347
 30
0.0000000000000000
 40
0.06666586374840902
100
AcDbArc
 50
247.0560464434623
 51
360.0000000000000
  0
ARC
  5
9C
100
AcDbEntity
  8
A10
  6
CONTINUOUS
 62
1
100
AcDbCircle
 10
139.3530922965297
 20
72.84989642354478
 30
0.0000000000000000
 40
7.933237786060675
100
AcDbArc
 50
243.9856340003634
 51
247.0560464434622
  0
ARC
  5
9D
100
AcDbEntity
  8
A10
  6
CONTINUOUS
 62
1
100
AcDbCircle
 10
136.0197991091092
 20
66.01997949591555
 30
0.0000000000000000
 40
0.3333293187420452
100
AcDbArc
 50
180.0000000000000
 51
243.9856340003634
  0
LINE
  5
9E
100
AcDbEntity
  8
A10
  6
CONTINUOUS
 62
1
100
AcDbLine
 10
137.6864457028194
 20
68.04995423365384
 30
0.0000000000000000
 11
137.6864457028194
 21
69.32326933525587
 31
0.0000000000000000
  0
ARC
  5
9F
100
AcDbEntity
  8
A10
  6
CONTINUOUS
 62
1
100
AcDbCircle
 10
137.6197798390710
 20
69.32326933525587
 30
0.0000000000000000
 40
0.06666586374840902
100
AcDbArc
 50
0.0000000000000000
 51
102.7289438731227
  0
ARC
  5
A0
100
AcDbEntity
  8
A10
  6
CONTINUOUS
 62
1
100
AcDbCircle
 10
139.3530922965297
 20
61.65003131381218
 30
0.0000000000000000
 40
7.933237786060675
100
AcDbArc
 50
102.7289438731226
 51
103.2681189705562
  0
ARC
  5
A1
100
AcDbEntity
  8
A10
  6
CONTINUOUS
 62
1
100
AcDbCircle
 10
139.3530922965297
 20
61.65003131381218
 30
0.0000000000000000
 40
7.933237786060675
100
AcDbArc
 50
103.2681189705562
 51
105.2575232904564
  0
ARC
  5
A2
100
AcDbEntity
  8
A10
  6
CONTINUOUS
 62
1
100
AcDbCircle
 10
137.3531163840774
 20
68.98206411933279
 30
0.0000000000000000
 40
0.3333293187420452
100
AcDbArc
 50
105.2575232904564
 51
180.0000000000000
  0
LINE
  5
A3
100
AcDbEntity
  8
A10
  6
CONTINUOUS
 62
1
100
AcDbLine
 10
137.0197870653353
 20
68.98206411933279
 30
0.0000000000000000
 11
137.0197870653353
 21
65.51786361802408
 31
0.0000000000000000
  0
ARC
  5
A4
100
AcDbEntity
  8
A10
  6
CONTINUOUS
 62
1
100
AcDbCircle
 10
137.3531163840774
 20
65.51786361802408
 30
0.0000000000000000
 40
0.3333293187420452
100
AcDbArc
 50
180.0000000000000
 51
254.7424767095436
  0
ARC
  5
A5
100
AcDbEntity
  8
A10
  6
CONTINUOUS
 62
1
100
AcDbCircle
 10
139.3530922965297
 20
72.84989642354478
 30
0.0000000000000000
 40
7.933237786060675
100
AcDbArc
 50
254.7424767095436
 51
254.7937121239420
  0
ARC
  5
A6
100
AcDbEntity
  8
A10
  6
CONTINUOUS
 62
1
100
AcDbCircle
 10
139.3530922965297
 20
72.84989642354478
 30
0.0000000000000000
 40
7.933237786060675
100
AcDbArc
 50
254.7937121239420
 51
257.2710561268773
  0
ARC
  5
A7
100
AcDbEntity
  8
A10
  6
CONTINUOUS
 62
1
100
AcDbCircle
 10
137.6197798390710
 20
65.17665840210100
 30
0.0000000000000000
 40
0.06666586374840902
100
AcDbArc
 50
257.2710561268775
 51
360.0000000000000
  0
LINE
  5
A8
100
AcDbEntity
  8
A10
  6
CONTINUOUS
 62
1
100
AcDbLine
 10
137.6864457028194
 20
65.17665840210100
 30
0.0000000000000000
 11
137.6864457028194
 21
66.44997350369212
 31
0.0000000000000000
  0
LINE
  5
A9
100
AcDbEntity
  8
A10
  6
CONTINUOUS
 62
1
100
AcDbLine
 10
138.3531043403035
 20
69.51999229577282
 30
0.0000000000000000
 11
138.3531043403035
 21
64.97993544158422
 31
0.0000000000000000
  0
LINE
  5
AA
100
AcDbEntity
  8
A10
  6
CONTINUOUS
 62
1
100
AcDbLine
 10
139.0197629777877
 20
69.57626328969118
 30
0.0000000000000000
 11
139.0197629777877
 21
64.92366444766577
 31
0.0000000000000000
  0
LINE
  5
AB
100
AcDbEntity
  8
A10
  6
CONTINUOUS
 62
1
100
AcDbLine
 10
139.0197629777877
 20
67.24996386867298
 30
0.0000000000000000
 11
138.3531043403035
 21
67.24996386867298
 31
0.0000000000000000
  0
LINE
  5
AC
100
AcDbEntity
  8
A10
  6
CONTINUOUS
 62
1
100
AcDbLine
 10
139.6864216152717
 20
69.57626328969118
 30
0.0000000000000000
 11
139.6864216152717
 21
64.92366444766577
 31
0.0000000000000000
  0
LINE
  5
AD
100
AcDbEntity
  8
A10
  6
CONTINUOUS
 62
1
100
AcDbLine
 10
141.0197388902399
 20
68.04995423365384
 30
0.0000000000000000
 11
141.0197388902399
 21
69.13206805228739
 31
0.0000000000000000
  0
ARC
  5
AE
100
AcDbEntity
  8
A10
  6
CONTINUOUS
 62
1
100
AcDbCircle
 10
140.6864095714979
 20
69.13206805228739
 30
0.0000000000000000
 40
0.3333293187420452
100
AcDbArc
 50
0.0000000000000000
 51
79.89581728387491
  0
ARC
  5
AF
100
AcDbEntity
  8
A10
  6
CONTINUOUS
 62
1
100
AcDbCircle
 10
139.3530922965297
 20
61.65003131381218
 30
0.0000000000000000
 40
7.933237786060675
100
AcDbArc
 50
79.89581728387498
 51
82.20707566457760
  0
ARC
  5
B0
100
AcDbEntity
  8
A10
  6
CONTINUOUS
 62
1
100
AcDbCircle
 10
140.4197461165043
 20
69.44395224215398
 30
0.0000000000000000
 40
0.06666586374840902
100
AcDbArc
 50
82.20707566457730
 51
180.0000000000000
  0
LINE
  5
B1
100
AcDbEntity
  8
A10
  6
CONTINUOUS
 62
1
100
AcDbLine
 10
140.3530802527558
 20
69.44395224215398
 30
0.0000000000000000
 11
140.3530802527558
 21
65.05597549520297
 31
0.0000000000000000
  0
ARC
  5
B2
100
AcDbEntity
  8
A10
  6
CONTINUOUS
 62
1
100
AcDbCircle
 10
140.4197461165043
 20
65.05597549520297
 30
0.0000000000000000
 40
0.06666586374840902
100
AcDbArc
 50
180.0000000000000
 51
277.7929243354228
  0
ARC
  5
B3
100
AcDbEntity
  8
A10
  6
CONTINUOUS
 62
1
100
AcDbCircle
 10
139.3530922965297
 20
72.84989642354478
 30
0.0000000000000000
 40
7.933237786060675
100
AcDbArc
 50
277.7929243354224
 51
280.1041827161250
  0
ARC
  5
B4
100
AcDbEntity
  8
A10
  6
CONTINUOUS
 62
1
100
AcDbCircle
 10
140.6864095714979
 20
65.36785968506965
 30
0.0000000000000000
 40
0.3333293187420452
100
AcDbArc
 50
280.1041827161250
 51
360.0000000000000
  0
LINE
  5
B5
100
AcDbEntity
  8
A10
  6
CONTINUOUS
 62
1
100
AcDbLine
 10
141.0197388902399
 20
65.36785968506965
 30
0.0000000000000000
 11
141.0197388902399
 21
67.24996386867298
 31
0.0000000000000000
  0
LINE
  5
B6
100
AcDbEntity
  8
A10
  6
CONTINUOUS
 62
1
100
AcDbLine
 10
141.0197388902399
 20
67.24996386867298
 30
0.0000000000000000
 11
140.6864095714979
 21
67.24996386867298
 31
0.0000000000000000
  0
LINE
  5
B7
100
AcDbEntity
  8
A10
  6
CONTINUOUS
 62
1
100
AcDbLine
 10
141.6863975277241
 20
69.44138577890624
 30
0.0000000000000000
 11
141.6863975277241
 21
65.26755190036053
 31
0.0000000000000000
  0
LINE
  5
B8
100
AcDbEntity
  8
A10
  6
CONTINUOUS
 62
1
100
AcDbLine
 10
142.3530561652081
 20
69.12731453418465
 30
0.0000000000000000
 11
142.3530561652081
 21
67.58329318741508
 31
0.0000000000000000
  0
ARC
  5
B9
100
AcDbEntity
  8
A10
  6
CONTINUOUS
 62
1
100
AcDbCircle
 10
142.6863854839501
 20
67.58329318741508
 30
0.0000000000000000
 40
0.3333293187420467
100
AcDbArc
 50
180.0000000000000
 51
360.0000000000000
  0
LINE
  5
BA
100
AcDbEntity
  8
A10
  6
CONTINUOUS
 62
1
100
AcDbLine
 10
143.0197148026922
 20
67.58329318741508
 30
0.0000000000000000
 11
143.0197148026922
 21
69.00747852068594
 31
0.0000000000000000
  0
LINE
  5
BB
100
AcDbEntity
  8
A10
  6
CONTINUOUS
 62
1
100
AcDbLine
 10
142.6863854839501
 20
67.24996386867298
 30
0.0000000000000000
 11
142.6863854839501
 21
65.65090911303534
 31
0.0000000000000000
  0
LINE
  5
BC
100
AcDbEntity
  8
A10
  6
CONTINUOUS
 62
1
100
AcDbLine
 10
143.3591542026249
 20
66.00243486653615
 30
0.0000000000000000
 11
144.1122521327801
 21
68.81303460494091
 31
0.0000000000000000
  0
LINE
  5
BD
100
AcDbEntity
  8
A10
  6
CONTINUOUS
 62
1
100
AcDbLine
 10
145.0711632149175
 20
67.24996386867298
 30
0.0000000000000000
 11
143.6934285912830
 21
67.24996386867298
 31
0.0000000000000000
  0
MTEXT
  5
BE
100
AcDbEntity
  8
A20
  6
CONTINUOUS
 62
1
100
AcDbMText
 10
127.8030922965985
 20
62.74999999999994
 30
0.0000000000000000
 40
3.000000000000000
 41
0.0000000000000000
 44
0.2240000009536743
 71
     1
 72
     1
  1
{\H0.90x;{TOCHIGIYA}}
 11
1.000000000000000
 21
0.0000000000000000
 31
0.0000000000000000
  7
STANDARD
  0
CIRCLE
  5
BF
100
AcDbEntity
  8
A10
  6
CONTINUOUS
 62
7
100
AcDbCircle
 10
285.3530922965297
 20
144.6000000000003
 30
0.0000000000000000
 40
4.000000000000000
  0
LINE
  5
C0
100
AcDbEntity
  8
A2
  6
CONTINUOUS
 62
7
100
AcDbLine
 10
162.6530922965298
 20
132.5999999999916
 30
0.0000000000000000
 11
162.6530922965298
 21
132.8999999999919
 31
0.0000000000000000
  0
LINE
  5
C1
100
AcDbEntity
  8
A2
  6
CONTINUOUS
 62
7
100
AcDbLine
 10
163.8530922965297
 20
131.7999999999916
 30
0.0000000000000000
 11
163.4530922965296
 21
131.7999999999916
 31
0.0000000000000000
  0
LINE
  5
C2
100
AcDbEntity
  8
A2
  6
CONTINUOUS
 62
7
100
AcDbLine
 10
163.4530922965296
 20
157.3999999999916
 30
0.0000000000000000
 11
163.8530922965297
 21
157.3999999999916
 31
0.0000000000000000
  0
LINE
  5
C3
100
AcDbEntity
  8
A2
  6
CONTINUOUS
 62
7
100
AcDbLine
 10
162.6530922965298
 20
156.2999999999915
 30
0.0000000000000000
 11
162.6530922965298
 21
156.5999999999916
 31
0.0000000000000000
  0
LINE
  5
C4
100
AcDbEntity
  8
A2
  6
CONTINUOUS
 62
7
100
AcDbLine
 10
117.6530922965299
 20
156.5999999999912
 30
0.0000000000000000
 11
117.6530922965299
 21
156.2999999999915
 31
0.0000000000000000
  0
LINE
  5
C5
100
AcDbEntity
  8
A2
  6
CONTINUOUS
 62
7
100
AcDbLine
 10
117.6530922965299
 20
132.8999999999920
 30
0.0000000000000000
 11
117.6530922965299
 21
132.5999999999919
 31
0.0000000000000000
  0
LINE
  5
C6
100
AcDbEntity
  8
A2
  6
CONTINUOUS
 62
7
100
AcDbLine
 10
162.6530922965298
 20
156.2999999999915
 30
0.0000000000000000
 11
162.6530922965298
 21
132.8999999999919
 31
0.0000000000000000
  0
LINE
  5
C7
100
AcDbEntity
  8
A2
  6
CONTINUOUS
 62
7
100
AcDbLine
 10
189.2530922965298
 20
140.5999999999916
 30
0.0000000000000000
 11
170.0530922965297
 21
140.5999999999916
 31
0.0000000000000000
  0
LINE
  5
C8
100
AcDbEntity
  8
A2
  6
CONTINUOUS
 62
7
100
AcDbLine
 10
189.2530922965298
 20
148.5999999999916
 30
0.0000000000000000
 11
170.0530922965297
 21
148.5999999999916
 31
0.0000000000000000
  0
LINE
  5
C9
100
AcDbEntity
  8
A2
  6
CONTINUOUS
 62
7
100
AcDbLine
 10
117.6530922965299
 20
144.5999999999916
 30
0.0000000000000000
 11
91.78506145629082
 21
144.5999999999916
 31
0.0000000000000000
  0
LINE
  5
CA
100
AcDbEntity
  8
A2
  6
CONTINUOUS
 62
7
100
AcDbLine
 10
165.8530922965297
 20
140.8499999999916
 30
0.0000000000000000
 11
166.3530922965297
 21
140.8499999999916
 31
0.0000000000000000
  0
LINE
  5
CB
100
AcDbEntity
  8
A2
  6
CONTINUOUS
 62
7
100
AcDbLine
 10
166.3530922965297
 20
140.8499999999916
 30
0.0000000000000000
 11
166.3530922965297
 21
141.8499999999916
 31
0.0000000000000000
  0
LINE
  5
CC
100
AcDbEntity
  8
A2
  6
CONTINUOUS
 62
7
100
AcDbLine
 10
166.3530922965297
 20
147.3499999999916
 30
0.0000000000000000
 11
166.3530922965297
 21
148.3499999999916
 31
0.0000000000000000
  0
LINE
  5
CD
100
AcDbEntity
  8
A2
  6
CONTINUOUS
 62
7
100
AcDbLine
 10
104.4530922965296
 20
139.5999999999916
 30
0.0000000000000000
 11
101.9530922965296
 21
139.5999999999916
 31
0.0000000000000000
  0
LINE
  5
CE
100
AcDbEntity
  8
A2
  6
CONTINUOUS
 62
7
100
AcDbLine
 10
104.4530922965296
 20
150.7451362766676
 30
0.0000000000000000
 11
104.4530922965296
 21
145.9999999999916
 31
0.0000000000000000
  0
LINE
  5
CF
100
AcDbEntity
  8
A2
  6
CONTINUOUS
 62
7
100
AcDbLine
 10
163.8530922965297
 20
131.5999999999916
 30
0.0000000000000000
 11
163.8530922965297
 21
157.5999999999916
 31
0.0000000000000000
  0
LINE
  5
D0
100
AcDbEntity
  8
A2
  6
CONTINUOUS
 62
7
100
AcDbLine
 10
165.8530922965306
 20
131.5999999999915
 30
0.0000000000000000
 11
165.8530922965297
 21
157.5999999999916
 31
0.0000000000000000
  0
LINE
  5
D1
100
AcDbEntity
  8
A2
  6
CONTINUOUS
 62
7
100
AcDbLine
 10
162.6530922965300
 20
132.8999999999920
 30
0.0000000000000000
 11
117.6530922965300
 21
132.8999999999920
 31
0.0000000000000000
  0
LINE
  5
D2
100
AcDbEntity
  8
A2
  6
CONTINUOUS
 62
7
100
AcDbLine
 10
116.3530922965297
 20
157.5999999999916
 30
0.0000000000000000
 11
116.3530922965297
 21
145.9999999999916
 31
0.0000000000000000
  0
LINE
  5
D3
100
AcDbEntity
  8
A2
  6
CONTINUOUS
 62
7
100
AcDbLine
 10
117.6530922965301
 20
156.2999999999915
 30
0.0000000000000000
 11
162.6530922965300
 21
156.2999999999915
 31
0.0000000000000000
  0
LINE
  5
D4
100
AcDbEntity
  8
A2
  6
CONTINUOUS
 62
7
100
AcDbLine
 10
117.6530922965299
 20
132.8999999999920
 30
0.0000000000000000
 11
117.6530922965299
 21
156.2999999999915
 31
0.0000000000000000
  0
LINE
  5
D5
100
AcDbEntity
  8
A2
  6
CONTINUOUS
 62
7
100
AcDbLine
 10
113.4530922965296
 20
131.5999999999916
 30
0.0000000000000000
 11
113.4530922965296
 21
139.5999999999916
 31
0.0000000000000000
  0
LINE
  5
D6
100
AcDbEntity
  8
A2
  6
CONTINUOUS
 62
7
100
AcDbLine
 10
163.8530922965297
 20
157.5999999999916
 30
0.0000000000000000
 11
112.3530922965297
 21
157.5999999999916
 31
0.0000000000000000
  0
LINE
  5
D7
100
AcDbEntity
  8
A2
  6
CONTINUOUS
 62
7
100
AcDbLine
 10
112.3530922965297
 20
157.5999999999916
 30
0.0000000000000000
 11
112.3530922965297
 21
159.5999999999917
 31
0.0000000000000000
  0
LINE
  5
D8
100
AcDbEntity
  8
A2
  6
CONTINUOUS
 62
7
100
AcDbLine
 10
163.8530922965297
 20
159.5999999999917
 30
0.0000000000000000
 11
112.3530922965297
 21
159.5999999999917
 31
0.0000000000000000
  0
LINE
  5
D9
100
AcDbEntity
  8
A2
  6
CONTINUOUS
 62
7
100
AcDbLine
 10
112.3530922965298
 20
131.5999999999920
 30
0.0000000000000000
 11
163.8530922965298
 21
131.5999999999915
 31
0.0000000000000000
  0
LINE
  5
DA
100
AcDbEntity
  8
A2
  6
CONTINUOUS
 62
7
100
AcDbLine
 10
101.9530922965296
 20
149.5999999999916
 30
0.0000000000000000
 11
104.4530922965296
 21
149.5999999999916
 31
0.0000000000000000
  0
LINE
  5
DB
100
AcDbEntity
  8
A2
  6
CONTINUOUS
 62
7
100
AcDbLine
 10
101.4530922965296
 20
140.0999999999916
 30
0.0000000000000000
 11
101.4530922965296
 21
143.1999999999916
 31
0.0000000000000000
  0
LINE
  5
DC
100
AcDbEntity
  8
A2
  6
CONTINUOUS
 62
7
100
AcDbLine
 10
101.9530922965297
 20
149.5999999999916
 30
0.0000000000000000
 11
101.4530922965296
 21
149.0999999999915
 31
0.0000000000000000
  0
LINE
  5
DD
100
AcDbEntity
  8
A2
  6
CONTINUOUS
 62
7
100
AcDbLine
 10
101.4530922965296
 20
140.0999999999916
 30
0.0000000000000000
 11
101.9530922965297
 21
139.5999999999914
 31
0.0000000000000000
  0
LINE
  5
DE
100
AcDbEntity
  8
A2
  6
CONTINUOUS
 62
7
100
AcDbLine
 10
101.9530922965296
 20
139.5999999999916
 30
0.0000000000000000
 11
101.9530922965296
 21
143.1999999999916
 31
0.0000000000000000
  0
LINE
  5
DF
100
AcDbEntity
  8
A2
  6
CONTINUOUS
 62
7
100
AcDbLine
 10
166.3530922965297
 20
148.3499999999916
 30
0.0000000000000000
 11
165.8530922965297
 21
148.3499999999916
 31
0.0000000000000000
  0
LINE
  5
E0
100
AcDbEntity
  8
A2
  6
CONTINUOUS
 62
7
100
AcDbLine
 10
196.8530922965306
 20
141.0999999999916
 30
0.0000000000000000
 11
196.8530922965306
 21
148.0999999999916
 31
0.0000000000000000
  0
LINE
  5
E1
100
AcDbEntity
  8
A2
  6
CONTINUOUS
 62
7
100
AcDbLine
 10
105.2530922965307
 20
136.5999999999916
 30
0.0000000000000000
 11
104.4530922965296
 21
136.5999999999916
 31
0.0000000000000000
  0
LINE
  5
E2
100
AcDbEntity
  8
A2
  6
CONTINUOUS
 62
7
100
AcDbLine
 10
105.2530922965307
 20
136.5999999999916
 30
0.0000000000000000
 11
105.2530922965307
 21
139.5999999999916
 31
0.0000000000000000
  0
LINE
  5
E3
100
AcDbEntity
  8
A2
  6
CONTINUOUS
 62
7
100
AcDbLine
 10
105.2530922965307
 20
149.5999999999916
 30
0.0000000000000000
 11
113.4530922965296
 21
149.5999999999916
 31
0.0000000000000000
  0
LINE
  5
E4
100
AcDbEntity
  8
A2
  6
CONTINUOUS
 62
7
100
AcDbLine
 10
113.4530922965296
 20
149.5999999999916
 30
0.0000000000000000
 11
113.4530922965296
 21
157.5999999999916
 31
0.0000000000000000
  0
LINE
  5
E5
100
AcDbEntity
  8
A2
  6
CONTINUOUS
 62
7
100
AcDbLine
 10
105.2530922965307
 20
149.5999999999916
 30
0.0000000000000000
 11
105.2530922965307
 21
150.7451362766670
 31
0.0000000000000000
  0
LINE
  5
E6
100
AcDbEntity
  8
A2
  6
CONTINUOUS
 62
7
100
AcDbLine
 10
105.2530922965307
 20
139.5999999999916
 30
0.0000000000000000
 11
113.4530922965296
 21
139.5999999999916
 31
0.0000000000000000
  0
LINE
  5
E7
100
AcDbEntity
  8
A2
  6
CONTINUOUS
 62
7
100
AcDbLine
 10
113.4530922965296
 20
139.5999999999916
 30
0.0000000000000000
 11
113.4530922965296
 21
143.1999999999916
 31
0.0000000000000000
  0
LINE
  5
E8
100
AcDbEntity
  8
A2
  6
CONTINUOUS
 62
7
100
AcDbLine
 10
105.2530922965307
 20
139.5999999999916
 30
0.0000000000000000
 11
105.2530922965307
 21
143.1999999999916
 31
0.0000000000000000
  0
LINE
  5
E9
100
AcDbEntity
  8
A2
  6
PHANTOM
 62
1
100
AcDbLine
 10
202.8530922965306
 20
141.0999999999916
 30
0.0000000000000000
 11
202.8530922965306
 21
148.0999999999916
 31
0.0000000000000000
  0
LINE
  5
EA
100
AcDbEntity
  8
A2
  6
PHANTOM
 62
1
100
AcDbLine
 10
202.3530922965306
 20
148.5999999999916
 30
0.0000000000000000
 11
196.8530922965306
 21
148.5999999999916
 31
0.0000000000000000
  0
LINE
  5
EB
100
AcDbEntity
  8
A2
  6
PHANTOM
 62
1
100
AcDbLine
 10
202.3530922965306
 20
140.5999999999916
 30
0.0000000000000000
 11
196.8530922965306
 21
140.5999999999916
 31
0.0000000000000000
  0
LINE
  5
EC
100
AcDbEntity
  8
A2
  6
CONTINUOUS
 62
7
100
AcDbLine
 10
196.3530922965306
 20
148.5999999999916
 30
0.0000000000000000
 11
191.8530922965306
 21
148.5999999999916
 31
0.0000000000000000
  0
LINE
  5
ED
100
AcDbEntity
  8
A2
  6
CONTINUOUS
 62
7
100
AcDbLine
 10
196.3530922965306
 20
140.5999999999916
 30
0.0000000000000000
 11
191.8530922965306
 21
140.5999999999916
 31
0.0000000000000000
  0
LINE
  5
EE
100
AcDbEntity
  8
A2
  6
CONTINUOUS
 62
7
100
AcDbLine
 10
101.4530922965296
 20
145.9999999999916
 30
0.0000000000000000
 11
101.4530922965296
 21
149.0999999999916
 31
0.0000000000000000
  0
LINE
  5
EF
100
AcDbEntity
  8
A2
  6
CONTINUOUS
 62
7
100
AcDbLine
 10
101.9530922965296
 20
145.9999999999916
 30
0.0000000000000000
 11
101.9530922965296
 21
149.5999999999916
 31
0.0000000000000000
  0
LINE
  5
F0
100
AcDbEntity
  8
A2
  6
CONTINUOUS
 62
7
100
AcDbLine
 10
105.2530922965307
 20
145.9999999999916
 30
0.0000000000000000
 11
105.2530922965307
 21
149.5999999999916
 31
0.0000000000000000
  0
LINE
  5
F1
100
AcDbEntity
  8
A2
  6
CONTINUOUS
 62
7
100
AcDbLine
 10
113.4530922965296
 20
145.9999999999916
 30
0.0000000000000000
 11
113.4530922965296
 21
149.5999999999916
 31
0.0000000000000000
  0
LINE
  5
F2
100
AcDbEntity
  8
A2
  6
CONTINUOUS
 62
7
100
AcDbLine
 10
116.3530922965297
 20
143.1999999999916
 30
0.0000000000000000
 11
116.3530922965297
 21
131.5999999999916
 31
0.0000000000000000
  0
LINE
  5
F3
100
AcDbEntity
  8
A2
  6
CONTINUOUS
 62
7
100
AcDbLine
 10
104.4530922965296
 20
143.1999999999916
 30
0.0000000000000000
 11
104.4530922965296
 21
136.5999999999916
 31
0.0000000000000000
  0
LINE
  5
F4
100
AcDbEntity
  8
A2
  6
CONTINUOUS
 62
7
100
AcDbLine
 10
69.11703061605159
 20
143.1999999999916
 30
0.0000000000000000
 11
89.78506145629082
 21
143.1999999999916
 31
0.0000000000000000
  0
LINE
  5
F5
100
AcDbEntity
  8
A2
  6
CONTINUOUS
 62
7
100
AcDbLine
 10
89.78506145629082
 20
144.5999999999916
 30
0.0000000000000000
 11
69.11703061605159
 21
144.5999999999916
 31
0.0000000000000000
  0
LINE
  5
F6
100
AcDbEntity
  8
A2
  6
CONTINUOUS
 62
7
100
AcDbLine
 10
89.78506145629082
 20
145.9999999999916
 30
0.0000000000000000
 11
69.11703061605159
 21
145.9999999999916
 31
0.0000000000000000
  0
LINE
  5
F7
100
AcDbEntity
  8
A2
  6
CONTINUOUS
 62
7
100
AcDbLine
 10
50.91703061605160
 20
148.5999999999916
 30
0.0000000000000000
 11
50.91703061605159
 21
140.5999999999916
 31
0.0000000000000000
  0
LINE
  5
F8
100
AcDbEntity
  8
A2
  6
CONTINUOUS
 62
7
100
AcDbLine
 10
112.3530922965297
 20
131.5999999999920
 30
0.0000000000000000
 11
112.3530922965297
 21
129.5999999999916
 31
0.0000000000000000
  0
ARC
  5
F9
100
AcDbEntity
  8
A2
  6
CONTINUOUS
 62
7
100
AcDbCircle
 10
163.4530922965296
 20
132.5999999999916
 30
0.0000000000000000
 40
0.7999999999997272
100
AcDbArc
 50
180.0000000000000
 51
270.0000000000000
  0
ARC
  5
FA
100
AcDbEntity
  8
A2
  6
CONTINUOUS
 62
7
100
AcDbCircle
 10
163.4530922965296
 20
156.5999999999916
 30
0.0000000000000000
 40
0.7999999999999972
100
AcDbArc
 50
90.00000000000000
 51
180.0000000000000
  0
ARC
  5
FB
100
AcDbEntity
  8
A2
  6
CONTINUOUS
 62
7
100
AcDbCircle
 10
116.6530922965299
 20
156.5999999999912
 30
0.0000000000000000
 40
1.000000000000000
100
AcDbArc
 50
0.0000000000000000
 51
90.00000000000000
  0
ARC
  5
FC
100
AcDbEntity
  8
A2
  6
CONTINUOUS
 62
7
100
AcDbCircle
 10
116.6530922965299
 20
132.5999999999919
 30
0.0000000000000000
 40
1.000000000000000
100
AcDbArc
 50
270.0000000000000
 51
360.0000000000000
  0
CIRCLE
  5
FD
100
AcDbEntity
  8
A2
  6
CONTINUOUS
 62
7
100
AcDbCircle
 10
105.5530922965309
 20
149.8999999999918
 30
0.0000000000000000
 40
0.3000000000001819
  0
CIRCLE
  5
FE
100
AcDbEntity
  8
A2
  6
CONTINUOUS
 62
7
100
AcDbCircle
 10
105.5530922965309
 20
139.2999999999914
 30
0.0000000000000000
 40
0.2999999999997272
  0
CIRCLE
  5
FF
100
AcDbEntity
  8
A2
  6
CONTINUOUS
 62
7
100
AcDbCircle
 10
113.1772139933946
 20
133.8782904728158
 30
0.0000000000000000
 40
0.3000000000001819
  0
CIRCLE
  5
100
100
AcDbEntity
  8
A2
  6
CONTINUOUS
 62
7
100
AcDbCircle
 10
113.1772139933946
 20
155.3217095271674
 30
0.0000000000000000
 40
0.3000000000001819
  0
ARC
  5
101
100
AcDbEntity
  8
A2
  6
CONTINUOUS
 62
7
100
AcDbCircle
 10
163.8530922965297
 20
131.5999999999916
 30
0.0000000000000000
 40
2.000000000000000
100
AcDbArc
 50
270.0000000000259
 51
359.9999999999984
  0
ARC
  5
102
100
AcDbEntity
  8
A2
  6
CONTINUOUS
 62
7
100
AcDbCircle
 10
163.8530922965297
 20
157.5999999999916
 30
0.0000000000000000
 40
2.000000000000000
100
AcDbArc
 50
1.630000000000000e-12
 51
90.00000000000000
  0
LINE
  5
103
100
AcDbEntity
  8
A2
  6
CONTINUOUS
 62
7
100
AcDbLine
 10
112.3530922965297
 20
129.5999999999916
 30
0.0000000000000000
 11
163.8530922965306
 21
129.5999999999916
 31
0.0000000000000000
  0
LINE
  5
104
100
AcDbEntity
  8
A10
  6
CENTER
 62
1
100
AcDbLine
 10
113.1772139933947
 20
133.8782904728158
 30
0.0000000000000000
 11
105.5530922965309
 21
139.2999999999914
 31
0.0000000000000000
  0
LINE
  5
105
100
AcDbEntity
  8
A10
  6
CENTER
 62
1
100
AcDbLine
 10
105.5530922965308
 20
149.8999999999917
 30
0.0000000000000000
 11
113.1772139933946
 21
155.3217095271674
 31
0.0000000000000000
  0
CIRCLE
  5
106
100
AcDbEntity
  8
A10
  6
CONTINUOUS
 62
7
100
AcDbCircle
 10
155.8530922965297
 20
53.49999999999997
 30
0.0000000000000000
 40
3.000000000000000
  0
LINE
  5
107
100
AcDbEntity
  8
A10
  6
CONTINUOUS
 62
7
100
AcDbLine
 10
155.1611300298519
 20
54.19196226667770
 30
0.0000000000000000
 11
155.3251018502601
 21
54.56024900519858
 31
0.0000000000000000
  0
LINE
  5
108
100
AcDbEntity
  8
A10
  6
CONTINUOUS
 62
7
100
AcDbLine
 10
155.1611300298519
 20
54.19196226667770
 30
0.0000000000000000
 11
154.7928432913305
 21
54.02799044626931
 31
0.0000000000000000
  0
LINE
  5
109
100
AcDbEntity
  8
A10
  6
CONTINUOUS
 62
7
100
AcDbLine
 10
155.3251018502601
 20
54.56024900519854
 30
0.0000000000000000
 11
155.3366935200426
 21
55.22433532227425
 31
0.0000000000000000
  0
LINE
  5
10A
100
AcDbEntity
  8
A10
  6
CONTINUOUS
 62
7
100
AcDbLine
 10
154.7928432913304
 20
54.02799044626929
 30
0.0000000000000000
 11
154.1287569742553
 21
54.01639877648687
 31
0.0000000000000000
  0
LINE
  5
10B
100
AcDbEntity
  8
A10
  6
CONTINUOUS
 62
7
100
AcDbLine
 10
156.3810827427993
 20
54.56024900519873
 30
0.0000000000000000
 11
156.3694910730168
 21
55.22433532227429
 31
0.0000000000000000
  0
LINE
  5
10C
100
AcDbEntity
  8
A10
  6
CONTINUOUS
 62
7
100
AcDbLine
 10
156.5450545632075
 20
54.19196226667775
 30
0.0000000000000000
 11
156.3810827427993
 21
54.56024900519877
 31
0.0000000000000000
  0
LINE
  5
10D
100
AcDbEntity
  8
A10
  6
CONTINUOUS
 62
7
100
AcDbLine
 10
156.5450545632075
 20
54.19196226667774
 30
0.0000000000000000
 11
156.9133413017290
 21
54.02799044626926
 31
0.0000000000000000
  0
LINE
  5
10E
100
AcDbEntity
  8
A10
  6
CONTINUOUS
 62
7
100
AcDbLine
 10
156.9133413017290
 20
54.02799044626924
 30
0.0000000000000000
 11
157.5774276188040
 21
54.01639877648683
 31
0.0000000000000000
  0
LINE
  5
10F
100
AcDbEntity
  8
A10
  6
CONTINUOUS
 62
7
100
AcDbLine
 10
156.9133413017285
 20
52.97200955373039
 30
0.0000000000000000
 11
157.5774276188040
 21
52.98360122351285
 31
0.0000000000000000
  0
LINE
  5
110
100
AcDbEntity
  8
A10
  6
CONTINUOUS
 62
7
100
AcDbLine
 10
156.5450545632075
 20
52.80803773332211
 30
0.0000000000000000
 11
156.9133413017285
 21
52.97200955373040
 31
0.0000000000000000
  0
LINE
  5
111
100
AcDbEntity
  8
A10
  6
CONTINUOUS
 62
7
100
AcDbLine
 10
156.5450545632075
 20
52.80803773332209
 30
0.0000000000000000
 11
156.3810827427990
 21
52.43975099480055
 31
0.0000000000000000
  0
LINE
  5
112
100
AcDbEntity
  8
A10
  6
CONTINUOUS
 62
7
100
AcDbLine
 10
156.3810827427990
 20
52.43975099480061
 30
0.0000000000000000
 11
156.3694910730165
 21
51.77566467772554
 31
0.0000000000000000
  0
LINE
  5
113
100
AcDbEntity
  8
A10
  6
CONTINUOUS
 62
7
100
AcDbLine
 10
155.3251018502600
 20
52.43975099480127
 30
0.0000000000000000
 11
155.3366935200426
 21
51.77566467772569
 31
0.0000000000000000
  0
LINE
  5
114
100
AcDbEntity
  8
A10
  6
CONTINUOUS
 62
7
100
AcDbLine
 10
155.1611300298519
 20
52.80803773332219
 30
0.0000000000000000
 11
155.3251018502601
 21
52.43975099480128
 31
0.0000000000000000
  0
LINE
  5
115
100
AcDbEntity
  8
A10
  6
CONTINUOUS
 62
7
100
AcDbLine
 10
155.1611300298520
 20
52.80803773332217
 30
0.0000000000000000
 11
154.7928432913304
 21
52.97200955373064
 31
0.0000000000000000
  0
LINE
  5
116
100
AcDbEntity
  8
A10
  6
CONTINUOUS
 62
7
100
AcDbLine
 10
154.7928432913304
 20
52.97200955373071
 30
0.0000000000000000
 11
154.1287569742554
 21
52.98360122351304
 31
0.0000000000000000
  0
ARC
  5
117
100
AcDbEntity
  8
A10
  6
CONTINUOUS
 62
7
100
AcDbCircle
 10
155.8530922965297
 20
53.49999999999997
 30
0.0000000000000000
 40
1.800000000000000
100
AcDbArc
 50
343.3282509640041
 51
376.6717490359751
  0
ARC
  5
118
100
AcDbEntity
  8
A10
  6
CONTINUOUS
 62
7
100
AcDbCircle
 10
155.8530922965297
 20
53.49999999999997
 30
0.0000000000000000
 40
1.800000000000000
100
AcDbArc
 50
253.3282509640079
 51
286.6717490359734
  0
ARC
  5
119
100
AcDbEntity
  8
A10
  6
CONTINUOUS
 62
7
100
AcDbCircle
 10
155.8530922965297
 20
53.49999999999997
 30
0.0000000000000000
 40
1.800000000000000
100
AcDbArc
 50
73.32825096401452
 51
106.6717490359855
  0
ARC
  5
11A
100
AcDbEntity
  8
A10
  6
CONTINUOUS
 62
7
100
AcDbCircle
 10
155.8530922965297
 20
53.49999999999997
 30
0.0000000000000000
 40
1.800000000000000
100
AcDbArc
 50
163.3282509640185
 51
196.6717490359765
  0
CIRCLE
  5
11B
100
AcDbEntity
  8
A10
  6
CONTINUOUS
 62
7
100
AcDbCircle
 10
125.8530922965210
 20
73.50000000000003
 30
0.0000000000000000
 40
3.000000000000000
  0
LINE
  5
11C
100
AcDbEntity
  8
A10
  6
CONTINUOUS
 62
7
100
AcDbLine
 10
125.1611300298433
 20
74.19196226667776
 30
0.0000000000000000
 11
125.3251018502515
 21
74.56024900519864
 31
0.0000000000000000
  0
LINE
  5
11D
100
AcDbEntity
  8
A10
  6
CONTINUOUS
 62
7
100
AcDbLine
 10
125.1611300298433
 20
74.19196226667776
 30
0.0000000000000000
 11
124.7928432913218
 21
74.02799044626937
 31
0.0000000000000000
  0
LINE
  5
11E
100
AcDbEntity
  8
A10
  6
CONTINUOUS
 62
7
100
AcDbLine
 10
125.3251018502515
 20
74.56024900519861
 30
0.0000000000000000
 11
125.3366935200340
 21
75.22433532227433
 31
0.0000000000000000
  0
LINE
  5
11F
100
AcDbEntity
  8
A10
  6
CONTINUOUS
 62
7
100
AcDbLine
 10
124.7928432913217
 20
74.02799044626933
 30
0.0000000000000000
 11
124.1287569742467
 21
74.01639877648691
 31
0.0000000000000000
  0
LINE
  5
120
100
AcDbEntity
  8
A10
  6
CONTINUOUS
 62
7
100
AcDbLine
 10
126.3810827427907
 20
74.56024900519880
 30
0.0000000000000000
 11
126.3694910730082
 21
75.22433532227431
 31
0.0000000000000000
  0
LINE
  5
121
100
AcDbEntity
  8
A10
  6
CONTINUOUS
 62
7
100
AcDbLine
 10
126.5450545631989
 20
74.19196226667781
 30
0.0000000000000000
 11
126.3810827427906
 21
74.56024900519884
 31
0.0000000000000000
  0
LINE
  5
122
100
AcDbEntity
  8
A10
  6
CONTINUOUS
 62
7
100
AcDbLine
 10
126.5450545631989
 20
74.19196226667781
 30
0.0000000000000000
 11
126.9133413017204
 21
74.02799044626933
 31
0.0000000000000000
  0
LINE
  5
123
100
AcDbEntity
  8
A10
  6
CONTINUOUS
 62
7
100
AcDbLine
 10
126.9133413017203
 20
74.02799044626930
 30
0.0000000000000000
 11
127.5774276187953
 21
74.01639877648689
 31
0.0000000000000000
  0
LINE
  5
124
100
AcDbEntity
  8
A10
  6
CONTINUOUS
 62
7
100
AcDbLine
 10
126.9133413017198
 20
72.97200955373046
 30
0.0000000000000000
 11
127.5774276187953
 21
72.98360122351292
 31
0.0000000000000000
  0
LINE
  5
125
100
AcDbEntity
  8
A10
  6
CONTINUOUS
 62
7
100
AcDbLine
 10
126.5450545631988
 20
72.80803773332215
 30
0.0000000000000000
 11
126.9133413017198
 21
72.97200955373044
 31
0.0000000000000000
  0
LINE
  5
126
100
AcDbEntity
  8
A10
  6
CONTINUOUS
 62
7
100
AcDbLine
 10
126.5450545631988
 20
72.80803773332212
 30
0.0000000000000000
 11
126.3810827427903
 21
72.43975099480065
 31
0.0000000000000000
  0
LINE
  5
127
100
AcDbEntity
  8
A10
  6
CONTINUOUS
 62
7
100
AcDbLine
 10
126.3810827427903
 20
72.43975099480068
 30
0.0000000000000000
 11
126.3694910730079
 21
71.77566467772557
 31
0.0000000000000000
  0
LINE
  5
128
100
AcDbEntity
  8
A10
  6
CONTINUOUS
 62
7
100
AcDbLine
 10
125.3251018502515
 20
72.43975099480134
 30
0.0000000000000000
 11
125.3366935200340
 21
71.77566467772574
 31
0.0000000000000000
  0
LINE
  5
129
100
AcDbEntity
  8
A10
  6
CONTINUOUS
 62
7
100
AcDbLine
 10
125.1611300298433
 20
72.80803773332224
 30
0.0000000000000000
 11
125.3251018502514
 21
72.43975099480133
 31
0.0000000000000000
  0
LINE
  5
12A
100
AcDbEntity
  8
A10
  6
CONTINUOUS
 62
7
100
AcDbLine
 10
125.1611300298433
 20
72.80803773332221
 30
0.0000000000000000
 11
124.7928432913218
 21
72.97200955373069
 31
0.0000000000000000
  0
LINE
  5
12B
100
AcDbEntity
  8
A10
  6
CONTINUOUS
 62
7
100
AcDbLine
 10
124.7928432913218
 20
72.97200955373077
 30
0.0000000000000000
 11
124.1287569742468
 21
72.98360122351311
 31
0.0000000000000000
  0
ARC
  5
12C
100
AcDbEntity
  8
A10
  6
CONTINUOUS
 62
7
100
AcDbCircle
 10
125.8530922965210
 20
73.50000000000003
 30
0.0000000000000000
 40
1.800000000000000
100
AcDbArc
 50
343.3282509640041
 51
376.6717490359751
  0
ARC
  5
12D
100
AcDbEntity
  8
A10
  6
CONTINUOUS
 62
7
100
AcDbCircle
 10
125.8530922965210
 20
73.50000000000003
 30
0.0000000000000000
 40
1.800000000000000
100
AcDbArc
 50
253.3282509640079
 51
286.6717490359734
  0
ARC
  5
12E
100
AcDbEntity
  8
A10
  6
CONTINUOUS
 62
7
100
AcDbCircle
 10
125.8530922965210
 20
73.50000000000003
 30
0.0000000000000000
 40
1.800000000000000
100
AcDbArc
 50
73.32825096401452
 51
106.6717490359855
  0
ARC
  5
12F
100
AcDbEntity
  8
A10
  6
CONTINUOUS
 62
7
100
AcDbCircle
 10
125.8530922965210
 20
73.50000000000003
 30
0.0000000000000000
 40
1.800000000000000
100
AcDbArc
 50
163.3282509640185
 51
196.6717490359765
  0
LINE
  5
130
100
AcDbEntity
  8
A2
  6
CONTINUOUS
 62
7
100
AcDbLine
 10
118.8530922965306
 20
49.99999999999997
 30
0.0000000000000000
 11
112.3530922965297
 21
49.99999999999997
 31
0.0000000000000000
  0
LINE
  5
131
100
AcDbEntity
  8
A2
  6
CONTINUOUS
 62
7
100
AcDbLine
 10
112.3530922965297
 20
71.28978583448813
 30
0.0000000000000000
 11
112.3530922965297
 21
76.99999999999974
 31
0.0000000000000000
  0
LINE
  5
132
100
AcDbEntity
  8
A2
  6
CONTINUOUS
 62
7
100
AcDbLine
 10
105.2530922965298
 20
55.49999999999997
 30
0.0000000000000000
 11
104.4530922965296
 21
55.49999999999997
 31
0.0000000000000000
  0
LINE
  5
133
100
AcDbEntity
  8
A2
  6
CONTINUOUS
 62
7
100
AcDbLine
 10
112.3530922965297
 20
49.99999999999997
 30
0.0000000000000000
 11
112.3530922965297
 21
55.71021416551091
 31
0.0000000000000000
  0
LINE
  5
134
100
AcDbEntity
  8
A2
  6
CONTINUOUS
 62
7
100
AcDbLine
 10
104.4530922965294
 20
55.49999999999989
 30
0.0000000000000000
 11
104.4530922965317
 21
71.50000000000036
 31
0.0000000000000000
  0
LINE
  5
135
100
AcDbEntity
  8
A2
  6
CONTINUOUS
 62
7
100
AcDbLine
 10
104.4530922965319
 20
71.50000000000043
 30
0.0000000000000000
 11
105.2530922965307
 21
71.50000000000043
 31
0.0000000000000000
  0
LINE
  5
136
100
AcDbEntity
  8
A2
  6
CONTINUOUS
 62
7
100
AcDbLine
 10
113.4530922965296
 20
57.49999999999997
 30
0.0000000000000000
 11
113.4530922965296
 21
69.50000000000009
 31
0.0000000000000000
  0
LINE
  5
137
100
AcDbEntity
  8
A2
  6
CONTINUOUS
 62
7
100
AcDbLine
 10
116.3530922965297
 20
57.49999999999997
 30
0.0000000000000000
 11
113.4530922965296
 21
57.49999999999997
 31
0.0000000000000000
  0
LINE
  5
138
100
AcDbEntity
  8
A2
  6
CONTINUOUS
 62
7
100
AcDbLine
 10
116.3530922965297
 20
69.49999999999997
 30
0.0000000000000000
 11
116.3530922965297
 21
57.49999999999997
 31
0.0000000000000000
  0
LINE
  5
139
100
AcDbEntity
  8
A2
  6
CONTINUOUS
 62
7
100
AcDbLine
 10
113.4530922965298
 20
69.50000000000000
 30
0.0000000000000000
 11
116.3530922965299
 21
69.49999999999990
 31
0.0000000000000000
  0
LINE
  5
13A
100
AcDbEntity
  8
A2
  6
CONTINUOUS
 62
7
100
AcDbLine
 10
113.4530922965296
 20
70.65470053837879
 30
0.0000000000000000
 11
112.3530922965296
 21
71.28978583448793
 31
0.0000000000000000
  0
LINE
  5
13B
100
AcDbEntity
  8
A2
  6
CONTINUOUS
 62
7
100
AcDbLine
 10
112.3530922965297
 20
70.01961524226999
 30
0.0000000000000000
 11
113.4530922965295
 21
70.65470053837905
 31
0.0000000000000000
  0
LINE
  5
13C
100
AcDbEntity
  8
A2
  6
CONTINUOUS
 62
7
100
AcDbLine
 10
112.3530922965297
 20
68.86491470389113
 30
0.0000000000000000
 11
113.4530922965296
 21
69.49999999999990
 31
0.0000000000000000
  0
LINE
  5
13D
100
AcDbEntity
  8
A2
  6
CONTINUOUS
 62
7
100
AcDbLine
 10
113.4530922965297
 20
57.49999999999995
 30
0.0000000000000000
 11
112.3530922965298
 21
58.13508529610807
 31
0.0000000000000000
  0
LINE
  5
13E
100
AcDbEntity
  8
A2
  6
CONTINUOUS
 62
7
100
AcDbLine
 10
113.4530922965297
 20
56.34529946162003
 30
0.0000000000000000
 11
112.3530922965299
 21
56.98038475772816
 31
0.0000000000000000
  0
LINE
  5
13F
100
AcDbEntity
  8
A2
  6
CONTINUOUS
 62
7
100
AcDbLine
 10
112.3530922965298
 20
55.71021416551101
 30
0.0000000000000000
 11
113.4530922965295
 21
56.34529946162003
 31
0.0000000000000000
  0
LINE
  5
140
100
AcDbEntity
  8
A2
  6
CONTINUOUS
 62
7
100
AcDbLine
 10
112.3530922965297
 20
68.86491470389134
 30
0.0000000000000000
 11
112.3530922965297
 21
70.01961524226996
 31
0.0000000000000000
  0
LINE
  5
141
100
AcDbEntity
  8
A2
  6
CONTINUOUS
 62
7
100
AcDbLine
 10
112.3530922965297
 20
56.98038475772816
 30
0.0000000000000000
 11
112.3530922965297
 21
58.13508529610814
 31
0.0000000000000000
  0
LINE
  5
142
100
AcDbEntity
  8
A2
  6
CONTINUOUS
 62
7
100
AcDbLine
 10
101.9530922965296
 20
68.49999999999997
 30
0.0000000000000000
 11
104.4530922965319
 21
68.49999999999997
 31
0.0000000000000000
  0
LINE
  5
143
100
AcDbEntity
  8
A2
  6
CONTINUOUS
 62
7
100
AcDbLine
 10
101.4530922965296
 20
58.99999999999997
 30
0.0000000000000000
 11
101.4530922965296
 21
67.99999999999997
 31
0.0000000000000000
  0
LINE
  5
144
100
AcDbEntity
  8
A2
  6
CONTINUOUS
 62
7
100
AcDbLine
 10
104.4530922965319
 20
58.49999999999997
 30
0.0000000000000000
 11
101.9530922965296
 21
58.49999999999997
 31
0.0000000000000000
  0
LINE
  5
145
100
AcDbEntity
  8
A2
  6
CONTINUOUS
 62
7
100
AcDbLine
 10
101.9530922965296
 20
68.49999999999982
 30
0.0000000000000000
 11
101.4530922965297
 21
67.99999999999990
 31
0.0000000000000000
  0
LINE
  5
146
100
AcDbEntity
  8
A2
  6
CONTINUOUS
 62
7
100
AcDbLine
 10
101.4530922965296
 20
58.99999999999983
 30
0.0000000000000000
 11
101.9530922965295
 21
58.49999999999990
 31
0.0000000000000000
  0
LINE
  5
147
100
AcDbEntity
  8
A2
  6
CONTINUOUS
 62
7
100
AcDbLine
 10
101.9530922965296
 20
58.49999999999997
 30
0.0000000000000000
 11
101.9530922965296
 21
68.49999999999997
 31
0.0000000000000000
  0
LINE
  5
148
100
AcDbEntity
  8
A2
  6
CONTINUOUS
 62
7
100
AcDbLine
 10
105.2530922965307
 20
68.49999999999997
 30
0.0000000000000000
 11
113.4530922965296
 21
68.49999999999997
 31
0.0000000000000000
  0
LINE
  5
149
100
AcDbEntity
  8
A2
  6
CONTINUOUS
 62
7
100
AcDbLine
 10
105.2530922965300
 20
55.49999999999987
 30
0.0000000000000000
 11
105.2530922965309
 21
71.50000000000034
 31
0.0000000000000000
  0
LINE
  5
14A
100
AcDbEntity
  8
A2
  6
CONTINUOUS
 62
7
100
AcDbLine
 10
105.2530922965307
 20
58.49999999999997
 30
0.0000000000000000
 11
113.4530922965296
 21
58.49999999999997
 31
0.0000000000000000
  0
CIRCLE
  5
14B
100
AcDbEntity
  8
A2
  6
CONTINUOUS
 62
7
100
AcDbCircle
 10
105.5530922965309
 20
58.19999999999979
 30
0.0000000000000000
 40
0.2999999999997272
  0
CIRCLE
  5
14C
100
AcDbEntity
  8
A2
  6
CONTINUOUS
 62
7
100
AcDbCircle
 10
105.5530922965309
 20
68.80000000000015
 30
0.0000000000000000
 40
0.3000000000001819
  0
LINE
  5
14D
100
AcDbEntity
  8
A2
  6
CONTINUOUS
 62
7
100
AcDbLine
 10
196.3530922965306
 20
67.50000000000003
 30
0.0000000000000000
 11
191.8530922965306
 21
67.50000000000003
 31
0.0000000000000000
  0
LINE
  5
14E
100
AcDbEntity
  8
A2
  6
CONTINUOUS
 62
7
100
AcDbLine
 10
196.8530922965306
 20
60.00000000000003
 30
0.0000000000000000
 11
196.8530922965306
 21
67.00000000000003
 31
0.0000000000000000
  0
LINE
  5
14F
100
AcDbEntity
  8
A2
  6
CONTINUOUS
 62
7
100
AcDbLine
 10
196.3530922965306
 20
59.50000000000003
 30
0.0000000000000000
 11
191.8530922965306
 21
59.50000000000003
 31
0.0000000000000000
  0
LINE
  5
150
100
AcDbEntity
  8
A10
  6
CONTINUOUS
 62
7
100
AcDbLine
 10
104.4530922965296
 20
150.7451362766676
 30
0.0000000000000000
 11
105.2530922965261
 21
150.7451362766671
 31
0.0000000000000000
  0
LINE
  5
151
100
AcDbEntity
  8
A10
  6
CENTER
 62
1
100
AcDbLine
 10
105.5530922965309
 20
68.80000000000014
 30
0.0000000000000000
 11
112.3530922965297
 21
73.63565533849686
 31
0.0000000000000000
  0
LINE
  5
152
100
AcDbEntity
  8
A10
  6
CENTER
 62
1
100
AcDbLine
 10
112.3530922965297
 20
53.36434466150302
 30
0.0000000000000000
 11
105.5530922965308
 21
58.19999999999973
 31
0.0000000000000000
  0
LINE
  5
153
100
AcDbEntity
  8
A2
  6
CONTINUOUS
 62
7
100
AcDbLine
 10
166.3530922965297
 20
148.3499999999916
 30
0.0000000000000000
 11
166.3530922965297
 21
140.8499999999916
 31
0.0000000000000000
  0
LINE
  5
154
100
AcDbEntity
  8
A2
  6
CONTINUOUS
 62
7
100
AcDbLine
 10
166.3530922965297
 20
140.8499999999916
 30
0.0000000000000000
 11
166.3530922965297
 21
141.8499999999916
 31
0.0000000000000000
  0
LINE
  5
155
100
AcDbEntity
  8
A2
  6
CONTINUOUS
 62
7
100
AcDbLine
 10
169.5530922965297
 20
148.0999999999916
 30
0.0000000000000000
 11
169.5530922965297
 21
141.0999999999916
 31
0.0000000000000000
  0
LINE
  5
156
100
AcDbEntity
  8
A2
  6
CONTINUOUS
 62
7
100
AcDbLine
 10
166.3530922965297
 20
147.3499999999916
 30
0.0000000000000000
 11
166.3530922965297
 21
148.3499999999916
 31
0.0000000000000000
  0
LINE
  5
157
100
AcDbEntity
  8
A10
  6
CONTINUOUS
 62
7
100
AcDbLine
 10
166.3530922965297
 20
147.9999999999916
 30
0.0000000000000000
 11
166.3530922965297
 21
141.1999999999916
 31
0.0000000000000000
  0
LINE
  5
158
100
AcDbEntity
  8
A10
  6
CONTINUOUS
 62
7
100
AcDbLine
 10
169.1827498784411
 20
140.5585481156642
 30
0.0000000000000000
 11
166.7234347146183
 21
140.5585481156642
 31
0.0000000000000000
  0
LINE
  5
159
100
AcDbEntity
  8
A10
  6
CONTINUOUS
 62
7
100
AcDbLine
 10
169.1827498784411
 20
148.6414518843190
 30
0.0000000000000000
 11
166.7234347146183
 21
148.6414518843190
 31
0.0000000000000000
  0
LINE
  5
15A
100
AcDbEntity
  8
A10
  6
CONTINUOUS
 62
7
100
AcDbLine
 10
169.1670039620087
 20
146.6207259421556
 30
0.0000000000000000
 11
166.7391806310507
 21
146.6207259421556
 31
0.0000000000000000
  0
LINE
  5
15B
100
AcDbEntity
  8
A10
  6
CONTINUOUS
 62
7
100
AcDbLine
 10
169.1670039620087
 20
142.5792740578283
 30
0.0000000000000000
 11
166.7391806310507
 21
142.5792740578283
 31
0.0000000000000000
  0
LINE
  5
15C
100
AcDbEntity
  8
A10
  6
CONTINUOUS
 62
7
100
AcDbLine
 10
169.1827498784410
 20
140.5585481156642
 30
0.0000000000000000
 11
169.5530922965297
 21
141.1999999999916
 31
0.0000000000000000
  0
LINE
  5
15D
100
AcDbEntity
  8
A10
  6
CONTINUOUS
 62
7
100
AcDbLine
 10
169.1827498784412
 20
148.6414518843189
 30
0.0000000000000000
 11
169.5530922965297
 21
147.9999999999916
 31
0.0000000000000000
  0
ARC
  5
15E
100
AcDbEntity
  8
A10
  6
CONTINUOUS
 62
7
100
AcDbCircle
 10
164.0719664025841
 20
144.5999999999916
 30
0.0000000000000000
 40
5.481125893945600
100
AcDbArc
 50
338.3663922326448
 51
381.6336077673514
  0
ARC
  5
15F
100
AcDbEntity
  8
A10
  6
CONTINUOUS
 62
7
100
AcDbCircle
 10
168.0380276975982
 20
147.6310889132372
 30
0.0000000000000000
 40
1.515064598931407
100
AcDbArc
 50
318.1734519104670
 51
359.9999999994255
  0
ARC
  5
160
100
AcDbEntity
  8
A10
  6
CONTINUOUS
 62
7
100
AcDbCircle
 10
168.0380276975974
 20
141.5689110867463
 30
0.0000000000000000
 40
1.515064598932298
100
AcDbArc
 50
359.9999999994255
 51
401.8265480895158
  0
LINE
  5
161
100
AcDbEntity
  8
A10
  6
CONTINUOUS
 62
7
100
AcDbLine
 10
166.7234347146182
 20
148.6414518843189
 30
0.0000000000000000
 11
166.3530922965296
 21
147.9999999999916
 31
0.0000000000000000
  0
ARC
  5
162
100
AcDbEntity
  8
A10
  6
CONTINUOUS
 62
7
100
AcDbCircle
 10
167.8681568954611
 20
147.6310889132372
 30
0.0000000000000000
 40
1.515064598931407
100
AcDbArc
 50
180.0000000005678
 51
221.8265480895264
  0
ARC
  5
163
100
AcDbEntity
  8
A10
  6
CONTINUOUS
 62
7
100
AcDbCircle
 10
171.8342181904753
 20
144.5999999999916
 30
0.0000000000000000
 40
5.481125893945600
100
AcDbArc
 50
158.3663922326420
 51
201.6336077673485
  0
ARC
  5
164
100
AcDbEntity
  8
A10
  6
CONTINUOUS
 62
7
100
AcDbCircle
 10
167.8681568954620
 20
141.5689110867463
 30
0.0000000000000000
 40
1.515064598932298
100
AcDbArc
 50
138.1734519104775
 51
180.0000000005678
  0
LINE
  5
165
100
AcDbEntity
  8
A10
  6
CONTINUOUS
 62
7
100
AcDbLine
 10
166.7234347146184
 20
140.5585481156642
 30
0.0000000000000000
 11
166.3530922965298
 21
141.1999999999916
 31
0.0000000000000000
  0
LINE
  5
166
100
AcDbEntity
  8
A7
  6
CONTINUOUS
 62
7
100
AcDbLine
 10
69.11703061605161
 20
147.3499999999916
 30
0.0000000000000000
 11
58.91703061605160
 21
147.3499999999916
 31
0.0000000000000000
  0
LINE
  5
167
100
AcDbEntity
  8
A7
  6
CONTINUOUS
 62
7
100
AcDbLine
 10
69.11703061605161
 20
141.8499999999916
 30
0.0000000000000000
 11
58.91703061605159
 21
141.8499999999916
 31
0.0000000000000000
  0
LINE
  5
168
100
AcDbEntity
  8
A7
  6
CONTINUOUS
 62
7
100
AcDbLine
 10
69.11703061605161
 20
141.8499999999916
 30
0.0000000000000000
 11
69.11703061605161
 21
147.3499999999916
 31
0.0000000000000000
  0
LINE
  5
169
100
AcDbEntity
  8
A7
  6
CONTINUOUS
 62
7
100
AcDbLine
 10
58.91703061605160
 20
148.5999999999916
 30
0.0000000000000000
 11
58.91703061605160
 21
146.2499999999916
 31
0.0000000000000000
  0
LINE
  5
16A
100
AcDbEntity
  8
A7
  6
CONTINUOUS
 62
7
100
AcDbLine
 10
58.91703061605160
 20
148.5999999999916
 30
0.0000000000000000
 11
50.91703061605160
 21
148.5999999999916
 31
0.0000000000000000
  0
LINE
  5
16B
100
AcDbEntity
  8
A7
  6
CONTINUOUS
 62
7
100
AcDbLine
 10
58.91703061605159
 20
142.9499999999916
 30
0.0000000000000000
 11
58.91703061605159
 21
140.5999999999916
 31
0.0000000000000000
  0
LINE
  5
16C
100
AcDbEntity
  8
A7
  6
CONTINUOUS
 62
7
100
AcDbLine
 10
58.91703061605159
 20
140.5999999999916
 30
0.0000000000000000
 11
50.91703061605159
 21
140.5999999999916
 31
0.0000000000000000
  0
LINE
  5
16D
100
AcDbEntity
  8
A7
  6
CONTINUOUS
 62
7
100
AcDbLine
 10
55.11703061605161
 20
143.3499999999916
 30
0.0000000000000000
 11
65.01703061605161
 21
143.3499999999916
 31
0.0000000000000000
  0
LINE
  5
16E
100
AcDbEntity
  8
A7
  6
CONTINUOUS
 62
7
100
AcDbLine
 10
65.01703061605161
 20
145.8499999999916
 30
0.0000000000000000
 11
55.11703061605161
 21
145.8499999999916
 31
0.0000000000000000
  0
LINE
  5
16F
100
AcDbEntity
  8
A7
  6
CONTINUOUS
 62
7
100
AcDbLine
 10
65.01703061605161
 20
142.9499999999916
 30
0.0000000000000000
 11
65.01703061605161
 21
146.2499999999916
 31
0.0000000000000000
  0
LINE
  5
170
100
AcDbEntity
  8
A7
  6
CONTINUOUS
 62
7
100
AcDbLine
 10
65.81703061605160
 20
142.9499999999916
 30
0.0000000000000000
 11
65.81703061605160
 21
146.2499999999916
 31
0.0000000000000000
  0
LINE
  5
171
100
AcDbEntity
  8
A7
  6
CONTINUOUS
 62
7
100
AcDbLine
 10
65.81703061605160
 20
142.9499999999916
 30
0.0000000000000000
 11
50.91703061605159
 21
142.9499999999916
 31
0.0000000000000000
  0
LINE
  5
172
100
AcDbEntity
  8
A7
  6
CONTINUOUS
 62
7
100
AcDbLine
 10
65.81703061605160
 20
146.2499999999916
 30
0.0000000000000000
 11
50.91703061605160
 21
146.2499999999916
 31
0.0000000000000000
  0
LINE
  5
173
100
AcDbEntity
  8
A7
  6
CONTINUOUS
 62
7
100
AcDbLine
 10
55.11703061605161
 20
146.2499999999916
 30
0.0000000000000000
 11
55.11703061605161
 21
142.9499999999916
 31
0.0000000000000000
  0
LINE
  5
174
100
AcDbEntity
  8
A10
  6
CONTINUOUS
 62
7
100
AcDbLine
 10
117.6530922965299
 20
143.1999999999916
 30
0.0000000000000000
 11
91.78506145629082
 21
143.1999999999916
 31
0.0000000000000000
  0
LINE
  5
175
100
AcDbEntity
  8
A10
  6
CONTINUOUS
 62
7
100
AcDbLine
 10
117.6530922965299
 20
145.9999999999916
 30
0.0000000000000000
 11
91.78506145629082
 21
145.9999999999916
 31
0.0000000000000000
  0
SPLINE
  5
176
100
AcDbEntity
  8
A10
  6
CONTINUOUS
 62
1
100
AcDbSpline
210
0.0000000000000000
220
0.0000000000000000
230
1.000000000000000
 70
     8
 71
     3
 72
    13
 73
     9
 74
     0
 42
1.000000000000000e-07
 43
1.000000000000000e-07
 12
-0.7442084075355524
 22
-0.8593380842564784
 32
0.0000000000000000
 13
0.7442084075355524
 23
0.7435723319732688
 33
0.0000000000000000
 40
0.0000000000000000
 40
0.0000000000000000
 40
0.0000000000000000
 40
0.0000000000000000
 40
0.8062257748299819
 40
1.612451549659890
 40
2.418677324489914
 40
3.224903099319963
 40
4.031128874149920
 40
4.837354648979852
 40
4.837354648979852
 40
4.837354648979852
 40
4.837354648979852
 10
91.78506145629082
 20
145.9999999999916
 30
0.0000000000000000
 10
91.58506145629073
 20
145.7690598290514
 30
0.0000000000000000
 10
91.18506145629055
 20
145.3071794871710
 30
0.0000000000000000
 10
91.78506145629079
 20
144.5712820512736
 30
0.0000000000000000
 10
92.38506145629140
 20
144.0076923076839
 30
0.0000000000000000
 10
91.78506145629079
 20
142.7979487179403
 30
0.0000000000000000
 10
91.18506145629054
 20
144.0005128205044
 30
0.0000000000000000
 10
91.58506145629073
 20
144.4001709401625
 30
0.0000000000000000
 10
91.78506145629082
 20
144.5999999999916
 30
0.0000000000000000
  0
SPLINE
  5
177
100
AcDbEntity
  8
A10
  6
CONTINUOUS
 62
1
100
AcDbSpline
210
0.0000000000000000
220
0.0000000000000000
230
1.000000000000000
 70
     8
 71
     3
 72
    13
 73
     9
 74
     0
 42
1.000000000000000e-07
 43
1.000000000000000e-07
 12
0.7442084075354956
 22
0.8593380842564784
 32
0.0000000000000000
 13
-0.7442084075354956
 23
-0.7435723319730414
 33
0.0000000000000000
 40
0.0000000000000000
 40
0.0000000000000000
 40
0.0000000000000000
 40
0.0000000000000000
 40
0.8062257748299819
 40
1.612451549659890
 40
2.418677324489914
 40
3.224903099319963
 40
4.031128874149920
 40
4.837354648979852
 40
4.837354648979852
 40
4.837354648979852
 40
4.837354648979852
 10
89.78506145629082
 20
143.1999999999916
 30
0.0000000000000000
 10
89.98506145629091
 20
143.4309401709318
 30
0.0000000000000000
 10
90.38506145629108
 20
143.8928205128121
 30
0.0000000000000000
 10
89.78506145629085
 20
144.6287179487096
 30
0.0000000000000000
 10
89.18506145629024
 20
145.1923076922993
 30
0.0000000000000000
 10
89.78506145629085
 20
146.4020512820429
 30
0.0000000000000000
 10
90.38506145629110
 20
145.1994871794788
 30
0.0000000000000000
 10
89.98506145629091
 20
144.7998290598206
 30
0.0000000000000000
 10
89.78506145629082
 20
144.5999999999916
 30
0.0000000000000000
  0
LINE
  5
178
100
AcDbEntity
  8
A10
  6
CONTINUOUS
 62
7
100
AcDbLine
 10
101.8864124909528
 20
78.40000000000003
 30
0.0000000000000000
 11
117.7530922965299
 21
78.40000000000003
 31
0.0000000000000000
  0
ARC
  5
179
100
AcDbEntity
  8
A10
  6
CONTINUOUS
 62
7
100
AcDbCircle
 10
117.7530922965299
 20
77.00000000000003
 30
0.0000000000000000
 40
1.400000000000000
100
AcDbArc
 50
0.0000000000000000
 51
90.00000000000000
  0
SPLINE
  5
17A
100
AcDbEntity
  8
A10
  6
CONTINUOUS
 62
1
100
AcDbSpline
210
0.0000000000000000
220
0.0000000000000000
230
1.000000000000000
 70
     8
 71
     3
 72
    13
 73
     9
 74
     0
 42
1.000000000000000e-07
 43
1.000000000000000e-07
 12
-0.7442084075358935
 22
-0.8593380842561373
 32
0.0000000000000000
 13
0.7442084075354387
 23
0.7435723319730414
 33
0.0000000000000000
 40
0.0000000000000000
 40
0.0000000000000000
 40
0.0000000000000000
 40
0.0000000000000000
 40
0.4031128874150227
 40
0.8062257748299959
 40
1.209338662244994
 40
1.612451549659918
 40
2.015564437074941
 40
2.418677324489939
 40
2.418677324489939
 40
2.418677324489939
 40
2.418677324489939
 10
101.8864124909528
 20
78.40000000000003
 30
0.0000000000000000
 10
101.7864124909528
 20
78.28452991452997
 30
0.0000000000000000
 10
101.5864124909526
 20
78.05358974358981
 30
0.0000000000000000
 10
101.8864124909528
 20
77.68564102564105
 30
0.0000000000000000
 10
102.1864124909529
 20
77.40384615384625
 30
0.0000000000000000
 10
101.8864124909529
 20
76.79897435897439
 30
0.0000000000000000
 10
101.5864124909525
 20
77.40025641025639
 30
0.0000000000000000
 10
101.7864124909527
 20
77.60008547008553
 30
0.0000000000000000
 10
101.8864124909527
 20
77.70000000000005
 30
0.0000000000000000
  0
LINE
  5
17B
100
AcDbEntity
  8
A2
  6
CENTER
 62
1
100
AcDbLine
 10
276.8530922965294
 20
125.5000000000000
 30
0.0000000000000000
 11
276.8530922965294
 21
131.1000000000002
 31
0.0000000000000000
  0
CIRCLE
  5
17C
100
AcDbEntity
  8
A10
  6
CONTINUOUS
 62
7
100
AcDbCircle
 10
165.3530922965297
 20
72.00000000000003
 30
0.0000000000000000
 40
1.229500000000000
  0
CIRCLE
  5
17D
100
AcDbEntity
  8
A10
  6
CONTINUOUS
 62
7
100
AcDbCircle
 10
185.3530922965297
 20
62.00000000000003
 30
0.0000000000000000
 40
1.229500000000000
  0
CIRCLE
  5
17E
100
AcDbEntity
  8
A10
  6
CONTINUOUS
 62
7
100
AcDbCircle
 10
277.8530922965297
 20
154.6000000000003
 30
0.0000000000000000
 40
1.229500000000000
  0
CIRCLE
  5
17F
100
AcDbEntity
  8
A10
  6
CONTINUOUS
 62
7
100
AcDbCircle
 10
292.8530922965297
 20
154.6000000000003
 30
0.0000000000000000
 40
1.229500000000000
  0
CIRCLE
  5
180
100
AcDbEntity
  8
A10
  6
CONTINUOUS
 62
7
100
AcDbCircle
 10
285.3530922965297
 20
134.6000000000002
 30
0.0000000000000000
 40
1.229500000000000
  0
LINE
  5
181
100
AcDbEntity
  8
A2
  6
CONTINUOUS
 62
7
100
AcDbLine
 10
170.0530922965296
 20
148.5999999999915
 30
0.0000000000000000
 11
169.5530922965296
 21
148.0999999999915
 31
0.0000000000000000
  0
LINE
  5
182
100
AcDbEntity
  8
A2
  6
CONTINUOUS
 62
7
100
AcDbLine
 10
169.5530922965297
 20
141.0999999999916
 30
0.0000000000000000
 11
170.0530922965297
 21
140.5999999999916
 31
0.0000000000000000
  0
LINE
  5
183
100
AcDbEntity
  8
A2
  6
CONTINUOUS
 62
7
100
AcDbLine
 10
196.8530922965305
 20
148.0999999999916
 30
0.0000000000000000
 11
196.3530922965306
 21
148.5999999999916
 31
0.0000000000000000
  0
LINE
  5
184
100
AcDbEntity
  8
A2
  6
CONTINUOUS
 62
7
100
AcDbLine
 10
196.8530922965306
 20
141.0999999999916
 30
0.0000000000000000
 11
196.3530922965306
 21
140.5999999999916
 31
0.0000000000000000
  0
LINE
  5
185
100
AcDbEntity
  8
A2
  6
PHANTOM
 62
1
100
AcDbLine
 10
202.3530922965305
 20
140.5999999999915
 30
0.0000000000000000
 11
202.8530922965305
 21
141.0999999999915
 31
0.0000000000000000
  0
LINE
  5
186
100
AcDbEntity
  8
A2
  6
PHANTOM
 62
1
100
AcDbLine
 10
202.8530922965306
 20
148.0999999999916
 30
0.0000000000000000
 11
202.3530922965306
 21
148.5999999999916
 31
0.0000000000000000
  0
LINE
  5
187
100
AcDbEntity
  8
A2
  6
CENTER
 62
1
100
AcDbLine
 10
117.6530922965299
 20
144.5999999999916
 30
0.0000000000000000
 11
204.3530922965306
 21
144.5999999999916
 31
0.0000000000000000
  0
LINE
  5
188
100
AcDbEntity
  8
A10
  6
CONTINUOUS
 62
7
100
AcDbLine
 10
170.0530922965297
 20
148.5999999999916
 30
0.0000000000000000
 11
170.0530922965297
 21
140.5999999999916
 31
0.0000000000000000
  0
LINE
  5
189
100
AcDbEntity
  8
A10
  6
CONTINUOUS
 62
7
100
AcDbLine
 10
196.3530922965306
 20
148.5999999999916
 30
0.0000000000000000
 11
196.3530922965306
 21
140.5999999999916
 31
0.0000000000000000
  0
LINE
  5
18A
100
AcDbEntity
  8
A2
  6
CONTINUOUS
 62
7
100
AcDbLine
 10
196.3530922965305
 20
67.49999999999999
 30
0.0000000000000000
 11
196.8530922965305
 21
66.99999999999999
 31
0.0000000000000000
  0
LINE
  5
18B
100
AcDbEntity
  8
A2
  6
CONTINUOUS
 62
7
100
AcDbLine
 10
196.8530922965305
 20
59.99999999999999
 30
0.0000000000000000
 11
196.3530922965305
 21
59.50000000000000
 31
0.0000000000000000
  0
LINE
  5
18C
100
AcDbEntity
  8
A10
  6
CONTINUOUS
 62
7
100
AcDbLine
 10
196.3530922965306
 20
59.49999999999999
 30
0.0000000000000000
 11
196.3530922965306
 21
67.49999999999999
 31
0.0000000000000000
  0
CIRCLE
  5
18D
100
AcDbEntity
  8
A10
  6
CONTINUOUS
 62
7
100
AcDbCircle
 10
285.3530922965297
 20
144.6000000000003
 30
0.0000000000000000
 40
3.500000000000000
  0
ENDSEC
  0
SECTION
  2
OBJECTS
  0
DICTIONARY
  5
1B9
100
AcDbDictionary
  3
ACAD_GROUP
350
1BA
  3
ACAD_LAYOUT
350
1BB
  3
ACAD_MLINESTYLE
350
1BC
  0
DICTIONARY
  5
1BA
102
{ACAD_REACTORS
330
1B9
102
}
330
1B9
100
AcDbDictionary
  0
DICTIONARY
  5
1BB
102
{ACAD_REACTORS
330
1B9
102
}
330
1B9
100
AcDbDictionary
  3
Model
350
1BD
  3
ﾚｲｱｳﾄ1
350
1BE
  3
ﾚｲｱｳﾄ2
350
1BF
  0
DICTIONARY
  5
1BC
102
{ACAD_REACTORS
330
1B9
102
}
330
1B9
100
AcDbDictionary
  3
STANDARD
350
1C0
  0
LAYOUT
  5
1BD
102
{ACAD_REACTORS
330
1BB
102
}
330
1BB
100
AcDbPlotSettings
 70
11952
  4
A3
 44
297.000000
 45
420.000000
 73
  1
 72
  1
100
AcDbLayout
  1
Model
 71
0
330
1B0
  0
LAYOUT
  5
1BE
102
{ACAD_REACTORS
330
1BB
102
}
330
1BB
100
AcDbPlotSettings
100
AcDbLayout
  1
ﾚｲｱｳﾄ1
 71
1
330
1B1
  0
LAYOUT
  5
1BF
102
{ACAD_REACTORS
330
1BB
102
}
330
1BB
100
AcDbPlotSettings
100
AcDbLayout
  1
ﾚｲｱｳﾄ2
 71
2
330
1B2
  0
MLINESTYLE
  5
1C0
102
{ACAD_REACTORS
330
1BC
102
}
330
1BC
100
AcDbMlineStyle
  2
STANDARD
 70
     0
  3

 62
   256
 51
90.00
 52
90.00
 71
     2
 49
0.50
 62
   256
  6
BYLAYER
 49
-0.50
 62
   256
  6
BYLAYER
  0
ENDSEC
  0
EOF
