  0
SECTION
  2
HEADER
  9
$ACADVER
  1
AC1027
  9
$DWGCODEPAGE
  3
ANSI_932
  9
$LTSCALE
 40
20.0
  9
$FILLMODE
 70
     1
  9
$CLAYER
  8
0
  9
$PDMODE
 70
     0
  9
$SPLFRAME
 70
     0
  9
$SPLINETYPE
 70
     6
  9
$SPLINESEGS
 70
     8
  9
$DIMASZ
 40
2.000000
  9
$DIMEXE
 40
1.500000
  9
$DIMEXO
 40
0.800000
  9
$DIMTAD
 70
     1
  9
$DIMTIH
 70
     0
  9
$DIMTOH
 70
     0
  9
$DIMTVP
 40
0.500000
  9
$DIMTXT
 40
3.100000
  9
$EXTMIN
 10
0.000000
 20
0.000000
 30
0.000000
  9
$EXTMAX
 10
297.000000
 20
420.000000
 30
0.000000
  9
$MEASUREMENT
 70
  1
  9
$LIMMIN
 10
0.000000
 20
0.000000
  9
$LIMMAX
 10
297.000000
 20
420.000000
  9
$HANDSEED
  5
1A8
  9
$LWDISPLAY
290
     0
  9
$DIMBLK
  1
_OPEN
  9
$DIMDEC
 70
     2
  9
$DIMADEC
 70
     2
  9
$DIMAUNIT
 70
     0
  9
$DIMZIN
 70
     8
  9
$DIMAZIN
 70
     2
  9
$DIMTOFL
 70
     1
  0
ENDSEC
  0
SECTION
  2
CLASSES
  0
ENDSEC
  0
SECTION
  2
TABLES
  0
TABLE
  2
VPORT
  5
170
100
AcDbSymbolTable
 70
     1
  0
VPORT
  5
171
100
AcDbSymbolTableRecord
100
AcDbViewportTableRecord
  2
*ACTIVE
 70
     0
 12
178.499199
 22
85.250000
 40
134.499999
 41
2.505564
  0
ENDTAB
  0
TABLE
  2
LTYPE
  5
172
100
AcDbSymbolTable
 70
     3
  0
LTYPE
  5
173
100
AcDbSymbolTableRecord
100
AcDbLinetypeTableRecord
  2
BYBLOCK
 70
     0
  3

 72
    65
 73
     0
 40
0.0
  0
LTYPE
  5
174
100
AcDbSymbolTableRecord
100
AcDbLinetypeTableRecord
  2
BYLAYER
 70
     0
  3

 72
    65
 73
     0
 40
0.0
  0
LTYPE
  5
175
100
AcDbSymbolTableRecord
100
AcDbLinetypeTableRecord
  2
CONTINUOUS
 70
     0
  3
Solid line (NEC CAE2D for Win R17.0 : 2022.10.18)
 72
    65
 73
     0
 40
0.0
  0
LTYPE
  5
176
100
AcDbSymbolTableRecord
100
AcDbLinetypeTableRecord
  2
CENTER
 70
     0
  3
____ _ ____ _ ____ _ ____ _ ____ _ ____
 72
    65
 73
     4
 40
2.0
 49
1.25
 74
     0
 49
-0.25
 74
     0
 49
0.25
 74
     0
 49
-0.25
 74
     0
  0
LTYPE
  5
177
100
AcDbSymbolTableRecord
100
AcDbLinetypeTableRecord
  2
PHANTOM
 70
     0
  3
______  __  __  ______  __  __  ______ 
 72
    65
 73
     6
 40
2.5
 49
1.25
 74
     0
 49
-0.25
 74
     0
 49
0.25
 74
     0
 49
-0.25
 74
     0
 49
0.25
 74
     0
 49
-0.25
 74
     0
  0
ENDTAB
  0
TABLE
  2
LAYER
  5
178
100
AcDbSymbolTable
 70
    17
  0
LAYER
  5
179
100
AcDbSymbolTableRecord
100
AcDbLayerTableRecord
  2
0
 70
     0
 62
     7
  6
CONTINUOUS
370
    -3
390

  0
LAYER
  5
17A
100
AcDbSymbolTableRecord
100
AcDbLayerTableRecord
  2
A0
 70
     0
 62
     9
  6
CONTINUOUS
370
    -3
390

  0
LAYER
  5
17B
100
AcDbSymbolTableRecord
100
AcDbLayerTableRecord
  2
A1
 70
     0
 62
    12
  6
CONTINUOUS
370
    -3
390

  0
LAYER
  5
17C
100
AcDbSymbolTableRecord
100
AcDbLayerTableRecord
  2
A2
 70
     0
 62
     9
  6
CONTINUOUS
370
    -3
390

  0
LAYER
  5
17D
100
AcDbSymbolTableRecord
100
AcDbLayerTableRecord
  2
A3
 70
     0
 62
    12
  6
CONTINUOUS
370
    -3
390

  0
LAYER
  5
17E
100
AcDbSymbolTableRecord
100
AcDbLayerTableRecord
  2
A4
 70
     0
 62
     9
  6
CONTINUOUS
370
    -3
390

  0
LAYER
  5
17F
100
AcDbSymbolTableRecord
100
AcDbLayerTableRecord
  2
A5
 70
     0
 62
     8
  6
CONTINUOUS
370
    -3
390

  0
LAYER
  5
180
100
AcDbSymbolTableRecord
100
AcDbLayerTableRecord
  2
A6
 70
     0
 62
    12
  6
CONTINUOUS
370
    -3
390

  0
LAYER
  5
181
100
AcDbSymbolTableRecord
100
AcDbLayerTableRecord
  2
A7
 70
     0
 62
    12
  6
CONTINUOUS
370
    -3
390

  0
LAYER
  5
182
100
AcDbSymbolTableRecord
100
AcDbLayerTableRecord
  2
A8
 70
     0
 62
    10
  6
CONTINUOUS
370
    -3
390

  0
LAYER
  5
183
100
AcDbSymbolTableRecord
100
AcDbLayerTableRecord
  2
A9
 70
     0
 62
     9
  6
CONTINUOUS
370
    -3
390

  0
LAYER
  5
184
100
AcDbSymbolTableRecord
100
AcDbLayerTableRecord
  2
A10
 70
     0
 62
     6
  6
CONTINUOUS
370
    -3
390

  0
LAYER
  5
185
100
AcDbSymbolTableRecord
100
AcDbLayerTableRecord
  2
A20
 70
     0
 62
     1
  6
CONTINUOUS
370
    -3
390

  0
LAYER
  5
186
100
AcDbSymbolTableRecord
100
AcDbLayerTableRecord
  2
A30
 70
     0
 62
     1
  6
CONTINUOUS
370
    -3
390

  0
LAYER
  5
187
100
AcDbSymbolTableRecord
100
AcDbLayerTableRecord
  2
A40
 70
     0
 62
     9
  6
CONTINUOUS
370
    -3
390

  0
LAYER
  5
188
100
AcDbSymbolTableRecord
100
AcDbLayerTableRecord
  2
A50
 70
     0
 62
    12
  6
CONTINUOUS
370
    -3
390

  0
LAYER
  5
189
100
AcDbSymbolTableRecord
100
AcDbLayerTableRecord
  2
A1023
 70
     0
 62
    16
  6
CONTINUOUS
370
    -3
390

  0
ENDTAB
  0
TABLE
  2
STYLE
  5
18A
100
AcDbSymbolTable
 70
     4
  0
STYLE
  5
18B
100
AcDbSymbolTableRecord
100
AcDbTextStyleTableRecord
  2
STANDARD
 70
    64
 40
0.0
 41
1.0
 50
0.0
 71
     0
 42
3.000000000000000
  3
TXT
  4

  0
STYLE
  5
18C
100
AcDbSymbolTableRecord
100
AcDbTextStyleTableRecord
  2
ANKTATE
 70
    68
 40
0.0
 41
1.0
 50
0.0
 71
     0
 42
3.000000000000000
  3
TXT
  4

  0
STYLE
  5
18D
100
AcDbSymbolTableRecord
100
AcDbTextStyleTableRecord
  2
KNJYOKO
 70
    64
 40
0.0
 41
1.0
 50
0.0
 71
     0
 42
3.000000000000000
  3
TXT
  4
BIGFONT
  0
STYLE
  5
18E
100
AcDbSymbolTableRecord
100
AcDbTextStyleTableRecord
  2
KNJTATE
 70
    68
 40
0.0
 41
1.0
 50
0.0
 71
     0
 42
3.000000000000000
  3
TXT
  4
BIGFONT
  0
ENDTAB
  0
TABLE
  2
VIEW
  5
18F
100
AcDbSymbolTable
 70
     0
  0
ENDTAB
  0
TABLE
  2
UCS
  5
190
100
AcDbSymbolTable
 70
     0
  0
ENDTAB
  0
TABLE
  2
APPID
  5
191
100
AcDbSymbolTable
 70
     1
  0
APPID
  5
192
100
AcDbSymbolTableRecord
100
AcDbRegAppTableRecord
  2
ACAD
 70
     0
  0
ENDTAB
  0
TABLE
  2
DIMSTYLE
  5
193
100
AcDbSymbolTable
 70
     2
100
AcDbDimStyleTable
  0
DIMSTYLE
105
194
100
AcDbSymbolTableRecord
100
AcDbDimStyleTableRecord
  2
STANDARD
 70
     0
 41
2.000000
 44
1.500000
 42
0.800000
145
0.661290
140
3.100000
144
1.000000
146
0.645161
340
18B
  0
DIMSTYLE
105
195
100
AcDbSymbolTableRecord
100
AcDbDimStyleTableRecord
  2
A001
 70
     0
 41
2.000000
 44
1.500000
 42
0.800000
145
0.661290
140
3.100000
144
1.000000
146
0.645161
 77
     1
 73
     0
 74
     0
271
     2
179
     2
275
     0
 78
     8
 79
     2
172
     1
340
18B
  0
ENDTAB
  0
TABLE
  2
BLOCK_RECORD
  5
196
100
AcDbSymbolTable
 70
    12
  0
BLOCK_RECORD
  5
197
100
AcDbSymbolTableRecord
100
AcDbBlockTableRecord
  2
*MODEL_SPACE
  0
BLOCK_RECORD
  5
198
100
AcDbSymbolTableRecord
100
AcDbBlockTableRecord
  2
*PAPER_SPACE
  0
BLOCK_RECORD
  5
199
100
AcDbSymbolTableRecord
100
AcDbBlockTableRecord
  2
*PAPER_SPACE0
  0
BLOCK_RECORD
  5
1
100
AcDbSymbolTableRecord
100
AcDbBlockTableRecord
  2
_NONE
  0
BLOCK_RECORD
  5
4
100
AcDbSymbolTableRecord
100
AcDbBlockTableRecord
  2
_CLOSED
  0
BLOCK_RECORD
  5
B
100
AcDbSymbolTableRecord
100
AcDbBlockTableRecord
  2
_DOT
  0
BLOCK_RECORD
  5
13
100
AcDbSymbolTableRecord
100
AcDbBlockTableRecord
  2
_OPEN
  0
BLOCK_RECORD
  5
19
100
AcDbSymbolTableRecord
100
AcDbBlockTableRecord
  2
_ORIGIN
  0
BLOCK_RECORD
  5
1E
100
AcDbSymbolTableRecord
100
AcDbBlockTableRecord
  2
_OPEN30
  0
BLOCK_RECORD
  5
24
100
AcDbSymbolTableRecord
100
AcDbBlockTableRecord
  2
_BOXFILLED
  0
BLOCK_RECORD
  5
29
100
AcDbSymbolTableRecord
100
AcDbBlockTableRecord
  2
_BOXBLANK
  0
BLOCK_RECORD
  5
31
100
AcDbSymbolTableRecord
100
AcDbBlockTableRecord
  2
_OBLIQUE
  0
BLOCK_RECORD
  5
35
100
AcDbSymbolTableRecord
100
AcDbBlockTableRecord
  2
_OPEN90
  0
BLOCK_RECORD
  5
3B
100
AcDbSymbolTableRecord
100
AcDbBlockTableRecord
  2
_CLOSEDBLANK
  0
BLOCK_RECORD
  5
41
100
AcDbSymbolTableRecord
100
AcDbBlockTableRecord
  2
_DOTBLANK
  0
ENDTAB
  0
ENDSEC
  0
SECTION
  2
BLOCKS
  0
BLOCK
  5
19A
100
AcDbEntity
  8
0
100
AcDbBlockBegin
  2
*MODEL_SPACE
 70
     0
 10
0.0
 20
0.0
 30
0.0
  3
*MODEL_SPACE
  1

  0
ENDBLK
  5
19B
100
AcDbEntity
  8
0
100
AcDbBlockEnd
  0
BLOCK
  5
19C
100
AcDbEntity
  8
0
100
AcDbBlockBegin
  2
*PAPER_SPACE
 70
     0
 10
0.0
 20
0.0
 30
0.0
  3
*PAPER_SPACE
  1

  0
ENDBLK
  5
19D
100
AcDbEntity
  8
0
100
AcDbBlockEnd
  0
BLOCK
  5
19E
100
AcDbEntity
  8
0
100
AcDbBlockBegin
  2
*PAPER_SPACE0
 70
     0
 10
0.0
 20
0.0
 30
0.0
  3
*PAPER_SPACE0
  1

  0
ENDBLK
  5
19F
100
AcDbEntity
  8
0
100
AcDbBlockEnd
  0
BLOCK
  5
2
330
1
100
AcDbEntity
  8
0
100
AcDbBlockBegin
  2
_NONE
 70
     0
 10
0.0
 20
0.0
 30
0.0
  3
_NONE
  1

  0
ENDBLK
  5
3
330
1
100
AcDbEntity
  8
0
100
AcDbBlockEnd
  0
BLOCK
  5
5
330
4
100
AcDbEntity
  8
0
100
AcDbBlockBegin
  2
_CLOSED
 70
     0
 10
0.0
 20
0.0
 30
0.0
  3
_CLOSED
  1

  0
LINE
  5
6
330
4
100
AcDbEntity
  8
0
  6
BYBLOCK
 62
     0
370
    -2
100
AcDbLine
 10
-1.0
 20
0.166667
 30
0.0
 11
0.0
 21
0.0
 31
0.0
  0
LINE
  5
7
330
4
100
AcDbEntity
  8
0
  6
BYBLOCK
 62
     0
370
    -2
100
AcDbLine
 10
0.0
 20
0.0
 30
0.0
 11
-1.0
 21
-0.166667
 31
0.0
  0
LINE
  5
8
330
4
100
AcDbEntity
  8
0
  6
BYBLOCK
 62
     0
370
    -2
100
AcDbLine
 10
-1.0
 20
0.166667
 30
0.0
 11
-1.0
 21
-0.166667
 31
0.0
  0
LINE
  5
9
330
4
100
AcDbEntity
  8
0
  6
BYBLOCK
 62
     0
370
    -2
100
AcDbLine
 10
0.0
 20
0.0
 30
0.0
 11
-1.0
 21
0.0
 31
0.0
  0
ENDBLK
  5
A
330
4
100
AcDbEntity
  8
0
100
AcDbBlockEnd
  0
BLOCK
  5
C
330
B
100
AcDbEntity
  8
0
100
AcDbBlockBegin
  2
_DOT
 70
     0
 10
0.0
 20
0.0
 30
0.0
  3
_DOT
  1

  0
POLYLINE
  5
D
330
B
100
AcDbEntity
  8
0
  6
BYBLOCK
 62
     0
370
    -2
100
AcDb2dPolyline
 66
     1
 10
0.0
 20
0.0
 30
0.0
 70
     1
 40
0.5
 41
0.5
  0
VERTEX
  5
E
330
B
100
AcDbEntity
  8
0
  6
BYBLOCK
 62
     0
370
    -2
100
AcDbVertex
100
AcDb2dVertex
 10
-0.25
 20
0.0
 30
0.0
 42
1.0
  0
VERTEX
  5
F
330
B
100
AcDbEntity
  8
0
  6
BYBLOCK
 62
     0
370
    -2
100
AcDbVertex
100
AcDb2dVertex
 10
0.25
 20
0.0
 30
0.0
 42
1.0
  0
SEQEND
  5
10
330
B
100
AcDbEntity
  8
0
  6
BYBLOCK
 62
     0
370
    -2
  0
LINE
  5
11
330
B
100
AcDbEntity
  8
0
  6
BYBLOCK
 62
     0
370
    -2
100
AcDbLine
 10
-0.5
 20
0.0
 30
0.0
 11
-1.0
 21
0.0
 31
0.0
  0
ENDBLK
  5
12
330
B
100
AcDbEntity
  8
0
100
AcDbBlockEnd
  0
BLOCK
  5
14
330
13
100
AcDbEntity
  8
0
100
AcDbBlockBegin
  2
_OPEN
 70
     0
 10
0.0
 20
0.0
 30
0.0
  3
_OPEN
  1

  0
LINE
  5
15
330
13
100
AcDbEntity
  8
0
  6
BYBLOCK
 62
     0
370
    -2
100
AcDbLine
 10
-1.0
 20
0.166667
 30
0.0
 11
0.0
 21
0.0
 31
0.0
  0
LINE
  5
16
330
13
100
AcDbEntity
  8
0
  6
BYBLOCK
 62
     0
370
    -2
100
AcDbLine
 10
0.0
 20
0.0
 30
0.0
 11
-1.0
 21
-0.166667
 31
0.0
  0
LINE
  5
17
330
13
100
AcDbEntity
  8
0
  6
BYBLOCK
 62
     0
370
    -2
100
AcDbLine
 10
0.0
 20
0.0
 30
0.0
 11
-1.0
 21
0.0
 31
0.0
  0
ENDBLK
  5
18
330
13
100
AcDbEntity
  8
0
100
AcDbBlockEnd
  0
BLOCK
  5
1A
330
19
100
AcDbEntity
  8
0
100
AcDbBlockBegin
  2
_ORIGIN
 70
     0
 10
0.0
 20
0.0
 30
0.0
  3
_ORIGIN
  1

  0
CIRCLE
  5
1B
330
19
100
AcDbEntity
  8
0
  6
BYBLOCK
 62
     0
370
    -2
100
AcDbCircle
 10
0.0
 20
0.0
 30
0.0
 40
0.5
  0
LINE
  5
1C
330
19
100
AcDbEntity
  8
0
  6
BYBLOCK
 62
     0
370
    -2
100
AcDbLine
 10
0.0
 20
0.0
 30
0.0
 11
-1.0
 21
0.0
 31
0.0
  0
ENDBLK
  5
1D
330
19
100
AcDbEntity
  8
0
100
AcDbBlockEnd
  0
BLOCK
  5
1F
330
1E
100
AcDbEntity
  8
0
100
AcDbBlockBegin
  2
_OPEN30
 70
     0
 10
0.0
 20
0.0
 30
0.0
  3
_OPEN30
  1

  0
LINE
  5
20
330
1E
100
AcDbEntity
  8
0
  6
BYBLOCK
 62
     0
370
    -2
100
AcDbLine
 10
-1.0
 20
0.267949
 30
0.0
 11
0.0
 21
0.0
 31
0.0
  0
LINE
  5
21
330
1E
100
AcDbEntity
  8
0
  6
BYBLOCK
 62
     0
370
    -2
100
AcDbLine
 10
0.0
 20
0.0
 30
0.0
 11
-1.0
 21
-0.267949
 31
0.0
  0
LINE
  5
22
330
1E
100
AcDbEntity
  8
0
  6
BYBLOCK
 62
     0
370
    -2
100
AcDbLine
 10
0.0
 20
0.0
 30
0.0
 11
-1.0
 21
0.0
 31
0.0
  0
ENDBLK
  5
23
330
1E
100
AcDbEntity
  8
0
100
AcDbBlockEnd
  0
BLOCK
  5
25
330
24
100
AcDbEntity
  8
0
100
AcDbBlockBegin
  2
_BOXFILLED
 70
     0
 10
0.0
 20
0.0
 30
0.0
  3
_BOXFILLED
  1

  0
SOLID
  5
26
330
24
100
AcDbEntity
  8
0
  6
BYBLOCK
 62
     0
370
    -2
100
AcDbTrace
 10
-0.5
 20
0.5
 30
0.0
 11
0.5
 21
0.5
 31
0.0
 12
-0.5
 22
-0.5
 32
0.0
 13
0.5
 23
-0.5
 33
0.0
  0
LINE
  5
27
330
24
100
AcDbEntity
  8
0
  6
BYBLOCK
 62
     0
370
    -2
100
AcDbLine
 10
-0.5
 20
0.0
 30
0.0
 11
-1.0
 21
0.0
 31
0.0
  0
ENDBLK
  5
28
330
24
100
AcDbEntity
  8
0
100
AcDbBlockEnd
  0
BLOCK
  5
2A
330
29
100
AcDbEntity
  8
0
100
AcDbBlockBegin
  2
_BOXBLANK
 70
     0
 10
0.0
 20
0.0
 30
0.0
  3
_BOXBLANK
  1

  0
LINE
  5
2B
330
29
100
AcDbEntity
  8
0
  6
BYBLOCK
 62
     0
370
    -2
100
AcDbLine
 10
-0.5
 20
-0.5
 30
0.0
 11
0.5
 21
-0.5
 31
0.0
  0
LINE
  5
2C
330
29
100
AcDbEntity
  8
0
  6
BYBLOCK
 62
     0
370
    -2
100
AcDbLine
 10
0.5
 20
-0.5
 30
0.0
 11
0.5
 21
0.5
 31
0.0
  0
LINE
  5
2D
330
29
100
AcDbEntity
  8
0
  6
BYBLOCK
 62
     0
370
    -2
100
AcDbLine
 10
0.5
 20
0.5
 30
0.0
 11
-0.5
 21
0.5
 31
0.0
  0
LINE
  5
2E
330
29
100
AcDbEntity
  8
0
  6
BYBLOCK
 62
     0
370
    -2
100
AcDbLine
 10
-0.5
 20
0.5
 30
0.0
 11
-0.5
 21
-0.5
 31
0.0
  0
LINE
  5
2F
330
29
100
AcDbEntity
  8
0
  6
BYBLOCK
 62
     0
370
    -2
100
AcDbLine
 10
-0.5
 20
0.0
 30
0.0
 11
-1.0
 21
0.0
 31
0.0
  0
ENDBLK
  5
30
330
29
100
AcDbEntity
  8
0
100
AcDbBlockEnd
  0
BLOCK
  5
32
330
31
100
AcDbEntity
  8
0
100
AcDbBlockBegin
  2
_OBLIQUE
 70
     0
 10
0.0
 20
0.0
 30
0.0
  3
_OBLIQUE
  1

  0
LINE
  5
33
330
31
100
AcDbEntity
  8
0
  6
BYBLOCK
 62
     0
370
    -2
100
AcDbLine
 10
-0.5
 20
-0.5
 30
0.0
 11
0.5
 21
0.5
 31
0.0
  0
ENDBLK
  5
34
330
31
100
AcDbEntity
  8
0
100
AcDbBlockEnd
  0
BLOCK
  5
36
330
35
100
AcDbEntity
  8
0
100
AcDbBlockBegin
  2
_OPEN90
 70
     0
 10
0.0
 20
0.0
 30
0.0
  3
_OPEN90
  1

  0
LINE
  5
37
330
35
100
AcDbEntity
  8
0
  6
BYBLOCK
 62
     0
370
    -2
100
AcDbLine
 10
-0.5
 20
0.5
 30
0.0
 11
0.0
 21
0.0
 31
0.0
  0
LINE
  5
38
330
35
100
AcDbEntity
  8
0
  6
BYBLOCK
 62
     0
370
    -2
100
AcDbLine
 10
0.0
 20
0.0
 30
0.0
 11
-0.5
 21
-0.5
 31
0.0
  0
LINE
  5
39
330
35
100
AcDbEntity
  8
0
  6
BYBLOCK
 62
     0
370
    -2
100
AcDbLine
 10
0.0
 20
0.0
 30
0.0
 11
-1.0
 21
0.0
 31
0.0
  0
ENDBLK
  5
3A
330
35
100
AcDbEntity
  8
0
100
AcDbBlockEnd
  0
BLOCK
  5
3C
330
3B
100
AcDbEntity
  8
0
100
AcDbBlockBegin
  2
_CLOSEDBLANK
 70
     0
 10
0.0
 20
0.0
 30
0.0
  3
_CLOSEDBLANK
  1

  0
LINE
  5
3D
330
3B
100
AcDbEntity
  8
0
  6
BYBLOCK
 62
     0
370
    -2
100
AcDbLine
 10
-1.0
 20
0.1666666666666666
 30
0.0
 11
0.0
 21
0.0
 31
0.0
  0
LINE
  5
3E
330
3B
100
AcDbEntity
  8
0
  6
BYBLOCK
 62
     0
370
    -2
100
AcDbLine
 10
0.0
 20
0.0
 30
0.0
 11
-1.0
 21
-0.1666666666666666
 31
0.0
  0
LINE
  5
3F
330
3B
100
AcDbEntity
  8
0
  6
BYBLOCK
 62
     0
370
    -2
100
AcDbLine
 10
-1.0
 20
0.1666666666666666
 30
0.0
 11
-1.0
 21
-0.1666666666666666
 31
0.0
  0
ENDBLK
  5
40
330
3B
100
AcDbEntity
  8
0
100
AcDbBlockEnd
  0
BLOCK
  5
42
330
41
100
AcDbEntity
  8
0
100
AcDbBlockBegin
  2
_DOTBLANK
 70
     0
 10
0.0
 20
0.0
 30
0.0
  3
_DOTBLANK
  1

  0
CIRCLE
  5
43
330
41
100
AcDbEntity
  8
0
  6
BYBLOCK
 62
     0
370
    -2
100
AcDbCircle
 10
0.0
 20
0.0
 30
0.0
 40
0.5
  0
LINE
  5
44
330
41
100
AcDbEntity
  8
0
  6
BYBLOCK
 62
     0
370
    -2
100
AcDbLine
 10
-0.5
 20
0.0
 30
0.0
 11
-1.0
 21
0.0
 31
0.0
  0
ENDBLK
  5
45
330
41
100
AcDbEntity
  8
0
100
AcDbBlockEnd
  0
ENDSEC
  0
SECTION
  2
ENTITIES
  0
MTEXT
  5
46
100
AcDbEntity
  8
A7
  6
CONTINUOUS
 62
3
100
AcDbMText
 10
9.999997526638502
 20
18.00000076076889
 30
0.000000000000000
 40
3.000000000000000
 41
0.000000000000000
 44
0.6739999771118164
 71
     7
 72
     1
  1
{\H0.93x;{TYPE No.TL-438}}
 11
1.000000000000000
 21
0.000000000000000
 31
0.000000000000000
  7
STANDARD
  0
POINT
  5
47
100
AcDbEntity
  8
A7
  6
CONTINUOUS
 62
3
100
AcDbPoint
 10
9.999997526638502
 20
18.00000076076889
 30
0.000000000000000
  0
LINE
  5
48
100
AcDbEntity
  8
A1
  6
CONTINUOUS
 62
7
100
AcDbLine
 10
164.8994000000000
 20
148.5000000000000
 30
0.000000000000000
 11
164.8994000000000
 21
131.5000000000000
 31
0.000000000000000
  0
LINE
  5
49
100
AcDbEntity
  8
A1
  6
CONTINUOUS
 62
7
100
AcDbLine
 10
164.8994000000000
 20
131.6000000000000
 30
0.000000000000000
 11
167.1994000000000
 21
131.6000000000000
 31
0.000000000000000
  0
LINE
  5
4A
100
AcDbEntity
  8
A1
  6
CONTINUOUS
 62
7
100
AcDbLine
 10
164.8994000000000
 20
148.4000000000000
 30
0.000000000000000
 11
167.1994000000000
 21
148.4000000000000
 31
0.000000000000000
  0
LINE
  5
4B
100
AcDbEntity
  8
A1
  6
CONTINUOUS
 62
7
100
AcDbLine
 10
246.9133999999999
 20
130.5000000000000
 30
0.000000000000000
 11
250.9133999999999
 21
130.5000000000000
 31
0.000000000000000
  0
LINE
  5
4C
100
AcDbEntity
  8
A1
  6
CONTINUOUS
 62
7
100
AcDbLine
 10
246.9133999999999
 20
149.5000000000000
 30
0.000000000000000
 11
250.9133999999999
 21
149.5000000000000
 31
0.000000000000000
  0
LINE
  5
4D
100
AcDbEntity
  8
A1
  6
CONTINUOUS
 62
7
100
AcDbLine
 10
250.9133999999999
 20
149.5000000000000
 30
0.000000000000000
 11
250.9133999999999
 21
130.5000000000000
 31
0.000000000000000
  0
LINE
  5
4E
100
AcDbEntity
  8
A1
  6
CONTINUOUS
 62
7
100
AcDbLine
 10
244.9133999999999
 20
147.8689862838484
 30
0.000000000000000
 11
244.9133999999999
 21
143.8689862838484
 31
0.000000000000000
  0
LINE
  5
4F
100
AcDbEntity
  8
A1
  6
CONTINUOUS
 62
7
100
AcDbLine
 10
247.9133999999999
 20
136.8785647483546
 30
0.000000000000000
 11
250.9133999999999
 21
136.8785647483546
 31
0.000000000000000
  0
LINE
  5
50
100
AcDbEntity
  8
A4
  6
CENTER
 62
1
100
AcDbLine
 10
346.9984000000000
 20
50.00000000000000
 30
0.000000000000000
 11
318.9984000000000
 21
50.00000000000000
 31
0.000000000000000
  0
LINE
  5
51
100
AcDbEntity
  8
A4
  6
CENTER
 62
1
100
AcDbLine
 10
332.9984000000000
 20
35.99999999999997
 30
0.000000000000000
 11
332.9984000000000
 21
68.49999999999996
 31
0.000000000000000
  0
LINE
  5
52
100
AcDbEntity
  8
A1
  6
CONTINUOUS
 62
7
100
AcDbLine
 10
323.4984000000000
 20
60.58300000000003
 30
0.000000000000000
 11
323.4984000000000
 21
46.87799999999996
 31
0.000000000000000
  0
LINE
  5
53
100
AcDbEntity
  8
A1
  6
CONTINUOUS
 62
7
100
AcDbLine
 10
342.4984000000000
 20
56.00000000000000
 30
0.000000000000000
 11
342.4984000000000
 21
46.87799999999996
 31
0.000000000000000
  0
LINE
  5
54
100
AcDbEntity
  8
A1
  6
CONTINUOUS
 62
7
100
AcDbLine
 10
331.9419999999999
 20
48.94400000000005
 30
0.000000000000000
 11
331.9500999999999
 21
48.92900000000000
 31
0.000000000000000
  0
LINE
  5
55
100
AcDbEntity
  8
A1
  6
CONTINUOUS
 62
7
100
AcDbLine
 10
331.9501000000001
 20
48.92899999999995
 30
0.000000000000000
 11
331.9834000000001
 21
47.01799999999992
 31
0.000000000000000
  0
LINE
  5
56
100
AcDbEntity
  8
A1
  6
CONTINUOUS
 62
7
100
AcDbLine
 10
334.0548000000001
 20
48.94400000000005
 30
0.000000000000000
 11
334.0467000000000
 21
48.92900000000000
 31
0.000000000000000
  0
LINE
  5
57
100
AcDbEntity
  8
A1
  6
CONTINUOUS
 62
7
100
AcDbLine
 10
334.0467000000001
 20
48.92899999999982
 30
0.000000000000000
 11
334.0134000000001
 21
47.01799999999979
 31
0.000000000000000
  0
LINE
  5
58
100
AcDbEntity
  8
A1
  6
CONTINUOUS
 62
7
100
AcDbLine
 10
334.0547999999999
 20
51.05699999999999
 30
0.000000000000000
 11
334.0698000000000
 21
51.04899999999992
 31
0.000000000000000
  0
LINE
  5
59
100
AcDbEntity
  8
A1
  6
CONTINUOUS
 62
7
100
AcDbLine
 10
334.0698000000001
 20
51.04899999999991
 30
0.000000000000000
 11
335.9804000000001
 21
51.01499999999992
 31
0.000000000000000
  0
LINE
  5
5A
100
AcDbEntity
  8
A1
  6
CONTINUOUS
 62
7
100
AcDbLine
 10
334.0698000000000
 20
48.95199999999991
 30
0.000000000000000
 11
335.9804000000000
 21
48.98499999999992
 31
0.000000000000000
  0
LINE
  5
5B
100
AcDbEntity
  8
A1
  6
CONTINUOUS
 62
7
100
AcDbLine
 10
334.0547999999999
 20
48.94400000000002
 30
0.000000000000000
 11
334.0697999999999
 21
48.95199999999997
 31
0.000000000000000
  0
LINE
  5
5C
100
AcDbEntity
  8
A1
  6
CONTINUOUS
 62
7
100
AcDbLine
 10
331.9420000000000
 20
51.05699999999992
 30
0.000000000000000
 11
331.9500000000000
 21
51.07199999999996
 31
0.000000000000000
  0
LINE
  5
5D
100
AcDbEntity
  8
A1
  6
CONTINUOUS
 62
7
100
AcDbLine
 10
331.9500000000001
 20
51.07199999999999
 30
0.000000000000000
 11
331.9834000000001
 21
52.98199999999997
 31
0.000000000000000
  0
LINE
  5
5E
100
AcDbEntity
  8
A1
  6
CONTINUOUS
 62
7
100
AcDbLine
 10
334.0468000000000
 20
51.07199999999995
 30
0.000000000000000
 11
334.0134000000000
 21
52.98199999999999
 31
0.000000000000000
  0
LINE
  5
5F
100
AcDbEntity
  8
A1
  6
CONTINUOUS
 62
7
100
AcDbLine
 10
334.0548000000001
 20
51.05699999999993
 30
0.000000000000000
 11
334.0467000000001
 21
51.07199999999992
 31
0.000000000000000
  0
LINE
  5
60
100
AcDbEntity
  8
A1
  6
CONTINUOUS
 62
7
100
AcDbLine
 10
331.9420000000001
 20
48.94399999999999
 30
0.000000000000000
 11
331.9270000000001
 21
48.95199999999998
 31
0.000000000000000
  0
LINE
  5
61
100
AcDbEntity
  8
A1
  6
CONTINUOUS
 62
7
100
AcDbLine
 10
331.9270000000000
 20
48.95199999999990
 30
0.000000000000000
 11
330.0164000000001
 21
48.98499999999991
 31
0.000000000000000
  0
LINE
  5
62
100
AcDbEntity
  8
A1
  6
CONTINUOUS
 62
7
100
AcDbLine
 10
331.9270000000000
 20
51.04899999999994
 30
0.000000000000000
 11
330.0164000000000
 21
51.01499999999995
 31
0.000000000000000
  0
LINE
  5
63
100
AcDbEntity
  8
A1
  6
CONTINUOUS
 62
7
100
AcDbLine
 10
331.9420000000001
 20
51.05700000000007
 30
0.000000000000000
 11
331.9270000000001
 21
51.04900000000001
 31
0.000000000000000
  0
LINE
  5
64
100
AcDbEntity
  8
A1
  6
CONTINUOUS
 62
7
100
AcDbLine
 10
342.4984000000000
 20
56.00000000000003
 30
0.000000000000000
 11
329.9984000000001
 21
66.99999999999994
 31
0.000000000000000
  0
ARC
  5
65
100
AcDbEntity
  8
A1
  6
CONTINUOUS
 62
7
100
AcDbCircle
 10
332.9984000000000
 20
49.99999999999999
 30
0.000000000000000
 40
10.00000000000000
100
AcDbArc
 50
198.1950000000000
 51
341.8051000000000
  0
CIRCLE
  5
66
100
AcDbEntity
  8
A1
  6
CONTINUOUS
 62
7
100
AcDbCircle
 10
332.9984000000000
 20
49.99999999999999
 30
0.000000000000000
 40
8.000000000000000
  0
CIRCLE
  5
67
100
AcDbEntity
  8
A1
  6
CONTINUOUS
 62
7
100
AcDbCircle
 10
332.9984000000000
 20
49.99999999999999
 30
0.000000000000000
 40
6.000000000000000
  0
ARC
  5
68
100
AcDbEntity
  8
A1
  6
CONTINUOUS
 62
7
100
AcDbCircle
 10
332.9984000000000
 20
49.99999999999999
 30
0.000000000000000
 40
3.150000000000000
100
AcDbArc
 50
251.2030000000000
 51
288.7974000000000
  0
ARC
  5
69
100
AcDbEntity
  8
A1
  6
CONTINUOUS
 62
7
100
AcDbCircle
 10
332.9984000000000
 20
49.99999999999999
 30
0.000000000000000
 40
3.150000000000000
100
AcDbArc
 50
341.2026000000000
 51
378.7970000000000
  0
ARC
  5
6A
100
AcDbEntity
  8
A1
  6
CONTINUOUS
 62
7
100
AcDbCircle
 10
332.9984000000000
 20
49.99999999999999
 30
0.000000000000000
 40
3.150000000000000
100
AcDbArc
 50
71.20300000000000
 51
108.7970000000000
  0
ARC
  5
6B
100
AcDbEntity
  8
A1
  6
CONTINUOUS
 62
7
100
AcDbCircle
 10
332.9984000000000
 20
49.99999999999999
 30
0.000000000000000
 40
3.150000000000000
100
AcDbArc
 50
161.2030000000000
 51
198.7970000000001
  0
ARC
  5
6C
100
AcDbEntity
  8
A1
  6
CONTINUOUS
 62
7
100
AcDbCircle
 10
332.9984000000000
 20
57.46100000000000
 30
0.000000000000000
 40
10.00000000000000
100
AcDbArc
 50
107.4580000000000
 51
161.8050000000000
  0
ARC
  5
6D
100
AcDbEntity
  8
A1
  6
CONTINUOUS
 62
7
100
AcDbCircle
 10
332.9984000000000
 20
49.99999999999999
 30
0.000000000000000
 40
12.50000000000000
100
AcDbArc
 50
271.6423634236712
 51
328.3576365763287
  0
ARC
  5
6E
100
AcDbEntity
  8
A1
  6
CONTINUOUS
 62
7
100
AcDbCircle
 10
332.9984000000000
 20
49.99999999999999
 30
0.000000000000000
 40
12.50000000000000
100
AcDbArc
 50
211.6423634236705
 51
268.3576365763292
  0
ARC
  5
6F
100
AcDbEntity
  8
A1
  6
CONTINUOUS
 62
7
100
AcDbCircle
 10
332.9984000000000
 20
49.99999999999999
 30
0.000000000000000
 40
12.50000000000000
100
AcDbArc
 50
151.6423634236707
 51
208.3576365763291
  0
ARC
  5
70
100
AcDbEntity
  8
A1
  6
CONTINUOUS
 62
7
100
AcDbCircle
 10
332.9984000000000
 20
49.99999999999999
 30
0.000000000000000
 40
12.50000000000000
100
AcDbArc
 50
139.4640000000000
 51
148.3576365763266
  0
ARC
  5
71
100
AcDbEntity
  8
A1
  6
CONTINUOUS
 62
7
100
AcDbCircle
 10
332.9984000000000
 20
49.99999999999999
 30
0.000000000000000
 40
12.50000000000000
100
AcDbArc
 50
31.64236342367214
 51
79.06300000000002
  0
ARC
  5
72
100
AcDbEntity
  8
A1
  6
CONTINUOUS
 62
7
100
AcDbCircle
 10
332.9984000000000
 20
49.99999999999999
 30
0.000000000000000
 40
12.50000000000000
100
AcDbArc
 50
331.6423634236709
 51
388.3576365763286
  0
LINE
  5
73
100
AcDbEntity
  8
A1
  6
CONTINUOUS
 62
7
100
AcDbLine
 10
141.6993999999999
 20
149.4999999999999
 30
0.000000000000000
 11
145.6994000000000
 21
152.4999999999999
 31
0.000000000000000
  0
LINE
  5
74
100
AcDbEntity
  8
A1
  6
CONTINUOUS
 62
7
100
AcDbLine
 10
145.6994000000000
 20
152.4999999999999
 30
0.000000000000000
 11
145.6994000000000
 21
127.5000000000000
 31
0.000000000000000
  0
LINE
  5
75
100
AcDbEntity
  8
A1
  6
CONTINUOUS
 62
7
100
AcDbLine
 10
147.6994000000000
 20
152.4999999999999
 30
0.000000000000000
 11
147.6994000000000
 21
127.5000000000000
 31
0.000000000000000
  0
LINE
  5
76
100
AcDbEntity
  8
A1
  6
CONTINUOUS
 62
7
100
AcDbLine
 10
197.0517272134880
 20
152.5000000000008
 30
0.000000000000000
 11
197.0517272134880
 21
127.5000000000009
 31
0.000000000000000
  0
LINE
  5
77
100
AcDbEntity
  8
A1
  6
CONTINUOUS
 62
7
100
AcDbLine
 10
147.6994000000000
 20
152.4999999999999
 30
0.000000000000000
 11
147.6994000000000
 21
127.5000000000000
 31
0.000000000000000
  0
LINE
  5
78
100
AcDbEntity
  8
A1
  6
CONTINUOUS
 62
7
100
AcDbLine
 10
141.6994000000000
 20
130.5000000000000
 30
0.000000000000000
 11
145.6994000000001
 21
127.5000000000000
 31
0.000000000000000
  0
LINE
  5
79
100
AcDbEntity
  8
A1
  6
CONTINUOUS
 62
7
100
AcDbLine
 10
141.6994000000000
 20
149.5000000000000
 30
0.000000000000000
 11
141.6994000000000
 21
130.5000000000000
 31
0.000000000000000
  0
LINE
  5
7A
100
AcDbEntity
  8
A1
  6
CONTINUOUS
 62
7
100
AcDbLine
 10
246.9133999999999
 20
130.5000000000000
 30
0.000000000000000
 11
246.9133999999999
 21
149.5000000000000
 31
0.000000000000000
  0
LINE
  5
7B
100
AcDbEntity
  8
A1
  6
CONTINUOUS
 62
7
100
AcDbLine
 10
257.9133999999544
 20
146.0000000000000
 30
0.000000000000000
 11
257.9133999999544
 21
134.0000000000000
 31
0.000000000000000
  0
LINE
  5
7C
100
AcDbEntity
  8
A1
  6
CONTINUOUS
 62
7
100
AcDbLine
 10
257.9133999999544
 20
134.0000000000000
 30
0.000000000000000
 11
258.3133999999545
 21
134.0000000000000
 31
0.000000000000000
  0
LINE
  5
7D
100
AcDbEntity
  8
A1
  6
CONTINUOUS
 62
7
100
AcDbLine
 10
258.3133999999545
 20
146.0000000000000
 30
0.000000000000000
 11
258.3133999999545
 21
134.0000000000000
 31
0.000000000000000
  0
LINE
  5
7E
100
AcDbEntity
  8
A1
  6
CONTINUOUS
 62
7
100
AcDbLine
 10
257.9133999999545
 20
134.0000000000000
 30
0.000000000000000
 11
257.4133999999999
 21
134.4999999999532
 31
0.000000000000000
  0
LINE
  5
7F
100
AcDbEntity
  8
A1
  6
CONTINUOUS
 62
7
100
AcDbLine
 10
257.9133999999545
 20
146.0000000000000
 30
0.000000000000000
 11
257.4134000000000
 21
145.5000000000458
 31
0.000000000000000
  0
LINE
  5
80
100
AcDbEntity
  8
A1
  6
CONTINUOUS
 62
7
100
AcDbLine
 10
257.9133999999544
 20
146.0000000000000
 30
0.000000000000000
 11
258.3133999999545
 21
146.0000000000000
 31
0.000000000000000
  0
LINE
  5
81
100
AcDbEntity
  8
A1
  6
CONTINUOUS
 62
7
100
AcDbLine
 10
164.8994000000000
 20
56.24999999999999
 30
0.000000000000000
 11
167.1994000000001
 21
56.24999999999999
 31
0.000000000000000
  0
LINE
  5
82
100
AcDbEntity
  8
A1
  6
CONTINUOUS
 62
7
100
AcDbLine
 10
141.6994000000000
 20
59.50000000000004
 30
0.000000000000000
 11
141.6994000000000
 21
40.50000000000001
 31
0.000000000000000
  0
LINE
  5
83
100
AcDbEntity
  8
A1
  6
CONTINUOUS
 62
7
100
AcDbLine
 10
147.6994000000000
 20
62.49999999999999
 30
0.000000000000000
 11
147.6994000000000
 21
37.49999999999996
 31
0.000000000000000
  0
LINE
  5
84
100
AcDbEntity
  8
A1
  6
CONTINUOUS
 62
7
100
AcDbLine
 10
145.6994000000000
 20
62.49999999999999
 30
0.000000000000000
 11
145.6994000000000
 21
37.49999999999996
 31
0.000000000000000
  0
LINE
  5
85
100
AcDbEntity
  8
A1
  6
CONTINUOUS
 62
7
100
AcDbLine
 10
141.6994000000000
 20
59.50000000000001
 30
0.000000000000000
 11
145.6994000000000
 21
62.49999999999997
 31
0.000000000000000
  0
LINE
  5
86
100
AcDbEntity
  8
A1
  6
CONTINUOUS
 62
7
100
AcDbLine
 10
141.6994000000000
 20
40.50000000000000
 30
0.000000000000000
 11
145.6994000000000
 21
37.49999999999997
 31
0.000000000000000
  0
LINE
  5
87
100
AcDbEntity
  8
A1
  6
CONTINUOUS
 62
7
100
AcDbLine
 10
147.6994000000000
 20
62.49999999999999
 30
0.000000000000000
 11
147.6994000000000
 21
37.49999999999996
 31
0.000000000000000
  0
LINE
  5
88
100
AcDbEntity
  8
A1
  6
CONTINUOUS
 62
7
100
AcDbLine
 10
145.6993999999999
 20
62.49999999999996
 30
0.000000000000000
 11
147.6994000000000
 21
62.49999999999997
 31
0.000000000000000
  0
LINE
  5
89
100
AcDbEntity
  8
A1
  6
CONTINUOUS
 62
7
100
AcDbLine
 10
145.6994000000000
 20
37.49999999999996
 30
0.000000000000000
 11
147.6994000000000
 21
37.49999999999996
 31
0.000000000000000
  0
LINE
  5
8A
100
AcDbEntity
  8
A1
  6
CONTINUOUS
 62
7
100
AcDbLine
 10
167.1994000000000
 20
41.59999999999992
 30
0.000000000000000
 11
167.1994000000000
 21
56.24999999999999
 31
0.000000000000000
  0
LINE
  5
8B
100
AcDbEntity
  8
A1
  6
CONTINUOUS
 62
7
100
AcDbLine
 10
206.2317272134880
 20
128.2273314250556
 30
0.000000000000000
 11
206.2317272134880
 21
151.7726685749372
 31
0.000000000000000
  0
LINE
  5
8C
100
AcDbEntity
  8
A1
  6
CONTINUOUS
 62
7
100
AcDbLine
 10
208.7317272134881
 20
129.6121489257226
 30
0.000000000000000
 11
207.6438003818861
 21
127.4999999999966
 31
0.000000000000000
  0
LINE
  5
8D
100
AcDbEntity
  8
A1
  6
CONTINUOUS
 62
7
100
AcDbLine
 10
207.6438003818861
 20
127.4999999999966
 30
0.000000000000000
 11
206.2213999999750
 21
128.2326507718782
 31
0.000000000000000
  0
LINE
  5
8E
100
AcDbEntity
  8
A1
  6
CONTINUOUS
 62
7
100
AcDbLine
 10
208.7317272134881
 20
150.3878510742704
 30
0.000000000000000
 11
207.6438003818861
 21
152.4999999999964
 31
0.000000000000000
  0
LINE
  5
8F
100
AcDbEntity
  8
A1
  6
CONTINUOUS
 62
7
100
AcDbLine
 10
207.6438003818862
 20
152.4999999999963
 30
0.000000000000000
 11
206.2213999999750
 21
151.7673492281147
 31
0.000000000000000
  0
LINE
  5
90
100
AcDbEntity
  8
A1
  6
CONTINUOUS
 62
7
100
AcDbLine
 10
207.6438003818861
 20
127.4999999999965
 30
0.000000000000000
 11
207.6438003818861
 21
152.4999999999963
 31
0.000000000000000
  0
LINE
  5
91
100
AcDbEntity
  8
A1
  6
CONTINUOUS
 62
7
100
AcDbLine
 10
208.7317272135131
 20
60.38785107427387
 30
0.000000000000000
 11
207.6438003819111
 21
62.49999999999985
 31
0.000000000000000
  0
LINE
  5
92
100
AcDbEntity
  8
A1
  6
CONTINUOUS
 62
7
100
AcDbLine
 10
207.6438003819111
 20
62.49999999999980
 30
0.000000000000000
 11
206.2214000000000
 21
61.76734922811823
 31
0.000000000000000
  0
LINE
  5
93
100
AcDbEntity
  8
A1
  6
CONTINUOUS
 62
7
100
AcDbLine
 10
206.2317272135131
 20
38.22733142505906
 30
0.000000000000000
 11
206.2317272135131
 21
61.77266857494070
 31
0.000000000000000
  0
LINE
  5
94
100
AcDbEntity
  8
A1
  6
CONTINUOUS
 62
7
100
AcDbLine
 10
207.6438003819111
 20
37.50000000000001
 30
0.000000000000000
 11
207.6438003819111
 21
62.49999999999982
 31
0.000000000000000
  0
LINE
  5
95
100
AcDbEntity
  8
A1
  6
CONTINUOUS
 62
7
100
AcDbLine
 10
207.6438003819112
 20
37.50000000000006
 30
0.000000000000000
 11
206.2214000000000
 21
38.23265077188164
 31
0.000000000000000
  0
LINE
  5
96
100
AcDbEntity
  8
A1
  6
CONTINUOUS
 62
7
100
AcDbLine
 10
208.7317272135132
 20
39.61214892572599
 30
0.000000000000000
 11
207.6438003819111
 21
37.50000000000000
 31
0.000000000000000
  0
LINE
  5
97
100
AcDbEntity
  8
A1
  6
CONTINUOUS
 62
7
100
AcDbLine
 10
321.9984000000001
 20
43.64914703891423
 30
0.000000000000000
 11
321.9984000000001
 21
56.35085296108599
 31
0.000000000000000
  0
LINE
  5
98
100
AcDbEntity
  8
A1
  6
CONTINUOUS
 62
7
100
AcDbLine
 10
332.9984000000001
 20
37.29829407782839
 30
0.000000000000000
 11
321.9984000000001
 21
43.64914703891426
 31
0.000000000000000
  0
LINE
  5
99
100
AcDbEntity
  8
A1
  6
CONTINUOUS
 62
7
100
AcDbLine
 10
323.4984000000000
 20
57.21687836487048
 30
0.000000000000000
 11
321.9984000000000
 21
56.35085296108606
 31
0.000000000000000
  0
LINE
  5
9A
100
AcDbEntity
  8
A1
  6
CONTINUOUS
 62
7
100
AcDbLine
 10
343.9984000000000
 20
43.64914703891415
 30
0.000000000000000
 11
332.9983999999999
 21
37.29829407782825
 31
0.000000000000000
  0
LINE
  5
9B
100
AcDbEntity
  8
A1
  6
CONTINUOUS
 62
7
100
AcDbLine
 10
255.4133999999999
 20
148.0000000000000
 30
0.000000000000000
 11
250.9133999999999
 21
148.0000000000000
 31
0.000000000000000
  0
ARC
  5
9C
100
AcDbEntity
  8
A1
  6
CONTINUOUS
 62
7
100
AcDbCircle
 10
255.4133999999999
 20
146.0000000000000
 30
0.000000000000000
 40
2.000000000000000
100
AcDbArc
 50
0.000000000000000
 51
90.00000000000000
  0
LINE
  5
9D
100
AcDbEntity
  8
A1
  6
CONTINUOUS
 62
7
100
AcDbLine
 10
257.4133999999999
 20
146.0000000000000
 30
0.000000000000000
 11
257.4133999999999
 21
134.0000000000000
 31
0.000000000000000
  0
ARC
  5
9E
100
AcDbEntity
  8
A1
  6
CONTINUOUS
 62
7
100
AcDbCircle
 10
255.4133999999999
 20
134.0000000000000
 30
0.000000000000000
 40
2.000000000000000
100
AcDbArc
 50
270.0000000000000
 51
360.0000000000000
  0
LINE
  5
9F
100
AcDbEntity
  8
A1
  6
CONTINUOUS
 62
7
100
AcDbLine
 10
255.4133999999999
 20
132.0000000000000
 30
0.000000000000000
 11
250.9133999999999
 21
132.0000000000000
 31
0.000000000000000
  0
LINE
  5
A0
100
AcDbEntity
  8
A1
  6
CONTINUOUS
 62
7
100
AcDbLine
 10
343.9983999999999
 20
56.35085296108593
 30
0.000000000000000
 11
338.4776517851839
 21
59.53825842903805
 31
0.000000000000000
  0
ARC
  5
A1
100
AcDbEntity
  8
A1
  6
CONTINUOUS
 62
7
100
AcDbCircle
 10
332.9983999999999
 20
50.00000000000004
 30
0.000000000000000
 40
11.00000000000004
100
AcDbArc
 50
149.7273586810892
 51
390.2726413189094
  0
ARC
  5
A2
100
AcDbEntity
  8
A1
  6
CONTINUOUS
 62
7
100
AcDbCircle
 10
332.9983999999999
 20
50.00000000000004
 30
0.000000000000000
 40
11.00000000000004
100
AcDbArc
 50
37.18032529206511
 51
60.12412026854734
  0
LINE
  5
A3
100
AcDbEntity
  8
A1
  6
CONTINUOUS
 62
7
100
AcDbLine
 10
164.8994000000000
 20
58.49999999996434
 30
0.000000000000000
 11
164.8994000000000
 21
41.49999999996420
 31
0.000000000000000
  0
LINE
  5
A4
100
AcDbEntity
  8
A1
  6
CONTINUOUS
 62
7
100
AcDbLine
 10
164.8994000000001
 20
41.59999999999992
 30
0.000000000000000
 11
167.1994000000000
 21
41.59999999999992
 31
0.000000000000000
  0
LINE
  5
A5
100
AcDbEntity
  8
A1
  6
CONTINUOUS
 62
7
100
AcDbLine
 10
163.8994000000000
 20
59.49999999996385
 30
0.000000000000000
 11
164.8994000000000
 21
58.49999999996427
 31
0.000000000000000
  0
LINE
  5
A6
100
AcDbEntity
  8
A1
  6
CONTINUOUS
 62
7
100
AcDbLine
 10
163.8994000000095
 20
54.24264068710652
 30
0.000000000000000
 11
164.8994000000095
 21
53.24264068710693
 31
0.000000000000000
  0
LINE
  5
A7
100
AcDbEntity
  8
A1
  6
CONTINUOUS
 62
7
100
AcDbLine
 10
163.8994000000000
 20
59.49999999996385
 30
0.000000000000000
 11
163.8994000000095
 21
54.24264068710653
 31
0.000000000000000
  0
LINE
  5
A8
100
AcDbEntity
  8
A1
  6
CONTINUOUS
 62
7
100
AcDbLine
 10
167.1994000000000
 20
54.35466847836936
 30
0.000000000000000
 11
164.8994000000000
 21
54.35466847836936
 31
0.000000000000000
  0
LINE
  5
A9
100
AcDbEntity
  8
A1
  6
CONTINUOUS
 62
7
100
AcDbLine
 10
164.8994000000000
 20
41.49999999996422
 30
0.000000000000000
 11
163.8994000000000
 21
40.49999999996380
 31
0.000000000000000
  0
LINE
  5
AA
100
AcDbEntity
  8
A1
  6
CONTINUOUS
 62
7
100
AcDbLine
 10
164.8994000000247
 20
46.75735931288273
 30
0.000000000000000
 11
163.8994000000247
 21
45.75735931288231
 31
0.000000000000000
  0
LINE
  5
AB
100
AcDbEntity
  8
A1
  6
CONTINUOUS
 62
7
100
AcDbLine
 10
163.8994000000248
 20
45.75735931288236
 30
0.000000000000000
 11
163.8994000000342
 21
40.49999999997024
 31
0.000000000000000
  0
LINE
  5
AC
100
AcDbEntity
  8
A1
  6
CONTINUOUS
 62
7
100
AcDbLine
 10
167.1994000000000
 20
132.8169043968844
 30
0.000000000000000
 11
164.8994000000000
 21
132.8169043968844
 31
0.000000000000000
  0
LINE
  5
AD
100
AcDbEntity
  8
A1
  6
CONTINUOUS
 62
7
100
AcDbLine
 10
167.1994000000000
 20
134.3614521705500
 30
0.000000000000000
 11
164.8994000000000
 21
134.3614521705500
 31
0.000000000000000
  0
LINE
  5
AE
100
AcDbEntity
  8
A1
  6
CONTINUOUS
 62
7
100
AcDbLine
 10
167.1994000000000
 20
147.1830956031154
 30
0.000000000000000
 11
164.8994000000000
 21
147.1830956031154
 31
0.000000000000000
  0
LINE
  5
AF
100
AcDbEntity
  8
A1
  6
CONTINUOUS
 62
7
100
AcDbLine
 10
167.1994000000000
 20
145.6385478294500
 30
0.000000000000000
 11
164.8994000000000
 21
145.6385478294500
 31
0.000000000000000
  0
LINE
  5
B0
100
AcDbEntity
  8
A1
  6
CONTINUOUS
 62
7
100
AcDbLine
 10
247.9133999999999
 20
130.5000000000000
 30
0.000000000000000
 11
247.9133999999999
 21
145.7401159170681
 31
0.000000000000000
  0
ARC
  5
B1
100
AcDbEntity
  8
A1
  6
CONTINUOUS
 62
7
100
AcDbCircle
 10
247.9133999999999
 20
131.5000000000001
 30
0.000000000000000
 40
1.000000000000028
100
AcDbArc
 50
180.0000000000000
 51
270.0000000000000
  0
LINE
  5
B2
100
AcDbEntity
  8
A1
  6
CONTINUOUS
 62
7
100
AcDbLine
 10
244.9133999999999
 20
147.8689862838484
 30
0.000000000000000
 11
246.9133999999999
 21
147.8689862838484
 31
0.000000000000000
  0
LINE
  5
B3
100
AcDbEntity
  8
A1
  6
CONTINUOUS
 62
7
100
AcDbLine
 10
244.9133999999999
 20
143.8689862838484
 30
0.000000000000000
 11
246.9133999999999
 21
143.8689862838484
 31
0.000000000000000
  0
ELLIPSE
  5
B4
100
AcDbEntity
  8
A1
  6
CONTINUOUS
 62
7
100
AcDbEllipse
 10
247.9133999999998
 20
145.0330091358786
 30
0.000000000000000
 11
-0.9999999999998863
 21
0.000000000000000
 31
0.000000000000000
210
0.000000000000000
220
0.000000000000000
230
1.000000000000000
 40
0.7071067811896463
 41
4.712388980384690
 42
0.000000000000000
  0
LINE
  5
B5
100
AcDbEntity
  8
A1
  6
CONTINUOUS
 62
7
100
AcDbLine
 10
246.9133999999999
 20
145.7401159170681
 30
0.000000000000000
 11
247.9133999999999
 21
145.7401159170681
 31
0.000000000000000
  0
LINE
  5
B6
100
AcDbEntity
  8
A1
  6
CONTINUOUS
 62
7
100
AcDbLine
 10
220.9309196277501
 20
62.70170592217175
 30
0.000000000000000
 11
217.9133999999999
 21
62.70170592217175
 31
0.000000000000000
  0
LINE
  5
B7
100
AcDbEntity
  8
A1
  6
CONTINUOUS
 62
7
100
AcDbLine
 10
220.9309196277502
 20
37.29829407782821
 30
0.000000000000000
 11
217.9133999999999
 21
37.29829407782821
 31
0.000000000000000
  0
LINE
  5
B8
100
AcDbEntity
  8
A1
  6
CONTINUOUS
 62
7
100
AcDbLine
 10
220.9309196277496
 20
56.35085296108587
 30
0.000000000000000
 11
217.9133999999999
 21
56.35085296108587
 31
0.000000000000000
  0
LINE
  5
B9
100
AcDbEntity
  8
A1
  6
CONTINUOUS
 62
7
100
AcDbLine
 10
220.9309196277496
 20
43.64914703891403
 30
0.000000000000000
 11
217.9133999999999
 21
43.64914703891403
 31
0.000000000000000
  0
LINE
  5
BA
100
AcDbEntity
  8
A1
  6
CONTINUOUS
 62
7
100
AcDbLine
 10
217.9133999999999
 20
62.70170592217175
 30
0.000000000000000
 11
217.9133999999999
 21
37.29829407782821
 31
0.000000000000000
  0
LINE
  5
BB
100
AcDbEntity
  8
A1
  6
CONTINUOUS
 62
7
100
AcDbLine
 10
221.9133999999999
 20
60.99999999999999
 30
0.000000000000000
 11
221.9133999999999
 21
38.99999999999979
 31
0.000000000000000
  0
LINE
  5
BC
100
AcDbEntity
  8
A1
  6
CONTINUOUS
 62
7
100
AcDbLine
 10
221.9133999999999
 20
38.99999999999984
 30
0.000000000000000
 11
220.9309196277496
 21
37.29829407782732
 31
0.000000000000000
  0
ARC
  5
BD
100
AcDbEntity
  8
A1
  6
CONTINUOUS
 62
7
100
AcDbCircle
 10
200.8958803723063
 20
49.99999999999993
 30
0.000000000000000
 40
21.01751962769367
100
AcDbArc
 50
342.4120462259552
 51
377.5879537740447
  0
ARC
  5
BE
100
AcDbEntity
  8
A1
  6
CONTINUOUS
 62
7
100
AcDbCircle
 10
210.4221598139059
 20
38.99999999999967
 30
0.000000000000000
 40
11.49124018609405
100
AcDbArc
 50
0.000000000000000
 51
23.86492541611641
  0
LINE
  5
BF
100
AcDbEntity
  8
A1
  6
CONTINUOUS
 62
7
100
AcDbLine
 10
221.9134000000000
 20
60.99999999999998
 30
0.000000000000000
 11
220.9309196277497
 21
62.70170592217250
 31
0.000000000000000
  0
ARC
  5
C0
100
AcDbEntity
  8
A1
  6
CONTINUOUS
 62
7
100
AcDbCircle
 10
210.4221598139059
 20
61.00000000000016
 30
0.000000000000000
 40
11.49124018609405
100
AcDbArc
 50
336.1350745838836
 51
360.0000000000000
  0
LINE
  5
C1
100
AcDbEntity
  8
A1
  6
CONTINUOUS
 62
7
100
AcDbLine
 10
221.9133999999885
 20
150.9999999999942
 30
0.000000000000000
 11
217.9133999999855
 21
150.9999999999927
 31
0.000000000000000
  0
LINE
  5
C2
100
AcDbEntity
  8
A1
  6
CONTINUOUS
 62
7
100
AcDbLine
 10
217.9134000000000
 20
129.0000000000000
 30
0.000000000000000
 11
217.9134000000000
 21
151.0000000000000
 31
0.000000000000000
  0
ARC
  5
C3
100
AcDbEntity
  8
A1
  6
CONTINUOUS
 62
7
100
AcDbCircle
 10
206.0274502327562
 20
145.4999999999969
 30
0.000000000000000
 40
15.88594976723220
100
AcDbArc
 50
339.7438419994448
 51
380.2561580005553
  0
LINE
  5
C4
100
AcDbEntity
  8
A1
  6
CONTINUOUS
 62
7
100
AcDbLine
 10
221.9133999999884
 20
150.9999999999942
 30
0.000000000000000
 11
221.9133999999884
 21
128.9999999999942
 31
0.000000000000000
  0
LINE
  5
C5
100
AcDbEntity
  8
A1
  6
CONTINUOUS
 62
7
100
AcDbLine
 10
220.9309196277351
 20
139.9999999999999
 30
0.000000000000000
 11
217.9133999999999
 21
139.9999999999999
 31
0.000000000000000
  0
ARC
  5
C6
100
AcDbEntity
  8
A1
  6
CONTINUOUS
 62
7
100
AcDbCircle
 10
206.0274502327559
 20
134.5000000000035
 30
0.000000000000000
 40
15.88594976723220
100
AcDbArc
 50
339.7438419994417
 51
380.2561580005522
  0
LINE
  5
C7
100
AcDbEntity
  8
A1
  6
CONTINUOUS
 62
7
100
AcDbLine
 10
221.9133999999884
 20
128.9999999999942
 30
0.000000000000000
 11
217.9133999999855
 21
128.9999999999927
 31
0.000000000000000
  0
LINE
  5
C8
100
AcDbEntity
  8
A1
  6
CONTINUOUS
 62
7
100
AcDbLine
 10
343.9983999999999
 20
43.64914703891426
 30
0.000000000000000
 11
343.9983999999999
 21
56.35085296108588
 31
0.000000000000000
  0
LINE
  5
C9
100
AcDbEntity
  8
A4
  6
CENTER
 62
1
100
AcDbLine
 10
49.99999999999999
 20
68.49999999999996
 30
0.000000000000000
 11
49.99999999999997
 21
35.99999999999999
 31
0.000000000000000
  0
LINE
  5
CA
100
AcDbEntity
  8
A4
  6
CENTER
 62
1
100
AcDbLine
 10
35.99999999999996
 20
50.00000000000000
 30
0.000000000000000
 11
68.49999999999994
 21
49.99999999999999
 31
0.000000000000000
  0
LINE
  5
CB
100
AcDbEntity
  8
A1
  6
CONTINUOUS
 62
7
100
AcDbLine
 10
48.94999999999999
 20
46.50000000000001
 30
0.000000000000000
 11
51.05000000000001
 21
46.50000000000001
 31
0.000000000000000
  0
LINE
  5
CC
100
AcDbEntity
  8
A1
  6
CONTINUOUS
 62
7
100
AcDbLine
 10
48.94999999999999
 20
53.49999999999999
 30
0.000000000000000
 11
51.05000000000001
 21
53.49999999999999
 31
0.000000000000000
  0
LINE
  5
CD
100
AcDbEntity
  8
A1
  6
CONTINUOUS
 62
7
100
AcDbLine
 10
48.94999999999999
 20
46.50000000000001
 30
0.000000000000000
 11
48.94999999999999
 21
53.49999999999999
 31
0.000000000000000
  0
LINE
  5
CE
100
AcDbEntity
  8
A1
  6
CONTINUOUS
 62
7
100
AcDbLine
 10
51.05000000000001
 20
46.50000000000001
 30
0.000000000000000
 11
51.05000000000001
 21
53.49999999999999
 31
0.000000000000000
  0
LINE
  5
CF
100
AcDbEntity
  8
A1
  6
CONTINUOUS
 62
7
100
AcDbLine
 10
60.64180081774624
 20
56.55766029963571
 30
0.000000000000000
 11
60.99999487124887
 21
56.35085000000011
 31
0.000000000000000
  0
LINE
  5
D0
100
AcDbEntity
  8
A1
  6
CONTINUOUS
 62
7
100
AcDbLine
 10
62.70169999999997
 20
50.00000000000001
 30
0.000000000000000
 11
62.49489999999997
 21
49.64170000000001
 31
0.000000000000000
  0
LINE
  5
D1
100
AcDbEntity
  8
A1
  6
CONTINUOUS
 62
7
100
AcDbLine
 10
47.62839999999993
 20
62.27299999999998
 30
0.000000000000000
 11
52.99999999999992
 21
66.99999999999997
 31
0.000000000000000
  0
LINE
  5
D2
100
AcDbEntity
  8
A1
  6
CONTINUOUS
 62
7
100
AcDbLine
 10
59.49999999999998
 20
60.58309999999999
 30
0.000000000000000
 11
59.49999999999998
 21
58.12400000000002
 31
0.000000000000000
  0
CIRCLE
  5
D3
100
AcDbEntity
  8
A1
  6
CONTINUOUS
 62
7
100
AcDbCircle
 10
49.99999999999997
 20
50.00000000000000
 30
0.000000000000000
 40
9.500000000000000
  0
CIRCLE
  5
D4
100
AcDbEntity
  8
A1
  6
CONTINUOUS
 62
7
100
AcDbCircle
 10
49.99999999999997
 20
50.00000000000000
 30
0.000000000000000
 40
7.600000000000000
  0
ARC
  5
D5
100
AcDbEntity
  8
A1
  6
CONTINUOUS
 62
7
100
AcDbCircle
 10
49.99999999999997
 20
57.46060000000000
 30
0.000000000000000
 40
10.00000000000000
100
AcDbArc
 50
18.19500000000001
 51
72.54199999999999
  0
CIRCLE
  5
D6
100
AcDbEntity
  8
A1
  6
CONTINUOUS
 62
7
100
AcDbCircle
 10
49.99999999999997
 20
50.00000000000000
 30
0.000000000000000
 40
12.50000000000000
  0
LINE
  5
D7
100
AcDbEntity
  8
A5
  6
PHANTOM
 62
6
100
AcDbLine
 10
62.27299999999999
 20
52.37159999999997
 30
0.000000000000000
 11
66.99999999999997
 21
46.99999999999999
 31
0.000000000000000
  0
ARC
  5
D8
100
AcDbEntity
  8
A5
  6
PHANTOM
 62
6
100
AcDbCircle
 10
57.46059999999997
 20
50.00000000000000
 30
0.000000000000000
 40
10.00000000000000
100
AcDbArc
 50
288.1950000000000
 51
342.5420000000000
  0
LINE
  5
D9
100
AcDbEntity
  8
A5
  6
PHANTOM
 62
6
100
AcDbLine
 10
60.58309999999997
 20
40.49999999999996
 30
0.000000000000000
 11
58.12400000000000
 21
40.49999999999996
 31
0.000000000000000
  0
CIRCLE
  5
DA
100
AcDbEntity
  8
A1
  6
CONTINUOUS
 62
7
100
AcDbCircle
 10
49.99999999999997
 20
44.29999999999997
 30
0.000000000000000
 40
1.000000000000000
  0
LINE
  5
DB
100
AcDbEntity
  8
A1
  6
CONTINUOUS
 62
7
100
AcDbLine
 10
38.99999999999993
 20
43.64914703891409
 30
0.000000000000000
 11
38.99999999999994
 21
44.06282895648101
 31
0.000000000000000
  0
LINE
  5
DC
100
AcDbEntity
  8
A1
  6
CONTINUOUS
 62
7
100
AcDbLine
 10
39.00000000000004
 20
55.93717104351899
 30
0.000000000000000
 11
39.00000000000006
 21
56.35085296108585
 31
0.000000000000000
  0
LINE
  5
DD
100
AcDbEntity
  8
A1
  6
CONTINUOUS
 62
7
100
AcDbLine
 10
49.64174095030087
 20
37.50513503661172
 30
0.000000000000000
 11
49.99999999999998
 21
37.29829407782832
 31
0.000000000000000
  0
LINE
  5
DE
100
AcDbEntity
  8
A1
  6
CONTINUOUS
 62
7
100
AcDbLine
 10
39.00000000000007
 20
43.64914703891418
 30
0.000000000000000
 11
39.35825904969919
 21
43.44230608013078
 31
0.000000000000000
  0
LINE
  5
DF
100
AcDbEntity
  8
A1
  6
CONTINUOUS
 62
7
100
AcDbLine
 10
49.64174095030079
 20
62.49486496338832
 30
0.000000000000000
 11
50.00000000000000
 21
62.70170592217178
 31
0.000000000000000
  0
LINE
  5
E0
100
AcDbEntity
  8
A1
  6
CONTINUOUS
 62
7
100
AcDbLine
 10
38.99999999999998
 20
56.35085296108589
 30
0.000000000000000
 11
39.35825904969914
 21
56.55769391986932
 31
0.000000000000000
  0
LINE
  5
E1
100
AcDbEntity
  8
A1
  6
CONTINUOUS
 62
7
100
AcDbLine
 10
62.49486496338825
 20
50.35825904969904
 30
0.000000000000000
 11
62.70170592217167
 21
49.99999999999991
 31
0.000000000000000
  0
LINE
  5
E2
100
AcDbEntity
  8
A1
  6
CONTINUOUS
 62
7
100
AcDbLine
 10
50.00000000000000
 20
62.70170592217172
 30
0.000000000000000
 11
50.35825904969911
 21
62.49486496338832
 31
0.000000000000000
  0
LINE
  5
E3
100
AcDbEntity
  8
A1
  6
CONTINUOUS
 62
7
100
AcDbLine
 10
60.99999999999999
 20
43.64914703891409
 30
0.000000000000000
 11
61.00000000000001
 21
44.06282895648106
 31
0.000000000000000
  0
LINE
  5
E4
100
AcDbEntity
  8
A1
  6
CONTINUOUS
 62
7
100
AcDbLine
 10
60.99999999999999
 20
55.93717104351884
 30
0.000000000000000
 11
61.00000000000000
 21
56.35085296108576
 31
0.000000000000000
  0
LINE
  5
E5
100
AcDbEntity
  8
A1
  6
CONTINUOUS
 62
7
100
AcDbLine
 10
60.64174095030081
 20
43.44230608013072
 30
0.000000000000000
 11
60.99999999999999
 21
43.64914703891415
 31
0.000000000000000
  0
LINE
  5
E6
100
AcDbEntity
  8
A1
  6
CONTINUOUS
 62
7
100
AcDbLine
 10
49.99999999999993
 20
37.29829407782827
 30
0.000000000000000
 11
50.35825904969902
 21
37.50513503661166
 31
0.000000000000000
  0
LINE
  5
E7
100
AcDbEntity
  8
A1
  6
CONTINUOUS
 62
7
100
AcDbLine
 10
49.38273854901401
 20
62.48475022982545
 30
0.000000000000000
 11
53.22263293528491
 21
65.86385157093473
 31
0.000000000000000
  0
ARC
  5
E8
100
AcDbEntity
  8
A1
  6
CONTINUOUS
 62
7
100
AcDbCircle
 10
49.99999999999997
 20
57.46060000000000
 30
0.000000000000000
 40
9.000000000000000
100
AcDbArc
 50
19.18813645372087
 51
69.01826465227613
  0
LINE
  5
E9
100
AcDbEntity
  8
A1
  6
CONTINUOUS
 62
7
100
AcDbLine
 10
58.49999999999998
 20
60.41863989154978
 30
0.000000000000000
 11
58.49999999999998
 21
59.16515138991166
 31
0.000000000000000
  0
LINE
  5
EA
100
AcDbEntity
  8
A4
  6
CENTER
 62
1
100
AcDbLine
 10
140.1994000000000
 20
140.0000000000000
 30
0.000000000000000
 11
175.6994000000000
 21
140.0000000000000
 31
0.000000000000000
  0
LINE
  5
EB
100
AcDbEntity
  8
A4
  6
CENTER
 62
1
100
AcDbLine
 10
194.0517272134880
 20
140.0000000000000
 30
0.000000000000000
 11
259.8133999999545
 21
140.0000000000000
 31
0.000000000000000
  0
LINE
  5
EC
100
AcDbEntity
  8
A4
  6
CENTER
 62
1
100
AcDbLine
 10
140.1994000000000
 20
49.99999999999999
 30
0.000000000000000
 11
175.6994000000000
 21
49.99999999999999
 31
0.000000000000000
  0
LINE
  5
ED
100
AcDbEntity
  8
A1
  6
CONTINUOUS
 62
7
100
AcDbLine
 10
167.1994000000000
 20
131.6000000000000
 30
0.000000000000000
 11
167.1994000000000
 21
148.4000000000000
 31
0.000000000000000
  0
LINE
  5
EE
100
AcDbEntity
  8
A1
  6
CONTINUOUS
 62
7
100
AcDbLine
 10
174.1994000000001
 20
143.1622776601092
 30
0.000000000000000
 11
167.1994000000165
 21
143.1622776601014
 31
0.000000000000000
  0
LINE
  5
EF
100
AcDbEntity
  8
A1
  6
CONTINUOUS
 62
7
100
AcDbLine
 10
167.1994000000000
 20
144.5000000000000
 30
0.000000000000000
 11
174.1994000000000
 21
144.5000000000000
 31
0.000000000000000
  0
LINE
  5
F0
100
AcDbEntity
  8
A1
  6
CONTINUOUS
 62
7
100
AcDbLine
 10
174.1994000000000
 20
144.5000000000000
 30
0.000000000000000
 11
174.1994000000000
 21
135.5000000000000
 31
0.000000000000000
  0
LINE
  5
F1
100
AcDbEntity
  8
A1
  6
CONTINUOUS
 62
7
100
AcDbLine
 10
174.1994000000000
 20
136.8377223397907
 30
0.000000000000000
 11
167.1994000000164
 21
136.8377223397853
 31
0.000000000000000
  0
LINE
  5
F2
100
AcDbEntity
  8
A1
  6
CONTINUOUS
 62
7
100
AcDbLine
 10
167.1994000000000
 20
135.5000000000000
 30
0.000000000000000
 11
174.1994000000000
 21
135.5000000000000
 31
0.000000000000000
  0
LINE
  5
F3
100
AcDbEntity
  8
A1
  6
CONTINUOUS
 62
7
100
AcDbLine
 10
250.9133999999999
 20
66.99999999999999
 30
0.000000000000000
 11
250.9133999999999
 21
39.99999999999996
 31
0.000000000000000
  0
LINE
  5
F4
100
AcDbEntity
  8
A1
  6
CONTINUOUS
 62
7
100
AcDbLine
 10
250.9133999999999
 20
57.99999999999999
 30
0.000000000000000
 11
255.4133999999999
 21
57.99999999999999
 31
0.000000000000000
  0
LINE
  5
F5
100
AcDbEntity
  8
A1
  6
CONTINUOUS
 62
7
100
AcDbLine
 10
250.9133999999999
 20
41.99999999999996
 30
0.000000000000000
 11
255.4133999999999
 21
41.99999999999996
 31
0.000000000000000
  0
LINE
  5
F6
100
AcDbEntity
  8
A1
  6
CONTINUOUS
 62
7
100
AcDbLine
 10
257.4133999999999
 20
55.99999999999999
 30
0.000000000000000
 11
257.4133999999999
 21
43.99999999999996
 31
0.000000000000000
  0
LINE
  5
F7
100
AcDbEntity
  8
A1
  6
CONTINUOUS
 62
7
100
AcDbLine
 10
247.9133999999999
 20
66.99999999999999
 30
0.000000000000000
 11
250.9133999999999
 21
66.99999999999999
 31
0.000000000000000
  0
LINE
  5
F8
100
AcDbEntity
  8
A1
  6
CONTINUOUS
 62
7
100
AcDbLine
 10
246.9133999999999
 20
39.99999999999996
 30
0.000000000000000
 11
250.9133999999999
 21
39.99999999999996
 31
0.000000000000000
  0
ARC
  5
F9
100
AcDbEntity
  8
A1
  6
CONTINUOUS
 62
7
100
AcDbCircle
 10
255.4133999999999
 20
55.99999999999999
 30
0.000000000000000
 40
2.000000000000000
100
AcDbArc
 50
0.000000000000000
 51
90.00000000000000
  0
ARC
  5
FA
100
AcDbEntity
  8
A1
  6
CONTINUOUS
 62
7
100
AcDbCircle
 10
255.4133999999999
 20
43.99999999999996
 30
0.000000000000000
 40
2.000000000000000
100
AcDbArc
 50
270.0000000000000
 51
360.0000000000000
  0
LINE
  5
FB
100
AcDbEntity
  8
A1
  6
CONTINUOUS
 62
7
100
AcDbLine
 10
258.3133999999546
 20
56.00000000000050
 30
0.000000000000000
 11
258.3133999999546
 21
44.00000000000053
 31
0.000000000000000
  0
LINE
  5
FC
100
AcDbEntity
  8
A1
  6
CONTINUOUS
 62
7
100
AcDbLine
 10
257.9133999999546
 20
56.00000000000050
 30
0.000000000000000
 11
257.9133999999546
 21
44.00000000000053
 31
0.000000000000000
  0
LINE
  5
FD
100
AcDbEntity
  8
A1
  6
CONTINUOUS
 62
7
100
AcDbLine
 10
257.9133999999544
 20
56.00000000000043
 30
0.000000000000000
 11
257.4133999999998
 21
55.50000000004607
 31
0.000000000000000
  0
LINE
  5
FE
100
AcDbEntity
  8
A1
  6
CONTINUOUS
 62
7
100
AcDbLine
 10
257.9133999999547
 20
44.00000000000053
 30
0.000000000000000
 11
257.4134000000000
 21
44.49999999995399
 31
0.000000000000000
  0
LINE
  5
FF
100
AcDbEntity
  8
A1
  6
CONTINUOUS
 62
7
100
AcDbLine
 10
257.9133999999546
 20
44.00000000000053
 30
0.000000000000000
 11
258.3133999999546
 21
44.00000000000053
 31
0.000000000000000
  0
LINE
  5
100
100
AcDbEntity
  8
A1
  6
CONTINUOUS
 62
7
100
AcDbLine
 10
257.9133999999546
 20
56.00000000000050
 30
0.000000000000000
 11
258.3133999999546
 21
56.00000000000050
 31
0.000000000000000
  0
LINE
  5
101
100
AcDbEntity
  8
A1
  6
CONTINUOUS
 62
7
100
AcDbLine
 10
247.9133999999999
 20
55.99999999999999
 30
0.000000000000000
 11
247.9133999999999
 21
66.99999999999999
 31
0.000000000000000
  0
LINE
  5
102
100
AcDbEntity
  8
A1
  6
CONTINUOUS
 62
7
100
AcDbLine
 10
246.9133999999999
 20
55.99999999999999
 30
0.000000000000000
 11
247.9133999999999
 21
55.99999999999999
 31
0.000000000000000
  0
ARC
  5
103
100
AcDbEntity
  8
A1
  6
CONTINUOUS
 62
7
100
AcDbCircle
 10
247.9133999999999
 20
65.99999999999999
 30
0.000000000000000
 40
1.000000000000000
100
AcDbArc
 50
90.00000000000000
 51
180.0000000000000
  0
LINE
  5
104
100
AcDbEntity
  8
A4
  6
CENTER
 62
1
100
AcDbLine
 10
194.0517272134880
 20
49.99999999999999
 30
0.000000000000000
 11
259.8133999999545
 21
49.99999999999999
 31
0.000000000000000
  0
LINE
  5
105
100
AcDbEntity
  8
A1
  6
CONTINUOUS
 62
7
100
AcDbLine
 10
244.9133999999999
 20
57.86899999999996
 30
0.000000000000000
 11
246.9133999999999
 21
57.86899999999996
 31
0.000000000000000
  0
LINE
  5
106
100
AcDbEntity
  8
A1
  6
CONTINUOUS
 62
7
100
AcDbLine
 10
244.9133999999999
 20
53.86899999999999
 30
0.000000000000000
 11
244.9133999999999
 21
57.86899999999996
 31
0.000000000000000
  0
LINE
  5
107
100
AcDbEntity
  8
A1
  6
CONTINUOUS
 62
7
100
AcDbLine
 10
246.9133999999999
 20
39.99999999999996
 30
0.000000000000000
 11
246.9133999999999
 21
65.99999999999999
 31
0.000000000000000
  0
LINE
  5
108
100
AcDbEntity
  8
A1
  6
CONTINUOUS
 62
7
100
AcDbLine
 10
244.9133999999999
 20
53.86899999999996
 30
0.000000000000000
 11
246.9133999999999
 21
53.86899999999996
 31
0.000000000000000
  0
LINE
  5
109
100
AcDbEntity
  8
A1
  6
CONTINUOUS
 62
7
100
AcDbLine
 10
174.1994000000000
 20
46.83772233979073
 30
0.000000000000000
 11
167.1994000000164
 21
46.83772233978536
 31
0.000000000000000
  0
LINE
  5
10A
100
AcDbEntity
  8
A1
  6
CONTINUOUS
 62
7
100
AcDbLine
 10
174.1994000000000
 20
54.49999999999999
 30
0.000000000000000
 11
174.1994000000000
 21
45.49999999999999
 31
0.000000000000000
  0
LINE
  5
10B
100
AcDbEntity
  8
A1
  6
CONTINUOUS
 62
7
100
AcDbLine
 10
167.1994000000000
 20
45.49999999999999
 30
0.000000000000000
 11
174.1994000000000
 21
45.49999999999999
 31
0.000000000000000
  0
LINE
  5
10C
100
AcDbEntity
  8
A1
  6
CONTINUOUS
 62
7
100
AcDbLine
 10
167.1994000000000
 20
54.49999999999999
 30
0.000000000000000
 11
174.1994000000000
 21
54.49999999999999
 31
0.000000000000000
  0
LINE
  5
10D
100
AcDbEntity
  8
A1
  6
CONTINUOUS
 62
7
100
AcDbLine
 10
174.1994000000001
 20
53.16227766010915
 30
0.000000000000000
 11
167.1994000000165
 21
53.16227766010139
 31
0.000000000000000
  0
LINE
  5
10E
100
AcDbEntity
  8
A1
  6
CONTINUOUS
 62
7
100
AcDbLine
 10
147.6994000000000
 20
59.49999999999999
 30
0.000000000000000
 11
163.8994000000000
 21
59.49999999999999
 31
0.000000000000000
  0
LINE
  5
10F
100
AcDbEntity
  8
A2
  6
CONTINUOUS
 62
4
100
AcDbLine
 10
147.9487997727579
 20
58.99999999999999
 30
0.000000000000000
 11
164.3993999999641
 21
58.99999999999999
 31
0.000000000000000
  0
LINE
  5
110
100
AcDbEntity
  8
A1
  6
CONTINUOUS
 62
7
100
AcDbLine
 10
147.6994000000000
 20
54.24264068710126
 30
0.000000000000000
 11
163.8994000000094
 21
54.24264068710654
 31
0.000000000000000
  0
LINE
  5
111
100
AcDbEntity
  8
A2
  6
CONTINUOUS
 62
4
100
AcDbLine
 10
147.6993999999063
 20
45.75735931288303
 30
0.000000000000000
 11
163.8994000000096
 21
54.24264068710654
 31
0.000000000000000
  0
LINE
  5
112
100
AcDbEntity
  8
A2
  6
CONTINUOUS
 62
4
100
AcDbLine
 10
147.6993999999059
 20
54.24264068710125
 30
0.000000000000000
 11
163.8994000000248
 21
45.75735931288231
 31
0.000000000000000
  0
LINE
  5
113
100
AcDbEntity
  8
A1
  6
CONTINUOUS
 62
7
100
AcDbLine
 10
147.6994000000000
 20
45.75735931288302
 30
0.000000000000000
 11
163.8994000000248
 21
45.75735931288231
 31
0.000000000000000
  0
LINE
  5
114
100
AcDbEntity
  8
A2
  6
CONTINUOUS
 62
4
100
AcDbLine
 10
147.9487997727698
 20
40.99999999999996
 30
0.000000000000000
 11
164.3994000000360
 21
40.99999999999996
 31
0.000000000000000
  0
LINE
  5
115
100
AcDbEntity
  8
A1
  6
CONTINUOUS
 62
7
100
AcDbLine
 10
147.6994000000000
 20
40.49999999999996
 30
0.000000000000000
 11
163.8994000000362
 21
40.49999999999996
 31
0.000000000000000
  0
LINE
  5
116
100
AcDbEntity
  8
A1
  6
CONTINUOUS
 62
7
100
AcDbLine
 10
208.7317272135131
 20
60.38785107427388
 30
0.000000000000000
 11
208.7317272135131
 21
39.61214892572600
 31
0.000000000000000
  0
LINE
  5
117
100
AcDbEntity
  8
A1
  6
CONTINUOUS
 62
7
100
AcDbLine
 10
208.7317272134881
 20
150.3878510742704
 30
0.000000000000000
 11
208.7317272134881
 21
129.6121489257226
 31
0.000000000000000
  0
LINE
  5
118
100
AcDbEntity
  8
A1
  6
CONTINUOUS
 62
7
100
AcDbLine
 10
147.6994000000000
 20
148.5000000000000
 30
0.000000000000000
 11
164.8994000000000
 21
148.5000000000000
 31
0.000000000000000
  0
LINE
  5
119
100
AcDbEntity
  8
A1
  6
CONTINUOUS
 62
7
100
AcDbLine
 10
147.6994000000000
 20
131.5000000000000
 30
0.000000000000000
 11
164.8994000000000
 21
131.5000000000000
 31
0.000000000000000
  0
LINE
  5
11A
100
AcDbEntity
  8
A1
  6
CONTINUOUS
 62
7
100
AcDbLine
 10
145.6994000000000
 20
152.4999999999999
 30
0.000000000000000
 11
147.6994000000000
 21
152.4999999999999
 31
0.000000000000000
  0
LINE
  5
11B
100
AcDbEntity
  8
A1
  6
CONTINUOUS
 62
7
100
AcDbLine
 10
195.5517272134880
 20
152.5000000000008
 30
0.000000000000000
 11
197.0517272134880
 21
152.5000000000008
 31
0.000000000000000
  0
LINE
  5
11C
100
AcDbEntity
  8
A1
  6
CONTINUOUS
 62
7
100
AcDbLine
 10
145.6994000000000
 20
127.5000000000000
 30
0.000000000000000
 11
147.6994000000000
 21
127.5000000000000
 31
0.000000000000000
  0
LINE
  5
11D
100
AcDbEntity
  8
A1
  6
CONTINUOUS
 62
7
100
AcDbLine
 10
195.5517272134880
 20
127.5000000000009
 30
0.000000000000000
 11
197.0517272134880
 21
127.5000000000009
 31
0.000000000000000
  0
LINE
  5
11E
100
AcDbEntity
  8
A1
  6
CONTINUOUS
 62
7
100
AcDbLine
 10
195.5517272134880
 20
152.5000000000008
 30
0.000000000000000
 11
195.5517272134880
 21
127.5000000000009
 31
0.000000000000000
  0
LINE
  5
11F
100
AcDbEntity
  8
A1
  6
CONTINUOUS
 62
7
100
AcDbLine
 10
197.0517272134880
 20
62.49999999999987
 30
0.000000000000000
 11
197.0517272134880
 21
37.49999999999996
 31
0.000000000000000
  0
LINE
  5
120
100
AcDbEntity
  8
A1
  6
CONTINUOUS
 62
7
100
AcDbLine
 10
195.5517272134880
 20
62.49999999999988
 30
0.000000000000000
 11
197.0517272134880
 21
62.49999999999991
 31
0.000000000000000
  0
LINE
  5
121
100
AcDbEntity
  8
A1
  6
CONTINUOUS
 62
7
100
AcDbLine
 10
195.5517272134880
 20
37.49999999999996
 30
0.000000000000000
 11
197.0517272134880
 21
37.49999999999996
 31
0.000000000000000
  0
LINE
  5
122
100
AcDbEntity
  8
A1
  6
CONTINUOUS
 62
7
100
AcDbLine
 10
195.5517272134880
 20
62.49999999999986
 30
0.000000000000000
 11
195.5517272134880
 21
37.49999999999994
 31
0.000000000000000
  0
LINE
  5
123
100
AcDbEntity
  8
A2
  6
CONTINUOUS
 62
4
100
AcDbLine
 10
147.9487997727699
 20
40.99999999999995
 30
0.000000000000000
 11
147.6994000000000
 21
40.49999999999996
 31
0.000000000000000
  0
LINE
  5
124
100
AcDbEntity
  8
A2
  6
CONTINUOUS
 62
4
100
AcDbLine
 10
147.9487997727579
 20
58.99999999999999
 30
0.000000000000000
 11
147.6994000000000
 21
59.49999999999999
 31
0.000000000000000
  0
LINE
  5
125
100
AcDbEntity
  8
A1
  6
CONTINUOUS
 62
7
100
AcDbLine
 10
147.9487997727667
 20
45.75735931288301
 30
0.000000000000000
 11
147.9487997727701
 21
40.50000000000809
 31
0.000000000000000
  0
LINE
  5
126
100
AcDbEntity
  8
A1
  6
CONTINUOUS
 62
7
100
AcDbLine
 10
147.9487997727576
 20
59.49999999999999
 30
0.000000000000000
 11
147.9487997727610
 21
54.24264068710134
 31
0.000000000000000
  0
LINE
  5
127
100
AcDbEntity
  8
A2
  6
CONTINUOUS
 62
4
100
AcDbLine
 10
174.1994000000001
 20
143.1622776601092
 30
0.000000000000000
 11
167.1994000000164
 21
136.8377223397853
 31
0.000000000000000
  0
LINE
  5
128
100
AcDbEntity
  8
A2
  6
CONTINUOUS
 62
4
100
AcDbLine
 10
167.1994000000165
 20
143.1622776601014
 30
0.000000000000000
 11
174.1994000000000
 21
136.8377223397907
 31
0.000000000000000
  0
LINE
  5
129
100
AcDbEntity
  8
A2
  6
CONTINUOUS
 62
4
100
AcDbLine
 10
167.1994000000164
 20
46.83772233978534
 30
0.000000000000000
 11
174.1994000000001
 21
53.16227766010912
 31
0.000000000000000
  0
LINE
  5
12A
100
AcDbEntity
  8
A2
  6
CONTINUOUS
 62
4
100
AcDbLine
 10
167.1994000000165
 20
53.16227766010141
 30
0.000000000000000
 11
174.1994000000000
 21
46.83772233979073
 31
0.000000000000000
  0
LINE
  5
12B
100
AcDbEntity
  8
A1
  6
CONTINUOUS
 62
7
100
AcDbLine
 10
61.37242670134603
 20
144.0999999999997
 30
0.000000000000000
 11
65.21360000000001
 21
144.0999999999997
 31
0.000000000000000
  0
LINE
  5
12C
100
AcDbEntity
  8
A1
  6
CONTINUOUS
 62
7
100
AcDbLine
 10
61.65969306856643
 20
136.3999999999997
 30
0.000000000000000
 11
80.21360000000001
 21
136.3999999999997
 31
0.000000000000000
  0
LINE
  5
12D
100
AcDbEntity
  8
A1
  6
CONTINUOUS
 62
7
100
AcDbLine
 10
65.21360000000001
 20
142.3999999999997
 30
0.000000000000000
 11
65.21360000000001
 21
144.0999999999997
 31
0.000000000000000
  0
LINE
  5
12E
100
AcDbEntity
  8
A1
  6
CONTINUOUS
 62
7
100
AcDbLine
 10
65.21360000000001
 20
142.3999999999997
 30
0.000000000000000
 11
81.21360000000003
 21
142.3999999999997
 31
0.000000000000000
  0
LINE
  5
12F
100
AcDbEntity
  8
A1
  6
CONTINUOUS
 62
7
100
AcDbLine
 10
80.21360000000008
 20
136.3999999999997
 30
0.000000000000000
 11
83.21360000000010
 21
139.9999999999998
 31
0.000000000000000
  0
LINE
  5
130
100
AcDbEntity
  8
A1
  6
CONTINUOUS
 62
7
100
AcDbLine
 10
81.21360000000013
 20
142.3999999999997
 30
0.000000000000000
 11
83.21360000000010
 21
139.9999999999998
 31
0.000000000000000
  0
CIRCLE
  5
131
100
AcDbEntity
  8
A1
  6
CONTINUOUS
 62
7
100
AcDbCircle
 10
44.71360000000010
 20
139.9999999999997
 30
0.000000000000000
 40
2.500000000000000
  0
ARC
  5
132
100
AcDbEntity
  8
A1
  6
CONTINUOUS
 62
7
100
AcDbCircle
 10
61.65969306856647
 20
133.8999999999997
 30
0.000000000000000
 40
2.500000000000000
100
AcDbArc
 50
89.99999999999993
 51
151.4169974900363
  0
ARC
  5
133
100
AcDbEntity
  8
A1
  6
CONTINUOUS
 62
7
100
AcDbCircle
 10
61.37242670134611
 20
146.5999999999997
 30
0.000000000000000
 40
2.500000000000000
100
AcDbArc
 50
211.1745527873238
 51
269.9999999999999
  0
LINE
  5
134
100
AcDbEntity
  8
A1
  6
CONTINUOUS
 62
7
100
AcDbLine
 10
58.02587189477187
 20
136.9999999999997
 30
0.000000000000000
 11
58.02587189477188
 21
142.9999999999997
 31
0.000000000000000
  0
LINE
  5
135
100
AcDbEntity
  8
A1
  6
CONTINUOUS
 62
7
100
AcDbLine
 10
58.02587189477192
 20
136.9999999999998
 30
0.000000000000000
 11
59.02587189477188
 21
136.4999999999998
 31
0.000000000000000
  0
LINE
  5
136
100
AcDbEntity
  8
A1
  6
CONTINUOUS
 62
7
100
AcDbLine
 10
58.02587189477205
 20
142.9999999999997
 30
0.000000000000000
 11
59.02587189477200
 21
143.4999999999997
 31
0.000000000000000
  0
LINE
  5
137
100
AcDbEntity
  8
A1
  6
CONTINUOUS
 62
7
100
AcDbLine
 10
63.21360000000001
 20
141.0999999999998
 30
0.000000000000000
 11
82.29693333333340
 21
141.0999999999998
 31
0.000000000000000
  0
LINE
  5
138
100
AcDbEntity
  8
A1
  6
CONTINUOUS
 62
7
100
AcDbLine
 10
63.21360000000001
 20
139.4999999999998
 30
0.000000000000000
 11
82.79693333333340
 21
139.4999999999997
 31
0.000000000000000
  0
LINE
  5
139
100
AcDbEntity
  8
A1
  6
CONTINUOUS
 62
7
100
AcDbLine
 10
63.21360000000001
 20
137.9999999999998
 30
0.000000000000000
 11
81.54693333333340
 21
137.9999999999997
 31
0.000000000000000
  0
LINE
  5
13A
100
AcDbEntity
  8
A1
  6
CONTINUOUS
 62
7
100
AcDbLine
 10
63.21360000000001
 20
136.3999999999997
 30
0.000000000000000
 11
63.21360000000001
 21
137.9999999999998
 31
0.000000000000000
  0
LINE
  5
13B
100
AcDbEntity
  8
A1
  6
CONTINUOUS
 62
7
100
AcDbLine
 10
63.21360000000001
 20
139.4999999999998
 30
0.000000000000000
 11
63.21360000000001
 21
141.0999999999998
 31
0.000000000000000
  0
ARC
  5
13C
100
AcDbEntity
  8
A1
  6
CONTINUOUS
 62
7
100
AcDbCircle
 10
52.21360000000004
 20
136.0000481750952
 30
0.000000000000000
 40
1.718119093483294
100
AcDbArc
 50
215.5376777920008
 51
256.5374393917330
  0
ARC
  5
13D
100
AcDbEntity
  8
A1
  6
CONTINUOUS
 62
7
100
AcDbCircle
 10
57.81353255486084
 20
139.9999999999997
 30
0.000000000000000
 40
8.599896423544767
100
AcDbArc
 50
144.4623222079990
 51
215.5376777920007
  0
ARC
  5
13E
100
AcDbEntity
  8
A1
  6
CONTINUOUS
 62
7
100
AcDbCircle
 10
52.21360000000010
 20
143.9999518249043
 30
0.000000000000000
 40
1.718119093483296
100
AcDbArc
 50
62.24965455462803
 51
144.4623222079991
  0
ARC
  5
13F
100
AcDbEntity
  8
A1
  6
CONTINUOUS
 62
7
100
AcDbCircle
 10
52.21360000000004
 20
136.0000481750952
 30
0.000000000000000
 40
1.718119093483294
100
AcDbArc
 50
269.9999999999999
 51
324.4623222080519
  0
ARC
  5
140
100
AcDbEntity
  8
A1
  6
CONTINUOUS
 62
7
100
AcDbCircle
 10
46.61366744512827
 20
139.9999999999997
 30
0.000000000000000
 40
8.599896423544767
100
AcDbArc
 50
324.4623222080519
 51
395.5376777919478
  0
ARC
  5
141
100
AcDbEntity
  8
A1
  6
CONTINUOUS
 62
7
100
AcDbCircle
 10
52.21360000000010
 20
143.9999518249043
 30
0.000000000000000
 40
1.718119093483296
100
AcDbArc
 50
35.53767779194781
 51
45.69883927961708
  0
LINE
  5
142
100
AcDbEntity
  8
A1
  6
CONTINUOUS
 62
7
100
AcDbLine
 10
50.38514827388733
 20
135.6667188563531
 30
0.000000000000000
 11
53.25888650098312
 21
135.6667188563531
 31
0.000000000000000
  0
LINE
  5
143
100
AcDbEntity
  8
A1
  6
CONTINUOUS
 62
7
100
AcDbLine
 10
53.44358437275749
 20
136.3333774938372
 30
0.000000000000000
 11
50.98361562723162
 21
136.3333774938373
 31
0.000000000000000
  0
ARC
  5
144
100
AcDbEntity
  8
A1
  6
CONTINUOUS
 62
7
100
AcDbCircle
 10
50.98361562723164
 20
136.6667068125792
 30
0.000000000000000
 40
0.3333293187420452
100
AcDbArc
 50
206.0143659996365
 51
269.9999999999999
  0
ARC
  5
145
100
AcDbEntity
  8
A1
  6
CONTINUOUS
 62
7
100
AcDbCircle
 10
57.81353255486084
 20
139.9999999999997
 30
0.000000000000000
 40
7.933237786060675
100
AcDbArc
 50
202.9439535565377
 51
206.0143659996365
  0
ARC
  5
146
100
AcDbEntity
  8
A1
  6
CONTINUOUS
 62
7
100
AcDbCircle
 10
50.56931169315965
 20
136.9333702675729
 30
0.000000000000000
 40
0.06666586374840902
100
AcDbArc
 50
89.99999999999993
 51
202.9439535565375
  0
LINE
  5
147
100
AcDbEntity
  8
A1
  6
CONTINUOUS
 62
7
100
AcDbLine
 10
50.56931169315963
 20
137.0000361313213
 30
0.000000000000000
 11
53.85788830682954
 21
137.0000361313213
 31
0.000000000000000
  0
ARC
  5
148
100
AcDbEntity
  8
A1
  6
CONTINUOUS
 62
7
100
AcDbCircle
 10
53.85788830682958
 20
136.9333702675729
 30
0.000000000000000
 40
0.06666586374840902
100
AcDbArc
 50
337.0560464434623
 51
449.9999999999999
  0
ARC
  5
149
100
AcDbEntity
  8
A1
  6
CONTINUOUS
 62
7
100
AcDbCircle
 10
46.61366744512827
 20
139.9999999999997
 30
0.000000000000000
 40
7.933237786060675
100
AcDbArc
 50
333.9856340003633
 51
337.0560464434621
  0
ARC
  5
14A
100
AcDbEntity
  8
A1
  6
CONTINUOUS
 62
7
100
AcDbCircle
 10
53.44358437275747
 20
136.6667068125792
 30
0.000000000000000
 40
0.3333293187420452
100
AcDbArc
 50
269.9999999999999
 51
333.9856340003633
  0
LINE
  5
14B
100
AcDbEntity
  8
A1
  6
CONTINUOUS
 62
7
100
AcDbLine
 10
51.41360963501921
 20
138.3333534062895
 30
0.000000000000000
 11
50.14029453341718
 21
138.3333534062895
 31
0.000000000000000
  0
ARC
  5
14C
100
AcDbEntity
  8
A1
  6
CONTINUOUS
 62
7
100
AcDbCircle
 10
50.14029453341715
 20
138.2666875425411
 30
0.000000000000000
 40
0.06666586374840902
100
AcDbArc
 50
89.99999999999993
 51
192.7289438731226
  0
ARC
  5
14D
100
AcDbEntity
  8
A1
  6
CONTINUOUS
 62
7
100
AcDbCircle
 10
57.81353255486084
 20
139.9999999999997
 30
0.000000000000000
 40
7.933237786060675
100
AcDbArc
 50
192.7289438731225
 51
193.2681189705561
  0
ARC
  5
14E
100
AcDbEntity
  8
A1
  6
CONTINUOUS
 62
7
100
AcDbCircle
 10
57.81353255486084
 20
139.9999999999997
 30
0.000000000000000
 40
7.933237786060675
100
AcDbArc
 50
193.2681189705562
 51
195.2575232904563
  0
ARC
  5
14F
100
AcDbEntity
  8
A1
  6
CONTINUOUS
 62
7
100
AcDbCircle
 10
50.48149974934023
 20
138.0000240875474
 30
0.000000000000000
 40
0.3333293187420452
100
AcDbArc
 50
195.2575232904563
 51
269.9999999999999
  0
LINE
  5
150
100
AcDbEntity
  8
A1
  6
CONTINUOUS
 62
7
100
AcDbLine
 10
50.48149974934027
 20
137.6666947688054
 30
0.000000000000000
 11
53.94570025064896
 21
137.6666947688054
 31
0.000000000000000
  0
ARC
  5
151
100
AcDbEntity
  8
A1
  6
CONTINUOUS
 62
7
100
AcDbCircle
 10
53.94570025064894
 20
138.0000240875474
 30
0.000000000000000
 40
0.3333293187420452
100
AcDbArc
 50
269.9999999999999
 51
344.7424767095436
  0
ARC
  5
152
100
AcDbEntity
  8
A1
  6
CONTINUOUS
 62
7
100
AcDbCircle
 10
46.61366744512827
 20
139.9999999999997
 30
0.000000000000000
 40
7.933237786060675
100
AcDbArc
 50
344.7424767095436
 51
344.7937121239419
  0
ARC
  5
153
100
AcDbEntity
  8
A1
  6
CONTINUOUS
 62
7
100
AcDbCircle
 10
46.61366744512827
 20
139.9999999999997
 30
0.000000000000000
 40
7.933237786060675
100
AcDbArc
 50
344.7937121239419
 51
347.2710561268773
  0
ARC
  5
154
100
AcDbEntity
  8
A1
  6
CONTINUOUS
 62
7
100
AcDbCircle
 10
54.28690546657202
 20
138.2666875425411
 30
0.000000000000000
 40
0.06666586374840902
100
AcDbArc
 50
347.2710561268774
 51
449.9999999999999
  0
LINE
  5
155
100
AcDbEntity
  8
A1
  6
CONTINUOUS
 62
7
100
AcDbLine
 10
54.28690546657204
 20
138.3333534062895
 30
0.000000000000000
 11
53.01359036498092
 21
138.3333534062895
 31
0.000000000000000
  0
LINE
  5
156
100
AcDbEntity
  8
A1
  6
CONTINUOUS
 62
7
100
AcDbLine
 10
49.94357157290020
 20
139.0000120437736
 30
0.000000000000000
 11
54.48362842708880
 21
139.0000120437736
 31
0.000000000000000
  0
LINE
  5
157
100
AcDbEntity
  8
A1
  6
CONTINUOUS
 62
7
100
AcDbLine
 10
49.88730057898184
 20
139.6666706812578
 30
0.000000000000000
 11
54.53989942100721
 21
139.6666706812578
 31
0.000000000000000
  0
LINE
  5
158
100
AcDbEntity
  8
A1
  6
CONTINUOUS
 62
7
100
AcDbLine
 10
52.21360000000004
 20
139.6666706812578
 30
0.000000000000000
 11
52.21360000000004
 21
139.0000120437736
 31
0.000000000000000
  0
LINE
  5
159
100
AcDbEntity
  8
A1
  6
CONTINUOUS
 62
7
100
AcDbLine
 10
49.88730057898185
 20
140.3333293187418
 30
0.000000000000000
 11
54.53989942100722
 21
140.3333293187418
 31
0.000000000000000
  0
LINE
  5
15A
100
AcDbEntity
  8
A1
  6
CONTINUOUS
 62
7
100
AcDbLine
 10
51.41360963501921
 20
141.6666465937100
 30
0.000000000000000
 11
50.33149581638564
 21
141.6666465937100
 31
0.000000000000000
  0
ARC
  5
15B
100
AcDbEntity
  8
A1
  6
CONTINUOUS
 62
7
100
AcDbCircle
 10
50.33149581638565
 20
141.3333172749679
 30
0.000000000000000
 40
0.3333293187420452
100
AcDbArc
 50
89.99999999999993
 51
169.8958172838748
  0
ARC
  5
15C
100
AcDbEntity
  8
A1
  6
CONTINUOUS
 62
7
100
AcDbCircle
 10
57.81353255486084
 20
139.9999999999997
 30
0.000000000000000
 40
7.933237786060675
100
AcDbArc
 50
169.8958172838749
 51
172.2070756645775
  0
ARC
  5
15D
100
AcDbEntity
  8
A1
  6
CONTINUOUS
 62
7
100
AcDbCircle
 10
50.01961162651907
 20
141.0666538199742
 30
0.000000000000000
 40
0.06666586374840902
100
AcDbArc
 50
172.2070756645772
 51
269.9999999999999
  0
LINE
  5
15E
100
AcDbEntity
  8
A1
  6
CONTINUOUS
 62
7
100
AcDbLine
 10
50.01961162651905
 20
140.9999879562259
 30
0.000000000000000
 11
54.40758837347002
 21
140.9999879562259
 31
0.000000000000000
  0
ARC
  5
15F
100
AcDbEntity
  8
A1
  6
CONTINUOUS
 62
7
100
AcDbCircle
 10
54.40758837347011
 20
141.0666538199742
 30
0.000000000000000
 40
0.06666586374840902
100
AcDbArc
 50
269.9999999999999
 51
367.7929243354226
  0
ARC
  5
160
100
AcDbEntity
  8
A1
  6
CONTINUOUS
 62
7
100
AcDbCircle
 10
46.61366744512827
 20
139.9999999999997
 30
0.000000000000000
 40
7.933237786060675
100
AcDbArc
 50
7.792924335422247
 51
10.10418271612492
  0
ARC
  5
161
100
AcDbEntity
  8
A1
  6
CONTINUOUS
 62
7
100
AcDbCircle
 10
54.09570418360340
 20
141.3333172749679
 30
0.000000000000000
 40
0.3333293187420452
100
AcDbArc
 50
10.10418271612492
 51
89.99999999999990
  0
LINE
  5
162
100
AcDbEntity
  8
A1
  6
CONTINUOUS
 62
7
100
AcDbLine
 10
54.09570418360337
 20
141.6666465937100
 30
0.000000000000000
 11
52.21360000000004
 21
141.6666465937100
 31
0.000000000000000
  0
LINE
  5
163
100
AcDbEntity
  8
A1
  6
CONTINUOUS
 62
7
100
AcDbLine
 10
52.21360000000004
 20
141.6666465937100
 30
0.000000000000000
 11
52.21360000000004
 21
141.3333172749680
 31
0.000000000000000
  0
LINE
  5
164
100
AcDbEntity
  8
A1
  6
CONTINUOUS
 62
7
100
AcDbLine
 10
50.02217808976683
 20
142.3333052311941
 30
0.000000000000000
 11
54.19601196831249
 21
142.3333052311941
 31
0.000000000000000
  0
LINE
  5
165
100
AcDbEntity
  8
A1
  6
CONTINUOUS
 62
7
100
AcDbLine
 10
50.33624933448839
 20
142.9999638686782
 30
0.000000000000000
 11
51.88027068125797
 21
142.9999638686782
 31
0.000000000000000
  0
ARC
  5
166
100
AcDbEntity
  8
A1
  6
CONTINUOUS
 62
7
100
AcDbCircle
 10
51.88027068125797
 20
143.3332931874202
 30
0.000000000000000
 40
0.3333293187420467
100
AcDbArc
 50
269.9999999999999
 51
449.9999999999999
  0
LINE
  5
167
100
AcDbEntity
  8
A1
  6
CONTINUOUS
 62
7
100
AcDbLine
 10
51.88027068125797
 20
143.6666225061623
 30
0.000000000000000
 11
50.45608534798713
 21
143.6666225061623
 31
0.000000000000000
  0
LINE
  5
168
100
AcDbEntity
  8
A1
  6
CONTINUOUS
 62
7
100
AcDbLine
 10
52.21360000000004
 20
143.3332931874202
 30
0.000000000000000
 11
53.81265475563768
 21
143.3332931874202
 31
0.000000000000000
  0
LINE
  5
169
100
AcDbEntity
  8
A1
  6
CONTINUOUS
 62
7
100
AcDbLine
 10
53.46112900213693
 20
144.0060619060950
 30
0.000000000000000
 11
50.65052926373220
 21
144.7591598362501
 31
0.000000000000000
  0
LINE
  5
16A
100
AcDbEntity
  8
A1
  6
CONTINUOUS
 62
7
100
AcDbLine
 10
52.21360000000005
 20
145.7180709183875
 30
0.000000000000000
 11
52.21360000000004
 21
144.3403362947531
 31
0.000000000000000
  0
LINE
  5
16B
100
AcDbEntity
  8
A4
  6
CENTER
 62
1
100
AcDbLine
 10
84.71360000000010
 20
139.9999999999997
 30
0.000000000000000
 11
55.21356386867298
 21
139.9999999999998
 31
0.000000000000000
  0
LINE
  5
16C
100
AcDbEntity
  8
A4
  6
CENTER
 62
1
100
AcDbLine
 10
49.21363613131607
 20
139.9999999999998
 30
0.000000000000000
 11
38.71360000000011
 21
139.9999999999998
 31
0.000000000000000
  0
ARC
  5
16D
100
AcDbEntity
  8
A1
  6
CONTINUOUS
 62
7
100
AcDbCircle
 10
50.46360000000010
 20
139.9999999999997
 30
0.000000000000000
 40
9.250000000000000
100
AcDbArc
 50
22.23327179829981
 51
337.7667282017001
  0
ARC
  5
16E
100
AcDbEntity
  8
A1
  6
CONTINUOUS
 62
7
100
AcDbCircle
 10
50.46360000000010
 20
139.9999999999997
 30
0.000000000000000
 40
10.25000000000000
100
AcDbArc
 50
31.17455278732380
 51
331.4169974900360
  0
LINE
  5
16F
100
AcDbEntity
  8
A4
  6
CENTER
 62
1
100
AcDbLine
 10
44.71359999999999
 20
135.9999999999997
 30
0.000000000000000
 11
44.71359999999999
 21
143.9999999999997
 31
0.000000000000000
  0
ENDSEC
  0
SECTION
  2
OBJECTS
  0
DICTIONARY
  5
1A0
100
AcDbDictionary
  3
ACAD_GROUP
350
1A1
  3
ACAD_LAYOUT
350
1A2
  3
ACAD_MLINESTYLE
350
1A3
  0
DICTIONARY
  5
1A1
102
{ACAD_REACTORS
330
1A0
102
}
330
1A0
100
AcDbDictionary
  0
DICTIONARY
  5
1A2
102
{ACAD_REACTORS
330
1A0
102
}
330
1A0
100
AcDbDictionary
  3
Model
350
1A4
  3
ﾚｲｱｳﾄ1
350
1A5
  3
ﾚｲｱｳﾄ2
350
1A6
  0
DICTIONARY
  5
1A3
102
{ACAD_REACTORS
330
1A0
102
}
330
1A0
100
AcDbDictionary
  3
STANDARD
350
1A7
  0
LAYOUT
  5
1A4
102
{ACAD_REACTORS
330
1A2
102
}
330
1A2
100
AcDbPlotSettings
 70
11952
  4
A3
 44
297.000000
 45
420.000000
 73
  1
 72
  1
100
AcDbLayout
  1
Model
 71
0
330
197
  0
LAYOUT
  5
1A5
102
{ACAD_REACTORS
330
1A2
102
}
330
1A2
100
AcDbPlotSettings
100
AcDbLayout
  1
ﾚｲｱｳﾄ1
 71
1
330
198
  0
LAYOUT
  5
1A6
102
{ACAD_REACTORS
330
1A2
102
}
330
1A2
100
AcDbPlotSettings
100
AcDbLayout
  1
ﾚｲｱｳﾄ2
 71
2
330
199
  0
MLINESTYLE
  5
1A7
102
{ACAD_REACTORS
330
1A3
102
}
330
1A3
100
AcDbMlineStyle
  2
STANDARD
 70
     0
  3

 62
   256
 51
90.00
 52
90.00
 71
     2
 49
0.50
 62
   256
  6
BYLAYER
 49
-0.50
 62
   256
  6
BYLAYER
  0
ENDSEC
  0
EOF
