  0
SECTION
  2
HEADER
  9
$ACADVER
  1
AC1027
  9
$DWGCODEPAGE
  3
ANSI_932
  9
$LTSCALE
 40
20.0
  9
$FILLMODE
 70
     1
  9
$CLAYER
  8
0
  9
$PDMODE
 70
     0
  9
$SPLFRAME
 70
     0
  9
$SPLINETYPE
 70
     6
  9
$SPLINESEGS
 70
     8
  9
$DIMASZ
 40
2.000000
  9
$DIMEXE
 40
1.500000
  9
$DIMEXO
 40
0.800000
  9
$DIMTAD
 70
     1
  9
$DIMTIH
 70
     0
  9
$DIMTOH
 70
     0
  9
$DIMTVP
 40
0.500000
  9
$DIMTXT
 40
3.100000
  9
$EXTMIN
 10
0.000000
 20
0.000000
 30
0.000000
  9
$EXTMAX
 10
297.000000
 20
420.000000
 30
0.000000
  9
$MEASUREMENT
 70
  1
  9
$LIMMIN
 10
0.000000
 20
0.000000
  9
$LIMMAX
 10
297.000000
 20
420.000000
  9
$HANDSEED
  5
1BC
  9
$LWDISPLAY
290
     0
  9
$DIMBLK
  1
_OPEN
  9
$DIMDEC
 70
     2
  9
$DIMADEC
 70
     2
  9
$DIMAUNIT
 70
     0
  9
$DIMZIN
 70
     8
  9
$DIMAZIN
 70
     2
  9
$DIMTOFL
 70
     1
  0
ENDSEC
  0
SECTION
  2
CLASSES
  0
ENDSEC
  0
SECTION
  2
TABLES
  0
TABLE
  2
VPORT
  5
179
100
AcDbSymbolTable
 70
     1
  0
VPORT
  5
17A
100
AcDbSymbolTableRecord
100
AcDbViewportTableRecord
  2
*ACTIVE
 70
     0
 12
160.266435
 22
112.105829
 40
188.211656
 41
1.596781
  0
ENDTAB
  0
TABLE
  2
LTYPE
  5
17B
100
AcDbSymbolTable
 70
     3
  0
LTYPE
  5
17C
100
AcDbSymbolTableRecord
100
AcDbLinetypeTableRecord
  2
BYBLOCK
 70
     0
  3

 72
    65
 73
     0
 40
0.0
  0
LTYPE
  5
17D
100
AcDbSymbolTableRecord
100
AcDbLinetypeTableRecord
  2
BYLAYER
 70
     0
  3

 72
    65
 73
     0
 40
0.0
  0
LTYPE
  5
17E
100
AcDbSymbolTableRecord
100
AcDbLinetypeTableRecord
  2
CONTINUOUS
 70
     0
  3
Solid line (NEC CAE2D for Win R17.0 : 2022.05.24)
 72
    65
 73
     0
 40
0.0
  0
LTYPE
  5
17F
100
AcDbSymbolTableRecord
100
AcDbLinetypeTableRecord
  2
CENTER
 70
     0
  3
____ _ ____ _ ____ _ ____ _ ____ _ ____
 72
    65
 73
     4
 40
2.0
 49
1.25
 74
     0
 49
-0.25
 74
     0
 49
0.25
 74
     0
 49
-0.25
 74
     0
  0
LTYPE
  5
180
100
AcDbSymbolTableRecord
100
AcDbLinetypeTableRecord
  2
PHANTOM
 70
     0
  3
______  __  __  ______  __  __  ______ 
 72
    65
 73
     6
 40
2.5
 49
1.25
 74
     0
 49
-0.25
 74
     0
 49
0.25
 74
     0
 49
-0.25
 74
     0
 49
0.25
 74
     0
 49
-0.25
 74
     0
  0
ENDTAB
  0
TABLE
  2
LAYER
  5
181
100
AcDbSymbolTable
 70
    28
  0
LAYER
  5
182
100
AcDbSymbolTableRecord
100
AcDbLayerTableRecord
  2
0
 70
     0
 62
     7
  6
CONTINUOUS
370
    -3
390

  0
LAYER
  5
183
100
AcDbSymbolTableRecord
100
AcDbLayerTableRecord
  2
DXF0
 70
     0
 62
     7
  6
CONTINUOUS
370
    -3
390

  0
LAYER
  5
184
100
AcDbSymbolTableRecord
100
AcDbLayerTableRecord
  2
DXF0
 70
     0
 62
     7
  6
CONTINUOUS
370
    -3
390

  0
LAYER
  5
185
100
AcDbSymbolTableRecord
100
AcDbLayerTableRecord
  2
DXF0
 70
     0
 62
     7
  6
CONTINUOUS
370
    -3
390

  0
LAYER
  5
186
100
AcDbSymbolTableRecord
100
AcDbLayerTableRecord
  2
DXF0
 70
     0
 62
     7
  6
CONTINUOUS
370
    -3
390

  0
LAYER
  5
187
100
AcDbSymbolTableRecord
100
AcDbLayerTableRecord
  2
DXF0
 70
     0
 62
     7
  6
CONTINUOUS
370
    -3
390

  0
LAYER
  5
188
100
AcDbSymbolTableRecord
100
AcDbLayerTableRecord
  2
DXF0
 70
     0
 62
     7
  6
CONTINUOUS
370
    -3
390

  0
LAYER
  5
189
100
AcDbSymbolTableRecord
100
AcDbLayerTableRecord
  2
A0
 70
     0
 62
     9
  6
CONTINUOUS
370
    -3
390

  0
LAYER
  5
18A
100
AcDbSymbolTableRecord
100
AcDbLayerTableRecord
  2
A1
 70
     0
 62
    12
  6
CONTINUOUS
370
    -3
390

  0
LAYER
  5
18B
100
AcDbSymbolTableRecord
100
AcDbLayerTableRecord
  2
A2
 70
     0
 62
     9
  6
CONTINUOUS
370
    -3
390

  0
LAYER
  5
18C
100
AcDbSymbolTableRecord
100
AcDbLayerTableRecord
  2
A4
 70
     0
 62
     9
  6
CONTINUOUS
370
    -3
390

  0
LAYER
  5
18D
100
AcDbSymbolTableRecord
100
AcDbLayerTableRecord
  2
A5
 70
     0
 62
     8
  6
CONTINUOUS
370
    -3
390

  0
LAYER
  5
18E
100
AcDbSymbolTableRecord
100
AcDbLayerTableRecord
  2
A6
 70
     0
 62
    12
  6
CONTINUOUS
370
    -3
390

  0
LAYER
  5
18F
100
AcDbSymbolTableRecord
100
AcDbLayerTableRecord
  2
A7
 70
     0
 62
    12
  6
CONTINUOUS
370
    -3
390

  0
LAYER
  5
190
100
AcDbSymbolTableRecord
100
AcDbLayerTableRecord
  2
A8
 70
     0
 62
    10
  6
CONTINUOUS
370
    -3
390

  0
LAYER
  5
191
100
AcDbSymbolTableRecord
100
AcDbLayerTableRecord
  2
A9
 70
     0
 62
     9
  6
CONTINUOUS
370
    -3
390

  0
LAYER
  5
192
100
AcDbSymbolTableRecord
100
AcDbLayerTableRecord
  2
A10
 70
     0
 62
     6
  6
CONTINUOUS
370
    -3
390

  0
LAYER
  5
193
100
AcDbSymbolTableRecord
100
AcDbLayerTableRecord
  2
A20
 70
     0
 62
     1
  6
CONTINUOUS
370
    -3
390

  0
LAYER
  5
194
100
AcDbSymbolTableRecord
100
AcDbLayerTableRecord
  2
A30
 70
     0
 62
     1
  6
CONTINUOUS
370
    -3
390

  0
LAYER
  5
195
100
AcDbSymbolTableRecord
100
AcDbLayerTableRecord
  2
A40
 70
     0
 62
     9
  6
CONTINUOUS
370
    -3
390

  0
LAYER
  5
196
100
AcDbSymbolTableRecord
100
AcDbLayerTableRecord
  2
A50
 70
     0
 62
    12
  6
CONTINUOUS
370
    -3
390

  0
LAYER
  5
197
100
AcDbSymbolTableRecord
100
AcDbLayerTableRecord
  2
A1023
 70
     0
 62
     8
  6
CONTINUOUS
370
    -3
390

  0
LAYER
  5
198
100
AcDbSymbolTableRecord
100
AcDbLayerTableRecord
  2
DXF1023
 70
     0
 62
     8
  6
CONTINUOUS
370
    -3
390

  0
LAYER
  5
199
100
AcDbSymbolTableRecord
100
AcDbLayerTableRecord
  2
DXF1023
 70
     0
 62
     8
  6
CONTINUOUS
370
    -3
390

  0
LAYER
  5
19A
100
AcDbSymbolTableRecord
100
AcDbLayerTableRecord
  2
DXF1023
 70
     0
 62
     8
  6
CONTINUOUS
370
    -3
390

  0
LAYER
  5
19B
100
AcDbSymbolTableRecord
100
AcDbLayerTableRecord
  2
DXF1023
 70
     0
 62
     8
  6
CONTINUOUS
370
    -3
390

  0
LAYER
  5
19C
100
AcDbSymbolTableRecord
100
AcDbLayerTableRecord
  2
DXF1023
 70
     0
 62
     8
  6
CONTINUOUS
370
    -3
390

  0
LAYER
  5
19D
100
AcDbSymbolTableRecord
100
AcDbLayerTableRecord
  2
DXF1023
 70
     0
 62
    16
  6
CONTINUOUS
370
    -3
390

  0
ENDTAB
  0
TABLE
  2
STYLE
  5
19E
100
AcDbSymbolTable
 70
     4
  0
STYLE
  5
19F
100
AcDbSymbolTableRecord
100
AcDbTextStyleTableRecord
  2
STANDARD
 70
    64
 40
0.0
 41
1.0
 50
0.0
 71
     0
 42
3.000000000000000
  3
TXT
  4

  0
STYLE
  5
1A0
100
AcDbSymbolTableRecord
100
AcDbTextStyleTableRecord
  2
ANKTATE
 70
    68
 40
0.0
 41
1.0
 50
0.0
 71
     0
 42
3.000000000000000
  3
TXT
  4

  0
STYLE
  5
1A1
100
AcDbSymbolTableRecord
100
AcDbTextStyleTableRecord
  2
KNJYOKO
 70
    64
 40
0.0
 41
1.0
 50
0.0
 71
     0
 42
3.000000000000000
  3
TXT
  4
BIGFONT
  0
STYLE
  5
1A2
100
AcDbSymbolTableRecord
100
AcDbTextStyleTableRecord
  2
KNJTATE
 70
    68
 40
0.0
 41
1.0
 50
0.0
 71
     0
 42
3.000000000000000
  3
TXT
  4
BIGFONT
  0
ENDTAB
  0
TABLE
  2
VIEW
  5
1A3
100
AcDbSymbolTable
 70
     0
  0
ENDTAB
  0
TABLE
  2
UCS
  5
1A4
100
AcDbSymbolTable
 70
     0
  0
ENDTAB
  0
TABLE
  2
APPID
  5
1A5
100
AcDbSymbolTable
 70
     1
  0
APPID
  5
1A6
100
AcDbSymbolTableRecord
100
AcDbRegAppTableRecord
  2
ACAD
 70
     0
  0
ENDTAB
  0
TABLE
  2
DIMSTYLE
  5
1A7
100
AcDbSymbolTable
 70
     2
100
AcDbDimStyleTable
  0
DIMSTYLE
105
1A8
100
AcDbSymbolTableRecord
100
AcDbDimStyleTableRecord
  2
STANDARD
 70
     0
 41
2.000000
 44
1.500000
 42
0.800000
145
0.661290
140
3.100000
144
1.000000
146
0.645161
340
19F
  0
DIMSTYLE
105
1A9
100
AcDbSymbolTableRecord
100
AcDbDimStyleTableRecord
  2
DXF001
 70
     0
 41
2.000000
 44
1.500000
 42
0.800000
145
0.661290
140
3.100000
144
1.000000
146
0.645161
 77
     1
 73
     0
 74
     0
271
     2
179
     2
275
     0
 78
     8
 79
     2
172
     1
340
19F
  0
ENDTAB
  0
TABLE
  2
BLOCK_RECORD
  5
1AA
100
AcDbSymbolTable
 70
    12
  0
BLOCK_RECORD
  5
1AB
100
AcDbSymbolTableRecord
100
AcDbBlockTableRecord
  2
*MODEL_SPACE
  0
BLOCK_RECORD
  5
1AC
100
AcDbSymbolTableRecord
100
AcDbBlockTableRecord
  2
*PAPER_SPACE
  0
BLOCK_RECORD
  5
1AD
100
AcDbSymbolTableRecord
100
AcDbBlockTableRecord
  2
*PAPER_SPACE0
  0
BLOCK_RECORD
  5
1
100
AcDbSymbolTableRecord
100
AcDbBlockTableRecord
  2
_NONE
  0
BLOCK_RECORD
  5
4
100
AcDbSymbolTableRecord
100
AcDbBlockTableRecord
  2
_CLOSED
  0
BLOCK_RECORD
  5
B
100
AcDbSymbolTableRecord
100
AcDbBlockTableRecord
  2
_DOT
  0
BLOCK_RECORD
  5
13
100
AcDbSymbolTableRecord
100
AcDbBlockTableRecord
  2
_OPEN
  0
BLOCK_RECORD
  5
19
100
AcDbSymbolTableRecord
100
AcDbBlockTableRecord
  2
_ORIGIN
  0
BLOCK_RECORD
  5
1E
100
AcDbSymbolTableRecord
100
AcDbBlockTableRecord
  2
_OPEN30
  0
BLOCK_RECORD
  5
24
100
AcDbSymbolTableRecord
100
AcDbBlockTableRecord
  2
_BOXFILLED
  0
BLOCK_RECORD
  5
29
100
AcDbSymbolTableRecord
100
AcDbBlockTableRecord
  2
_BOXBLANK
  0
BLOCK_RECORD
  5
31
100
AcDbSymbolTableRecord
100
AcDbBlockTableRecord
  2
_OBLIQUE
  0
BLOCK_RECORD
  5
35
100
AcDbSymbolTableRecord
100
AcDbBlockTableRecord
  2
_OPEN90
  0
BLOCK_RECORD
  5
3B
100
AcDbSymbolTableRecord
100
AcDbBlockTableRecord
  2
_CLOSEDBLANK
  0
BLOCK_RECORD
  5
41
100
AcDbSymbolTableRecord
100
AcDbBlockTableRecord
  2
_DOTBLANK
  0
ENDTAB
  0
ENDSEC
  0
SECTION
  2
BLOCKS
  0
BLOCK
  5
1AE
100
AcDbEntity
  8
0
100
AcDbBlockBegin
  2
*MODEL_SPACE
 70
     0
 10
0.0
 20
0.0
 30
0.0
  3
*MODEL_SPACE
  1

  0
ENDBLK
  5
1AF
100
AcDbEntity
  8
0
100
AcDbBlockEnd
  0
BLOCK
  5
1B0
100
AcDbEntity
  8
0
100
AcDbBlockBegin
  2
*PAPER_SPACE
 70
     0
 10
0.0
 20
0.0
 30
0.0
  3
*PAPER_SPACE
  1

  0
ENDBLK
  5
1B1
100
AcDbEntity
  8
0
100
AcDbBlockEnd
  0
BLOCK
  5
1B2
100
AcDbEntity
  8
0
100
AcDbBlockBegin
  2
*PAPER_SPACE0
 70
     0
 10
0.0
 20
0.0
 30
0.0
  3
*PAPER_SPACE0
  1

  0
ENDBLK
  5
1B3
100
AcDbEntity
  8
0
100
AcDbBlockEnd
  0
BLOCK
  5
2
330
1
100
AcDbEntity
  8
0
100
AcDbBlockBegin
  2
_NONE
 70
     0
 10
0.0
 20
0.0
 30
0.0
  3
_NONE
  1

  0
ENDBLK
  5
3
330
1
100
AcDbEntity
  8
0
100
AcDbBlockEnd
  0
BLOCK
  5
5
330
4
100
AcDbEntity
  8
0
100
AcDbBlockBegin
  2
_CLOSED
 70
     0
 10
0.0
 20
0.0
 30
0.0
  3
_CLOSED
  1

  0
LINE
  5
6
330
4
100
AcDbEntity
  8
0
  6
BYBLOCK
 62
     0
370
    -2
100
AcDbLine
 10
-1.0
 20
0.166667
 30
0.0
 11
0.0
 21
0.0
 31
0.0
  0
LINE
  5
7
330
4
100
AcDbEntity
  8
0
  6
BYBLOCK
 62
     0
370
    -2
100
AcDbLine
 10
0.0
 20
0.0
 30
0.0
 11
-1.0
 21
-0.166667
 31
0.0
  0
LINE
  5
8
330
4
100
AcDbEntity
  8
0
  6
BYBLOCK
 62
     0
370
    -2
100
AcDbLine
 10
-1.0
 20
0.166667
 30
0.0
 11
-1.0
 21
-0.166667
 31
0.0
  0
LINE
  5
9
330
4
100
AcDbEntity
  8
0
  6
BYBLOCK
 62
     0
370
    -2
100
AcDbLine
 10
0.0
 20
0.0
 30
0.0
 11
-1.0
 21
0.0
 31
0.0
  0
ENDBLK
  5
A
330
4
100
AcDbEntity
  8
0
100
AcDbBlockEnd
  0
BLOCK
  5
C
330
B
100
AcDbEntity
  8
0
100
AcDbBlockBegin
  2
_DOT
 70
     0
 10
0.0
 20
0.0
 30
0.0
  3
_DOT
  1

  0
POLYLINE
  5
D
330
B
100
AcDbEntity
  8
0
  6
BYBLOCK
 62
     0
370
    -2
100
AcDb2dPolyline
 66
     1
 10
0.0
 20
0.0
 30
0.0
 70
     1
 40
0.5
 41
0.5
  0
VERTEX
  5
E
330
B
100
AcDbEntity
  8
0
  6
BYBLOCK
 62
     0
370
    -2
100
AcDbVertex
100
AcDb2dVertex
 10
-0.25
 20
0.0
 30
0.0
 42
1.0
  0
VERTEX
  5
F
330
B
100
AcDbEntity
  8
0
  6
BYBLOCK
 62
     0
370
    -2
100
AcDbVertex
100
AcDb2dVertex
 10
0.25
 20
0.0
 30
0.0
 42
1.0
  0
SEQEND
  5
10
330
B
100
AcDbEntity
  8
0
  6
BYBLOCK
 62
     0
370
    -2
  0
LINE
  5
11
330
B
100
AcDbEntity
  8
0
  6
BYBLOCK
 62
     0
370
    -2
100
AcDbLine
 10
-0.5
 20
0.0
 30
0.0
 11
-1.0
 21
0.0
 31
0.0
  0
ENDBLK
  5
12
330
B
100
AcDbEntity
  8
0
100
AcDbBlockEnd
  0
BLOCK
  5
14
330
13
100
AcDbEntity
  8
0
100
AcDbBlockBegin
  2
_OPEN
 70
     0
 10
0.0
 20
0.0
 30
0.0
  3
_OPEN
  1

  0
LINE
  5
15
330
13
100
AcDbEntity
  8
0
  6
BYBLOCK
 62
     0
370
    -2
100
AcDbLine
 10
-1.0
 20
0.166667
 30
0.0
 11
0.0
 21
0.0
 31
0.0
  0
LINE
  5
16
330
13
100
AcDbEntity
  8
0
  6
BYBLOCK
 62
     0
370
    -2
100
AcDbLine
 10
0.0
 20
0.0
 30
0.0
 11
-1.0
 21
-0.166667
 31
0.0
  0
LINE
  5
17
330
13
100
AcDbEntity
  8
0
  6
BYBLOCK
 62
     0
370
    -2
100
AcDbLine
 10
0.0
 20
0.0
 30
0.0
 11
-1.0
 21
0.0
 31
0.0
  0
ENDBLK
  5
18
330
13
100
AcDbEntity
  8
0
100
AcDbBlockEnd
  0
BLOCK
  5
1A
330
19
100
AcDbEntity
  8
0
100
AcDbBlockBegin
  2
_ORIGIN
 70
     0
 10
0.0
 20
0.0
 30
0.0
  3
_ORIGIN
  1

  0
CIRCLE
  5
1B
330
19
100
AcDbEntity
  8
0
  6
BYBLOCK
 62
     0
370
    -2
100
AcDbCircle
 10
0.0
 20
0.0
 30
0.0
 40
0.5
  0
LINE
  5
1C
330
19
100
AcDbEntity
  8
0
  6
BYBLOCK
 62
     0
370
    -2
100
AcDbLine
 10
0.0
 20
0.0
 30
0.0
 11
-1.0
 21
0.0
 31
0.0
  0
ENDBLK
  5
1D
330
19
100
AcDbEntity
  8
0
100
AcDbBlockEnd
  0
BLOCK
  5
1F
330
1E
100
AcDbEntity
  8
0
100
AcDbBlockBegin
  2
_OPEN30
 70
     0
 10
0.0
 20
0.0
 30
0.0
  3
_OPEN30
  1

  0
LINE
  5
20
330
1E
100
AcDbEntity
  8
0
  6
BYBLOCK
 62
     0
370
    -2
100
AcDbLine
 10
-1.0
 20
0.267949
 30
0.0
 11
0.0
 21
0.0
 31
0.0
  0
LINE
  5
21
330
1E
100
AcDbEntity
  8
0
  6
BYBLOCK
 62
     0
370
    -2
100
AcDbLine
 10
0.0
 20
0.0
 30
0.0
 11
-1.0
 21
-0.267949
 31
0.0
  0
LINE
  5
22
330
1E
100
AcDbEntity
  8
0
  6
BYBLOCK
 62
     0
370
    -2
100
AcDbLine
 10
0.0
 20
0.0
 30
0.0
 11
-1.0
 21
0.0
 31
0.0
  0
ENDBLK
  5
23
330
1E
100
AcDbEntity
  8
0
100
AcDbBlockEnd
  0
BLOCK
  5
25
330
24
100
AcDbEntity
  8
0
100
AcDbBlockBegin
  2
_BOXFILLED
 70
     0
 10
0.0
 20
0.0
 30
0.0
  3
_BOXFILLED
  1

  0
SOLID
  5
26
330
24
100
AcDbEntity
  8
0
  6
BYBLOCK
 62
     0
370
    -2
100
AcDbTrace
 10
-0.5
 20
0.5
 30
0.0
 11
0.5
 21
0.5
 31
0.0
 12
-0.5
 22
-0.5
 32
0.0
 13
0.5
 23
-0.5
 33
0.0
  0
LINE
  5
27
330
24
100
AcDbEntity
  8
0
  6
BYBLOCK
 62
     0
370
    -2
100
AcDbLine
 10
-0.5
 20
0.0
 30
0.0
 11
-1.0
 21
0.0
 31
0.0
  0
ENDBLK
  5
28
330
24
100
AcDbEntity
  8
0
100
AcDbBlockEnd
  0
BLOCK
  5
2A
330
29
100
AcDbEntity
  8
0
100
AcDbBlockBegin
  2
_BOXBLANK
 70
     0
 10
0.0
 20
0.0
 30
0.0
  3
_BOXBLANK
  1

  0
LINE
  5
2B
330
29
100
AcDbEntity
  8
0
  6
BYBLOCK
 62
     0
370
    -2
100
AcDbLine
 10
-0.5
 20
-0.5
 30
0.0
 11
0.5
 21
-0.5
 31
0.0
  0
LINE
  5
2C
330
29
100
AcDbEntity
  8
0
  6
BYBLOCK
 62
     0
370
    -2
100
AcDbLine
 10
0.5
 20
-0.5
 30
0.0
 11
0.5
 21
0.5
 31
0.0
  0
LINE
  5
2D
330
29
100
AcDbEntity
  8
0
  6
BYBLOCK
 62
     0
370
    -2
100
AcDbLine
 10
0.5
 20
0.5
 30
0.0
 11
-0.5
 21
0.5
 31
0.0
  0
LINE
  5
2E
330
29
100
AcDbEntity
  8
0
  6
BYBLOCK
 62
     0
370
    -2
100
AcDbLine
 10
-0.5
 20
0.5
 30
0.0
 11
-0.5
 21
-0.5
 31
0.0
  0
LINE
  5
2F
330
29
100
AcDbEntity
  8
0
  6
BYBLOCK
 62
     0
370
    -2
100
AcDbLine
 10
-0.5
 20
0.0
 30
0.0
 11
-1.0
 21
0.0
 31
0.0
  0
ENDBLK
  5
30
330
29
100
AcDbEntity
  8
0
100
AcDbBlockEnd
  0
BLOCK
  5
32
330
31
100
AcDbEntity
  8
0
100
AcDbBlockBegin
  2
_OBLIQUE
 70
     0
 10
0.0
 20
0.0
 30
0.0
  3
_OBLIQUE
  1

  0
LINE
  5
33
330
31
100
AcDbEntity
  8
0
  6
BYBLOCK
 62
     0
370
    -2
100
AcDbLine
 10
-0.5
 20
-0.5
 30
0.0
 11
0.5
 21
0.5
 31
0.0
  0
ENDBLK
  5
34
330
31
100
AcDbEntity
  8
0
100
AcDbBlockEnd
  0
BLOCK
  5
36
330
35
100
AcDbEntity
  8
0
100
AcDbBlockBegin
  2
_OPEN90
 70
     0
 10
0.0
 20
0.0
 30
0.0
  3
_OPEN90
  1

  0
LINE
  5
37
330
35
100
AcDbEntity
  8
0
  6
BYBLOCK
 62
     0
370
    -2
100
AcDbLine
 10
-0.5
 20
0.5
 30
0.0
 11
0.0
 21
0.0
 31
0.0
  0
LINE
  5
38
330
35
100
AcDbEntity
  8
0
  6
BYBLOCK
 62
     0
370
    -2
100
AcDbLine
 10
0.0
 20
0.0
 30
0.0
 11
-0.5
 21
-0.5
 31
0.0
  0
LINE
  5
39
330
35
100
AcDbEntity
  8
0
  6
BYBLOCK
 62
     0
370
    -2
100
AcDbLine
 10
0.0
 20
0.0
 30
0.0
 11
-1.0
 21
0.0
 31
0.0
  0
ENDBLK
  5
3A
330
35
100
AcDbEntity
  8
0
100
AcDbBlockEnd
  0
BLOCK
  5
3C
330
3B
100
AcDbEntity
  8
0
100
AcDbBlockBegin
  2
_CLOSEDBLANK
 70
     0
 10
0.0
 20
0.0
 30
0.0
  3
_CLOSEDBLANK
  1

  0
LINE
  5
3D
330
3B
100
AcDbEntity
  8
0
  6
BYBLOCK
 62
     0
370
    -2
100
AcDbLine
 10
-1.0
 20
0.1666666666666666
 30
0.0
 11
0.0
 21
0.0
 31
0.0
  0
LINE
  5
3E
330
3B
100
AcDbEntity
  8
0
  6
BYBLOCK
 62
     0
370
    -2
100
AcDbLine
 10
0.0
 20
0.0
 30
0.0
 11
-1.0
 21
-0.1666666666666666
 31
0.0
  0
LINE
  5
3F
330
3B
100
AcDbEntity
  8
0
  6
BYBLOCK
 62
     0
370
    -2
100
AcDbLine
 10
-1.0
 20
0.1666666666666666
 30
0.0
 11
-1.0
 21
-0.1666666666666666
 31
0.0
  0
ENDBLK
  5
40
330
3B
100
AcDbEntity
  8
0
100
AcDbBlockEnd
  0
BLOCK
  5
42
330
41
100
AcDbEntity
  8
0
100
AcDbBlockBegin
  2
_DOTBLANK
 70
     0
 10
0.0
 20
0.0
 30
0.0
  3
_DOTBLANK
  1

  0
CIRCLE
  5
43
330
41
100
AcDbEntity
  8
0
  6
BYBLOCK
 62
     0
370
    -2
100
AcDbCircle
 10
0.0
 20
0.0
 30
0.0
 40
0.5
  0
LINE
  5
44
330
41
100
AcDbEntity
  8
0
  6
BYBLOCK
 62
     0
370
    -2
100
AcDbLine
 10
-0.5
 20
0.0
 30
0.0
 11
-1.0
 21
0.0
 31
0.0
  0
ENDBLK
  5
45
330
41
100
AcDbEntity
  8
0
100
AcDbBlockEnd
  0
ENDSEC
  0
SECTION
  2
ENTITIES
  0
MTEXT
  5
46
100
AcDbEntity
  8
A8
  6
CONTINUOUS
 62
3
100
AcDbMText
 10
9.999997526638502
 20
18.00000076076889
 30
0.000000000000000
 40
3.000000000000000
 41
0.000000000000000
 44
0.6739999771118164
 71
     7
 72
     1
  1
{\H0.93x;{TYPE No.TL-439}}
 11
1.000000000000000
 21
0.000000000000000
 31
0.000000000000000
  7
STANDARD
  0
POINT
  5
47
100
AcDbEntity
  8
A0
  6
CONTINUOUS
 62
3
100
AcDbPoint
 10
9.999997526638502
 20
18.00000076076889
 30
0.000000000000000
  0
POINT
  5
48
100
AcDbEntity
  8
A10
  6
CONTINUOUS
 62
3
100
AcDbPoint
 10
50.00000000000000
 20
50.00000000000000
 30
0.000000000000000
  0
LINE
  5
49
100
AcDbEntity
  8
A2
  6
CONTINUOUS
 62
7
100
AcDbLine
 10
198.0328715274745
 20
91.11165657051802
 30
0.000000000000000
 11
198.0328715274745
 21
80.11165657051802
 31
0.000000000000000
  0
LINE
  5
4A
100
AcDbEntity
  8
A2
  6
CONTINUOUS
 62
7
100
AcDbLine
 10
198.0328715274745
 20
91.11165657051802
 30
0.000000000000000
 11
195.4328715274746
 21
91.11165657051802
 31
0.000000000000000
  0
LINE
  5
4B
100
AcDbEntity
  8
A2
  6
CONTINUOUS
 62
7
100
AcDbLine
 10
195.4328715274746
 20
96.11165657051802
 30
0.000000000000000
 11
195.4328715274746
 21
91.11165657051802
 31
0.000000000000000
  0
LINE
  5
4C
100
AcDbEntity
  8
A2
  6
CONTINUOUS
 62
7
100
AcDbLine
 10
198.0328715274745
 20
96.11165657051802
 30
0.000000000000000
 11
195.4328715274746
 21
96.11165657051802
 31
0.000000000000000
  0
LINE
  5
4D
100
AcDbEntity
  8
A2
  6
CONTINUOUS
 62
7
100
AcDbLine
 10
123.0328715274745
 20
83.11165657051802
 30
0.000000000000000
 11
123.0328715274745
 21
104.1116565705180
 31
0.000000000000000
  0
LINE
  5
4E
100
AcDbEntity
  8
A2
  6
CONTINUOUS
 62
7
100
AcDbLine
 10
198.0328715274745
 20
107.1116565705180
 30
0.000000000000000
 11
198.0328715274745
 21
96.11165657051802
 31
0.000000000000000
  0
LINE
  5
4F
100
AcDbEntity
  8
A2
  6
CONTINUOUS
 62
7
100
AcDbLine
 10
177.1828715274746
 20
95.26165657051817
 30
0.000000000000000
 11
185.8828715274749
 21
95.26165657051817
 31
0.000000000000000
  0
LINE
  5
50
100
AcDbEntity
  8
A2
  6
CONTINUOUS
 62
7
100
AcDbLine
 10
185.8828715274749
 20
91.96165657051804
 30
0.000000000000000
 11
177.1828715274746
 21
91.96165657051804
 31
0.000000000000000
  0
CIRCLE
  5
51
100
AcDbEntity
  8
A2
  6
CONTINUOUS
 62
4
100
AcDbCircle
 10
171.5328715274745
 20
102.1116565705180
 30
0.000000000000000
 40
1.500000000000000
  0
CIRCLE
  5
52
100
AcDbEntity
  8
A2
  6
CONTINUOUS
 62
4
100
AcDbCircle
 10
191.5328715274745
 20
92.11165657051802
 30
0.000000000000000
 40
1.500000000000000
  0
CIRCLE
  5
53
100
AcDbEntity
  8
A2
  6
CONTINUOUS
 62
7
100
AcDbCircle
 10
132.0328715274659
 20
103.6116565705180
 30
0.000000000000000
 40
3.500000000000000
  0
CIRCLE
  5
54
100
AcDbEntity
  8
A2
  6
CONTINUOUS
 62
7
100
AcDbCircle
 10
162.0328715274745
 20
83.61165657051797
 30
0.000000000000000
 40
3.500000000000000
  0
ARC
  5
55
100
AcDbEntity
  8
A2
  6
CONTINUOUS
 62
7
100
AcDbCircle
 10
126.0328715274745
 20
83.11165657051802
 30
0.000000000000000
 40
3.000000000000000
100
AcDbArc
 50
180.0000000000000
 51
270.0000000000000
  0
ARC
  5
56
100
AcDbEntity
  8
A2
  6
CONTINUOUS
 62
7
100
AcDbCircle
 10
126.0328715274745
 20
104.1116565705180
 30
0.000000000000000
 40
3.000000000000000
100
AcDbArc
 50
90.00000000000000
 51
180.0000000000000
  0
LINE
  5
57
100
AcDbEntity
  8
A2
  6
CONTINUOUS
 62
7
100
AcDbLine
 10
198.0328715274745
 20
80.11165657051802
 30
0.000000000000000
 11
198.0328715274745
 21
107.1116565705180
 31
0.000000000000000
  0
LINE
  5
58
100
AcDbEntity
  8
A2
  6
CENTER
 62
1
100
AcDbLine
 10
167.0328715274745
 20
83.61165657051797
 30
0.000000000000000
 11
157.0328715274745
 21
83.61165657051797
 31
0.000000000000000
  0
LINE
  5
59
100
AcDbEntity
  8
A2
  6
CENTER
 62
1
100
AcDbLine
 10
162.0328715274745
 20
88.61165657051797
 30
0.000000000000000
 11
162.0328715274745
 21
78.61165657051797
 31
0.000000000000000
  0
LINE
  5
5A
100
AcDbEntity
  8
A2
  6
CENTER
 62
1
100
AcDbLine
 10
137.0328715274659
 20
103.6116565705180
 30
0.000000000000000
 11
127.0328715274659
 21
103.6116565705180
 31
0.000000000000000
  0
LINE
  5
5B
100
AcDbEntity
  8
A2
  6
CENTER
 62
1
100
AcDbLine
 10
132.0328715274659
 20
108.6116565705180
 30
0.000000000000000
 11
132.0328715274659
 21
98.61165657051802
 31
0.000000000000000
  0
LINE
  5
5C
100
AcDbEntity
  8
A2
  6
CENTER
 62
1
100
AcDbLine
 10
174.5328715274745
 20
102.1116565705180
 30
0.000000000000000
 11
168.5328715274745
 21
102.1116565705180
 31
0.000000000000000
  0
LINE
  5
5D
100
AcDbEntity
  8
A2
  6
CENTER
 62
1
100
AcDbLine
 10
171.5328715274745
 20
105.1116565705180
 30
0.000000000000000
 11
171.5328715274745
 21
99.11165657051802
 31
0.000000000000000
  0
LINE
  5
5E
100
AcDbEntity
  8
A2
  6
CENTER
 62
1
100
AcDbLine
 10
194.5328715274745
 20
92.11165657051802
 30
0.000000000000000
 11
188.5328715274745
 21
92.11165657051802
 31
0.000000000000000
  0
LINE
  5
5F
100
AcDbEntity
  8
A2
  6
CENTER
 62
1
100
AcDbLine
 10
191.5328715274745
 20
95.11165657051802
 30
0.000000000000000
 11
191.5328715274745
 21
89.11165657051802
 31
0.000000000000000
  0
ARC
  5
60
100
AcDbEntity
  8
A10
  6
CONTINUOUS
 62
7
100
AcDbCircle
 10
141.5329197025700
 20
97.36162043919097
 30
0.000000000000000
 40
1.718119093483294
100
AcDbArc
 50
125.5376777920008
 51
166.5374393917331
  0
ARC
  5
61
100
AcDbEntity
  8
A10
  6
CONTINUOUS
 62
7
100
AcDbCircle
 10
145.5328715274745
 20
91.76168788433017
 30
0.000000000000000
 40
8.599896423544767
100
AcDbArc
 50
54.46232220799912
 51
125.5376777920008
  0
ARC
  5
62
100
AcDbEntity
  8
A10
  6
CONTINUOUS
 62
7
100
AcDbCircle
 10
149.5328233523790
 20
97.36162043919097
 30
0.000000000000000
 40
1.718119093483296
100
AcDbArc
 50
332.2496545546281
 51
414.4623222079991
  0
ARC
  5
63
100
AcDbEntity
  8
A10
  6
CONTINUOUS
 62
7
100
AcDbCircle
 10
141.5329197025700
 20
97.36162043919097
 30
0.000000000000000
 40
1.718119093483294
100
AcDbArc
 50
180.0000000000000
 51
234.4623222080521
  0
ARC
  5
64
100
AcDbEntity
  8
A10
  6
CONTINUOUS
 62
7
100
AcDbCircle
 10
145.5328715274745
 20
102.9615529940628
 30
0.000000000000000
 40
8.599896423544767
100
AcDbArc
 50
234.4623222080520
 51
305.5376777919479
  0
ARC
  5
65
100
AcDbEntity
  8
A10
  6
CONTINUOUS
 62
7
100
AcDbCircle
 10
149.5328233523790
 20
97.36162043919097
 30
0.000000000000000
 40
1.718119093483296
100
AcDbArc
 50
305.5376777919479
 51
315.6988392796171
  0
LINE
  5
66
100
AcDbEntity
  8
A10
  6
CONTINUOUS
 62
7
100
AcDbLine
 10
141.1995903838279
 20
99.19007216530372
 30
0.000000000000000
 11
141.1995903838279
 21
96.31633393820792
 31
0.000000000000000
  0
LINE
  5
67
100
AcDbEntity
  8
A10
  6
CONTINUOUS
 62
7
100
AcDbLine
 10
141.8662490213120
 20
96.13163606643354
 30
0.000000000000000
 11
141.8662490213120
 21
98.59160481195940
 31
0.000000000000000
  0
ARC
  5
68
100
AcDbEntity
  8
A10
  6
CONTINUOUS
 62
7
100
AcDbCircle
 10
142.1995783400541
 20
98.59160481195940
 30
0.000000000000000
 40
0.3333293187420452
100
AcDbArc
 50
116.0143659996366
 51
180.0000000000000
  0
ARC
  5
69
100
AcDbEntity
  8
A10
  6
CONTINUOUS
 62
7
100
AcDbCircle
 10
145.5328715274745
 20
91.76168788433017
 30
0.000000000000000
 40
7.933237786060675
100
AcDbArc
 50
112.9439535565378
 51
116.0143659996366
  0
ARC
  5
6A
100
AcDbEntity
  8
A10
  6
CONTINUOUS
 62
7
100
AcDbCircle
 10
142.4662417950477
 20
99.00590874603139
 30
0.000000000000000
 40
0.06666586374840902
100
AcDbArc
 50
0.000000000000000
 51
112.9439535565375
  0
LINE
  5
6B
100
AcDbEntity
  8
A10
  6
CONTINUOUS
 62
7
100
AcDbLine
 10
142.5329076587961
 20
99.00590874603139
 30
0.000000000000000
 11
142.5329076587961
 21
95.71733213236146
 31
0.000000000000000
  0
ARC
  5
6C
100
AcDbEntity
  8
A10
  6
CONTINUOUS
 62
7
100
AcDbCircle
 10
142.4662417950477
 20
95.71733213236146
 30
0.000000000000000
 40
0.06666586374840902
100
AcDbArc
 50
247.0560464434623
 51
360.0000000000000
  0
ARC
  5
6D
100
AcDbEntity
  8
A10
  6
CONTINUOUS
 62
7
100
AcDbCircle
 10
145.5328715274745
 20
102.9615529940628
 30
0.000000000000000
 40
7.933237786060675
100
AcDbArc
 50
243.9856340003634
 51
247.0560464434622
  0
ARC
  5
6E
100
AcDbEntity
  8
A10
  6
CONTINUOUS
 62
7
100
AcDbCircle
 10
142.1995783400541
 20
96.13163606643354
 30
0.000000000000000
 40
0.3333293187420452
100
AcDbArc
 50
180.0000000000000
 51
243.9856340003634
  0
LINE
  5
6F
100
AcDbEntity
  8
A10
  6
CONTINUOUS
 62
7
100
AcDbLine
 10
143.8662249337642
 20
98.16161080417183
 30
0.000000000000000
 11
143.8662249337642
 21
99.43492590577387
 31
0.000000000000000
  0
ARC
  5
70
100
AcDbEntity
  8
A10
  6
CONTINUOUS
 62
7
100
AcDbCircle
 10
143.7995590700159
 20
99.43492590577387
 30
0.000000000000000
 40
0.06666586374840902
100
AcDbArc
 50
0.000000000000000
 51
102.7289438731227
  0
ARC
  5
71
100
AcDbEntity
  8
A10
  6
CONTINUOUS
 62
7
100
AcDbCircle
 10
145.5328715274745
 20
91.76168788433017
 30
0.000000000000000
 40
7.933237786060675
100
AcDbArc
 50
102.7289438731226
 51
103.2681189705562
  0
ARC
  5
72
100
AcDbEntity
  8
A10
  6
CONTINUOUS
 62
7
100
AcDbCircle
 10
145.5328715274745
 20
91.76168788433017
 30
0.000000000000000
 40
7.933237786060675
100
AcDbArc
 50
103.2681189705562
 51
105.2575232904564
  0
ARC
  5
73
100
AcDbEntity
  8
A10
  6
CONTINUOUS
 62
7
100
AcDbCircle
 10
143.5328956150222
 20
99.09372068985078
 30
0.000000000000000
 40
0.3333293187420452
100
AcDbArc
 50
105.2575232904564
 51
180.0000000000000
  0
LINE
  5
74
100
AcDbEntity
  8
A10
  6
CONTINUOUS
 62
7
100
AcDbLine
 10
143.1995662962802
 20
99.09372068985078
 30
0.000000000000000
 11
143.1995662962802
 21
95.62952018854207
 31
0.000000000000000
  0
ARC
  5
75
100
AcDbEntity
  8
A10
  6
CONTINUOUS
 62
7
100
AcDbCircle
 10
143.5328956150222
 20
95.62952018854207
 30
0.000000000000000
 40
0.3333293187420452
100
AcDbArc
 50
180.0000000000000
 51
254.7424767095436
  0
ARC
  5
76
100
AcDbEntity
  8
A10
  6
CONTINUOUS
 62
7
100
AcDbCircle
 10
145.5328715274745
 20
102.9615529940628
 30
0.000000000000000
 40
7.933237786060675
100
AcDbArc
 50
254.7424767095436
 51
254.7937121239420
  0
ARC
  5
77
100
AcDbEntity
  8
A10
  6
CONTINUOUS
 62
7
100
AcDbCircle
 10
145.5328715274745
 20
102.9615529940628
 30
0.000000000000000
 40
7.933237786060675
100
AcDbArc
 50
254.7937121239420
 51
257.2710561268773
  0
ARC
  5
78
100
AcDbEntity
  8
A10
  6
CONTINUOUS
 62
7
100
AcDbCircle
 10
143.7995590700159
 20
95.28831497261899
 30
0.000000000000000
 40
0.06666586374840902
100
AcDbArc
 50
257.2710561268775
 51
360.0000000000000
  0
LINE
  5
79
100
AcDbEntity
  8
A10
  6
CONTINUOUS
 62
7
100
AcDbLine
 10
143.8662249337642
 20
95.28831497261899
 30
0.000000000000000
 11
143.8662249337642
 21
96.56163007421011
 31
0.000000000000000
  0
LINE
  5
7A
100
AcDbEntity
  8
A10
  6
CONTINUOUS
 62
7
100
AcDbLine
 10
144.5328835712483
 20
99.63164886629082
 30
0.000000000000000
 11
144.5328835712483
 21
95.09159201210221
 31
0.000000000000000
  0
LINE
  5
7B
100
AcDbEntity
  8
A10
  6
CONTINUOUS
 62
7
100
AcDbLine
 10
145.1995422087325
 20
99.68791986020918
 30
0.000000000000000
 11
145.1995422087325
 21
95.03532101818377
 31
0.000000000000000
  0
LINE
  5
7C
100
AcDbEntity
  8
A10
  6
CONTINUOUS
 62
7
100
AcDbLine
 10
145.1995422087325
 20
97.36162043919097
 30
0.000000000000000
 11
144.5328835712483
 21
97.36162043919097
 31
0.000000000000000
  0
LINE
  5
7D
100
AcDbEntity
  8
A10
  6
CONTINUOUS
 62
7
100
AcDbLine
 10
145.8662008462165
 20
99.68791986020918
 30
0.000000000000000
 11
145.8662008462165
 21
95.03532101818377
 31
0.000000000000000
  0
LINE
  5
7E
100
AcDbEntity
  8
A10
  6
CONTINUOUS
 62
7
100
AcDbLine
 10
147.1995181211847
 20
98.16161080417183
 30
0.000000000000000
 11
147.1995181211847
 21
99.24372462280539
 31
0.000000000000000
  0
ARC
  5
7F
100
AcDbEntity
  8
A10
  6
CONTINUOUS
 62
7
100
AcDbCircle
 10
146.8661888024427
 20
99.24372462280539
 30
0.000000000000000
 40
0.3333293187420452
100
AcDbArc
 50
0.000000000000000
 51
79.89581728387491
  0
ARC
  5
80
100
AcDbEntity
  8
A10
  6
CONTINUOUS
 62
7
100
AcDbCircle
 10
145.5328715274745
 20
91.76168788433017
 30
0.000000000000000
 40
7.933237786060675
100
AcDbArc
 50
79.89581728387498
 51
82.20707566457760
  0
ARC
  5
81
100
AcDbEntity
  8
A10
  6
CONTINUOUS
 62
7
100
AcDbCircle
 10
146.5995253474491
 20
99.55560881267198
 30
0.000000000000000
 40
0.06666586374840902
100
AcDbArc
 50
82.20707566457730
 51
180.0000000000000
  0
LINE
  5
82
100
AcDbEntity
  8
A10
  6
CONTINUOUS
 62
7
100
AcDbLine
 10
146.5328594837007
 20
99.55560881267198
 30
0.000000000000000
 11
146.5328594837007
 21
95.16763206572097
 31
0.000000000000000
  0
ARC
  5
83
100
AcDbEntity
  8
A10
  6
CONTINUOUS
 62
7
100
AcDbCircle
 10
146.5995253474491
 20
95.16763206572097
 30
0.000000000000000
 40
0.06666586374840902
100
AcDbArc
 50
180.0000000000000
 51
277.7929243354228
  0
ARC
  5
84
100
AcDbEntity
  8
A10
  6
CONTINUOUS
 62
7
100
AcDbCircle
 10
145.5328715274745
 20
102.9615529940628
 30
0.000000000000000
 40
7.933237786060675
100
AcDbArc
 50
277.7929243354224
 51
280.1041827161250
  0
ARC
  5
85
100
AcDbEntity
  8
A10
  6
CONTINUOUS
 62
7
100
AcDbCircle
 10
146.8661888024427
 20
95.47951625558764
 30
0.000000000000000
 40
0.3333293187420452
100
AcDbArc
 50
280.1041827161250
 51
360.0000000000000
  0
LINE
  5
86
100
AcDbEntity
  8
A10
  6
CONTINUOUS
 62
7
100
AcDbLine
 10
147.1995181211847
 20
95.47951625558764
 30
0.000000000000000
 11
147.1995181211847
 21
97.36162043919097
 31
0.000000000000000
  0
LINE
  5
87
100
AcDbEntity
  8
A10
  6
CONTINUOUS
 62
7
100
AcDbLine
 10
147.1995181211847
 20
97.36162043919097
 30
0.000000000000000
 11
146.8661888024427
 21
97.36162043919097
 31
0.000000000000000
  0
LINE
  5
88
100
AcDbEntity
  8
A10
  6
CONTINUOUS
 62
7
100
AcDbLine
 10
147.8661767586689
 20
99.55304234942423
 30
0.000000000000000
 11
147.8661767586689
 21
95.37920847087852
 31
0.000000000000000
  0
LINE
  5
89
100
AcDbEntity
  8
A10
  6
CONTINUOUS
 62
7
100
AcDbLine
 10
148.5328353961529
 20
99.23897110470264
 30
0.000000000000000
 11
148.5328353961529
 21
97.69494975793307
 31
0.000000000000000
  0
ARC
  5
8A
100
AcDbEntity
  8
A10
  6
CONTINUOUS
 62
7
100
AcDbCircle
 10
148.8661647148949
 20
97.69494975793307
 30
0.000000000000000
 40
0.3333293187420467
100
AcDbArc
 50
180.0000000000000
 51
360.0000000000000
  0
LINE
  5
8B
100
AcDbEntity
  8
A10
  6
CONTINUOUS
 62
7
100
AcDbLine
 10
149.1994940336370
 20
97.69494975793307
 30
0.000000000000000
 11
149.1994940336370
 21
99.11913509120393
 31
0.000000000000000
  0
LINE
  5
8C
100
AcDbEntity
  8
A10
  6
CONTINUOUS
 62
7
100
AcDbLine
 10
148.8661647148949
 20
97.36162043919097
 30
0.000000000000000
 11
148.8661647148949
 21
95.76256568355333
 31
0.000000000000000
  0
LINE
  5
8D
100
AcDbEntity
  8
A10
  6
CONTINUOUS
 62
7
100
AcDbLine
 10
149.5389334335698
 20
96.11409143705404
 30
0.000000000000000
 11
150.2920313637250
 21
98.92469117545880
 31
0.000000000000000
  0
LINE
  5
8E
100
AcDbEntity
  8
A10
  6
CONTINUOUS
 62
7
100
AcDbLine
 10
151.2509424458623
 20
97.36162043919097
 30
0.000000000000000
 11
149.8732078222278
 21
97.36162043919097
 31
0.000000000000000
  0
CIRCLE
  5
8F
100
AcDbEntity
  8
A10
  6
CONTINUOUS
 62
7
100
AcDbCircle
 10
191.5328715274745
 20
92.11165657051802
 30
0.000000000000000
 40
1.229500000000000
  0
CIRCLE
  5
90
100
AcDbEntity
  8
A10
  6
CONTINUOUS
 62
7
100
AcDbCircle
 10
171.5328715274745
 20
102.1116565705180
 30
0.000000000000000
 40
1.229500000000000
  0
LINE
  5
91
100
AcDbEntity
  8
A2
  6
CONTINUOUS
 62
7
100
AcDbLine
 10
122.0328715274650
 20
80.11165657051792
 30
0.000000000000000
 11
198.0328715274746
 21
80.11165657051798
 31
0.000000000000000
  0
CIRCLE
  5
92
100
AcDbEntity
  8
A10
  6
CONTINUOUS
 62
7
100
AcDbCircle
 10
162.0328715274745
 20
83.61165657051797
 30
0.000000000000000
 40
3.000000000000000
  0
LINE
  5
93
100
AcDbEntity
  8
A10
  6
CONTINUOUS
 62
7
100
AcDbLine
 10
162.7248337941523
 20
84.30361883719578
 30
0.000000000000000
 11
163.0931205326738
 21
84.13964701678731
 31
0.000000000000000
  0
LINE
  5
94
100
AcDbEntity
  8
A10
  6
CONTINUOUS
 62
7
100
AcDbLine
 10
163.0931205326739
 20
84.13964701678724
 30
0.000000000000000
 11
163.7572068497489
 21
84.12805534700483
 31
0.000000000000000
  0
ARC
  5
95
100
AcDbEntity
  8
A10
  6
CONTINUOUS
 62
7
100
AcDbCircle
 10
162.0328715274745
 20
83.61165657051797
 30
0.000000000000000
 40
1.800000000000000
100
AcDbArc
 50
343.3282509640041
 51
376.6717490359751
  0
LINE
  5
96
100
AcDbEntity
  8
A10
  6
CONTINUOUS
 62
7
100
AcDbLine
 10
163.0931205326733
 20
83.08366612424842
 30
0.000000000000000
 11
163.7572068497489
 21
83.09525779403089
 31
0.000000000000000
  0
LINE
  5
97
100
AcDbEntity
  8
A10
  6
CONTINUOUS
 62
7
100
AcDbLine
 10
162.7248337941524
 20
82.91969430384015
 30
0.000000000000000
 11
163.0931205326734
 21
83.08366612424842
 31
0.000000000000000
  0
LINE
  5
98
100
AcDbEntity
  8
A10
  6
CONTINUOUS
 62
7
100
AcDbLine
 10
162.5608619737438
 20
82.55140756531850
 30
0.000000000000000
 11
162.5492703039613
 21
81.88732124824342
 31
0.000000000000000
  0
ARC
  5
99
100
AcDbEntity
  8
A10
  6
CONTINUOUS
 62
7
100
AcDbCircle
 10
162.0328715274745
 20
83.61165657051797
 30
0.000000000000000
 40
1.800000000000000
100
AcDbArc
 50
253.3282509640079
 51
286.6717490359734
  0
LINE
  5
9A
100
AcDbEntity
  8
A10
  6
CONTINUOUS
 62
7
100
AcDbLine
 10
162.7248337941523
 20
82.91969430384005
 30
0.000000000000000
 11
162.5608619737438
 21
82.55140756531851
 31
0.000000000000000
  0
LINE
  5
9B
100
AcDbEntity
  8
A10
  6
CONTINUOUS
 62
7
100
AcDbLine
 10
161.5048810812049
 20
82.55140756531932
 30
0.000000000000000
 11
161.5164727509874
 21
81.88732124824375
 31
0.000000000000000
  0
LINE
  5
9C
100
AcDbEntity
  8
A10
  6
CONTINUOUS
 62
7
100
AcDbLine
 10
161.3409092607968
 20
82.91969430384020
 30
0.000000000000000
 11
161.5048810812050
 21
82.55140756531935
 31
0.000000000000000
  0
LINE
  5
9D
100
AcDbEntity
  8
A10
  6
CONTINUOUS
 62
7
100
AcDbLine
 10
161.3409092607968
 20
82.91969430384012
 30
0.000000000000000
 11
160.9726225222753
 21
83.08366612424862
 31
0.000000000000000
  0
LINE
  5
9E
100
AcDbEntity
  8
A10
  6
CONTINUOUS
 62
7
100
AcDbLine
 10
160.9726225222752
 20
83.08366612424877
 30
0.000000000000000
 11
160.3085362052002
 21
83.09525779403110
 31
0.000000000000000
  0
ARC
  5
9F
100
AcDbEntity
  8
A10
  6
CONTINUOUS
 62
7
100
AcDbCircle
 10
162.0328715274745
 20
83.61165657051797
 30
0.000000000000000
 40
1.800000000000000
100
AcDbArc
 50
163.3282509640185
 51
196.6717490359765
  0
LINE
  5
A0
100
AcDbEntity
  8
A10
  6
CONTINUOUS
 62
7
100
AcDbLine
 10
161.3409092607967
 20
84.30361883719571
 30
0.000000000000000
 11
160.9726225222753
 21
84.13964701678735
 31
0.000000000000000
  0
LINE
  5
A1
100
AcDbEntity
  8
A10
  6
CONTINUOUS
 62
7
100
AcDbLine
 10
161.3409092607968
 20
84.30361883719576
 30
0.000000000000000
 11
161.5048810812050
 21
84.67190557571658
 31
0.000000000000000
  0
LINE
  5
A2
100
AcDbEntity
  8
A10
  6
CONTINUOUS
 62
7
100
AcDbLine
 10
160.9726225222752
 20
84.13964701678718
 30
0.000000000000000
 11
160.3085362052002
 21
84.12805534700476
 31
0.000000000000000
  0
LINE
  5
A3
100
AcDbEntity
  8
A10
  6
CONTINUOUS
 62
7
100
AcDbLine
 10
161.5048810812049
 20
84.67190557571676
 30
0.000000000000000
 11
161.5164727509874
 21
85.33599189279251
 31
0.000000000000000
  0
ARC
  5
A4
100
AcDbEntity
  8
A10
  6
CONTINUOUS
 62
7
100
AcDbCircle
 10
162.0328715274745
 20
83.61165657051797
 30
0.000000000000000
 40
1.800000000000000
100
AcDbArc
 50
73.32825096401452
 51
106.6717490359855
  0
LINE
  5
A5
100
AcDbEntity
  8
A10
  6
CONTINUOUS
 62
7
100
AcDbLine
 10
162.7248337941524
 20
84.30361883719581
 30
0.000000000000000
 11
162.5608619737442
 21
84.67190557571683
 31
0.000000000000000
  0
LINE
  5
A6
100
AcDbEntity
  8
A10
  6
CONTINUOUS
 62
7
100
AcDbLine
 10
162.5608619737441
 20
84.67190557571683
 30
0.000000000000000
 11
162.5492703039616
 21
85.33599189279232
 31
0.000000000000000
  0
CIRCLE
  5
A7
100
AcDbEntity
  8
A10
  6
CONTINUOUS
 62
7
100
AcDbCircle
 10
132.0328715274659
 20
103.6116565705180
 30
0.000000000000000
 40
3.000000000000000
  0
LINE
  5
A8
100
AcDbEntity
  8
A10
  6
CONTINUOUS
 62
7
100
AcDbLine
 10
132.7248337941437
 20
104.3036188371958
 30
0.000000000000000
 11
133.0931205326652
 21
104.1396470167873
 31
0.000000000000000
  0
LINE
  5
A9
100
AcDbEntity
  8
A10
  6
CONTINUOUS
 62
7
100
AcDbLine
 10
133.0931205326652
 20
104.1396470167873
 30
0.000000000000000
 11
133.7572068497402
 21
104.1280553470049
 31
0.000000000000000
  0
ARC
  5
AA
100
AcDbEntity
  8
A10
  6
CONTINUOUS
 62
7
100
AcDbCircle
 10
132.0328715274659
 20
103.6116565705180
 30
0.000000000000000
 40
1.800000000000000
100
AcDbArc
 50
343.3282509640041
 51
376.6717490359751
  0
LINE
  5
AB
100
AcDbEntity
  8
A10
  6
CONTINUOUS
 62
7
100
AcDbLine
 10
133.0931205326647
 20
103.0836661242484
 30
0.000000000000000
 11
133.7572068497403
 21
103.0952577940309
 31
0.000000000000000
  0
LINE
  5
AC
100
AcDbEntity
  8
A10
  6
CONTINUOUS
 62
7
100
AcDbLine
 10
132.7248337941437
 20
102.9196943038402
 30
0.000000000000000
 11
133.0931205326647
 21
103.0836661242485
 31
0.000000000000000
  0
LINE
  5
AD
100
AcDbEntity
  8
A10
  6
CONTINUOUS
 62
7
100
AcDbLine
 10
132.5608619737352
 20
102.5514075653186
 30
0.000000000000000
 11
132.5492703039527
 21
101.8873212482436
 31
0.000000000000000
  0
ARC
  5
AE
100
AcDbEntity
  8
A10
  6
CONTINUOUS
 62
7
100
AcDbCircle
 10
132.0328715274659
 20
103.6116565705180
 30
0.000000000000000
 40
1.800000000000000
100
AcDbArc
 50
253.3282509640079
 51
286.6717490359734
  0
LINE
  5
AF
100
AcDbEntity
  8
A10
  6
CONTINUOUS
 62
7
100
AcDbLine
 10
132.7248337941437
 20
102.9196943038401
 30
0.000000000000000
 11
132.5608619737352
 21
102.5514075653185
 31
0.000000000000000
  0
LINE
  5
B0
100
AcDbEntity
  8
A10
  6
CONTINUOUS
 62
7
100
AcDbLine
 10
131.5048810811962
 20
102.5514075653193
 30
0.000000000000000
 11
131.5164727509787
 21
101.8873212482438
 31
0.000000000000000
  0
LINE
  5
B1
100
AcDbEntity
  8
A10
  6
CONTINUOUS
 62
7
100
AcDbLine
 10
131.3409092607882
 20
102.9196943038402
 30
0.000000000000000
 11
131.5048810811963
 21
102.5514075653193
 31
0.000000000000000
  0
LINE
  5
B2
100
AcDbEntity
  8
A10
  6
CONTINUOUS
 62
7
100
AcDbLine
 10
131.3409092607882
 20
102.9196943038401
 30
0.000000000000000
 11
130.9726225222666
 21
103.0836661242486
 31
0.000000000000000
  0
LINE
  5
B3
100
AcDbEntity
  8
A10
  6
CONTINUOUS
 62
7
100
AcDbLine
 10
130.9726225222666
 20
103.0836661242488
 30
0.000000000000000
 11
130.3085362051916
 21
103.0952577940311
 31
0.000000000000000
  0
ARC
  5
B4
100
AcDbEntity
  8
A10
  6
CONTINUOUS
 62
7
100
AcDbCircle
 10
132.0328715274659
 20
103.6116565705180
 30
0.000000000000000
 40
1.800000000000000
100
AcDbArc
 50
163.3282509640185
 51
196.6717490359765
  0
LINE
  5
B5
100
AcDbEntity
  8
A10
  6
CONTINUOUS
 62
7
100
AcDbLine
 10
131.3409092607881
 20
104.3036188371957
 30
0.000000000000000
 11
130.9726225222666
 21
104.1396470167874
 31
0.000000000000000
  0
LINE
  5
B6
100
AcDbEntity
  8
A10
  6
CONTINUOUS
 62
7
100
AcDbLine
 10
131.3409092607881
 20
104.3036188371958
 30
0.000000000000000
 11
131.5048810811963
 21
104.6719055757167
 31
0.000000000000000
  0
LINE
  5
B7
100
AcDbEntity
  8
A10
  6
CONTINUOUS
 62
7
100
AcDbLine
 10
130.9726225222666
 20
104.1396470167873
 30
0.000000000000000
 11
130.3085362051915
 21
104.1280553470049
 31
0.000000000000000
  0
LINE
  5
B8
100
AcDbEntity
  8
A10
  6
CONTINUOUS
 62
7
100
AcDbLine
 10
131.5048810811963
 20
104.6719055757167
 30
0.000000000000000
 11
131.5164727509788
 21
105.3359918927924
 31
0.000000000000000
  0
ARC
  5
B9
100
AcDbEntity
  8
A10
  6
CONTINUOUS
 62
7
100
AcDbCircle
 10
132.0328715274659
 20
103.6116565705180
 30
0.000000000000000
 40
1.800000000000000
100
AcDbArc
 50
73.32825096401452
 51
106.6717490359855
  0
LINE
  5
BA
100
AcDbEntity
  8
A10
  6
CONTINUOUS
 62
7
100
AcDbLine
 10
132.7248337941437
 20
104.3036188371958
 30
0.000000000000000
 11
132.5608619737355
 21
104.6719055757169
 31
0.000000000000000
  0
LINE
  5
BB
100
AcDbEntity
  8
A10
  6
CONTINUOUS
 62
7
100
AcDbLine
 10
132.5608619737354
 20
104.6719055757168
 30
0.000000000000000
 11
132.5492703039529
 21
105.3359918927924
 31
0.000000000000000
  0
LINE
  5
BC
100
AcDbEntity
  8
A10
  6
CONTINUOUS
 62
7
100
AcDbLine
 10
210.0328715275023
 20
96.61314045135684
 30
0.000000000000000
 11
210.0328715275041
 21
90.61017268968128
 31
0.000000000000000
  0
ELLIPSE
  5
BD
100
AcDbEntity
  8
A10
  6
CONTINUOUS
 62
7
100
AcDbEllipse
 10
208.0828715275032
 20
93.61165657051805
 30
0.000000000000000
 11
0.000000000000000
 21
4.000000000000000
 31
0.000000000000000
210
0.000000000000000
220
0.000000000000000
230
1.000000000000000
 40
0.7374999999999936
 41
5.561012092085307
 42
0.000000000000000
  0
LINE
  5
BE
100
AcDbEntity
  8
A10
  6
CONTINUOUS
 62
7
100
AcDbLine
 10
208.0828715275032
 20
97.61165657050546
 30
0.000000000000000
 11
198.0328715274745
 21
97.61165657049850
 31
0.000000000000000
  0
ELLIPSE
  5
BF
100
AcDbEntity
  8
A10
  6
CONTINUOUS
 62
7
100
AcDbEllipse
 10
208.0828715275032
 20
93.61165657051805
 30
0.000000000000000
 11
0.000000000000000
 21
4.000000000000000
 31
0.000000000000000
210
0.000000000000000
220
0.000000000000000
230
1.000000000000000
 40
0.7374999999999936
 41
3.141592653589793
 42
3.863765868684072
  0
LINE
  5
C0
100
AcDbEntity
  8
A10
  6
CONTINUOUS
 62
7
100
AcDbLine
 10
208.0828715275032
 20
89.61165657050546
 30
0.000000000000000
 11
198.0328715274745
 21
89.61165657049850
 31
0.000000000000000
  0
LINE
  5
C1
100
AcDbEntity
  8
A10
  6
CONTINUOUS
 62
7
100
AcDbLine
 10
122.0328715274650
 20
107.1116565705180
 30
0.000000000000000
 11
122.0328715274650
 21
80.11165657051791
 31
0.000000000000000
  0
ARC
  5
C2
100
AcDbEntity
  8
A2
  6
CONTINUOUS
 62
7
100
AcDbCircle
 10
185.8828715274749
 20
93.61165657051802
 30
0.000000000000000
 40
1.649999999999636
100
AcDbArc
 50
270.0000000000000
 51
450.0000000000000
  0
ARC
  5
C3
100
AcDbEntity
  8
A2
  6
CONTINUOUS
 62
7
100
AcDbCircle
 10
177.1828715274746
 20
93.61165657051802
 30
0.000000000000000
 40
1.650000000000091
100
AcDbArc
 50
90.00000000000000
 51
270.0000000000000
  0
ARC
  5
C4
100
AcDbEntity
  8
A10
  6
CONTINUOUS
 62
7
100
AcDbCircle
 10
186.0328715274746
 20
93.61165657051802
 30
0.000000000000000
 40
1.500000000000000
100
AcDbArc
 50
191.5369590328160
 51
528.4630409671840
  0
ARC
  5
C5
100
AcDbEntity
  8
A10
  6
CONTINUOUS
 62
7
100
AcDbCircle
 10
186.0328715274746
 20
93.61165657051802
 30
0.000000000000000
 40
0.9000000000000000
100
AcDbArc
 50
199.4712206344917
 51
520.5287793655084
  0
LINE
  5
C6
100
AcDbEntity
  8
A10
  6
CONTINUOUS
 62
7
100
AcDbLine
 10
184.5631776818045
 20
93.31165657051801
 30
0.000000000000000
 11
185.1843433900507
 21
93.31165657051801
 31
0.000000000000000
  0
LINE
  5
C7
100
AcDbEntity
  8
A10
  6
CONTINUOUS
 62
7
100
AcDbLine
 10
184.5631776818047
 20
93.91165657051803
 30
0.000000000000000
 11
185.1843433900503
 21
93.91165657051803
 31
0.000000000000000
  0
LINE
  5
C8
100
AcDbEntity
  8
A10
  6
CENTER
 62
1
100
AcDbLine
 10
186.0328715274746
 20
96.61165657051802
 30
0.000000000000000
 11
186.0328715274746
 21
90.61165657051802
 31
0.000000000000000
  0
LINE
  5
C9
100
AcDbEntity
  8
A10
  6
CENTER
 62
1
100
AcDbLine
 10
119.7328715274650
 20
93.61165657051802
 30
0.000000000000000
 11
211.5328715275032
 21
93.61165657051802
 31
0.000000000000000
  0
ARC
  5
CA
100
AcDbEntity
  8
A10
  6
CONTINUOUS
 62
7
100
AcDbCircle
 10
186.0328715274746
 20
93.61165657051802
 30
0.000000000000000
 40
1.300000000000000
100
AcDbArc
 50
193.3423637970888
 51
526.6576362029112
  0
LINE
  5
CB
100
AcDbEntity
  8
A10
  6
CONTINUOUS
 62
7
100
AcDbLine
 10
108.0661917218977
 20
108.5116565705180
 30
0.000000000000000
 11
128.2328715274650
 21
108.5116565705180
 31
0.000000000000000
  0
SPLINE
  5
CC
100
AcDbEntity
  8
A10
  6
CONTINUOUS
 62
7
100
AcDbSpline
210
0.000000000000000
220
0.000000000000000
230
1.000000000000000
 70
     8
 71
     3
 72
    13
 73
     9
 74
     0
 42
1.000000000000000e-07
 43
1.000000000000000e-07
 12
-0.7442084075357798
 22
-0.8593380842556826
 32
0.000000000000000
 13
0.7442084075357798
 23
0.7435723319729277
 33
0.000000000000000
 40
0.000000000000000
 40
0.000000000000000
 40
0.000000000000000
 40
0.000000000000000
 40
0.4031128874150227
 40
0.8062257748299959
 40
1.209338662244994
 40
1.612451549659918
 40
2.015564437074941
 40
2.418677324489939
 40
2.418677324489939
 40
2.418677324489939
 40
2.418677324489939
 10
108.0661917218977
 20
108.5116565705180
 30
0.000000000000000
 10
107.9661917218976
 20
108.3961864850480
 30
0.000000000000000
 10
107.7661917218974
 20
108.1652463141078
 30
0.000000000000000
 10
108.0661917218976
 20
107.7972975961590
 30
0.000000000000000
 10
108.3661917218977
 20
107.5155027243642
 30
0.000000000000000
 10
108.0661917218977
 20
106.9106309294924
 30
0.000000000000000
 10
107.7661917218974
 20
107.5119129807744
 30
0.000000000000000
 10
107.9661917218975
 20
107.7117420406035
 30
0.000000000000000
 10
108.0661917218976
 20
107.8116565705180
 30
0.000000000000000
  0
LINE
  5
CD
100
AcDbEntity
  8
A10
  6
CENTER
 62
1
100
AcDbLine
 10
193.9328715274745
 20
86.11165657051802
 30
0.000000000000000
 11
199.5328715274745
 21
86.11165657051802
 31
0.000000000000000
  0
LINE
  5
CE
100
AcDbEntity
  8
A10
  6
CENTER
 62
1
100
AcDbLine
 10
193.9328715274745
 20
101.1116565705180
 30
0.000000000000000
 11
199.5328715274745
 21
101.1116565705180
 31
0.000000000000000
  0
LINE
  5
CF
100
AcDbEntity
  8
A2
  6
CONTINUOUS
 62
7
100
AcDbLine
 10
108.0667186021656
 20
107.1116565705180
 30
0.000000000000000
 11
198.0328715274745
 21
107.1116565705180
 31
0.000000000000000
  0
LINE
  5
D0
100
AcDbEntity
  8
A2
  6
CENTER
 62
1
100
AcDbLine
 10
132.0328715274659
 20
178.2116565705099
 30
0.000000000000000
 11
132.0328715274659
 21
170.6116565705180
 31
0.000000000000000
  0
LINE
  5
D1
100
AcDbEntity
  8
A2
  6
CENTER
 62
1
100
AcDbLine
 10
162.0328715274745
 20
170.6116565705180
 30
0.000000000000000
 11
162.0328715274745
 21
178.2116565705099
 31
0.000000000000000
  0
LINE
  5
D2
100
AcDbEntity
  8
A2
  6
CONTINUOUS
 62
7
100
AcDbLine
 10
124.0328715274659
 20
202.7116565705095
 30
0.000000000000000
 11
175.5328715274658
 21
202.7116565705095
 31
0.000000000000000
  0
LINE
  5
D3
100
AcDbEntity
  8
A2
  6
CONTINUOUS
 62
7
100
AcDbLine
 10
175.5328715274658
 20
202.7116565705095
 30
0.000000000000000
 11
175.5328715274658
 21
204.7116565705096
 31
0.000000000000000
  0
LINE
  5
D4
100
AcDbEntity
  8
A2
  6
CONTINUOUS
 62
7
100
AcDbLine
 10
124.0328715274659
 20
204.7116565705096
 30
0.000000000000000
 11
175.5328715274658
 21
204.7116565705096
 31
0.000000000000000
  0
LINE
  5
D5
100
AcDbEntity
  8
A2
  6
CONTINUOUS
 62
7
100
AcDbLine
 10
175.5328715274657
 20
176.7116565705099
 30
0.000000000000000
 11
124.0328715274657
 21
176.7116565705095
 31
0.000000000000000
  0
LINE
  5
D6
100
AcDbEntity
  8
A2
  6
CONTINUOUS
 62
7
100
AcDbLine
 10
188.5328715274651
 20
194.7116565705095
 30
0.000000000000000
 11
189.0328715274652
 21
194.2116565705095
 31
0.000000000000000
  0
LINE
  5
D7
100
AcDbEntity
  8
A2
  6
CONTINUOUS
 62
7
100
AcDbLine
 10
189.0328715274651
 20
185.2116565705095
 30
0.000000000000000
 11
188.5328715274650
 21
184.7116565705094
 31
0.000000000000000
  0
LINE
  5
D8
100
AcDbEntity
  8
A2
  6
CONTINUOUS
 62
7
100
AcDbLine
 10
188.5328715274653
 20
194.7116565705095
 30
0.000000000000000
 11
174.4328715274659
 21
194.7116565705095
 31
0.000000000000000
  0
LINE
  5
D9
100
AcDbEntity
  8
A2
  6
CONTINUOUS
 62
7
100
AcDbLine
 10
188.5328715274652
 20
184.7116565705095
 30
0.000000000000000
 11
174.4328715274659
 21
184.7116565705095
 31
0.000000000000000
  0
LINE
  5
DA
100
AcDbEntity
  8
A2
  6
CONTINUOUS
 62
7
100
AcDbLine
 10
175.5328715274658
 20
176.7116565705100
 30
0.000000000000000
 11
175.5328715274658
 21
174.7116565705095
 31
0.000000000000000
  0
ARC
  5
DB
100
AcDbEntity
  8
A2
  6
CONTINUOUS
 62
7
100
AcDbCircle
 10
124.0328715274659
 20
176.7116565705095
 30
0.000000000000000
 40
2.000000000000000
100
AcDbArc
 50
180.0000000000016
 51
269.9999999999740
  0
ARC
  5
DC
100
AcDbEntity
  8
A2
  6
CONTINUOUS
 62
7
100
AcDbCircle
 10
124.0328715274659
 20
202.7116565705095
 30
0.000000000000000
 40
2.000000000000000
100
AcDbArc
 50
90.00000000000000
 51
179.9999999999984
  0
LINE
  5
DD
100
AcDbEntity
  8
A2
  6
CONTINUOUS
 62
7
100
AcDbLine
 10
174.4328715274659
 20
176.7116565705095
 30
0.000000000000000
 11
174.4328715274659
 21
202.7116565705095
 31
0.000000000000000
  0
LINE
  5
DE
100
AcDbEntity
  8
A2
  6
CENTER
 62
1
100
AcDbLine
 10
120.1246721775196
 20
189.7116565705095
 30
0.000000000000000
 11
210.7434669925437
 21
189.7116565705095
 31
0.000000000000000
  0
LINE
  5
DF
100
AcDbEntity
  8
A10
  6
CONTINUOUS
 62
7
100
AcDbLine
 10
182.0328715274653
 20
188.1616565705095
 30
0.000000000000000
 11
182.0328715274653
 21
191.2616565705095
 31
0.000000000000000
  0
LINE
  5
E0
100
AcDbEntity
  8
A2
  6
CONTINUOUS
 62
7
100
AcDbLine
 10
188.5328715274653
 20
184.7116565705095
 30
0.000000000000000
 11
188.5328715274653
 21
185.2116565705095
 31
0.000000000000000
  0
LINE
  5
E1
100
AcDbEntity
  8
A2
  6
CONTINUOUS
 62
7
100
AcDbLine
 10
188.5328715274653
 20
194.2116565705095
 30
0.000000000000000
 11
188.5328715274653
 21
194.7116565705095
 31
0.000000000000000
  0
LINE
  5
E2
100
AcDbEntity
  8
A2
  6
CONTINUOUS
 62
7
100
AcDbLine
 10
195.4328715274746
 20
204.7116565705183
 30
0.000000000000000
 11
195.4328715274746
 21
175.2116565705182
 31
0.000000000000000
  0
LINE
  5
E3
100
AcDbEntity
  8
A2
  6
CONTINUOUS
 62
7
100
AcDbLine
 10
198.0328715274745
 20
204.7116565705183
 30
0.000000000000000
 11
195.4328715274746
 21
204.7116565705183
 31
0.000000000000000
  0
LINE
  5
E4
100
AcDbEntity
  8
A2
  6
CONTINUOUS
 62
7
100
AcDbLine
 10
198.0328715274745
 20
174.1116565705180
 30
0.000000000000000
 11
198.0328715274745
 21
204.7116565705183
 31
0.000000000000000
  0
LINE
  5
E5
100
AcDbEntity
  8
A2
  6
CONTINUOUS
 62
7
100
AcDbLine
 10
123.0328715274745
 20
172.1116565705180
 30
0.000000000000000
 11
196.0328715274745
 21
172.1116565705180
 31
0.000000000000000
  0
ARC
  5
E6
100
AcDbEntity
  8
A2
  6
CONTINUOUS
 62
7
100
AcDbCircle
 10
196.0328715274745
 20
174.1116565705180
 30
0.000000000000000
 40
2.000000000000000
100
AcDbArc
 50
270.0000000000000
 51
360.0000000000000
  0
ARC
  5
E7
100
AcDbEntity
  8
A2
  6
CONTINUOUS
 62
7
100
AcDbCircle
 10
194.9328715274746
 20
175.2116565705182
 30
0.000000000000000
 40
0.5000000000000000
100
AcDbArc
 50
270.0000000000000
 51
360.0000000000000
  0
LINE
  5
E8
100
AcDbEntity
  8
A2
  6
CENTER
 62
1
100
AcDbLine
 10
171.5328715274745
 20
170.6116565705180
 30
0.000000000000000
 11
171.5328715274745
 21
176.2116565705182
 31
0.000000000000000
  0
LINE
  5
E9
100
AcDbEntity
  8
A2
  6
CONTINUOUS
 62
7
100
AcDbLine
 10
123.0328715274745
 20
174.7116565705182
 30
0.000000000000000
 11
123.0328715274745
 21
172.1116565705180
 31
0.000000000000000
  0
LINE
  5
EA
100
AcDbEntity
  8
A10
  6
CONTINUOUS
 62
7
100
AcDbLine
 10
184.7328715274745
 20
197.6116565705180
 30
0.000000000000000
 11
187.3328715274745
 21
197.6116565705180
 31
0.000000000000000
  0
LINE
  5
EB
100
AcDbEntity
  8
A10
  6
CONTINUOUS
 62
7
100
AcDbLine
 10
210.0328715274753
 20
186.7116565705096
 30
0.000000000000000
 11
205.1314187599871
 21
193.7116565705030
 31
0.000000000000000
  0
LINE
  5
EC
100
AcDbEntity
  8
A2
  6
CONTINUOUS
 62
7
100
AcDbLine
 10
210.0328715274754
 20
185.7116565705096
 30
0.000000000000000
 11
210.0328715274754
 21
186.7116565705095
 31
0.000000000000000
  0
LINE
  5
ED
100
AcDbEntity
  8
A10
  6
CONTINUOUS
 62
7
100
AcDbLine
 10
182.5328715274653
 20
188.2116565705095
 30
0.000000000000000
 11
182.5328715274653
 21
191.2116565705095
 31
0.000000000000000
  0
LINE
  5
EE
100
AcDbEntity
  8
A10
  6
CONTINUOUS
 62
7
100
AcDbLine
 10
190.3328715274653
 20
185.7116565705096
 30
0.000000000000000
 11
190.3328715274653
 21
188.2116565705095
 31
0.000000000000000
  0
LINE
  5
EF
100
AcDbEntity
  8
A10
  6
CONTINUOUS
 62
7
100
AcDbLine
 10
190.3328715274653
 20
191.2116565705095
 30
0.000000000000000
 11
190.3328715274653
 21
193.7116565705096
 31
0.000000000000000
  0
LINE
  5
F0
100
AcDbEntity
  8
A10
  6
CONTINUOUS
 62
7
100
AcDbLine
 10
184.5328715273880
 20
185.2116565705095
 30
0.000000000000000
 11
190.2328715274652
 21
185.2116565705095
 31
0.000000000000000
  0
LINE
  5
F1
100
AcDbEntity
  8
A10
  6
CONTINUOUS
 62
7
100
AcDbLine
 10
184.5328715273882
 20
194.2116565705095
 30
0.000000000000000
 11
190.2328715274652
 21
194.2116565705095
 31
0.000000000000000
  0
LINE
  5
F2
100
AcDbEntity
  8
A10
  6
CONTINUOUS
 62
7
100
AcDbLine
 10
184.5328715274744
 20
197.4116565705179
 30
0.000000000000000
 11
184.7328715274743
 21
197.6116565705179
 31
0.000000000000000
  0
LINE
  5
F3
100
AcDbEntity
  8
A10
  6
CONTINUOUS
 62
7
100
AcDbLine
 10
187.3328715274745
 20
197.6116565705179
 30
0.000000000000000
 11
187.5328715274744
 21
197.4116565705179
 31
0.000000000000000
  0
LINE
  5
F4
100
AcDbEntity
  8
A2
  6
CONTINUOUS
 62
7
100
AcDbLine
 10
195.4328715274746
 20
193.7116565705096
 30
0.000000000000000
 11
190.3328715274653
 21
193.7116565705096
 31
0.000000000000000
  0
LINE
  5
F5
100
AcDbEntity
  8
A2
  6
CONTINUOUS
 62
7
100
AcDbLine
 10
205.1314187599825
 20
193.7116565705096
 30
0.000000000000000
 11
198.0328715274745
 21
193.7116565705096
 31
0.000000000000000
  0
LINE
  5
F6
100
AcDbEntity
  8
A2
  6
CONTINUOUS
 62
7
100
AcDbLine
 10
195.4328715274746
 20
185.7116565705096
 30
0.000000000000000
 11
190.3328715274653
 21
185.7116565705096
 31
0.000000000000000
  0
LINE
  5
F7
100
AcDbEntity
  8
A2
  6
CONTINUOUS
 62
7
100
AcDbLine
 10
210.0328715274754
 20
185.7116565705096
 30
0.000000000000000
 11
198.0328715274745
 21
185.7116565705096
 31
0.000000000000000
  0
LINE
  5
F8
100
AcDbEntity
  8
A10
  6
CONTINUOUS
 62
7
100
AcDbLine
 10
187.5328715274745
 20
194.7116565705095
 30
0.000000000000000
 11
187.5328715274745
 21
197.4116565705180
 31
0.000000000000000
  0
LINE
  5
F9
100
AcDbEntity
  8
A10
  6
CONTINUOUS
 62
7
100
AcDbLine
 10
184.5328715274745
 20
194.7116565705095
 30
0.000000000000000
 11
184.5328715274745
 21
197.4116565705179
 31
0.000000000000000
  0
LINE
  5
FA
100
AcDbEntity
  8
A10
  6
CONTINUOUS
 62
7
100
AcDbLine
 10
184.5328715274745
 20
174.7116565705182
 30
0.000000000000000
 11
184.5328715274745
 21
184.7116565705095
 31
0.000000000000000
  0
LINE
  5
FB
100
AcDbEntity
  8
A10
  6
CONTINUOUS
 62
7
100
AcDbLine
 10
187.5328715274745
 20
174.7116565705182
 30
0.000000000000000
 11
187.5328715274745
 21
184.7116565705095
 31
0.000000000000000
  0
LINE
  5
FC
100
AcDbEntity
  8
A10
  6
CONTINUOUS
 62
7
100
AcDbLine
 10
184.5328715274744
 20
197.4116565705180
 30
0.000000000000000
 11
187.5328715274745
 21
197.4116565705180
 31
0.000000000000000
  0
LINE
  5
FD
100
AcDbEntity
  8
A10
  6
CONTINUOUS
 62
7
100
AcDbLine
 10
190.2328715274652
 20
185.2116565705095
 30
0.000000000000000
 11
190.2328715274652
 21
194.2116565705095
 31
0.000000000000000
  0
LINE
  5
FE
100
AcDbEntity
  8
A10
  6
CONTINUOUS
 62
7
100
AcDbLine
 10
190.2328715274653
 20
191.2116565705095
 30
0.000000000000000
 11
190.3328715274653
 21
191.2116565705095
 31
0.000000000000000
  0
LINE
  5
FF
100
AcDbEntity
  8
A10
  6
CONTINUOUS
 62
7
100
AcDbLine
 10
190.2328715274653
 20
188.2116565705095
 30
0.000000000000000
 11
190.3328715274653
 21
188.2116565705095
 31
0.000000000000000
  0
LINE
  5
100
100
AcDbEntity
  8
A10
  6
CONTINUOUS
 62
7
100
AcDbLine
 10
184.5328715273880
 20
185.2116565705095
 30
0.000000000000000
 11
184.5328715273880
 21
194.2116565705096
 31
0.000000000000000
  0
LINE
  5
101
100
AcDbEntity
  8
A10
  6
CONTINUOUS
 62
7
100
AcDbLine
 10
185.7328715273880
 20
185.2116565705095
 30
0.000000000000000
 11
185.7328715273880
 21
194.2116565705095
 31
0.000000000000000
  0
LINE
  5
102
100
AcDbEntity
  8
A10
  6
CONTINUOUS
 62
7
100
AcDbLine
 10
182.5328715274653
 20
191.2116565705095
 30
0.000000000000000
 11
184.5328715274745
 21
191.2116565705095
 31
0.000000000000000
  0
LINE
  5
103
100
AcDbEntity
  8
A10
  6
CONTINUOUS
 62
7
100
AcDbLine
 10
182.0328715274653
 20
191.2616565705095
 30
0.000000000000000
 11
184.5328715274745
 21
191.2616565705095
 31
0.000000000000000
  0
LINE
  5
104
100
AcDbEntity
  8
A10
  6
CONTINUOUS
 62
7
100
AcDbLine
 10
182.0328715274653
 20
188.1616565705095
 30
0.000000000000000
 11
184.5328715274745
 21
188.1616565705095
 31
0.000000000000000
  0
LINE
  5
105
100
AcDbEntity
  8
A10
  6
CONTINUOUS
 62
7
100
AcDbLine
 10
182.5328715274653
 20
188.2116565705095
 30
0.000000000000000
 11
184.5328715274745
 21
188.2116565705095
 31
0.000000000000000
  0
LINE
  5
106
100
AcDbEntity
  8
A10
  6
CONTINUOUS
 62
7
100
AcDbLine
 10
128.2328715274658
 20
191.1116565705095
 30
0.000000000000000
 11
99.36484068722663
 21
191.1116565705095
 31
0.000000000000000
  0
LINE
  5
107
100
AcDbEntity
  8
A2
  6
CONTINUOUS
 62
7
100
AcDbLine
 10
128.2328715274658
 20
189.7116565705095
 30
0.000000000000000
 11
99.36484068722663
 21
189.7116565705095
 31
0.000000000000000
  0
LINE
  5
108
100
AcDbEntity
  8
A10
  6
CONTINUOUS
 62
7
100
AcDbLine
 10
128.2328715274658
 20
188.3116565705094
 30
0.000000000000000
 11
99.36484068722663
 21
188.3116565705094
 31
0.000000000000000
  0
LINE
  5
109
100
AcDbEntity
  8
A2
  6
CONTINUOUS
 62
7
100
AcDbLine
 10
76.69680984698743
 20
188.3116565705094
 30
0.000000000000000
 11
97.36484068722663
 21
188.3116565705094
 31
0.000000000000000
  0
LINE
  5
10A
100
AcDbEntity
  8
A2
  6
CONTINUOUS
 62
7
100
AcDbLine
 10
97.36484068722663
 20
189.7116565705095
 30
0.000000000000000
 11
76.69680984698743
 21
189.7116565705095
 31
0.000000000000000
  0
SPLINE
  5
10B
100
AcDbEntity
  8
A10
  6
CONTINUOUS
 62
7
100
AcDbSpline
210
0.000000000000000
220
0.000000000000000
230
1.000000000000000
 70
     8
 71
     3
 72
    13
 73
     9
 74
     0
 42
1.000000000000000e-07
 43
1.000000000000000e-07
 12
-0.7442084075354387
 22
-0.8593380842564784
 32
0.000000000000000
 13
0.7442084075354956
 23
0.7435723319732688
 33
0.000000000000000
 40
0.000000000000000
 40
0.000000000000000
 40
0.000000000000000
 40
0.000000000000000
 40
0.8062257748299819
 40
1.612451549659890
 40
2.418677324489914
 40
3.224903099319963
 40
4.031128874149920
 40
4.837354648979852
 40
4.837354648979852
 40
4.837354648979852
 40
4.837354648979852
 10
99.36484068722663
 20
191.1116565705095
 30
0.000000000000000
 10
99.16484068722653
 20
190.8807163995693
 30
0.000000000000000
 10
98.76484068722635
 20
190.4188360576889
 30
0.000000000000000
 10
99.36484068722660
 20
189.6829386217915
 30
0.000000000000000
 10
99.96484068722719
 20
189.1193488782018
 30
0.000000000000000
 10
99.36484068722660
 20
187.9096052884582
 30
0.000000000000000
 10
98.76484068722635
 20
189.1121693910223
 30
0.000000000000000
 10
99.16484068722653
 20
189.5118275106804
 30
0.000000000000000
 10
99.36484068722663
 20
189.7116565705095
 30
0.000000000000000
  0
SPLINE
  5
10C
100
AcDbEntity
  8
A10
  6
CONTINUOUS
 62
7
100
AcDbSpline
210
0.000000000000000
220
0.000000000000000
230
1.000000000000000
 70
     8
 71
     3
 72
    13
 73
     9
 74
     0
 42
1.000000000000000e-07
 43
1.000000000000000e-07
 12
0.7442084075354387
 22
0.8593380842569331
 32
0.000000000000000
 13
-0.7442084075354956
 23
-0.7435723319730414
 33
0.000000000000000
 40
0.000000000000000
 40
0.000000000000000
 40
0.000000000000000
 40
0.000000000000000
 40
0.8062257748299819
 40
1.612451549659890
 40
2.418677324489914
 40
3.224903099319963
 40
4.031128874149920
 40
4.837354648979852
 40
4.837354648979852
 40
4.837354648979852
 40
4.837354648979852
 10
97.36484068722663
 20
188.3116565705094
 30
0.000000000000000
 10
97.56484068722671
 20
188.5425967414497
 30
0.000000000000000
 10
97.96484068722688
 20
189.0044770833300
 30
0.000000000000000
 10
97.36484068722666
 20
189.7403745192275
 30
0.000000000000000
 10
96.76484068722604
 20
190.3039642628171
 30
0.000000000000000
 10
97.36484068722666
 20
191.5137078525608
 30
0.000000000000000
 10
97.96484068722691
 20
190.3111437499967
 30
0.000000000000000
 10
97.56484068722671
 20
189.9114856303385
 30
0.000000000000000
 10
97.36484068722663
 20
189.7116565705095
 30
0.000000000000000
  0
LINE
  5
10D
100
AcDbEntity
  8
A2
  6
CONTINUOUS
 62
7
100
AcDbLine
 10
97.36484068722663
 20
191.1116565705095
 30
0.000000000000000
 11
76.69680984698743
 21
191.1116565705095
 31
0.000000000000000
  0
LINE
  5
10E
100
AcDbEntity
  8
A2
  6
CONTINUOUS
 62
7
100
AcDbLine
 10
122.0328715274649
 20
176.7116565705094
 30
0.000000000000000
 11
122.0328715274653
 21
188.3116565705095
 31
0.000000000000000
  0
LINE
  5
10F
100
AcDbEntity
  8
A2
  6
CONTINUOUS
 62
7
100
AcDbLine
 10
122.0328715274654
 20
191.1116565705094
 30
0.000000000000000
 11
122.0328715274658
 21
202.7116565705095
 31
0.000000000000000
  0
LINE
  5
110
100
AcDbEntity
  8
A2
  6
CONTINUOUS
 62
7
100
AcDbLine
 10
124.0328715274659
 20
176.7116565705095
 30
0.000000000000000
 11
124.0328715274659
 21
188.3116565705094
 31
0.000000000000000
  0
LINE
  5
111
100
AcDbEntity
  8
A2
  6
CONTINUOUS
 62
7
100
AcDbLine
 10
124.0328715274659
 20
191.1116565705095
 30
0.000000000000000
 11
124.0328715274659
 21
202.7116565705095
 31
0.000000000000000
  0
CIRCLE
  5
112
100
AcDbEntity
  8
A10
  6
CONTINUOUS
 62
7
100
AcDbCircle
 10
184.2328715274745
 20
195.1616565705182
 30
0.000000000000000
 40
0.3000000000000000
  0
LINE
  5
113
100
AcDbEntity
  8
A10
  6
CENTER
 62
1
100
AcDbLine
 10
174.7328715274659
 20
200.9116565705180
 30
0.000000000000000
 11
184.2328715274744
 21
195.1616565705180
 31
0.000000000000000
  0
CIRCLE
  5
114
100
AcDbEntity
  8
A10
  6
CONTINUOUS
 62
7
100
AcDbCircle
 10
174.7328715274659
 20
200.9116565705182
 30
0.000000000000000
 40
0.3000000000000000
  0
CIRCLE
  5
115
100
AcDbEntity
  8
A10
  6
CONTINUOUS
 62
7
100
AcDbCircle
 10
184.2328715274745
 20
184.2616565705008
 30
0.000000000000000
 40
0.3000000000000000
  0
LINE
  5
116
100
AcDbEntity
  8
A10
  6
CENTER
 62
1
100
AcDbLine
 10
174.7328715274658
 20
178.5116565705008
 30
0.000000000000000
 11
184.2328715274744
 21
184.2616565705008
 31
0.000000000000000
  0
CIRCLE
  5
117
100
AcDbEntity
  8
A10
  6
CONTINUOUS
 62
7
100
AcDbCircle
 10
174.7328715274659
 20
178.5116565705008
 30
0.000000000000000
 40
0.3000000000000000
  0
LINE
  5
118
100
AcDbEntity
  8
A10
  6
CENTER
 62
1
100
AcDbLine
 10
193.9328715274746
 20
179.7116565705095
 30
0.000000000000000
 11
199.5328715274745
 21
179.7116565705095
 31
0.000000000000000
  0
LINE
  5
119
100
AcDbEntity
  8
A10
  6
CENTER
 62
1
100
AcDbLine
 10
193.9328715274746
 20
199.7116565705095
 30
0.000000000000000
 11
199.5328715274745
 21
199.7116565705095
 31
0.000000000000000
  0
LINE
  5
11A
100
AcDbEntity
  8
A10
  6
CENTER
 62
1
100
AcDbLine
 10
186.0328715274744
 20
171.1116565705180
 30
0.000000000000000
 11
186.0328715274744
 21
199.1116565705180
 31
0.000000000000000
  0
LINE
  5
11B
100
AcDbEntity
  8
A2
  6
PHANTOM
 62
6
100
AcDbLine
 10
204.0328715274754
 20
185.7116565705096
 30
0.000000000000000
 11
204.0328715274754
 21
186.7116565705095
 31
0.000000000000000
  0
LINE
  5
11C
100
AcDbEntity
  8
A10
  6
PHANTOM
 62
6
100
AcDbLine
 10
204.0328715274754
 20
186.7116565705096
 30
0.000000000000000
 11
199.1314187599871
 21
193.7116565705031
 31
0.000000000000000
  0
LINE
  5
11D
100
AcDbEntity
  8
A2
  6
CENTER
 62
1
100
AcDbLine
 10
178.6828715274746
 20
93.61165657051802
 30
0.000000000000000
 11
174.0328715274745
 21
93.61165657051802
 31
0.000000000000000
  0
LINE
  5
11E
100
AcDbEntity
  8
A2
  6
CENTER
 62
1
100
AcDbLine
 10
177.1828715274746
 20
96.76165657051811
 30
0.000000000000000
 11
177.1828715274746
 21
90.46165657051793
 31
0.000000000000000
  0
LINE
  5
11F
100
AcDbEntity
  8
A10
  6
CONTINUOUS
 62
7
100
AcDbLine
 10
76.69680984698741
 20
190.8116565705095
 30
0.000000000000000
 11
76.69680984698741
 21
190.0116565705095
 31
0.000000000000000
  0
LINE
  5
120
100
AcDbEntity
  8
A10
  6
CONTINUOUS
 62
7
100
AcDbLine
 10
76.69680984698741
 20
189.4116565705095
 30
0.000000000000000
 11
76.69680984698741
 21
188.6116565705094
 31
0.000000000000000
  0
LINE
  5
121
100
AcDbEntity
  8
A7
  6
CONTINUOUS
 62
7
100
AcDbLine
 10
76.69680984698745
 20
186.9616565705095
 30
0.000000000000000
 11
76.69680984698745
 21
192.4616565705095
 31
0.000000000000000
  0
LINE
  5
122
100
AcDbEntity
  8
A7
  6
CONTINUOUS
 62
7
100
AcDbLine
 10
76.69680984698745
 20
186.9616565705095
 30
0.000000000000000
 11
66.49680984698742
 21
186.9616565705095
 31
0.000000000000000
  0
LINE
  5
123
100
AcDbEntity
  8
A7
  6
CONTINUOUS
 62
7
100
AcDbLine
 10
73.39680984698744
 20
188.0616565705095
 30
0.000000000000000
 11
58.49680984698740
 21
188.0616565705095
 31
0.000000000000000
  0
LINE
  5
124
100
AcDbEntity
  8
A7
  6
CONTINUOUS
 62
7
100
AcDbLine
 10
62.69680984698742
 20
188.4616565705095
 30
0.000000000000000
 11
72.59680984698745
 21
188.4616565705095
 31
0.000000000000000
  0
LINE
  5
125
100
AcDbEntity
  8
A7
  6
CONTINUOUS
 62
7
100
AcDbLine
 10
72.59680984698745
 20
188.0616565705095
 30
0.000000000000000
 11
72.59680984698745
 21
191.3616565705095
 31
0.000000000000000
  0
LINE
  5
126
100
AcDbEntity
  8
A7
  6
CONTINUOUS
 62
7
100
AcDbLine
 10
73.39680984698744
 20
188.0616565705095
 30
0.000000000000000
 11
73.39680984698744
 21
191.3616565705095
 31
0.000000000000000
  0
LINE
  5
127
100
AcDbEntity
  8
A7
  6
CONTINUOUS
 62
7
100
AcDbLine
 10
72.59680984698745
 20
190.9616565705095
 30
0.000000000000000
 11
62.69680984698742
 21
190.9616565705095
 31
0.000000000000000
  0
LINE
  5
128
100
AcDbEntity
  8
A7
  6
CONTINUOUS
 62
7
100
AcDbLine
 10
73.39680984698744
 20
191.3616565705095
 30
0.000000000000000
 11
58.49680984698740
 21
191.3616565705095
 31
0.000000000000000
  0
LINE
  5
129
100
AcDbEntity
  8
A7
  6
CONTINUOUS
 62
7
100
AcDbLine
 10
76.69680984698745
 20
192.4616565705095
 30
0.000000000000000
 11
66.49680984698742
 21
192.4616565705095
 31
0.000000000000000
  0
LINE
  5
12A
100
AcDbEntity
  8
A7
  6
CONTINUOUS
 62
7
100
AcDbLine
 10
66.49680984698742
 20
185.7116565705095
 30
0.000000000000000
 11
58.49680984698740
 21
185.7116565705095
 31
0.000000000000000
  0
LINE
  5
12B
100
AcDbEntity
  8
A7
  6
CONTINUOUS
 62
7
100
AcDbLine
 10
66.49680984698742
 20
188.0616565705095
 30
0.000000000000000
 11
66.49680984698742
 21
185.7116565705095
 31
0.000000000000000
  0
LINE
  5
12C
100
AcDbEntity
  8
A7
  6
CONTINUOUS
 62
7
100
AcDbLine
 10
62.69680984698742
 20
191.3616565705095
 30
0.000000000000000
 11
62.69680984698742
 21
188.0616565705095
 31
0.000000000000000
  0
LINE
  5
12D
100
AcDbEntity
  8
A2
  6
CONTINUOUS
 62
7
100
AcDbLine
 10
58.49680984698740
 20
193.7116565705095
 30
0.000000000000000
 11
58.49680984698740
 21
185.7116565705095
 31
0.000000000000000
  0
LINE
  5
12E
100
AcDbEntity
  8
A7
  6
CONTINUOUS
 62
7
100
AcDbLine
 10
66.49680984698742
 20
193.7116565705095
 30
0.000000000000000
 11
58.49680984698740
 21
193.7116565705095
 31
0.000000000000000
  0
LINE
  5
12F
100
AcDbEntity
  8
A7
  6
CONTINUOUS
 62
7
100
AcDbLine
 10
66.49680984698742
 20
193.7116565705095
 30
0.000000000000000
 11
66.49680984698742
 21
191.3616565705095
 31
0.000000000000000
  0
LINE
  5
130
100
AcDbEntity
  8
A10
  6
CONTINUOUS
 62
7
100
AcDbLine
 10
184.5328715273882
 20
107.1116565705180
 30
0.000000000000000
 11
184.5328715273882
 21
108.6116565705180
 31
0.000000000000000
  0
LINE
  5
131
100
AcDbEntity
  8
A10
  6
CONTINUOUS
 62
7
100
AcDbLine
 10
185.7328715273881
 20
107.1116565705180
 30
0.000000000000000
 11
185.7328715273881
 21
108.6116565705180
 31
0.000000000000000
  0
LINE
  5
132
100
AcDbEntity
  8
A10
  6
CONTINUOUS
 62
7
100
AcDbLine
 10
184.5328715273882
 20
108.6116565705180
 30
0.000000000000000
 11
185.7328715273881
 21
108.6116565705180
 31
0.000000000000000
  0
LINE
  5
133
100
AcDbEntity
  8
A10
  6
PHANTOM
 62
6
100
AcDbLine
 10
178.5328715273882
 20
107.1116565705180
 30
0.000000000000000
 11
178.5328715273882
 21
108.6116565705180
 31
0.000000000000000
  0
LINE
  5
134
100
AcDbEntity
  8
A10
  6
PHANTOM
 62
6
100
AcDbLine
 10
178.5328715273882
 20
108.6116565705180
 30
0.000000000000000
 11
179.7328715273881
 21
108.6116565705180
 31
0.000000000000000
  0
LINE
  5
135
100
AcDbEntity
  8
A10
  6
PHANTOM
 62
6
100
AcDbLine
 10
179.7328715273881
 20
107.1116565705180
 30
0.000000000000000
 11
179.7328715273881
 21
108.6116565705180
 31
0.000000000000000
  0
LINE
  5
136
100
AcDbEntity
  8
A2
  6
CENTER
 62
1
100
AcDbLine
 10
191.5328715274745
 20
170.6116565705180
 30
0.000000000000000
 11
191.5328715274745
 21
176.2116565705182
 31
0.000000000000000
  0
LINE
  5
137
100
AcDbEntity
  8
A2
  6
CONTINUOUS
 62
7
100
AcDbLine
 10
123.0328715274745
 20
174.7116565705182
 30
0.000000000000000
 11
194.9328715274746
 21
174.7116565705182
 31
0.000000000000000
  0
LINE
  5
138
100
AcDbEntity
  8
A2
  6
CONTINUOUS
 62
7
100
AcDbLine
 10
293.0328715274750
 20
172.1116565705180
 30
0.000000000000000
 11
293.0328715274750
 21
174.7116565705182
 31
0.000000000000000
  0
LINE
  5
139
100
AcDbEntity
  8
A2
  6
CONTINUOUS
 62
7
100
AcDbLine
 10
298.0328715274750
 20
174.7116565705182
 30
0.000000000000000
 11
298.0328715274750
 21
172.1116565705180
 31
0.000000000000000
  0
LINE
  5
13A
100
AcDbEntity
  8
A2
  6
CONTINUOUS
 62
7
100
AcDbLine
 10
298.0328715274750
 20
174.7116565705182
 30
0.000000000000000
 11
293.0328715274750
 21
174.7116565705182
 31
0.000000000000000
  0
LINE
  5
13B
100
AcDbEntity
  8
A2
  6
CONTINUOUS
 62
7
100
AcDbLine
 10
309.0328715274750
 20
172.1116565705180
 30
0.000000000000000
 11
282.0328715274750
 21
172.1116565705180
 31
0.000000000000000
  0
LINE
  5
13C
100
AcDbEntity
  8
A2
  6
CONTINUOUS
 62
7
100
AcDbLine
 10
282.0328715274750
 20
204.7116565705182
 30
0.000000000000000
 11
309.0328715274750
 21
204.7116565705182
 31
0.000000000000000
  0
LINE
  5
13D
100
AcDbEntity
  8
A2
  6
CENTER
 62
1
100
AcDbLine
 10
285.5328715274750
 20
170.6116565705180
 30
0.000000000000000
 11
285.5328715274750
 21
176.2116565705182
 31
0.000000000000000
  0
LINE
  5
13E
100
AcDbEntity
  8
A2
  6
CENTER
 62
1
100
AcDbLine
 10
297.0328715274750
 20
170.6116565705180
 30
0.000000000000000
 11
297.0328715274750
 21
176.2116565705182
 31
0.000000000000000
  0
LINE
  5
13F
100
AcDbEntity
  8
A2
  6
CENTER
 62
1
100
AcDbLine
 10
305.5328715274750
 20
176.2116565705182
 30
0.000000000000000
 11
305.5328715274750
 21
170.6116565705180
 31
0.000000000000000
  0
LINE
  5
140
100
AcDbEntity
  8
A2
  6
CONTINUOUS
 62
7
100
AcDbLine
 10
282.0328715274750
 20
172.1116565705180
 30
0.000000000000000
 11
282.0328715274750
 21
204.7116565705182
 31
0.000000000000000
  0
CIRCLE
  5
141
100
AcDbEntity
  8
A2
  6
CONTINUOUS
 62
7
100
AcDbCircle
 10
295.5328715274750
 20
189.7116565705182
 30
0.000000000000000
 40
4.150000000000091
  0
CIRCLE
  5
142
100
AcDbEntity
  8
A2
  6
CONTINUOUS
 62
4
100
AcDbCircle
 10
303.0328715274750
 20
199.7116565705182
 30
0.000000000000000
 40
1.500000000000000
  0
CIRCLE
  5
143
100
AcDbEntity
  8
A2
  6
CONTINUOUS
 62
4
100
AcDbCircle
 10
288.0328715274750
 20
199.7116565705182
 30
0.000000000000000
 40
1.500000000000000
  0
CIRCLE
  5
144
100
AcDbEntity
  8
A2
  6
CONTINUOUS
 62
4
100
AcDbCircle
 10
295.5328715274750
 20
179.7116565705182
 30
0.000000000000000
 40
1.500000000000000
  0
ARC
  5
145
100
AcDbEntity
  8
A2
  6
CONTINUOUS
 62
7
100
AcDbCircle
 10
306.0328715274750
 20
201.7116565705182
 30
0.000000000000000
 40
3.000000000000000
100
AcDbArc
 50
0.000000000000000
 51
90.00000000000000
  0
ARC
  5
146
100
AcDbEntity
  8
A2
  6
CONTINUOUS
 62
7
100
AcDbCircle
 10
285.0828715274752
 20
201.6616565705180
 30
0.000000000000000
 40
3.050409808534111
100
AcDbArc
 50
90.93919094573884
 51
180.9391909457357
  0
LINE
  5
147
100
AcDbEntity
  8
A2
  6
CENTER
 62
1
100
AcDbLine
 10
278.5328715274754
 20
189.7116565705182
 30
0.000000000000000
 11
310.5328715274750
 21
189.7116565705182
 31
0.000000000000000
  0
LINE
  5
148
100
AcDbEntity
  8
A2
  6
CENTER
 62
1
100
AcDbLine
 10
285.0328715274750
 20
199.7116565705182
 30
0.000000000000000
 11
291.0328715274750
 21
199.7116565705182
 31
0.000000000000000
  0
LINE
  5
149
100
AcDbEntity
  8
A2
  6
CENTER
 62
1
100
AcDbLine
 10
288.0328715274750
 20
202.7116565705182
 30
0.000000000000000
 11
288.0328715274750
 21
196.7116565705182
 31
0.000000000000000
  0
LINE
  5
14A
100
AcDbEntity
  8
A2
  6
CENTER
 62
1
100
AcDbLine
 10
300.0328715274750
 20
199.7116565705182
 30
0.000000000000000
 11
306.0328715274750
 21
199.7116565705182
 31
0.000000000000000
  0
LINE
  5
14B
100
AcDbEntity
  8
A2
  6
CENTER
 62
1
100
AcDbLine
 10
303.0328715274750
 20
202.7116565705182
 30
0.000000000000000
 11
303.0328715274750
 21
196.7116565705182
 31
0.000000000000000
  0
LINE
  5
14C
100
AcDbEntity
  8
A2
  6
CENTER
 62
1
100
AcDbLine
 10
292.5328715274750
 20
179.7116565705182
 30
0.000000000000000
 11
298.5328715274750
 21
179.7116565705182
 31
0.000000000000000
  0
LINE
  5
14D
100
AcDbEntity
  8
A2
  6
CENTER
 62
1
100
AcDbLine
 10
295.5328715274750
 20
170.6116565705180
 30
0.000000000000000
 11
295.5328715274750
 21
206.2116565705181
 31
0.000000000000000
  0
LINE
  5
14E
100
AcDbEntity
  8
A2
  6
CONTINUOUS
 62
7
100
AcDbLine
 10
309.0328715274750
 20
172.1116565705180
 30
0.000000000000000
 11
309.0328715274750
 21
204.7116565705182
 31
0.000000000000000
  0
LINE
  5
14F
100
AcDbEntity
  8
A2
  6
CENTER
 62
1
100
AcDbLine
 10
287.0328715274750
 20
170.6116565705180
 30
0.000000000000000
 11
287.0328715274750
 21
176.2116565705182
 31
0.000000000000000
  0
CIRCLE
  5
150
100
AcDbEntity
  8
A10
  6
CONTINUOUS
 62
7
100
AcDbCircle
 10
288.0328715274750
 20
199.7116565705182
 30
0.000000000000000
 40
1.229500000000000
  0
CIRCLE
  5
151
100
AcDbEntity
  8
A10
  6
CONTINUOUS
 62
7
100
AcDbCircle
 10
303.0328715274750
 20
199.7116565705182
 30
0.000000000000000
 40
1.229500000000000
  0
CIRCLE
  5
152
100
AcDbEntity
  8
A10
  6
CONTINUOUS
 62
7
100
AcDbCircle
 10
295.5328715274750
 20
179.7116565705182
 30
0.000000000000000
 40
1.229500000000000
  0
CIRCLE
  5
153
100
AcDbEntity
  8
A10
  6
CONTINUOUS
 62
7
100
AcDbCircle
 10
295.5328715274750
 20
189.7116565705182
 30
0.000000000000000
 40
4.000000000000000
  0
LINE
  5
154
100
AcDbEntity
  8
A10
  6
CONTINUOUS
 62
7
100
AcDbLine
 10
292.8871202164104
 20
186.7116565705182
 30
0.000000000000000
 11
298.1786228385396
 21
186.7116565705182
 31
0.000000000000000
  0
LINE
  5
155
100
AcDbEntity
  8
A10
  6
CONTINUOUS
 62
7
100
AcDbLine
 10
280.5328715274753
 20
193.2116565705182
 30
0.000000000000000
 11
280.5328715274753
 21
186.2116565705182
 31
0.000000000000000
  0
LINE
  5
156
100
AcDbEntity
  8
A10
  6
CONTINUOUS
 62
7
100
AcDbLine
 10
281.5328715274753
 20
185.2116565705182
 30
0.000000000000000
 11
282.0328715274750
 21
185.2116565705182
 31
0.000000000000000
  0
LINE
  5
157
100
AcDbEntity
  8
A10
  6
CONTINUOUS
 62
7
100
AcDbLine
 10
281.5328715274753
 20
194.2116565705182
 30
0.000000000000000
 11
282.0328715274750
 21
194.2116565705182
 31
0.000000000000000
  0
ARC
  5
158
100
AcDbEntity
  8
A10
  6
CONTINUOUS
 62
7
100
AcDbCircle
 10
281.5328715274753
 20
186.2116565705182
 30
0.000000000000000
 40
1.000000000000000
100
AcDbArc
 50
180.0000000000000
 51
270.0000000000000
  0
ARC
  5
159
100
AcDbEntity
  8
A10
  6
CONTINUOUS
 62
7
100
AcDbCircle
 10
281.5328715274753
 20
193.2116565705182
 30
0.000000000000000
 40
1.000000000000000
100
AcDbArc
 50
90.00000000000000
 51
180.0000000000000
  0
ARC
  5
15A
100
AcDbEntity
  8
A2
  6
CONTINUOUS
 62
7
100
AcDbCircle
 10
282.0328715274749
 20
199.7116565705182
 30
0.000000000000000
 40
3.000000000000000
100
AcDbArc
 50
90.00000000000000
 51
180.0000000000000
  0
LINE
  5
15B
100
AcDbEntity
  8
A2
  6
CONTINUOUS
 62
7
100
AcDbLine
 10
279.0328715274750
 20
199.7116565705182
 30
0.000000000000000
 11
279.0328715274750
 21
179.7116565705182
 31
0.000000000000000
  0
ARC
  5
15C
100
AcDbEntity
  8
A2
  6
CONTINUOUS
 62
7
100
AcDbCircle
 10
282.0328715274749
 20
179.7116565705182
 30
0.000000000000000
 40
3.000000000000000
100
AcDbArc
 50
180.0000000000000
 51
270.0000000000000
  0
LINE
  5
15D
100
AcDbEntity
  8
A2
  6
CONTINUOUS
 62
7
100
AcDbLine
 10
124.0328715274658
 20
202.5116565705183
 30
0.000000000000000
 11
124.7328715274658
 21
202.5116565705183
 31
0.000000000000000
  0
ARC
  5
15E
100
AcDbEntity
  8
A2
  6
CONTINUOUS
 62
7
100
AcDbCircle
 10
124.7328715274658
 20
202.0116565705183
 30
0.000000000000000
 40
0.5000000000000000
100
AcDbArc
 50
0.000000000000000
 51
90.00000000000000
  0
LINE
  5
15F
100
AcDbEntity
  8
A2
  6
CONTINUOUS
 62
7
100
AcDbLine
 10
125.2328715274658
 20
191.1116565705182
 30
0.000000000000000
 11
125.2328715274658
 21
202.0116565705183
 31
0.000000000000000
  0
LINE
  5
160
100
AcDbEntity
  8
A2
  6
CONTINUOUS
 62
7
100
AcDbLine
 10
125.2328715274658
 20
201.5116565705183
 30
0.000000000000000
 11
128.2328715274658
 21
201.5116565705183
 31
0.000000000000000
  0
LINE
  5
161
100
AcDbEntity
  8
A2
  6
CONTINUOUS
 62
7
100
AcDbLine
 10
125.2328715274658
 20
177.4116565705183
 30
0.000000000000000
 11
125.2328715274658
 21
188.3116565705182
 31
0.000000000000000
  0
ARC
  5
162
100
AcDbEntity
  8
A2
  6
CONTINUOUS
 62
7
100
AcDbCircle
 10
124.7328715274658
 20
177.4116565705183
 30
0.000000000000000
 40
0.5000000000000000
100
AcDbArc
 50
270.0000000000000
 51
360.0000000000000
  0
LINE
  5
163
100
AcDbEntity
  8
A2
  6
CONTINUOUS
 62
7
100
AcDbLine
 10
124.7328715274658
 20
176.9116565705183
 30
0.000000000000000
 11
124.0328715274658
 21
176.9116565705183
 31
0.000000000000000
  0
LINE
  5
164
100
AcDbEntity
  8
A2
  6
CONTINUOUS
 62
7
100
AcDbLine
 10
128.2328715274658
 20
177.9116565705183
 30
0.000000000000000
 11
125.2328715274658
 21
177.9116565705183
 31
0.000000000000000
  0
LINE
  5
165
100
AcDbEntity
  8
A2
  6
CONTINUOUS
 62
7
100
AcDbLine
 10
128.2328715274658
 20
202.0116565705183
 30
0.000000000000000
 11
128.2328715274658
 21
177.4116565705183
 31
0.000000000000000
  0
LINE
  5
166
100
AcDbEntity
  8
A2
  6
CONTINUOUS
 62
7
100
AcDbLine
 10
170.2328715274659
 20
177.4116565705194
 30
0.000000000000000
 11
128.2328715274658
 21
177.4116565705184
 31
0.000000000000000
  0
LINE
  5
167
100
AcDbEntity
  8
A2
  6
CONTINUOUS
 62
7
100
AcDbLine
 10
128.2328715274658
 20
202.0116565705183
 30
0.000000000000000
 11
170.2328715274658
 21
202.0116565705183
 31
0.000000000000000
  0
LINE
  5
168
100
AcDbEntity
  8
A2
  6
CONTINUOUS
 62
7
100
AcDbLine
 10
170.2328715274658
 20
202.2116565705182
 30
0.000000000000000
 11
170.2328715274658
 21
177.2116565705182
 31
0.000000000000000
  0
ARC
  5
169
100
AcDbEntity
  8
A2
  6
CONTINUOUS
 62
7
100
AcDbCircle
 10
170.7328715274658
 20
202.2116565705182
 30
0.000000000000000
 40
0.5000000000000000
100
AcDbArc
 50
90.00000000000000
 51
180.0000000000000
  0
ARC
  5
16A
100
AcDbEntity
  8
A2
  6
CONTINUOUS
 62
7
100
AcDbCircle
 10
170.7328715274658
 20
177.2116565705182
 30
0.000000000000000
 40
0.5000000000000000
100
AcDbArc
 50
180.0000000000000
 51
270.0000000000000
  0
LINE
  5
16B
100
AcDbEntity
  8
A2
  6
CONTINUOUS
 62
7
100
AcDbLine
 10
171.5328715274659
 20
176.7116565705182
 30
0.000000000000000
 11
171.5328715274659
 21
202.7116565705182
 31
0.000000000000000
  0
LINE
  5
16C
100
AcDbEntity
  8
A2
  6
CONTINUOUS
 62
7
100
AcDbLine
 10
121.2328715274658
 20
192.2116565705182
 30
0.000000000000000
 11
121.2328715274658
 21
191.1116565705182
 31
0.000000000000000
  0
LINE
  5
16D
100
AcDbEntity
  8
A2
  6
CONTINUOUS
 62
7
100
AcDbLine
 10
122.0328715274658
 20
192.2116565705182
 30
0.000000000000000
 11
121.2328715274658
 21
192.2116565705182
 31
0.000000000000000
  0
LINE
  5
16E
100
AcDbEntity
  8
A2
  6
CONTINUOUS
 62
7
100
AcDbLine
 10
121.2328715274658
 20
187.2116565705182
 30
0.000000000000000
 11
122.0328715274658
 21
187.2116565705182
 31
0.000000000000000
  0
LINE
  5
16F
100
AcDbEntity
  8
A2
  6
CONTINUOUS
 62
7
100
AcDbLine
 10
121.2328715274658
 20
188.3116565705182
 30
0.000000000000000
 11
121.2328715274658
 21
187.2116565705182
 31
0.000000000000000
  0
LINE
  5
170
100
AcDbEntity
  8
A2
  6
CONTINUOUS
 62
7
100
AcDbLine
 10
121.2328715274650
 20
91.11165657051717
 30
0.000000000000000
 11
121.2328715274650
 21
96.11165657051717
 31
0.000000000000000
  0
LINE
  5
171
100
AcDbEntity
  8
A2
  6
CONTINUOUS
 62
7
100
AcDbLine
 10
121.2328715274650
 20
96.11165657051717
 30
0.000000000000000
 11
122.0328715274650
 21
96.11165657051717
 31
0.000000000000000
  0
LINE
  5
172
100
AcDbEntity
  8
A2
  6
CONTINUOUS
 62
7
100
AcDbLine
 10
122.0328715274650
 20
91.11165657051717
 30
0.000000000000000
 11
121.2328715274650
 21
91.11165657051717
 31
0.000000000000000
  0
LINE
  5
173
100
AcDbEntity
  8
A2
  6
CONTINUOUS
 62
7
100
AcDbLine
 10
171.5328715274649
 20
107.1116565705180
 30
0.000000000000000
 11
171.5328715274649
 21
108.1116565705180
 31
0.000000000000000
  0
ARC
  5
174
100
AcDbEntity
  8
A2
  6
CONTINUOUS
 62
7
100
AcDbCircle
 10
169.5328715274649
 20
108.1116565705180
 30
0.000000000000000
 40
2.000000000000000
100
AcDbArc
 50
0.000000000000000
 51
90.00000000000000
  0
LINE
  5
175
100
AcDbEntity
  8
A2
  6
CONTINUOUS
 62
7
100
AcDbLine
 10
129.7328715274650
 20
110.1116565705180
 30
0.000000000000000
 11
169.5328715274649
 21
110.1116565705180
 31
0.000000000000000
  0
ARC
  5
176
100
AcDbEntity
  8
A2
  6
CONTINUOUS
 62
7
100
AcDbCircle
 10
129.7328715274650
 20
108.6116565705171
 30
0.000000000000000
 40
1.500000000000000
100
AcDbArc
 50
90.00000000000000
 51
179.9999999999674
  0
LINE
  5
177
100
AcDbEntity
  8
A2
  6
CONTINUOUS
 62
7
100
AcDbLine
 10
128.2328715274650
 20
107.1116565705180
 30
0.000000000000000
 11
128.2328715274650
 21
108.6116565705180
 31
0.000000000000000
  0
MTEXT
  5
178
100
AcDbEntity
  8
A50
  6
CONTINUOUS
 62
7
100
AcDbMText
 10
133.9828715275434
 20
92.86165657051794
 30
0.000000000000000
 40
3.000000000000000
 41
0.000000000000000
 44
0.2240000009536743
 71
     1
 72
     1
  1
{\H0.90x;{TOCHIGIYA}}
 11
1.000000000000000
 21
0.000000000000000
 31
0.000000000000000
  7
STANDARD
  0
ENDSEC
  0
SECTION
  2
OBJECTS
  0
DICTIONARY
  5
1B4
100
AcDbDictionary
  3
ACAD_GROUP
350
1B5
  3
ACAD_LAYOUT
350
1B6
  3
ACAD_MLINESTYLE
350
1B7
  0
DICTIONARY
  5
1B5
102
{ACAD_REACTORS
330
1B4
102
}
330
1B4
100
AcDbDictionary
  0
DICTIONARY
  5
1B6
102
{ACAD_REACTORS
330
1B4
102
}
330
1B4
100
AcDbDictionary
  3
Model
350
1B8
  3
ﾚｲｱｳﾄ1
350
1B9
  3
ﾚｲｱｳﾄ2
350
1BA
  0
DICTIONARY
  5
1B7
102
{ACAD_REACTORS
330
1B4
102
}
330
1B4
100
AcDbDictionary
  3
STANDARD
350
1BB
  0
LAYOUT
  5
1B8
102
{ACAD_REACTORS
330
1B6
102
}
330
1B6
100
AcDbPlotSettings
 70
11952
  4
A3
 44
297.000000
 45
420.000000
 73
  1
 72
  1
100
AcDbLayout
  1
Model
 71
0
330
1AB
  0
LAYOUT
  5
1B9
102
{ACAD_REACTORS
330
1B6
102
}
330
1B6
100
AcDbPlotSettings
100
AcDbLayout
  1
ﾚｲｱｳﾄ1
 71
1
330
1AC
  0
LAYOUT
  5
1BA
102
{ACAD_REACTORS
330
1B6
102
}
330
1B6
100
AcDbPlotSettings
100
AcDbLayout
  1
ﾚｲｱｳﾄ2
 71
2
330
1AD
  0
MLINESTYLE
  5
1BB
102
{ACAD_REACTORS
330
1B7
102
}
330
1B7
100
AcDbMlineStyle
  2
STANDARD
 70
     0
  3

 62
   256
 51
90.00
 52
90.00
 71
     2
 49
0.50
 62
   256
  6
BYLAYER
 49
-0.50
 62
   256
  6
BYLAYER
  0
ENDSEC
  0
EOF
