  0
SECTION
  2
HEADER
  9
$ACADVER
  1
AC1027
  9
$DWGCODEPAGE
  3
ANSI_932
  9
$LTSCALE
 40
20.0
  9
$FILLMODE
 70
     1
  9
$CLAYER
  8
0
  9
$PDMODE
 70
     0
  9
$SPLFRAME
 70
     0
  9
$SPLINETYPE
 70
     6
  9
$SPLINESEGS
 70
     8
  9
$DIMASZ
 40
2.000000
  9
$DIMEXE
 40
1.500000
  9
$DIMEXO
 40
0.800000
  9
$DIMTAD
 70
     1
  9
$DIMTIH
 70
     0
  9
$DIMTOH
 70
     0
  9
$DIMTVP
 40
0.500000
  9
$DIMTXT
 40
3.100000
  9
$EXTMIN
 10
0.000000
 20
0.000000
 30
0.000000
  9
$EXTMAX
 10
297.000000
 20
420.000000
 30
0.000000
  9
$MEASUREMENT
 70
  1
  9
$LIMMIN
 10
0.000000
 20
0.000000
  9
$LIMMAX
 10
297.000000
 20
420.000000
  9
$HANDSEED
  5
237
  9
$LWDISPLAY
290
     0
  9
$DIMBLK
  1
_OPEN
  9
$DIMDEC
 70
     2
  9
$DIMADEC
 70
     2
  9
$DIMAUNIT
 70
     0
  9
$DIMZIN
 70
     8
  9
$DIMAZIN
 70
     2
  9
$DIMTOFL
 70
     1
  0
ENDSEC
  0
SECTION
  2
CLASSES
  0
ENDSEC
  0
SECTION
  2
TABLES
  0
TABLE
  2
VPORT
  5
1FC
100
AcDbSymbolTable
 70
     1
  0
VPORT
  5
1FD
100
AcDbSymbolTableRecord
100
AcDbViewportTableRecord
  2
*ACTIVE
 70
     0
 12
172.130937
 22
132.253142
 40
228.506282
 41
1.419050
  0
ENDTAB
  0
TABLE
  2
LTYPE
  5
1FE
100
AcDbSymbolTable
 70
     3
  0
LTYPE
  5
1FF
100
AcDbSymbolTableRecord
100
AcDbLinetypeTableRecord
  2
BYBLOCK
 70
     0
  3

 72
    65
 73
     0
 40
0.0
  0
LTYPE
  5
200
100
AcDbSymbolTableRecord
100
AcDbLinetypeTableRecord
  2
BYLAYER
 70
     0
  3

 72
    65
 73
     0
 40
0.0
  0
LTYPE
  5
201
100
AcDbSymbolTableRecord
100
AcDbLinetypeTableRecord
  2
CONTINUOUS
 70
     0
  3
Solid line (NEC CAE2D for Win R18.0 : 2024.01.23)
 72
    65
 73
     0
 40
0.0
  0
LTYPE
  5
202
100
AcDbSymbolTableRecord
100
AcDbLinetypeTableRecord
  2
CENTER
 70
     0
  3
____ _ ____ _ ____ _ ____ _ ____ _ ____
 72
    65
 73
     4
 40
2.0
 49
1.25
 74
     0
 49
-0.25
 74
     0
 49
0.25
 74
     0
 49
-0.25
 74
     0
  0
LTYPE
  5
203
100
AcDbSymbolTableRecord
100
AcDbLinetypeTableRecord
  2
PHANTOM
 70
     0
  3
______  __  __  ______  __  __  ______ 
 72
    65
 73
     6
 40
2.5
 49
1.25
 74
     0
 49
-0.25
 74
     0
 49
0.25
 74
     0
 49
-0.25
 74
     0
 49
0.25
 74
     0
 49
-0.25
 74
     0
  0
ENDTAB
  0
TABLE
  2
LAYER
  5
204
100
AcDbSymbolTable
 70
    20
  0
LAYER
  5
205
100
AcDbSymbolTableRecord
100
AcDbLayerTableRecord
  2
0
 70
     0
 62
     7
  6
CONTINUOUS
370
    -3
390

  0
LAYER
  5
206
100
AcDbSymbolTableRecord
100
AcDbLayerTableRecord
  2
A0
 70
     0
 62
     9
  6
CONTINUOUS
370
    -3
390

  0
LAYER
  5
207
100
AcDbSymbolTableRecord
100
AcDbLayerTableRecord
  2
A1
 70
     0
 62
    12
  6
CONTINUOUS
370
    -3
390

  0
LAYER
  5
208
100
AcDbSymbolTableRecord
100
AcDbLayerTableRecord
  2
A2
 70
     0
 62
     9
  6
CONTINUOUS
370
    -3
390

  0
LAYER
  5
209
100
AcDbSymbolTableRecord
100
AcDbLayerTableRecord
  2
A4
 70
     0
 62
     9
  6
CONTINUOUS
370
    -3
390

  0
LAYER
  5
20A
100
AcDbSymbolTableRecord
100
AcDbLayerTableRecord
  2
A5
 70
     0
 62
     8
  6
CONTINUOUS
370
    -3
390

  0
LAYER
  5
20B
100
AcDbSymbolTableRecord
100
AcDbLayerTableRecord
  2
A6
 70
     0
 62
    12
  6
CONTINUOUS
370
    -3
390

  0
LAYER
  5
20C
100
AcDbSymbolTableRecord
100
AcDbLayerTableRecord
  2
A7
 70
     0
 62
    12
  6
CONTINUOUS
370
    -3
390

  0
LAYER
  5
20D
100
AcDbSymbolTableRecord
100
AcDbLayerTableRecord
  2
A8
 70
     0
 62
    10
  6
CONTINUOUS
370
    -3
390

  0
LAYER
  5
20E
100
AcDbSymbolTableRecord
100
AcDbLayerTableRecord
  2
A9
 70
     0
 62
     9
  6
CONTINUOUS
370
    -3
390

  0
LAYER
  5
20F
100
AcDbSymbolTableRecord
100
AcDbLayerTableRecord
  2
A10
 70
     0
 62
     6
  6
CONTINUOUS
370
    -3
390

  0
LAYER
  5
210
100
AcDbSymbolTableRecord
100
AcDbLayerTableRecord
  2
A11
 70
     0
 62
    10
  6
CONTINUOUS
370
    -3
390

  0
LAYER
  5
211
100
AcDbSymbolTableRecord
100
AcDbLayerTableRecord
  2
A19
 70
     0
 62
     5
  6
CONTINUOUS
370
    -3
390

  0
LAYER
  5
212
100
AcDbSymbolTableRecord
100
AcDbLayerTableRecord
  2
A20
 70
     0
 62
     1
  6
CONTINUOUS
370
    -3
390

  0
LAYER
  5
213
100
AcDbSymbolTableRecord
100
AcDbLayerTableRecord
  2
A22
 70
     0
 62
    81
  6
CONTINUOUS
370
    -3
390

  0
LAYER
  5
214
100
AcDbSymbolTableRecord
100
AcDbLayerTableRecord
  2
A23
 70
     0
 62
   121
  6
CONTINUOUS
370
    -3
390

  0
LAYER
  5
215
100
AcDbSymbolTableRecord
100
AcDbLayerTableRecord
  2
A30
 70
     0
 62
     1
  6
CONTINUOUS
370
    -3
390

  0
LAYER
  5
216
100
AcDbSymbolTableRecord
100
AcDbLayerTableRecord
  2
A40
 70
     0
 62
     9
  6
CONTINUOUS
370
    -3
390

  0
LAYER
  5
217
100
AcDbSymbolTableRecord
100
AcDbLayerTableRecord
  2
A50
 70
     0
 62
    12
  6
CONTINUOUS
370
    -3
390

  0
LAYER
  5
218
100
AcDbSymbolTableRecord
100
AcDbLayerTableRecord
  2
A1023
 70
     0
 62
    16
  6
CONTINUOUS
370
    -3
390

  0
ENDTAB
  0
TABLE
  2
STYLE
  5
219
100
AcDbSymbolTable
 70
     4
  0
STYLE
  5
21A
100
AcDbSymbolTableRecord
100
AcDbTextStyleTableRecord
  2
STANDARD
 70
    64
 40
0.0
 41
1.0
 50
0.0
 71
     0
 42
3.000000000000000
  3
TXT
  4

  0
STYLE
  5
21B
100
AcDbSymbolTableRecord
100
AcDbTextStyleTableRecord
  2
ANKTATE
 70
    68
 40
0.0
 41
1.0
 50
0.0
 71
     0
 42
3.000000000000000
  3
TXT
  4

  0
STYLE
  5
21C
100
AcDbSymbolTableRecord
100
AcDbTextStyleTableRecord
  2
KNJYOKO
 70
    64
 40
0.0
 41
1.0
 50
0.0
 71
     0
 42
3.000000000000000
  3
TXT
  4
BIGFONT
  0
STYLE
  5
21D
100
AcDbSymbolTableRecord
100
AcDbTextStyleTableRecord
  2
KNJTATE
 70
    68
 40
0.0
 41
1.0
 50
0.0
 71
     0
 42
3.000000000000000
  3
TXT
  4
BIGFONT
  0
ENDTAB
  0
TABLE
  2
VIEW
  5
21E
100
AcDbSymbolTable
 70
     0
  0
ENDTAB
  0
TABLE
  2
UCS
  5
21F
100
AcDbSymbolTable
 70
     0
  0
ENDTAB
  0
TABLE
  2
APPID
  5
220
100
AcDbSymbolTable
 70
     1
  0
APPID
  5
221
100
AcDbSymbolTableRecord
100
AcDbRegAppTableRecord
  2
ACAD
 70
     0
  0
ENDTAB
  0
TABLE
  2
DIMSTYLE
  5
222
100
AcDbSymbolTable
 70
     2
100
AcDbDimStyleTable
  0
DIMSTYLE
105
223
100
AcDbSymbolTableRecord
100
AcDbDimStyleTableRecord
  2
STANDARD
 70
     0
 41
2.000000
 44
1.500000
 42
0.800000
145
0.661290
140
3.100000
144
1.000000
146
0.645161
340
21A
  0
DIMSTYLE
105
224
100
AcDbSymbolTableRecord
100
AcDbDimStyleTableRecord
  2
A001
 70
     0
 41
2.000000
 44
1.500000
 42
0.800000
145
0.661290
140
3.100000
144
1.000000
146
0.645161
 77
     1
 73
     0
 74
     0
271
     2
179
     2
275
     0
 78
     8
 79
     2
172
     1
340
21A
  0
ENDTAB
  0
TABLE
  2
BLOCK_RECORD
  5
225
100
AcDbSymbolTable
 70
    12
  0
BLOCK_RECORD
  5
226
100
AcDbSymbolTableRecord
100
AcDbBlockTableRecord
  2
*MODEL_SPACE
  0
BLOCK_RECORD
  5
227
100
AcDbSymbolTableRecord
100
AcDbBlockTableRecord
  2
*PAPER_SPACE
  0
BLOCK_RECORD
  5
228
100
AcDbSymbolTableRecord
100
AcDbBlockTableRecord
  2
*PAPER_SPACE0
  0
BLOCK_RECORD
  5
1
100
AcDbSymbolTableRecord
100
AcDbBlockTableRecord
  2
_NONE
  0
BLOCK_RECORD
  5
4
100
AcDbSymbolTableRecord
100
AcDbBlockTableRecord
  2
_CLOSED
  0
BLOCK_RECORD
  5
B
100
AcDbSymbolTableRecord
100
AcDbBlockTableRecord
  2
_DOT
  0
BLOCK_RECORD
  5
13
100
AcDbSymbolTableRecord
100
AcDbBlockTableRecord
  2
_OPEN
  0
BLOCK_RECORD
  5
19
100
AcDbSymbolTableRecord
100
AcDbBlockTableRecord
  2
_ORIGIN
  0
BLOCK_RECORD
  5
1E
100
AcDbSymbolTableRecord
100
AcDbBlockTableRecord
  2
_OPEN30
  0
BLOCK_RECORD
  5
24
100
AcDbSymbolTableRecord
100
AcDbBlockTableRecord
  2
_BOXFILLED
  0
BLOCK_RECORD
  5
29
100
AcDbSymbolTableRecord
100
AcDbBlockTableRecord
  2
_BOXBLANK
  0
BLOCK_RECORD
  5
31
100
AcDbSymbolTableRecord
100
AcDbBlockTableRecord
  2
_OBLIQUE
  0
BLOCK_RECORD
  5
35
100
AcDbSymbolTableRecord
100
AcDbBlockTableRecord
  2
_OPEN90
  0
BLOCK_RECORD
  5
3B
100
AcDbSymbolTableRecord
100
AcDbBlockTableRecord
  2
_CLOSEDBLANK
  0
BLOCK_RECORD
  5
41
100
AcDbSymbolTableRecord
100
AcDbBlockTableRecord
  2
_DOTBLANK
  0
ENDTAB
  0
ENDSEC
  0
SECTION
  2
BLOCKS
  0
BLOCK
  5
229
100
AcDbEntity
  8
0
100
AcDbBlockBegin
  2
*MODEL_SPACE
 70
     0
 10
0.0
 20
0.0
 30
0.0
  3
*MODEL_SPACE
  1

  0
ENDBLK
  5
22A
100
AcDbEntity
  8
0
100
AcDbBlockEnd
  0
BLOCK
  5
22B
100
AcDbEntity
  8
0
100
AcDbBlockBegin
  2
*PAPER_SPACE
 70
     0
 10
0.0
 20
0.0
 30
0.0
  3
*PAPER_SPACE
  1

  0
ENDBLK
  5
22C
100
AcDbEntity
  8
0
100
AcDbBlockEnd
  0
BLOCK
  5
22D
100
AcDbEntity
  8
0
100
AcDbBlockBegin
  2
*PAPER_SPACE0
 70
     0
 10
0.0
 20
0.0
 30
0.0
  3
*PAPER_SPACE0
  1

  0
ENDBLK
  5
22E
100
AcDbEntity
  8
0
100
AcDbBlockEnd
  0
BLOCK
  5
2
330
1
100
AcDbEntity
  8
0
100
AcDbBlockBegin
  2
_NONE
 70
     0
 10
0.0
 20
0.0
 30
0.0
  3
_NONE
  1

  0
ENDBLK
  5
3
330
1
100
AcDbEntity
  8
0
100
AcDbBlockEnd
  0
BLOCK
  5
5
330
4
100
AcDbEntity
  8
0
100
AcDbBlockBegin
  2
_CLOSED
 70
     0
 10
0.0
 20
0.0
 30
0.0
  3
_CLOSED
  1

  0
LINE
  5
6
330
4
100
AcDbEntity
  8
0
  6
BYBLOCK
 62
     0
370
    -2
100
AcDbLine
 10
-1.0
 20
0.166667
 30
0.0
 11
0.0
 21
0.0
 31
0.0
  0
LINE
  5
7
330
4
100
AcDbEntity
  8
0
  6
BYBLOCK
 62
     0
370
    -2
100
AcDbLine
 10
0.0
 20
0.0
 30
0.0
 11
-1.0
 21
-0.166667
 31
0.0
  0
LINE
  5
8
330
4
100
AcDbEntity
  8
0
  6
BYBLOCK
 62
     0
370
    -2
100
AcDbLine
 10
-1.0
 20
0.166667
 30
0.0
 11
-1.0
 21
-0.166667
 31
0.0
  0
LINE
  5
9
330
4
100
AcDbEntity
  8
0
  6
BYBLOCK
 62
     0
370
    -2
100
AcDbLine
 10
0.0
 20
0.0
 30
0.0
 11
-1.0
 21
0.0
 31
0.0
  0
ENDBLK
  5
A
330
4
100
AcDbEntity
  8
0
100
AcDbBlockEnd
  0
BLOCK
  5
C
330
B
100
AcDbEntity
  8
0
100
AcDbBlockBegin
  2
_DOT
 70
     0
 10
0.0
 20
0.0
 30
0.0
  3
_DOT
  1

  0
POLYLINE
  5
D
330
B
100
AcDbEntity
  8
0
  6
BYBLOCK
 62
     0
370
    -2
100
AcDb2dPolyline
 66
     1
 10
0.0
 20
0.0
 30
0.0
 70
     1
 40
0.5
 41
0.5
  0
VERTEX
  5
E
330
B
100
AcDbEntity
  8
0
  6
BYBLOCK
 62
     0
370
    -2
100
AcDbVertex
100
AcDb2dVertex
 10
-0.25
 20
0.0
 30
0.0
 42
1.0
  0
VERTEX
  5
F
330
B
100
AcDbEntity
  8
0
  6
BYBLOCK
 62
     0
370
    -2
100
AcDbVertex
100
AcDb2dVertex
 10
0.25
 20
0.0
 30
0.0
 42
1.0
  0
SEQEND
  5
10
330
B
100
AcDbEntity
  8
0
  6
BYBLOCK
 62
     0
370
    -2
  0
LINE
  5
11
330
B
100
AcDbEntity
  8
0
  6
BYBLOCK
 62
     0
370
    -2
100
AcDbLine
 10
-0.5
 20
0.0
 30
0.0
 11
-1.0
 21
0.0
 31
0.0
  0
ENDBLK
  5
12
330
B
100
AcDbEntity
  8
0
100
AcDbBlockEnd
  0
BLOCK
  5
14
330
13
100
AcDbEntity
  8
0
100
AcDbBlockBegin
  2
_OPEN
 70
     0
 10
0.0
 20
0.0
 30
0.0
  3
_OPEN
  1

  0
LINE
  5
15
330
13
100
AcDbEntity
  8
0
  6
BYBLOCK
 62
     0
370
    -2
100
AcDbLine
 10
-1.0
 20
0.166667
 30
0.0
 11
0.0
 21
0.0
 31
0.0
  0
LINE
  5
16
330
13
100
AcDbEntity
  8
0
  6
BYBLOCK
 62
     0
370
    -2
100
AcDbLine
 10
0.0
 20
0.0
 30
0.0
 11
-1.0
 21
-0.166667
 31
0.0
  0
LINE
  5
17
330
13
100
AcDbEntity
  8
0
  6
BYBLOCK
 62
     0
370
    -2
100
AcDbLine
 10
0.0
 20
0.0
 30
0.0
 11
-1.0
 21
0.0
 31
0.0
  0
ENDBLK
  5
18
330
13
100
AcDbEntity
  8
0
100
AcDbBlockEnd
  0
BLOCK
  5
1A
330
19
100
AcDbEntity
  8
0
100
AcDbBlockBegin
  2
_ORIGIN
 70
     0
 10
0.0
 20
0.0
 30
0.0
  3
_ORIGIN
  1

  0
CIRCLE
  5
1B
330
19
100
AcDbEntity
  8
0
  6
BYBLOCK
 62
     0
370
    -2
100
AcDbCircle
 10
0.0
 20
0.0
 30
0.0
 40
0.5
  0
LINE
  5
1C
330
19
100
AcDbEntity
  8
0
  6
BYBLOCK
 62
     0
370
    -2
100
AcDbLine
 10
0.0
 20
0.0
 30
0.0
 11
-1.0
 21
0.0
 31
0.0
  0
ENDBLK
  5
1D
330
19
100
AcDbEntity
  8
0
100
AcDbBlockEnd
  0
BLOCK
  5
1F
330
1E
100
AcDbEntity
  8
0
100
AcDbBlockBegin
  2
_OPEN30
 70
     0
 10
0.0
 20
0.0
 30
0.0
  3
_OPEN30
  1

  0
LINE
  5
20
330
1E
100
AcDbEntity
  8
0
  6
BYBLOCK
 62
     0
370
    -2
100
AcDbLine
 10
-1.0
 20
0.267949
 30
0.0
 11
0.0
 21
0.0
 31
0.0
  0
LINE
  5
21
330
1E
100
AcDbEntity
  8
0
  6
BYBLOCK
 62
     0
370
    -2
100
AcDbLine
 10
0.0
 20
0.0
 30
0.0
 11
-1.0
 21
-0.267949
 31
0.0
  0
LINE
  5
22
330
1E
100
AcDbEntity
  8
0
  6
BYBLOCK
 62
     0
370
    -2
100
AcDbLine
 10
0.0
 20
0.0
 30
0.0
 11
-1.0
 21
0.0
 31
0.0
  0
ENDBLK
  5
23
330
1E
100
AcDbEntity
  8
0
100
AcDbBlockEnd
  0
BLOCK
  5
25
330
24
100
AcDbEntity
  8
0
100
AcDbBlockBegin
  2
_BOXFILLED
 70
     0
 10
0.0
 20
0.0
 30
0.0
  3
_BOXFILLED
  1

  0
SOLID
  5
26
330
24
100
AcDbEntity
  8
0
  6
BYBLOCK
 62
     0
370
    -2
100
AcDbTrace
 10
-0.5
 20
0.5
 30
0.0
 11
0.5
 21
0.5
 31
0.0
 12
-0.5
 22
-0.5
 32
0.0
 13
0.5
 23
-0.5
 33
0.0
  0
LINE
  5
27
330
24
100
AcDbEntity
  8
0
  6
BYBLOCK
 62
     0
370
    -2
100
AcDbLine
 10
-0.5
 20
0.0
 30
0.0
 11
-1.0
 21
0.0
 31
0.0
  0
ENDBLK
  5
28
330
24
100
AcDbEntity
  8
0
100
AcDbBlockEnd
  0
BLOCK
  5
2A
330
29
100
AcDbEntity
  8
0
100
AcDbBlockBegin
  2
_BOXBLANK
 70
     0
 10
0.0
 20
0.0
 30
0.0
  3
_BOXBLANK
  1

  0
LINE
  5
2B
330
29
100
AcDbEntity
  8
0
  6
BYBLOCK
 62
     0
370
    -2
100
AcDbLine
 10
-0.5
 20
-0.5
 30
0.0
 11
0.5
 21
-0.5
 31
0.0
  0
LINE
  5
2C
330
29
100
AcDbEntity
  8
0
  6
BYBLOCK
 62
     0
370
    -2
100
AcDbLine
 10
0.5
 20
-0.5
 30
0.0
 11
0.5
 21
0.5
 31
0.0
  0
LINE
  5
2D
330
29
100
AcDbEntity
  8
0
  6
BYBLOCK
 62
     0
370
    -2
100
AcDbLine
 10
0.5
 20
0.5
 30
0.0
 11
-0.5
 21
0.5
 31
0.0
  0
LINE
  5
2E
330
29
100
AcDbEntity
  8
0
  6
BYBLOCK
 62
     0
370
    -2
100
AcDbLine
 10
-0.5
 20
0.5
 30
0.0
 11
-0.5
 21
-0.5
 31
0.0
  0
LINE
  5
2F
330
29
100
AcDbEntity
  8
0
  6
BYBLOCK
 62
     0
370
    -2
100
AcDbLine
 10
-0.5
 20
0.0
 30
0.0
 11
-1.0
 21
0.0
 31
0.0
  0
ENDBLK
  5
30
330
29
100
AcDbEntity
  8
0
100
AcDbBlockEnd
  0
BLOCK
  5
32
330
31
100
AcDbEntity
  8
0
100
AcDbBlockBegin
  2
_OBLIQUE
 70
     0
 10
0.0
 20
0.0
 30
0.0
  3
_OBLIQUE
  1

  0
LINE
  5
33
330
31
100
AcDbEntity
  8
0
  6
BYBLOCK
 62
     0
370
    -2
100
AcDbLine
 10
-0.5
 20
-0.5
 30
0.0
 11
0.5
 21
0.5
 31
0.0
  0
ENDBLK
  5
34
330
31
100
AcDbEntity
  8
0
100
AcDbBlockEnd
  0
BLOCK
  5
36
330
35
100
AcDbEntity
  8
0
100
AcDbBlockBegin
  2
_OPEN90
 70
     0
 10
0.0
 20
0.0
 30
0.0
  3
_OPEN90
  1

  0
LINE
  5
37
330
35
100
AcDbEntity
  8
0
  6
BYBLOCK
 62
     0
370
    -2
100
AcDbLine
 10
-0.5
 20
0.5
 30
0.0
 11
0.0
 21
0.0
 31
0.0
  0
LINE
  5
38
330
35
100
AcDbEntity
  8
0
  6
BYBLOCK
 62
     0
370
    -2
100
AcDbLine
 10
0.0
 20
0.0
 30
0.0
 11
-0.5
 21
-0.5
 31
0.0
  0
LINE
  5
39
330
35
100
AcDbEntity
  8
0
  6
BYBLOCK
 62
     0
370
    -2
100
AcDbLine
 10
0.0
 20
0.0
 30
0.0
 11
-1.0
 21
0.0
 31
0.0
  0
ENDBLK
  5
3A
330
35
100
AcDbEntity
  8
0
100
AcDbBlockEnd
  0
BLOCK
  5
3C
330
3B
100
AcDbEntity
  8
0
100
AcDbBlockBegin
  2
_CLOSEDBLANK
 70
     0
 10
0.0
 20
0.0
 30
0.0
  3
_CLOSEDBLANK
  1

  0
LINE
  5
3D
330
3B
100
AcDbEntity
  8
0
  6
BYBLOCK
 62
     0
370
    -2
100
AcDbLine
 10
-1.0
 20
0.1666666666666666
 30
0.0
 11
0.0
 21
0.0
 31
0.0
  0
LINE
  5
3E
330
3B
100
AcDbEntity
  8
0
  6
BYBLOCK
 62
     0
370
    -2
100
AcDbLine
 10
0.0
 20
0.0
 30
0.0
 11
-1.0
 21
-0.1666666666666666
 31
0.0
  0
LINE
  5
3F
330
3B
100
AcDbEntity
  8
0
  6
BYBLOCK
 62
     0
370
    -2
100
AcDbLine
 10
-1.0
 20
0.1666666666666666
 30
0.0
 11
-1.0
 21
-0.1666666666666666
 31
0.0
  0
ENDBLK
  5
40
330
3B
100
AcDbEntity
  8
0
100
AcDbBlockEnd
  0
BLOCK
  5
42
330
41
100
AcDbEntity
  8
0
100
AcDbBlockBegin
  2
_DOTBLANK
 70
     0
 10
0.0
 20
0.0
 30
0.0
  3
_DOTBLANK
  1

  0
CIRCLE
  5
43
330
41
100
AcDbEntity
  8
0
  6
BYBLOCK
 62
     0
370
    -2
100
AcDbCircle
 10
0.0
 20
0.0
 30
0.0
 40
0.5
  0
LINE
  5
44
330
41
100
AcDbEntity
  8
0
  6
BYBLOCK
 62
     0
370
    -2
100
AcDbLine
 10
-0.5
 20
0.0
 30
0.0
 11
-1.0
 21
0.0
 31
0.0
  0
ENDBLK
  5
45
330
41
100
AcDbEntity
  8
0
100
AcDbBlockEnd
  0
ENDSEC
  0
SECTION
  2
ENTITIES
  0
MTEXT
  5
46
100
AcDbEntity
  8
A8
  6
CONTINUOUS
 62
3
100
AcDbMText
 10
9.999997526638502
 20
18.00000076076889
 30
0.000000000000000
 40
3.000000000000000
 41
0.000000000000000
 44
0.6739999771118164
 71
     7
 72
     1
  1
{\H0.93x;{TYPE No.TL-443-L}}
 11
1.000000000000000
 21
0.000000000000000
 31
0.000000000000000
  7
STANDARD
  0
POINT
  5
47
100
AcDbEntity
  8
A0
  6
CONTINUOUS
 62
3
100
AcDbPoint
 10
9.999997526638502
 20
18.00000076076889
 30
0.000000000000000
  0
POINT
  5
48
100
AcDbEntity
  8
A10
  6
CONTINUOUS
 62
3
100
AcDbPoint
 10
50.00000000000000
 20
50.00000000000000
 30
0.000000000000000
  0
ARC
  5
49
100
AcDbEntity
  8
A1
  6
CONTINUOUS
 62
7
100
AcDbCircle
 10
313.5130892247149
 20
171.8299159969716
 30
0.000000000000000
 40
6.800000000000000
100
AcDbArc
 50
0.000000000000000
 51
241.6823788829921
  0
LINE
  5
4A
100
AcDbEntity
  8
A1
  6
CONTINUOUS
 62
7
100
AcDbLine
 10
312.0102449925595
 20
165.0751628432088
 30
0.000000000000000
 11
312.5305995116122
 21
154.8518480971260
 31
0.000000000000000
  0
ARC
  5
4B
100
AcDbEntity
  8
A1
  6
CONTINUOUS
 62
7
100
AcDbCircle
 10
313.5130892247149
 20
171.8299159969716
 30
0.000000000000000
 40
5.600000000000000
100
AcDbArc
 50
0.000000000000000
 51
241.6823788829924
  0
ARC
  5
4C
100
AcDbEntity
  8
A1
  6
CONTINUOUS
 62
7
100
AcDbCircle
 10
309.8130892247149
 20
164.9633302369304
 30
0.000000000000000
 40
1.000000000000000
100
AcDbArc
 50
2.913772305230073
 51
61.68237888299493
  0
ARC
  5
4D
100
AcDbEntity
  8
A1
  6
CONTINUOUS
 62
7
100
AcDbCircle
 10
309.8130892247149
 20
164.9633302369304
 30
0.000000000000000
 40
2.200000000000000
100
AcDbArc
 50
2.913772305230277
 51
61.68237888299274
  0
LINE
  5
4E
100
AcDbEntity
  8
A1
  6
CONTINUOUS
 62
7
100
AcDbLine
 10
312.6760719716765
 20
136.9111748255742
 30
0.000000000000000
 11
306.7130892247118
 21
125.2515746258988
 31
0.000000000000000
  0
LINE
  5
4F
100
AcDbEntity
  8
A1
  6
CONTINUOUS
 62
7
100
AcDbLine
 10
313.7444587066749
 20
136.3647777314391
 30
0.000000000000000
 11
307.7814759597102
 21
124.7051775317637
 31
0.000000000000000
  0
LINE
  5
50
100
AcDbEntity
  8
A1
  6
CONTINUOUS
 62
7
100
AcDbLine
 10
306.7130892247117
 20
125.2515746258988
 30
0.000000000000000
 11
307.7814759597101
 21
124.7051775317636
 31
0.000000000000000
  0
SPLINE
  5
51
100
AcDbEntity
  8
A1
  6
CONTINUOUS
 62
7
100
AcDbSpline
210
0.000000000000000
220
0.000000000000000
230
1.000000000000000
 70
     8
 71
     3
 72
    21
 73
    17
 74
     0
 42
1.000000000000000e-07
 43
1.000000000000000e-07
 12
0.09858054263622762
 22
0.9951290753533613
 32
0.000000000000000
 13
-0.9790205427516412
 23
-0.2037615686808749
 33
0.000000000000000
 40
0.000000000000000
 40
0.000000000000000
 40
0.000000000000000
 40
0.000000000000000
 40
0.08134187504662750
 40
0.1731059712403568
 40
0.2890240849853128
 40
0.4372001395532708
 40
0.6198757394012260
 40
0.8359188269757094
 40
1.077519865985217
 40
1.348582275348747
 40
1.644401870518067
 40
1.955550037612963
 40
2.285343618023557
 40
2.628102654282066
 40
2.930167214960705
 40
3.237512163279434
 40
3.237512163279434
 40
3.237512163279434
 40
3.237512163279434
 10
187.6847401759403
 20
168.2641981889237
 30
0.000000000000000
 10
187.6874130846673
 20
168.2911800772246
 30
0.000000000000000
 10
187.6829068058629
 20
168.3513548072800
 30
0.000000000000000
 10
187.6240759540192
 20
168.4320039741898
 30
0.000000000000000
 10
187.5276704124504
 20
168.5023978271520
 30
0.000000000000000
 10
187.3915615349995
 20
168.5647196934773
 30
0.000000000000000
 10
187.2171623248940
 20
168.6187652699109
 30
0.000000000000000
 10
187.0079114331663
 20
168.6622526838356
 30
0.000000000000000
 10
186.7668521775548
 20
168.6934874350494
 30
0.000000000000000
 10
186.4978495193475
 20
168.7119481305564
 30
0.000000000000000
 10
186.2050775923292
 20
168.7164607212494
 30
0.000000000000000
 10
185.8928938546136
 20
168.7058170230085
 30
0.000000000000000
 10
185.5658815985384
 20
168.6804608485801
 30
0.000000000000000
 10
185.2431927073449
 20
168.6420471817912
 30
0.000000000000000
 10
184.9296135292151
 20
168.5926643928833
 30
0.000000000000000
 10
184.7300294403812
 20
168.5546106779052
 30
0.000000000000000
 10
184.6297304343429
 20
168.5337356483067
 30
0.000000000000000
  0
SPLINE
  5
52
100
AcDbEntity
  8
A1
  6
CONTINUOUS
 62
7
100
AcDbSpline
210
0.000000000000000
220
0.000000000000000
230
1.000000000000000
 70
     8
 71
     3
 72
    13
 73
     9
 74
     0
 42
1.000000000000000e-07
 43
1.000000000000000e-07
 12
-0.3991144153098958
 22
0.9169011307060373
 32
0.000000000000000
 13
-0.7730306898522485
 23
0.6343686251291274
 33
0.000000000000000
 40
0.000000000000000
 40
0.000000000000000
 40
0.000000000000000
 40
0.000000000000000
 40
0.3154904748712180
 40
0.6328745677494811
 40
0.9490760097717084
 40
1.265273742438776
 40
1.589627480919971
 40
1.913976787342362
 40
1.913976787342362
 40
1.913976787342362
 40
1.913976787342362
 10
181.9606408880806
 20
135.2443802577502
 30
0.000000000000000
 10
181.9186686226093
 20
135.3408047821289
 30
0.000000000000000
 10
181.8269979682214
 20
135.5310767397086
 30
0.000000000000000
 10
181.6679305742677
 20
135.8048907464466
 30
0.000000000000000
 10
181.4878482059905
 20
136.0656725165013
 30
0.000000000000000
 10
181.2865450668158
 20
136.3134526893140
 30
0.000000000000000
 10
181.0642196720658
 20
136.5463425393668
 30
0.000000000000000
 10
180.9025137277115
 20
136.6903179621756
 30
0.000000000000000
 10
180.8189364050125
 20
136.7589036367012
 30
0.000000000000000
  0
SPLINE
  5
53
100
AcDbEntity
  8
A1
  6
CONTINUOUS
 62
7
100
AcDbSpline
210
0.000000000000000
220
0.000000000000000
230
1.000000000000000
 70
     8
 71
     3
 72
    12
 73
     8
 74
     0
 42
1.000000000000000e-07
 43
1.000000000000000e-07
 12
0.3978379254901938
 22
-0.9174557128499146
 32
0.000000000000000
 13
0.05740678035544988
 23
-0.9983508709719899
 33
0.000000000000000
 40
0.000000000000000
 40
0.000000000000000
 40
0.000000000000000
 40
0.000000000000000
 40
0.3326575956942814
 40
0.6681388689883675
 40
0.9811490224800929
 40
1.280138307047628
 40
1.373250948403831
 40
1.373250948403831
 40
1.373250948403831
 40
1.373250948403831
 10
181.9606408880806
 20
135.2443802577502
 30
0.000000000000000
 10
182.0047554906705
 20
135.1426473872193
 30
0.000000000000000
 10
182.0842590054521
 20
134.9342136902662
 30
0.000000000000000
 10
182.1721067868839
 20
134.6187325145622
 30
0.000000000000000
 10
182.2311111795642
 20
134.3081416873164
 30
0.000000000000000
 10
182.2575928652195
 20
134.0743848675984
 30
0.000000000000000
 10
182.2665198748277
 20
133.9439836892898
 30
0.000000000000000
 10
182.2683016404779
 20
133.9129973270910
 30
0.000000000000000
  0
SPLINE
  5
54
100
AcDbEntity
  8
A1
  6
CONTINUOUS
 62
7
100
AcDbSpline
210
0.000000000000000
220
0.000000000000000
230
1.000000000000000
 70
     8
 71
     3
 72
     9
 73
     5
 74
     0
 42
1.000000000000000e-07
 43
1.000000000000000e-07
 12
0.05659686271656028
 22
-0.9983971129419160
 32
0.000000000000000
 13
-0.1521070507055811
 23
-0.9883640246010827
 33
0.000000000000000
 40
0.000000000000000
 40
0.000000000000000
 40
0.000000000000000
 40
0.000000000000000
 40
0.6480640599851742
 40
1.297573210167191
 40
1.297573210167191
 40
1.297573210167191
 40
1.297573210167191
 10
182.2683016404779
 20
133.9129973270910
 30
0.000000000000000
 10
182.2805277713561
 20
133.6973222315942
 30
0.000000000000000
 10
182.2826140447110
 20
133.2639112173932
 30
0.000000000000000
 10
182.2390115292361
 20
132.8326887306019
 30
0.000000000000000
 10
182.2060798888226
 20
132.6187049047056
 30
0.000000000000000
  0
SPLINE
  5
55
100
AcDbEntity
  8
A1
  6
CONTINUOUS
 62
7
100
AcDbSpline
210
0.000000000000000
220
0.000000000000000
230
1.000000000000000
 70
     8
 71
     3
 72
    15
 73
    11
 74
     0
 42
1.000000000000000e-07
 43
1.000000000000000e-07
 12
0.1498370130357216
 22
0.9887107107360862
 32
0.000000000000000
 13
-0.9352006169265223
 23
0.3541183504125911
 33
0.000000000000000
 40
0.000000000000000
 40
0.000000000000000
 40
0.000000000000000
 40
0.000000000000000
 40
0.3515403625610908
 40
0.7030678188235133
 40
1.054793190029666
 40
1.406483099690128
 40
1.754179280374890
 40
2.101833669280690
 40
2.437296768145645
 40
2.772733031747653
 40
2.772733031747653
 40
2.772733031747653
 40
2.772733031747653
 10
179.8224595824890
 20
130.2755836234742
 30
0.000000000000000
 10
179.8400175017849
 20
130.3914408640476
 30
0.000000000000000
 10
179.8561663395111
 20
130.6264894996311
 30
0.000000000000000
 10
179.8215741557599
 20
130.9780249413661
 30
0.000000000000000
 10
179.7273230538356
 20
131.3185625821885
 30
0.000000000000000
 10
179.5781995028792
 20
131.6375278096784
 30
0.000000000000000
 10
179.3765345907227
 20
131.9244799682340
 30
0.000000000000000
 10
179.1331857010896
 20
132.1695282231256
 30
0.000000000000000
 10
178.8543768546948
 20
132.3660700876658
 30
0.000000000000000
 10
178.6513737957165
 20
132.4627798703839
 30
0.000000000000000
 10
178.5468070621631
 20
132.5023745824956
 30
0.000000000000000
  0
SPLINE
  5
56
100
AcDbEntity
  8
A1
  6
CONTINUOUS
 62
7
100
AcDbSpline
210
0.000000000000000
220
0.000000000000000
230
1.000000000000000
 70
     8
 71
     3
 72
    23
 73
    19
 74
     0
 42
1.000000000000000e-07
 43
1.000000000000000e-07
 12
0.9357307583709371
 22
-0.3527151086050253
 32
0.000000000000000
 13
-0.1515709026775767
 23
-0.9884463877531289
 33
0.000000000000000
 40
0.000000000000000
 40
0.000000000000000
 40
0.000000000000000
 40
0.000000000000000
 40
0.3295619766893667
 40
0.6591270962650235
 40
0.9983964339692053
 40
1.337669791992448
 40
1.667179426967875
 40
1.996693228387137
 40
2.335503333470164
 40
2.674318197464538
 40
3.008851002781707
 40
3.343387942344111
 40
3.687208374752585
 40
4.031032533059968
 40
4.403721720152232
 40
4.776414273788101
 40
5.161651519285352
 40
5.546889710050777
 40
5.546889710050777
 40
5.546889710050777
 40
5.546889710050777
 10
179.2515944521967
 20
134.4239835953395
 30
0.000000000000000
 10
179.3543882116560
 20
134.3852364325394
 30
0.000000000000000
 10
179.5568503180847
 20
134.2991306201579
 30
0.000000000000000
 10
179.8514488905532
 20
134.1435195473118
 30
0.000000000000000
 10
180.1344943089525
 20
133.9616208991723
 30
0.000000000000000
 10
180.4009995154734
 20
133.7562958876935
 30
0.000000000000000
 10
180.6468061126435
 20
133.5314327977368
 30
0.000000000000000
 10
180.8732776880950
 20
133.2873245044418
 30
0.000000000000000
 10
181.0805361914729
 20
133.0227242896169
 30
0.000000000000000
 10
181.2659880390239
 20
132.7404099706059
 30
0.000000000000000
 10
181.4266848418962
 20
132.4449454496968
 30
0.000000000000000
 10
181.5635424393176
 20
132.1358904463036
 30
0.000000000000000
 10
181.6754065418912
 20
131.8136292851410
 30
0.000000000000000
 10
181.7634527250275
 20
131.4709152537596
 30
0.000000000000000
 10
181.8231133398781
 20
131.1122844914930
 30
0.000000000000000
 10
181.8517767877289
 20
130.7360017704048
 30
0.000000000000000
 10
181.8460788072568
 20
130.3544693631301
 30
0.000000000000000
 10
181.8187110452867
 20
130.0986831865569
 30
0.000000000000000
 10
181.7992474118466
 20
129.9717540871947
 30
0.000000000000000
  0
SPLINE
  5
57
100
AcDbEntity
  8
A1
  6
CONTINUOUS
 62
7
100
AcDbSpline
210
0.000000000000000
220
0.000000000000000
230
1.000000000000000
 70
     8
 71
     3
 72
    21
 73
    17
 74
     0
 42
1.000000000000000e-07
 43
1.000000000000000e-07
 12
0.9719401010024740
 22
0.2352284848041108
 32
0.000000000000000
 13
-0.1416876395633153
 23
-0.9899114166382788
 33
0.000000000000000
 40
0.000000000000000
 40
0.000000000000000
 40
0.000000000000000
 40
0.000000000000000
 40
0.3770237937154394
 40
0.7454408160355578
 40
1.098809026518425
 40
1.434679110688691
 40
1.748832481557478
 40
2.034969796597232
 40
2.277499683432588
 40
2.491070274330206
 40
2.672852985100978
 40
2.821528474084961
 40
2.941065388672842
 40
3.035208392003075
 40
3.094990136456450
 40
3.152908310218826
 40
3.152908310218826
 40
3.152908310218826
 40
3.152908310218826
 10
184.3937677861444
 20
166.3747321782668
 30
0.000000000000000
 10
184.5159159675257
 20
166.4042944235104
 30
0.000000000000000
 10
184.7587203439730
 20
166.4575168046309
 30
0.000000000000000
 10
185.1195575601082
 20
166.5209595722617
 30
0.000000000000000
 10
185.4692554012450
 20
166.5667353817992
 30
0.000000000000000
 10
185.8027538280563
 20
166.5938943028697
 30
0.000000000000000
 10
186.1147925224127
 20
166.6036097660877
 30
0.000000000000000
 10
186.3958257309735
 20
166.5969403813090
 30
0.000000000000000
 10
186.6424650769340
 20
166.5752471254693
 30
0.000000000000000
 10
186.8526381180618
 20
166.5416831160541
 30
0.000000000000000
 10
187.0288461242985
 20
166.4975985099787
 30
0.000000000000000
 10
187.1694429977791
 20
166.4438788750223
 30
0.000000000000000
 10
187.2742122611475
 20
166.3824508417355
 30
0.000000000000000
 10
187.3398220958144
 20
166.3164711433113
 30
0.000000000000000
 10
187.3683008428542
 20
166.2501771901808
 30
0.000000000000000
 10
187.3687991415034
 20
166.2099230696065
 30
0.000000000000000
 10
187.3660637117274
 20
166.1908117824604
 30
0.000000000000000
  0
SPLINE
  5
58
100
AcDbEntity
  8
A1
  6
CONTINUOUS
 62
7
100
AcDbSpline
210
0.000000000000000
220
0.000000000000000
230
1.000000000000000
 70
     8
 71
     3
 72
    24
 73
    20
 74
     0
 42
1.000000000000000e-07
 43
1.000000000000000e-07
 12
0.3802160583204568
 22
0.9248976965025690
 32
0.000000000000000
 13
0.9720593267869617
 23
0.2347353088201771
 33
0.000000000000000
 40
0.000000000000000
 40
0.000000000000000
 40
0.000000000000000
 40
0.000000000000000
 40
0.9965371271563505
 40
1.994844928735737
 40
2.994111029633749
 40
3.993536093732885
 40
5.200321329633569
 40
6.413965577893726
 40
7.632768369619987
 40
8.855016710094214
 40
10.07906749880277
 40
11.30342972141473
 40
12.49481252938067
 40
13.69525622024258
 40
14.90250178262609
 40
16.11428710250248
 40
17.32843640441007
 40
18.54294956294972
 40
19.15015686915572
 40
19.15015686915572
 40
19.15015686915572
 40
19.15015686915572
 10
170.3808663689027
 20
154.3724486567017
 30
0.000000000000000
 10
170.5071661750552
 20
154.6796802878305
 30
0.000000000000000
 10
170.7751460444032
 20
155.2885862585960
 30
0.000000000000000
 10
171.2219399638932
 20
156.1814583314566
 30
0.000000000000000
 10
171.7125620731632
 20
157.0521520962291
 30
0.000000000000000
 10
172.2824612460862
 20
157.9564730272074
 30
0.000000000000000
 10
172.9431997608832
 20
158.8862874733313
 30
0.000000000000000
 10
173.7045044809389
 20
159.8316486345939
 30
0.000000000000000
 10
174.5240760489275
 20
160.7339434619590
 30
0.000000000000000
 10
175.3982493841670
 20
161.5884257950994
 30
0.000000000000000
 10
176.3233206149443
 20
162.3903739143936
 30
0.000000000000000
 10
177.2870861846187
 20
163.1286411541570
 30
0.000000000000000
 10
178.2876524788805
 20
163.8021249360230
 30
0.000000000000000
 10
179.3213633942375
 20
164.4123341819691
 30
0.000000000000000
 10
180.3950261268028
 20
164.9641719417696
 30
0.000000000000000
 10
181.5032848384022
 20
165.4541865745676
 30
0.000000000000000
 10
182.6407098967807
 20
165.8790414583993
 30
0.000000000000000
 10
183.6088776145759
 20
166.1757825696044
 30
0.000000000000000
 10
184.1970206110475
 20
166.3272211800867
 30
0.000000000000000
 10
184.3937677861444
 20
166.3747321782668
 30
0.000000000000000
  0
SPLINE
  5
59
100
AcDbEntity
  8
A1
  6
CONTINUOUS
 62
7
100
AcDbSpline
210
0.000000000000000
220
0.000000000000000
230
1.000000000000000
 70
     8
 71
     3
 72
    27
 73
    23
 74
     0
 42
1.000000000000000e-07
 43
1.000000000000000e-07
 12
0.3487822718973916
 22
0.9372037808345226
 32
0.000000000000000
 13
0.9790933486573294
 23
0.2034114417009505
 33
0.000000000000000
 40
0.000000000000000
 40
0.000000000000000
 40
0.000000000000000
 40
0.000000000000000
 40
1.225740415426370
 40
2.453913748147056
 40
3.683165537240447
 40
4.912159639040525
 40
6.213838639415771
 40
7.518952992430415
 40
8.825795942814052
 40
9.838049534315049
 40
10.85333436887769
 40
11.87075408381882
 40
12.88943695386231
 40
14.17275575141809
 40
15.46104856582986
 40
16.75227833344180
 40
17.75471056546776
 40
18.76064185632762
 40
19.76893979114741
 40
20.77849760832952
 40
21.67163384623868
 40
22.56641992798258
 40
22.56641992798258
 40
22.56641992798258
 40
22.56641992798258
 10
168.2203118912650
 20
154.4544121726466
 30
0.000000000000000
 10
168.3628174002147
 20
154.8373350231997
 30
0.000000000000000
 10
168.6691809366294
 20
155.5962931384563
 30
0.000000000000000
 10
169.1910555333760
 20
156.7082251826702
 30
0.000000000000000
 10
169.7735386298149
 20
157.7909137072304
 30
0.000000000000000
 10
170.4275235788917
 20
158.8608069338219
 30
0.000000000000000
 10
171.1560335939580
 20
159.9124605898602
 30
0.000000000000000
 10
171.9605166947150
 20
160.9403412409306
 30
0.000000000000000
 10
172.7598066551639
 20
161.8471594176999
 30
0.000000000000000
 10
173.5375646840506
 20
162.6416696277068
 30
0.000000000000000
 10
174.2799949598269
 20
163.3342780534369
 30
0.000000000000000
 10
175.0546785006900
 20
163.9939245944548
 30
0.000000000000000
 10
175.9291788706221
 20
164.6724155908491
 30
0.000000000000000
 10
176.9120445202187
 20
165.3564245345138
 30
0.000000000000000
 10
178.0099086685534
 20
166.0305293693885
 30
0.000000000000000
 10
179.0622132098813
 20
166.5961420168300
 30
0.000000000000000
 10
180.0568850085536
 20
167.0663569830604
 30
0.000000000000000
 10
180.9846136123682
 20
167.4551272479893
 30
0.000000000000000
 10
181.9310147991119
 20
167.8028589496025
 30
0.000000000000000
 10
182.8562601469747
 20
168.0963285099146
 30
0.000000000000000
 10
183.7565376535930
 20
168.3401974232126
 30
0.000000000000000
 10
184.3377040673074
 20
168.4730657393395
 30
0.000000000000000
 10
184.6297304343429
 20
168.5337356483067
 30
0.000000000000000
  0
SPLINE
  5
5A
100
AcDbEntity
  8
A1
  6
CONTINUOUS
 62
7
100
AcDbSpline
210
0.000000000000000
220
0.000000000000000
230
1.000000000000000
 70
     8
 71
     3
 72
    11
 73
     7
 74
     0
 42
1.000000000000000e-07
 43
1.000000000000000e-07
 12
0.1890582292368208
 22
0.9819658782045053
 32
0.000000000000000
 13
0.3799608879357947
 23
0.9250025533144708
 33
0.000000000000000
 40
0.000000000000000
 40
0.000000000000000
 40
0.000000000000000
 40
0.000000000000000
 40
0.8136418419050404
 40
1.623216093954848
 40
2.433916775170910
 40
3.237491704625319
 40
3.237491704625319
 40
3.237491704625319
 40
3.237491704625319
 10
169.4575284950176
 20
151.2746734133393
 30
0.000000000000000
 10
169.5088037236388
 20
151.5409962552827
 30
0.000000000000000
 10
169.6243513648485
 20
152.0698564486469
 30
0.000000000000000
 10
169.8367599034893
 20
152.8531958992538
 30
0.000000000000000
 10
170.0869716686825
 20
153.6217718273149
 30
0.000000000000000
 10
170.2790906876632
 20
154.1246790361935
 30
0.000000000000000
 10
170.3808663689027
 20
154.3724486567017
 30
0.000000000000000
  0
SPLINE
  5
5B
100
AcDbEntity
  8
A1
  6
CONTINUOUS
 62
7
100
AcDbSpline
210
0.000000000000000
220
0.000000000000000
230
1.000000000000000
 70
     8
 71
     3
 72
    11
 73
     7
 74
     0
 42
1.000000000000000e-07
 43
1.000000000000000e-07
 12
-0.1856279225987691
 22
-0.9826201068326554
 32
0.000000000000000
 13
0.03124752060614355
 23
-0.9995116769982815
 33
0.000000000000000
 40
0.000000000000000
 40
0.000000000000000
 40
0.000000000000000
 40
0.000000000000000
 40
0.7914465647295599
 40
1.590206842745151
 40
2.402401426320837
 40
3.219441277696507
 40
3.219441277696507
 40
3.219441277696507
 40
3.219441277696507
 10
167.4232229931521
 20
151.5873431996308
 30
0.000000000000000
 10
167.3742514659325
 20
151.3281127636351
 30
0.000000000000000
 10
167.2898473221074
 20
150.8044997326382
 30
0.000000000000000
 10
167.2055002885639
 20
150.0077698704438
 30
0.000000000000000
 10
167.1643018642221
 20
149.1990970378184
 30
0.000000000000000
 10
167.1663759279749
 20
148.6557019005718
 30
0.000000000000000
 10
167.1748860845056
 20
148.3834882765642
 30
0.000000000000000
  0
SPLINE
  5
5C
100
AcDbEntity
  8
A1
  6
CONTINUOUS
 62
7
100
AcDbSpline
210
0.000000000000000
220
0.000000000000000
230
1.000000000000000
 70
     8
 71
     3
 72
    11
 73
     7
 74
     0
 42
1.000000000000000e-07
 43
1.000000000000000e-07
 12
-0.08045896891167104
 22
0.9967579216247486
 32
0.000000000000000
 13
0.1888809256630566
 23
0.9819999979230261
 33
0.000000000000000
 40
0.000000000000000
 40
0.000000000000000
 40
0.000000000000000
 40
0.000000000000000
 40
0.8909745823171505
 40
1.785877403215460
 40
2.694870356963930
 40
3.604741470919019
 40
3.604741470919019
 40
3.604741470919019
 40
3.604741470919019
 10
169.2631232868310
 20
147.6855074964706
 30
0.000000000000000
 10
169.2392276547577
 20
147.9815361541009
 30
0.000000000000000
 10
169.2109441219188
 20
148.5766670473939
 30
0.000000000000000
 10
169.2278519970064
 20
149.4754406265911
 30
0.000000000000000
 10
169.3061176398193
 20
150.3773311526381
 30
0.000000000000000
 10
169.4002427289383
 20
150.9768422693346
 30
0.000000000000000
 10
169.4575284950176
 20
151.2746734133393
 30
0.000000000000000
  0
ARC
  5
5D
100
AcDbEntity
  8
A1
  6
CONTINUOUS
 62
7
100
AcDbCircle
 10
184.7130892247594
 20
148.9299159972663
 30
0.000000000000000
 40
8.500000000000000
100
AcDbArc
 50
291.2621000000000
 51
416.8187645723027
  0
ARC
  5
5E
100
AcDbEntity
  8
A1
  6
CONTINUOUS
 62
7
100
AcDbCircle
 10
192.6487819118322
 20
161.0655981608836
 30
0.000000000000000
 40
6.000000000000000
100
AcDbArc
 50
171.2621000000000
 51
236.8187645723027
  0
ARC
  5
5F
100
AcDbEntity
  8
A1
  6
CONTINUOUS
 62
7
100
AcDbCircle
 10
182.8712212334534
 20
136.9462800262622
 30
0.000000000000000
 40
2.000000000000000
100
AcDbArc
 50
111.2621000000000
 51
171.2620999999999
  0
ARC
  5
60
100
AcDbEntity
  8
A1
  6
CONTINUOUS
 62
7
100
AcDbCircle
 10
178.2488350989366
 20
133.2669053306130
 30
0.000000000000000
 40
3.944512108463647
100
AcDbArc
 50
50.63060571262112
 51
67.55856007320540
  0
ARC
  5
61
100
AcDbEntity
  8
A1
  6
CONTINUOUS
 62
7
100
AcDbCircle
 10
184.7130892247594
 20
148.9299159972663
 30
0.000000000000000
 40
17.54671344277210
100
AcDbArc
 50
181.7845544031344
 51
249.4257504849519
  0
ARC
  5
62
100
AcDbEntity
  8
A1
  6
CONTINUOUS
 62
7
100
AcDbCircle
 10
189.4573785747457
 20
148.2007256492715
 30
0.000000000000000
 40
17.80000000000013
100
AcDbArc
 50
96.90630969855175
 51
171.2620999997771
  0
ARC
  5
63
100
AcDbEntity
  8
A1
  6
CONTINUOUS
 62
7
100
AcDbCircle
 10
184.7249398371377
 20
148.3215379821777
 30
0.000000000000000
 40
17.60723968905409
100
AcDbArc
 50
159.6156829267181
 51
169.3108335908818
  0
ARC
  5
64
100
AcDbEntity
  8
A1
  6
CONTINUOUS
 62
7
100
AcDbCircle
 10
184.7130892247594
 20
148.9299159972663
 30
0.000000000000000
 40
15.50000000000000
100
AcDbArc
 50
184.6049143537385
 51
249.3686052628564
  0
ARC
  5
65
100
AcDbEntity
  8
A1
  6
CONTINUOUS
 62
7
100
AcDbCircle
 10
184.7130892247594
 20
148.9299159972663
 30
0.000000000000000
 40
13.00000000000000
100
AcDbArc
 50
171.2620999996948
 51
247.5782354364281
  0
LINE
  5
66
100
AcDbEntity
  8
A1
  6
CONTINUOUS
 62
7
100
AcDbLine
 10
187.3169968284423
 20
165.8715707331972
 30
0.000000000000000
 11
186.7184202243496
 21
161.9770860958771
 31
0.000000000000000
  0
LINE
  5
67
100
AcDbEntity
  8
A1
  6
CONTINUOUS
 62
7
100
AcDbLine
 10
180.7509087547894
 20
136.3162992367037
 30
0.000000000000000
 11
180.8944340042925
 21
137.2501093379266
 31
0.000000000000000
  0
LINE
  5
68
100
AcDbEntity
  8
A1
  6
CONTINUOUS
 62
7
100
AcDbLine
 10
182.1459515211887
 20
138.8101426404243
 30
0.000000000000000
 11
187.7954855018842
 21
141.0084998870769
 31
0.000000000000000
  0
LINE
  5
69
100
AcDbEntity
  8
A1
  6
CONTINUOUS
 62
7
100
AcDbLine
 10
187.6847401759403
 20
168.2641981889236
 30
0.000000000000000
 11
187.3660637117274
 21
166.1908117824603
 31
0.000000000000000
  0
LINE
  5
6A
100
AcDbEntity
  8
A1
  6
CONTINUOUS
 62
7
100
AcDbLine
 10
177.1914164376441
 20
113.1573784720097
 30
0.000000000000000
 11
179.1682036668049
 21
112.8535491603452
 31
0.000000000000000
  0
LINE
  5
6B
100
AcDbEntity
  8
A1
  6
CONTINUOUS
 62
7
100
AcDbLine
 10
187.3169968284422
 20
165.8715707331970
 30
0.000000000000000
 11
187.3660637117273
 21
166.1908117824603
 31
0.000000000000000
  0
CIRCLE
  5
6C
100
AcDbEntity
  8
A1
  6
CONTINUOUS
 62
7
100
AcDbCircle
 10
187.7130892247594
 20
171.9299159972663
 30
0.000000000000000
 40
2.249999999977773
  0
CIRCLE
  5
6D
100
AcDbEntity
  8
A1
  6
CONTINUOUS
 62
7
100
AcDbCircle
 10
187.7130892247594
 20
125.9299159972663
 30
0.000000000000000
 40
2.249999999977773
  0
ARC
  5
6E
100
AcDbEntity
  8
A1
  6
CONTINUOUS
 62
7
100
AcDbCircle
 10
190.7130892247594
 20
175.9299108056049
 30
0.000000000000000
 40
4.999999999999998
100
AcDbArc
 50
359.9999950000000
 51
469.5797714976859
  0
ARC
  5
6F
100
AcDbEntity
  8
A1
  6
CONTINUOUS
 62
7
100
AcDbCircle
 10
188.6648712247595
 20
126.9039258056050
 30
0.000000000000000
 40
9.000000000000000
100
AcDbArc
 50
207.5768052346360
 51
250.4202292263142
  0
ARC
  5
70
100
AcDbEntity
  8
A1
  6
CONTINUOUS
 62
7
100
AcDbCircle
 10
188.6648712247595
 20
170.9558818056049
 30
0.000000000000000
 40
9.000000000000000
100
AcDbArc
 50
109.5797870000000
 51
169.8285124879113
  0
ARC
  5
71
100
AcDbEntity
  8
A1
  6
CONTINUOUS
 62
7
100
AcDbCircle
 10
184.7130892247594
 20
148.9299159972663
 30
0.000000000000000
 40
9.000000000000000
100
AcDbArc
 50
272.0739635462787
 51
428.8677881660585
  0
LINE
  5
72
100
AcDbEntity
  8
A1
  6
CONTINUOUS
 62
7
100
AcDbLine
 10
189.0374952247594
 20
180.6407878056053
 30
0.000000000000000
 11
185.6487983649108
 21
179.4354634287800
 31
0.000000000000000
  0
LINE
  5
73
100
AcDbEntity
  8
A1
  6
CONTINUOUS
 62
7
100
AcDbLine
 10
185.6488002247592
 20
118.4243418056049
 30
0.000000000000000
 11
189.0374762247592
 21
117.2190348056051
 31
0.000000000000000
  0
LINE
  5
74
100
AcDbEntity
  8
A1
  6
CONTINUOUS
 62
7
100
AcDbLine
 10
195.7130892247594
 20
121.9299115910030
 30
0.000000000000000
 11
195.7130892247594
 21
175.9299103692725
 31
0.000000000000000
  0
LINE
  5
75
100
AcDbEntity
  8
A1
  6
CONTINUOUS
 62
7
100
AcDbLine
 10
178.5145432979055
 20
132.5145213618807
 30
0.000000000000000
 11
179.4043299164209
 21
127.5551305523446
 31
0.000000000000000
  0
LINE
  5
76
100
AcDbEntity
  8
A1
  6
CONTINUOUS
 62
7
100
AcDbLine
 10
179.8063187349085
 20
172.5452363238161
 30
0.000000000000000
 11
178.7016571121588
 21
166.3882066262083
 31
0.000000000000000
  0
CIRCLE
  5
77
100
AcDbEntity
  8
A1
  6
CONTINUOUS
 62
7
100
AcDbCircle
 10
184.7130892246902
 20
148.9299159971970
 30
0.000000000000000
 40
6.500000000000000
  0
CIRCLE
  5
78
100
AcDbEntity
  8
A1
  6
CONTINUOUS
 62
7
100
AcDbCircle
 10
184.7130892246902
 20
148.9299159971970
 30
0.000000000000000
 40
5.500000000000005
  0
SPLINE
  5
79
100
AcDbEntity
  8
A1
  6
CONTINUOUS
 62
7
100
AcDbSpline
210
0.000000000000000
220
0.000000000000000
230
1.000000000000000
 70
     8
 71
     3
 72
    11
 73
     7
 74
     0
 42
1.000000000000000e-07
 43
1.000000000000000e-07
 12
-0.3229258745207062
 22
-0.9464242598141936
 32
0.000000000000000
 13
-0.1582809547588795
 23
-0.9873941155187822
 33
0.000000000000000
 40
0.000000000000000
 40
0.000000000000000
 40
0.000000000000000
 40
0.000000000000000
 40
0.7215911984881063
 40
1.453742358325901
 40
2.200618254832357
 40
2.956848752741553
 40
2.956848752741553
 40
2.956848752741553
 40
2.956848752741553
 10
246.6699969020246
 20
154.4544121725476
 30
0.000000000000000
 10
246.5923234124185
 20
154.2267683672417
 30
0.000000000000000
 10
246.4455761986110
 20
153.7647569933046
 30
0.000000000000000
 10
246.2540674904430
 20
153.0564292372245
 30
0.000000000000000
 10
246.0903110775203
 20
152.3293468957947
 30
0.000000000000000
 10
246.0005506353152
 20
151.8362423807355
 30
0.000000000000000
 10
245.9606516735728
 20
151.5873431995317
 30
0.000000000000000
  0
SPLINE
  5
7A
100
AcDbEntity
  8
A1
  6
CONTINUOUS
 62
7
100
AcDbSpline
210
0.000000000000000
220
0.000000000000000
230
1.000000000000000
 70
     8
 71
     3
 72
    11
 73
     7
 74
     0
 42
1.000000000000000e-07
 43
1.000000000000000e-07
 12
-0.1580885116583204
 22
-0.9874249452398089
 32
0.000000000000000
 13
0.0006548237894321574
 23
-0.9999997856028813
 33
0.000000000000000
 40
0.000000000000000
 40
0.000000000000000
 40
0.000000000000000
 40
0.000000000000000
 40
0.7888953822516677
 40
1.586961101536925
 40
2.399422826284648
 40
3.216599005548971
 40
3.216599005548971
 40
3.216599005548971
 40
3.216599005548971
 10
245.9606516735728
 20
151.5873431995317
 30
0.000000000000000
 10
245.9190799079614
 20
151.3276848729918
 30
0.000000000000000
 10
245.8460731033651
 20
150.8035802223511
 30
0.000000000000000
 10
245.7689141473025
 20
150.0072837719694
 30
0.000000000000000
 10
245.7230916723030
 20
149.1991525129125
 30
0.000000000000000
 10
245.7129108559586
 20
148.6558802778198
 30
0.000000000000000
 10
245.7130892247594
 20
148.3834882764651
 30
0.000000000000000
  0
SPLINE
  5
7B
100
AcDbEntity
  8
A1
  6
CONTINUOUS
 62
7
100
AcDbSpline
210
0.000000000000000
220
0.000000000000000
230
1.000000000000000
 70
     8
 71
     3
 72
    11
 73
     7
 74
     0
 42
1.000000000000000e-07
 43
1.000000000000000e-07
 12
-0.001012254922670763
 22
0.9999994876697542
 32
0.000000000000000
 13
0.1731733502066390
 23
0.9848913598862055
 33
0.000000000000000
 40
0.000000000000000
 40
0.000000000000000
 40
0.000000000000000
 40
0.000000000000000
 40
0.8901329665421088
 40
1.786457446282776
 40
2.696886234157471
 40
3.606036510300527
 40
3.606036510300527
 40
3.606036510300527
 40
3.606036510300527
 10
245.7130892247594
 20
147.6855074963715
 30
0.000000000000000
 10
245.7127888776003
 20
147.9822183332049
 30
0.000000000000000
 10
245.7242686332398
 20
148.5777760575719
 30
0.000000000000000
 10
245.7770945696008
 20
149.4754273474448
 30
0.000000000000000
 10
245.8698666078752
 20
150.3762826307656
 30
0.000000000000000
 10
245.9609806162687
 20
150.9762019959697
 30
0.000000000000000
 10
246.0134608159890
 20
151.2746734132402
 30
0.000000000000000
  0
SPLINE
  5
7C
100
AcDbEntity
  8
A1
  6
CONTINUOUS
 62
7
100
AcDbSpline
210
0.000000000000000
220
0.000000000000000
230
1.000000000000000
 70
     8
 71
     3
 72
    12
 73
     8
 74
     0
 42
1.000000000000000e-07
 43
1.000000000000000e-07
 12
0.003126870679807325
 22
-0.9999951113275074
 32
0.000000000000000
 13
-0.6186521937352154
 23
-0.7856649815221317
 33
0.000000000000000
 40
0.000000000000000
 40
0.000000000000000
 40
0.000000000000000
 40
0.000000000000000
 40
0.3115193813733841
 40
0.6415086633567453
 40
0.9698982948325503
 40
1.312845533330937
 40
1.428502780373880
 40
1.428502780373880
 40
1.428502780373880
 40
1.428502780373880
 10
259.2130892247590
 20
135.2443802576511
 30
0.000000000000000
 10
259.2134139183656
 20
135.1405409714988
 30
0.000000000000000
 10
259.1995455117039
 20
134.9264224057777
 30
0.000000000000000
 10
259.1342575996137
 20
134.6085950556854
 30
0.000000000000000
 10
259.0168881120302
 20
134.2946873149422
 30
0.000000000000000
 10
258.8852695432594
 20
134.0660984351275
 30
0.000000000000000
 10
258.7941357311905
 20
133.9432866099456
 30
0.000000000000000
 10
258.7702851946556
 20
133.9129973269920
 30
0.000000000000000
  0
SPLINE
  5
7D
100
AcDbEntity
  8
A1
  6
CONTINUOUS
 62
7
100
AcDbSpline
210
0.000000000000000
220
0.000000000000000
230
1.000000000000000
 70
     8
 71
     3
 72
     9
 73
     5
 74
     0
 42
1.000000000000000e-07
 43
1.000000000000000e-07
 12
-0.6192527721844954
 22
-0.7851916989766323
 32
0.000000000000000
 13
-0.6321138309605203
 23
-0.7748755414310153
 33
0.000000000000000
 40
0.000000000000000
 40
0.000000000000000
 40
0.000000000000000
 40
0.000000000000000
 40
0.8280431011018707
 40
1.659235454180962
 40
1.659235454180962
 40
1.659235454180962
 40
1.659235454180962
 10
258.7702851946556
 20
133.9129973269920
 30
0.000000000000000
 10
258.5993625327071
 20
133.6962731371987
 30
0.000000000000000
 10
258.2550790334816
 20
133.2634077555423
 30
0.000000000000000
 10
257.9072388798491
 20
132.8333951128150
 30
0.000000000000000
 10
257.7321028189925
 20
132.6187049046065
 30
0.000000000000000
  0
SPLINE
  5
7E
100
AcDbEntity
  8
A1
  6
CONTINUOUS
 62
7
100
AcDbSpline
210
0.000000000000000
220
0.000000000000000
230
1.000000000000000
 70
     8
 71
     3
 72
    27
 73
    23
 74
     0
 42
1.000000000000000e-07
 43
1.000000000000000e-07
 12
0.3232791834584532
 22
0.9463036349621916
 32
0.000000000000000
 13
0.5351340140960019
 23
0.8447671791427638
 33
0.000000000000000
 40
0.000000000000000
 40
0.000000000000000
 40
0.000000000000000
 40
0.000000000000000
 40
1.202231395360376
 40
2.380501779548157
 40
3.529947874193927
 40
4.645707684660881
 40
5.787048852674490
 40
6.886045724662505
 40
7.937227727409149
 40
8.715049440287824
 40
9.461664652712951
 40
10.17470099355976
 40
10.85178882897023
 40
11.64994697574152
 40
12.38751412217109
 40
13.06028303778446
 40
13.53497806268683
 40
13.96867682981469
 40
14.35982238914898
 40
14.70688824051693
 40
14.97615746155481
 40
15.21018479762060
 40
15.21018479762060
 40
15.21018479762060
 40
15.21018479762060
 10
246.6699969020246
 20
154.4544121725476
 30
0.000000000000000
 10
246.7995490299646
 20
154.8336374857126
 30
0.000000000000000
 10
247.0581463160652
 20
155.5838227640963
 30
0.000000000000000
 10
247.4475559123817
 20
156.6941725545523
 30
0.000000000000000
 10
247.8334869041099
 20
157.7751790702924
 30
0.000000000000000
 10
248.2215169772352
 20
158.8423453304688
 30
0.000000000000000
 10
248.6104819560084
 20
159.8912558244223
 30
0.000000000000000
 10
248.9989605536805
 20
160.9173615345308
 30
0.000000000000000
 10
249.3511408284954
 20
161.8276167730195
 30
0.000000000000000
 10
249.6665592930593
 20
162.6261221458711
 30
0.000000000000000
 10
249.9450247003875
 20
163.3180175330667
 30
0.000000000000000
 10
250.2154761069707
 20
163.9769255698619
 30
0.000000000000000
 10
250.4974510710366
 20
164.6496546415813
 30
0.000000000000000
 10
250.7887875402590
 20
165.3273013414112
 30
0.000000000000000
 10
251.0872293909068
 20
166.0002770815671
 30
0.000000000000000
 10
251.3494251314679
 20
166.5713266215622
 30
0.000000000000000
 10
251.5760172057407
 20
167.0472021588309
 30
0.000000000000000
 10
251.7676836309817
 20
167.4356892771773
 30
0.000000000000000
 10
251.9462341999269
 20
167.7831581573628
 30
0.000000000000000
 10
252.1058225335268
 20
168.0786710080405
 30
0.000000000000000
 10
252.2462784881819
 20
168.3249230054158
 30
0.000000000000000
 10
252.3342064925358
 20
168.4678361106975
 30
0.000000000000000
 10
252.3759518217882
 20
168.5337356482077
 30
0.000000000000000
  0
SPLINE
  5
7F
100
AcDbEntity
  8
A1
  6
CONTINUOUS
 62
7
100
AcDbSpline
210
0.000000000000000
220
0.000000000000000
230
1.000000000000000
 70
     8
 71
     3
 72
    15
 73
    11
 74
     0
 42
1.000000000000000e-07
 43
1.000000000000000e-07
 12
0.9760238174576443
 22
-0.2176637492912050
 32
0.000000000000000
 13
0.0009715113455968094
 23
-0.9999995280829808
 33
0.000000000000000
 40
0.000000000000000
 40
0.000000000000000
 40
0.000000000000000
 40
0.000000000000000
 40
0.3280494564915986
 40
0.6653174135746998
 40
0.9922951593715634
 40
1.327791611485106
 40
1.659739871445820
 40
2.000183209662505
 40
2.367450981549695
 40
2.746190459042348
 40
2.746190459042348
 40
2.746190459042348
 40
2.746190459042348
 10
257.6379485134216
 20
167.8698292792477
 30
0.000000000000000
 10
257.7446765410349
 20
167.8460277876968
 30
0.000000000000000
 10
257.9576548047043
 20
167.7800617996891
 30
0.000000000000000
 10
258.2539004810172
 20
167.6294401507521
 30
0.000000000000000
 10
258.5229731160915
 20
167.4303287277494
 30
0.000000000000000
 10
258.7544153205004
 20
167.1908740797389
 30
0.000000000000000
 10
258.9459670689849
 20
166.9130677472402
 30
0.000000000000000
 10
259.0940551129150
 20
166.5979940452667
 30
0.000000000000000
 10
259.1906807324373
 20
166.2470797485387
 30
0.000000000000000
 10
259.2129665748592
 20
165.9978171660176
 30
0.000000000000000
 10
259.2130892247590
 20
165.8715707330979
 30
0.000000000000000
  0
SPLINE
  5
80
100
AcDbEntity
  8
A1
  6
CONTINUOUS
 62
7
100
AcDbSpline
210
0.000000000000000
220
0.000000000000000
230
1.000000000000000
 70
     8
 71
     3
 72
    11
 73
     7
 74
     0
 42
1.000000000000000e-07
 43
1.000000000000000e-07
 12
0.1735896851921552
 22
0.9848180650225231
 32
0.000000000000000
 13
0.3566264501964724
 23
0.9342470631584092
 33
0.000000000000000
 40
0.000000000000000
 40
0.000000000000000
 40
0.000000000000000
 40
0.000000000000000
 40
0.8106438319174861
 40
1.615705063555533
 40
2.420381213758985
 40
3.216693432695427
 40
3.216693432695427
 40
3.216693432695427
 40
3.216693432695427
 10
246.0134608159890
 20
151.2746734132402
 30
0.000000000000000
 10
246.0603672851842
 20
151.5407856432307
 30
0.000000000000000
 10
246.1661267774120
 20
152.0690923133329
 30
0.000000000000000
 10
246.3602591544079
 20
152.8524639141289
 30
0.000000000000000
 10
246.5900866700464
 20
153.6211720423245
 30
0.000000000000000
 10
246.7683144824092
 20
154.1244645393032
 30
0.000000000000000
 10
246.8629764823716
 20
154.3724486566027
 30
0.000000000000000
  0
SPLINE
  5
81
100
AcDbEntity
  8
A1
  6
CONTINUOUS
 62
7
100
AcDbSpline
210
0.000000000000000
220
0.000000000000000
230
1.000000000000000
 70
     8
 71
     3
 72
    24
 73
    20
 74
     0
 42
1.000000000000000e-07
 43
1.000000000000000e-07
 12
0.3571675783178989
 22
0.9340403208635735
 32
0.000000000000000
 13
0.5581880580739380
 23
0.8297144640318947
 33
0.000000000000000
 40
0.000000000000000
 40
0.000000000000000
 40
0.000000000000000
 40
0.000000000000000
 40
0.9775929498789270
 40
1.936626525648265
 40
2.873974938187940
 40
3.786513408101536
 40
4.851534372004757
 40
5.878514007853231
 40
6.862247722428538
 40
7.797533531837259
 40
8.679175592175266
 40
9.501989157236075
 40
10.24210763934635
 40
10.92560215144662
 40
11.54855473235532
 40
12.10707361140051
 40
12.59731604320831
 40
13.01553325898233
 40
13.19693690249482
 40
13.19693690249482
 40
13.19693690249482
 40
13.19693690249482
 10
246.8629764823716
 20
154.3724486566027
 30
0.000000000000000
 10
246.9793646512013
 20
154.6768190674624
 30
0.000000000000000
 10
247.2116866256574
 20
155.2791118319963
 30
0.000000000000000
 10
247.5614922738524
 20
156.1709602270311
 30
0.000000000000000
 10
247.9085223199161
 20
157.0405873530195
 30
0.000000000000000
 10
248.2741348073162
 20
157.9408183531314
 30
0.000000000000000
 10
248.6576712204805
 20
158.8659943752014
 30
0.000000000000000
 10
249.0580806269799
 20
159.8098288919788
 30
0.000000000000000
 10
249.4493320749739
 20
160.7105345839287
 30
0.000000000000000
 10
249.8290911882348
 20
161.5633722827095
 30
0.000000000000000
 10
250.1950088341617
 20
162.3636100368004
 30
0.000000000000000
 10
250.5420805455984
 20
163.1008798902693
 30
0.000000000000000
 10
250.8695202074271
 20
163.7743254088508
 30
0.000000000000000
 10
251.1761102703287
 20
164.3837648202492
 30
0.000000000000000
 10
251.4640045850204
 20
164.9347683813983
 30
0.000000000000000
 10
251.7309005745437
 20
165.4239790293645
 30
0.000000000000000
 10
251.9746836386952
 20
165.8479119557519
 30
0.000000000000000
 10
252.1644894600021
 20
166.1577829382374
 30
0.000000000000000
 10
252.2746747377199
 20
166.3245611025509
 30
0.000000000000000
 10
252.3084271868865
 20
166.3747321781677
 30
0.000000000000000
  0
SPLINE
  5
82
100
AcDbEntity
  8
A1
  6
CONTINUOUS
 62
7
100
AcDbSpline
210
0.000000000000000
220
0.000000000000000
230
1.000000000000000
 70
     8
 71
     3
 72
    21
 73
    17
 74
     0
 42
1.000000000000000e-07
 43
1.000000000000000e-07
 12
0.5997263282424683
 22
0.8002051806961390
 32
0.000000000000000
 13
0.9760474109421011
 23
-0.2175579269826358
 33
0.000000000000000
 40
0.000000000000000
 40
0.000000000000000
 40
0.000000000000000
 40
0.000000000000000
 40
0.1129769871660668
 40
0.2453342662553338
 40
0.4047845498716911
 40
0.5976604542706097
 40
0.8250522515562635
 40
1.084665693853566
 40
1.359763988336631
 40
1.660580435337736
 40
1.981651408316509
 40
2.317516171163013
 40
2.667353101981917
 40
3.024975590428632
 40
3.295601389982380
 40
3.567172320419728
 40
3.567172320419728
 40
3.567172320419728
 40
3.567172320419728
 10
252.3084271868865
 20
166.3747321781677
 30
0.000000000000000
 10
252.3310122781161
 20
166.4048671016443
 30
0.000000000000000
 10
252.3884266205669
 20
166.4651139070082
 30
0.000000000000000
 10
252.5104249612810
 20
166.5269524253442
 30
0.000000000000000
 10
252.6663621293953
 20
166.5710967756343
 30
0.000000000000000
 10
252.8585714400977
 20
166.5958045652841
 30
0.000000000000000
 10
253.0852360781220
 20
166.6036793242074
 30
0.000000000000000
 10
253.3392920389771
 20
166.5951900918053
 30
0.000000000000000
 10
253.6169174309311
 20
166.5721767911778
 30
0.000000000000000
 10
253.9139092579895
 20
166.5372277693103
 30
0.000000000000000
 10
254.2298915203276
 20
166.4914577899844
 30
0.000000000000000
 10
254.5609540320498
 20
166.4363977482031
 30
0.000000000000000
 10
254.9030383721427
 20
166.3736715912651
 30
0.000000000000000
 10
255.2228771535161
 20
166.3103951063516
 30
0.000000000000000
 10
255.5164771691731
 20
166.2490361540096
 30
0.000000000000000
 10
255.6930574654114
 20
166.2105059185796
 30
0.000000000000000
 10
255.7814128332582
 20
166.1908117823614
 30
0.000000000000000
  0
SPLINE
  5
83
100
AcDbEntity
  8
A1
  6
CONTINUOUS
 62
7
100
AcDbSpline
210
0.000000000000000
220
0.000000000000000
230
1.000000000000000
 70
     8
 71
     3
 72
    21
 73
    17
 74
     0
 42
1.000000000000000e-07
 43
1.000000000000000e-07
 12
-0.9763387540183430
 22
0.2162467049515726
 32
0.000000000000000
 13
-0.5738484065441298
 23
-0.8189615414103173
 33
0.000000000000000
 40
0.000000000000000
 40
0.000000000000000
 40
0.000000000000000
 40
0.000000000000000
 40
0.3825930934008659
 40
0.7631383767127891
 40
1.134623560718088
 40
1.493877852190581
 40
1.836810973864425
 40
2.156504588847983
 40
2.441133832961978
 40
2.698384861256505
 40
2.923947096695578
 40
3.112550130848683
 40
3.270620469306714
 40
3.399098234956923
 40
3.489386570653137
 40
3.567341828104764
 40
3.567341828104764
 40
3.567341828104764
 40
3.567341828104764
 10
255.8564824040320
 20
168.2641981888247
 30
0.000000000000000
 10
255.7319689159963
 20
168.2917763540864
 30
0.000000000000000
 10
255.4833346350503
 20
168.3455555603642
 30
0.000000000000000
 10
255.1129341031137
 20
168.4220347353616
 30
0.000000000000000
 10
254.7493688105705
 20
168.4930517671750
 30
0.000000000000000
 10
254.3972637630422
 20
168.5572121973714
 30
0.000000000000000
 10
254.0611903459547
 20
168.6128358190914
 30
0.000000000000000
 10
253.7486378171179
 20
168.6578899428216
 30
0.000000000000000
 10
253.4632800871794
 20
168.6907414721157
 30
0.000000000000000
 10
253.2081640170549
 20
168.7105541404856
 30
0.000000000000000
 10
252.9842961805015
 20
168.7167074777354
 30
0.000000000000000
 10
252.7935479208878
 20
168.7077768460184
 30
0.000000000000000
 10
252.6364764882778
 20
168.6843926101672
 30
0.000000000000000
 10
252.5158873186777
 20
168.6470631271939
 30
0.000000000000000
 10
252.4287737654964
 20
168.5975946232221
 30
0.000000000000000
 10
252.3908633218783
 20
168.5550164341422
 30
0.000000000000000
 10
252.3759518217882
 20
168.5337356482077
 30
0.000000000000000
  0
ELLIPSE
  5
84
100
AcDbEntity
  8
A1
  6
CONTINUOUS
 62
7
100
AcDbEllipse
 10
259.2130892247590
 20
125.0181018469259
 30
0.000000000000000
 11
2.000000000000000
 21
0.000000000000000
 31
0.000000000000000
210
0.000000000000000
220
0.000000000000000
230
1.000000000000000
 40
0.9883936145804318
 41
3.141592653589793
 42
4.712388980384690
  0
ELLIPSE
  5
85
100
AcDbEntity
  8
A1
  6
CONTINUOUS
 62
7
100
AcDbEllipse
 10
259.2130892247588
 20
118.7839107524747
 30
0.000000000000000
 11
6.000000000000000
 21
0.000000000000000
 31
0.000000000000000
210
0.000000000000000
220
0.000000000000000
230
1.000000000000000
 40
0.9883936145804318
 41
4.712388980384690
 42
5.965226650644139
  0
ELLIPSE
  5
86
100
AcDbEntity
  8
A1
  6
CONTINUOUS
 62
7
100
AcDbEllipse
 10
249.7130892247594
 20
116.8071235232639
 30
0.000000000000000
 11
4.000000000000000
 21
0.000000000000000
 31
0.000000000000000
210
0.000000000000000
220
0.000000000000000
230
1.000000000000000
 40
0.9883936145804318
 41
3.141592653589793
 42
4.712388980384690
  0
ELLIPSE
  5
87
100
AcDbEntity
  8
A1
  6
CONTINUOUS
 62
7
100
AcDbEllipse
 10
259.2130892247590
 20
124.7142724399572
 30
0.000000000000000
 11
-2.000000000000000
 21
0.000000000000000
 31
0.000000000000000
210
0.000000000000000
220
0.000000000000000
230
1.000000000000000
 40
0.9883936145804318
 41
0.000000000000000
 42
1.570796326794897
  0
ELLIPSE
  5
88
100
AcDbEntity
  8
A1
  6
CONTINUOUS
 62
7
100
AcDbEllipse
 10
259.2130892247590
 20
131.2847659512635
 30
0.000000000000000
 11
-2.000000000000000
 21
0.000000000000000
 31
0.000000000000000
210
0.000000000000000
220
0.000000000000000
230
1.000000000000000
 40
0.9883936145804318
 41
5.604817485564045
 42
0.000000000000000
  0
LINE
  5
89
100
AcDbEntity
  8
A1
  6
CONTINUOUS
 62
7
100
AcDbLine
 10
259.2130892247696
 20
123.0413146177651
 30
0.000000000000000
 11
260.7130892247590
 21
123.0413146177730
 31
0.000000000000000
  0
LINE
  5
8A
100
AcDbEntity
  8
A1
  6
CONTINUOUS
 62
7
100
AcDbLine
 10
259.2130892247590
 20
136.7589036366022
 30
0.000000000000000
 11
259.2130892247590
 21
137.2501093378276
 31
0.000000000000000
  0
LINE
  5
8B
100
AcDbEntity
  8
A1
  6
CONTINUOUS
 62
7
100
AcDbLine
 10
257.7321028189925
 20
132.6187049046066
 30
0.000000000000000
 11
257.6558932548625
 21
132.5252455018039
 31
0.000000000000000
  0
LINE
  5
8C
100
AcDbEntity
  8
A1
  6
CONTINUOUS
 62
7
100
AcDbLine
 10
259.2130892247696
 20
122.7374853061006
 30
0.000000000000000
 11
260.7130892247590
 21
122.7374853061085
 31
0.000000000000000
  0
LINE
  5
8D
100
AcDbEntity
  8
A1
  6
CONTINUOUS
 62
7
100
AcDbLine
 10
259.2130892247908
 20
112.8535491602962
 30
0.000000000000000
 11
249.7130892247807
 21
112.8535491602462
 31
0.000000000000000
  0
LINE
  5
8E
100
AcDbEntity
  8
A1
  6
CONTINUOUS
 62
7
100
AcDbLine
 10
257.2130892247590
 20
124.7142725352613
 30
0.000000000000000
 11
257.2130892247590
 21
131.2847660465676
 31
0.000000000000000
  0
LINE
  5
8F
100
AcDbEntity
  8
A1
  6
CONTINUOUS
 62
7
100
AcDbLine
 10
259.2130892247591
 20
136.7589036366023
 30
0.000000000000000
 11
257.2130892247591
 21
136.3162992366048
 31
0.000000000000000
  0
LINE
  5
90
100
AcDbEntity
  8
A1
  6
CONTINUOUS
 62
7
100
AcDbLine
 10
257.6379485134216
 20
167.8698292792478
 30
0.000000000000000
 11
255.8564824040319
 21
168.2641981888248
 31
0.000000000000000
  0
LINE
  5
91
100
AcDbEntity
  8
A1
  6
CONTINUOUS
 62
7
100
AcDbLine
 10
257.2130892247591
 20
165.8715707330982
 30
0.000000000000000
 11
255.7814128332583
 21
166.1908117823615
 31
0.000000000000000
  0
ARC
  5
92
100
AcDbEntity
  8
A1
  6
CONTINUOUS
 62
7
100
AcDbCircle
 10
260.2130892247590
 20
140.9299159971673
 30
0.000000000000000
 40
1.000000000000000
100
AcDbArc
 50
180.0000000000000
 51
270.0000000000000
  0
ARC
  5
93
100
AcDbEntity
  8
A1
  6
CONTINUOUS
 62
7
100
AcDbCircle
 10
260.2130892247590
 20
156.9299159971673
 30
0.000000000000000
 40
1.000000000000000
100
AcDbArc
 50
90.00000000000000
 51
179.9999999999999
  0
ARC
  5
94
100
AcDbEntity
  8
A1
  6
CONTINUOUS
 62
7
100
AcDbCircle
 10
262.7130892247590
 20
118.9299125059481
 30
0.000000000000000
 40
2.000000000000000
100
AcDbArc
 50
180.0000000000000
 51
270.0000000000000
  0
ARC
  5
95
100
AcDbEntity
  8
A1
  6
CONTINUOUS
 62
7
100
AcDbCircle
 10
262.7130892247590
 20
178.9299108055059
 30
0.000000000000000
 40
2.000000000000000
100
AcDbArc
 50
90.00000000000000
 51
180.0000000000002
  0
LINE
  5
96
100
AcDbEntity
  8
A1
  6
CONTINUOUS
 62
7
100
AcDbLine
 10
260.2130892247590
 20
157.9299159971673
 30
0.000000000000000
 11
260.7130892247590
 21
157.9299159971673
 31
0.000000000000000
  0
LINE
  5
97
100
AcDbEntity
  8
A1
  6
CONTINUOUS
 62
7
100
AcDbLine
 10
260.7130892247590
 20
139.9299159971673
 30
0.000000000000000
 11
260.2130892247590
 21
139.9299159971673
 31
0.000000000000000
  0
LINE
  5
98
100
AcDbEntity
  8
A1
  6
CONTINUOUS
 62
7
100
AcDbLine
 10
265.7130892247590
 20
116.9299125059481
 30
0.000000000000000
 11
262.7130892247590
 21
116.9299125059481
 31
0.000000000000000
  0
LINE
  5
99
100
AcDbEntity
  8
A1
  6
CONTINUOUS
 62
7
100
AcDbLine
 10
262.7130892247590
 20
180.9299108055059
 30
0.000000000000000
 11
265.7130892247590
 21
180.9299108055059
 31
0.000000000000000
  0
LINE
  5
9A
100
AcDbEntity
  8
A1
  6
CONTINUOUS
 62
7
100
AcDbLine
 10
255.7130892247590
 20
155.4299159970981
 30
0.000000000000000
 11
257.2130892247590
 21
155.4299159970981
 31
0.000000000000000
  0
LINE
  5
9B
100
AcDbEntity
  8
A1
  6
CONTINUOUS
 62
7
100
AcDbLine
 10
257.2130892247590
 20
142.4299159970980
 30
0.000000000000000
 11
255.7130892247590
 21
142.4299159970980
 31
0.000000000000000
  0
LINE
  5
9C
100
AcDbEntity
  8
A1
  6
CONTINUOUS
 62
7
100
AcDbLine
 10
254.7130892247590
 20
154.3660808772904
 30
0.000000000000000
 11
254.7130892247590
 21
143.4299159970980
 31
0.000000000000000
  0
LINE
  5
9D
100
AcDbEntity
  8
A1
  6
CONTINUOUS
 62
7
100
AcDbLine
 10
254.7130892247591
 20
154.4299159970980
 30
0.000000000000000
 11
255.7130892247591
 21
155.4299159970980
 31
0.000000000000000
  0
LINE
  5
9E
100
AcDbEntity
  8
A1
  6
CONTINUOUS
 62
7
100
AcDbLine
 10
255.7130892247591
 20
142.4299159970980
 30
0.000000000000000
 11
254.7130892247591
 21
143.4299159970980
 31
0.000000000000000
  0
LINE
  5
9F
100
AcDbEntity
  8
A1
  6
CONTINUOUS
 62
7
100
AcDbLine
 10
255.7130892247590
 20
142.4299159970980
 30
0.000000000000000
 11
255.7130892247590
 21
155.4299159970981
 31
0.000000000000000
  0
LINE
  5
A0
100
AcDbEntity
  8
A1
  6
CONTINUOUS
 62
7
100
AcDbLine
 10
254.7130892247590
 20
154.4299159970980
 30
0.000000000000000
 11
254.7130892247590
 21
154.3660808772904
 31
0.000000000000000
  0
SPLINE
  5
A1
100
AcDbEntity
  8
A1
  6
CONTINUOUS
 62
7
100
AcDbSpline
210
0.000000000000000
220
0.000000000000000
230
1.000000000000000
 70
     8
 71
     3
 72
    11
 73
     7
 74
     0
 42
1.000000000000000e-07
 43
1.000000000000000e-07
 12
0.1856279225987691
 22
-0.9826201068325418
 32
0.000000000000000
 13
-0.03124752060648461
 23
-0.9995116769981678
 33
0.000000000000000
 40
0.000000000000000
 40
0.000000000000000
 40
0.000000000000000
 40
0.000000000000000
 40
0.7914465647295689
 40
1.590206842745171
 40
2.402401426320829
 40
3.219441277696514
 40
3.219441277696514
 40
3.219441277696514
 40
3.219441277696514
 10
334.0029554563224
 20
151.5873431993359
 30
0.000000000000000
 10
334.0519269835419
 20
151.3281127633403
 30
0.000000000000000
 10
334.1363311273670
 20
150.8044997323434
 30
0.000000000000000
 10
334.2206781609104
 20
150.0077698701490
 30
0.000000000000000
 10
334.2618765852523
 20
149.1990970375236
 30
0.000000000000000
 10
334.2598025214994
 20
148.6557019002770
 30
0.000000000000000
 10
334.2512923649687
 20
148.3834882762693
 30
0.000000000000000
  0
SPLINE
  5
A2
100
AcDbEntity
  8
A1
  6
CONTINUOUS
 62
7
100
AcDbSpline
210
0.000000000000000
220
0.000000000000000
230
1.000000000000000
 70
     8
 71
     3
 72
    21
 73
    17
 74
     0
 42
1.000000000000000e-07
 43
1.000000000000000e-07
 12
-0.3487822718972211
 22
0.9372037808344089
 32
0.000000000000000
 13
-0.8836123241494533
 23
0.4682192441711095
 33
0.000000000000000
 40
0.000000000000000
 40
0.000000000000000
 40
0.000000000000000
 40
0.000000000000000
 40
1.225740484462071
 40
2.453913836498614
 40
3.683165634677519
 40
4.912159740516440
 40
6.213838741932179
 40
7.518953095583121
 40
8.825796046006646
 40
9.838049640171274
 40
10.85333447795862
 40
11.87075419624180
 40
12.88943707123613
 40
14.17275587856311
 40
15.46104869821436
 40
16.23992769998386
 40
16.23992769998386
 40
16.23992769998386
 40
16.23992769998386
 10
333.2058665582093
 20
154.4544121723518
 30
0.000000000000000
 10
333.0633610412336
 20
154.8373350444716
 30
0.000000000000000
 10
332.7569974554316
 20
155.5962931716795
 30
0.000000000000000
 10
332.2351228538444
 20
156.7082252484722
 30
0.000000000000000
 10
331.6526397473469
 20
157.7909137804483
 30
0.000000000000000
 10
330.9986547958532
 20
158.8608070105742
 30
0.000000000000000
 10
330.2701447771322
 20
159.9124606678599
 30
0.000000000000000
 10
329.4656616792678
 20
160.9403413162685
 30
0.000000000000000
 10
328.6663717026859
 20
161.8471595011717
 30
0.000000000000000
 10
327.8886137142403
 20
162.6416696880017
 30
0.000000000000000
 10
327.1461832857207
 20
163.3342781995167
 30
0.000000000000000
 10
326.3715003041484
 20
163.9939244263672
 30
0.000000000000000
 10
325.4969976432793
 20
164.6724167103142
 30
0.000000000000000
 10
324.5141427337214
 20
165.3564196213855
 30
0.000000000000000
 10
323.5618581137366
 20
165.9411345681278
 30
0.000000000000000
 10
322.9585568028511
 20
166.2743357850109
 30
0.000000000000000
 10
322.7291477745229
 20
166.3958978308474
 30
0.000000000000000
  0
ARC
  5
A3
100
AcDbEntity
  8
A1
  6
CONTINUOUS
 62
7
100
AcDbCircle
 10
316.7130892247149
 20
148.9299159969715
 30
0.000000000000000
 40
17.54671344277210
100
AcDbArc
 50
290.6868202624190
 51
358.2154455968657
  0
ARC
  5
A4
100
AcDbEntity
  8
A1
  6
CONTINUOUS
 62
7
100
AcDbCircle
 10
316.7012386123376
 20
148.3215379818832
 30
0.000000000000000
 40
17.60723968905306
100
AcDbArc
 50
10.68916640911791
 51
20.38431707328212
  0
ARC
  5
A5
100
AcDbEntity
  8
A1
  6
CONTINUOUS
 62
7
100
AcDbCircle
 10
316.7130892247149
 20
148.9299159969715
 30
0.000000000000000
 40
4.600000000000000
100
AcDbArc
 50
143.7378999989625
 51
149.7515227277656
  0
ARC
  5
A6
100
AcDbEntity
  8
A1
  6
CONTINUOUS
 62
7
100
AcDbCircle
 10
316.7130892247149
 20
148.9299159969715
 30
0.000000000000000
 40
4.600000000000000
100
AcDbArc
 50
226.2331497647110
 51
233.7379000012075
  0
ARC
  5
A7
100
AcDbEntity
  8
A1
  6
CONTINUOUS
 62
7
100
AcDbCircle
 10
316.7130892247149
 20
148.9299159969715
 30
0.000000000000000
 40
4.600000000000000
100
AcDbArc
 50
323.7379000010321
 51
330.9541260530754
  0
ARC
  5
A8
100
AcDbEntity
  8
A1
  6
CONTINUOUS
 62
7
100
AcDbCircle
 10
316.7130892247149
 20
148.9299159969715
 30
0.000000000000000
 40
4.600000000000000
100
AcDbArc
 50
46.23314976440610
 51
53.73789999879781
  0
LINE
  5
A9
100
AcDbEntity
  8
A1
  6
CONTINUOUS
 62
7
100
AcDbLine
 10
322.7156154534963
 20
123.0413146175956
 30
0.000000000000000
 11
320.7388282243354
 21
122.7374853059312
 31
0.000000000000000
  0
LINE
  5
AA
100
AcDbEntity
  8
A1
  6
CONTINUOUS
 62
7
100
AcDbLine
 10
322.2579747826619
 20
112.8535491601005
 30
0.000000000000000
 11
324.2347620118227
 21
113.1573784717649
 31
0.000000000000000
  0
SPLINE
  5
AB
100
AcDbEntity
  8
A1
  6
CONTINUOUS
 62
7
100
AcDbSpline
210
0.000000000000000
220
0.000000000000000
230
1.000000000000000
 70
     8
 71
     3
 72
    18
 73
    14
 74
     0
 42
1.000000000000000e-07
 43
1.000000000000000e-07
 12
-0.1765955706578097
 22
-0.9842834979863255
 32
0.000000000000000
 13
-0.7554749290145537
 23
-0.6551775573312852
 33
0.000000000000000
 40
0.000000000000000
 40
0.000000000000000
 40
0.000000000000000
 40
0.000000000000000
 40
0.01580806844326280
 40
0.5524923547053451
 40
1.091646456126818
 40
1.634209778725684
 40
2.192625687895582
 40
2.761047912253172
 40
3.339236864689125
 40
3.927258697809820
 40
4.423022091917585
 40
4.927933720166633
 40
5.436292747908708
 40
5.436292747908708
 40
5.436292747908708
 40
5.436292747908708
 10
324.5873583764289
 20
147.5171579404152
 30
0.000000000000000
 10
324.5864278314730
 20
147.5119714001139
 30
0.000000000000000
 10
324.5537154300965
 20
147.3307365975303
 30
0.000000000000000
 10
324.4767447345982
 20
146.9747598638013
 30
0.000000000000000
 10
324.3273795650946
 20
146.4559761934778
 30
0.000000000000000
 10
324.1408415946763
 20
145.9416216889027
 30
0.000000000000000
 10
323.9153112388306
 20
145.4324105522661
 30
0.000000000000000
 10
323.6489624943850
 20
144.9298017879886
 30
0.000000000000000
 10
323.3421650576107
 20
144.4391162334450
 30
0.000000000000000
 10
323.0148560218088
 20
143.9915031544727
 30
0.000000000000000
 10
322.6733227044996
 20
143.5863514876093
 30
0.000000000000000
 10
322.3258569837726
 20
143.2222065002115
 30
0.000000000000000
 10
322.0775642410989
 20
142.9928378824955
 30
0.000000000000000
 10
321.9495467409664
 20
142.8818160738144
 30
0.000000000000000
  0
SPLINE
  5
AC
100
AcDbEntity
  8
A1
  6
CONTINUOUS
 62
7
100
AcDbSpline
210
0.000000000000000
220
0.000000000000000
230
1.000000000000000
 70
     8
 71
     3
 72
    18
 73
    14
 74
     0
 42
1.000000000000000e-07
 43
1.000000000000000e-07
 12
0.7554750550850713
 22
-0.6551774119606080
 32
0.000000000000000
 13
0.1765957600655383
 23
-0.9842834640112414
 33
0.000000000000000
 40
0.000000000000000
 40
0.000000000000000
 40
0.000000000000000
 40
0.000000000000000
 40
0.5083590277420978
 40
1.013270655991174
 40
1.509034050098903
 40
2.097055883219642
 40
2.675244835655607
 40
3.243667060013181
 40
3.802082969183122
 40
4.344646291756678
 40
4.883800393153363
 40
5.420484679469261
 40
5.436292747909158
 40
5.436292747909158
 40
5.436292747909158
 40
5.436292747909158
 10
321.9495455771755
 20
154.9780169277410
 30
0.000000000000000
 10
322.0775630986710
 20
154.8669951436933
 30
0.000000000000000
 10
322.3258558854805
 20
154.6376265737543
 30
0.000000000000000
 10
322.6733216762773
 20
154.2734816532169
 30
0.000000000000000
 10
323.0148550715466
 20
153.8683300520721
 30
0.000000000000000
 10
323.3421641934796
 20
153.4207170360816
 30
0.000000000000000
 10
323.6489617246726
 20
152.9300315405726
 30
0.000000000000000
 10
323.9153105658318
 20
152.4274228275467
 30
0.000000000000000
 10
324.1408410196567
 20
151.9182117343147
 30
0.000000000000000
 10
324.3273790890481
 20
151.4038572656515
 30
0.000000000000000
 10
324.4767443583817
 20
150.8850736240691
 30
0.000000000000000
 10
324.5537151223736
 20
150.5290969051406
 30
0.000000000000000
 10
324.5864275586287
 20
150.3478621088358
 30
0.000000000000000
 10
324.5873581045824
 20
150.3426755687147
 30
0.000000000000000
  0
CIRCLE
  5
AD
100
AcDbEntity
  8
A1
  6
CONTINUOUS
 62
7
100
AcDbCircle
 10
313.7130892247149
 20
171.9299159969715
 30
0.000000000000000
 40
4.714213562370503
  0
CIRCLE
  5
AE
100
AcDbEntity
  8
A1
  6
CONTINUOUS
 62
7
100
AcDbCircle
 10
313.7130892247149
 20
125.9299159969715
 30
0.000000000000000
 40
4.714213562370503
  0
CIRCLE
  5
AF
100
AcDbEntity
  8
A1
  6
CONTINUOUS
 62
7
100
AcDbCircle
 10
313.7130892247149
 20
125.9299159969715
 30
0.000000000000000
 40
2.249999999977773
  0
CIRCLE
  5
B0
100
AcDbEntity
  8
A1
  6
CONTINUOUS
 62
7
100
AcDbCircle
 10
313.7130892247149
 20
125.9299159969715
 30
0.000000000000000
 40
3.249999999977549
  0
CIRCLE
  5
B1
100
AcDbEntity
  8
A1
  6
CONTINUOUS
 62
7
100
AcDbCircle
 10
313.7130892247149
 20
171.9299159969715
 30
0.000000000000000
 40
2.249999999977773
  0
CIRCLE
  5
B2
100
AcDbEntity
  8
A1
  6
CONTINUOUS
 62
7
100
AcDbCircle
 10
313.7130892247149
 20
171.9299159969715
 30
0.000000000000000
 40
3.249999999977549
  0
ARC
  5
B3
100
AcDbEntity
  8
A1
  6
CONTINUOUS
 62
7
100
AcDbCircle
 10
316.7130892247149
 20
148.9299159969715
 30
0.000000000000000
 40
4.650000000000000
100
AcDbArc
 50
323.7379000010215
 51
329.9336834937642
  0
ARC
  5
B4
100
AcDbEntity
  8
A1
  6
CONTINUOUS
 62
7
100
AcDbCircle
 10
316.7130892247149
 20
148.9299159969715
 30
0.000000000000000
 40
4.650000000000000
100
AcDbArc
 50
45.76197432154667
 51
53.73789999881023
  0
ARC
  5
B5
100
AcDbEntity
  8
A1
  6
CONTINUOUS
 62
7
100
AcDbCircle
 10
316.7130892247149
 20
148.9299159969715
 30
0.000000000000000
 40
4.650000000000000
100
AcDbArc
 50
143.7378999989732
 51
148.8941159441432
  0
ARC
  5
B6
100
AcDbEntity
  8
A1
  6
CONTINUOUS
 62
7
100
AcDbCircle
 10
316.7130892247149
 20
148.9299159969715
 30
0.000000000000000
 40
4.650000000000000
100
AcDbArc
 50
225.7619743218468
 51
233.7379000011952
  0
ARC
  5
B7
100
AcDbEntity
  8
A1
  6
CONTINUOUS
 62
7
100
AcDbCircle
 10
316.7130892247149
 20
148.9299159969715
 30
0.000000000000000
 40
8.000000000000000
100
AcDbArc
 50
349.8285235129125
 51
370.1714875120881
  0
ARC
  5
B8
100
AcDbEntity
  8
A1
  6
CONTINUOUS
 62
7
100
AcDbCircle
 10
310.7130892247149
 20
175.9299108053101
 30
0.000000000000000
 40
4.999999999999998
100
AcDbArc
 50
70.42022850231409
 51
180.0000049999999
  0
ARC
  5
B9
100
AcDbEntity
  8
A1
  6
CONTINUOUS
 62
7
100
AcDbCircle
 10
312.7613072247148
 20
170.9558818053101
 30
0.000000000000000
 40
9.000000000000000
100
AcDbArc
 50
10.17148751208872
 51
70.42021299999999
  0
ARC
  5
BA
100
AcDbEntity
  8
A1
  6
CONTINUOUS
 62
7
100
AcDbCircle
 10
316.7130892247149
 20
148.9299159969715
 30
0.000000000000000
 40
9.000000000000000
100
AcDbArc
 50
349.8285235129125
 51
370.1714875120881
  0
ARC
  5
BB
100
AcDbEntity
  8
A1
  6
CONTINUOUS
 62
7
100
AcDbCircle
 10
312.7613072247148
 20
126.9039258053101
 30
0.000000000000000
 40
9.000000000000000
100
AcDbArc
 50
289.5797707736858
 51
349.8285235129126
  0
ARC
  5
BC
100
AcDbEntity
  8
A1
  6
CONTINUOUS
 62
7
100
AcDbCircle
 10
310.7131013470675
 20
121.9299246281217
 30
0.000000000000000
 40
5.000012122369524
100
AcDbArc
 50
180.0001493973909
 51
289.5797965105111
  0
ARC
  5
BD
100
AcDbEntity
  8
A1
  6
CONTINUOUS
 62
7
100
AcDbCircle
 10
310.7131013470675
 20
121.9299246281217
 30
0.000000000000000
 40
4.000012122369524
100
AcDbArc
 50
180.0001493973909
 51
289.5797965105111
  0
ARC
  5
BE
100
AcDbEntity
  8
A1
  6
CONTINUOUS
 62
7
100
AcDbCircle
 10
312.7613072247148
 20
126.9039258053101
 30
0.000000000000000
 40
8.000000000000000
100
AcDbArc
 50
289.5797675565832
 51
349.8285235129126
  0
ARC
  5
BF
100
AcDbEntity
  8
A1
  6
CONTINUOUS
 62
7
100
AcDbCircle
 10
312.7613072247148
 20
170.9558818053101
 30
0.000000000000000
 40
8.000000000000000
100
AcDbArc
 50
10.17148751208872
 51
70.42021299999999
  0
ARC
  5
C0
100
AcDbEntity
  8
A1
  6
CONTINUOUS
 62
7
100
AcDbCircle
 10
310.7130892247149
 20
175.9299108053101
 30
0.000000000000000
 40
3.999999999999998
100
AcDbArc
 50
70.42026943380436
 51
180.0000049999999
  0
LINE
  5
C1
100
AcDbEntity
  8
A1
  6
CONTINUOUS
 62
7
100
AcDbLine
 10
324.5873581045823
 20
150.3426755687148
 30
0.000000000000000
 11
320.6355761045824
 21
172.3686413770536
 31
0.000000000000000
  0
LINE
  5
C2
100
AcDbEntity
  8
A1
  6
CONTINUOUS
 62
7
100
AcDbLine
 10
305.7130892247149
 20
175.9299103689777
 30
0.000000000000000
 11
305.7130892247149
 21
121.9299115907082
 31
0.000000000000000
  0
LINE
  5
C3
100
AcDbEntity
  8
A1
  6
CONTINUOUS
 62
7
100
AcDbLine
 10
315.7773800845637
 20
179.4354634284850
 30
0.000000000000000
 11
312.3886832247151
 21
180.6407878053104
 31
0.000000000000000
  0
LINE
  5
C4
100
AcDbEntity
  8
A1
  6
CONTINUOUS
 62
7
100
AcDbLine
 10
325.5716417145658
 20
150.5192705151828
 30
0.000000000000000
 11
321.6198597145659
 21
172.5452363235215
 31
0.000000000000000
  0
LINE
  5
C5
100
AcDbEntity
  8
A1
  6
CONTINUOUS
 62
7
100
AcDbLine
 10
321.6198600203932
 20
125.3145729916845
 30
0.000000000000000
 11
325.5716420203933
 21
147.3405631833458
 31
0.000000000000000
  0
LINE
  5
C6
100
AcDbEntity
  8
A1
  6
CONTINUOUS
 62
7
100
AcDbLine
 10
312.3887022247148
 20
117.2190348053101
 30
0.000000000000000
 11
315.7773782247149
 21
118.4243418053100
 31
0.000000000000000
  0
LINE
  5
C7
100
AcDbEntity
  8
A1
  6
CONTINUOUS
 62
7
100
AcDbLine
 10
306.7130892247149
 20
175.9299104562443
 30
0.000000000000000
 11
306.7130892247116
 21
121.9299141981846
 31
0.000000000000000
  0
LINE
  5
C8
100
AcDbEntity
  8
A1
  6
CONTINUOUS
 62
7
100
AcDbLine
 10
312.0535828616736
 20
118.1612104855922
 30
0.000000000000000
 11
315.4422588616736
 21
119.3665174855921
 31
0.000000000000000
  0
LINE
  5
C9
100
AcDbEntity
  8
A1
  6
CONTINUOUS
 62
7
100
AcDbLine
 10
320.6355763764291
 20
125.4911677487538
 30
0.000000000000000
 11
324.5873583764292
 21
147.5171579404152
 31
0.000000000000000
  0
LINE
  5
CA
100
AcDbEntity
  8
A1
  6
CONTINUOUS
 62
7
100
AcDbLine
 10
315.4422608779137
 20
178.4932876925766
 30
0.000000000000000
 11
312.0535615806680
 21
179.6986129363548
 31
0.000000000000000
  0
CIRCLE
  5
CB
100
AcDbEntity
  8
A1
  6
CONTINUOUS
 62
7
100
AcDbCircle
 10
316.7130892247843
 20
148.9299159969022
 30
0.000000000000000
 40
0.9999999999307648
  0
ARC
  5
CC
100
AcDbEntity
  8
A1
  6
CONTINUOUS
 62
7
100
AcDbCircle
 10
311.0708119724713
 20
146.2415694033703
 30
0.000000000000000
 40
0.9999999999999996
100
AcDbArc
 50
205.4761567613763
 51
278.7379000000000
  0
ARC
  5
CD
100
AcDbEntity
  8
A1
  6
CONTINUOUS
 62
7
100
AcDbCircle
 10
316.7130892248421
 20
148.9299159969812
 30
0.000000000000000
 40
7.250000000000000
100
AcDbArc
 50
171.9996432386235
 51
205.4761567613763
  0
ARC
  5
CE
100
AcDbEntity
  8
A1
  6
CONTINUOUS
 62
7
100
AcDbCircle
 10
310.5239192114752
 20
149.7997864158599
 30
0.000000000000000
 40
1.000000000000000
100
AcDbArc
 50
98.73790000000001
 51
171.9996432386235
  0
ARC
  5
CF
100
AcDbEntity
  8
A1
  6
CONTINUOUS
 62
7
100
AcDbCircle
 10
322.3553664772130
 20
151.6182625905920
 30
0.000000000000000
 40
1.000000000000000
100
AcDbArc
 50
25.47615676137636
 51
98.73790000000001
  0
ARC
  5
D0
100
AcDbEntity
  8
A1
  6
CONTINUOUS
 62
7
100
AcDbCircle
 10
316.7130892248421
 20
148.9299159969812
 30
0.000000000000000
 40
7.250000000000001
100
AcDbArc
 50
351.9996432386237
 51
385.4761567613763
  0
ARC
  5
D1
100
AcDbEntity
  8
A1
  6
CONTINUOUS
 62
7
100
AcDbCircle
 10
322.9022592382090
 20
148.0600455781024
 30
0.000000000000000
 40
0.9999999999999998
100
AcDbArc
 50
278.7379000000000
 51
351.9996432386237
  0
ARC
  5
D2
100
AcDbEntity
  8
A1
  6
CONTINUOUS
 62
7
100
AcDbCircle
 10
319.5558939917777
 20
154.4959703496702
 30
0.000000000000000
 40
1.000000000000000
100
AcDbArc
 50
323.7379000000031
 51
422.9447962213111
  0
ARC
  5
D3
100
AcDbEntity
  8
A1
  6
CONTINUOUS
 62
7
100
AcDbCircle
 10
312.3299947602501
 20
153.3853601852146
 30
0.000000000000000
 40
1.000000000000000
100
AcDbArc
 50
134.5310037786888
 51
233.7378999999969
  0
ARC
  5
D4
100
AcDbEntity
  8
A1
  6
CONTINUOUS
 62
7
100
AcDbCircle
 10
316.7130892248421
 20
148.9299159969812
 30
0.000000000000000
 40
7.250000000000000
100
AcDbArc
 50
62.94479622131122
 51
134.5310037786888
  0
ARC
  5
D5
100
AcDbEntity
  8
A1
  6
CONTINUOUS
 62
7
100
AcDbCircle
 10
313.8702844579098
 20
143.3638616442906
 30
0.000000000000000
 40
1.000000000000000
100
AcDbArc
 50
143.7379000000021
 51
242.9447962213457
  0
ARC
  5
D6
100
AcDbEntity
  8
A1
  6
CONTINUOUS
 62
7
100
AcDbCircle
 10
321.0961836894314
 20
144.4744718087452
 30
0.000000000000000
 40
1.000000000000000
100
AcDbArc
 50
314.5310037786545
 51
413.7378999999979
  0
ARC
  5
D7
100
AcDbEntity
  8
A1
  6
CONTINUOUS
 62
7
100
AcDbCircle
 10
316.7130892248421
 20
148.9299159969812
 30
0.000000000000000
 40
7.250000000000000
100
AcDbArc
 50
242.9447962213457
 51
314.5310037786545
  0
ARC
  5
D8
100
AcDbEntity
  8
A1
  6
CONTINUOUS
 62
7
100
AcDbCircle
 10
316.7130892248421
 20
148.9299159969812
 30
0.000000000000000
 40
4.000000000000000
100
AcDbArc
 50
53.73789999994479
 51
143.7379000000553
  0
ARC
  5
D9
100
AcDbEntity
  8
A1
  6
CONTINUOUS
 62
7
100
AcDbCircle
 10
316.7130892248421
 20
148.9299159969812
 30
0.000000000000000
 40
4.000000000000000
100
AcDbArc
 50
233.7378999999983
 51
323.7379000000017
  0
LINE
  5
DA
100
AcDbEntity
  8
A1
  6
CONTINUOUS
 62
7
100
AcDbLine
 10
319.0552303093372
 20
152.1227791541368
 30
0.000000000000000
 11
319.0790090010451
 21
152.1551948395888
 31
0.000000000000000
  0
LINE
  5
DB
100
AcDbEntity
  8
A1
  6
CONTINUOUS
 62
7
100
AcDbLine
 10
319.9059523819978
 20
146.5877749124863
 30
0.000000000000000
 11
319.9383680674498
 21
146.5639962207786
 31
0.000000000000000
  0
LINE
  5
DC
100
AcDbEntity
  8
A1
  6
CONTINUOUS
 62
7
100
AcDbLine
 10
314.3709481403471
 20
145.7370528398257
 30
0.000000000000000
 11
314.3471694486393
 21
145.7046371543736
 31
0.000000000000000
  0
LINE
  5
DD
100
AcDbEntity
  8
A1
  6
CONTINUOUS
 62
7
100
AcDbLine
 10
313.5202260676864
 20
151.2720570814761
 30
0.000000000000000
 11
313.4878103822344
 21
151.2958357731839
 31
0.000000000000000
  0
LINE
  5
DE
100
AcDbEntity
  8
A1
  6
CONTINUOUS
 62
7
100
AcDbLine
 10
319.6704889450987
 20
152.9615145502384
 30
0.000000000000000
 11
320.3622137024297
 21
153.9044904056195
 31
0.000000000000000
  0
LINE
  5
DF
100
AcDbEntity
  8
A1
  6
CONTINUOUS
 62
7
100
AcDbLine
 10
311.7385148161993
 20
152.5790404745627
 30
0.000000000000000
 11
312.6814906715803
 21
151.8873157172316
 31
0.000000000000000
  0
LINE
  5
E0
100
AcDbEntity
  8
A1
  6
CONTINUOUS
 62
7
100
AcDbLine
 10
321.6876636334821
 20
145.2807915193971
 30
0.000000000000000
 11
320.7446877781016
 21
145.9725162767278
 31
0.000000000000000
  0
LINE
  5
E1
100
AcDbEntity
  8
A1
  6
CONTINUOUS
 62
7
100
AcDbLine
 10
313.7556895045885
 20
144.8983174437217
 30
0.000000000000000
 11
313.0639647472578
 21
143.9553415883412
 31
0.000000000000000
  0
LINE
  5
E2
100
AcDbEntity
  8
A1
  6
CONTINUOUS
 62
7
100
AcDbLine
 10
319.0790090010447
 20
152.1551948395890
 30
0.000000000000000
 11
319.6704889450954
 21
152.9615145502410
 31
0.000000000000000
  0
LINE
  5
E3
100
AcDbEntity
  8
A1
  6
CONTINUOUS
 62
7
100
AcDbLine
 10
312.6814906715825
 20
151.8873157172350
 30
0.000000000000000
 11
313.4878103822345
 21
151.2958357731843
 31
0.000000000000000
  0
LINE
  5
E4
100
AcDbEntity
  8
A1
  6
CONTINUOUS
 62
7
100
AcDbLine
 10
314.3471694486395
 20
145.7046371543736
 30
0.000000000000000
 11
313.7556895045889
 21
144.8983174437215
 31
0.000000000000000
  0
LINE
  5
E5
100
AcDbEntity
  8
A1
  6
CONTINUOUS
 62
7
100
AcDbLine
 10
320.7446877781016
 20
145.9725162767275
 30
0.000000000000000
 11
319.9383680674497
 21
146.5639962207782
 31
0.000000000000000
  0
ARC
  5
E6
100
AcDbEntity
  8
A1
  6
CONTINUOUS
 62
7
100
AcDbCircle
 10
-1413.928631201360
 20
7694.520284834479
 30
0.000000000000000
 40
7742.244324247553
100
AcDbArc
 50
282.3856670633124
 51
282.4576561502783
  0
ARC
  5
E7
100
AcDbEntity
  8
A1
  6
CONTINUOUS
 62
7
100
AcDbCircle
 10
187.7130892247594
 20
171.9299159972663
 30
0.000000000000000
 40
4.300000000000000
100
AcDbArc
 50
268.3267853904777
 51
590.7203106825734
  0
CIRCLE
  5
E8
100
AcDbEntity
  8
A1
  6
CONTINUOUS
 62
7
100
AcDbCircle
 10
187.7130892247594
 20
125.9299159972663
 30
0.000000000000000
 40
4.300000000000000
  0
LINE
  5
E9
100
AcDbEntity
  8
A4
  6
CENTER
 62
1
100
AcDbLine
 10
181.9130892247594
 20
125.9299159972663
 30
0.000000000000000
 11
193.5130892247595
 21
125.9299159972663
 31
0.000000000000000
  0
LINE
  5
EA
100
AcDbEntity
  8
A4
  6
CENTER
 62
1
100
AcDbLine
 10
187.7130892247594
 20
131.7299159972663
 30
0.000000000000000
 11
187.7130892247594
 21
120.1299159972663
 31
0.000000000000000
  0
LINE
  5
EB
100
AcDbEntity
  8
A4
  6
CENTER
 62
1
100
AcDbLine
 10
181.9130892247594
 20
171.9299159972663
 30
0.000000000000000
 11
193.5130892247595
 21
171.9299159972663
 31
0.000000000000000
  0
LINE
  5
EC
100
AcDbEntity
  8
A4
  6
CENTER
 62
1
100
AcDbLine
 10
187.7130892247594
 20
177.7299159972663
 30
0.000000000000000
 11
187.7130892247594
 21
166.1299159972663
 31
0.000000000000000
  0
LINE
  5
ED
100
AcDbEntity
  8
A4
  6
CENTER
 62
1
100
AcDbLine
 10
195.2130892247593
 20
148.9299159972663
 30
0.000000000000000
 11
176.7130892246901
 21
148.9299159971970
 31
0.000000000000000
  0
LINE
  5
EE
100
AcDbEntity
  8
A4
  6
CENTER
 62
1
100
AcDbLine
 10
184.7130892246902
 20
140.9299159971970
 30
0.000000000000000
 11
184.7130892246902
 21
156.9299159971970
 31
0.000000000000000
  0
LINE
  5
EF
100
AcDbEntity
  8
A4
  6
CENTER
 62
1
100
AcDbLine
 10
267.2130892247590
 20
148.9299159970981
 30
0.000000000000000
 11
253.2130892247590
 21
148.9299159970981
 31
0.000000000000000
  0
LINE
  5
F0
100
AcDbEntity
  8
A1
  6
CONTINUOUS
 62
7
100
AcDbLine
 10
182.2060798888225
 20
132.6187049047056
 30
0.000000000000000
 11
179.1682042868764
 21
112.8535490650412
 31
0.000000000000000
  0
LINE
  5
F1
100
AcDbEntity
  8
A1
  6
CONTINUOUS
 62
7
100
AcDbLine
 10
179.8224595824891
 20
130.2755836234743
 30
0.000000000000000
 11
177.1914164376440
 21
113.1573784720098
 31
0.000000000000000
  0
LINE
  5
F2
100
AcDbEntity
  8
A1
  6
CONTINUOUS
 62
7
100
AcDbLine
 10
265.7130892247590
 20
116.9299125059481
 30
0.000000000000000
 11
265.7130892247590
 21
180.9299108055059
 31
0.000000000000000
  0
LINE
  5
F3
100
AcDbEntity
  8
A1
  6
CONTINUOUS
 62
7
100
AcDbLine
 10
260.7130892247590
 20
118.9299125059481
 30
0.000000000000000
 11
260.7130892247590
 21
178.9299108055059
 31
0.000000000000000
  0
LINE
  5
F4
100
AcDbEntity
  8
A1
  6
CONTINUOUS
 62
7
100
AcDbLine
 10
259.2130892247590
 20
135.2443802576511
 30
0.000000000000000
 11
259.2130892247590
 21
165.8715707330979
 31
0.000000000000000
  0
LINE
  5
F5
100
AcDbEntity
  8
A1
  6
CONTINUOUS
 62
7
100
AcDbLine
 10
257.2130892247590
 20
136.3162992366047
 30
0.000000000000000
 11
257.2130892247590
 21
165.8715707330981
 31
0.000000000000000
  0
LINE
  5
F6
100
AcDbEntity
  8
A1
  6
CONTINUOUS
 62
7
100
AcDbLine
 10
245.7130892247594
 20
116.8071235232639
 30
0.000000000000000
 11
245.7130892247594
 21
148.3834882764651
 31
0.000000000000000
  0
LINE
  5
F7
100
AcDbEntity
  8
A1
  6
CONTINUOUS
 62
7
100
AcDbLine
 10
322.2579741625902
 20
112.8535490647963
 30
0.000000000000000
 11
320.7388276042637
 21
122.7374852106269
 31
0.000000000000000
  0
LINE
  5
F8
100
AcDbEntity
  8
A1
  6
CONTINUOUS
 62
7
100
AcDbLine
 10
324.2347620118227
 20
113.1573784717648
 30
0.000000000000000
 11
322.0218485330535
 21
127.5551305520498
 31
0.000000000000000
  0
LINE
  5
F9
100
AcDbEntity
  8
A4
  6
CENTER
 62
1
100
AcDbLine
 10
259.2130892247590
 20
171.9299159971673
 30
0.000000000000000
 11
267.2130892247590
 21
171.9299159971673
 31
0.000000000000000
  0
LINE
  5
FA
100
AcDbEntity
  8
A4
  6
CENTER
 62
1
100
AcDbLine
 10
259.2130892247590
 20
125.9299159971673
 30
0.000000000000000
 11
267.2130892247590
 21
125.9299159971673
 31
0.000000000000000
  0
LINE
  5
FB
100
AcDbEntity
  8
A4
  6
CENTER
 62
1
100
AcDbLine
 10
307.4988756623444
 20
171.9299159969715
 30
0.000000000000000
 11
319.9273027870854
 21
171.9299159969715
 31
0.000000000000000
  0
LINE
  5
FC
100
AcDbEntity
  8
A4
  6
CENTER
 62
1
100
AcDbLine
 10
313.7130892247149
 20
178.1441295593420
 30
0.000000000000000
 11
313.7130892247149
 21
165.7157024346010
 31
0.000000000000000
  0
LINE
  5
FD
100
AcDbEntity
  8
A4
  6
CENTER
 62
1
100
AcDbLine
 10
316.7130892247149
 20
158.4299159969715
 30
0.000000000000000
 11
316.7130892247149
 21
139.4299159969715
 31
0.000000000000000
  0
LINE
  5
FE
100
AcDbEntity
  8
A4
  6
CENTER
 62
1
100
AcDbLine
 10
307.4988756623444
 20
125.9299159969715
 30
0.000000000000000
 11
319.9273027870854
 21
125.9299159969715
 31
0.000000000000000
  0
LINE
  5
FF
100
AcDbEntity
  8
A4
  6
CENTER
 62
1
100
AcDbLine
 10
313.7130892247149
 20
132.1441295593420
 30
0.000000000000000
 11
313.7130892247149
 21
119.7157024346010
 31
0.000000000000000
  0
LINE
  5
100
100
AcDbEntity
  8
A4
  6
CENTER
 62
1
100
AcDbLine
 10
326.2130892247150
 20
148.9299159969715
 30
0.000000000000000
 11
307.2130892247149
 21
148.9299159969715
 31
0.000000000000000
  0
LINE
  5
101
100
AcDbEntity
  8
A1
  6
CONTINUOUS
 62
7
100
AcDbLine
 10
312.7816850642045
 20
137.4565764618436
 30
0.000000000000000
 11
311.4863682255485
 21
151.7792308478436
 31
0.000000000000000
  0
ARC
  5
102
100
AcDbEntity
  8
A1
  6
CONTINUOUS
 62
7
100
AcDbCircle
 10
311.7857496925111
 20
137.3665057373537
 30
0.000000000000000
 40
2.200000000000000
100
AcDbArc
 50
332.9137723052018
 51
365.1676758305395
  0
ARC
  5
103
100
AcDbEntity
  8
A1
  6
CONTINUOUS
 62
7
100
AcDbCircle
 10
311.7857496925111
 20
137.3665057373535
 30
0.000000000000000
 40
1.000000000000000
100
AcDbArc
 50
332.9137723052012
 51
365.1676758305392
  0
ARC
  5
104
100
AcDbEntity
  8
A1
  6
CONTINUOUS
 62
7
100
AcDbCircle
 10
300.7448565221984
 20
146.0546730500375
 30
0.000000000000000
 40
20.00000000000000
100
AcDbArc
 50
359.7646375107810
 51
363.6885984705577
  0
ARC
  5
105
100
AcDbEntity
  8
A1
  6
CONTINUOUS
 62
7
100
AcDbCircle
 10
300.7448565221984
 20
146.0546730500375
 30
0.000000000000000
 40
21.20000000000000
100
AcDbArc
 50
357.2579630651949
 51
363.6885984705577
  0
LINE
  5
106
100
AcDbEntity
  8
A1
  6
CONTINUOUS
 62
7
100
AcDbLine
 10
320.2990026171971
 20
172.2673853441618
 30
0.000000000000000
 11
321.9009394517017
 21
147.4185480736305
 31
0.000000000000000
  0
LINE
  5
107
100
AcDbEntity
  8
A1
  6
CONTINUOUS
 62
7
100
AcDbLine
 10
321.8366390460656
 20
143.8023662628433
 30
0.000000000000000
 11
320.4313058812714
 21
124.6299159969714
 31
0.000000000000000
  0
LINE
  5
108
100
AcDbEntity
  8
A1
  6
CONTINUOUS
 62
7
100
AcDbLine
 10
320.5587680216043
 20
142.7839209927420
 30
0.000000000000000
 11
319.2345166487286
 21
124.7176401833139
 31
0.000000000000000
  0
LINE
  5
109
100
AcDbEntity
  8
A1
  6
CONTINUOUS
 62
7
100
AcDbLine
 10
319.2345166487286
 20
124.7176401833138
 30
0.000000000000000
 11
320.4313058812715
 21
124.6299159969715
 31
0.000000000000000
  0
LINE
  5
10A
100
AcDbEntity
  8
A1
  6
CONTINUOUS
 62
7
100
AcDbLine
 10
311.4253835808595
 20
152.9591224415532
 30
0.000000000000000
 11
311.4842420280290
 21
151.8027407655079
 31
0.000000000000000
  0
LINE
  5
10B
100
AcDbEntity
  8
A1
  6
CONTINUOUS
 62
7
100
AcDbLine
 10
310.8117963919171
 20
165.0141632397843
 30
0.000000000000000
 11
311.3867807354963
 21
153.7175458313639
 31
0.000000000000000
  0
LINE
  5
10C
100
AcDbEntity
  8
A1
  6
CONTINUOUS
 62
7
100
AcDbLine
 10
312.7478695698788
 20
151.1533470151488
 30
0.000000000000000
 11
313.5202260676863
 21
151.2720570814760
 31
0.000000000000000
  0
LINE
  5
10D
100
AcDbEntity
  8
A1
  6
CONTINUOUS
 62
7
100
AcDbLine
 10
310.3720045556429
 20
150.7881800304403
 30
0.000000000000000
 11
311.5594908567184
 21
150.9706949415772
 31
0.000000000000000
  0
LINE
  5
10E
100
AcDbEntity
  8
A1
  6
CONTINUOUS
 62
7
100
AcDbLine
 10
313.2532464498233
 20
145.5652637214683
 30
0.000000000000000
 11
314.3709481403470
 21
145.7370528398258
 31
0.000000000000000
  0
LINE
  5
10F
100
AcDbEntity
  8
A1
  6
CONTINUOUS
 62
7
100
AcDbLine
 10
311.2227266283036
 20
145.2531757887900
 30
0.000000000000000
 11
312.0648677366628
 21
145.3826116478965
 31
0.000000000000000
  0
LINE
  5
110
100
AcDbEntity
  8
A1
  6
CONTINUOUS
 62
7
100
AcDbLine
 10
313.9768075102363
 20
137.5646613312317
 30
0.000000000000000
 11
313.5384278557671
 21
142.4119389187995
 31
0.000000000000000
  0
LINE
  5
111
100
AcDbEntity
  8
A1
  6
CONTINUOUS
 62
7
100
AcDbLine
 10
313.3620899379482
 20
144.3617530312201
 30
0.000000000000000
 11
312.6814906715804
 21
151.8873157172317
 31
0.000000000000000
  0
ARC
  5
112
100
AcDbEntity
  8
A1
  6
CONTINUOUS
 62
7
100
AcDbCircle
 10
316.7130892247149
 20
148.9299159969715
 30
0.000000000000000
 40
8.000000000000000
100
AcDbArc
 50
132.2971723895611
 51
236.9533724308485
  0
ARC
  5
113
100
AcDbEntity
  8
A1
  6
CONTINUOUS
 62
7
100
AcDbCircle
 10
316.7130892247149
 20
148.9299159969715
 30
0.000000000000000
 40
8.000000000000000
100
AcDbArc
 50
64.67717963816229
 51
121.8939240539911
  0
ARC
  5
114
100
AcDbEntity
  8
A1
  6
CONTINUOUS
 62
7
100
AcDbCircle
 10
316.7130892247149
 20
148.9299159969715
 30
0.000000000000000
 40
8.000000000000000
100
AcDbArc
 50
49.11392878106852
 51
54.26980668945513
  0
LINE
  5
115
100
AcDbEntity
  8
A1
  6
CONTINUOUS
 62
7
100
AcDbLine
 10
320.2869332840585
 20
153.8018663255141
 30
0.000000000000000
 11
320.7034253236166
 21
147.3413476005968
 31
0.000000000000000
  0
LINE
  5
116
100
AcDbEntity
  8
A1
  6
CONTINUOUS
 62
7
100
AcDbLine
 10
319.1014884891120
 20
172.1901848711282
 30
0.000000000000000
 11
320.1924681257931
 21
155.2671858655298
 31
0.000000000000000
  0
LINE
  5
117
100
AcDbEntity
  8
A1
  6
CONTINUOUS
 62
7
100
AcDbLine
 10
322.2034518213806
 20
152.6066562051725
 30
0.000000000000000
 11
321.5727258212749
 21
152.5097145396083
 31
0.000000000000000
  0
LINE
  5
118
100
AcDbEntity
  8
A1
  6
CONTINUOUS
 62
7
100
AcDbLine
 10
320.3820328019215
 20
152.3267067605528
 30
0.000000000000000
 11
319.0552303093372
 21
152.1227791541368
 31
0.000000000000000
  0
LINE
  5
119
100
AcDbEntity
  8
A1
  6
CONTINUOUS
 62
7
100
AcDbLine
 10
323.0541738940412
 20
147.0716519635221
 30
0.000000000000000
 11
321.9280536311290
 21
146.8985689228768
 31
0.000000000000000
  0
LINE
  5
11A
100
AcDbEntity
  8
A1
  6
CONTINUOUS
 62
7
100
AcDbLine
 10
320.7339515298577
 20
146.7150371729067
 30
0.000000000000000
 11
319.9059523819978
 21
146.5877749124863
 31
0.000000000000000
  0
ARC
  5
11B
100
AcDbEntity
  8
A1
  6
CONTINUOUS
 62
7
100
AcDbCircle
 10
316.7130892247149
 20
148.9299159969715
 30
0.000000000000000
 40
8.000000000000000
100
AcDbArc
 50
309.0893982070186
 51
310.8860822439315
  0
ARC
  5
11C
100
AcDbEntity
  8
A1
  6
CONTINUOUS
 62
7
100
AcDbCircle
 10
316.7130892247149
 20
148.9299159969715
 30
0.000000000000000
 40
8.000000000000000
100
AcDbArc
 50
247.2239223536748
 51
298.1913562839765
  0
LINE
  5
11D
100
AcDbEntity
  8
A1
  6
CONTINUOUS
 62
7
100
AcDbLine
 10
314.3106340926304
 20
147.5917421150260
 30
0.000000000000000
 11
316.1581446330844
 21
146.2364913181990
 31
0.000000000000000
  0
LINE
  5
11E
100
AcDbEntity
  8
A1
  6
CONTINUOUS
 62
7
100
AcDbLine
 10
317.2680337973939
 20
151.6233406796486
 30
0.000000000000000
 11
319.1155443662153
 21
150.2680898620125
 31
0.000000000000000
  0
LINE
  5
11F
100
AcDbEntity
  8
A1
  6
CONTINUOUS
 62
7
100
AcDbLine
 10
319.4065139073920
 20
148.3749714242929
 30
0.000000000000000
 11
318.0512630897558
 21
146.5274608554713
 31
0.000000000000000
  0
LINE
  5
120
100
AcDbEntity
  8
A1
  6
CONTINUOUS
 62
7
100
AcDbLine
 10
315.3749153427696
 20
151.3323711290561
 30
0.000000000000000
 11
314.0196645459425
 21
149.4848605886020
 31
0.000000000000000
  0
ARC
  5
121
100
AcDbEntity
  8
A1
  6
CONTINUOUS
 62
7
100
AcDbCircle
 10
316.7130892247149
 20
148.9299159969715
 30
0.000000000000000
 40
2.750000000000000
100
AcDbArc
 50
348.3578775488044
 51
389.1179224883341
  0
ARC
  5
122
100
AcDbEntity
  8
A1
  6
CONTINUOUS
 62
7
100
AcDbCircle
 10
316.7130892247149
 20
148.9299159969715
 30
0.000000000000000
 40
2.750000000000000
100
AcDbArc
 50
258.3578771456458
 51
299.1179224883312
  0
ARC
  5
123
100
AcDbEntity
  8
A1
  6
CONTINUOUS
 62
7
100
AcDbCircle
 10
316.7130892247149
 20
148.9299159969715
 30
0.000000000000000
 40
2.750000000000000
100
AcDbArc
 50
168.3578771456488
 51
209.1179228914887
  0
ARC
  5
124
100
AcDbEntity
  8
A1
  6
CONTINUOUS
 62
7
100
AcDbCircle
 10
316.7130892247149
 20
148.9299159969715
 30
0.000000000000000
 40
2.750000000000000
100
AcDbArc
 50
78.35787754880053
 51
119.1179228914860
  0
LINE
  5
125
100
AcDbEntity
  8
A1
  6
CONTINUOUS
 62
7
100
AcDbLine
 10
316.5235538111984
 20
151.6733766449530
 30
0.000000000000000
 11
316.2619257149797
 21
151.8652952718566
 31
0.000000000000000
  0
LINE
  5
126
100
AcDbEntity
  8
A1
  6
CONTINUOUS
 62
7
100
AcDbLine
 10
316.2619257149796
 20
151.8652952718566
 30
0.000000000000000
 11
316.0700070880955
 21
151.6036671756643
 31
0.000000000000000
  0
LINE
  5
127
100
AcDbEntity
  8
A1
  6
CONTINUOUS
 62
7
100
AcDbLine
 10
313.9696285767527
 20
148.7403805831771
 30
0.000000000000000
 11
313.7777099499666
 21
148.4787524871184
 31
0.000000000000000
  0
LINE
  5
128
100
AcDbEntity
  8
A1
  6
CONTINUOUS
 62
7
100
AcDbLine
 10
313.7777099499665
 20
148.4787524871186
 30
0.000000000000000
 11
314.0393380460272
 21
148.2868338603310
 31
0.000000000000000
  0
LINE
  5
129
100
AcDbEntity
  8
A1
  6
CONTINUOUS
 62
7
100
AcDbLine
 10
316.9026246384880
 20
146.1864553490077
 30
0.000000000000000
 11
317.1642527347047
 21
145.9945367221057
 31
0.000000000000000
  0
LINE
  5
12A
100
AcDbEntity
  8
A1
  6
CONTINUOUS
 62
7
100
AcDbLine
 10
317.1642527347045
 20
145.9945367221057
 30
0.000000000000000
 11
317.3561713616259
 21
146.2561648183488
 31
0.000000000000000
  0
LINE
  5
12B
100
AcDbEntity
  8
A1
  6
CONTINUOUS
 62
7
100
AcDbLine
 10
319.4565498726979
 20
149.1194514104667
 30
0.000000000000000
 11
319.6484684997176
 21
149.3810795068437
 31
0.000000000000000
  0
LINE
  5
12C
100
AcDbEntity
  8
A1
  6
CONTINUOUS
 62
7
100
AcDbLine
 10
319.6484684997176
 20
149.3810795068437
 30
0.000000000000000
 11
319.3868404033425
 21
149.5729981338619
 31
0.000000000000000
  0
LINE
  5
12D
100
AcDbEntity
  8
A5
  6
PHANTOM
 62
6
100
AcDbLine
 10
182.3693906627638
 20
168.0717406662193
 30
0.000000000000000
 11
178.4930757181572
 21
184.9515960591982
 31
0.000000000000000
  0
LINE
  5
12E
100
AcDbEntity
  8
A5
  6
PHANTOM
 62
6
100
AcDbLine
 10
178.4930757181571
 20
184.9515960591982
 30
0.000000000000000
 11
176.5438127974433
 21
184.5039644406434
 31
0.000000000000000
  0
LINE
  5
12F
100
AcDbEntity
  8
A5
  6
PHANTOM
 62
6
100
AcDbLine
 10
181.0195132472943
 20
165.0140137218160
 30
0.000000000000000
 11
176.5438121860053
 21
184.5039643002318
 31
0.000000000000000
  0
SPLINE
  5
130
100
AcDbEntity
  8
A5
  6
PHANTOM
 62
6
100
AcDbSpline
210
0.000000000000000
220
0.000000000000000
230
1.000000000000000
 70
     8
 71
     3
 72
    23
 73
    19
 74
     0
 42
1.000000000000000e-07
 43
1.000000000000000e-07
 12
-0.9998422622613816
 22
-0.01776092890531800
 32
0.000000000000000
 13
-0.2241547535008976
 23
0.9745535626548190
 33
0.000000000000000
 40
0.000000000000000
 40
0.000000000000000
 40
0.000000000000000
 40
0.000000000000000
 40
0.3295619766893667
 40
0.6591270962650235
 40
0.9983964339692053
 40
1.337669791992448
 40
1.667179426967875
 40
1.996693228387137
 40
2.335503333470164
 40
2.674318197464538
 40
3.008851002781707
 40
3.343387942344111
 40
3.687208374752585
 40
4.031032533059968
 40
4.403721720152232
 40
4.776414273788101
 40
5.161651519285352
 40
5.546889710050777
 40
5.546889710050777
 40
5.546889710050777
 40
5.546889710050777
 10
184.4318229120041
 20
164.4273638277393
 30
0.000000000000000
 10
184.3219862478946
 20
164.4254127187934
 30
0.000000000000000
 10
184.1020373831327
 20
164.4306674647778
 30
0.000000000000000
 10
183.7707975582975
 20
164.4664906881948
 30
0.000000000000000
 10
183.4405868471440
 20
164.5310097808053
 30
0.000000000000000
 10
183.1170964005641
 20
164.6234073804123
 30
0.000000000000000
 10
182.8056265563511
 20
164.7416056400573
 30
0.000000000000000
 10
182.5050182597565
 20
164.8848288412554
 30
0.000000000000000
 10
182.2146977939591
 20
165.0541905489903
 30
0.000000000000000
 10
181.9381012139955
 20
165.2480670417149
 30
0.000000000000000
 10
181.6796538654025
 20
165.4633057779467
 30
0.000000000000000
 10
181.4383420554024
 20
165.6999777185076
 30
0.000000000000000
 10
181.2153804096290
 20
165.9581519580290
 30
0.000000000000000
 10
181.0070003858316
 20
166.2441288860367
 30
0.000000000000000
 10
180.8191218857225
 20
166.5553797202605
 30
0.000000000000000
 10
180.6535311334921
 20
166.8944814486667
 30
0.000000000000000
 10
180.5179344976372
 20
167.2511507592712
 30
0.000000000000000
 10
180.4489114252272
 20
167.4989639510030
 30
0.000000000000000
 10
180.4201271013305
 20
167.6241090347634
 30
0.000000000000000
  0
SPLINE
  5
131
100
AcDbEntity
  8
A5
  6
PHANTOM
 62
6
100
AcDbSpline
210
0.000000000000000
220
0.000000000000000
230
1.000000000000000
 70
     8
 71
     3
 72
     9
 73
     5
 74
     0
 42
1.000000000000000e-07
 43
1.000000000000000e-07
 12
-0.4212835250040143
 22
0.9069289892599954
 32
0.000000000000000
 13
-0.2236260861858455
 23
0.9746750092093635
 33
0.000000000000000
 40
0.000000000000000
 40
0.000000000000000
 40
0.000000000000000
 40
0.000000000000000
 40
0.6480640599851742
 40
1.297573210167191
 40
1.297573210167191
 40
1.297573210167191
 40
1.297573210167191
 10
181.4396443228916
 20
163.7882265052318
 30
0.000000000000000
 10
181.3486380856852
 20
163.9841425328644
 30
0.000000000000000
 10
181.1866497219653
 20
164.3861490375215
 30
0.000000000000000
 10
181.0679289770268
 20
164.8029936095041
 30
0.000000000000000
 10
181.0195132472944
 20
165.0140137218159
 30
0.000000000000000
  0
LINE
  5
132
100
AcDbEntity
  8
A5
  6
PHANTOM
 62
6
100
AcDbLine
 10
183.7372745034173
 20
162.1151345197682
 30
0.000000000000000
 11
183.9487302032858
 21
161.1943265650979
 31
0.000000000000000
  0
SPLINE
  5
133
100
AcDbEntity
  8
A5
  6
PHANTOM
 62
6
100
AcDbSpline
210
0.000000000000000
220
0.000000000000000
230
1.000000000000000
 70
     8
 71
     3
 72
    13
 73
     9
 74
     0
 42
1.000000000000000e-07
 43
1.000000000000000e-07
 12
0.7094967127293330
 22
-0.7047087445348552
 32
0.000000000000000
 13
0.9526507669638704
 23
-0.3040666311921996
 33
0.000000000000000
 40
0.000000000000000
 40
0.000000000000000
 40
0.000000000000000
 40
0.000000000000000
 40
0.3154904748712180
 40
0.6328745677494811
 40
0.9490760097717084
 40
1.265273742438776
 40
1.589627480919971
 40
1.913976787342362
 40
1.913976787342362
 40
1.913976787342362
 40
1.913976787342362
 10
182.2172108359700
 20
162.6645602005153
 30
0.000000000000000
 10
182.2918239875762
 20
162.5904505683623
 30
0.000000000000000
 10
182.4472786556460
 20
162.4474793373667
 30
0.000000000000000
 10
182.6962166857254
 20
162.2517591205127
 30
0.000000000000000
 10
182.9598717922573
 20
162.0759103907566
 30
0.000000000000000
 10
183.2384465403275
 20
161.9199806706316
 30
0.000000000000000
 10
183.5310589794343
 20
161.7856518803878
 30
0.000000000000000
 10
183.7345024115102
 20
161.7115674369619
 30
0.000000000000000
 10
183.8374996166860
 20
161.6786928366508
 30
0.000000000000000
  0
ARC
  5
134
100
AcDbEntity
  8
A5
  6
PHANTOM
 62
6
100
AcDbCircle
 10
184.9364212292056
 20
165.8729560833669
 30
0.000000000000000
 40
3.944512108463647
100
AcDbArc
 50
252.3017589781265
 51
269.2297133387108
  0
SPLINE
  5
135
100
AcDbEntity
  8
A5
  6
PHANTOM
 62
6
100
AcDbSpline
210
0.000000000000000
220
0.000000000000000
230
1.000000000000000
 70
     8
 71
     3
 72
    12
 73
     8
 74
     0
 42
1.000000000000000e-07
 43
1.000000000000000e-07
 12
-0.7085152424788248
 22
0.7056955088241921
 32
0.000000000000000
 13
-0.4220191203548893
 23
0.9065869302257852
 33
0.000000000000000
 40
0.000000000000000
 40
0.000000000000000
 40
0.000000000000000
 40
0.000000000000000
 40
0.3326575956942814
 40
0.6681388689883675
 40
0.9811490224800929
 40
1.280138307047628
 40
1.373250948403831
 40
1.373250948403831
 40
1.373250948403831
 40
1.373250948403831
 10
182.2172108359700
 20
162.6645602005153
 30
0.000000000000000
 10
182.1386465102781
 20
162.7428118576012
 30
0.000000000000000
 10
181.9877922439852
 20
162.9071541991611
 30
0.000000000000000
 10
181.7896531181061
 20
163.1678963931419
 30
0.000000000000000
 10
181.6201245927744
 20
163.4347451507250
 30
0.000000000000000
 10
181.5091932036279
 20
163.6422005853173
 30
0.000000000000000
 10
181.4527427612246
 20
163.7600882706677
 30
0.000000000000000
 10
181.4396443228916
 20
163.7882265052318
 30
0.000000000000000
  0
ARC
  5
136
100
AcDbEntity
  8
A5
  6
PHANTOM
 62
6
100
AcDbCircle
 10
184.7130892246402
 20
148.9299159971649
 30
0.000000000000000
 40
13.00000000000000
100
AcDbArc
 50
12.93325326520022
 51
89.24938870193347
  0
ARC
  5
137
100
AcDbEntity
  8
A5
  6
PHANTOM
 62
6
100
AcDbCircle
 10
184.7130892246402
 20
148.9299159971649
 30
0.000000000000000
 40
15.50000000000000
100
AcDbArc
 50
26.27606761924381
 51
91.03975852836183
  0
SPLINE
  5
138
100
AcDbEntity
  8
A5
  6
PHANTOM
 62
6
100
AcDbSpline
210
0.000000000000000
220
0.000000000000000
230
1.000000000000000
 70
     8
 71
     3
 72
    15
 73
    11
 74
     0
 42
1.000000000000000e-07
 43
1.000000000000000e-07
 12
0.2258636983192446
 22
-0.9741589140287488
 32
0.000000000000000
 13
0.9998677795690583
 23
0.01626110011920900
 33
0.000000000000000
 40
0.000000000000000
 40
0.000000000000000
 40
0.000000000000000
 40
0.000000000000000
 40
0.3515403625610908
 40
0.7030678188235133
 40
1.054793190029666
 40
1.406483099690128
 40
1.754179280374890
 40
2.101833669280690
 40
2.437296768145645
 40
2.772733031747653
 40
2.772733031747653
 40
2.772733031747653
 40
2.772733031747653
 10
182.3693906627639
 20
168.0717406662193
 30
0.000000000000000
 10
182.3958573982295
 20
167.9575886069427
 30
0.000000000000000
 10
182.4676484889956
 20
167.7331901102094
 30
0.000000000000000
 10
182.6296102772517
 20
167.4192758462497
 30
0.000000000000000
 10
182.8429529524003
 20
167.1376128241980
 30
0.000000000000000
 10
183.0993233781415
 20
166.8962606860205
 30
0.000000000000000
 10
183.3926997171502
 20
166.7040613056762
 30
0.000000000000000
 10
183.7093395239092
 20
166.5661970170203
 30
0.000000000000000
 10
184.0410205409866
 20
166.4865052341604
 30
0.000000000000000
 10
184.2653879457297
 20
166.4715957835717
 30
0.000000000000000
 10
184.3771852497545
 20
166.4734139711271
 30
0.000000000000000
  0
ARC
  5
139
100
AcDbEntity
  8
A5
  6
PHANTOM
 62
6
100
AcDbCircle
 10
184.7130892246402
 20
148.9299159971649
 30
0.000000000000000
 40
17.54671344277210
100
AcDbArc
 50
23.45570766863978
 51
91.09690375045724
  0
SPLINE
  5
13A
100
AcDbEntity
  8
A5
  6
PHANTOM
 62
6
100
AcDbSpline
210
0.000000000000000
220
0.000000000000000
230
1.000000000000000
 70
     8
 71
     3
 72
    11
 73
     7
 74
     0
 42
1.000000000000000e-07
 43
1.000000000000000e-07
 12
-0.1903534083523937
 22
0.9817156308874928
 32
0.000000000000000
 13
-0.3981374946316691
 23
0.9173257520468496
 33
0.000000000000000
 40
0.000000000000000
 40
0.000000000000000
 40
0.000000000000000
 40
0.000000000000000
 40
0.7914465647295599
 40
1.590206842745151
 40
2.402401426320837
 40
3.219441277696507
 40
3.219441277696507
 40
3.219441277696507
 40
3.219441277696507
 10
201.7622155303240
 20
152.8451025643139
 30
0.000000000000000
 10
201.7119973466157
 20
153.1040943855164
 30
0.000000000000000
 10
201.5970764338904
 20
153.6218663908845
 30
0.000000000000000
 10
201.3812461591696
 20
154.3934298606613
 30
0.000000000000000
 10
201.1209067916895
 20
155.1601582833343
 30
0.000000000000000
 10
200.9183149564492
 20
155.6643795891294
 30
0.000000000000000
 10
200.8098835566355
 20
155.9142101545012
 30
0.000000000000000
  0
SPLINE
  5
13B
100
AcDbEntity
  8
A5
  6
PHANTOM
 62
6
100
AcDbSpline
210
0.000000000000000
220
0.000000000000000
230
1.000000000000000
 70
     8
 71
     3
 72
    11
 73
     7
 74
     0
 42
1.000000000000000e-07
 43
1.000000000000000e-07
 12
0.4428537055749757
 22
-0.8965938854679507
 32
0.000000000000000
 13
0.1871013389169320
 23
-0.9823406175942750
 33
0.000000000000000
 40
0.000000000000000
 40
0.000000000000000
 40
0.000000000000000
 40
0.000000000000000
 40
0.8909745823171505
 40
1.785877403215460
 40
2.694870356963930
 40
3.604741470919019
 40
3.604741470919019
 40
3.604741470919019
 40
3.604741470919019
 10
198.6114962733185
 20
155.7917147051751
 30
0.000000000000000
 10
198.7430200717692
 20
155.5254339176374
 30
0.000000000000000
 10
198.9890737784960
 20
154.9828122153552
 30
0.000000000000000
 10
199.3052591118024
 20
154.1413214798716
 30
0.000000000000000
 10
199.5655745524373
 20
153.2742759774985
 30
0.000000000000000
 10
199.6994891728773
 20
152.6823807284242
 30
0.000000000000000
 10
199.7562352074316
 20
152.3844462777529
 30
0.000000000000000
  0
ARC
  5
13C
100
AcDbEntity
  8
A5
  6
PHANTOM
 62
6
100
AcDbCircle
 10
184.4774150538956
 20
149.4909168273787
 30
0.000000000000000
 40
17.60723968905409
100
AcDbArc
 50
1.286836192223493
 51
10.98198685638719
  0
SPLINE
  5
13D
100
AcDbEntity
  8
A5
  6
PHANTOM
 62
6
100
AcDbSpline
210
0.000000000000000
220
0.000000000000000
230
1.000000000000000
 70
     8
 71
     3
 72
    11
 73
     7
 74
     0
 42
1.000000000000000e-07
 43
1.000000000000000e-07
 12
0.1869239677129144
 22
-0.9823743839771168
 32
0.000000000000000
 13
-0.01152078085294761
 23
-0.9999336336016995
 33
0.000000000000000
 40
0.000000000000000
 40
0.000000000000000
 40
0.000000000000000
 40
0.000000000000000
 40
0.8136418419050404
 40
1.623216093954848
 40
2.433916775170910
 40
3.237491704625319
 40
3.237491704625319
 40
3.237491704625319
 40
3.237491704625319
 10
199.7562352074316
 20
152.3844462777529
 30
0.000000000000000
 10
199.8069315945603
 20
152.1180126433464
 30
0.000000000000000
 10
199.8948479420247
 20
151.5838637152722
 30
0.000000000000000
 10
199.9867234800651
 20
150.7774537899399
 30
0.000000000000000
 10
200.0380159184840
 20
149.9708039462053
 30
0.000000000000000
 10
200.0451891694945
 20
149.4324974139524
 30
0.000000000000000
 10
200.0421032326074
 20
149.1646568809255
 30
0.000000000000000
  0
ARC
  5
13E
100
AcDbEntity
  8
A5
  6
PHANTOM
 62
6
100
AcDbCircle
 10
180.0348582149267
 20
147.8556001126332
 30
0.000000000000000
 40
17.80000000000013
100
AcDbArc
 50
298.5774629640571
 51
372.9332532652825
  0
SPLINE
  5
13F
100
AcDbEntity
  8
A5
  6
PHANTOM
 62
6
100
AcDbSpline
210
0.000000000000000
220
0.000000000000000
230
1.000000000000000
 70
     8
 71
     3
 72
    24
 73
    20
 74
     0
 42
1.000000000000000e-07
 43
1.000000000000000e-07
 12
-0.01179663685047672
 22
-0.9999304172589518
 32
0.000000000000000
 13
-0.8166700215156197
 23
-0.5771049089712506
 33
0.000000000000000
 40
0.000000000000000
 40
0.000000000000000
 40
0.000000000000000
 40
0.000000000000000
 40
0.9965371271563505
 40
1.994844928735737
 40
2.994111029633749
 40
3.993536093732885
 40
5.200321329633569
 40
6.413965577893726
 40
7.632768369619987
 40
8.855016710094214
 40
10.07906749880277
 40
11.30342972141473
 40
12.49481252938067
 40
13.69525622024258
 40
14.90250178262609
 40
16.11428710250248
 40
17.32843640441007
 40
18.54294956294972
 40
19.15015686915572
 40
19.15015686915572
 40
19.15015686915572
 40
19.15015686915572
 10
200.0421032326074
 20
149.1646568809255
 30
0.000000000000000
 10
200.0381846370751
 20
148.8325009524684
 30
0.000000000000000
 10
200.0140020963103
 20
148.1676739852568
 30
0.000000000000000
 10
199.9285070263400
 20
147.1729197754148
 30
0.000000000000000
 10
199.7940916222999
 20
146.1825914534554
 30
0.000000000000000
 10
199.5984203712387
 20
145.1317374317130
 30
0.000000000000000
 10
199.3277446469518
 20
144.0236467578787
 30
0.000000000000000
 10
198.9693519507153
 20
142.8639712527105
 30
0.000000000000000
 10
198.5409072990758
 20
141.7228013744598
 30
0.000000000000000
 10
198.0440640627616
 20
140.6059012552810
 30
0.000000000000000
 10
197.4805206871656
 20
139.5190266388356
 30
0.000000000000000
 10
196.8575019359251
 20
138.4770428451994
 30
0.000000000000000
 10
196.1763604211114
 20
137.4816737928140
 30
0.000000000000000
 10
195.4410510408185
 20
136.5328673343519
 30
0.000000000000000
 10
194.6470583339377
 20
135.6235532203841
 30
0.000000000000000
 10
193.7980849623516
 20
134.7589169231296
 30
0.000000000000000
 10
192.8979446402084
 20
133.9440642762081
 30
0.000000000000000
 10
192.1077885990668
 20
133.3107733102947
 30
0.000000000000000
 10
191.6171394533628
 20
132.9528497809434
 30
0.000000000000000
 10
191.4518434520882
 20
132.8360423418852
 30
0.000000000000000
  0
SPLINE
  5
140
100
AcDbEntity
  8
A5
  6
PHANTOM
 62
6
100
AcDbSpline
210
0.000000000000000
220
0.000000000000000
230
1.000000000000000
 70
     8
 71
     3
 72
    27
 73
    23
 74
     0
 42
1.000000000000000e-07
 43
1.000000000000000e-07
 12
0.02195974339275608
 22
-0.9997588557600920
 32
0.000000000000000
 13
-0.8347741127520294
 23
-0.5505925723057317
 33
0.000000000000000
 40
0.000000000000000
 40
0.000000000000000
 40
0.000000000000000
 40
0.000000000000000
 40
1.225740415426370
 40
2.453913748147056
 40
3.683165537240447
 40
4.912159639040525
 40
6.213838639415771
 40
7.518952992430415
 40
8.825795942814052
 40
9.838049534315049
 40
10.85333436887769
 40
11.87075408381882
 40
12.88943695386231
 40
14.17275575141809
 40
15.46104856582986
 40
16.75227833344180
 40
17.75471056546776
 40
18.76064185632762
 40
19.76893979114741
 40
20.77849760832952
 40
21.67163384623868
 40
22.56641992798258
 40
22.56641992798258
 40
22.56641992798258
 40
22.56641992798258
 10
202.0802141159650
 20
149.8863338834173
 30
0.000000000000000
 10
202.0891864309613
 20
149.4778522716887
 30
0.000000000000000
 10
202.0847443278587
 20
148.6594047749741
 30
0.000000000000000
 10
202.0103696167840
 20
147.4333483455910
 30
0.000000000000000
 10
201.8688712836572
 20
146.2120870219695
 30
0.000000000000000
 10
201.6561999143895
 20
144.9763124799841
 30
0.000000000000000
 10
201.3675355254524
 20
143.7299677745073
 30
0.000000000000000
 10
200.9994890645073
 20
142.4776605059688
 30
0.000000000000000
 10
200.5915628657832
 20
141.3397765650556
 30
0.000000000000000
 10
200.1621737271487
 20
140.3142137961693
 30
0.000000000000000
 10
199.7279851461388
 20
139.3963960463397
 30
0.000000000000000
 10
199.2516508764650
 20
138.4972999385208
 30
0.000000000000000
 10
198.6895138300330
 20
137.5438310768225
 30
0.000000000000000
 10
198.0287085740993
 20
136.5452172706387
 30
0.000000000000000
 10
197.2573756945327
 20
135.5133410157034
 30
0.000000000000000
 10
196.4883183278776
 20
134.5991127720800
 30
0.000000000000000
 10
195.7375917888885
 20
133.7948219259313
 30
0.000000000000000
 10
195.0190009954134
 20
133.0909398670879
 30
0.000000000000000
 10
194.2679027467961
 20
132.4183003176257
 30
0.000000000000000
 10
193.5164271480539
 20
131.8038999912371
 30
0.000000000000000
 10
192.7698381554999
 20
131.2448145666435
 30
0.000000000000000
 10
192.2788148597525
 20
130.9067250623793
 30
0.000000000000000
 10
192.0298334405889
 20
130.7425042055757
 30
0.000000000000000
  0
SPLINE
  5
141
100
AcDbEntity
  8
A5
  6
PHANTOM
 62
6
100
AcDbSpline
210
0.000000000000000
220
0.000000000000000
230
1.000000000000000
 70
     8
 71
     3
 72
    21
 73
    17
 74
     0
 42
1.000000000000000e-07
 43
1.000000000000000e-07
 12
0.2758674569186041
 22
-0.9611956857015684
 32
0.000000000000000
 13
0.8345771583562964
 23
0.5508910661383197
 33
0.000000000000000
 40
0.000000000000000
 40
0.000000000000000
 40
0.000000000000000
 40
0.000000000000000
 40
0.08134187504662750
 40
0.1731059712403568
 40
0.2890240849853128
 40
0.4372001395532708
 40
0.6198757394012260
 40
0.8359188269757094
 40
1.077519865985217
 40
1.348582275348747
 40
1.644401870518067
 40
1.955550037612963
 40
2.285343618023557
 40
2.628102654282066
 40
2.930167214960705
 40
3.237512163279434
 40
3.237512163279434
 40
3.237512163279434
 40
3.237512163279434
 10
189.0912215311310
 20
129.8648396860363
 30
0.000000000000000
 10
189.0987013898677
 20
129.8387778662491
 30
0.000000000000000
 10
189.1251104179259
 20
129.7845204435041
 30
0.000000000000000
 10
189.2095650606297
 20
129.7312966651933
 30
0.000000000000000
 10
189.3251514905184
 20
129.7014788818148
 30
0.000000000000000
 10
189.4746541548312
 20
129.6938241508194
 30
0.000000000000000
 10
189.6566844784868
 20
129.7080005427186
 30
0.000000000000000
 10
189.8672042116318
 20
129.7448588228639
 30
0.000000000000000
 10
190.1027593992506
 20
129.8048498887420
 30
0.000000000000000
 10
190.3595657214482
 20
129.8870310318384
 30
0.000000000000000
 10
190.6333105264299
 20
129.9909518982237
 30
0.000000000000000
 10
190.9194981903507
 20
130.1161261584608
 30
0.000000000000000
 10
191.2140332650358
 20
130.2604488558623
 30
0.000000000000000
 10
191.4997286996055
 20
130.4153095964064
 30
0.000000000000000
 10
191.7729076427254
 20
130.5770001212768
 30
0.000000000000000
 10
191.9443324160546
 20
130.6860663434919
 30
0.000000000000000
 10
192.0298334405889
 20
130.7425042055757
 30
0.000000000000000
  0
SPLINE
  5
142
100
AcDbEntity
  8
A5
  6
PHANTOM
 62
6
100
AcDbSpline
210
0.000000000000000
220
0.000000000000000
230
1.000000000000000
 70
     8
 71
     3
 72
    21
 73
    17
 74
     0
 42
1.000000000000000e-07
 43
1.000000000000000e-07
 12
-0.8163771032795921
 22
-0.5775191990221629
 32
0.000000000000000
 13
-0.2338804581304430
 23
0.9722653605376763
 33
0.000000000000000
 40
0.000000000000000
 40
0.000000000000000
 40
0.000000000000000
 40
0.000000000000000
 40
0.3770237937154394
 40
0.7454408160355578
 40
1.098809026518425
 40
1.434679110688691
 40
1.748832481557478
 40
2.034969796597232
 40
2.277499683432588
 40
2.491070274330206
 40
2.672852985100978
 40
2.821528474084961
 40
2.941065388672842
 40
3.035208392003075
 40
3.094990136456450
 40
3.152908310218826
 40
3.152908310218826
 40
3.152908310218826
 40
3.152908310218826
 10
191.4518434520882
 20
132.8360423418852
 30
0.000000000000000
 10
191.3492455878946
 20
132.7634628487656
 30
0.000000000000000
 10
191.1432568655863
 20
132.6243397616956
 30
0.000000000000000
 10
190.8313522020117
 20
132.4321316397200
 30
0.000000000000000
 10
190.5232755317339
 20
132.2604552870532
 30
0.000000000000000
 10
190.2233784542060
 20
132.1120620575257
 30
0.000000000000000
 10
189.9369828041519
 20
131.9878039848252
 30
0.000000000000000
 10
189.6733505501046
 20
131.8902223285918
 30
0.000000000000000
 10
189.4361331537800
 20
131.8193035637568
 30
0.000000000000000
 10
189.2284209541320
 20
131.7728827487886
 30
0.000000000000000
 10
189.0483880589412
 20
131.7487814914772
 30
0.000000000000000
 10
188.8978912391010
 20
131.7467846864460
 30
0.000000000000000
 10
188.7778431350950
 20
131.7651818205931
 30
0.000000000000000
 10
188.6925057829679
 20
131.8022696533834
 30
0.000000000000000
 10
188.6415589939566
 20
131.8533612568429
 30
0.000000000000000
 10
188.6262309175933
 20
131.8905861490491
 30
0.000000000000000
 10
188.6217156079221
 20
131.9093567604140
 30
0.000000000000000
  0
LINE
  5
143
100
AcDbEntity
  8
A5
  6
PHANTOM
 62
6
100
AcDbLine
 10
189.0912215311313
 20
129.8648396860362
 30
0.000000000000000
 11
188.6217156079223
 21
131.9093567604138
 31
0.000000000000000
  0
LINE
  5
144
100
AcDbEntity
  8
A5
  6
PHANTOM
 62
6
100
AcDbLine
 10
188.5494253859484
 20
132.2241527743293
 30
0.000000000000000
 11
187.6675426846015
 21
136.0644115471667
 31
0.000000000000000
  0
LINE
  5
145
100
AcDbEntity
  8
A5
  6
PHANTOM
 62
6
100
AcDbLine
 10
188.5494253859486
 20
132.2241527743295
 30
0.000000000000000
 11
188.6217156079223
 21
131.9093567604141
 31
0.000000000000000
  0
ARC
  5
146
100
AcDbEntity
  8
A5
  6
PHANTOM
 62
6
100
AcDbCircle
 10
181.8197539224599
 20
134.7215166915021
 30
0.000000000000000
 40
6.000000000000000
100
AcDbArc
 50
12.93325326550535
 51
78.48991783780808
  0
ARC
  5
147
100
AcDbEntity
  8
A5
  6
PHANTOM
 62
6
100
AcDbCircle
 10
184.7130892246402
 20
148.9299159971649
 30
0.000000000000000
 40
8.500000000000000
100
AcDbArc
 50
132.9332532655054
 51
258.4899178378080
  0
LINE
  5
148
100
AcDbEntity
  8
A5
  6
PHANTOM
 62
6
100
AcDbLine
 10
183.3617590961346
 20
159.2823995478273
 30
0.000000000000000
 11
178.9233490169993
 21
155.1531714417072
 31
0.000000000000000
  0
ARC
  5
149
100
AcDbEntity
  8
A5
  6
PHANTOM
 62
6
100
AcDbCircle
 10
181.9994672825720
 20
160.7466949465431
 30
0.000000000000000
 40
2.000000000000000
100
AcDbArc
 50
312.9332532655053
 51
372.9332532655053
  0
ARC
  5
14A
100
AcDbEntity
  8
A1
  6
CONTINUOUS
 62
7
100
AcDbCircle
 10
190.7130771024068
 20
121.9299246284165
 30
0.000000000000000
 40
5.000012122369524
100
AcDbArc
 50
250.4202034894889
 51
359.9998506026091
  0
SPLINE
  5
14B
100
AcDbEntity
  8
A1
  6
CONTINUOUS
 62
7
100
AcDbSpline
210
0.000000000000000
220
0.000000000000000
230
1.000000000000000
 70
     8
 71
     3
 72
     9
 73
     5
 74
     0
 42
1.000000000000000e-07
 43
1.000000000000000e-07
 12
0.6192527721842680
 22
-0.7851916989770302
 32
0.000000000000000
 13
0.6321138309609182
 23
-0.7748755414311859
 33
0.000000000000000
 40
0.000000000000000
 40
0.000000000000000
 40
0.000000000000000
 40
0.000000000000000
 40
0.8280431011018768
 40
1.659235454180972
 40
1.659235454180972
 40
1.659235454180972
 40
1.659235454180972
 10
114.1106501137783
 20
133.9129972316503
 30
0.000000000000000
 10
114.2815727757268
 20
133.6962730418568
 30
0.000000000000000
 10
114.6258562749524
 20
133.2634076602006
 30
0.000000000000000
 10
114.9736964285848
 20
132.8333950174733
 30
0.000000000000000
 10
115.1488324894416
 20
132.6187048092647
 30
0.000000000000000
  0
SPLINE
  5
14C
100
AcDbEntity
  8
A1
  6
CONTINUOUS
 62
7
100
AcDbSpline
210
0.000000000000000
220
0.000000000000000
230
1.000000000000000
 70
     8
 71
     3
 72
    12
 73
     8
 74
     0
 42
1.000000000000000e-07
 43
1.000000000000000e-07
 12
-0.003126870679352578
 22
-0.9999951113279621
 32
0.000000000000000
 13
0.6186521937338512
 23
-0.7856649815189485
 33
0.000000000000000
 40
0.000000000000000
 40
0.000000000000000
 40
0.000000000000000
 40
0.000000000000000
 40
0.3115193813733779
 40
0.6415086633567544
 40
0.9698982948325536
 40
1.312845533330934
 40
1.428502780373879
 40
1.428502780373879
 40
1.428502780373879
 40
1.428502780373879
 10
113.6678460836749
 20
135.2443801623094
 30
0.000000000000000
 10
113.6675213900684
 20
135.1405408761569
 30
0.000000000000000
 10
113.6813897967299
 20
134.9264223104360
 30
0.000000000000000
 10
113.7466777088202
 20
134.6085949603437
 30
0.000000000000000
 10
113.8640471964037
 20
134.2946872196005
 30
0.000000000000000
 10
113.9956657651745
 20
134.0660983397858
 30
0.000000000000000
 10
114.0867995772435
 20
133.9432865146038
 30
0.000000000000000
 10
114.1106501137783
 20
133.9129972316503
 30
0.000000000000000
  0
SPLINE
  5
14D
100
AcDbEntity
  8
A1
  6
CONTINUOUS
 62
7
100
AcDbSpline
210
0.000000000000000
220
0.000000000000000
230
1.000000000000000
 70
     8
 71
     3
 72
    13
 73
     9
 74
     0
 42
1.000000000000000e-07
 43
1.000000000000000e-07
 12
-0.006041539014859154
 22
-0.9999817497362073
 32
0.000000000000000
 13
0.6273196792558338
 23
-0.7787618506445142
 33
0.000000000000000
 40
0.000000000000000
 40
0.000000000000000
 40
0.000000000000000
 40
0.000000000000000
 40
0.2508543708908244
 40
0.5241441336124235
 40
0.8039062833361739
 40
1.101033745885226
 40
1.308330931506096
 40
1.518875617280813
 40
1.518875617280813
 40
1.518875617280813
 40
1.518875617280813
 10
113.6678460836749
 20
135.7485039281692
 30
0.000000000000000
 10
113.6673409015187
 20
135.6648873305917
 30
0.000000000000000
 10
113.6740069076881
 20
135.4900807545744
 30
0.000000000000000
 10
113.7068228811880
 20
135.2236918707346
 30
0.000000000000000
 10
113.7738084880162
 20
134.9475832614084
 30
0.000000000000000
 10
113.8696777908960
 20
134.7033032287385
 30
0.000000000000000
 10
113.9853013303524
 20
134.4943914217046
 30
0.000000000000000
 10
114.0666238388620
 20
134.3808542577891
 30
0.000000000000000
 10
114.1106501137784
 20
134.3261995347434
 30
0.000000000000000
  0
SPLINE
  5
14E
100
AcDbEntity
  8
A1
  6
CONTINUOUS
 62
7
100
AcDbSpline
210
0.000000000000000
220
0.000000000000000
230
1.000000000000000
 70
     8
 71
     3
 72
    15
 73
    11
 74
     0
 42
1.000000000000000e-07
 43
1.000000000000000e-07
 12
-0.9760238174580991
 22
-0.2176637492912050
 32
0.000000000000000
 13
-0.0009715113452557489
 23
-0.9999995280829808
 33
0.000000000000000
 40
0.000000000000000
 40
0.000000000000000
 40
0.000000000000000
 40
0.000000000000000
 40
0.3280494564915939
 40
0.6653174135746871
 40
0.9922951593715430
 40
1.327791611485103
 40
1.659739871445798
 40
2.000183209662486
 40
2.367450981549688
 40
2.746190459042341
 40
2.746190459042341
 40
2.746190459042341
 40
2.746190459042341
 10
115.2429867950123
 20
167.8698291839059
 30
0.000000000000000
 10
115.1362587673990
 20
167.8460276923550
 30
0.000000000000000
 10
114.9232805037296
 20
167.7800617043474
 30
0.000000000000000
 10
114.6270348274169
 20
167.6294400554104
 30
0.000000000000000
 10
114.3579621923425
 20
167.4303286324077
 30
0.000000000000000
 10
114.1265199879335
 20
167.1908739843972
 30
0.000000000000000
 10
113.9349682394491
 20
166.9130676518984
 30
0.000000000000000
 10
113.7868801955190
 20
166.5979939499249
 30
0.000000000000000
 10
113.6902545759966
 20
166.2470796531969
 30
0.000000000000000
 10
113.6679687335747
 20
165.9978170706759
 30
0.000000000000000
 10
113.6678460836749
 20
165.8715706377562
 30
0.000000000000000
  0
SPLINE
  5
14F
100
AcDbEntity
  8
A1
  6
CONTINUOUS
 62
7
100
AcDbSpline
210
0.000000000000000
220
0.000000000000000
230
1.000000000000000
 70
     8
 71
     3
 72
    27
 73
    23
 74
     0
 42
1.000000000000000e-07
 43
1.000000000000000e-07
 12
-0.3232791834584532
 22
0.9463036349620779
 32
0.000000000000000
 13
-0.5351340140973662
 23
0.8447671791423090
 33
0.000000000000000
 40
0.000000000000000
 40
0.000000000000000
 40
0.000000000000000
 40
0.000000000000000
 40
1.202231395360386
 40
2.380501779548168
 40
3.529947874193927
 40
4.645707684660890
 40
5.787048852674483
 40
6.886045724662504
 40
7.937227727409150
 40
8.715049440287824
 40
9.461664652712967
 40
10.17470099355977
 40
10.85178882897023
 40
11.64994697574153
 40
12.38751412217110
 40
13.06028303778446
 40
13.53497806268683
 40
13.96867682981469
 40
14.35982238914899
 40
14.70688824051695
 40
14.97615746155482
 40
15.21018479762061
 40
15.21018479762061
 40
15.21018479762061
 40
15.21018479762061
 10
126.2109384064094
 20
154.4544120772058
 30
0.000000000000000
 10
126.0813862784693
 20
154.8336373903708
 30
0.000000000000000
 10
125.8227889923688
 20
155.5838226687546
 30
0.000000000000000
 10
125.4333793960522
 20
156.6941724592106
 30
0.000000000000000
 10
125.0474484043240
 20
157.7751789749506
 30
0.000000000000000
 10
124.6594183311987
 20
158.8423452351271
 30
0.000000000000000
 10
124.2704533524256
 20
159.8912557290805
 30
0.000000000000000
 10
123.8819747547535
 20
160.9173614391890
 30
0.000000000000000
 10
123.5297944799385
 20
161.8276166776778
 30
0.000000000000000
 10
123.2143760153748
 20
162.6261220505294
 30
0.000000000000000
 10
122.9359106080464
 20
163.3180174377249
 30
0.000000000000000
 10
122.6654592014632
 20
163.9769254745202
 30
0.000000000000000
 10
122.3834842373975
 20
164.6496545462395
 30
0.000000000000000
 10
122.0921477681750
 20
165.3273012460694
 30
0.000000000000000
 10
121.7937059175272
 20
166.0002769862253
 30
0.000000000000000
 10
121.5315101769662
 20
166.5713265262204
 30
0.000000000000000
 10
121.3049181026932
 20
167.0472020634891
 30
0.000000000000000
 10
121.1132516774522
 20
167.4356891818355
 30
0.000000000000000
 10
120.9347011085069
 20
167.7831580620210
 30
0.000000000000000
 10
120.7751127749072
 20
168.0786709126987
 30
0.000000000000000
 10
120.6346568202520
 20
168.3249229100741
 30
0.000000000000000
 10
120.5467288158982
 20
168.4678360153557
 30
0.000000000000000
 10
120.5049834866457
 20
168.5337355528659
 30
0.000000000000000
  0
SPLINE
  5
150
100
AcDbEntity
  8
A1
  6
CONTINUOUS
 62
7
100
AcDbSpline
210
0.000000000000000
220
0.000000000000000
230
1.000000000000000
 70
     8
 71
     3
 72
    11
 73
     7
 74
     0
 42
1.000000000000000e-07
 43
1.000000000000000e-07
 12
0.3229258745209336
 22
-0.9464242598140800
 32
0.000000000000000
 13
0.1582809547588226
 23
-0.9873941155185548
 33
0.000000000000000
 40
0.000000000000000
 40
0.000000000000000
 40
0.000000000000000
 40
0.000000000000000
 40
0.7215911984880906
 40
1.453742358325893
 40
2.200618254832357
 40
2.956848752741545
 40
2.956848752741545
 40
2.956848752741545
 40
2.956848752741545
 10
126.2109384064094
 20
154.4544120772058
 30
0.000000000000000
 10
126.2886118960155
 20
154.2267682719000
 30
0.000000000000000
 10
126.4353591098229
 20
153.7647568979627
 30
0.000000000000000
 10
126.6268678179908
 20
153.0564291418827
 30
0.000000000000000
 10
126.7906242309136
 20
152.3293468004530
 30
0.000000000000000
 10
126.8803846731188
 20
151.8362422853937
 30
0.000000000000000
 10
126.9202836348611
 20
151.5873431041900
 30
0.000000000000000
  0
SPLINE
  5
151
100
AcDbEntity
  8
A1
  6
CONTINUOUS
 62
7
100
AcDbSpline
210
0.000000000000000
220
0.000000000000000
230
1.000000000000000
 70
     8
 71
     3
 72
    21
 73
    17
 74
     0
 42
1.000000000000000e-07
 43
1.000000000000000e-07
 12
0.9763387540180020
 22
0.2162467049515726
 32
0.000000000000000
 13
0.5738484065404919
 23
-0.8189615414112268
 33
0.000000000000000
 40
0.000000000000000
 40
0.000000000000000
 40
0.000000000000000
 40
0.000000000000000
 40
0.3825930934008513
 40
0.7631383767127793
 40
1.134623560718071
 40
1.493877852190574
 40
1.836810973864439
 40
2.156504588847976
 40
2.441133832961956
 40
2.698384861256490
 40
2.923947096695585
 40
3.112550130848661
 40
3.270620469306706
 40
3.399098234956917
 40
3.489386570653133
 40
3.567341828104750
 40
3.567341828104750
 40
3.567341828104750
 40
3.567341828104750
 10
117.0244529044020
 20
168.2641980934829
 30
0.000000000000000
 10
117.1489663924376
 20
168.2917762587446
 30
0.000000000000000
 10
117.3976006733835
 20
168.3455554650224
 30
0.000000000000000
 10
117.7680012053205
 20
168.4220346400198
 30
0.000000000000000
 10
118.1315664978634
 20
168.4930516718332
 30
0.000000000000000
 10
118.4836715453917
 20
168.5572121020297
 30
0.000000000000000
 10
118.8197449624792
 20
168.6128357237497
 30
0.000000000000000
 10
119.1322974913161
 20
168.6578898474799
 30
0.000000000000000
 10
119.4176552212545
 20
168.6907413767740
 30
0.000000000000000
 10
119.6727712913790
 20
168.7105540451439
 30
0.000000000000000
 10
119.8966391279325
 20
168.7167073823936
 30
0.000000000000000
 10
120.0873873875461
 20
168.7077767506767
 30
0.000000000000000
 10
120.2444588201561
 20
168.6843925148254
 30
0.000000000000000
 10
120.3650479897562
 20
168.6470630318522
 30
0.000000000000000
 10
120.4521615429376
 20
168.5975945278803
 30
0.000000000000000
 10
120.4900719865557
 20
168.5550163388004
 30
0.000000000000000
 10
120.5049834866457
 20
168.5337355528659
 30
0.000000000000000
  0
SPLINE
  5
152
100
AcDbEntity
  8
A1
  6
CONTINUOUS
 62
7
100
AcDbSpline
210
0.000000000000000
220
0.000000000000000
230
1.000000000000000
 70
     8
 71
     3
 72
    11
 73
     7
 74
     0
 42
1.000000000000000e-07
 43
1.000000000000000e-07
 12
0.1580885116580930
 22
-0.9874249452396953
 32
0.000000000000000
 13
-0.0006548237892616271
 23
-0.9999997856029950
 33
0.000000000000000
 40
0.000000000000000
 40
0.000000000000000
 40
0.000000000000000
 40
0.000000000000000
 40
0.7888953822516714
 40
1.586961101536921
 40
2.399422826284652
 40
3.216599005548976
 40
3.216599005548976
 40
3.216599005548976
 40
3.216599005548976
 10
126.9202836348611
 20
151.5873431041900
 30
0.000000000000000
 10
126.9618554004725
 20
151.3276847776501
 30
0.000000000000000
 10
127.0348622050690
 20
150.8035801270094
 30
0.000000000000000
 10
127.1120211611313
 20
150.0072836766277
 30
0.000000000000000
 10
127.1578436361310
 20
149.1991524175708
 30
0.000000000000000
 10
127.1680244524754
 20
148.6558801824781
 30
0.000000000000000
 10
127.1678460836746
 20
148.3834881811234
 30
0.000000000000000
  0
ELLIPSE
  5
153
100
AcDbEntity
  8
A1
  6
CONTINUOUS
 62
7
100
AcDbEllipse
 10
113.6678460836749
 20
131.2847658559218
 30
0.000000000000000
 11
-2.000000000000000
 21
0.000000000000000
 31
0.000000000000000
210
0.000000000000000
220
0.000000000000000
230
1.000000000000000
 40
0.9883936145804318
 41
3.141592653589793
 42
3.819960475205324
  0
ELLIPSE
  5
154
100
AcDbEntity
  8
A1
  6
CONTINUOUS
 62
7
100
AcDbEllipse
 10
113.6678460836752
 20
118.7839106571329
 30
0.000000000000000
 11
6.000000000000000
 21
0.000000000000000
 31
0.000000000000000
210
0.000000000000000
220
0.000000000000000
230
1.000000000000000
 40
0.9883936145804318
 41
3.141592653589793
 42
4.712388980384690
  0
ELLIPSE
  5
155
100
AcDbEntity
  8
A1
  6
CONTINUOUS
 62
7
100
AcDbEllipse
 10
123.1678460836746
 20
116.8071234279221
 30
0.000000000000000
 11
4.000000000000000
 21
0.000000000000000
 31
0.000000000000000
210
0.000000000000000
220
0.000000000000000
230
1.000000000000000
 40
0.9883936145804318
 41
4.712388980384690
 42
0.000000000000000
  0
ELLIPSE
  5
156
100
AcDbEntity
  8
A1
  6
CONTINUOUS
 62
7
100
AcDbEllipse
 10
108.6678460836752
 20
122.0529209078691
 30
0.000000000000000
 11
-1.000000000000000
 21
0.000000000000000
 31
0.000000000000000
210
0.000000000000000
220
0.000000000000000
230
1.000000000000000
 40
0.9883936145804318
 41
4.712388980384690
 42
0.000000000000000
  0
ELLIPSE
  5
157
100
AcDbEntity
  8
A1
  6
CONTINUOUS
 62
7
100
AcDbEllipse
 10
113.6678460836749
 20
125.0181017515841
 30
0.000000000000000
 11
2.000000000000000
 21
0.000000000000000
 31
0.000000000000000
210
0.000000000000000
220
0.000000000000000
230
1.000000000000000
 40
0.9883936145804318
 41
4.712388980384690
 42
0.000000000000000
  0
ELLIPSE
  5
158
100
AcDbEntity
  8
A1
  6
CONTINUOUS
 62
7
100
AcDbEllipse
 10
123.1678460836746
 20
117.1109528348907
 30
0.000000000000000
 11
-4.000000000000000
 21
0.000000000000000
 31
0.000000000000000
210
0.000000000000000
220
0.000000000000000
230
1.000000000000000
 40
0.9883936145804318
 41
1.570796326794897
 42
3.141592653589793
  0
ELLIPSE
  5
159
100
AcDbEntity
  8
A1
  6
CONTINUOUS
 62
7
100
AcDbEllipse
 10
113.6678460836752
 20
119.0877400641015
 30
0.000000000000000
 11
-6.000000000000000
 21
0.000000000000000
 31
0.000000000000000
210
0.000000000000000
220
0.000000000000000
230
1.000000000000000
 40
0.9883936145804318
 41
0.000000000000000
 42
1.570796326794897
  0
ARC
  5
15A
100
AcDbEntity
  8
A1
  6
CONTINUOUS
 62
7
100
AcDbCircle
 10
113.6830874176583
 20
131.6989017268468
 30
0.000000000000000
 40
1.984758816559763
100
AcDbArc
 50
0.02231588532486819
 51
37.12108031412932
  0
LINE
  5
15B
100
AcDbEntity
  8
A1
  6
CONTINUOUS
 62
7
100
AcDbLine
 10
115.1488324894416
 20
132.6187048092648
 30
0.000000000000000
 11
115.2250420535716
 21
132.5252454064621
 31
0.000000000000000
  0
LINE
  5
15C
100
AcDbEntity
  8
A1
  6
CONTINUOUS
 62
7
100
AcDbLine
 10
115.2656585620884
 20
132.8967064407835
 30
0.000000000000000
 11
115.2250420535716
 21
132.9486133209785
 31
0.000000000000000
  0
LINE
  5
15D
100
AcDbEntity
  8
A1
  6
CONTINUOUS
 62
7
100
AcDbLine
 10
115.2250420535715
 20
132.9486133209785
 30
0.000000000000000
 11
115.0455584259224
 21
133.1703605042545
 31
0.000000000000000
  0
LINE
  5
15E
100
AcDbEntity
  8
A1
  6
CONTINUOUS
 62
7
100
AcDbLine
 10
115.0455584259224
 20
133.1703605042545
 30
0.000000000000000
 11
114.1106501137784
 21
134.3261995347434
 31
0.000000000000000
  0
LINE
  5
15F
100
AcDbEntity
  8
A1
  6
CONTINUOUS
 62
7
100
AcDbLine
 10
113.6678460836433
 20
112.8535490649544
 30
0.000000000000000
 11
123.1678460836534
 21
112.8535490649044
 31
0.000000000000000
  0
LINE
  5
160
100
AcDbEntity
  8
A1
  6
CONTINUOUS
 62
7
100
AcDbLine
 10
127.1678460836746
 20
116.8071234279221
 30
0.000000000000000
 11
127.1678460836751
 21
117.1109528348907
 31
0.000000000000000
  0
LINE
  5
161
100
AcDbEntity
  8
A1
  6
CONTINUOUS
 62
7
100
AcDbLine
 10
113.6678460836642
 20
123.0413145224232
 30
0.000000000000000
 11
108.6678460836805
 21
123.0413145224495
 31
0.000000000000000
  0
LINE
  5
162
100
AcDbEntity
  8
A1
  6
CONTINUOUS
 62
7
100
AcDbLine
 10
115.6678460836749
 20
125.0181017515841
 30
0.000000000000000
 11
115.6678460836750
 21
131.6996747619534
 31
0.000000000000000
  0
LINE
  5
163
100
AcDbEntity
  8
A1
  6
CONTINUOUS
 62
7
100
AcDbLine
 10
113.6678460836432
 20
113.1573783766189
 30
0.000000000000000
 11
123.1678460836534
 21
113.1573783765689
 31
0.000000000000000
  0
LINE
  5
164
100
AcDbEntity
  8
A1
  6
CONTINUOUS
 62
7
100
AcDbLine
 10
115.2429867950124
 20
167.8698291839059
 30
0.000000000000000
 11
117.0244529044020
 21
168.2641980934829
 31
0.000000000000000
  0
SPLINE
  5
165
100
AcDbEntity
  8
A1
  6
CONTINUOUS
 62
7
100
AcDbSpline
210
0.000000000000000
220
0.000000000000000
230
1.000000000000000
 70
     8
 71
     3
 72
    18
 73
    14
 74
     0
 42
1.000000000000000e-07
 43
1.000000000000000e-07
 12
0.4319663003552705
 22
0.9018897467831266
 32
0.000000000000000
 13
0.01940025485407659
 23
0.9998117973455010
 33
0.000000000000000
 40
0.000000000000000
 40
0.000000000000000
 40
0.000000000000000
 40
0.000000000000000
 40
0.01872779659875650
 40
0.6743438168565622
 40
1.321483003202146
 40
1.956155186573513
 40
2.591690832784638
 40
3.209733965695199
 40
3.803316905245101
 40
4.366137150932396
 40
4.810943505968939
 40
5.229540397056583
 40
5.617860682475696
 40
5.617860682475696
 40
5.617860682475696
 40
5.617860682475696
 10
110.1678460836749
 20
150.5192704200367
 30
0.000000000000000
 10
110.1705426760117
 20
150.5249005559475
 30
0.000000000000000
 10
110.2676630581397
 20
150.7276177345600
 30
0.000000000000000
 10
110.4589035601132
 20
151.1244334269114
 30
0.000000000000000
 10
110.7393149691827
 20
151.7061888755834
 30
0.000000000000000
 10
111.0137380877657
 20
152.2833956629200
 30
0.000000000000000
 10
111.2784422573177
 20
152.8544629170937
 30
0.000000000000000
 10
111.5269702769054
 20
153.4178672156702
 30
0.000000000000000
 10
111.7490901468438
 20
153.9661792927019
 30
0.000000000000000
 10
111.9276867717431
 20
154.4694632536542
 30
0.000000000000000
 10
112.0598838373216
 20
154.9263434070832
 30
0.000000000000000
 10
112.1457474770927
 20
155.3355090734203
 30
0.000000000000000
 10
112.1653349128408
 20
155.6046137147710
 30
0.000000000000000
 10
112.1678460836749
 20
155.7340294489412
 30
0.000000000000000
  0
SPLINE
  5
166
100
AcDbEntity
  8
A1
  6
CONTINUOUS
 62
7
100
AcDbSpline
210
0.000000000000000
220
0.000000000000000
230
1.000000000000000
 70
     8
 71
     3
 72
    18
 73
    14
 74
     0
 42
1.000000000000000e-07
 43
1.000000000000000e-07
 12
-0.01940024714861011
 22
0.9998117974951128
 32
0.000000000000000
 13
-0.4319662878442614
 23
0.9018897527785157
 33
0.000000000000000
 40
0.000000000000000
 40
0.000000000000000
 40
0.000000000000000
 40
0.000000000000000
 40
0.3883203658442321
 40
0.8069173309239352
 40
1.251723752648736
 40
1.814544068922761
 40
2.408127069992020
 40
3.026170255814024
 40
3.661705946695072
 40
4.296378166220003
 40
4.943517381683329
 40
5.599133424103586
 40
5.617861221231078
 40
5.617861221231078
 40
5.617861221231078
 40
5.617861221231078
 10
112.1678460836749
 20
142.1258034882738
 30
0.000000000000000
 10
112.1653349133181
 20
142.2552192492667
 30
0.000000000000000
 10
112.1457474777612
 20
142.5243239421270
 30
0.000000000000000
 10
112.0598838388560
 20
142.9334896838313
 30
0.000000000000000
 10
111.9276867736093
 20
143.3903699107349
 30
0.000000000000000
 10
111.7490901491051
 20
143.8936539421674
 30
0.000000000000000
 10
111.5269702790344
 20
144.4419660857380
 30
0.000000000000000
 10
111.2784422593019
 20
145.0053704422448
 30
0.000000000000000
 10
111.0137380895546
 20
145.5764377454818
 30
0.000000000000000
 10
110.7393149708691
 20
146.1536445733566
 30
0.000000000000000
 10
110.4589035618969
 20
146.7354000544329
 30
0.000000000000000
 10
110.2676630585794
 20
147.1322157653047
 30
0.000000000000000
 10
110.1705426760097
 20
147.3349329520926
 30
0.000000000000000
 10
110.1678460836749
 20
147.3405630881998
 30
0.000000000000000
  0
ARC
  5
167
100
AcDbEntity
  8
A1
  6
CONTINUOUS
 62
7
100
AcDbCircle
 10
110.1678460836749
 20
178.9299107101641
 30
0.000000000000000
 40
2.000000000000000
100
AcDbArc
 50
359.9999999999999
 51
450.0000000000000
  0
ARC
  5
168
100
AcDbEntity
  8
A1
  6
CONTINUOUS
 62
7
100
AcDbCircle
 10
112.6678460836749
 20
156.9299159018256
 30
0.000000000000000
 40
1.000000000000000
100
AcDbArc
 50
0.000000000000000
 51
90.00000000000000
  0
ARC
  5
169
100
AcDbEntity
  8
A1
  6
CONTINUOUS
 62
7
100
AcDbCircle
 10
112.6678460836749
 20
140.9299159018256
 30
0.000000000000000
 40
1.000000000000000
100
AcDbArc
 50
270.0000000000000
 51
360.0000000000000
  0
LINE
  5
16A
100
AcDbEntity
  8
A1
  6
CONTINUOUS
 62
7
100
AcDbLine
 10
107.1678460836749
 20
180.9299107101641
 30
0.000000000000000
 11
110.1678460836749
 21
180.9299107101641
 31
0.000000000000000
  0
LINE
  5
16B
100
AcDbEntity
  8
A1
  6
CONTINUOUS
 62
7
100
AcDbLine
 10
107.9685926141249
 20
116.9299124106062
 30
0.000000000000000
 11
107.1678460836749
 21
116.9299124106062
 31
0.000000000000000
  0
LINE
  5
16C
100
AcDbEntity
  8
A1
  6
CONTINUOUS
 62
7
100
AcDbLine
 10
112.6678460836749
 20
139.9299159018256
 30
0.000000000000000
 11
112.1678460836749
 21
139.9299159018256
 31
0.000000000000000
  0
LINE
  5
16D
100
AcDbEntity
  8
A1
  6
CONTINUOUS
 62
7
100
AcDbLine
 10
112.1678460836749
 20
157.9299159018256
 30
0.000000000000000
 11
112.6678460836749
 21
157.9299159018256
 31
0.000000000000000
  0
LINE
  5
16E
100
AcDbEntity
  8
A1
  6
CONTINUOUS
 62
7
100
AcDbLine
 10
126.1678460836746
 20
131.5983229928137
 30
0.000000000000000
 11
116.6678460836746
 21
133.6904314918576
 31
0.000000000000000
  0
LINE
  5
16F
100
AcDbEntity
  8
A1
  6
CONTINUOUS
 62
7
100
AcDbLine
 10
127.1678460836752
 20
117.1109528348907
 30
0.000000000000000
 11
127.1678460836747
 21
148.3834881811233
 31
0.000000000000000
  0
LINE
  5
170
100
AcDbEntity
  8
A1
  6
CONTINUOUS
 62
7
100
AcDbLine
 10
113.6678460836749
 20
135.2443801623094
 30
0.000000000000000
 11
113.6678460836749
 21
165.8715706377562
 31
0.000000000000000
  0
LINE
  5
171
100
AcDbEntity
  8
A1
  6
CONTINUOUS
 62
7
100
AcDbLine
 10
112.1678460836749
 20
155.7340294489412
 30
0.000000000000000
 11
112.1678460836749
 21
178.9299107101641
 31
0.000000000000000
  0
LINE
  5
172
100
AcDbEntity
  8
A1
  6
CONTINUOUS
 62
7
100
AcDbLine
 10
107.1678460836749
 20
116.9299124106062
 30
0.000000000000000
 11
107.1678460836749
 21
180.9299107101641
 31
0.000000000000000
  0
LINE
  5
173
100
AcDbEntity
  8
A1
  6
CONTINUOUS
 62
7
100
AcDbLine
 10
107.6678460836752
 20
118.7839107524370
 30
0.000000000000000
 11
107.6678460836752
 21
122.0529209078691
 31
0.000000000000000
  0
LINE
  5
174
100
AcDbEntity
  8
A1
  6
CONTINUOUS
 62
7
100
AcDbLine
 10
112.1678460836749
 20
123.0413145224311
 30
0.000000000000000
 11
112.1678460836748
 21
142.1258034882738
 31
0.000000000000000
  0
SPLINE
  5
175
100
AcDbEntity
  8
A1
  6
CONTINUOUS
 62
7
100
AcDbSpline
210
0.000000000000000
220
0.000000000000000
230
1.000000000000000
 70
     8
 71
     3
 72
    17
 73
    13
 74
     0
 42
1.000000000000000e-07
 43
1.000000000000000e-07
 12
-0.3101748153389963
 22
0.9506795379775212
 32
0.000000000000000
 13
-0.9904459297338235
 23
0.2242229844770236
 33
0.000000000000000
 40
0.000000000000000
 40
0.000000000000000
 40
0.000000000000000
 40
0.000000000000000
 40
0.3436692642553604
 40
0.7241617490218588
 40
1.104706127343516
 40
1.475299031773940
 40
1.848018484707552
 40
2.219958307430711
 40
2.583521436741304
 40
2.947490730440146
 40
3.309047883539896
 40
3.617285706774512
 40
3.619676459581536
 40
3.619676459581536
 40
3.619676459581536
 10
187.5242889049936
 20
63.85405540224781
 30
0.000000000000000
 10
187.4887563881342
 20
63.96296184803427
 30
0.000000000000000
 10
187.4021399027777
 20
64.18880427968293
 30
0.000000000000000
 10
187.2333032617152
 20
64.51691218543962
 30
0.000000000000000
 10
187.0236424570496
 20
64.83150693260022
 30
0.000000000000000
 10
186.7807614412983
 20
65.11774694394053
 30
0.000000000000000
 10
186.5105079824753
 20
65.37403798368484
 30
0.000000000000000
 10
186.2162573852694
 20
65.59857827026119
 30
0.000000000000000
 10
185.9020042942570
 20
65.78847887729975
 30
0.000000000000000
 10
185.5734009390906
 20
65.94405868809410
 30
0.000000000000000
 10
185.2486595553378
 20
66.06126309217792
 30
0.000000000000000
 10
185.0310577290307
 20
66.11566666159317
 30
0.000000000000000
 10
184.9292934298931
 20
66.13870466314462
 30
0.000000000000000
  0
SPLINE
  5
176
100
AcDbEntity
  8
A1
  6
CONTINUOUS
 62
7
100
AcDbSpline
210
0.000000000000000
220
0.000000000000000
230
1.000000000000000
 70
     8
 71
     3
 72
    17
 73
    13
 74
     0
 42
1.000000000000000e-07
 43
1.000000000000000e-07
 12
0.9644592800441387
 22
-0.2642315218448630
 32
0.000000000000000
 13
0.2898794027646545
 23
-0.9570631807000609
 33
0.000000000000000
 40
0.000000000000000
 40
0.000000000000000
 40
0.000000000000000
 40
0.000000000000000
 40
0.3534892069521331
 40
0.7358017062338728
 40
1.121221597510166
 40
1.508811661719189
 40
1.895021658623673
 40
2.260452435661742
 40
2.626104409924343
 40
2.989372170882216
 40
3.348399229877788
 40
3.512198477114649
 40
3.512198477114649
 40
3.512198477114649
 40
3.512198477114649
 10
184.7887093368172
 20
66.17231981572237
 30
0.000000000000000
 10
184.9023513188307
 20
66.14118548535281
 30
0.000000000000000
 10
185.1359773779492
 20
66.06523804483548
 30
0.000000000000000
 10
185.4794002588160
 20
65.91612063955746
 30
0.000000000000000
 10
185.8144902926073
 20
65.72475577079183
 30
0.000000000000000
 10
186.1282338039061
 20
65.49794994529725
 30
0.000000000000000
 10
186.4104124010867
 20
65.24258085373286
 30
0.000000000000000
 10
186.6569070819692
 20
64.96240551419940
 30
0.000000000000000
 10
186.8675836779998
 20
64.66376920557167
 30
0.000000000000000
 10
187.0439461110784
 20
64.34604298112176
 30
0.000000000000000
 10
187.1574632540390
 20
64.07267738848340
 30
0.000000000000000
 10
187.2120385121272
 20
63.90711214371252
 30
0.000000000000000
 10
187.2278658547813
 20
63.85485673419358
 30
0.000000000000000
  0
SPLINE
  5
177
100
AcDbEntity
  8
A1
  6
CONTINUOUS
 62
7
100
AcDbSpline
210
0.000000000000000
220
0.000000000000000
230
1.000000000000000
 70
     8
 71
     3
 72
    10
 73
     6
 74
     0
 42
1.000000000000000e-07
 43
1.000000000000000e-07
 12
0.9777514162277612
 22
-0.2097669374913949
 32
0.000000000000000
 13
0.9869102363049933
 23
-0.1612705350542001
 33
0.000000000000000
 40
0.000000000000000
 40
0.000000000000000
 40
0.000000000000000
 40
0.000000000000000
 40
0.6055325474373578
 40
1.787367678212272
 40
2.383816619475548
 40
2.383816619475548
 40
2.383816619475548
 40
2.383816619475548
 10
182.0516921100320
 20
66.70125403812875
 30
0.000000000000000
 10
182.2490455453083
 20
66.65891380211964
 30
0.000000000000000
 10
182.8323558235071
 20
66.53755489758686
 30
0.000000000000000
 10
183.6131439904580
 20
66.38951471722443
 30
0.000000000000000
 10
184.1975539309557
 20
66.29027431621068
 30
0.000000000000000
 10
184.3937677861443
 20
66.25821110291400
 30
0.000000000000000
  0
SPLINE
  5
178
100
AcDbEntity
  8
A1
  6
CONTINUOUS
 62
7
100
AcDbSpline
210
0.000000000000000
220
0.000000000000000
230
1.000000000000000
 70
     8
 71
     3
 72
     9
 73
     5
 74
     0
 42
1.000000000000000e-07
 43
1.000000000000000e-07
 12
0.9853146588948221
 22
-0.1707484201017451
 32
0.000000000000000
 13
0.9672164786024950
 23
-0.2539533097324238
 33
0.000000000000000
 40
0.000000000000000
 40
0.000000000000000
 40
0.000000000000000
 40
0.000000000000000
 40
0.3766351102046520
 40
0.4041967222028671
 40
0.4041967222028671
 40
0.4041967222028671
 40
0.4041967222028671
 10
184.3937677861443
 20
66.25821110291400
 30
0.000000000000000
 10
184.5174691511907
 20
66.23677448623990
 30
0.000000000000000
 10
184.6494116512462
 20
66.20848842673601
 30
0.000000000000000
 10
184.7798233217167
 20
66.17465293658522
 30
0.000000000000000
 10
184.7887093368172
 20
66.17231981572237
 30
0.000000000000000
  0
SPLINE
  5
179
100
AcDbEntity
  8
A1
  6
CONTINUOUS
 62
7
100
AcDbSpline
210
0.000000000000000
220
0.000000000000000
230
1.000000000000000
 70
     8
 71
     3
 72
    12
 73
     8
 74
     0
 42
1.000000000000000e-07
 43
1.000000000000000e-07
 12
0.9987226131906937
 22
-0.05052862459183416
 32
0.000000000000000
 13
0.06256261424823606
 23
0.9980410408888929
 33
0.000000000000000
 40
0.000000000000000
 40
0.000000000000000
 40
0.000000000000000
 40
0.000000000000000
 40
0.1200899693470202
 40
0.2326468628683416
 40
0.3620357287050376
 40
0.5367349300948943
 40
0.6059277961215863
 40
0.6059277961215863
 40
0.6059277961215863
 40
0.6059277961215863
 10
181.9606408880806
 20
59.35354906504149
 30
0.000000000000000
 10
182.0006197440820
 20
59.35152640471537
 30
0.000000000000000
 10
182.0804157049124
 20
59.36356783132543
 30
0.000000000000000
 10
182.1814909165101
 20
59.43865146723311
 30
0.000000000000000
 10
182.2388990102966
 20
59.56945925110638
 30
0.000000000000000
 10
182.2589487983018
 20
59.69238069153354
 30
0.000000000000000
 10
182.2668586782826
 20
59.77333398846778
 30
0.000000000000000
 10
182.2683016404779
 20
59.79635309514491
 30
0.000000000000000
  0
SPLINE
  5
17A
100
AcDbEntity
  8
A1
  6
CONTINUOUS
 62
7
100
AcDbSpline
210
0.000000000000000
220
0.000000000000000
230
1.000000000000000
 70
     8
 71
     3
 72
     9
 73
     5
 74
     0
 42
1.000000000000000e-07
 43
1.000000000000000e-07
 12
-0.03456755124625488
 22
0.9994023636159000
 32
0.000000000000000
 13
-0.1867242504365549
 23
0.9824123646915837
 33
0.000000000000000
 40
0.000000000000000
 40
0.000000000000000
 40
0.000000000000000
 40
0.000000000000000
 40
0.1036071373495252
 40
0.6303926187230185
 40
0.6303926187230185
 40
0.6303926187230185
 40
0.6303926187230185
 10
182.2761018394726
 20
60.20830057526602
 30
0.000000000000000
 10
182.2749080244626
 20
60.24281564791755
 30
0.000000000000000
 10
182.2650093927763
 20
60.45270508259561
 30
0.000000000000000
 10
182.2388677635394
 20
60.66202861399435
 30
0.000000000000000
 10
182.2060798888226
 20
60.83453547080813
 30
0.000000000000000
  0
ELLIPSE
  5
17B
100
AcDbEntity
  8
A1
  6
CONTINUOUS
 62
7
100
AcDbEllipse
 10
178.1029043726451
 20
59.35354906504172
 30
0.000000000000000
 11
0.000000000000000
 21
-6.000000000000000
 31
0.000000000000000
210
0.000000000000000
220
0.000000000000000
230
1.000000000000000
 40
0.1519146558322425
 41
4.712388980384690
 42
0.000000000000000
  0
ELLIPSE
  5
17C
100
AcDbEntity
  8
A1
  6
CONTINUOUS
 62
7
100
AcDbEllipse
 10
180.5354361893783
 20
54.35354906504172
 30
0.000000000000000
 11
0.000000000000000
 21
1.000000000000000
 31
0.000000000000000
210
0.000000000000000
220
0.000000000000000
230
1.000000000000000
 40
0.1519146558322425
 41
3.141592653589793
 42
4.712388980384690
  0
ELLIPSE
  5
17D
100
AcDbEntity
  8
A1
  6
CONTINUOUS
 62
7
100
AcDbEllipse
 10
180.0796922218776
 20
59.35354906504172
 30
0.000000000000000
 11
0.000000000000000
 21
6.000000000000000
 31
0.000000000000000
210
0.000000000000000
220
0.000000000000000
230
1.000000000000000
 40
0.1519146558322425
 41
1.570796326794897
 42
3.141592653589793
  0
ELLIPSE
  5
17E
100
AcDbEntity
  8
A1
  6
CONTINUOUS
 62
7
100
AcDbEllipse
 10
182.0010554188048
 20
59.35354906504152
 30
0.000000000000000
 11
0.000000000000000
 21
-2.000000000000000
 31
0.000000000000000
210
0.000000000000000
220
0.000000000000000
230
1.000000000000000
 40
0.1519146558322425
 41
2.463224831974246
 42
3.141592653589793
  0
ELLIPSE
  5
17F
100
AcDbEntity
  8
A1
  6
CONTINUOUS
 62
7
100
AcDbEllipse
 10
180.9911801568711
 20
59.35354906504145
 30
0.000000000000000
 11
0.000000000000000
 21
-2.000000000000000
 31
0.000000000000000
210
0.000000000000000
220
0.000000000000000
230
1.000000000000000
 40
0.1519146558322425
 41
3.141592653589793
 42
4.712388980384690
  0
ELLIPSE
  5
180
100
AcDbEntity
  8
A1
  6
CONTINUOUS
 62
7
100
AcDbEllipse
 10
177.7990750609729
 20
68.85354906504121
 30
0.000000000000000
 11
0.000000000000000
 21
-4.000000000000000
 31
0.000000000000000
210
0.000000000000000
220
0.000000000000000
230
1.000000000000000
 40
0.1519146558322425
 41
3.141592653589793
 42
4.712388980384690
  0
ELLIPSE
  5
181
100
AcDbEntity
  8
A1
  6
CONTINUOUS
 62
7
100
AcDbEllipse
 10
179.7758629102054
 20
68.85354906504121
 30
0.000000000000000
 11
0.000000000000000
 21
4.000000000000000
 31
0.000000000000000
210
0.000000000000000
220
0.000000000000000
230
1.000000000000000
 40
0.1519146558322425
 41
0.000000000000000
 42
1.570796326794897
  0
ARC
  5
182
100
AcDbEntity
  8
A1
  6
CONTINUOUS
 62
7
100
AcDbCircle
 10
185.4688124060344
 20
68.69686215136340
 30
0.000000000000000
 40
2.614609788967322
100
AcDbArc
 50
254.9163249852143
 51
258.0397199257571
  0
ARC
  5
183
100
AcDbEntity
  8
A1
  6
CONTINUOUS
 62
7
100
AcDbCircle
 10
171.7130892247595
 20
61.35354906504149
 30
0.000000000000000
 40
2.000000000000000
100
AcDbArc
 50
192.2647737278931
 51
270.0000000000000
  0
LINE
  5
184
100
AcDbEntity
  8
A1
  6
CONTINUOUS
 62
7
100
AcDbLine
 10
193.2130892247594
 20
61.35354906504143
 30
0.000000000000000
 11
193.2130892247594
 21
59.35354906504143
 31
0.000000000000000
  0
LINE
  5
185
100
AcDbEntity
  8
A1
  6
CONTINUOUS
 62
7
100
AcDbLine
 10
171.7130892247595
 20
59.35354906504149
 30
0.000000000000000
 11
177.1914164376516
 21
59.35354906504149
 31
0.000000000000000
  0
LINE
  5
186
100
AcDbEntity
  8
A1
  6
CONTINUOUS
 62
7
100
AcDbLine
 10
169.7587364969139
 20
60.92868977637930
 30
0.000000000000000
 11
167.1678460834801
 21
72.84678567817394
 31
0.000000000000000
  0
LINE
  5
187
100
AcDbEntity
  8
A1
  6
CONTINUOUS
 62
7
100
AcDbLine
 10
167.1678460839647
 20
72.84678567863941
 30
0.000000000000000
 11
167.1748860845056
 21
72.85354906504119
 31
0.000000000000000
  0
LINE
  5
188
100
AcDbEntity
  8
A1
  6
CONTINUOUS
 62
7
100
AcDbLine
 10
182.2683016404777
 20
59.79635309514492
 30
0.000000000000000
 11
182.2761018394725
 21
60.20830057526604
 31
0.000000000000000
  0
LINE
  5
189
100
AcDbEntity
  8
A1
  6
CONTINUOUS
 62
7
100
AcDbLine
 10
181.8479486028400
 20
72.85354906504121
 30
0.000000000000000
 11
181.7992474118466
 21
72.85354906504121
 31
0.000000000000000
  0
LINE
  5
18A
100
AcDbEntity
  8
A1
  6
CONTINUOUS
 62
7
100
AcDbLine
 10
178.1029043726451
 20
53.35354906504176
 30
0.000000000000000
 11
180.0796916018059
 21
53.35354906504176
 31
0.000000000000000
  0
LINE
  5
18B
100
AcDbEntity
  8
A1
  6
CONTINUOUS
 62
7
100
AcDbLine
 10
177.1914164376516
 20
59.35354906500977
 30
0.000000000000000
 11
177.1914164376440
 21
68.85354906501991
 31
0.000000000000000
  0
LINE
  5
18C
100
AcDbEntity
  8
A1
  6
CONTINUOUS
 62
7
100
AcDbLine
 10
180.6873502251377
 20
55.85354906504145
 30
0.000000000000000
 11
180.6873502251390
 21
54.35354906504703
 31
0.000000000000000
  0
LINE
  5
18D
100
AcDbEntity
  8
A1
  6
CONTINUOUS
 62
7
100
AcDbLine
 10
180.6873502251349
 20
59.35354906503085
 30
0.000000000000000
 11
180.6873502251377
 21
55.85354906504148
 31
0.000000000000000
  0
LINE
  5
18E
100
AcDbEntity
  8
A1
  6
CONTINUOUS
 62
7
100
AcDbLine
 10
180.0796916018059
 20
53.35354906504176
 30
0.000000000000000
 11
180.5354355693067
 21
53.35354906504176
 31
0.000000000000000
  0
LINE
  5
18F
100
AcDbEntity
  8
A1
  6
CONTINUOUS
 62
7
100
AcDbLine
 10
179.1682036668124
 20
59.35354906500973
 30
0.000000000000000
 11
179.1682036668047
 21
68.85354906501988
 31
0.000000000000000
  0
LINE
  5
190
100
AcDbEntity
  8
A1
  6
CONTINUOUS
 62
7
100
AcDbLine
 10
182.2060798888226
 20
60.83453547080813
 30
0.000000000000000
 11
182.1917153150317
 21
60.91074503493807
 31
0.000000000000000
  0
LINE
  5
191
100
AcDbEntity
  8
A1
  6
CONTINUOUS
 62
7
100
AcDbLine
 10
180.9911795367993
 20
61.35354906504146
 30
0.000000000000000
 11
182.0010547987332
 21
61.35354906504153
 31
0.000000000000000
  0
SPLINE
  5
192
100
AcDbEntity
  8
A1
  6
CONTINUOUS
 62
7
100
AcDbSpline
210
0.000000000000000
220
0.000000000000000
230
1.000000000000000
 70
     8
 71
     3
 72
    15
 73
    11
 74
     0
 42
1.000000000000000e-07
 43
1.000000000000000e-07
 12
-0.8683420218662832
 22
-0.4959658587650324
 32
0.000000000000000
 13
-0.3508502426193445
 23
-0.9364315817183524
 33
0.000000000000000
 40
0.000000000000000
 40
0.000000000000000
 40
0.000000000000000
 40
0.000000000000000
 40
0.3740837632560485
 40
0.7680918907280556
 40
1.142428512551310
 40
1.399861486870202
 40
1.648272932835040
 40
1.890133600597429
 40
2.123620355765310
 40
2.132264769846354
 40
2.132264769846354
 40
2.132264769846354
 40
2.132264769846354
 10
177.2393914016712
 20
57.42136916314911
 30
0.000000000000000
 10
177.1311138512269
 20
57.35952490485133
 30
0.000000000000000
 10
176.9155999099009
 20
57.22018741870230
 30
0.000000000000000
 10
176.6205911108001
 20
56.97805796592532
 30
0.000000000000000
 10
176.3827378329906
 20
56.73129054220796
 30
0.000000000000000
 10
176.2009978940104
 20
56.50056358990348
 30
0.000000000000000
 10
176.0635437933211
 20
56.29229220201954
 30
0.000000000000000
 10
175.9482411878795
 20
56.08004836672369
 30
0.000000000000000
 10
175.8839875162806
 20
55.93178036793753
 30
0.000000000000000
 10
175.8555473940070
 20
55.85624736582510
 30
0.000000000000000
 10
175.8545364290811
 20
55.85354906504145
 30
0.000000000000000
  0
ARC
  5
193
100
AcDbEntity
  8
A1
  6
CONTINUOUS
 62
7
100
AcDbCircle
 10
176.7130892247594
 20
58.35354906504151
 30
0.000000000000000
 40
1.000000000000000
100
AcDbArc
 50
90.00000000000000
 51
180.0000000000000
  0
ARC
  5
194
100
AcDbEntity
  8
A1
  6
CONTINUOUS
 62
7
100
AcDbCircle
 10
192.7130892247594
 20
58.35354906504151
 30
0.000000000000000
 40
1.000000000000000
100
AcDbArc
 50
0.000000000000000
 51
90.00000000000000
  0
ARC
  5
195
100
AcDbEntity
  8
A1
  6
CONTINUOUS
 62
7
100
AcDbCircle
 10
193.7130892247661
 20
55.85354906504145
 30
0.000000000000000
 40
2.000000000000000
100
AcDbArc
 50
0.000000000000000
 51
90.00000000051936
  0
LINE
  5
196
100
AcDbEntity
  8
A1
  6
CONTINUOUS
 62
7
100
AcDbLine
 10
193.7130892247594
 20
58.35354906504151
 30
0.000000000000000
 11
193.7130892247594
 21
57.85354906504145
 31
0.000000000000000
  0
LINE
  5
197
100
AcDbEntity
  8
A1
  6
CONTINUOUS
 62
7
100
AcDbLine
 10
175.7130892247594
 20
52.85354906504145
 30
0.000000000000000
 11
175.7130892247594
 21
58.35354906504151
 31
0.000000000000000
  0
LINE
  5
198
100
AcDbEntity
  8
A1
  6
CONTINUOUS
 62
7
100
AcDbLine
 10
195.7130892247594
 20
55.85354906504145
 30
0.000000000000000
 11
195.7130892247594
 21
52.85354906504145
 31
0.000000000000000
  0
LINE
  5
199
100
AcDbEntity
  8
A1
  6
CONTINUOUS
 62
7
100
AcDbLine
 10
190.2130892246901
 20
63.85354906504140
 30
0.000000000000000
 11
191.2130892246901
 21
62.85354906504139
 31
0.000000000000000
  0
LINE
  5
19A
100
AcDbEntity
  8
A1
  6
CONTINUOUS
 62
7
100
AcDbLine
 10
190.2130892246901
 20
63.85354906504143
 30
0.000000000000000
 11
182.1496775640235
 21
63.85354906504143
 31
0.000000000000000
  0
LINE
  5
19B
100
AcDbEntity
  8
A1
  6
CONTINUOUS
 62
7
100
AcDbLine
 10
191.2130892246901
 20
62.85354906504143
 30
0.000000000000000
 11
191.2130892246901
 21
61.35354906504149
 31
0.000000000000000
  0
LINE
  5
19C
100
AcDbEntity
  8
A1
  6
CONTINUOUS
 62
7
100
AcDbLine
 10
181.8479486028401
 20
72.85354906504119
 30
0.000000000000000
 11
182.2747412551786
 21
60.24332525411118
 31
0.000000000000000
  0
SPLINE
  5
19D
100
AcDbEntity
  8
A1
  6
CONTINUOUS
 62
7
100
AcDbSpline
210
0.000000000000000
220
0.000000000000000
230
1.000000000000000
 70
     8
 71
     3
 72
     9
 73
     5
 74
     0
 42
1.000000000000000e-07
 43
1.000000000000000e-07
 12
-0.03383125897866535
 22
-0.9994275591136557
 32
0.000000000000000
 13
-0.03372028414599981
 23
-0.9994313095141649
 33
0.000000000000000
 40
0.000000000000000
 40
0.000000000000000
 40
0.000000000000000
 40
0.000000000000000
 40
2.368002533064208
 40
6.152490219277976
 40
6.152490219277976
 40
6.152490219277976
 40
6.152490219277976
 10
182.0557357337262
 20
231.1006743054522
 30
0.000000000000000
 10
182.0290315647401
 20
230.3117919749204
 30
0.000000000000000
 10
181.9596931994448
 20
228.2621343981272
 30
0.000000000000000
 10
181.8904686293379
 20
226.2124729734352
 30
0.000000000000000
 10
181.8479306292959
 20
224.9516944787442
 30
0.000000000000000
  0
SPLINE
  5
19E
100
AcDbEntity
  8
A1
  6
CONTINUOUS
 62
7
100
AcDbSpline
210
0.000000000000000
220
0.000000000000000
230
1.000000000000000
 70
     8
 71
     3
 72
    10
 73
     6
 74
     0
 42
1.000000000000000e-07
 43
1.000000000000000e-07
 12
0.3720993204296974
 22
0.9281929194548866
 32
0.000000000000000
 13
0.7620025391593117
 23
0.6475740346204475
 33
0.000000000000000
 40
0.000000000000000
 40
0.000000000000000
 40
0.000000000000000
 40
0.000000000000000
 40
0.04054492587978480
 40
0.1630470579153336
 40
0.3591788820139699
 40
0.3591788820139699
 40
0.3591788820139699
 40
0.3591788820139699
 10
169.2203894934080
 20
224.9851772819105
 30
0.000000000000000
 10
169.2254184065303
 20
224.9977217862843
 30
0.000000000000000
 10
169.2482203495275
 20
225.0474961512749
 30
0.000000000000000
 10
169.3348420834021
 20
225.1331536309612
 30
0.000000000000000
 10
169.4077108456933
 20
225.2096310248783
 30
0.000000000000000
 10
169.4575284950177
 20
225.2519676504280
 30
0.000000000000000
  0
SPLINE
  5
19F
100
AcDbEntity
  8
A1
  6
CONTINUOUS
 62
7
100
AcDbSpline
210
0.000000000000000
220
0.000000000000000
230
1.000000000000000
 70
     8
 71
     3
 72
    11
 73
     7
 74
     0
 42
1.000000000000000e-07
 43
1.000000000000000e-07
 12
0.7374406471153634
 22
0.6754119424335840
 32
0.000000000000000
 13
0.7321050381171972
 23
0.6811917594650367
 33
0.000000000000000
 40
0.000000000000000
 40
0.000000000000000
 40
0.000000000000000
 40
0.000000000000000
 40
0.2354848762940182
 40
0.5227643071349479
 40
0.8637739414525236
 40
1.254687208086528
 40
1.254687208086528
 40
1.254687208086528
 40
1.254687208086528
 10
169.4575284950177
 20
225.2519676504280
 30
0.000000000000000
 10
169.5154138682044
 20
225.3049840829984
 30
0.000000000000000
 10
169.6439061911929
 20
225.4226890096042
 30
0.000000000000000
 10
169.8564182280961
 20
225.6169550305383
 30
0.000000000000000
 10
170.1065200087992
 20
225.8468872645228
 30
0.000000000000000
 10
170.2854698449129
 20
226.0127210181784
 30
0.000000000000000
 10
170.3808663689027
 20
226.1014833168106
 30
0.000000000000000
  0
SPLINE
  5
1A0
100
AcDbEntity
  8
A1
  6
CONTINUOUS
 62
7
100
AcDbSpline
210
0.000000000000000
220
0.000000000000000
230
1.000000000000000
 70
     8
 71
     3
 72
     9
 73
     5
 74
     0
 42
1.000000000000000e-07
 43
1.000000000000000e-07
 12
-0.9985036470989144
 22
-0.05468516007204016
 32
0.000000000000000
 13
0.1803205609758152
 23
0.9836078971420648
 33
0.000000000000000
 40
0.000000000000000
 40
0.000000000000000
 40
0.000000000000000
 40
0.000000000000000
 40
0.04556960600451860
 40
0.06217804954953760
 40
0.06217804954953760
 40
0.06217804954953760
 40
0.06217804954953760
 10
169.2631232868310
 20
224.9515960591983
 30
0.000000000000000
 10
169.2479561475669
 20
224.9507653987987
 30
0.000000000000000
 10
169.2178730191085
 20
224.9565140762820
 30
0.000000000000000
 10
169.2193912121223
 20
224.9797318831672
 30
0.000000000000000
 10
169.2203894934080
 20
224.9851772819105
 30
0.000000000000000
  0
SPLINE
  5
1A1
100
AcDbEntity
  8
A1
  6
CONTINUOUS
 62
7
100
AcDbSpline
210
0.000000000000000
220
0.000000000000000
230
1.000000000000000
 70
     8
 71
     3
 72
    11
 73
     7
 74
     0
 42
1.000000000000000e-07
 43
1.000000000000000e-07
 12
-0.7685998018300779
 22
-0.6397298997449070
 32
0.000000000000000
 13
-0.3869719813665142
 23
-0.9220914735778933
 33
0.000000000000000
 40
0.000000000000000
 40
0.000000000000000
 40
0.000000000000000
 40
0.000000000000000
 40
0.1663588417071240
 40
0.2806252378008064
 40
0.3427513335889350
 40
0.3520617220794879
 40
0.3520617220794879
 40
0.3520617220794879
 40
0.3520617220794879
 10
167.4232229931521
 20
225.1991585080118
 30
0.000000000000000
 10
167.3806018688958
 20
225.1636835996362
 30
0.000000000000000
 10
167.3089768252217
 20
225.1027453345651
 30
0.000000000000000
 10
167.2271611353442
 20
225.0248348961331
 30
0.000000000000000
 10
167.1789193574153
 20
224.9830087098311
 30
0.000000000000000
 10
167.1690470371252
 20
224.9612211222143
 30
0.000000000000000
 10
167.1678460839647
 20
224.9583594456001
 30
0.000000000000000
  0
SPLINE
  5
1A2
100
AcDbEntity
  8
A1
  6
CONTINUOUS
 62
7
100
AcDbSpline
210
0.000000000000000
220
0.000000000000000
230
1.000000000000000
 70
     8
 71
     3
 72
     9
 73
     5
 74
     0
 42
1.000000000000000e-07
 43
1.000000000000000e-07
 12
0.9853928999107211
 22
0.1702963088416709
 32
0.000000000000000
 13
0.9670026776548184
 23
0.2547662093056715
 33
0.000000000000000
 40
0.000000000000000
 40
0.000000000000000
 40
0.000000000000000
 40
0.000000000000000
 40
0.3766351106669363
 40
0.4056579724811010
 40
0.4056579724811010
 40
0.4056579724811010
 40
0.4056579724811010
 10
184.3937677861444
 20
231.5469340213255
 30
0.000000000000000
 10
184.5174789741138
 20
231.5683138777010
 30
0.000000000000000
 10
184.6499031085009
 20
231.5967028241461
 30
0.000000000000000
 10
184.7807639418146
 20
231.6307458956882
 30
0.000000000000000
 10
184.7901190035104
 20
231.6332105771841
 30
0.000000000000000
  0
SPLINE
  5
1A3
100
AcDbEntity
  8
A1
  6
CONTINUOUS
 62
7
100
AcDbSpline
210
0.000000000000000
220
0.000000000000000
230
1.000000000000000
 70
     8
 71
     3
 72
    15
 73
    11
 74
     0
 42
1.000000000000000e-07
 43
1.000000000000000e-07
 12
-0.03236860445326784
 22
0.9994759994347078
 32
0.000000000000000
 13
-0.9383403583833569
 23
0.3457128459158412
 33
0.000000000000000
 40
0.000000000000000
 40
0.000000000000000
 40
0.000000000000000
 40
0.000000000000000
 40
0.3136251702124466
 40
0.6152619343692038
 40
0.8798240155919683
 40
1.115987610924027
 40
1.309116273292717
 40
1.461577332104838
 40
1.573245978454725
 40
1.640509492828027
 40
1.640509492828027
 40
1.640509492828027
 40
1.640509492828027
 10
187.6241262501869
 20
236.8764553478606
 30
0.000000000000000
 10
187.6207423804932
 20
236.9809422913426
 30
0.000000000000000
 10
187.6108515166559
 20
237.1858367681733
 30
0.000000000000000
 10
187.5884682067655
 20
237.4782531564246
 30
0.000000000000000
 10
187.5589064310313
 20
237.7442777243813
 30
0.000000000000000
 10
187.5231383410187
 20
237.9724438113994
 30
0.000000000000000
 10
187.4833803929320
 20
238.1635469294241
 30
0.000000000000000
 10
187.4357860413810
 20
238.3059256306876
 30
0.000000000000000
 10
187.3932157524064
 20
238.4142097900230
 30
0.000000000000000
 10
187.3380355185033
 20
238.4438447722046
 30
0.000000000000000
 10
187.3169968284423
 20
238.4515960591980
 30
0.000000000000000
  0
SPLINE
  5
1A4
100
AcDbEntity
  8
A1
  6
CONTINUOUS
 62
7
100
AcDbSpline
210
0.000000000000000
220
0.000000000000000
230
1.000000000000000
 70
     8
 71
     3
 72
    24
 73
    20
 74
     0
 42
1.000000000000000e-07
 43
1.000000000000000e-07
 12
0.7343980213834129
 22
0.6787190480513345
 32
0.000000000000000
 13
0.9869102363049933
 23
0.1612705350539727
 33
0.000000000000000
 40
0.000000000000000
 40
0.000000000000000
 40
0.000000000000000
 40
0.000000000000000
 40
0.5337873286347435
 40
1.101424105671179
 40
1.702565171226307
 40
2.336646303219077
 40
3.145913845696384
 40
4.006232443698297
 40
4.914643275308340
 40
5.868014621584084
 40
6.863103272250665
 40
7.896599169846620
 40
8.936503910121676
 40
10.01492353032393
 40
11.12680034423342
 40
12.26705810085083
 40
13.43062623940833
 40
14.61246147939971
 40
15.20891098446904
 40
15.20891098446904
 40
15.20891098446904
 40
15.20891098446904
 10
170.3808663689027
 20
226.1014833168106
 30
0.000000000000000
 10
170.5115371548990
 20
226.2222471926616
 30
0.000000000000000
 10
170.7876462869036
 20
226.4645656202484
 30
0.000000000000000
 10
171.2352328193682
 20
226.8139150999828
 30
0.000000000000000
 10
171.7261556240107
 20
227.1608735023836
 30
0.000000000000000
 10
172.2995441420841
 20
227.5295651557138
 30
0.000000000000000
 10
172.9634948416711
 20
227.9158923032239
 30
0.000000000000000
 10
173.7243293014819
 20
228.3158695005332
 30
0.000000000000000
 10
174.5433435501161
 20
228.7068988125270
 30
0.000000000000000
 10
175.4168572553913
 20
229.0866113017707
 30
0.000000000000000
 10
176.3411675338810
 20
229.4526618483700
 30
0.000000000000000
 10
177.3035628145724
 20
229.7995122830492
 30
0.000000000000000
 10
178.3022023843608
 20
230.1262974954383
 30
0.000000000000000
 10
179.3344776145096
 20
230.4329569749769
 30
0.000000000000000
 10
180.4067277533535
 20
230.7211619948351
 30
0.000000000000000
 10
181.5135485257336
 20
230.9886669906897
 30
0.000000000000000
 10
182.6495128645993
 20
231.2332974521806
 30
0.000000000000000
 10
183.6131519777135
 20
231.4155837303376
 30
0.000000000000000
 10
184.1975537454804
 20
231.5148707777204
 30
0.000000000000000
 10
184.3937677861444
 20
231.5469340213255
 30
0.000000000000000
  0
SPLINE
  5
1A5
100
AcDbEntity
  8
A1
  6
CONTINUOUS
 62
7
100
AcDbSpline
210
0.000000000000000
220
0.000000000000000
230
1.000000000000000
 70
     8
 71
     3
 72
    27
 73
    23
 74
     0
 42
1.000000000000000e-07
 43
1.000000000000000e-07
 12
0.7399826479271496
 22
0.6726259590338941
 32
0.000000000000000
 13
0.9912863775300593
 23
0.1317244006384044
 33
0.000000000000000
 40
0.000000000000000
 40
0.000000000000000
 40
0.000000000000000
 40
0.000000000000000
 40
0.6033715855778546
 40
1.254762097117751
 40
1.953809812757246
 40
2.699727961604833
 40
3.540446107822072
 40
4.434064174907054
 40
5.377911339103068
 40
6.141488881470265
 40
6.934504127030919
 40
7.755138739420551
 40
8.601547328226353
 40
9.701052920399452
 40
10.83897315330258
 40
12.01060389427030
 40
12.93958447492006
 40
13.88702288283307
 40
14.85027093892722
 40
15.82668161183211
 40
16.69909242245033
 40
17.57993114869600
 40
17.57993114869600
 40
17.57993114869600
 40
17.57993114869600
 10
168.2203118912651
 20
225.9085037364636
 30
0.000000000000000
 10
168.3691400591250
 20
226.0437848669313
 30
0.000000000000000
 10
168.6872097281012
 20
226.3159322332702
 30
0.000000000000000
 10
169.2104393781322
 20
226.7044308538066
 30
0.000000000000000
 10
169.7934567666339
 20
227.0901761556457
 30
0.000000000000000
 10
170.4490452880234
 20
227.4789061961234
 30
0.000000000000000
 10
171.1786053345912
 20
227.8683767419445
 30
0.000000000000000
 10
171.9827942362597
 20
228.2564916707486
 30
0.000000000000000
 10
172.7770998541519
 20
228.6045015309647
 30
0.000000000000000
 10
173.5501994080655
 20
228.9161767210139
 30
0.000000000000000
 10
174.2921827519580
 20
229.1945492857537
 30
0.000000000000000
 10
175.0663984237365
 20
229.4649812010864
 30
0.000000000000000
 10
175.9434747925263
 20
229.7500827085109
 30
0.000000000000000
 10
176.9284250115696
 20
230.0446728169073
 30
0.000000000000000
 10
178.0249558364031
 20
230.3432728581204
 30
0.000000000000000
 10
179.0730830276407
 20
230.6021072347499
 30
0.000000000000000
 10
180.0643084123711
 20
230.8254082726189
 30
0.000000000000000
 10
180.9912630119451
 20
231.0172771075049
 30
0.000000000000000
 10
181.9368987117310
 20
231.1961877994465
 30
0.000000000000000
 10
182.8607840218236
 20
231.3548072747761
 30
0.000000000000000
 10
183.7599136459676
 20
231.4945042624055
 30
0.000000000000000
 10
184.3386759576335
 20
231.5757826718026
 30
0.000000000000000
 10
184.6297304343429
 20
231.6144586562272
 30
0.000000000000000
  0
SPLINE
  5
1A6
100
AcDbEntity
  8
A1
  6
CONTINUOUS
 62
7
100
AcDbSpline
210
0.000000000000000
220
0.000000000000000
230
1.000000000000000
 70
     8
 71
     3
 72
    11
 73
     7
 74
     0
 42
1.000000000000000e-07
 43
1.000000000000000e-07
 12
-0.7360278436476619
 22
-0.6769512636637955
 32
0.000000000000000
 13
-0.7609457382955043
 23
-0.6488155233728321
 33
0.000000000000000
 40
0.000000000000000
 40
0.000000000000000
 40
0.000000000000000
 40
0.000000000000000
 40
0.3241641238743188
 40
0.6107986513316669
 40
0.8595940131727338
 40
1.067071922085655
 40
1.067071922085655
 40
1.067071922085655
 40
1.067071922085655
 10
168.2203118912651
 20
225.9085037364636
 30
0.000000000000000
 10
168.1407806175707
 20
225.8353559653665
 30
0.000000000000000
 10
167.9902903315027
 20
225.6982183474230
 30
0.000000000000000
 10
167.7769645784862
 20
225.5069231069456
 30
0.000000000000000
 10
167.5911288361567
 20
225.3432436312366
 30
0.000000000000000
 10
167.4758494700113
 20
225.2440301373650
 30
0.000000000000000
 10
167.4232229931521
 20
225.1991585080118
 30
0.000000000000000
  0
SPLINE
  5
1A7
100
AcDbEntity
  8
A1
  6
CONTINUOUS
 62
7
100
AcDbSpline
210
0.000000000000000
220
0.000000000000000
230
1.000000000000000
 70
     8
 71
     3
 72
    21
 73
    17
 74
     0
 42
1.000000000000000e-07
 43
1.000000000000000e-07
 12
0.03287297371821296
 22
-0.9994595377497717
 32
0.000000000000000
 13
-0.9762169452151284
 23
-0.2167959312791936
 33
0.000000000000000
 40
0.000000000000000
 40
0.000000000000000
 40
0.000000000000000
 40
0.000000000000000
 40
0.3740311464199894
 40
0.7500902508960300
 40
1.126034219168207
 40
1.503906008927348
 40
1.884398478759508
 40
2.264942846817224
 40
2.635535756328302
 40
3.008255205516031
 40
3.380195018275422
 40
3.743758140619139
 40
4.107727417003822
 40
4.469284523656891
 40
4.777522280701204
 40
4.781055762398393
 40
4.781055762398393
 40
4.781055762398393
 40
4.781055762398393
 10
187.6847401759403
 20
235.0949892384709
 30
0.000000000000000
 10
187.6888386812890
 20
234.9703795729026
 30
0.000000000000000
 10
187.6833147028955
 20
234.7198026877520
 30
0.000000000000000
 10
187.6331323403223
 20
234.3470852378706
 30
0.000000000000000
 10
187.5415174717424
 20
233.9809161062588
 30
0.000000000000000
 10
187.4072975883134
 20
233.6265351256534
 30
0.000000000000000
 10
187.2333217679067
 20
233.2882231232401
 30
0.000000000000000
 10
187.0236374048545
 20
232.9736406632542
 30
0.000000000000000
 10
186.7807626132501
 20
232.6873971254358
 30
0.000000000000000
 10
186.5105072128335
 20
232.4311082592202
 30
0.000000000000000
 10
186.2162581529792
 20
232.2065628820050
 30
0.000000000000000
 10
185.9020009481806
 20
232.0166801331782
 30
0.000000000000000
 10
185.5734124991911
 20
231.8610343365170
 30
0.000000000000000
 10
185.2486187336112
 20
231.7440627431125
 30
0.000000000000000
 10
185.0307626071686
 20
231.6890533109586
 30
0.000000000000000
 10
184.9293258618574
 20
231.6664558555966
 30
0.000000000000000
 10
184.9281760469546
 20
231.6662005074448
 30
0.000000000000000
  0
ARC
  5
1A8
100
AcDbEntity
  8
A1
  6
CONTINUOUS
 62
7
100
AcDbCircle
 10
171.7130892247595
 20
236.4515960591980
 30
0.000000000000000
 40
2.000000000000000
100
AcDbArc
 50
90.00000000000000
 51
167.7352262721070
  0
ARC
  5
1A9
100
AcDbEntity
  8
A1
  6
CONTINUOUS
 62
7
100
AcDbCircle
 10
185.4508659322206
 20
229.1829032826714
 30
0.000000000000000
 40
2.537891076944801
100
AcDbArc
 50
101.9133830787034
 51
105.1305939954617
  0
LINE
  5
1AA
100
AcDbEntity
  8
A1
  6
CONTINUOUS
 62
7
100
AcDbLine
 10
171.8639722352231
 20
238.4515960591980
 30
0.000000000000000
 11
171.7130892247595
 21
238.4515960591980
 31
0.000000000000000
  0
LINE
  5
1AB
100
AcDbEntity
  8
A1
  6
CONTINUOUS
 62
7
100
AcDbLine
 10
193.2130892247594
 20
238.4515960591980
 30
0.000000000000000
 11
193.2130892247594
 21
236.4515960591980
 31
0.000000000000000
  0
LINE
  5
1AC
100
AcDbEntity
  8
A1
  6
CONTINUOUS
 62
7
100
AcDbLine
 10
184.9281760469547
 20
231.6662005074449
 30
0.000000000000000
 11
184.6297304343430
 21
231.6144586562272
 31
0.000000000000000
  0
LINE
  5
1AD
100
AcDbEntity
  8
A1
  6
CONTINUOUS
 62
7
100
AcDbLine
 10
187.6241262501868
 20
236.8764553478606
 30
0.000000000000000
 11
187.6847401759402
 21
235.0949892384709
 31
0.000000000000000
  0
SPLINE
  5
1AE
100
AcDbEntity
  8
A1
  6
CONTINUOUS
 62
7
100
AcDbSpline
210
0.000000000000000
220
0.000000000000000
230
1.000000000000000
 70
     8
 71
     3
 72
    20
 73
    16
 74
     0
 42
1.000000000000000e-07
 43
1.000000000000000e-07
 12
0.3508502204931574
 22
-0.9364315900311340
 32
0.000000000000000
 13
0.9999982660008300
 23
-0.001862255381638533
 33
0.000000000000000
 40
0.000000000000000
 40
0.000000000000000
 40
0.000000000000000
 40
0.000000000000000
 40
0.008644327974662500
 40
0.2400716430540700
 40
0.4797246595497225
 40
0.7301925204629802
 40
0.9898366581609502
 40
1.354647316542767
 40
1.738132975850041
 40
2.152063252381887
 40
2.589145064433001
 40
2.869453435332845
 40
3.160118621900811
 40
3.469025583001586
 40
3.790481388253570
 40
3.790481388253570
 40
3.790481388253570
 40
3.790481388253570
 10
175.8545367349087
 20
241.9515960591980
 30
0.000000000000000
 10
175.8555476897006
 20
241.9488977852681
 30
0.000000000000000
 10
175.8837411520864
 20
241.8740054595870
 30
0.000000000000000
 10
175.9473728077890
 20
241.7270249087301
 30
0.000000000000000
 10
176.0620734766684
 20
241.5153004459607
 30
0.000000000000000
 10
176.1996818800282
 20
241.3063001220501
 30
0.000000000000000
 10
176.3802620786411
 20
241.0768827598581
 30
0.000000000000000
 10
176.6135792014629
 20
240.8340853911542
 30
0.000000000000000
 10
176.9126093608766
 20
240.5864717411109
 30
0.000000000000000
 10
177.2589328641435
 20
240.3623798678969
 30
0.000000000000000
 10
177.5997823127166
 20
240.1984005494878
 30
0.000000000000000
 10
177.9167404935114
 20
240.0857568906354
 30
0.000000000000000
 10
178.2010452580006
 20
240.0120622123466
 30
0.000000000000000
 10
178.5046313815379
 20
239.9631638850085
 30
0.000000000000000
 10
178.7149240789586
 20
239.9517956034658
 30
0.000000000000000
 10
178.8220758282413
 20
239.9515960591980
 30
0.000000000000000
  0
ARC
  5
1AF
100
AcDbEntity
  8
A1
  6
CONTINUOUS
 62
7
100
AcDbCircle
 10
192.7130892247595
 20
239.4515960591980
 30
0.000000000000000
 40
1.000000000000000
100
AcDbArc
 50
270.0000000000000
 51
360.0000000000000
  0
ARC
  5
1B0
100
AcDbEntity
  8
A1
  6
CONTINUOUS
 62
7
100
AcDbCircle
 10
176.7130892247595
 20
239.4515960591980
 30
0.000000000000000
 40
1.000000000000000
100
AcDbArc
 50
180.0000000000000
 51
270.0000000000000
  0
ARC
  5
1B1
100
AcDbEntity
  8
A1
  6
CONTINUOUS
 62
7
100
AcDbCircle
 10
193.7130892247595
 20
241.9515960591980
 30
0.000000000000000
 40
2.000000000000000
100
AcDbArc
 50
270.0000000000000
 51
360.0000000000015
  0
LINE
  5
1B2
100
AcDbEntity
  8
A1
  6
CONTINUOUS
 62
7
100
AcDbLine
 10
175.7130892247595
 20
239.4515960591980
 30
0.000000000000000
 11
175.7130892247595
 21
244.9515960591980
 31
0.000000000000000
  0
LINE
  5
1B3
100
AcDbEntity
  8
A1
  6
CONTINUOUS
 62
7
100
AcDbLine
 10
193.7130892247595
 20
239.9515960591980
 30
0.000000000000000
 11
193.7130892247595
 21
239.4515960591980
 31
0.000000000000000
  0
LINE
  5
1B4
100
AcDbEntity
  8
A1
  6
CONTINUOUS
 62
7
100
AcDbLine
 10
195.7130892247595
 20
241.9515960591980
 30
0.000000000000000
 11
195.7130892247595
 21
244.9515960591980
 31
0.000000000000000
  0
LINE
  5
1B5
100
AcDbEntity
  8
A1
  6
CONTINUOUS
 62
7
100
AcDbLine
 10
191.2130892246902
 20
236.4515960591980
 30
0.000000000000000
 11
191.2130892246902
 21
234.9515960591980
 31
0.000000000000000
  0
LINE
  5
1B6
100
AcDbEntity
  8
A1
  6
CONTINUOUS
 62
7
100
AcDbLine
 10
187.5257785369755
 20
233.9515960591980
 30
0.000000000000000
 11
190.2130892246902
 21
233.9515960591980
 31
0.000000000000000
  0
LINE
  5
1B7
100
AcDbEntity
  8
A1
  6
CONTINUOUS
 62
7
100
AcDbLine
 10
191.2130892246901
 20
234.9515960591981
 30
0.000000000000000
 11
190.2130892246901
 21
233.9515960591981
 31
0.000000000000000
  0
LINE
  5
1B8
100
AcDbEntity
  8
A1
  6
CONTINUOUS
 62
7
100
AcDbLine
 10
191.2130892246902
 20
234.9515960591980
 30
0.000000000000000
 11
187.6858973757726
 21
234.9515960591980
 31
0.000000000000000
  0
LINE
  5
1B9
100
AcDbEntity
  8
A1
  6
CONTINUOUS
 62
7
100
AcDbLine
 10
195.7130892247595
 20
244.9515960591980
 30
0.000000000000000
 11
175.7130892247595
 21
244.9515960591980
 31
0.000000000000000
  0
LINE
  5
1BA
100
AcDbEntity
  8
A1
  6
CONTINUOUS
 62
7
100
AcDbLine
 10
193.7130892247594
 20
239.9515960591980
 30
0.000000000000000
 11
178.8220758282412
 21
239.9515960591980
 31
0.000000000000000
  0
LINE
  5
1BB
100
AcDbEntity
  8
A1
  6
CONTINUOUS
 62
7
100
AcDbLine
 10
193.2130892247594
 20
238.4515960591980
 30
0.000000000000000
 11
171.8639722352231
 21
238.4515960591980
 31
0.000000000000000
  0
LINE
  5
1BC
100
AcDbEntity
  8
A1
  6
CONTINUOUS
 62
7
100
AcDbLine
 10
193.2130892247594
 20
236.4515960591980
 30
0.000000000000000
 11
187.6310759811707
 21
236.4515960591980
 31
0.000000000000000
  0
LINE
  5
1BD
100
AcDbEntity
  8
A1
  6
CONTINUOUS
 62
7
100
AcDbLine
 10
181.8479484360296
 20
224.9515960591983
 30
0.000000000000000
 11
167.1748860845057
 21
224.9515960591983
 31
0.000000000000000
  0
LINE
  5
1BE
100
AcDbEntity
  8
A1
  6
CONTINUOUS
 62
7
100
AcDbLine
 10
181.7992474118466
 20
72.85354906504121
 30
0.000000000000000
 11
167.1748860845056
 21
72.85354906504121
 31
0.000000000000000
  0
LINE
  5
1BF
100
AcDbEntity
  8
A1
  6
CONTINUOUS
 62
7
100
AcDbLine
 10
191.2130892246901
 20
62.85354906504143
 30
0.000000000000000
 11
182.1827111447394
 21
62.85354906504143
 31
0.000000000000000
  0
LINE
  5
1C0
100
AcDbEntity
  8
A1
  6
CONTINUOUS
 62
7
100
AcDbLine
 10
193.2130892247594
 20
61.35354906504143
 30
0.000000000000000
 11
182.2371657630968
 21
61.35354906504143
 31
0.000000000000000
  0
LINE
  5
1C1
100
AcDbEntity
  8
A1
  6
CONTINUOUS
 62
7
100
AcDbLine
 10
193.2130892247594
 20
59.35354906504143
 30
0.000000000000000
 11
180.6873502251349
 21
59.35354906504148
 31
0.000000000000000
  0
LINE
  5
1C2
100
AcDbEntity
  8
A1
  6
CONTINUOUS
 62
7
100
AcDbLine
 10
193.7130892247481
 20
57.85354906504147
 30
0.000000000000000
 11
180.6873502251361
 21
57.85354906504146
 31
0.000000000000000
  0
LINE
  5
1C3
100
AcDbEntity
  8
A1
  6
CONTINUOUS
 62
7
100
AcDbLine
 10
195.7130892247594
 20
52.85354906504145
 30
0.000000000000000
 11
175.7130892247594
 21
52.85354906504145
 31
0.000000000000000
  0
LINE
  5
1C4
100
AcDbEntity
  8
A1
  6
CONTINUOUS
 62
7
100
AcDbLine
 10
169.7587364969140
 20
236.8764553478600
 30
0.000000000000000
 11
167.1678460834055
 21
224.9583594457216
 31
0.000000000000000
  0
LINE
  5
1C5
100
AcDbEntity
  8
A1
  6
CONTINUOUS
 62
7
100
AcDbLine
 10
167.1678460839647
 20
224.9583594456002
 30
0.000000000000000
 11
167.1748860845056
 21
224.9515960591984
 31
0.000000000000000
  0
LINE
  5
1C6
100
AcDbEntity
  8
A4
  6
CENTER
 62
1
100
AcDbLine
 10
113.6678460836748
 20
171.9299159971673
 30
0.000000000000000
 11
105.6678460836748
 21
171.9299159971673
 31
0.000000000000000
  0
LINE
  5
1C7
100
AcDbEntity
  8
A4
  6
CENTER
 62
1
100
AcDbLine
 10
105.6678460836748
 20
148.9299159970981
 30
0.000000000000000
 11
119.6678460836748
 21
148.9299159970981
 31
0.000000000000000
  0
LINE
  5
1C8
100
AcDbEntity
  8
A4
  6
CENTER
 62
1
100
AcDbLine
 10
113.6678460836748
 20
125.9299159971673
 30
0.000000000000000
 11
105.6678460836748
 21
125.9299159971673
 31
0.000000000000000
  0
LINE
  5
1C9
100
AcDbEntity
  8
A4
  6
CENTER
 62
1
100
AcDbLine
 10
187.7130892247594
 20
59.35354906504146
 30
0.000000000000000
 11
187.7130892247594
 21
51.35354906504145
 31
0.000000000000000
  0
LINE
  5
1CA
100
AcDbEntity
  8
A4
  6
CENTER
 62
1
100
AcDbLine
 10
184.7130892246902
 20
65.35354906504143
 30
0.000000000000000
 11
184.7130892246902
 21
51.35354906504145
 31
0.000000000000000
  0
LINE
  5
1CB
100
AcDbEntity
  8
A4
  6
CENTER
 62
1
100
AcDbLine
 10
184.7130892240641
 20
232.5062829294126
 30
0.000000000000000
 11
184.7130892239592
 21
246.5062829294126
 31
0.000000000000000
  0
LINE
  5
1CC
100
AcDbEntity
  8
A4
  6
CENTER
 62
1
100
AcDbLine
 10
187.7130892240883
 20
238.5062829294350
 30
0.000000000000000
 11
187.7130892240284
 21
246.5062829294351
 31
0.000000000000000
  0
ARC
  5
1CD
100
AcDbEntity
  8
A2
  6
CONTINUOUS
 62
4
100
AcDbCircle
 10
182.0774046631135
 20
149.3350168671110
 30
0.000000000000000
 40
1.145412728988863
100
AcDbArc
 50
116.7997777920008
 51
157.7995393917331
  0
ARC
  5
1CE
100
AcDbEntity
  8
A2
  6
CONTINUOUS
 62
4
100
AcDbCircle
 10
184.1459480068532
 20
145.2399576110234
 30
0.000000000000000
 40
5.733264282363177
100
AcDbArc
 50
45.72442220799910
 51
116.7997777920008
  0
ARC
  5
1CF
100
AcDbEntity
  8
A2
  6
CONTINUOUS
 62
4
100
AcDbCircle
 10
187.3487737862668
 20
148.5248151273431
 30
0.000000000000000
 40
1.145412728988864
100
AcDbArc
 50
323.5117545546281
 51
405.7244222079992
  0
ARC
  5
1D0
100
AcDbEntity
  8
A2
  6
CONTINUOUS
 62
4
100
AcDbCircle
 10
182.0774046631135
 20
149.3350168671110
 30
0.000000000000000
 40
1.145412728988863
100
AcDbArc
 50
171.2621000000000
 51
225.7244222080521
  0
ARC
  5
1D1
100
AcDbEntity
  8
A2
  6
CONTINUOUS
 62
4
100
AcDbCircle
 10
185.2802304425282
 20
152.6198743834379
 30
0.000000000000000
 40
5.733264282363177
100
AcDbArc
 50
225.7244222080520
 51
296.7997777919479
  0
ARC
  5
1D2
100
AcDbEntity
  8
A2
  6
CONTINUOUS
 62
4
100
AcDbCircle
 10
187.3487737862668
 20
148.5248151273431
 30
0.000000000000000
 40
1.145412728988864
100
AcDbArc
 50
296.7997777919479
 51
306.9609392796171
  0
LINE
  5
1D3
100
AcDbEntity
  8
A2
  6
CONTINUOUS
 62
4
100
AcDbLine
 10
182.0429433594343
 20
150.5735952800403
 30
0.000000000000000
 11
181.7519013902868
 21
148.6800056042821
 31
0.000000000000000
  0
LINE
  5
1D4
100
AcDbEntity
  8
A2
  6
CONTINUOUS
 62
4
100
AcDbLine
 10
182.1724766081339
 20
148.4907859945759
 30
0.000000000000000
 11
182.4216134783570
 21
150.1117309280060
 31
0.000000000000000
  0
ARC
  5
1D5
100
AcDbEntity
  8
A2
  6
CONTINUOUS
 62
4
100
AcDbCircle
 10
182.6412538584883
 20
150.0779725221823
 30
0.000000000000000
 40
0.2222195458280301
100
AcDbArc
 50
107.2764659996366
 51
171.2621000000000
  0
ARC
  5
1D6
100
AcDbEntity
  8
A2
  6
CONTINUOUS
 62
4
100
AcDbCircle
 10
184.1459480068532
 20
145.2399576110234
 30
0.000000000000000
 40
5.288825190707117
100
AcDbArc
 50
104.2060535565378
 51
107.2764659996366
  0
ARC
  5
1D7
100
AcDbEntity
  8
A2
  6
CONTINUOUS
 62
4
100
AcDbCircle
 10
182.8589253889631
 20
150.3239627061449
 30
0.000000000000000
 40
0.04444390916560601
100
AcDbArc
 50
351.2621000000000
 51
464.2060535565375
  0
LINE
  5
1D8
100
AcDbEntity
  8
A2
  6
CONTINUOUS
 62
4
100
AcDbLine
 10
182.9028534649894
 20
150.3172110249802
 30
0.000000000000000
 11
182.5697981420269
 21
148.1502722743070
 31
0.000000000000000
  0
ARC
  5
1D9
100
AcDbEntity
  8
A2
  6
CONTINUOUS
 62
4
100
AcDbCircle
 10
182.5258700660007
 20
148.1570239554717
 30
0.000000000000000
 40
0.04444390916560601
100
AcDbArc
 50
238.3181464434623
 51
351.2621000000000
  0
ARC
  5
1DA
100
AcDbEntity
  8
A2
  6
CONTINUOUS
 62
4
100
AcDbCircle
 10
185.2802304425282
 20
152.6198743834379
 30
0.000000000000000
 40
5.288825190707117
100
AcDbArc
 50
235.2477340003634
 51
238.3181464434622
  0
ARC
  5
1DB
100
AcDbEntity
  8
A2
  6
CONTINUOUS
 62
4
100
AcDbCircle
 10
182.3921169882653
 20
148.4570275887522
 30
0.000000000000000
 40
0.2222195458280301
100
AcDbArc
 50
171.2621000000000
 51
235.2477340003634
  0
LINE
  5
1DC
100
AcDbEntity
  8
A2
  6
CONTINUOUS
 62
4
100
AcDbLine
 10
183.6959074980100
 20
149.6258449386607
 30
0.000000000000000
 11
183.8248643149606
 21
150.4648692825089
 31
0.000000000000000
  0
ARC
  5
1DD
100
AcDbEntity
  8
A2
  6
CONTINUOUS
 62
4
100
AcDbCircle
 10
183.7809362389343
 20
150.4716209636736
 30
0.000000000000000
 40
0.04444390916560601
100
AcDbArc
 50
351.2621000000000
 51
453.9910438731226
  0
ARC
  5
1DE
100
AcDbEntity
  8
A2
  6
CONTINUOUS
 62
4
100
AcDbCircle
 10
184.1459480068532
 20
145.2399576110234
 30
0.000000000000000
 40
5.288825190707117
100
AcDbArc
 50
93.99104387312263
 51
94.53021897055622
  0
ARC
  5
1DF
100
AcDbEntity
  8
A2
  6
CONTINUOUS
 62
4
100
AcDbCircle
 10
184.1459480068532
 20
145.2399576110234
 30
0.000000000000000
 40
5.288825190707117
100
AcDbArc
 50
94.53021897055626
 51
96.51962329045639
  0
ARC
  5
1E0
100
AcDbEntity
  8
A2
  6
CONTINUOUS
 62
4
100
AcDbCircle
 10
183.5706678861991
 20
150.2737976505459
 30
0.000000000000000
 40
0.2222195458280301
100
AcDbArc
 50
96.51962329045642
 51
171.2621000000000
  0
LINE
  5
1E1
100
AcDbEntity
  8
A2
  6
CONTINUOUS
 62
4
100
AcDbLine
 10
183.3510275060677
 20
150.3075560563695
 30
0.000000000000000
 11
183.0001856214742
 21
148.0248936196230
 31
0.000000000000000
  0
ARC
  5
1E2
100
AcDbEntity
  8
A2
  6
CONTINUOUS
 62
4
100
AcDbCircle
 10
183.2198260016056
 20
147.9911352137993
 30
0.000000000000000
 40
0.2222195458280301
100
AcDbArc
 50
171.2621000000000
 51
246.0045767095436
  0
ARC
  5
1E3
100
AcDbEntity
  8
A2
  6
CONTINUOUS
 62
4
100
AcDbCircle
 10
185.2802304425282
 20
152.6198743834379
 30
0.000000000000000
 40
5.288825190707117
100
AcDbArc
 50
246.0045767095436
 51
246.0558121239420
  0
ARC
  5
1E4
100
AcDbEntity
  8
A2
  6
CONTINUOUS
 62
4
100
AcDbCircle
 10
185.2802304425282
 20
152.6198743834379
 30
0.000000000000000
 40
5.288825190707117
100
AcDbArc
 50
246.0558121239420
 51
248.5331561268773
  0
ARC
  5
1E5
100
AcDbEntity
  8
A2
  6
CONTINUOUS
 62
4
100
AcDbCircle
 10
183.3609822570807
 20
147.7392984513538
 30
0.000000000000000
 40
0.04444390916560601
100
AcDbArc
 50
248.5331561268775
 51
351.2621000000000
  0
LINE
  5
1E6
100
AcDbEntity
  8
A2
  6
CONTINUOUS
 62
4
100
AcDbLine
 10
183.4049103331070
 20
147.7325467701891
 30
0.000000000000000
 11
183.5338671500564
 21
148.5715711140301
 31
0.000000000000000
  0
LINE
  5
1E7
100
AcDbEntity
  8
A2
  6
CONTINUOUS
 62
4
100
AcDbLine
 10
184.2840684757841
 20
150.5269789495391
 30
0.000000000000000
 11
183.8242676928089
 21
147.5354034798643
 31
0.000000000000000
  0
LINE
  5
1E8
100
AcDbEntity
  8
A2
  6
CONTINUOUS
 62
4
100
AcDbLine
 10
184.7290481618299
 20
150.4965407319417
 30
0.000000000000000
 11
184.2578495272887
 21
147.4308080741669
 31
0.000000000000000
  0
LINE
  5
1E9
100
AcDbEntity
  8
A2
  6
CONTINUOUS
 62
4
100
AcDbLine
 10
184.4934488445588
 20
148.9636744030507
 30
0.000000000000000
 11
184.0541680842959
 21
149.0311912146980
 31
0.000000000000000
  0
LINE
  5
1EA
100
AcDbEntity
  8
A2
  6
CONTINUOUS
 62
4
100
AcDbLine
 10
185.1683289220927
 20
150.4290239202944
 30
0.000000000000000
 11
184.6971302875515
 21
147.3632912625196
 31
0.000000000000000
  0
LINE
  5
1EB
100
AcDbEntity
  8
A2
  6
CONTINUOUS
 62
4
100
AcDbLine
 10
185.8923112993238
 20
149.2882608804240
 30
0.000000000000000
 11
186.0019039315432
 21
150.0012971394818
 31
0.000000000000000
  0
ARC
  5
1EC
100
AcDbEntity
  8
A2
  6
CONTINUOUS
 62
4
100
AcDbCircle
 10
185.7822635514118
 20
150.0350555453054
 30
0.000000000000000
 40
0.2222195458280301
100
AcDbArc
 50
351.2621000000000
 51
431.1579172838749
  0
ARC
  5
1ED
100
AcDbEntity
  8
A2
  6
CONTINUOUS
 62
4
100
AcDbCircle
 10
184.1459480068532
 20
145.2399576110234
 30
0.000000000000000
 40
5.288825190707117
100
AcDbArc
 50
71.15791728387499
 51
73.46917566457761
  0
ARC
  5
1EE
100
AcDbEntity
  8
A2
  6
CONTINUOUS
 62
4
100
AcDbCircle
 10
185.6381377668821
 20
150.2675718311329
 30
0.000000000000000
 40
0.04444390916560601
100
AcDbArc
 50
73.46917566457731
 51
171.2621000000000
  0
LINE
  5
1EF
100
AcDbEntity
  8
A2
  6
CONTINUOUS
 62
4
100
AcDbLine
 10
185.5942096908559
 20
150.2743235122976
 30
0.000000000000000
 11
185.1498110393139
 21
147.3829580472218
 31
0.000000000000000
  0
ARC
  5
1F0
100
AcDbEntity
  8
A2
  6
CONTINUOUS
 62
4
100
AcDbCircle
 10
185.1937391153402
 20
147.3762063660570
 30
0.000000000000000
 40
0.04444390916560601
100
AcDbArc
 50
171.2621000000000
 51
269.0550243354227
  0
ARC
  5
1F1
100
AcDbEntity
  8
A2
  6
CONTINUOUS
 62
4
100
AcDbCircle
 10
185.2802304425282
 20
152.6198743834379
 30
0.000000000000000
 40
5.288825190707117
100
AcDbArc
 50
269.0550243354223
 51
271.3662827161249
  0
ARC
  5
1F2
100
AcDbEntity
  8
A2
  6
CONTINUOUS
 62
4
100
AcDbCircle
 10
185.4010379390207
 20
147.5547092025666
 30
0.000000000000000
 40
0.2222195458280301
100
AcDbArc
 50
271.3662827161249
 51
351.2621000000000
  0
LINE
  5
1F3
100
AcDbEntity
  8
A2
  6
CONTINUOUS
 62
4
100
AcDbLine
 10
185.6206783191520
 20
147.5209507967430
 30
0.000000000000000
 11
185.8112911253471
 21
148.7611239681087
 31
0.000000000000000
  0
LINE
  5
1F4
100
AcDbEntity
  8
A2
  6
CONTINUOUS
 62
4
100
AcDbLine
 10
185.8112911253471
 20
148.7611239681087
 30
0.000000000000000
 11
185.5916507452157
 21
148.7948823739324
 31
0.000000000000000
  0
LINE
  5
1F5
100
AcDbEntity
  8
A2
  6
CONTINUOUS
 62
4
100
AcDbLine
 10
186.4725112891275
 20
150.1375987717455
 30
0.000000000000000
 11
186.0498002643540
 21
147.3873382691628
 31
0.000000000000000
  0
LINE
  5
1F6
100
AcDbEntity
  8
A2
  6
CONTINUOUS
 62
4
100
AcDbLine
 10
186.8799840326911
 20
149.8631312848941
 30
0.000000000000000
 11
186.7236110516963
 21
148.8457307249455
 31
0.000000000000000
  0
ARC
  5
1F7
100
AcDbEntity
  8
A2
  6
CONTINUOUS
 62
4
100
AcDbCircle
 10
186.9432514318277
 20
148.8119723191218
 30
0.000000000000000
 40
0.2222195458280311
100
AcDbArc
 50
171.2621000000000
 51
351.2621000000000
  0
LINE
  5
1F8
100
AcDbEntity
  8
A2
  6
CONTINUOUS
 62
4
100
AcDbLine
 10
187.1628918119591
 20
148.7782139132982
 30
0.000000000000000
 11
187.3071282284559
 21
149.7166510395542
 31
0.000000000000000
  0
LINE
  5
1F9
100
AcDbEntity
  8
A2
  6
CONTINUOUS
 62
4
100
AcDbLine
 10
186.9094930260040
 20
148.5923319389904
 30
0.000000000000000
 11
186.7475464574310
 21
147.5386682657659
 31
0.000000000000000
  0
LINE
  5
1FA
100
AcDbEntity
  8
A2
  6
CONTINUOUS
 62
4
100
AcDbLine
 10
187.2264546037555
 20
147.7021631869450
 30
0.000000000000000
 11
188.0073402552629
 21
149.4778780014205
 31
0.000000000000000
  0
LINE
  5
1FB
100
AcDbEntity
  8
A2
  6
CONTINUOUS
 62
4
100
AcDbLine
 10
188.4808924136585
 20
148.3508101468329
 30
0.000000000000000
 11
187.5730630106007
 21
148.4903422009513
 31
0.000000000000000
  0
ENDSEC
  0
SECTION
  2
OBJECTS
  0
DICTIONARY
  5
22F
100
AcDbDictionary
  3
ACAD_GROUP
350
230
  3
ACAD_LAYOUT
350
231
  3
ACAD_MLINESTYLE
350
232
  0
DICTIONARY
  5
230
102
{ACAD_REACTORS
330
22F
102
}
330
22F
100
AcDbDictionary
  0
DICTIONARY
  5
231
102
{ACAD_REACTORS
330
22F
102
}
330
22F
100
AcDbDictionary
  3
Model
350
233
  3
ﾚｲｱｳﾄ1
350
234
  3
ﾚｲｱｳﾄ2
350
235
  0
DICTIONARY
  5
232
102
{ACAD_REACTORS
330
22F
102
}
330
22F
100
AcDbDictionary
  3
STANDARD
350
236
  0
LAYOUT
  5
233
102
{ACAD_REACTORS
330
231
102
}
330
231
100
AcDbPlotSettings
 70
11952
  4
A3
 44
297.000000
 45
420.000000
 73
  1
 72
  1
100
AcDbLayout
  1
Model
 71
0
330
226
  0
LAYOUT
  5
234
102
{ACAD_REACTORS
330
231
102
}
330
231
100
AcDbPlotSettings
100
AcDbLayout
  1
ﾚｲｱｳﾄ1
 71
1
330
227
  0
LAYOUT
  5
235
102
{ACAD_REACTORS
330
231
102
}
330
231
100
AcDbPlotSettings
100
AcDbLayout
  1
ﾚｲｱｳﾄ2
 71
2
330
228
  0
MLINESTYLE
  5
236
102
{ACAD_REACTORS
330
232
102
}
330
232
100
AcDbMlineStyle
  2
STANDARD
 70
     0
  3

 62
   256
 51
90.00
 52
90.00
 71
     2
 49
0.50
 62
   256
  6
BYLAYER
 49
-0.50
 62
   256
  6
BYLAYER
  0
ENDSEC
  0
EOF
