  0
SECTION
  2
HEADER
  9
$ACADVER
  1
AC1027
  9
$DWGCODEPAGE
  3
ANSI_932
  9
$LTSCALE
 40
20.0
  9
$FILLMODE
 70
     1
  9
$CLAYER
  8
0
  9
$PDMODE
 70
     0
  9
$SPLFRAME
 70
     0
  9
$SPLINETYPE
 70
     6
  9
$SPLINESEGS
 70
     8
  9
$DIMASZ
 40
2.000000
  9
$DIMEXE
 40
1.500000
  9
$DIMEXO
 40
0.800000
  9
$DIMTAD
 70
     1
  9
$DIMTIH
 70
     0
  9
$DIMTOH
 70
     0
  9
$DIMTVP
 40
0.500000
  9
$DIMTXT
 40
3.100000
  9
$EXTMIN
 10
0.000000
 20
0.000000
 30
0.000000
  9
$EXTMAX
 10
297.000000
 20
420.000000
 30
0.000000
  9
$MEASUREMENT
 70
  1
  9
$LIMMIN
 10
0.000000
 20
0.000000
  9
$LIMMAX
 10
297.000000
 20
420.000000
  9
$HANDSEED
  5
34F
  9
$LWDISPLAY
290
     0
  9
$DIMBLK
  1
_OPEN
  9
$DIMDEC
 70
     2
  9
$DIMADEC
 70
     2
  9
$DIMAUNIT
 70
     0
  9
$DIMZIN
 70
     8
  9
$DIMAZIN
 70
     2
  9
$DIMTOFL
 70
     1
  0
ENDSEC
  0
SECTION
  2
CLASSES
  0
ENDSEC
  0
SECTION
  2
TABLES
  0
TABLE
  2
VPORT
  5
314
100
AcDbSymbolTable
 70
     1
  0
VPORT
  5
315
100
AcDbSymbolTableRecord
100
AcDbViewportTableRecord
  2
*ACTIVE
 70
     0
 12
141.422547
 22
131.096374
 40
226.192747
 41
1.162040
  0
ENDTAB
  0
TABLE
  2
LTYPE
  5
316
100
AcDbSymbolTable
 70
     4
  0
LTYPE
  5
317
100
AcDbSymbolTableRecord
100
AcDbLinetypeTableRecord
  2
BYBLOCK
 70
     0
  3

 72
    65
 73
     0
 40
0.0
  0
LTYPE
  5
318
100
AcDbSymbolTableRecord
100
AcDbLinetypeTableRecord
  2
BYLAYER
 70
     0
  3

 72
    65
 73
     0
 40
0.0
  0
LTYPE
  5
319
100
AcDbSymbolTableRecord
100
AcDbLinetypeTableRecord
  2
CONTINUOUS
 70
     0
  3
Solid line (NEC CAE2D for Win R17.0 : 2022.07.01)
 72
    65
 73
     0
 40
0.0
  0
LTYPE
  5
31A
100
AcDbSymbolTableRecord
100
AcDbLinetypeTableRecord
  2
DASHED
 70
     0
  3
__ __ __ __ __ __ __ __ __ __ __ __ __ _
 72
    65
 73
     2
 40
0.75
 49
0.5
 74
     0
 49
-0.25
 74
     0
  0
LTYPE
  5
31B
100
AcDbSymbolTableRecord
100
AcDbLinetypeTableRecord
  2
CENTER
 70
     0
  3
____ _ ____ _ ____ _ ____ _ ____ _ ____
 72
    65
 73
     4
 40
2.0
 49
1.25
 74
     0
 49
-0.25
 74
     0
 49
0.25
 74
     0
 49
-0.25
 74
     0
  0
LTYPE
  5
31C
100
AcDbSymbolTableRecord
100
AcDbLinetypeTableRecord
  2
PHANTOM
 70
     0
  3
______  __  __  ______  __  __  ______ 
 72
    65
 73
     6
 40
2.5
 49
1.25
 74
     0
 49
-0.25
 74
     0
 49
0.25
 74
     0
 49
-0.25
 74
     0
 49
0.25
 74
     0
 49
-0.25
 74
     0
  0
ENDTAB
  0
TABLE
  2
LAYER
  5
31D
100
AcDbSymbolTable
 70
    19
  0
LAYER
  5
31E
100
AcDbSymbolTableRecord
100
AcDbLayerTableRecord
  2
0
 70
     0
 62
     7
  6
CONTINUOUS
370
    -3
390

  0
LAYER
  5
31F
100
AcDbSymbolTableRecord
100
AcDbLayerTableRecord
  2
DXF0
 70
     0
 62
     7
  6
CONTINUOUS
370
    -3
390

  0
LAYER
  5
320
100
AcDbSymbolTableRecord
100
AcDbLayerTableRecord
  2
A0
 70
     0
 62
     9
  6
CONTINUOUS
370
    -3
390

  0
LAYER
  5
321
100
AcDbSymbolTableRecord
100
AcDbLayerTableRecord
  2
A1
 70
     0
 62
     1
  6
CONTINUOUS
370
    -3
390

  0
LAYER
  5
322
100
AcDbSymbolTableRecord
100
AcDbLayerTableRecord
  2
A2
 70
     0
 62
     9
  6
CONTINUOUS
370
    -3
390

  0
LAYER
  5
323
100
AcDbSymbolTableRecord
100
AcDbLayerTableRecord
  2
A4
 70
     0
 62
     9
  6
CONTINUOUS
370
    -3
390

  0
LAYER
  5
324
100
AcDbSymbolTableRecord
100
AcDbLayerTableRecord
  2
A5
 70
     0
 62
     8
  6
CONTINUOUS
370
    -3
390

  0
LAYER
  5
325
100
AcDbSymbolTableRecord
100
AcDbLayerTableRecord
  2
A6
 70
     0
 62
    12
  6
CONTINUOUS
370
    -3
390

  0
LAYER
  5
326
100
AcDbSymbolTableRecord
100
AcDbLayerTableRecord
  2
A8
 70
     0
 62
    10
  6
CONTINUOUS
370
    -3
390

  0
LAYER
  5
327
100
AcDbSymbolTableRecord
100
AcDbLayerTableRecord
  2
A9
 70
     0
 62
     9
  6
CONTINUOUS
370
    -3
390

  0
LAYER
  5
328
100
AcDbSymbolTableRecord
100
AcDbLayerTableRecord
  2
A10
 70
     0
 62
     6
  6
CONTINUOUS
370
    -3
390

  0
LAYER
  5
329
100
AcDbSymbolTableRecord
100
AcDbLayerTableRecord
  2
A12
 70
     0
 62
     5
  6
CONTINUOUS
370
    -3
390

  0
LAYER
  5
32A
100
AcDbSymbolTableRecord
100
AcDbLayerTableRecord
  2
A14
 70
     0
 62
     5
  6
CONTINUOUS
370
    -3
390

  0
LAYER
  5
32B
100
AcDbSymbolTableRecord
100
AcDbLayerTableRecord
  2
A20
 70
     0
 62
     1
  6
CONTINUOUS
370
    -3
390

  0
LAYER
  5
32C
100
AcDbSymbolTableRecord
100
AcDbLayerTableRecord
  2
A30
 70
     0
 62
     1
  6
CONTINUOUS
370
    -3
390

  0
LAYER
  5
32D
100
AcDbSymbolTableRecord
100
AcDbLayerTableRecord
  2
A40
 70
     0
 62
     9
  6
CONTINUOUS
370
    -3
390

  0
LAYER
  5
32E
100
AcDbSymbolTableRecord
100
AcDbLayerTableRecord
  2
A50
 70
     0
 62
    12
  6
CONTINUOUS
370
    -3
390

  0
LAYER
  5
32F
100
AcDbSymbolTableRecord
100
AcDbLayerTableRecord
  2
A1023
 70
     0
 62
     8
  6
CONTINUOUS
370
    -3
390

  0
LAYER
  5
330
100
AcDbSymbolTableRecord
100
AcDbLayerTableRecord
  2
DXF1023
 70
     0
 62
    16
  6
CONTINUOUS
370
    -3
390

  0
ENDTAB
  0
TABLE
  2
STYLE
  5
331
100
AcDbSymbolTable
 70
     4
  0
STYLE
  5
332
100
AcDbSymbolTableRecord
100
AcDbTextStyleTableRecord
  2
STANDARD
 70
    64
 40
0.0
 41
1.0
 50
0.0
 71
     0
 42
3.000000000000000
  3
TXT
  4

  0
STYLE
  5
333
100
AcDbSymbolTableRecord
100
AcDbTextStyleTableRecord
  2
ANKTATE
 70
    68
 40
0.0
 41
1.0
 50
0.0
 71
     0
 42
3.000000000000000
  3
TXT
  4

  0
STYLE
  5
334
100
AcDbSymbolTableRecord
100
AcDbTextStyleTableRecord
  2
KNJYOKO
 70
    64
 40
0.0
 41
1.0
 50
0.0
 71
     0
 42
3.000000000000000
  3
TXT
  4
BIGFONT
  0
STYLE
  5
335
100
AcDbSymbolTableRecord
100
AcDbTextStyleTableRecord
  2
KNJTATE
 70
    68
 40
0.0
 41
1.0
 50
0.0
 71
     0
 42
3.000000000000000
  3
TXT
  4
BIGFONT
  0
ENDTAB
  0
TABLE
  2
VIEW
  5
336
100
AcDbSymbolTable
 70
     0
  0
ENDTAB
  0
TABLE
  2
UCS
  5
337
100
AcDbSymbolTable
 70
     0
  0
ENDTAB
  0
TABLE
  2
APPID
  5
338
100
AcDbSymbolTable
 70
     1
  0
APPID
  5
339
100
AcDbSymbolTableRecord
100
AcDbRegAppTableRecord
  2
ACAD
 70
     0
  0
ENDTAB
  0
TABLE
  2
DIMSTYLE
  5
33A
100
AcDbSymbolTable
 70
     2
100
AcDbDimStyleTable
  0
DIMSTYLE
105
33B
100
AcDbSymbolTableRecord
100
AcDbDimStyleTableRecord
  2
STANDARD
 70
     0
 41
2.000000
 44
1.500000
 42
0.800000
145
0.661290
140
3.100000
144
1.000000
146
0.645161
340
332
  0
DIMSTYLE
105
33C
100
AcDbSymbolTableRecord
100
AcDbDimStyleTableRecord
  2
DXF001
 70
     0
 41
2.000000
 44
1.500000
 42
0.800000
145
0.661290
140
3.100000
144
1.000000
146
0.645161
 77
     1
 73
     0
 74
     0
271
     2
179
     2
275
     0
 78
     8
 79
     2
172
     1
340
332
  0
ENDTAB
  0
TABLE
  2
BLOCK_RECORD
  5
33D
100
AcDbSymbolTable
 70
    12
  0
BLOCK_RECORD
  5
33E
100
AcDbSymbolTableRecord
100
AcDbBlockTableRecord
  2
*MODEL_SPACE
  0
BLOCK_RECORD
  5
33F
100
AcDbSymbolTableRecord
100
AcDbBlockTableRecord
  2
*PAPER_SPACE
  0
BLOCK_RECORD
  5
340
100
AcDbSymbolTableRecord
100
AcDbBlockTableRecord
  2
*PAPER_SPACE0
  0
BLOCK_RECORD
  5
1
100
AcDbSymbolTableRecord
100
AcDbBlockTableRecord
  2
_NONE
  0
BLOCK_RECORD
  5
4
100
AcDbSymbolTableRecord
100
AcDbBlockTableRecord
  2
_CLOSED
  0
BLOCK_RECORD
  5
B
100
AcDbSymbolTableRecord
100
AcDbBlockTableRecord
  2
_DOT
  0
BLOCK_RECORD
  5
13
100
AcDbSymbolTableRecord
100
AcDbBlockTableRecord
  2
_OPEN
  0
BLOCK_RECORD
  5
19
100
AcDbSymbolTableRecord
100
AcDbBlockTableRecord
  2
_ORIGIN
  0
BLOCK_RECORD
  5
1E
100
AcDbSymbolTableRecord
100
AcDbBlockTableRecord
  2
_OPEN30
  0
BLOCK_RECORD
  5
24
100
AcDbSymbolTableRecord
100
AcDbBlockTableRecord
  2
_BOXFILLED
  0
BLOCK_RECORD
  5
29
100
AcDbSymbolTableRecord
100
AcDbBlockTableRecord
  2
_BOXBLANK
  0
BLOCK_RECORD
  5
31
100
AcDbSymbolTableRecord
100
AcDbBlockTableRecord
  2
_OBLIQUE
  0
BLOCK_RECORD
  5
35
100
AcDbSymbolTableRecord
100
AcDbBlockTableRecord
  2
_OPEN90
  0
BLOCK_RECORD
  5
3B
100
AcDbSymbolTableRecord
100
AcDbBlockTableRecord
  2
_CLOSEDBLANK
  0
BLOCK_RECORD
  5
41
100
AcDbSymbolTableRecord
100
AcDbBlockTableRecord
  2
_DOTBLANK
  0
ENDTAB
  0
ENDSEC
  0
SECTION
  2
BLOCKS
  0
BLOCK
  5
341
100
AcDbEntity
  8
0
100
AcDbBlockBegin
  2
*MODEL_SPACE
 70
     0
 10
0.0
 20
0.0
 30
0.0
  3
*MODEL_SPACE
  1

  0
ENDBLK
  5
342
100
AcDbEntity
  8
0
100
AcDbBlockEnd
  0
BLOCK
  5
343
100
AcDbEntity
  8
0
100
AcDbBlockBegin
  2
*PAPER_SPACE
 70
     0
 10
0.0
 20
0.0
 30
0.0
  3
*PAPER_SPACE
  1

  0
ENDBLK
  5
344
100
AcDbEntity
  8
0
100
AcDbBlockEnd
  0
BLOCK
  5
345
100
AcDbEntity
  8
0
100
AcDbBlockBegin
  2
*PAPER_SPACE0
 70
     0
 10
0.0
 20
0.0
 30
0.0
  3
*PAPER_SPACE0
  1

  0
ENDBLK
  5
346
100
AcDbEntity
  8
0
100
AcDbBlockEnd
  0
BLOCK
  5
2
330
1
100
AcDbEntity
  8
0
100
AcDbBlockBegin
  2
_NONE
 70
     0
 10
0.0
 20
0.0
 30
0.0
  3
_NONE
  1

  0
ENDBLK
  5
3
330
1
100
AcDbEntity
  8
0
100
AcDbBlockEnd
  0
BLOCK
  5
5
330
4
100
AcDbEntity
  8
0
100
AcDbBlockBegin
  2
_CLOSED
 70
     0
 10
0.0
 20
0.0
 30
0.0
  3
_CLOSED
  1

  0
LINE
  5
6
330
4
100
AcDbEntity
  8
0
  6
BYBLOCK
 62
     0
370
    -2
100
AcDbLine
 10
-1.0
 20
0.166667
 30
0.0
 11
0.0
 21
0.0
 31
0.0
  0
LINE
  5
7
330
4
100
AcDbEntity
  8
0
  6
BYBLOCK
 62
     0
370
    -2
100
AcDbLine
 10
0.0
 20
0.0
 30
0.0
 11
-1.0
 21
-0.166667
 31
0.0
  0
LINE
  5
8
330
4
100
AcDbEntity
  8
0
  6
BYBLOCK
 62
     0
370
    -2
100
AcDbLine
 10
-1.0
 20
0.166667
 30
0.0
 11
-1.0
 21
-0.166667
 31
0.0
  0
LINE
  5
9
330
4
100
AcDbEntity
  8
0
  6
BYBLOCK
 62
     0
370
    -2
100
AcDbLine
 10
0.0
 20
0.0
 30
0.0
 11
-1.0
 21
0.0
 31
0.0
  0
ENDBLK
  5
A
330
4
100
AcDbEntity
  8
0
100
AcDbBlockEnd
  0
BLOCK
  5
C
330
B
100
AcDbEntity
  8
0
100
AcDbBlockBegin
  2
_DOT
 70
     0
 10
0.0
 20
0.0
 30
0.0
  3
_DOT
  1

  0
POLYLINE
  5
D
330
B
100
AcDbEntity
  8
0
  6
BYBLOCK
 62
     0
370
    -2
100
AcDb2dPolyline
 66
     1
 10
0.0
 20
0.0
 30
0.0
 70
     1
 40
0.5
 41
0.5
  0
VERTEX
  5
E
330
B
100
AcDbEntity
  8
0
  6
BYBLOCK
 62
     0
370
    -2
100
AcDbVertex
100
AcDb2dVertex
 10
-0.25
 20
0.0
 30
0.0
 42
1.0
  0
VERTEX
  5
F
330
B
100
AcDbEntity
  8
0
  6
BYBLOCK
 62
     0
370
    -2
100
AcDbVertex
100
AcDb2dVertex
 10
0.25
 20
0.0
 30
0.0
 42
1.0
  0
SEQEND
  5
10
330
B
100
AcDbEntity
  8
0
  6
BYBLOCK
 62
     0
370
    -2
  0
LINE
  5
11
330
B
100
AcDbEntity
  8
0
  6
BYBLOCK
 62
     0
370
    -2
100
AcDbLine
 10
-0.5
 20
0.0
 30
0.0
 11
-1.0
 21
0.0
 31
0.0
  0
ENDBLK
  5
12
330
B
100
AcDbEntity
  8
0
100
AcDbBlockEnd
  0
BLOCK
  5
14
330
13
100
AcDbEntity
  8
0
100
AcDbBlockBegin
  2
_OPEN
 70
     0
 10
0.0
 20
0.0
 30
0.0
  3
_OPEN
  1

  0
LINE
  5
15
330
13
100
AcDbEntity
  8
0
  6
BYBLOCK
 62
     0
370
    -2
100
AcDbLine
 10
-1.0
 20
0.166667
 30
0.0
 11
0.0
 21
0.0
 31
0.0
  0
LINE
  5
16
330
13
100
AcDbEntity
  8
0
  6
BYBLOCK
 62
     0
370
    -2
100
AcDbLine
 10
0.0
 20
0.0
 30
0.0
 11
-1.0
 21
-0.166667
 31
0.0
  0
LINE
  5
17
330
13
100
AcDbEntity
  8
0
  6
BYBLOCK
 62
     0
370
    -2
100
AcDbLine
 10
0.0
 20
0.0
 30
0.0
 11
-1.0
 21
0.0
 31
0.0
  0
ENDBLK
  5
18
330
13
100
AcDbEntity
  8
0
100
AcDbBlockEnd
  0
BLOCK
  5
1A
330
19
100
AcDbEntity
  8
0
100
AcDbBlockBegin
  2
_ORIGIN
 70
     0
 10
0.0
 20
0.0
 30
0.0
  3
_ORIGIN
  1

  0
CIRCLE
  5
1B
330
19
100
AcDbEntity
  8
0
  6
BYBLOCK
 62
     0
370
    -2
100
AcDbCircle
 10
0.0
 20
0.0
 30
0.0
 40
0.5
  0
LINE
  5
1C
330
19
100
AcDbEntity
  8
0
  6
BYBLOCK
 62
     0
370
    -2
100
AcDbLine
 10
0.0
 20
0.0
 30
0.0
 11
-1.0
 21
0.0
 31
0.0
  0
ENDBLK
  5
1D
330
19
100
AcDbEntity
  8
0
100
AcDbBlockEnd
  0
BLOCK
  5
1F
330
1E
100
AcDbEntity
  8
0
100
AcDbBlockBegin
  2
_OPEN30
 70
     0
 10
0.0
 20
0.0
 30
0.0
  3
_OPEN30
  1

  0
LINE
  5
20
330
1E
100
AcDbEntity
  8
0
  6
BYBLOCK
 62
     0
370
    -2
100
AcDbLine
 10
-1.0
 20
0.267949
 30
0.0
 11
0.0
 21
0.0
 31
0.0
  0
LINE
  5
21
330
1E
100
AcDbEntity
  8
0
  6
BYBLOCK
 62
     0
370
    -2
100
AcDbLine
 10
0.0
 20
0.0
 30
0.0
 11
-1.0
 21
-0.267949
 31
0.0
  0
LINE
  5
22
330
1E
100
AcDbEntity
  8
0
  6
BYBLOCK
 62
     0
370
    -2
100
AcDbLine
 10
0.0
 20
0.0
 30
0.0
 11
-1.0
 21
0.0
 31
0.0
  0
ENDBLK
  5
23
330
1E
100
AcDbEntity
  8
0
100
AcDbBlockEnd
  0
BLOCK
  5
25
330
24
100
AcDbEntity
  8
0
100
AcDbBlockBegin
  2
_BOXFILLED
 70
     0
 10
0.0
 20
0.0
 30
0.0
  3
_BOXFILLED
  1

  0
SOLID
  5
26
330
24
100
AcDbEntity
  8
0
  6
BYBLOCK
 62
     0
370
    -2
100
AcDbTrace
 10
-0.5
 20
0.5
 30
0.0
 11
0.5
 21
0.5
 31
0.0
 12
-0.5
 22
-0.5
 32
0.0
 13
0.5
 23
-0.5
 33
0.0
  0
LINE
  5
27
330
24
100
AcDbEntity
  8
0
  6
BYBLOCK
 62
     0
370
    -2
100
AcDbLine
 10
-0.5
 20
0.0
 30
0.0
 11
-1.0
 21
0.0
 31
0.0
  0
ENDBLK
  5
28
330
24
100
AcDbEntity
  8
0
100
AcDbBlockEnd
  0
BLOCK
  5
2A
330
29
100
AcDbEntity
  8
0
100
AcDbBlockBegin
  2
_BOXBLANK
 70
     0
 10
0.0
 20
0.0
 30
0.0
  3
_BOXBLANK
  1

  0
LINE
  5
2B
330
29
100
AcDbEntity
  8
0
  6
BYBLOCK
 62
     0
370
    -2
100
AcDbLine
 10
-0.5
 20
-0.5
 30
0.0
 11
0.5
 21
-0.5
 31
0.0
  0
LINE
  5
2C
330
29
100
AcDbEntity
  8
0
  6
BYBLOCK
 62
     0
370
    -2
100
AcDbLine
 10
0.5
 20
-0.5
 30
0.0
 11
0.5
 21
0.5
 31
0.0
  0
LINE
  5
2D
330
29
100
AcDbEntity
  8
0
  6
BYBLOCK
 62
     0
370
    -2
100
AcDbLine
 10
0.5
 20
0.5
 30
0.0
 11
-0.5
 21
0.5
 31
0.0
  0
LINE
  5
2E
330
29
100
AcDbEntity
  8
0
  6
BYBLOCK
 62
     0
370
    -2
100
AcDbLine
 10
-0.5
 20
0.5
 30
0.0
 11
-0.5
 21
-0.5
 31
0.0
  0
LINE
  5
2F
330
29
100
AcDbEntity
  8
0
  6
BYBLOCK
 62
     0
370
    -2
100
AcDbLine
 10
-0.5
 20
0.0
 30
0.0
 11
-1.0
 21
0.0
 31
0.0
  0
ENDBLK
  5
30
330
29
100
AcDbEntity
  8
0
100
AcDbBlockEnd
  0
BLOCK
  5
32
330
31
100
AcDbEntity
  8
0
100
AcDbBlockBegin
  2
_OBLIQUE
 70
     0
 10
0.0
 20
0.0
 30
0.0
  3
_OBLIQUE
  1

  0
LINE
  5
33
330
31
100
AcDbEntity
  8
0
  6
BYBLOCK
 62
     0
370
    -2
100
AcDbLine
 10
-0.5
 20
-0.5
 30
0.0
 11
0.5
 21
0.5
 31
0.0
  0
ENDBLK
  5
34
330
31
100
AcDbEntity
  8
0
100
AcDbBlockEnd
  0
BLOCK
  5
36
330
35
100
AcDbEntity
  8
0
100
AcDbBlockBegin
  2
_OPEN90
 70
     0
 10
0.0
 20
0.0
 30
0.0
  3
_OPEN90
  1

  0
LINE
  5
37
330
35
100
AcDbEntity
  8
0
  6
BYBLOCK
 62
     0
370
    -2
100
AcDbLine
 10
-0.5
 20
0.5
 30
0.0
 11
0.0
 21
0.0
 31
0.0
  0
LINE
  5
38
330
35
100
AcDbEntity
  8
0
  6
BYBLOCK
 62
     0
370
    -2
100
AcDbLine
 10
0.0
 20
0.0
 30
0.0
 11
-0.5
 21
-0.5
 31
0.0
  0
LINE
  5
39
330
35
100
AcDbEntity
  8
0
  6
BYBLOCK
 62
     0
370
    -2
100
AcDbLine
 10
0.0
 20
0.0
 30
0.0
 11
-1.0
 21
0.0
 31
0.0
  0
ENDBLK
  5
3A
330
35
100
AcDbEntity
  8
0
100
AcDbBlockEnd
  0
BLOCK
  5
3C
330
3B
100
AcDbEntity
  8
0
100
AcDbBlockBegin
  2
_CLOSEDBLANK
 70
     0
 10
0.0
 20
0.0
 30
0.0
  3
_CLOSEDBLANK
  1

  0
LINE
  5
3D
330
3B
100
AcDbEntity
  8
0
  6
BYBLOCK
 62
     0
370
    -2
100
AcDbLine
 10
-1.0
 20
0.1666666666666666
 30
0.0
 11
0.0
 21
0.0
 31
0.0
  0
LINE
  5
3E
330
3B
100
AcDbEntity
  8
0
  6
BYBLOCK
 62
     0
370
    -2
100
AcDbLine
 10
0.0
 20
0.0
 30
0.0
 11
-1.0
 21
-0.1666666666666666
 31
0.0
  0
LINE
  5
3F
330
3B
100
AcDbEntity
  8
0
  6
BYBLOCK
 62
     0
370
    -2
100
AcDbLine
 10
-1.0
 20
0.1666666666666666
 30
0.0
 11
-1.0
 21
-0.1666666666666666
 31
0.0
  0
ENDBLK
  5
40
330
3B
100
AcDbEntity
  8
0
100
AcDbBlockEnd
  0
BLOCK
  5
42
330
41
100
AcDbEntity
  8
0
100
AcDbBlockBegin
  2
_DOTBLANK
 70
     0
 10
0.0
 20
0.0
 30
0.0
  3
_DOTBLANK
  1

  0
CIRCLE
  5
43
330
41
100
AcDbEntity
  8
0
  6
BYBLOCK
 62
     0
370
    -2
100
AcDbCircle
 10
0.0
 20
0.0
 30
0.0
 40
0.5
  0
LINE
  5
44
330
41
100
AcDbEntity
  8
0
  6
BYBLOCK
 62
     0
370
    -2
100
AcDbLine
 10
-0.5
 20
0.0
 30
0.0
 11
-1.0
 21
0.0
 31
0.0
  0
ENDBLK
  5
45
330
41
100
AcDbEntity
  8
0
100
AcDbBlockEnd
  0
ENDSEC
  0
SECTION
  2
ENTITIES
  0
MTEXT
  5
46
100
AcDbEntity
  8
A8
  6
CONTINUOUS
 62
3
100
AcDbMText
 10
9.999997526638502
 20
18.00000076076889
 30
0.000000000000000
 40
3.000000000000000
 41
0.000000000000000
 44
0.6739999771118164
 71
     7
 72
     1
  1
{\H0.93x;{TYPE No.TL-520}}
 11
1.000000000000000
 21
0.000000000000000
 31
0.000000000000000
  7
STANDARD
  0
POINT
  5
47
100
AcDbEntity
  8
A0
  6
CONTINUOUS
 62
3
100
AcDbPoint
 10
9.999997526638502
 20
18.00000076076889
 30
0.000000000000000
  0
LINE
  5
48
100
AcDbEntity
  8
A10
  6
CONTINUOUS
 62
3
100
AcDbLine
 10
193.5570480157533
 20
160.8926988846149
 30
0.000000000000000
 11
193.5570480157533
 21
172.5926988846149
 31
0.000000000000000
  0
LINE
  5
49
100
AcDbEntity
  8
A10
  6
CENTER
 62
3
100
AcDbLine
 10
193.1070480157533
 20
172.3926988846149
 30
0.000000000000000
 11
188.0070480157533
 21
172.3926988846149
 31
0.000000000000000
  0
LINE
  5
4A
100
AcDbEntity
  8
A10
  6
CENTER
 62
3
100
AcDbLine
 10
190.5570480157533
 20
169.8426988846149
 30
0.000000000000000
 11
190.5570480157533
 21
174.9426988846149
 31
0.000000000000000
  0
LINE
  5
4B
100
AcDbEntity
  8
A10
  6
CONTINUOUS
 62
3
100
AcDbLine
 10
186.5570480157533
 20
157.8926988846148
 30
0.000000000000000
 11
190.5570480157533
 21
157.8926988846148
 31
0.000000000000000
  0
ARC
  5
4C
100
AcDbEntity
  8
A10
  6
CONTINUOUS
 62
3
100
AcDbCircle
 10
190.5570480157533
 20
160.8926988846149
 30
0.000000000000000
 40
3.000000000000000
100
AcDbArc
 50
270.0000000000000
 51
360.0000000000000
  0
ARC
  5
4D
100
AcDbEntity
  8
A10
  6
CONTINUOUS
 62
3
100
AcDbCircle
 10
190.5570480157533
 20
172.5926988846149
 30
0.000000000000000
 40
3.000000000000000
100
AcDbArc
 50
0.000000000000000
 51
90.00000000000000
  0
LINE
  5
4E
100
AcDbEntity
  8
A10
  6
CONTINUOUS
 62
3
100
AcDbLine
 10
190.5570480157533
 20
175.5926988846149
 30
0.000000000000000
 11
190.5570480157533
 21
176.3926988846149
 31
0.000000000000000
  0
ARC
  5
4F
100
AcDbEntity
  8
A10
  6
CONTINUOUS
 62
3
100
AcDbCircle
 10
186.5570480157533
 20
156.8926988846148
 30
0.000000000000000
 40
1.000000000000000
100
AcDbArc
 50
90.00000000000000
 51
180.0000000000000
  0
LINE
  5
50
100
AcDbEntity
  8
A10
  6
CONTINUOUS
 62
3
100
AcDbLine
 10
185.5570480157533
 20
152.3926988846148
 30
0.000000000000000
 11
185.5570480157533
 21
156.8926988846148
 31
0.000000000000000
  0
LINE
  5
51
100
AcDbEntity
  8
A10
  6
CONTINUOUS
 62
3
100
AcDbLine
 10
159.5570480157534
 20
176.3926988846149
 30
0.000000000000000
 11
159.5570480157534
 21
142.6926988846150
 31
0.000000000000000
  0
LINE
  5
52
100
AcDbEntity
  8
A10
  6
CONTINUOUS
 62
3
100
AcDbLine
 10
193.5570480157534
 20
172.5926988846149
 30
0.000000000000000
 11
193.5570480157534
 21
160.8926988846149
 31
0.000000000000000
  0
LINE
  5
53
100
AcDbEntity
  8
A10
  6
CONTINUOUS
 62
3
100
AcDbLine
 10
159.5570480157534
 20
142.6926988846149
 30
0.000000000000000
 11
185.5570480157534
 21
142.6926988846149
 31
0.000000000000000
  0
LINE
  5
54
100
AcDbEntity
  8
A10
  6
CONTINUOUS
 62
3
100
AcDbLine
 10
159.5570480157534
 20
143.4926988846150
 30
0.000000000000000
 11
185.5570480157534
 21
143.4926988846150
 31
0.000000000000000
  0
LINE
  5
55
100
AcDbEntity
  8
A10
  6
DASHED
 62
3
100
AcDbLine
 10
160.3570480157533
 20
176.3926988846149
 30
0.000000000000000
 11
190.5570480157522
 21
176.3926988846149
 31
0.000000000000000
  0
LINE
  5
56
100
AcDbEntity
  8
A10
  6
CONTINUOUS
 62
3
100
AcDbLine
 10
160.3570480157534
 20
177.1926988846149
 30
0.000000000000000
 11
190.5570480157515
 21
177.1926988846149
 31
0.000000000000000
  0
LINE
  5
57
100
AcDbEntity
  8
A10
  6
CONTINUOUS
 62
3
100
AcDbLine
 10
186.5570480157533
 20
157.8926988846150
 30
0.000000000000000
 11
190.5570480157533
 21
157.8926988846150
 31
0.000000000000000
  0
LINE
  5
58
100
AcDbEntity
  8
A10
  6
CONTINUOUS
 62
3
100
AcDbLine
 10
185.5570480157535
 20
156.8926988846150
 30
0.000000000000000
 11
185.5570480157534
 21
142.6926988846149
 31
0.000000000000000
  0
ARC
  5
59
100
AcDbEntity
  8
A10
  6
CONTINUOUS
 62
3
100
AcDbCircle
 10
190.5570480157535
 20
172.5926988846149
 30
0.000000000000000
 40
3.000000000000000
100
AcDbArc
 50
0.000000000000000
 51
90.00000000000000
  0
ARC
  5
5A
100
AcDbEntity
  8
A10
  6
CONTINUOUS
 62
3
100
AcDbCircle
 10
190.5570480157535
 20
160.8926988846149
 30
0.000000000000000
 40
3.000000000000000
100
AcDbArc
 50
270.0000000000000
 51
360.0000000000000
  0
LINE
  5
5B
100
AcDbEntity
  8
A10
  6
DASHED
 62
3
100
AcDbLine
 10
160.3570480157533
 20
176.3926988846149
 30
0.000000000000000
 11
160.3570480157533
 21
143.4926988846150
 31
0.000000000000000
  0
LINE
  5
5C
100
AcDbEntity
  8
A10
  6
CONTINUOUS
 62
3
100
AcDbLine
 10
190.5570480157524
 20
176.1926988846149
 30
0.000000000000000
 11
190.5570480157516
 21
177.1926988846151
 31
0.000000000000000
  0
ARC
  5
5D
100
AcDbEntity
  8
A10
  6
CONTINUOUS
 62
3
100
AcDbCircle
 10
160.3570480157534
 20
176.3926988846149
 30
0.000000000000000
 40
0.8000000000000000
100
AcDbArc
 50
90.00000000000000
 51
180.0000000000000
  0
LINE
  5
5E
100
AcDbEntity
  8
A10
  6
CONTINUOUS
 62
3
100
AcDbLine
 10
160.3570480157533
 20
176.3926988846149
 30
0.000000000000000
 11
160.3570480157533
 21
177.1926988846149
 31
0.000000000000000
  0
LINE
  5
5F
100
AcDbEntity
  8
A10
  6
CONTINUOUS
 62
3
100
AcDbLine
 10
160.3570480157533
 20
176.3926988846149
 30
0.000000000000000
 11
159.5570480157535
 21
176.3926988846149
 31
0.000000000000000
  0
ARC
  5
60
100
AcDbEntity
  8
A10
  6
CONTINUOUS
 62
3
100
AcDbCircle
 10
186.5570480157533
 20
156.8926988846150
 30
0.000000000000000
 40
1.000000000000000
100
AcDbArc
 50
90.00000000000000
 51
180.0000000000000
  0
LINE
  5
61
100
AcDbEntity
  8
A10
  6
CENTER
 62
3
100
AcDbLine
 10
164.5570480157533
 20
141.1926988846150
 30
0.000000000000000
 11
164.5570480157533
 21
144.9926988846150
 31
0.000000000000000
  0
LINE
  5
62
100
AcDbEntity
  8
A10
  6
CENTER
 62
3
100
AcDbLine
 10
180.5570480157533
 20
141.1926988846150
 30
0.000000000000000
 11
180.5570480157533
 21
144.9926988846150
 31
0.000000000000000
  0
CIRCLE
  5
63
100
AcDbEntity
  8
A10
  6
CONTINUOUS
 62
3
100
AcDbCircle
 10
203.6385234677045
 20
161.4325437762233
 30
0.000000000000000
 40
1.050000000000000
  0
ARC
  5
64
100
AcDbEntity
  8
A10
  6
CONTINUOUS
 62
3
100
AcDbCircle
 10
190.5570480157533
 20
172.3926988846148
 30
0.000000000000000
 40
3.800000000000001
100
AcDbArc
 50
52.56084317667210
 51
82.43915682332951
  0
ARC
  5
65
100
AcDbEntity
  8
A10
  6
CONTINUOUS
 62
3
100
AcDbCircle
 10
190.5570480157491
 20
172.3926988845648
 30
0.000000000000000
 40
3.800000000050129
100
AcDbArc
 50
82.43915682336559
 51
89.99999999993781
  0
ARC
  5
66
100
AcDbEntity
  8
A10
  6
CONTINUOUS
 62
3
100
AcDbCircle
 10
190.5570480157484
 20
172.3926988846091
 30
0.000000000000000
 40
3.800000000007549
100
AcDbArc
 50
45.00000000000867
 51
52.56084317666573
  0
ARC
  5
67
100
AcDbEntity
  8
A10
  6
CONTINUOUS
 62
3
100
AcDbCircle
 10
190.5570480157533
 20
172.3926988846148
 30
0.000000000000000
 40
14.00000000000000
100
AcDbArc
 50
277.4935155487868
 51
303.2802396942113
  0
ARC
  5
68
100
AcDbEntity
  8
A10
  6
CONTINUOUS
 62
3
100
AcDbCircle
 10
199.3368004974493
 20
159.0167523252063
 30
0.000000000000000
 40
2.000000000000000
100
AcDbArc
 50
45.00000000000000
 51
123.2802396942112
  0
ARC
  5
69
100
AcDbEntity
  8
A10
  6
CONTINUOUS
 62
3
100
AcDbCircle
 10
203.6385234677045
 20
161.4325437762233
 30
0.000000000000000
 40
2.750000000000000
100
AcDbArc
 50
225.0000000000000
 51
453.1896851042192
  0
ARC
  5
6A
100
AcDbEntity
  8
A10
  6
CONTINUOUS
 62
3
100
AcDbCircle
 10
203.4298668830657
 20
165.1767342667949
 30
0.000000000000000
 40
1.000000000000000
100
AcDbArc
 50
225.0000000000000
 51
273.1896851042191
  0
LINE
  5
6B
100
AcDbEntity
  8
A10
  6
CONTINUOUS
 62
3
100
AcDbLine
 10
190.5570480157533
 20
175.5926988846150
 30
0.000000000000000
 11
190.5570480157532
 21
176.1926988846149
 31
0.000000000000000
  0
LINE
  5
6C
100
AcDbEntity
  8
A10
  6
CONTINUOUS
 62
3
100
AcDbLine
 10
192.7760100257950
 20
174.6116608946566
 30
0.000000000000000
 11
193.2440537842622
 21
175.0797046531238
 31
0.000000000000000
  0
LINE
  5
6D
100
AcDbEntity
  8
A10
  6
CONTINUOUS
 62
3
100
AcDbLine
 10
202.7899953302806
 20
165.5337631071053
 30
0.000000000000000
 11
202.2243099053314
 21
164.9680776821561
 31
0.000000000000000
  0
LINE
  5
6E
100
AcDbEntity
  8
A10
  6
CONTINUOUS
 62
3
100
AcDbLine
 10
193.2440537842622
 20
175.0797046531237
 30
0.000000000000000
 11
202.7899953302806
 21
165.5337631071053
 31
0.000000000000000
  0
LINE
  5
6F
100
AcDbEntity
  8
A10
  6
CONTINUOUS
 62
3
100
AcDbLine
 10
201.6939798194414
 20
159.4880001279603
 30
0.000000000000000
 11
200.7510140598224
 21
160.4309658875793
 31
0.000000000000000
  0
LINE
  5
70
100
AcDbEntity
  8
A10
  6
CONTINUOUS
 62
3
100
AcDbLine
 10
202.2243099053314
 20
164.9680776821561
 30
0.000000000000000
 11
202.7227601018792
 21
164.4696274856084
 31
0.000000000000000
  0
LINE
  5
71
100
AcDbEntity
  8
A10
  6
DASHED
 62
3
100
AcDbLine
 10
202.2243099053316
 20
164.9680776821562
 30
0.000000000000000
 11
193.2220018487401
 21
173.9703857387476
 31
0.000000000000000
  0
ARC
  5
72
100
AcDbEntity
  8
A10
  6
CONTINUOUS
 62
3
100
AcDbCircle
 10
203.6385234677045
 20
161.4325437762233
 30
0.000000000000000
 40
3.500000000000000
100
AcDbArc
 50
189.9989641095474
 51
469.6230664748454
  0
ARC
  5
73
100
AcDbEntity
  8
A10
  6
CONTINUOUS
 62
3
100
AcDbCircle
 10
203.6385234677045
 20
161.4325437762233
 30
0.000000000000000
 40
3.200000000000000
100
AcDbArc
 50
194.8999708794560
 51
469.6230664748454
  0
LINE
  5
74
100
AcDbEntity
  8
A10
  6
CENTER
 62
3
100
AcDbLine
 10
207.8885234677045
 20
161.4325437762233
 30
0.000000000000000
 11
201.6103978262119
 21
161.4325437762233
 31
0.000000000000000
  0
LINE
  5
75
100
AcDbEntity
  8
A10
  6
CENTER
 62
3
100
AcDbLine
 10
203.6385234677045
 20
165.6825437762233
 30
0.000000000000000
 11
203.6385234677045
 21
157.1825437762233
 31
0.000000000000000
  0
LINE
  5
76
100
AcDbEntity
  8
A10
  6
CENTER
 62
3
100
AcDbLine
 10
184.3570480157535
 20
155.8926988846149
 30
0.000000000000000
 11
180.7570480157534
 21
155.8926988846149
 31
0.000000000000000
  0
LINE
  5
77
100
AcDbEntity
  8
A10
  6
CENTER
 62
3
100
AcDbLine
 10
182.5570480157535
 20
157.6926988846149
 30
0.000000000000000
 11
182.5570480157535
 21
154.0926988846149
 31
0.000000000000000
  0
LINE
  5
78
100
AcDbEntity
  8
A10
  6
CENTER
 62
3
100
AcDbLine
 10
165.3570480157533
 20
155.8926988846149
 30
0.000000000000000
 11
161.7570480157533
 21
155.8926988846149
 31
0.000000000000000
  0
LINE
  5
79
100
AcDbEntity
  8
A10
  6
CENTER
 62
3
100
AcDbLine
 10
163.5570480157533
 20
157.6926988846149
 30
0.000000000000000
 11
163.5570480157533
 21
154.0926988846149
 31
0.000000000000000
  0
ARC
  5
7A
100
AcDbEntity
  8
A10
  6
PHANTOM
 62
3
100
AcDbCircle
 10
193.5570480157534
 20
155.5924012682034
 30
0.000000000000000
 40
3.500000000000000
100
AcDbArc
 50
150.0810090481485
 51
429.7051114134466
  0
LINE
  5
7B
100
AcDbEntity
  8
A10
  6
CENTER
 62
3
100
AcDbLine
 10
198.5570480157534
 20
155.5924012682034
 30
0.000000000000000
 11
188.5570480157534
 21
155.5924012682034
 31
0.000000000000000
  0
LINE
  5
7C
100
AcDbEntity
  8
A10
  6
CENTER
 62
3
100
AcDbLine
 10
193.5570480157534
 20
157.0924012682034
 30
0.000000000000000
 11
193.5570480157534
 21
150.5924012682034
 31
0.000000000000000
  0
ARC
  5
7D
100
AcDbEntity
  8
A10
  6
PHANTOM
 62
3
100
AcDbCircle
 10
192.0570480157534
 20
155.3926988846148
 30
0.000000000000000
 40
3.500000000000000
100
AcDbArc
 50
144.9989641095477
 51
424.6230664748459
  0
LINE
  5
7E
100
AcDbEntity
  8
A10
  6
CENTER
 62
3
100
AcDbLine
 10
197.0570480157534
 20
155.3926988846148
 30
0.000000000000000
 11
187.0570480157534
 21
155.3926988846148
 31
0.000000000000000
  0
LINE
  5
7F
100
AcDbEntity
  8
A10
  6
CENTER
 62
3
100
AcDbLine
 10
192.0570480157534
 20
156.8926988846148
 30
0.000000000000000
 11
192.0570480157534
 21
150.3926988846148
 31
0.000000000000000
  0
LINE
  5
80
100
AcDbEntity
  8
A10
  6
CONTINUOUS
 62
3
100
AcDbLine
 10
249.1950974696311
 20
156.8926988846181
 30
0.000000000000000
 11
249.1450974696311
 21
156.8926988846181
 31
0.000000000000000
  0
LINE
  5
81
100
AcDbEntity
  8
A10
  6
CONTINUOUS
 62
3
100
AcDbLine
 10
249.1450974696312
 20
154.8926988846181
 30
0.000000000000000
 11
249.1950974696311
 21
154.8926988846181
 31
0.000000000000000
  0
LINE
  5
82
100
AcDbEntity
  8
A10
  6
CONTINUOUS
 62
3
100
AcDbLine
 10
262.5450974696262
 20
157.1426988846181
 30
0.000000000000000
 11
249.9950974696310
 21
157.1426988846181
 31
0.000000000000000
  0
LINE
  5
83
100
AcDbEntity
  8
A10
  6
CONTINUOUS
 62
3
100
AcDbLine
 10
249.9950974696310
 20
154.6426988846181
 30
0.000000000000000
 11
262.5450974696313
 21
154.6426988846181
 31
0.000000000000000
  0
LINE
  5
84
100
AcDbEntity
  8
A10
  6
CONTINUOUS
 62
3
100
AcDbLine
 10
264.3450974696312
 20
157.8926988846181
 30
0.000000000000000
 11
263.3450974696312
 21
157.8926988846181
 31
0.000000000000000
  0
LINE
  5
85
100
AcDbEntity
  8
A10
  6
CONTINUOUS
 62
3
100
AcDbLine
 10
263.3450974696312
 20
153.8926988846181
 30
0.000000000000000
 11
264.3450974696312
 21
153.8926988846181
 31
0.000000000000000
  0
LINE
  5
86
100
AcDbEntity
  8
A10
  6
CONTINUOUS
 62
3
100
AcDbLine
 10
264.3450974696312
 20
153.8926988846181
 30
0.000000000000000
 11
264.3450974696312
 21
157.8926988846181
 31
0.000000000000000
  0
LINE
  5
87
100
AcDbEntity
  8
A10
  6
CONTINUOUS
 62
3
100
AcDbLine
 10
260.2950974696309
 20
164.9325437762266
 30
0.000000000000000
 11
251.3950974696309
 21
164.9325437762266
 31
0.000000000000000
  0
LINE
  5
88
100
AcDbEntity
  8
A10
  6
CONTINUOUS
 62
3
100
AcDbLine
 10
251.3950974696309
 20
157.9325437762266
 30
0.000000000000000
 11
260.2950974696309
 21
157.9325437762266
 31
0.000000000000000
  0
LINE
  5
89
100
AcDbEntity
  8
A10
  6
CONTINUOUS
 62
3
100
AcDbLine
 10
260.5950974696309
 20
163.6952854760236
 30
0.000000000000000
 11
260.5950974696309
 21
158.2325437762266
 31
0.000000000000000
  0
LINE
  5
8A
100
AcDbEntity
  8
A10
  6
CONTINUOUS
 62
3
100
AcDbLine
 10
260.5950974696307
 20
164.6325437762264
 30
0.000000000000000
 11
260.2950974696307
 21
164.9325437762265
 31
0.000000000000000
  0
LINE
  5
8B
100
AcDbEntity
  8
A10
  6
CONTINUOUS
 62
3
100
AcDbLine
 10
260.2950974696308
 20
157.9325437762266
 30
0.000000000000000
 11
260.5950974696308
 21
158.2325437762266
 31
0.000000000000000
  0
LINE
  5
8C
100
AcDbEntity
  8
A10
  6
CONTINUOUS
 62
3
100
AcDbLine
 10
260.5950974696309
 20
164.6325437762266
 30
0.000000000000000
 11
260.5950974696309
 21
163.6952854760236
 31
0.000000000000000
  0
LINE
  5
8D
100
AcDbEntity
  8
A10
  6
CONTINUOUS
 62
3
100
AcDbLine
 10
260.2950974696309
 20
157.9325437762266
 30
0.000000000000000
 11
260.2950974696309
 21
164.9325437762266
 31
0.000000000000000
  0
LINE
  5
8E
100
AcDbEntity
  8
A10
  6
CONTINUOUS
 62
3
100
AcDbLine
 10
251.0950974696309
 20
163.6952854760236
 30
0.000000000000000
 11
251.0950974696309
 21
164.6325437762266
 31
0.000000000000000
  0
LINE
  5
8F
100
AcDbEntity
  8
A10
  6
CONTINUOUS
 62
3
100
AcDbLine
 10
251.0950974696310
 20
158.2325437762266
 30
0.000000000000000
 11
251.3950974696310
 21
157.9325437762267
 31
0.000000000000000
  0
LINE
  5
90
100
AcDbEntity
  8
A10
  6
CONTINUOUS
 62
3
100
AcDbLine
 10
251.3950974696309
 20
164.9325437762266
 30
0.000000000000000
 11
251.0950974696309
 21
164.6325437762266
 31
0.000000000000000
  0
LINE
  5
91
100
AcDbEntity
  8
A10
  6
CONTINUOUS
 62
3
100
AcDbLine
 10
251.3950974696309
 20
164.9325437762266
 30
0.000000000000000
 11
251.3950974696309
 21
157.9325437762266
 31
0.000000000000000
  0
LINE
  5
92
100
AcDbEntity
  8
A10
  6
CONTINUOUS
 62
3
100
AcDbLine
 10
251.0950974696309
 20
158.2325437762266
 30
0.000000000000000
 11
251.0950974696309
 21
163.6952854760236
 31
0.000000000000000
  0
SPLINE
  5
93
100
AcDbEntity
  8
A10
  6
CONTINUOUS
 62
3
100
AcDbSpline
210
0.000000000000000
220
0.000000000000000
230
1.000000000000000
 70
     8
 71
     3
 72
    12
 73
     8
 74
     0
 42
1.000000000000000e-07
 43
1.000000000000000e-07
 12
-0.7634395756940648
 22
0.6458792567173077
 32
0.000000000000000
 13
-0.9999983571533448
 23
-0.001812648730265209
 33
0.000000000000000
 40
0.000000000000000
 40
0.000000000000000
 40
0.000000000000000
 40
0.000000000000000
 40
0.03323690177536840
 40
0.1146804281947821
 40
0.2390523670036890
 40
0.3935300142319755
 40
0.5061205212670277
 40
0.5061205212670277
 40
0.5061205212670277
 40
0.5061205212670277
 10
260.3450974696918
 20
176.1596605249856
 30
0.000000000000000
 10
260.3366393476288
 20
176.1668162001237
 30
0.000000000000000
 10
260.3043879202278
 20
176.1893233142689
 30
0.000000000000000
 10
260.2207258838548
 20
176.1864229958874
 30
0.000000000000000
 10
260.1027327608747
 20
176.1939151709923
 30
0.000000000000000
 10
259.9715161620301
 20
176.1923478324220
 30
0.000000000000000
 10
259.8826275770471
 20
176.1927669136314
 30
0.000000000000000
 10
259.8450974696918
 20
176.1926988846182
 30
0.000000000000000
  0
SPLINE
  5
94
100
AcDbEntity
  8
A10
  6
CONTINUOUS
 62
3
100
AcDbSpline
210
0.000000000000000
220
0.000000000000000
230
1.000000000000000
 70
     8
 71
     3
 72
    12
 73
     8
 74
     0
 42
1.000000000000000e-07
 43
1.000000000000000e-07
 12
-0.9999905194281382
 22
0.004354429270733817
 32
0.000000000000000
 13
-0.5996716146037215
 23
-0.8002461837677401
 33
0.000000000000000
 40
0.000000000000000
 40
0.000000000000000
 40
0.000000000000000
 40
0.000000000000000
 40
0.1654784902039699
 40
0.3123106650845180
 40
0.4239641128460427
 40
0.4888857176926590
 40
0.5070015380240079
 40
0.5070015380240079
 40
0.5070015380240079
 40
0.5070015380240079
 10
251.8450974696309
 20
176.1926988846182
 30
0.000000000000000
 10
251.7899384958398
 20
176.1929390727453
 30
0.000000000000000
 10
251.6863039096942
 20
176.1920106443131
 30
0.000000000000000
 10
251.5432137526334
 20
176.1938452517349
 30
0.000000000000000
 10
251.4396979062898
 20
176.1840909036778
 30
0.000000000000000
 10
251.3678543307666
 20
176.1858391091083
 30
0.000000000000000
 10
251.3487186507068
 20
176.1644928970155
 30
0.000000000000000
 10
251.3450974696308
 20
176.1596605249868
 30
0.000000000000000
  0
SPLINE
  5
95
100
AcDbEntity
  8
A10
  6
CONTINUOUS
 62
3
100
AcDbSpline
210
0.000000000000000
220
0.000000000000000
230
1.000000000000000
 70
     8
 71
     3
 72
    12
 73
     8
 74
     0
 42
1.000000000000000e-07
 43
1.000000000000000e-07
 12
-0.07938364517303853
 22
-0.9968441387109124
 32
0.000000000000000
 13
-0.9999978637224558
 23
0.002067014222120633
 33
0.000000000000000
 40
0.000000000000000
 40
0.000000000000000
 40
0.000000000000000
 40
0.000000000000000
 40
0.1070889126863606
 40
0.2330094921438131
 40
0.3787652239363617
 40
0.5396725490992783
 40
0.6526279549630385
 40
0.6526279549630385
 40
0.6526279549630385
 40
0.6526279549630385
 10
251.3450974696308
 20
175.4098963955848
 30
0.000000000000000
 10
251.3422637668819
 20
175.3743127439407
 30
0.000000000000000
 10
251.3231196826477
 20
175.2961155018027
 30
0.000000000000000
 10
251.2351680608875
 20
175.2001527618224
 30
0.000000000000000
 10
251.1102648096625
 20
175.1256346606278
 30
0.000000000000000
 10
250.9741110604657
 20
175.0870472488184
 30
0.000000000000000
 10
250.8827491911508
 20
175.0796268263169
 30
0.000000000000000
 10
250.8450974696309
 20
175.0797046531270
 30
0.000000000000000
  0
SPLINE
  5
96
100
AcDbEntity
  8
A10
  6
CONTINUOUS
 62
3
100
AcDbSpline
210
0.000000000000000
220
0.000000000000000
230
1.000000000000000
 70
     8
 71
     3
 72
    12
 73
     8
 74
     0
 42
1.000000000000000e-07
 43
1.000000000000000e-07
 12
-0.9999910537644610
 22
-0.004229939436754648
 32
0.000000000000000
 13
-0.04202664542572165
 23
0.9991164902457967
 33
0.000000000000000
 40
0.000000000000000
 40
0.000000000000000
 40
0.000000000000000
 40
0.000000000000000
 40
0.1666652647487188
 40
0.3239795784113443
 40
0.4638860204833893
 40
0.5824358386781656
 40
0.6529172367893726
 40
0.6529172367893726
 40
0.6529172367893726
 40
0.6529172367893726
 10
260.8450974696918
 20
175.0797046531270
 30
0.000000000000000
 10
260.7895428784511
 20
175.0794696584683
 30
0.000000000000000
 10
260.6811156055542
 20
175.0925095753495
 30
0.000000000000000
 10
260.5346978723024
 20
175.1472641468403
 30
0.000000000000000
 10
260.4213956738821
 20
175.2298898789286
 30
0.000000000000000
 10
260.3565534471364
 20
175.3230558498143
 30
0.000000000000000
 10
260.3460848352676
 20
175.3864233532209
 30
0.000000000000000
 10
260.3450974696918
 20
175.4098963955904
 30
0.000000000000000
  0
ELLIPSE
  5
97
100
AcDbEntity
  8
A10
  6
CONTINUOUS
 62
3
100
AcDbEllipse
 10
260.8450974696310
 20
174.5140192281777
 30
0.000000000000000
 11
0.8000000000000000
 21
0.000000000000000
 31
0.000000000000000
210
0.000000000000000
220
0.000000000000000
230
1.000000000000000
 40
0.7071067811865469
 41
0.000000000000000
 42
1.570796326794897
  0
ELLIPSE
  5
98
100
AcDbEntity
  8
A10
  6
CONTINUOUS
 62
3
100
AcDbEllipse
 10
250.8450974696309
 20
174.5140192281777
 30
0.000000000000000
 11
0.8000000000000000
 21
0.000000000000000
 31
0.000000000000000
210
0.000000000000000
220
0.000000000000000
230
1.000000000000000
 40
0.7071067811865469
 41
1.570796326794897
 42
3.141592653589793
  0
ELLIPSE
  5
99
100
AcDbEntity
  8
A10
  6
CONTINUOUS
 62
3
100
AcDbEllipse
 10
250.8450974696309
 20
164.9680776821593
 30
0.000000000000000
 11
-0.8000000000000000
 21
0.000000000000000
 31
0.000000000000000
210
0.000000000000000
220
0.000000000000000
230
1.000000000000000
 40
0.7071067811865469
 41
4.712388980384690
 42
0.000000000000000
  0
ELLIPSE
  5
9A
100
AcDbEntity
  8
A10
  6
CONTINUOUS
 62
3
100
AcDbEllipse
 10
260.8450974696311
 20
164.9680776821593
 30
0.000000000000000
 11
-0.8000000000000000
 21
0.000000000000000
 31
0.000000000000000
210
0.000000000000000
220
0.000000000000000
230
1.000000000000000
 40
0.7071067811865469
 41
3.141592653589793
 42
4.712388980384690
  0
LINE
  5
9B
100
AcDbEntity
  8
A10
  6
CONTINUOUS
 62
3
100
AcDbLine
 10
251.0950974696309
 20
158.6041166514804
 30
0.000000000000000
 11
250.8450974696309
 21
158.6041166514804
 31
0.000000000000000
  0
LINE
  5
9C
100
AcDbEntity
  8
A10
  6
CONTINUOUS
 62
3
100
AcDbLine
 10
251.0950974696309
 20
159.1698020764297
 30
0.000000000000000
 11
250.8450974696310
 21
159.1698020764297
 31
0.000000000000000
  0
LINE
  5
9D
100
AcDbEntity
  8
A10
  6
CONTINUOUS
 62
3
100
AcDbLine
 10
250.0450974696309
 20
174.5140192281777
 30
0.000000000000000
 11
250.0450974696309
 21
175.3926988846181
 31
0.000000000000000
  0
LINE
  5
9E
100
AcDbEntity
  8
A10
  6
CONTINUOUS
 62
3
100
AcDbLine
 10
250.8450974696310
 20
175.0800969749078
 30
0.000000000000000
 11
250.8450974696310
 21
175.3926988846181
 31
0.000000000000000
  0
LINE
  5
9F
100
AcDbEntity
  8
A10
  6
CONTINUOUS
 62
3
100
AcDbLine
 10
250.8450974696309
 20
175.3926988846181
 30
0.000000000000000
 11
250.0450974696309
 21
175.3926988846181
 31
0.000000000000000
  0
LINE
  5
A0
100
AcDbEntity
  8
A10
  6
CONTINUOUS
 62
3
100
AcDbLine
 10
261.6450974696310
 20
175.3926988846181
 30
0.000000000000000
 11
260.8450974696311
 21
175.3926988846181
 31
0.000000000000000
  0
LINE
  5
A1
100
AcDbEntity
  8
A10
  6
CONTINUOUS
 62
3
100
AcDbLine
 10
261.6450974696310
 20
175.3926988846181
 30
0.000000000000000
 11
261.6450974696310
 21
174.5140192281777
 31
0.000000000000000
  0
LINE
  5
A2
100
AcDbEntity
  8
A10
  6
CONTINUOUS
 62
3
100
AcDbLine
 10
260.8450974696311
 20
175.0886862560402
 30
0.000000000000000
 11
260.8450974696311
 21
175.0797046531270
 31
0.000000000000000
  0
LINE
  5
A3
100
AcDbEntity
  8
A10
  6
CONTINUOUS
 62
3
100
AcDbLine
 10
260.8450974696311
 20
175.3926988846181
 30
0.000000000000000
 11
260.8450974696311
 21
175.0886862560402
 31
0.000000000000000
  0
LINE
  5
A4
100
AcDbEntity
  8
A10
  6
CONTINUOUS
 62
3
100
AcDbLine
 10
260.3450974696918
 20
175.4098963955904
 30
0.000000000000000
 11
260.3450974696918
 21
176.1596605249856
 31
0.000000000000000
  0
LINE
  5
A5
100
AcDbEntity
  8
A10
  6
CONTINUOUS
 62
3
100
AcDbLine
 10
259.8450974696918
 20
176.1926988846182
 30
0.000000000000000
 11
251.8450974696309
 21
176.1926988846182
 31
0.000000000000000
  0
LINE
  5
A6
100
AcDbEntity
  8
A10
  6
CONTINUOUS
 62
3
100
AcDbLine
 10
251.3450974696308
 20
175.4098963955848
 30
0.000000000000000
 11
251.3450974696308
 21
176.1596605249868
 31
0.000000000000000
  0
LINE
  5
A7
100
AcDbEntity
  8
A10
  6
CONTINUOUS
 62
3
100
AcDbLine
 10
260.8450974696311
 20
158.6825437762266
 30
0.000000000000000
 11
260.8450974696311
 21
158.3926988846181
 31
0.000000000000000
  0
LINE
  5
A8
100
AcDbEntity
  8
A10
  6
CONTINUOUS
 62
3
100
AcDbLine
 10
261.6450974696310
 20
158.6825437762266
 30
0.000000000000000
 11
261.6450974696310
 21
158.3926988846181
 31
0.000000000000000
  0
LINE
  5
A9
100
AcDbEntity
  8
A10
  6
CONTINUOUS
 62
3
100
AcDbLine
 10
260.8450974696311
 20
158.3926988846181
 30
0.000000000000000
 11
261.6450974696310
 21
158.3926988846181
 31
0.000000000000000
  0
LINE
  5
AA
100
AcDbEntity
  8
A10
  6
CONTINUOUS
 62
3
100
AcDbLine
 10
250.0450974696310
 20
158.3926988846181
 30
0.000000000000000
 11
250.8450974696310
 21
158.3926988846181
 31
0.000000000000000
  0
LINE
  5
AB
100
AcDbEntity
  8
A10
  6
CONTINUOUS
 62
3
100
AcDbLine
 10
250.8450974696310
 20
158.3926988846181
 30
0.000000000000000
 11
250.8450974696310
 21
158.6825437762266
 31
0.000000000000000
  0
LINE
  5
AC
100
AcDbEntity
  8
A10
  6
CONTINUOUS
 62
3
100
AcDbLine
 10
250.0450974696310
 20
158.3926988846181
 30
0.000000000000000
 11
250.0450974696310
 21
158.6825437762266
 31
0.000000000000000
  0
LINE
  5
AD
100
AcDbEntity
  8
A10
  6
CONTINUOUS
 62
3
100
AcDbLine
 10
260.8450974696311
 20
164.9680776821594
 30
0.000000000000000
 11
260.8450974696311
 21
164.4696274856117
 31
0.000000000000000
  0
LINE
  5
AE
100
AcDbEntity
  8
A10
  6
CONTINUOUS
 62
3
100
AcDbLine
 10
261.6450974696310
 20
164.9680776821594
 30
0.000000000000000
 11
261.6450974696311
 21
164.4696274856117
 31
0.000000000000000
  0
LINE
  5
AF
100
AcDbEntity
  8
A10
  6
CONTINUOUS
 62
3
100
AcDbLine
 10
250.0450974696309
 20
164.9680776821594
 30
0.000000000000000
 11
250.0450974696309
 21
164.4696274856117
 31
0.000000000000000
  0
LINE
  5
B0
100
AcDbEntity
  8
A10
  6
CONTINUOUS
 62
3
100
AcDbLine
 10
250.8450974696310
 20
164.9680776821594
 30
0.000000000000000
 11
250.8450974696310
 21
164.4696274856117
 31
0.000000000000000
  0
LINE
  5
B1
100
AcDbEntity
  8
A10
  6
CONTINUOUS
 62
3
100
AcDbLine
 10
261.6450974696311
 20
174.5140192281778
 30
0.000000000000000
 11
261.6450974696311
 21
164.9680776821594
 31
0.000000000000000
  0
LINE
  5
B2
100
AcDbEntity
  8
A10
  6
CONTINUOUS
 62
3
100
AcDbLine
 10
250.0450974696310
 20
164.9680776821594
 30
0.000000000000000
 11
250.0450974696310
 21
174.5140192281777
 31
0.000000000000000
  0
LINE
  5
B3
100
AcDbEntity
  8
A10
  6
CONTINUOUS
 62
3
100
AcDbLine
 10
260.8450974696311
 20
165.5337631071086
 30
0.000000000000000
 11
250.8450974696309
 21
165.5337631071086
 31
0.000000000000000
  0
LINE
  5
B4
100
AcDbEntity
  8
A10
  6
CONTINUOUS
 62
3
100
AcDbLine
 10
250.8450974696310
 20
164.9680776821594
 30
0.000000000000000
 11
250.0450974696310
 21
164.9680776821594
 31
0.000000000000000
  0
LINE
  5
B5
100
AcDbEntity
  8
A10
  6
CONTINUOUS
 62
3
100
AcDbLine
 10
260.8450974696311
 20
164.9680776821594
 30
0.000000000000000
 11
250.8450974696310
 21
164.9680776821594
 31
0.000000000000000
  0
LINE
  5
B6
100
AcDbEntity
  8
A10
  6
CONTINUOUS
 62
3
100
AcDbLine
 10
261.6450974696310
 20
164.9680776821594
 30
0.000000000000000
 11
260.8450974696311
 21
164.9680776821594
 31
0.000000000000000
  0
LINE
  5
B7
100
AcDbEntity
  8
A10
  6
CONTINUOUS
 62
3
100
AcDbLine
 10
261.6450974696310
 20
164.1825437762266
 30
0.000000000000000
 11
261.6450974696310
 21
164.4696274856117
 31
0.000000000000000
  0
LINE
  5
B8
100
AcDbEntity
  8
A10
  6
CONTINUOUS
 62
3
100
AcDbLine
 10
260.8450974696311
 20
164.4696274856117
 30
0.000000000000000
 11
260.8450974696311
 21
164.1825437762266
 31
0.000000000000000
  0
LINE
  5
B9
100
AcDbEntity
  8
A10
  6
CONTINUOUS
 62
3
100
AcDbLine
 10
250.8450974696310
 20
164.1825437762266
 30
0.000000000000000
 11
250.8450974696310
 21
164.4696274856117
 31
0.000000000000000
  0
LINE
  5
BA
100
AcDbEntity
  8
A10
  6
CONTINUOUS
 62
3
100
AcDbLine
 10
250.0450974696309
 20
164.4696274856117
 30
0.000000000000000
 11
250.0450974696309
 21
164.1825437762266
 31
0.000000000000000
  0
LINE
  5
BB
100
AcDbEntity
  8
A10
  6
CONTINUOUS
 62
3
100
AcDbLine
 10
260.8450974696311
 20
158.6825437762266
 30
0.000000000000000
 11
261.6450974696310
 21
158.6825437762266
 31
0.000000000000000
  0
LINE
  5
BC
100
AcDbEntity
  8
A10
  6
CONTINUOUS
 62
3
100
AcDbLine
 10
261.6450974696310
 20
164.1825437762266
 30
0.000000000000000
 11
260.8450974696311
 21
164.1825437762266
 31
0.000000000000000
  0
LINE
  5
BD
100
AcDbEntity
  8
A10
  6
CONTINUOUS
 62
3
100
AcDbLine
 10
261.6450974696310
 20
164.1825437762266
 30
0.000000000000000
 11
261.6450974696310
 21
158.6825437762266
 31
0.000000000000000
  0
LINE
  5
BE
100
AcDbEntity
  8
A10
  6
CONTINUOUS
 62
3
100
AcDbLine
 10
260.8450974696311
 20
164.1825437762266
 30
0.000000000000000
 11
260.8450974696311
 21
158.6825437762266
 31
0.000000000000000
  0
LINE
  5
BF
100
AcDbEntity
  8
A10
  6
CONTINUOUS
 62
3
100
AcDbLine
 10
250.8450974696310
 20
164.1825437762266
 30
0.000000000000000
 11
250.0450974696310
 21
164.1825437762266
 31
0.000000000000000
  0
LINE
  5
C0
100
AcDbEntity
  8
A10
  6
CONTINUOUS
 62
3
100
AcDbLine
 10
250.0450974696310
 20
158.6825437762266
 30
0.000000000000000
 11
250.8450974696310
 21
158.6825437762266
 31
0.000000000000000
  0
LINE
  5
C1
100
AcDbEntity
  8
A10
  6
CONTINUOUS
 62
3
100
AcDbLine
 10
250.8450974696310
 20
158.6825437762266
 30
0.000000000000000
 11
250.8450974696310
 21
164.1825437762266
 31
0.000000000000000
  0
LINE
  5
C2
100
AcDbEntity
  8
A10
  6
CONTINUOUS
 62
3
100
AcDbLine
 10
250.0450974696310
 20
158.6825437762266
 30
0.000000000000000
 11
250.0450974696310
 21
164.1825437762266
 31
0.000000000000000
  0
ARC
  5
C3
100
AcDbEntity
  8
A10
  6
CONTINUOUS
 62
3
100
AcDbCircle
 10
250.1450974696312
 20
144.4926988846181
 30
0.000000000000000
 40
1.000000000000000
100
AcDbArc
 50
180.0000000000002
 51
270.0000000000000
  0
ARC
  5
C4
100
AcDbEntity
  8
A10
  6
CONTINUOUS
 62
3
100
AcDbCircle
 10
261.5450974696313
 20
144.4926988846181
 30
0.000000000000000
 40
1.000000000000000
100
AcDbArc
 50
270.0000000000000
 51
360.0000000000000
  0
ARC
  5
C5
100
AcDbEntity
  8
A10
  6
CONTINUOUS
 62
3
100
AcDbCircle
 10
263.3450974696313
 20
143.4926988846181
 30
0.000000000000000
 40
0.8000000000000000
100
AcDbArc
 50
180.0000000000000
 51
269.9999999995041
  0
ARC
  5
C6
100
AcDbEntity
  8
A10
  6
CONTINUOUS
 62
3
100
AcDbCircle
 10
248.3450974696312
 20
143.4926988846181
 30
0.000000000000000
 40
0.8000000000000000
100
AcDbArc
 50
270.0000000004898
 51
360.0000000000000
  0
ARC
  5
C7
100
AcDbEntity
  8
A10
  6
CONTINUOUS
 62
3
100
AcDbCircle
 10
249.1450974696312
 20
176.3926988846181
 30
0.000000000000000
 40
0.8000000000000000
100
AcDbArc
 50
89.99999999964506
 51
180.0000000000000
  0
ARC
  5
C8
100
AcDbEntity
  8
A10
  6
CONTINUOUS
 62
3
100
AcDbCircle
 10
262.5450974696313
 20
176.3926988846181
 30
0.000000000000000
 40
0.8000000000000000
100
AcDbArc
 50
359.9999999999999
 51
450.0000000003611
  0
LINE
  5
C9
100
AcDbEntity
  8
A10
  6
CONTINUOUS
 62
3
100
AcDbLine
 10
262.3450974696313
 20
176.3926988846181
 30
0.000000000000000
 11
262.3450974696312
 21
176.1926988846181
 31
0.000000000000000
  0
LINE
  5
CA
100
AcDbEntity
  8
A10
  6
CONTINUOUS
 62
3
100
AcDbLine
 10
249.1950974696311
 20
176.1926988846181
 30
0.000000000000000
 11
249.1450974696312
 21
176.1926988846181
 31
0.000000000000000
  0
LINE
  5
CB
100
AcDbEntity
  8
A10
  6
CONTINUOUS
 62
3
100
AcDbLine
 10
262.5450974696313
 20
176.1926988846181
 30
0.000000000000000
 11
262.3450974696312
 21
176.1926988846181
 31
0.000000000000000
  0
LINE
  5
CC
100
AcDbEntity
  8
A10
  6
CONTINUOUS
 62
3
100
AcDbLine
 10
250.1450974696312
 20
143.4926988846181
 30
0.000000000000000
 11
261.5450974696313
 21
143.4926988846181
 31
0.000000000000000
  0
LINE
  5
CD
100
AcDbEntity
  8
A10
  6
CONTINUOUS
 62
3
100
AcDbLine
 10
238.8450974696312
 20
142.6926988846181
 30
0.000000000000000
 11
238.8450974696312
 21
143.4926988846181
 31
0.000000000000000
  0
LINE
  5
CE
100
AcDbEntity
  8
A10
  6
CONTINUOUS
 62
3
100
AcDbLine
 10
263.3450974696312
 20
156.8926988846182
 30
0.000000000000000
 11
263.3450974696312
 21
143.4926988846181
 31
0.000000000000000
  0
LINE
  5
CF
100
AcDbEntity
  8
A10
  6
CONTINUOUS
 62
3
100
AcDbLine
 10
262.5450974696313
 20
143.4926988846181
 30
0.000000000000000
 11
262.5450974696313
 21
156.8926988846182
 31
0.000000000000000
  0
LINE
  5
D0
100
AcDbEntity
  8
A10
  6
CONTINUOUS
 62
3
100
AcDbLine
 10
248.3450974696312
 20
143.4926988846181
 30
0.000000000000000
 11
248.3450974696312
 21
156.8926988846182
 31
0.000000000000000
  0
LINE
  5
D1
100
AcDbEntity
  8
A10
  6
CONTINUOUS
 62
3
100
AcDbLine
 10
249.1450974696312
 20
156.8926988846182
 30
0.000000000000000
 11
249.1450974696312
 21
143.4926988846181
 31
0.000000000000000
  0
LINE
  5
D2
100
AcDbEntity
  8
A10
  6
CONTINUOUS
 62
3
100
AcDbLine
 10
263.3450974696244
 20
156.8926988846182
 30
0.000000000000000
 11
263.3450974696244
 21
157.8926988846182
 31
0.000000000000000
  0
LINE
  5
D3
100
AcDbEntity
  8
A10
  6
CONTINUOUS
 62
3
100
AcDbLine
 10
262.5450974696262
 20
157.8926988846182
 30
0.000000000000000
 11
262.5450974696262
 21
156.8926988846182
 31
0.000000000000000
  0
LINE
  5
D4
100
AcDbEntity
  8
A10
  6
CONTINUOUS
 62
3
100
AcDbLine
 10
248.3450974696380
 20
157.8926988846182
 30
0.000000000000000
 11
248.3450974696380
 21
156.8926988846182
 31
0.000000000000000
  0
LINE
  5
D5
100
AcDbEntity
  8
A10
  6
CONTINUOUS
 62
3
100
AcDbLine
 10
249.1450974696361
 20
156.8926988846182
 30
0.000000000000000
 11
249.1450974696361
 21
157.8926988846182
 31
0.000000000000000
  0
LINE
  5
D6
100
AcDbEntity
  8
A10
  6
CONTINUOUS
 62
3
100
AcDbLine
 10
248.3450974696312
 20
176.3926988846181
 30
0.000000000000000
 11
248.3450974696380
 21
175.5926988846182
 31
0.000000000000000
  0
LINE
  5
D7
100
AcDbEntity
  8
A10
  6
CONTINUOUS
 62
3
100
AcDbLine
 10
263.3450974696244
 20
175.5926988846182
 30
0.000000000000000
 11
263.3450974696312
 21
176.3926988846182
 31
0.000000000000000
  0
LINE
  5
D8
100
AcDbEntity
  8
A10
  6
CONTINUOUS
 62
3
100
AcDbLine
 10
262.5450974696313
 20
176.3926988846181
 30
0.000000000000000
 11
262.5450974696262
 21
175.5926988846182
 31
0.000000000000000
  0
LINE
  5
D9
100
AcDbEntity
  8
A10
  6
CONTINUOUS
 62
3
100
AcDbLine
 10
249.1450974696361
 20
175.5926988846182
 30
0.000000000000000
 11
249.1450974696311
 21
176.3926988846181
 31
0.000000000000000
  0
LINE
  5
DA
100
AcDbEntity
  8
A10
  6
CONTINUOUS
 62
3
100
AcDbLine
 10
262.5450974696262
 20
177.1926988846181
 30
0.000000000000000
 11
249.1450974696361
 21
177.1926988846181
 31
0.000000000000000
  0
LINE
  5
DB
100
AcDbEntity
  8
A10
  6
CONTINUOUS
 62
3
100
AcDbLine
 10
261.6950974696312
 20
176.3926988846181
 30
0.000000000000000
 11
262.5450974696313
 21
176.3926988846181
 31
0.000000000000000
  0
LINE
  5
DC
100
AcDbEntity
  8
A10
  6
CONTINUOUS
 62
3
100
AcDbLine
 10
249.9950974696311
 20
176.3926988846181
 30
0.000000000000000
 11
261.6950974696312
 21
176.3926988846181
 31
0.000000000000000
  0
LINE
  5
DD
100
AcDbEntity
  8
A10
  6
CONTINUOUS
 62
3
100
AcDbLine
 10
249.1450974696312
 20
176.3926988846181
 30
0.000000000000000
 11
249.9950974696311
 21
176.3926988846181
 31
0.000000000000000
  0
LINE
  5
DE
100
AcDbEntity
  8
A10
  6
CONTINUOUS
 62
3
100
AcDbLine
 10
248.3450974696380
 20
175.5926988846181
 30
0.000000000000000
 11
248.3450974696380
 21
172.5926988846181
 31
0.000000000000000
  0
LINE
  5
DF
100
AcDbEntity
  8
A10
  6
CONTINUOUS
 62
3
100
AcDbLine
 10
249.1450974696361
 20
172.5926988846181
 30
0.000000000000000
 11
249.1450974696361
 21
175.5926988846181
 31
0.000000000000000
  0
LINE
  5
E0
100
AcDbEntity
  8
A10
  6
CONTINUOUS
 62
3
100
AcDbLine
 10
249.1450974696361
 20
175.5926988846182
 30
0.000000000000000
 11
248.3450974696380
 21
175.5926988846182
 31
0.000000000000000
  0
LINE
  5
E1
100
AcDbEntity
  8
A10
  6
CONTINUOUS
 62
3
100
AcDbLine
 10
263.3450974696244
 20
172.5926988846181
 30
0.000000000000000
 11
263.3450974696244
 21
175.5926988846181
 31
0.000000000000000
  0
LINE
  5
E2
100
AcDbEntity
  8
A10
  6
CONTINUOUS
 62
3
100
AcDbLine
 10
262.5450974696262
 20
175.5926988846181
 30
0.000000000000000
 11
262.5450974696262
 21
172.5926988846181
 31
0.000000000000000
  0
LINE
  5
E3
100
AcDbEntity
  8
A10
  6
CONTINUOUS
 62
3
100
AcDbLine
 10
263.3450974696244
 20
175.5926988846182
 30
0.000000000000000
 11
262.5450974696262
 21
175.5926988846182
 31
0.000000000000000
  0
LINE
  5
E4
100
AcDbEntity
  8
A10
  6
CONTINUOUS
 62
3
100
AcDbLine
 10
248.3450974696380
 20
172.5926988846181
 30
0.000000000000000
 11
248.3450974696312
 21
160.8926988846181
 31
0.000000000000000
  0
LINE
  5
E5
100
AcDbEntity
  8
A10
  6
CONTINUOUS
 62
3
100
AcDbLine
 10
248.3450974696380
 20
157.8926988846182
 30
0.000000000000000
 11
248.3450974696380
 21
160.8926988846182
 31
0.000000000000000
  0
LINE
  5
E6
100
AcDbEntity
  8
A10
  6
CONTINUOUS
 62
3
100
AcDbLine
 10
249.1450974696312
 20
157.8926988846182
 30
0.000000000000000
 11
248.3450974696312
 21
157.8926988846182
 31
0.000000000000000
  0
LINE
  5
E7
100
AcDbEntity
  8
A10
  6
CONTINUOUS
 62
3
100
AcDbLine
 10
262.5450974696313
 20
172.5926988846181
 30
0.000000000000000
 11
262.5450974696313
 21
163.4325437762266
 31
0.000000000000000
  0
LINE
  5
E8
100
AcDbEntity
  8
A10
  6
CONTINUOUS
 62
3
100
AcDbLine
 10
263.3450974696313
 20
160.8926988846181
 30
0.000000000000000
 11
263.3450974696244
 21
172.5926988846181
 31
0.000000000000000
  0
LINE
  5
E9
100
AcDbEntity
  8
A10
  6
CONTINUOUS
 62
3
100
AcDbLine
 10
263.3450974696244
 20
160.8926988846182
 30
0.000000000000000
 11
263.3450974696244
 21
157.8926988846182
 31
0.000000000000000
  0
LINE
  5
EA
100
AcDbEntity
  8
A10
  6
CONTINUOUS
 62
3
100
AcDbLine
 10
262.6450974696311
 20
160.8926988846182
 30
0.000000000000000
 11
263.3450974696312
 21
160.8926988846182
 31
0.000000000000000
  0
LINE
  5
EB
100
AcDbEntity
  8
A10
  6
CONTINUOUS
 62
3
100
AcDbLine
 10
262.5450974696262
 20
157.8926988846182
 30
0.000000000000000
 11
262.5450974696262
 21
159.4325437762266
 31
0.000000000000000
  0
LINE
  5
EC
100
AcDbEntity
  8
A10
  6
CONTINUOUS
 62
3
100
AcDbLine
 10
263.3450974696312
 20
157.8926988846182
 30
0.000000000000000
 11
262.5450974696313
 21
157.8926988846182
 31
0.000000000000000
  0
LINE
  5
ED
100
AcDbEntity
  8
A10
  6
CONTINUOUS
 62
3
100
AcDbLine
 10
249.9950974696311
 20
153.6926988846181
 30
0.000000000000000
 11
250.9950974696311
 21
153.6926988846181
 31
0.000000000000000
  0
LINE
  5
EE
100
AcDbEntity
  8
A10
  6
CONTINUOUS
 62
3
100
AcDbLine
 10
249.9950974696311
 20
167.3926988846179
 30
0.000000000000000
 11
250.0450974696310
 21
167.3926988846179
 31
0.000000000000000
  0
LINE
  5
EF
100
AcDbEntity
  8
A10
  6
CONTINUOUS
 62
3
100
AcDbLine
 10
249.9950974696311
 20
153.7175913646314
 30
0.000000000000000
 11
250.9950974696311
 21
153.7175913646314
 31
0.000000000000000
  0
LINE
  5
F0
100
AcDbEntity
  8
A10
  6
CONTINUOUS
 62
3
100
AcDbLine
 10
249.9950974696311
 20
166.3926988846178
 30
0.000000000000000
 11
250.0450974696310
 21
166.3926988846178
 31
0.000000000000000
  0
LINE
  5
F1
100
AcDbEntity
  8
A10
  6
CONTINUOUS
 62
3
100
AcDbLine
 10
250.9950974696311
 20
158.6041166514804
 30
0.000000000000000
 11
250.9950974696311
 21
157.1426988846181
 31
0.000000000000000
  0
LINE
  5
F2
100
AcDbEntity
  8
A10
  6
CONTINUOUS
 62
3
100
AcDbLine
 10
249.9950974696311
 20
158.8926988846178
 30
0.000000000000000
 11
250.0450974696309
 21
158.8926988846178
 31
0.000000000000000
  0
LINE
  5
F3
100
AcDbEntity
  8
A10
  6
CONTINUOUS
 62
3
100
AcDbLine
 10
249.9950974696311
 20
154.4175913646313
 30
0.000000000000000
 11
250.9950974696311
 21
154.4175913646313
 31
0.000000000000000
  0
ARC
  5
F4
100
AcDbEntity
  8
A10
  6
CONTINUOUS
 62
3
100
AcDbCircle
 10
249.9950974696311
 20
175.5926988846180
 30
0.000000000000000
 40
0.8000000000000000
100
AcDbArc
 50
90.00000000000000
 51
179.9999999999927
  0
ARC
  5
F5
100
AcDbEntity
  8
A10
  6
CONTINUOUS
 62
3
100
AcDbCircle
 10
261.6950974696312
 20
175.5926988846180
 30
0.000000000000000
 40
0.8000000000000000
100
AcDbArc
 50
7.315300000000000e-12
 51
89.99999999999994
  0
LINE
  5
F6
100
AcDbEntity
  8
A10
  6
CONTINUOUS
 62
3
100
AcDbLine
 10
249.1950974696311
 20
175.5926988846180
 30
0.000000000000000
 11
249.1950974696311
 21
176.3926988846180
 31
0.000000000000000
  0
LINE
  5
F7
100
AcDbEntity
  8
A10
  6
CONTINUOUS
 62
3
100
AcDbLine
 10
261.6950974696312
 20
153.6926988846182
 30
0.000000000000000
 11
261.6950974696312
 21
154.6426988846181
 31
0.000000000000000
  0
LINE
  5
F8
100
AcDbEntity
  8
A10
  6
CONTINUOUS
 62
3
100
AcDbLine
 10
262.4950974696311
 20
154.6426988846181
 30
0.000000000000000
 11
262.4950974696311
 21
153.6926988846182
 31
0.000000000000000
  0
LINE
  5
F9
100
AcDbEntity
  8
A10
  6
CONTINUOUS
 62
3
100
AcDbLine
 10
262.4950974696311
 20
153.6926988846182
 30
0.000000000000000
 11
261.6950974696312
 21
153.6926988846182
 31
0.000000000000000
  0
LINE
  5
FA
100
AcDbEntity
  8
A10
  6
CONTINUOUS
 62
3
100
AcDbLine
 10
261.6950974696312
 20
157.8926988846180
 30
0.000000000000000
 11
261.6950974696312
 21
157.1426988846181
 31
0.000000000000000
  0
LINE
  5
FB
100
AcDbEntity
  8
A10
  6
CONTINUOUS
 62
3
100
AcDbLine
 10
262.4950974696311
 20
157.1426988846181
 30
0.000000000000000
 11
262.4950974696311
 21
157.8926988846180
 31
0.000000000000000
  0
LINE
  5
FC
100
AcDbEntity
  8
A10
  6
CONTINUOUS
 62
3
100
AcDbLine
 10
249.9950974696310
 20
152.3926988846181
 30
0.000000000000000
 11
249.9950974696310
 21
151.3926988846181
 31
0.000000000000000
  0
LINE
  5
FD
100
AcDbEntity
  8
A10
  6
CONTINUOUS
 62
3
100
AcDbLine
 10
249.1950974696311
 20
151.3926988846181
 30
0.000000000000000
 11
249.1950974696311
 21
152.3926988846181
 31
0.000000000000000
  0
LINE
  5
FE
100
AcDbEntity
  8
A10
  6
CONTINUOUS
 62
3
100
AcDbLine
 10
249.9950974696310
 20
151.3926988846181
 30
0.000000000000000
 11
249.1950974696311
 21
151.3926988846181
 31
0.000000000000000
  0
LINE
  5
FF
100
AcDbEntity
  8
A10
  6
CONTINUOUS
 62
3
100
AcDbLine
 10
249.9950974696310
 20
156.8926988846180
 30
0.000000000000000
 11
249.9950974696310
 21
152.3926988846181
 31
0.000000000000000
  0
LINE
  5
100
100
AcDbEntity
  8
A10
  6
CONTINUOUS
 62
3
100
AcDbLine
 10
249.1950974696311
 20
156.8926988846180
 30
0.000000000000000
 11
249.1950974696311
 21
152.3926988846181
 31
0.000000000000000
  0
LINE
  5
101
100
AcDbEntity
  8
A10
  6
CONTINUOUS
 62
3
100
AcDbLine
 10
249.9950974696310
 20
156.8926988846180
 30
0.000000000000000
 11
249.9950974696310
 21
157.8926988846180
 31
0.000000000000000
  0
LINE
  5
102
100
AcDbEntity
  8
A10
  6
CONTINUOUS
 62
3
100
AcDbLine
 10
249.1950974696311
 20
157.8926988846180
 30
0.000000000000000
 11
249.1950974696311
 21
156.8926988846180
 31
0.000000000000000
  0
LINE
  5
103
100
AcDbEntity
  8
A10
  6
CONTINUOUS
 62
3
100
AcDbLine
 10
249.9950974696310
 20
156.8926988846180
 30
0.000000000000000
 11
249.1950974696311
 21
156.8926988846180
 31
0.000000000000000
  0
LINE
  5
104
100
AcDbEntity
  8
A10
  6
CONTINUOUS
 62
3
100
AcDbLine
 10
249.9950974696311
 20
176.3926988846180
 30
0.000000000000000
 11
261.6950974696312
 21
176.3926988846180
 31
0.000000000000000
  0
LINE
  5
105
100
AcDbEntity
  8
A10
  6
CONTINUOUS
 62
3
100
AcDbLine
 10
251.3450974696308
 20
175.5926988846181
 30
0.000000000000000
 11
249.9950974696311
 21
175.5926988846181
 31
0.000000000000000
  0
LINE
  5
106
100
AcDbEntity
  8
A10
  6
CONTINUOUS
 62
3
100
AcDbLine
 10
261.6950974696312
 20
175.5926988846181
 30
0.000000000000000
 11
260.3450974696918
 21
175.5926988846181
 31
0.000000000000000
  0
LINE
  5
107
100
AcDbEntity
  8
A10
  6
CONTINUOUS
 62
3
100
AcDbLine
 10
261.6950974696312
 20
157.8926988846180
 30
0.000000000000000
 11
261.6950974696312
 21
159.4325437762266
 31
0.000000000000000
  0
LINE
  5
108
100
AcDbEntity
  8
A10
  6
CONTINUOUS
 62
3
100
AcDbLine
 10
262.4950974696311
 20
159.4325437762266
 30
0.000000000000000
 11
262.4950974696311
 21
157.8926988846180
 31
0.000000000000000
  0
LINE
  5
109
100
AcDbEntity
  8
A10
  6
CONTINUOUS
 62
3
100
AcDbLine
 10
262.4950974696311
 20
157.8926988846180
 30
0.000000000000000
 11
261.6950974696312
 21
157.8926988846180
 31
0.000000000000000
  0
LINE
  5
10A
100
AcDbEntity
  8
A10
  6
CONTINUOUS
 62
3
100
AcDbLine
 10
261.6950974696312
 20
175.5926988846181
 30
0.000000000000000
 11
261.6950974696312
 21
172.5926988846181
 31
0.000000000000000
  0
LINE
  5
10B
100
AcDbEntity
  8
A10
  6
CONTINUOUS
 62
3
100
AcDbLine
 10
262.4950974696311
 20
175.5926988846181
 30
0.000000000000000
 11
262.4950974696311
 21
172.5926988846181
 31
0.000000000000000
  0
LINE
  5
10C
100
AcDbEntity
  8
A10
  6
CONTINUOUS
 62
3
100
AcDbLine
 10
262.4950974696311
 20
175.5926988846181
 30
0.000000000000000
 11
261.6950974696312
 21
175.5926988846181
 31
0.000000000000000
  0
LINE
  5
10D
100
AcDbEntity
  8
A10
  6
CONTINUOUS
 62
3
100
AcDbLine
 10
249.9950974696310
 20
160.2068424464116
 30
0.000000000000000
 11
249.9950974696310
 21
157.8926988846180
 31
0.000000000000000
  0
LINE
  5
10E
100
AcDbEntity
  8
A10
  6
CONTINUOUS
 62
3
100
AcDbLine
 10
249.1950974696311
 20
157.8926988846180
 30
0.000000000000000
 11
249.1950974696311
 21
162.4325437762266
 31
0.000000000000000
  0
LINE
  5
10F
100
AcDbEntity
  8
A10
  6
CONTINUOUS
 62
3
100
AcDbLine
 10
249.9950974696310
 20
157.8926988846180
 30
0.000000000000000
 11
249.1950974696311
 21
157.8926988846180
 31
0.000000000000000
  0
LINE
  5
110
100
AcDbEntity
  8
A10
  6
CONTINUOUS
 62
3
100
AcDbLine
 10
249.9950974696310
 20
172.5926988846181
 30
0.000000000000000
 11
249.9950974696310
 21
175.5926988846181
 31
0.000000000000000
  0
LINE
  5
111
100
AcDbEntity
  8
A10
  6
CONTINUOUS
 62
3
100
AcDbLine
 10
249.1950974696311
 20
175.5926988846181
 30
0.000000000000000
 11
249.9950974696311
 21
175.5926988846181
 31
0.000000000000000
  0
LINE
  5
112
100
AcDbEntity
  8
A10
  6
CONTINUOUS
 62
3
100
AcDbLine
 10
249.1950974696311
 20
172.5926988846181
 30
0.000000000000000
 11
249.1950974696311
 21
175.5926988846181
 31
0.000000000000000
  0
LINE
  5
113
100
AcDbEntity
  8
A10
  6
CONTINUOUS
 62
3
100
AcDbLine
 10
249.1950974696311
 20
172.5926988846181
 30
0.000000000000000
 11
249.1950974696311
 21
162.4325437762266
 31
0.000000000000000
  0
LINE
  5
114
100
AcDbEntity
  8
A10
  6
CONTINUOUS
 62
3
100
AcDbLine
 10
249.9950974696310
 20
172.5926988846181
 30
0.000000000000000
 11
249.9950974696310
 21
162.6582451060417
 31
0.000000000000000
  0
LINE
  5
115
100
AcDbEntity
  8
A10
  6
CONTINUOUS
 62
3
100
AcDbLine
 10
261.6950974696312
 20
163.4325437762266
 30
0.000000000000000
 11
261.6950974696312
 21
172.5926988846181
 31
0.000000000000000
  0
LINE
  5
116
100
AcDbEntity
  8
A10
  6
CONTINUOUS
 62
3
100
AcDbLine
 10
262.4950974696311
 20
163.4325437762266
 30
0.000000000000000
 11
262.4950974696311
 21
172.5926988846181
 31
0.000000000000000
  0
LINE
  5
117
100
AcDbEntity
  8
A10
  6
CONTINUOUS
 62
3
100
AcDbLine
 10
251.9950974696311
 20
152.4732490046395
 30
0.000000000000000
 11
251.9950974696311
 21
152.4321263174820
 31
0.000000000000000
  0
LINE
  5
118
100
AcDbEntity
  8
A10
  6
CONTINUOUS
 62
3
100
AcDbLine
 10
250.9950974696311
 20
152.4321263174820
 30
0.000000000000000
 11
251.9950974696311
 21
152.4321263174820
 31
0.000000000000000
  0
LINE
  5
119
100
AcDbEntity
  8
A10
  6
CONTINUOUS
 62
3
100
AcDbLine
 10
250.9950974696311
 20
152.4321263174820
 30
0.000000000000000
 11
250.9950974696311
 21
152.4732490046395
 31
0.000000000000000
  0
LINE
  5
11A
100
AcDbEntity
  8
A10
  6
CONTINUOUS
 62
3
100
AcDbLine
 10
250.9950974696264
 20
162.7348961265574
 30
0.000000000000000
 11
250.9950974696264
 21
162.6825437762266
 31
0.000000000000000
  0
LINE
  5
11B
100
AcDbEntity
  8
A10
  6
CONTINUOUS
 62
3
100
AcDbLine
 10
251.9950974696311
 20
152.4732490046395
 30
0.000000000000000
 11
251.9950974696311
 21
154.6394350075629
 31
0.000000000000000
  0
LINE
  5
11C
100
AcDbEntity
  8
A10
  6
CONTINUOUS
 62
3
100
AcDbLine
 10
250.9950974696311
 20
152.4732490046395
 30
0.000000000000000
 11
250.9950974696311
 21
154.6394350075629
 31
0.000000000000000
  0
LINE
  5
11D
100
AcDbEntity
  8
A10
  6
CONTINUOUS
 62
3
100
AcDbLine
 10
251.9950974696311
 20
157.9325437762266
 30
0.000000000000000
 11
251.9950974696311
 21
157.1426988846181
 31
0.000000000000000
  0
LINE
  5
11E
100
AcDbEntity
  8
A10
  6
CONTINUOUS
 62
3
100
AcDbLine
 10
250.9950974696311
 20
158.6041166514804
 30
0.000000000000000
 11
250.9950974696311
 21
157.1426988846181
 31
0.000000000000000
  0
LINE
  5
11F
100
AcDbEntity
  8
A10
  6
CONTINUOUS
 62
3
100
AcDbLine
 10
251.9950974696311
 20
154.6394350075629
 30
0.000000000000000
 11
250.9950974696311
 21
154.6394350075629
 31
0.000000000000000
  0
LINE
  5
120
100
AcDbEntity
  8
A10
  6
CONTINUOUS
 62
3
100
AcDbLine
 10
250.9950974696311
 20
175.5582912073131
 30
0.000000000000000
 11
250.9950974696311
 21
175.5926988846181
 31
0.000000000000000
  0
LINE
  5
121
100
AcDbEntity
  8
A10
  6
CONTINUOUS
 62
3
100
AcDbLine
 10
250.9950974696311
 20
175.1020317897490
 30
0.000000000000000
 11
250.9950974696311
 21
175.5582912073131
 31
0.000000000000000
  0
LINE
  5
122
100
AcDbEntity
  8
A10
  6
CONTINUOUS
 62
3
100
AcDbLine
 10
250.9950974696311
 20
175.5582912073131
 30
0.000000000000000
 11
251.3450974696308
 21
175.5582912073131
 31
0.000000000000000
  0
LINE
  5
123
100
AcDbEntity
  8
A10
  6
CONTINUOUS
 62
3
100
AcDbLine
 10
251.9950974696311
 20
164.9680776821594
 30
0.000000000000000
 11
251.9950974696311
 21
164.9325437762266
 31
0.000000000000000
  0
LINE
  5
124
100
AcDbEntity
  8
A10
  6
CONTINUOUS
 62
3
100
AcDbLine
 10
250.9950974696311
 20
164.9680776821594
 30
0.000000000000000
 11
250.9950974696311
 21
162.7348961265574
 31
0.000000000000000
  0
LINE
  5
125
100
AcDbEntity
  8
A10
  6
CONTINUOUS
 62
3
100
AcDbLine
 10
250.9950974696311
 20
162.7348961265574
 30
0.000000000000000
 11
251.0950974696309
 21
162.7348961265574
 31
0.000000000000000
  0
LINE
  5
126
100
AcDbEntity
  8
A10
  6
CONTINUOUS
 62
3
100
AcDbLine
 10
249.1950974696310
 20
158.3926988846181
 30
0.000000000000000
 11
249.1450974696311
 21
158.3926988846181
 31
0.000000000000000
  0
LINE
  5
127
100
AcDbEntity
  8
A10
  6
CONTINUOUS
 62
3
100
AcDbLine
 10
260.8450974696311
 20
158.8926988846181
 30
0.000000000000000
 11
260.5950974696309
 21
158.8926988846181
 31
0.000000000000000
  0
LINE
  5
128
100
AcDbEntity
  8
A10
  6
CONTINUOUS
 62
3
100
AcDbLine
 10
261.6950974696312
 20
158.8926988846181
 30
0.000000000000000
 11
261.6450974696310
 21
158.8926988846181
 31
0.000000000000000
  0
LINE
  5
129
100
AcDbEntity
  8
A10
  6
CONTINUOUS
 62
3
100
AcDbLine
 10
249.1950974696311
 20
173.3926988846181
 30
0.000000000000000
 11
249.1450974696312
 21
173.3926988846181
 31
0.000000000000000
  0
LINE
  5
12A
100
AcDbEntity
  8
A10
  6
CONTINUOUS
 62
3
100
AcDbLine
 10
249.1450974696312
 20
171.3926988846181
 30
0.000000000000000
 11
249.1950974696311
 21
171.3926988846181
 31
0.000000000000000
  0
LINE
  5
12B
100
AcDbEntity
  8
A10
  6
CONTINUOUS
 62
3
100
AcDbLine
 10
250.0450974696310
 20
173.6426988846181
 30
0.000000000000000
 11
249.9950974696310
 21
173.6426988846181
 31
0.000000000000000
  0
LINE
  5
12C
100
AcDbEntity
  8
A10
  6
CONTINUOUS
 62
3
100
AcDbLine
 10
261.6950974696312
 20
173.6426988846181
 30
0.000000000000000
 11
261.6450974696310
 21
173.6426988846181
 31
0.000000000000000
  0
LINE
  5
12D
100
AcDbEntity
  8
A10
  6
CONTINUOUS
 62
3
100
AcDbLine
 10
262.5450974696313
 20
173.6426988846181
 30
0.000000000000000
 11
262.4950974696311
 21
173.6426988846181
 31
0.000000000000000
  0
LINE
  5
12E
100
AcDbEntity
  8
A10
  6
CONTINUOUS
 62
3
100
AcDbLine
 10
262.4950974696311
 20
171.1426988846181
 30
0.000000000000000
 11
262.5450974696313
 21
171.1426988846181
 31
0.000000000000000
  0
LINE
  5
12F
100
AcDbEntity
  8
A10
  6
CONTINUOUS
 62
3
100
AcDbLine
 10
261.6450974696310
 20
171.1426988846181
 30
0.000000000000000
 11
261.6950974696312
 21
171.1426988846181
 31
0.000000000000000
  0
LINE
  5
130
100
AcDbEntity
  8
A10
  6
CONTINUOUS
 62
3
100
AcDbLine
 10
249.9950974696310
 20
171.1426988846181
 30
0.000000000000000
 11
250.0450974696310
 21
171.1426988846181
 31
0.000000000000000
  0
LINE
  5
131
100
AcDbEntity
  8
A10
  6
CONTINUOUS
 62
3
100
AcDbLine
 10
264.3450974696312
 20
174.3926988846181
 30
0.000000000000000
 11
263.3450974696312
 21
174.3926988846181
 31
0.000000000000000
  0
LINE
  5
132
100
AcDbEntity
  8
A10
  6
CONTINUOUS
 62
3
100
AcDbLine
 10
263.3450974696312
 20
170.3926988846181
 30
0.000000000000000
 11
264.3450974696312
 21
170.3926988846181
 31
0.000000000000000
  0
LINE
  5
133
100
AcDbEntity
  8
A10
  6
CONTINUOUS
 62
3
100
AcDbLine
 10
264.3450974696312
 20
170.3926988846181
 30
0.000000000000000
 11
264.3450974696312
 21
174.3926988846181
 31
0.000000000000000
  0
LINE
  5
134
100
AcDbEntity
  8
A10
  6
CONTINUOUS
 62
3
100
AcDbLine
 10
251.0950974696310
 20
162.6825437762266
 30
0.000000000000000
 11
250.8450974696311
 21
162.6825437762266
 31
0.000000000000000
  0
LINE
  5
135
100
AcDbEntity
  8
A10
  6
CONTINUOUS
 62
3
100
AcDbLine
 10
260.8450974696311
 20
162.6825437762266
 30
0.000000000000000
 11
260.5950974696309
 21
162.6825437762266
 31
0.000000000000000
  0
LINE
  5
136
100
AcDbEntity
  8
A10
  6
CONTINUOUS
 62
3
100
AcDbLine
 10
260.5950974696309
 20
160.1825437762266
 30
0.000000000000000
 11
260.8450974696311
 21
160.1825437762266
 31
0.000000000000000
  0
LINE
  5
137
100
AcDbEntity
  8
A10
  6
CONTINUOUS
 62
3
100
AcDbLine
 10
250.8450974696311
 20
160.1825437762266
 30
0.000000000000000
 11
251.0950974696309
 21
160.1825437762266
 31
0.000000000000000
  0
LINE
  5
138
100
AcDbEntity
  8
A10
  6
CONTINUOUS
 62
3
100
AcDbLine
 10
262.6450974696311
 20
163.4325437762266
 30
0.000000000000000
 11
261.6450974696311
 21
163.4325437762266
 31
0.000000000000000
  0
LINE
  5
139
100
AcDbEntity
  8
A10
  6
CONTINUOUS
 62
3
100
AcDbLine
 10
261.6450974696311
 20
159.4325437762266
 30
0.000000000000000
 11
262.6450974696311
 21
159.4325437762266
 31
0.000000000000000
  0
LINE
  5
13A
100
AcDbEntity
  8
A10
  6
CONTINUOUS
 62
3
100
AcDbLine
 10
262.6450974696311
 20
159.4325437762266
 30
0.000000000000000
 11
262.6450974696311
 21
163.4325437762266
 31
0.000000000000000
  0
ARC
  5
13B
100
AcDbEntity
  8
A10
  6
CONTINUOUS
 62
3
100
AcDbCircle
 10
248.9216599695736
 20
172.3926988846140
 30
0.000000000000000
 40
1.376562499942434
100
AcDbArc
 50
114.7615138554963
 51
245.2384861439188
  0
ARC
  5
13C
100
AcDbEntity
  8
A10
  6
CONTINUOUS
 62
3
100
AcDbCircle
 10
250.6216599695761
 20
161.4325437762266
 30
0.000000000000000
 40
1.376562499942434
100
AcDbArc
 50
114.7615138554963
 51
245.2384861439188
  0
ARC
  5
13D
100
AcDbEntity
  8
A10
  6
CONTINUOUS
 62
3
100
AcDbCircle
 10
248.9216599695736
 20
155.8926988845912
 30
0.000000000000000
 40
1.376562499942434
100
AcDbArc
 50
114.7615138554963
 51
245.2384861439188
  0
LINE
  5
13E
100
AcDbEntity
  8
A10
  6
CENTER
 62
3
100
AcDbLine
 10
255.8450974696238
 20
178.6926988846181
 30
0.000000000000000
 11
255.8450974696201
 21
141.1926988846207
 31
0.000000000000000
  0
LINE
  5
13F
100
AcDbEntity
  8
A10
  6
CONTINUOUS
 62
3
100
AcDbLine
 10
272.8450974696093
 20
142.6926988846148
 30
0.000000000000000
 11
272.8450974696095
 21
143.4926988846148
 31
0.000000000000000
  0
LINE
  5
140
100
AcDbEntity
  8
A10
  6
CONTINUOUS
 62
3
100
AcDbLine
 10
263.3450974696313
 20
143.4926988846181
 30
0.000000000000000
 11
272.8450974696095
 21
143.4926988846148
 31
0.000000000000000
  0
LINE
  5
141
100
AcDbEntity
  8
A10
  6
CONTINUOUS
 62
3
100
AcDbLine
 10
263.3450974696244
 20
142.6926988846181
 30
0.000000000000000
 11
272.8450974696093
 21
142.6926988846148
 31
0.000000000000000
  0
LINE
  5
142
100
AcDbEntity
  8
A10
  6
CONTINUOUS
 62
3
100
AcDbLine
 10
238.8450974696312
 20
142.6926988846181
 30
0.000000000000000
 11
248.3450974696380
 21
142.6926988846181
 31
0.000000000000000
  0
LINE
  5
143
100
AcDbEntity
  8
A10
  6
CONTINUOUS
 62
3
100
AcDbLine
 10
238.8450974696312
 20
143.4926988846181
 30
0.000000000000000
 11
248.3450974696312
 21
143.4926988846181
 31
0.000000000000000
  0
LINE
  5
144
100
AcDbEntity
  8
A10
  6
CONTINUOUS
 62
3
100
AcDbLine
 10
249.1450974696362
 20
157.8926988846182
 30
0.000000000000000
 11
249.1450974696362
 21
172.5926988846181
 31
0.000000000000000
  0
LINE
  5
145
100
AcDbEntity
  8
A10
  6
CENTER
 62
3
100
AcDbLine
 10
263.9575366255046
 20
161.4325437762266
 30
0.000000000000000
 11
247.7450974696336
 21
161.4325437762266
 31
0.000000000000000
  0
LINE
  5
146
100
AcDbEntity
  8
A10
  6
CENTER
 62
3
100
AcDbLine
 10
247.0947111270102
 20
172.3926988846135
 30
0.000000000000000
 11
265.4516435626570
 21
172.3926988846186
 31
0.000000000000000
  0
LINE
  5
147
100
AcDbEntity
  8
A10
  6
CENTER
 62
3
100
AcDbLine
 10
247.1689479466588
 20
155.8926988846248
 30
0.000000000000000
 11
264.7129188810480
 21
155.8926988846119
 31
0.000000000000000
  0
LINE
  5
148
100
AcDbEntity
  8
A10
  6
CENTER
 62
3
100
AcDbLine
 10
267.8450974696162
 20
141.1926988846148
 30
0.000000000000000
 11
267.8450974696162
 21
144.9926988846148
 31
0.000000000000000
  0
LINE
  5
149
100
AcDbEntity
  8
A10
  6
CENTER
 62
3
100
AcDbLine
 10
243.8450974696163
 20
141.1926988846148
 30
0.000000000000000
 11
243.8450974696163
 21
144.9926988846148
 31
0.000000000000000
  0
CIRCLE
  5
14A
100
AcDbEntity
  8
A10
  6
CONTINUOUS
 62
3
100
AcDbCircle
 10
190.5570480157535
 20
172.3926988846149
 30
0.000000000000000
 40
1.249999999967258
  0
CIRCLE
  5
14B
100
AcDbEntity
  8
A10
  6
CONTINUOUS
 62
3
100
AcDbCircle
 10
182.5570480157535
 20
155.8926988846149
 30
0.000000000000000
 40
1.249999999967258
  0
CIRCLE
  5
14C
100
AcDbEntity
  8
A10
  6
CONTINUOUS
 62
3
100
AcDbCircle
 10
163.5570480157535
 20
155.8926988846149
 30
0.000000000000000
 40
1.249999999967258
  0
LINE
  5
14D
100
AcDbEntity
  8
A10
  6
CONTINUOUS
 62
3
100
AcDbLine
 10
164.5570480157534
 20
99.34216143979555
 30
0.000000000000000
 11
164.5570480157534
 21
99.39216143979550
 31
0.000000000000000
  0
LINE
  5
14E
100
AcDbEntity
  8
A10
  6
CONTINUOUS
 62
3
100
AcDbLine
 10
162.5570480157534
 20
99.39216143979550
 30
0.000000000000000
 11
162.5570480157534
 21
99.34216143979555
 31
0.000000000000000
  0
LINE
  5
14F
100
AcDbEntity
  8
A10
  6
CONTINUOUS
 62
3
100
AcDbLine
 10
162.3070480157534
 20
98.54216143979565
 30
0.000000000000000
 11
162.3070480157534
 21
85.99216143979537
 31
0.000000000000000
  0
LINE
  5
150
100
AcDbEntity
  8
A10
  6
CONTINUOUS
 62
3
100
AcDbLine
 10
183.5570480157534
 20
99.34216143979555
 30
0.000000000000000
 11
183.5570480157534
 21
99.39216143979550
 31
0.000000000000000
  0
LINE
  5
151
100
AcDbEntity
  8
A10
  6
CONTINUOUS
 62
3
100
AcDbLine
 10
181.5570480157534
 20
99.39216143979550
 30
0.000000000000000
 11
181.5570480157534
 21
99.34216143979555
 31
0.000000000000000
  0
LINE
  5
152
100
AcDbEntity
  8
A10
  6
CONTINUOUS
 62
3
100
AcDbLine
 10
183.8070480157534
 20
85.99216143979537
 30
0.000000000000000
 11
183.8070480157534
 21
98.54216143979565
 31
0.000000000000000
  0
LINE
  5
153
100
AcDbEntity
  8
A10
  6
CONTINUOUS
 62
3
100
AcDbLine
 10
181.3070480157534
 20
98.54216143979565
 30
0.000000000000000
 11
181.3070480157534
 21
85.99216143979537
 31
0.000000000000000
  0
LINE
  5
154
100
AcDbEntity
  8
A10
  6
CONTINUOUS
 62
3
100
AcDbLine
 10
200.4385234677045
 20
97.44216143979571
 30
0.000000000000000
 11
200.1385234677044
 21
97.14216143979576
 31
0.000000000000000
  0
LINE
  5
155
100
AcDbEntity
  8
A10
  6
CONTINUOUS
 62
3
100
AcDbLine
 10
207.1385234677043
 20
97.14216143979573
 30
0.000000000000000
 11
206.8385234677044
 21
97.44216143979570
 31
0.000000000000000
  0
LINE
  5
156
100
AcDbEntity
  8
A10
  6
CONTINUOUS
 62
3
100
AcDbLine
 10
200.4385234677045
 20
97.44216143979574
 30
0.000000000000000
 11
206.8385234677045
 21
97.44216143979574
 31
0.000000000000000
  0
LINE
  5
157
100
AcDbEntity
  8
A10
  6
CONTINUOUS
 62
3
100
AcDbLine
 10
201.1636497335515
 20
97.14216143979579
 30
0.000000000000000
 11
200.1385234677045
 21
97.14216143979579
 31
0.000000000000000
  0
LINE
  5
158
100
AcDbEntity
  8
A10
  6
CONTINUOUS
 62
3
100
AcDbLine
 10
207.1385234677044
 20
88.24216143979577
 30
0.000000000000000
 11
207.1385234677044
 21
97.14216143979579
 31
0.000000000000000
  0
LINE
  5
159
100
AcDbEntity
  8
A10
  6
CONTINUOUS
 62
3
100
AcDbLine
 10
200.1385234677044
 20
97.14216143979579
 30
0.000000000000000
 11
200.1385234677044
 21
88.24216143979577
 31
0.000000000000000
  0
LINE
  5
15A
100
AcDbEntity
  8
A10
  6
CONTINUOUS
 62
3
100
AcDbLine
 10
207.1385234677045
 20
97.14216143979579
 30
0.000000000000000
 11
201.1636497335515
 21
97.14216143979579
 31
0.000000000000000
  0
LINE
  5
15B
100
AcDbEntity
  8
A10
  6
CONTINUOUS
 62
3
100
AcDbLine
 10
201.1636497335515
 20
88.24216143979577
 30
0.000000000000000
 11
207.1385234677045
 21
88.24216143979577
 31
0.000000000000000
  0
LINE
  5
15C
100
AcDbEntity
  8
A10
  6
CONTINUOUS
 62
3
100
AcDbLine
 10
206.8385234677044
 20
87.94216143979571
 30
0.000000000000000
 11
207.1385234677043
 21
88.24216143979569
 31
0.000000000000000
  0
LINE
  5
15D
100
AcDbEntity
  8
A10
  6
CONTINUOUS
 62
3
100
AcDbLine
 10
200.1385234677043
 20
88.24216143979569
 30
0.000000000000000
 11
200.4385234677044
 21
87.94216143979571
 31
0.000000000000000
  0
LINE
  5
15E
100
AcDbEntity
  8
A10
  6
CONTINUOUS
 62
3
100
AcDbLine
 10
206.8385234677044
 20
87.94216143979575
 30
0.000000000000000
 11
200.4385234677045
 21
87.94216143979575
 31
0.000000000000000
  0
LINE
  5
15F
100
AcDbEntity
  8
A10
  6
CONTINUOUS
 62
3
100
AcDbLine
 10
200.1385234677045
 20
88.24216143979577
 30
0.000000000000000
 11
201.1636497335515
 21
88.24216143979577
 31
0.000000000000000
  0
SPLINE
  5
160
100
AcDbEntity
  8
A10
  6
CONTINUOUS
 62
3
100
AcDbSpline
210
0.000000000000000
220
0.000000000000000
230
1.000000000000000
 70
     8
 71
     3
 72
    12
 73
     8
 74
     0
 42
1.000000000000000e-07
 43
1.000000000000000e-07
 12
0.9998434290801015
 22
-0.01769512160035447
 32
0.000000000000000
 13
-0.004494417240493931
 23
-0.9999899000558798
 33
0.000000000000000
 40
0.000000000000000
 40
0.000000000000000
 40
0.000000000000000
 40
0.000000000000000
 40
0.1349796613020124
 40
0.2735503089136475
 40
0.4221164522355598
 40
0.5829802995324210
 40
0.6976742149960342
 40
0.6976742149960342
 40
0.6976742149960342
 40
0.6976742149960342
 10
192.2951446914953
 20
88.19216143973493
 30
0.000000000000000
 10
192.3401308672994
 20
88.19136527922815
 30
0.000000000000000
 10
192.4326490117108
 20
88.17358955907785
 30
0.000000000000000
 10
192.5490475067009
 20
88.08751673506954
 30
0.000000000000000
 10
192.6310602844575
 20
87.95969146165545
 30
0.000000000000000
 10
192.6708342192891
 20
87.82235090548623
 30
0.000000000000000
 10
192.6785401867501
 20
87.73039235881605
 30
0.000000000000000
 10
192.6783683593131
 20
87.69216143979556
 30
0.000000000000000
  0
SPLINE
  5
161
100
AcDbEntity
  8
A10
  6
CONTINUOUS
 62
3
100
AcDbSpline
210
0.000000000000000
220
0.000000000000000
230
1.000000000000000
 70
     8
 71
     3
 72
    12
 73
     8
 74
     0
 42
1.000000000000000e-07
 43
1.000000000000000e-07
 12
0.008935881399338541
 22
-0.9999600742155508
 32
0.000000000000000
 13
-0.9999896053968769
 23
-0.004559506938676350
 33
0.000000000000000
 40
0.000000000000000
 40
0.000000000000000
 40
0.000000000000000
 40
0.000000000000000
 40
0.1666696156334596
 40
0.3248327049589887
 40
0.4702935064244220
 40
0.6059161452792347
 40
0.6978815903307795
 40
0.6978815903307795
 40
0.6978815903307795
 40
0.6978815903307795
 10
192.6783683593131
 20
97.69216143979580
 30
0.000000000000000
 10
192.6788648059525
 20
97.63660711938971
 30
0.000000000000000
 10
192.6655135020518
 20
97.52783674938425
 30
0.000000000000000
 10
192.6087314511107
 20
97.37976052140104
 30
0.000000000000000
 10
192.5147619142151
 20
97.26344459299983
 30
0.000000000000000
 10
192.4020982246403
 20
97.20236672534961
 30
0.000000000000000
 10
192.3257995211977
 20
97.19230121215745
 30
0.000000000000000
 10
192.2951446914953
 20
97.19216143979585
 30
0.000000000000000
  0
ELLIPSE
  5
162
100
AcDbEntity
  8
A10
  6
CONTINUOUS
 62
3
100
AcDbEllipse
 10
177.7584152762768
 20
97.69216143979580
 30
0.000000000000000
 11
0.000000000000000
 21
0.8000000000000000
 31
0.000000000000000
210
0.000000000000000
220
0.000000000000000
230
1.000000000000000
 40
0.7071067811865480
 41
0.000000000000000
 42
1.570796326794897
  0
ELLIPSE
  5
163
100
AcDbEntity
  8
A10
  6
CONTINUOUS
 62
3
100
AcDbEllipse
 10
179.4554715511246
 20
97.69216143979580
 30
0.000000000000000
 11
0.000000000000000
 21
-0.8000000000000000
 31
0.000000000000000
210
0.000000000000000
220
0.000000000000000
230
1.000000000000000
 40
0.7071067811865480
 41
3.141592567989139
 42
4.712388980384690
  0
LINE
  5
164
100
AcDbEntity
  8
A10
  6
CONTINUOUS
 62
3
100
AcDbLine
 10
191.8070480157534
 20
88.19216143973493
 30
0.000000000000000
 11
192.2951446914953
 21
88.19216143973493
 31
0.000000000000000
  0
LINE
  5
165
100
AcDbEntity
  8
A10
  6
CONTINUOUS
 62
3
100
AcDbLine
 10
191.8070480157534
 20
97.19216143979585
 30
0.000000000000000
 11
192.2951446914953
 21
97.19216143979585
 31
0.000000000000000
  0
LINE
  5
166
100
AcDbEntity
  8
A10
  6
CONTINUOUS
 62
3
100
AcDbLine
 10
202.2243099053315
 20
97.44216143979574
 30
0.000000000000000
 11
202.2243099053315
 21
97.69216143979568
 31
0.000000000000000
  0
LINE
  5
167
100
AcDbEntity
  8
A10
  6
CONTINUOUS
 62
3
100
AcDbLine
 10
202.2243099053315
 20
87.69216143979556
 30
0.000000000000000
 11
202.2243099053315
 21
87.94216143979575
 31
0.000000000000000
  0
LINE
  5
168
100
AcDbEntity
  8
A10
  6
CONTINUOUS
 62
3
100
AcDbLine
 10
180.2976972256291
 20
86.89216143979563
 30
0.000000000000000
 11
180.1641026109907
 21
86.89216143979563
 31
0.000000000000000
  0
LINE
  5
169
100
AcDbEntity
  8
A10
  6
CONTINUOUS
 62
3
100
AcDbLine
 10
180.1641026109907
 20
87.69216143979556
 30
0.000000000000000
 11
180.1641026109907
 21
86.89216143979563
 31
0.000000000000000
  0
LINE
  5
16A
100
AcDbEntity
  8
A10
  6
CONTINUOUS
 62
3
100
AcDbLine
 10
180.1641026109907
 20
87.69216143979556
 30
0.000000000000000
 11
180.2976972256291
 21
87.69216143979556
 31
0.000000000000000
  0
LINE
  5
16B
100
AcDbEntity
  8
A10
  6
CONTINUOUS
 62
3
100
AcDbLine
 10
201.6939798194415
 20
86.89216143979563
 30
0.000000000000000
 11
200.7510140598225
 21
86.89216143979563
 31
0.000000000000000
  0
LINE
  5
16C
100
AcDbEntity
  8
A10
  6
CONTINUOUS
 62
3
100
AcDbLine
 10
201.6939798194415
 20
87.69216143979556
 30
0.000000000000000
 11
200.7510140598225
 21
87.69216143979556
 31
0.000000000000000
  0
LINE
  5
16D
100
AcDbEntity
  8
A10
  6
CONTINUOUS
 62
3
100
AcDbLine
 10
201.6939798194415
 20
98.49216143979577
 30
0.000000000000000
 11
200.7510140598226
 21
98.49216143979581
 31
0.000000000000000
  0
LINE
  5
16E
100
AcDbEntity
  8
A10
  6
CONTINUOUS
 62
3
100
AcDbLine
 10
201.6939798194415
 20
97.69216143979570
 30
0.000000000000000
 11
200.7510140598225
 21
97.69216143979575
 31
0.000000000000000
  0
LINE
  5
16F
100
AcDbEntity
  8
A10
  6
CONTINUOUS
 62
3
100
AcDbLine
 10
198.2393314372374
 20
86.89216143979563
 30
0.000000000000000
 11
200.7510140598225
 21
86.89216143979563
 31
0.000000000000000
  0
LINE
  5
170
100
AcDbEntity
  8
A10
  6
CONTINUOUS
 62
3
100
AcDbLine
 10
200.7510140598225
 20
87.69216143979556
 30
0.000000000000000
 11
198.2393314372374
 21
87.69216143979556
 31
0.000000000000000
  0
LINE
  5
171
100
AcDbEntity
  8
A10
  6
CONTINUOUS
 62
3
100
AcDbLine
 10
200.7510140598225
 20
98.49216143979569
 30
0.000000000000000
 11
198.2393314372374
 21
98.49216143979569
 31
0.000000000000000
  0
LINE
  5
172
100
AcDbEntity
  8
A10
  6
CONTINUOUS
 62
3
100
AcDbLine
 10
198.2393314372374
 20
97.69216143979568
 30
0.000000000000000
 11
200.7510140598225
 21
97.69216143979568
 31
0.000000000000000
  0
LINE
  5
173
100
AcDbEntity
  8
A10
  6
CONTINUOUS
 62
3
100
AcDbLine
 10
177.7584152762768
 20
98.49216143979574
 30
0.000000000000000
 11
179.4554715511246
 21
98.49216143979578
 31
0.000000000000000
  0
LINE
  5
174
100
AcDbEntity
  8
A10
  6
CONTINUOUS
 62
3
100
AcDbLine
 10
181.3070480157534
 20
98.49216143979571
 30
0.000000000000000
 11
179.4554715511246
 21
98.49216143979574
 31
0.000000000000000
  0
LINE
  5
175
100
AcDbEntity
  8
A10
  6
CONTINUOUS
 62
3
100
AcDbLine
 10
181.3070480157534
 20
97.69216143979568
 30
0.000000000000000
 11
179.4554715511246
 21
97.69216143979568
 31
0.000000000000000
  0
LINE
  5
176
100
AcDbEntity
  8
A10
  6
CONTINUOUS
 62
3
100
AcDbLine
 10
179.4554715511246
 20
96.49216143979569
 30
0.000000000000000
 11
178.8897861261754
 21
96.49216143979569
 31
0.000000000000000
  0
LINE
  5
177
100
AcDbEntity
  8
A10
  6
CONTINUOUS
 62
3
100
AcDbLine
 10
179.4554715511246
 20
96.49216143979569
 30
0.000000000000000
 11
179.4554715511246
 21
97.69216143979568
 31
0.000000000000000
  0
LINE
  5
178
100
AcDbEntity
  8
A10
  6
CONTINUOUS
 62
3
100
AcDbLine
 10
178.8897861261754
 20
96.49216143979569
 30
0.000000000000000
 11
178.8897861261754
 21
97.69216143979580
 31
0.000000000000000
  0
LINE
  5
179
100
AcDbEntity
  8
A10
  6
CONTINUOUS
 62
3
100
AcDbLine
 10
177.1927298513276
 20
96.49216143979569
 30
0.000000000000000
 11
177.1927298513276
 21
97.69216143979580
 31
0.000000000000000
  0
LINE
  5
17A
100
AcDbEntity
  8
A10
  6
CONTINUOUS
 62
3
100
AcDbLine
 10
178.8897861261754
 20
96.49216143979569
 30
0.000000000000000
 11
177.1927298513276
 21
96.49216143979569
 31
0.000000000000000
  0
LINE
  5
17B
100
AcDbEntity
  8
A10
  6
CONTINUOUS
 62
3
100
AcDbLine
 10
206.3885234677045
 20
86.89216143979563
 30
0.000000000000000
 11
206.3885234677045
 21
87.69216143979556
 31
0.000000000000000
  0
LINE
  5
17C
100
AcDbEntity
  8
A10
  6
CONTINUOUS
 62
3
100
AcDbLine
 10
206.3885234677045
 20
86.89216143979563
 30
0.000000000000000
 11
201.6939798194415
 21
86.89216143979563
 31
0.000000000000000
  0
LINE
  5
17D
100
AcDbEntity
  8
A10
  6
CONTINUOUS
 62
3
100
AcDbLine
 10
206.3885234677045
 20
87.69216143979556
 30
0.000000000000000
 11
201.6939798194415
 21
87.69216143979556
 31
0.000000000000000
  0
LINE
  5
17E
100
AcDbEntity
  8
A10
  6
CONTINUOUS
 62
3
100
AcDbLine
 10
201.6939798194415
 20
98.49216143979572
 30
0.000000000000000
 11
206.3885234677046
 21
98.49216143979571
 31
0.000000000000000
  0
LINE
  5
17F
100
AcDbEntity
  8
A10
  6
CONTINUOUS
 62
3
100
AcDbLine
 10
201.6939798194415
 20
97.69216143979568
 30
0.000000000000000
 11
206.3885234677046
 21
97.69216143979568
 31
0.000000000000000
  0
LINE
  5
180
100
AcDbEntity
  8
A10
  6
CONTINUOUS
 62
3
100
AcDbLine
 10
206.3885234677046
 20
97.69216143979568
 30
0.000000000000000
 11
206.3885234677046
 21
98.49216143979569
 31
0.000000000000000
  0
LINE
  5
181
100
AcDbEntity
  8
A10
  6
CONTINUOUS
 62
3
100
AcDbLine
 10
183.8070480157534
 20
98.49216143979572
 30
0.000000000000000
 11
198.2393314372374
 21
98.49216143979571
 31
0.000000000000000
  0
LINE
  5
182
100
AcDbEntity
  8
A10
  6
CONTINUOUS
 62
3
100
AcDbLine
 10
183.8070480157534
 20
97.69216143979571
 30
0.000000000000000
 11
198.2393314372374
 21
97.69216143979570
 31
0.000000000000000
  0
LINE
  5
183
100
AcDbEntity
  8
A10
  6
CONTINUOUS
 62
3
100
AcDbLine
 10
181.3070480157534
 20
86.89216143979563
 30
0.000000000000000
 11
180.2976972256291
 21
86.89216143979563
 31
0.000000000000000
  0
LINE
  5
184
100
AcDbEntity
  8
A10
  6
CONTINUOUS
 62
3
100
AcDbLine
 10
198.2393314372374
 20
86.89216143979563
 30
0.000000000000000
 11
183.8070480157534
 21
86.89216143979563
 31
0.000000000000000
  0
LINE
  5
185
100
AcDbEntity
  8
A10
  6
CONTINUOUS
 62
3
100
AcDbLine
 10
181.3070480157534
 20
87.69216143979556
 30
0.000000000000000
 11
180.2976972256291
 21
87.69216143979556
 31
0.000000000000000
  0
LINE
  5
186
100
AcDbEntity
  8
A10
  6
CONTINUOUS
 62
3
100
AcDbLine
 10
198.2393314372374
 20
87.69216143979556
 30
0.000000000000000
 11
183.8070480157534
 21
87.69216143979556
 31
0.000000000000000
  0
ARC
  5
187
100
AcDbEntity
  8
A10
  6
CONTINUOUS
 62
3
100
AcDbCircle
 10
161.5570480157534
 20
107.6921614397955
 30
0.000000000000000
 40
2.000000000000000
100
AcDbArc
 50
90.00000000000000
 51
180.0000000000000
  0
ARC
  5
188
100
AcDbEntity
  8
A10
  6
CONTINUOUS
 62
3
100
AcDbCircle
 10
183.5570480157534
 20
107.6921614397955
 30
0.000000000000000
 40
2.000000000000000
100
AcDbArc
 50
359.9999999996091
 51
450.0000000000000
  0
ARC
  5
189
100
AcDbEntity
  8
A10
  6
CONTINUOUS
 62
3
100
AcDbCircle
 10
161.5570480157534
 20
77.69216143979547
 30
0.000000000000000
 40
2.000000000000000
100
AcDbArc
 50
179.9999999999999
 51
270.0000000000000
  0
ARC
  5
18A
100
AcDbEntity
  8
A10
  6
CONTINUOUS
 62
3
100
AcDbCircle
 10
183.5570480157534
 20
77.69216143979547
 30
0.000000000000000
 40
2.000000000000000
100
AcDbArc
 50
270.0000000000000
 51
360.0000000003907
  0
LINE
  5
18B
100
AcDbEntity
  8
A10
  6
CONTINUOUS
 62
3
100
AcDbLine
 10
160.5570480157534
 20
99.34216143979555
 30
0.000000000000000
 11
160.5570480157534
 21
99.39216143979550
 31
0.000000000000000
  0
LINE
  5
18C
100
AcDbEntity
  8
A10
  6
CONTINUOUS
 62
3
100
AcDbLine
 10
160.5570480157534
 20
99.19216143979556
 30
0.000000000000000
 11
160.3570480157534
 21
99.19216143979557
 31
0.000000000000000
  0
LINE
  5
18D
100
AcDbEntity
  8
A10
  6
CONTINUOUS
 62
3
100
AcDbLine
 10
190.5570480157534
 20
100.1921614397886
 30
0.000000000000000
 11
193.5570480157534
 21
100.1921614397886
 31
0.000000000000000
  0
LINE
  5
18E
100
AcDbEntity
  8
A10
  6
CONTINUOUS
 62
3
100
AcDbLine
 10
193.5570480157534
 20
99.39216143979050
 30
0.000000000000000
 11
190.5570480157534
 21
99.39216143979050
 31
0.000000000000000
  0
LINE
  5
18F
100
AcDbEntity
  8
A10
  6
CONTINUOUS
 62
3
100
AcDbLine
 10
193.5570480157534
 20
100.1921614397955
 30
0.000000000000000
 11
193.5570480157534
 21
99.39216143979550
 31
0.000000000000000
  0
LINE
  5
190
100
AcDbEntity
  8
A10
  6
CONTINUOUS
 62
3
100
AcDbLine
 10
190.5570480157534
 20
85.19216143979536
 30
0.000000000000000
 11
186.5570480157534
 21
85.19216143979536
 31
0.000000000000000
  0
LINE
  5
191
100
AcDbEntity
  8
A10
  6
CONTINUOUS
 62
3
100
AcDbLine
 10
186.5570480157534
 20
85.99216143979537
 30
0.000000000000000
 11
190.5570480157534
 21
85.99216143979537
 31
0.000000000000000
  0
LINE
  5
192
100
AcDbEntity
  8
A10
  6
CONTINUOUS
 62
3
100
AcDbLine
 10
186.5570480157534
 20
100.1921614397955
 30
0.000000000000000
 11
190.5570480157534
 21
100.1921614397955
 31
0.000000000000000
  0
LINE
  5
193
100
AcDbEntity
  8
A10
  6
CONTINUOUS
 62
3
100
AcDbLine
 10
190.5570480157534
 20
99.39216143979550
 30
0.000000000000000
 11
186.5570480157534
 21
99.39216143979550
 31
0.000000000000000
  0
LINE
  5
194
100
AcDbEntity
  8
A10
  6
CONTINUOUS
 62
3
100
AcDbLine
 10
193.5570480157534
 20
85.19216143980235
 30
0.000000000000000
 11
190.5570480157534
 21
85.19216143980235
 31
0.000000000000000
  0
LINE
  5
195
100
AcDbEntity
  8
A10
  6
CONTINUOUS
 62
3
100
AcDbLine
 10
190.5570480157534
 20
85.99216143980046
 30
0.000000000000000
 11
193.5570480157534
 21
85.99216143980046
 31
0.000000000000000
  0
LINE
  5
196
100
AcDbEntity
  8
A10
  6
CONTINUOUS
 62
3
100
AcDbLine
 10
193.5570480157534
 20
85.99216143979537
 30
0.000000000000000
 11
193.5570480157534
 21
85.19216143979536
 31
0.000000000000000
  0
LINE
  5
197
100
AcDbEntity
  8
A10
  6
CONTINUOUS
 62
3
100
AcDbLine
 10
185.5570480157534
 20
85.19216143980235
 30
0.000000000000000
 11
186.5570480157534
 21
85.19216143980235
 31
0.000000000000000
  0
LINE
  5
198
100
AcDbEntity
  8
A10
  6
CONTINUOUS
 62
3
100
AcDbLine
 10
186.5570480157534
 20
85.99216143980046
 30
0.000000000000000
 11
185.5570480157534
 21
85.99216143980046
 31
0.000000000000000
  0
LINE
  5
199
100
AcDbEntity
  8
A10
  6
CONTINUOUS
 62
3
100
AcDbLine
 10
186.5570480157534
 20
100.1921614397886
 30
0.000000000000000
 11
185.5570480157534
 21
100.1921614397886
 31
0.000000000000000
  0
LINE
  5
19A
100
AcDbEntity
  8
A10
  6
CONTINUOUS
 62
3
100
AcDbLine
 10
185.5570480157534
 20
99.39216143979050
 30
0.000000000000000
 11
186.5570480157534
 21
99.39216143979050
 31
0.000000000000000
  0
LINE
  5
19B
100
AcDbEntity
  8
A10
  6
CONTINUOUS
 62
3
100
AcDbLine
 10
159.5570480157534
 20
86.99216143979537
 30
0.000000000000000
 11
159.5570480157534
 21
85.99216143979537
 31
0.000000000000000
  0
LINE
  5
19C
100
AcDbEntity
  8
A10
  6
CONTINUOUS
 62
3
100
AcDbLine
 10
160.3570480157534
 20
86.99216143979537
 30
0.000000000000000
 11
160.3570480157534
 21
85.99216143979537
 31
0.000000000000000
  0
LINE
  5
19D
100
AcDbEntity
  8
A10
  6
CONTINUOUS
 62
3
100
AcDbLine
 10
159.5570480157534
 20
99.39216143979550
 30
0.000000000000000
 11
159.5570480157534
 21
98.39216143979550
 31
0.000000000000000
  0
LINE
  5
19E
100
AcDbEntity
  8
A10
  6
CONTINUOUS
 62
3
100
AcDbLine
 10
160.3570480157534
 20
99.39216143979550
 30
0.000000000000000
 11
160.3570480157534
 21
98.39216143979550
 31
0.000000000000000
  0
LINE
  5
19F
100
AcDbEntity
  8
A10
  6
CONTINUOUS
 62
3
100
AcDbLine
 10
159.5570480157534
 20
98.39216143979550
 30
0.000000000000000
 11
159.5570480157534
 21
86.99216143979537
 31
0.000000000000000
  0
LINE
  5
1A0
100
AcDbEntity
  8
A10
  6
CONTINUOUS
 62
3
100
AcDbLine
 10
160.3570480157534
 20
98.39216143979550
 30
0.000000000000000
 11
160.3570480157534
 21
86.99216143979537
 31
0.000000000000000
  0
LINE
  5
1A1
100
AcDbEntity
  8
A10
  6
CONTINUOUS
 62
3
100
AcDbLine
 10
183.5570480157534
 20
109.6921614397955
 30
0.000000000000000
 11
161.5570480157534
 21
109.6921614397955
 31
0.000000000000000
  0
LINE
  5
1A2
100
AcDbEntity
  8
A10
  6
CONTINUOUS
 62
3
100
AcDbLine
 10
159.5570480157534
 20
107.6921614397955
 30
0.000000000000000
 11
159.5570480157534
 21
100.1921614397955
 31
0.000000000000000
  0
LINE
  5
1A3
100
AcDbEntity
  8
A10
  6
CONTINUOUS
 62
3
100
AcDbLine
 10
183.5570480157534
 20
75.69216143979536
 30
0.000000000000000
 11
161.5570480157534
 21
75.69216143979536
 31
0.000000000000000
  0
LINE
  5
1A4
100
AcDbEntity
  8
A10
  6
CONTINUOUS
 62
3
100
AcDbLine
 10
159.5570480157534
 20
85.19216143979536
 30
0.000000000000000
 11
159.5570480157534
 21
77.69216143979547
 31
0.000000000000000
  0
LINE
  5
1A5
100
AcDbEntity
  8
A10
  6
CONTINUOUS
 62
3
100
AcDbLine
 10
185.5570480157534
 20
77.69216143980917
 30
0.000000000000000
 11
185.5570480157534
 21
85.19216143980235
 31
0.000000000000000
  0
LINE
  5
1A6
100
AcDbEntity
  8
A10
  6
CONTINUOUS
 62
3
100
AcDbLine
 10
185.5570480157534
 20
85.99216143979537
 30
0.000000000000000
 11
185.5570480157534
 21
85.19216143980235
 31
0.000000000000000
  0
LINE
  5
1A7
100
AcDbEntity
  8
A10
  6
CONTINUOUS
 62
3
100
AcDbLine
 10
159.5570480157534
 20
85.99216143979537
 30
0.000000000000000
 11
185.5570480157534
 21
85.99216143979537
 31
0.000000000000000
  0
LINE
  5
1A8
100
AcDbEntity
  8
A10
  6
CONTINUOUS
 62
3
100
AcDbLine
 10
159.5570480157534
 20
85.19216143979536
 30
0.000000000000000
 11
159.5570480157534
 21
85.99216143979537
 31
0.000000000000000
  0
LINE
  5
1A9
100
AcDbEntity
  8
A10
  6
CONTINUOUS
 62
3
100
AcDbLine
 10
185.5570480157534
 20
100.1921614397886
 30
0.000000000000000
 11
185.5570480157534
 21
99.39216143979550
 31
0.000000000000000
  0
LINE
  5
1AA
100
AcDbEntity
  8
A10
  6
CONTINUOUS
 62
3
100
AcDbLine
 10
159.5570480157534
 20
99.39216143979550
 30
0.000000000000000
 11
159.5570480157534
 21
100.1921614397955
 31
0.000000000000000
  0
LINE
  5
1AB
100
AcDbEntity
  8
A10
  6
CONTINUOUS
 62
3
100
AcDbLine
 10
185.5570480157534
 20
99.39216143979550
 30
0.000000000000000
 11
159.5570480157534
 21
99.39216143979550
 31
0.000000000000000
  0
LINE
  5
1AC
100
AcDbEntity
  8
A10
  6
CONTINUOUS
 62
3
100
AcDbLine
 10
176.5570480157536
 20
97.54216143979554
 30
0.000000000000000
 11
176.5570480157536
 21
98.54216143979554
 31
0.000000000000000
  0
LINE
  5
1AD
100
AcDbEntity
  8
A10
  6
CONTINUOUS
 62
3
100
AcDbLine
 10
176.5570480157536
 20
97.54216143979554
 30
0.000000000000000
 11
174.7416901843094
 21
97.54216143979554
 31
0.000000000000000
  0
LINE
  5
1AE
100
AcDbEntity
  8
A10
  6
CONTINUOUS
 62
3
100
AcDbLine
 10
168.2125370433176
 20
97.54216143979554
 30
0.000000000000000
 11
165.1570480157537
 21
97.54216143979554
 31
0.000000000000000
  0
LINE
  5
1AF
100
AcDbEntity
  8
A10
  6
CONTINUOUS
 62
3
100
AcDbLine
 10
165.1570480157537
 20
98.54216143979554
 30
0.000000000000000
 11
165.1570480157537
 21
97.54216143979554
 31
0.000000000000000
  0
LINE
  5
1B0
100
AcDbEntity
  8
A10
  6
CONTINUOUS
 62
3
100
AcDbLine
 10
169.1570480157537
 20
99.34216143979555
 30
0.000000000000000
 11
169.1570480157537
 21
99.39216143979550
 31
0.000000000000000
  0
LINE
  5
1B1
100
AcDbEntity
  8
A10
  6
CONTINUOUS
 62
3
100
AcDbLine
 10
167.1570480157537
 20
99.39216143979550
 30
0.000000000000000
 11
167.1570480157537
 21
99.34216143979555
 31
0.000000000000000
  0
LINE
  5
1B2
100
AcDbEntity
  8
A10
  6
CONTINUOUS
 62
3
100
AcDbLine
 10
169.6570480157537
 20
86.84216143979556
 30
0.000000000000000
 11
169.6570480157537
 21
96.54216143979554
 31
0.000000000000000
  0
LINE
  5
1B3
100
AcDbEntity
  8
A10
  6
CONTINUOUS
 62
3
100
AcDbLine
 10
166.6570480157537
 20
97.54216143979667
 30
0.000000000000000
 11
166.6570480157537
 21
86.84216143979556
 31
0.000000000000000
  0
LINE
  5
1B4
100
AcDbEntity
  8
A10
  6
CONTINUOUS
 62
3
100
AcDbLine
 10
180.5570480157535
 20
98.49216143979575
 30
0.000000000000000
 11
180.5570480157535
 21
98.54216143979554
 31
0.000000000000000
  0
LINE
  5
1B5
100
AcDbEntity
  8
A10
  6
CONTINUOUS
 62
3
100
AcDbLine
 10
180.5570480157535
 20
87.69216143979556
 30
0.000000000000000
 11
180.5570480157535
 21
97.69216143979568
 31
0.000000000000000
  0
LINE
  5
1B6
100
AcDbEntity
  8
A10
  6
CONTINUOUS
 62
3
100
AcDbLine
 10
180.5570480157535
 20
86.84216143979556
 30
0.000000000000000
 11
180.5570480157535
 21
86.89216143979563
 31
0.000000000000000
  0
LINE
  5
1B7
100
AcDbEntity
  8
A10
  6
CONTINUOUS
 62
3
100
AcDbLine
 10
190.5570480157535
 20
99.34216143979555
 30
0.000000000000000
 11
186.5570480157535
 21
99.34216143979555
 31
0.000000000000000
  0
LINE
  5
1B8
100
AcDbEntity
  8
A10
  6
CONTINUOUS
 62
3
100
AcDbLine
 10
190.5570480157535
 20
98.54216143979566
 30
0.000000000000000
 11
186.5570480157535
 21
98.54216143979568
 31
0.000000000000000
  0
LINE
  5
1B9
100
AcDbEntity
  8
A10
  6
CONTINUOUS
 62
3
100
AcDbLine
 10
190.5570480157535
 20
99.34216143979559
 30
0.000000000000000
 11
193.5570480157535
 21
99.34216143979558
 31
0.000000000000000
  0
LINE
  5
1BA
100
AcDbEntity
  8
A10
  6
CONTINUOUS
 62
3
100
AcDbLine
 10
193.5570480157535
 20
98.54216143979565
 30
0.000000000000000
 11
190.5570480157535
 21
98.54216143979565
 31
0.000000000000000
  0
LINE
  5
1BB
100
AcDbEntity
  8
A10
  6
CONTINUOUS
 62
3
100
AcDbLine
 10
190.5570480157535
 20
98.54216143979565
 30
0.000000000000000
 11
190.5570480157535
 21
99.34216143979555
 31
0.000000000000000
  0
LINE
  5
1BC
100
AcDbEntity
  8
A10
  6
CONTINUOUS
 62
3
100
AcDbLine
 10
193.5570480157535
 20
99.34216143979555
 30
0.000000000000000
 11
193.5570480157535
 21
98.54216143979565
 31
0.000000000000000
  0
LINE
  5
1BD
100
AcDbEntity
  8
A10
  6
CONTINUOUS
 62
3
100
AcDbLine
 10
193.5570480157535
 20
86.04216143979555
 30
0.000000000000000
 11
190.5570480157535
 21
86.04216143979555
 31
0.000000000000000
  0
LINE
  5
1BE
100
AcDbEntity
  8
A10
  6
CONTINUOUS
 62
3
100
AcDbLine
 10
190.5570480157535
 20
86.84216143979556
 30
0.000000000000000
 11
193.5570480157535
 21
86.84216143979556
 31
0.000000000000000
  0
LINE
  5
1BF
100
AcDbEntity
  8
A10
  6
CONTINUOUS
 62
3
100
AcDbLine
 10
193.5570480157535
 20
86.84216143979556
 30
0.000000000000000
 11
193.5570480157535
 21
86.04216143979555
 31
0.000000000000000
  0
LINE
  5
1C0
100
AcDbEntity
  8
A10
  6
CONTINUOUS
 62
3
100
AcDbLine
 10
183.8070480157534
 20
86.04216143979555
 30
0.000000000000000
 11
190.5570480157535
 21
86.04216143979555
 31
0.000000000000000
  0
LINE
  5
1C1
100
AcDbEntity
  8
A10
  6
CONTINUOUS
 62
3
100
AcDbLine
 10
183.8070480157534
 20
86.84216143979556
 30
0.000000000000000
 11
190.5570480157535
 21
86.84216143979556
 31
0.000000000000000
  0
LINE
  5
1C2
100
AcDbEntity
  8
A10
  6
CONTINUOUS
 62
3
100
AcDbLine
 10
190.5570480157535
 20
86.04216143979555
 30
0.000000000000000
 11
190.5570480157535
 21
86.84216143979556
 31
0.000000000000000
  0
LINE
  5
1C3
100
AcDbEntity
  8
A10
  6
CONTINUOUS
 62
3
100
AcDbLine
 10
186.5570480157535
 20
99.34216143979555
 30
0.000000000000000
 11
185.5570480157535
 21
99.34216143979555
 31
0.000000000000000
  0
LINE
  5
1C4
100
AcDbEntity
  8
A10
  6
CONTINUOUS
 62
3
100
AcDbLine
 10
185.5570480157535
 20
98.54216143979565
 30
0.000000000000000
 11
186.5570480157535
 21
98.54216143979565
 31
0.000000000000000
  0
LINE
  5
1C5
100
AcDbEntity
  8
A10
  6
CONTINUOUS
 62
3
100
AcDbLine
 10
186.5570480157535
 20
99.34216143979555
 30
0.000000000000000
 11
186.5570480157535
 21
98.54216143979565
 31
0.000000000000000
  0
LINE
  5
1C6
100
AcDbEntity
  8
A10
  6
CONTINUOUS
 62
3
100
AcDbLine
 10
180.5570480157543
 20
86.04216143979555
 30
0.000000000000000
 11
181.3070480157534
 21
86.04216143979555
 31
0.000000000000000
  0
LINE
  5
1C7
100
AcDbEntity
  8
A10
  6
CONTINUOUS
 62
3
100
AcDbLine
 10
181.3070480157534
 20
86.84216143979556
 30
0.000000000000000
 11
180.5570480157543
 21
86.84216143979556
 31
0.000000000000000
  0
LINE
  5
1C8
100
AcDbEntity
  8
A10
  6
CONTINUOUS
 62
3
100
AcDbLine
 10
180.5570480157544
 20
86.04216143979555
 30
0.000000000000000
 11
179.5570480157544
 21
86.04216143979555
 31
0.000000000000000
  0
LINE
  5
1C9
100
AcDbEntity
  8
A10
  6
CONTINUOUS
 62
3
100
AcDbLine
 10
179.5570480157544
 20
86.84216143979556
 30
0.000000000000000
 11
180.5570480157544
 21
86.84216143979556
 31
0.000000000000000
  0
LINE
  5
1CA
100
AcDbEntity
  8
A10
  6
CONTINUOUS
 62
3
100
AcDbLine
 10
168.1570480157535
 20
86.04216143979555
 30
0.000000000000000
 11
165.1570480157535
 21
86.04216143979555
 31
0.000000000000000
  0
LINE
  5
1CB
100
AcDbEntity
  8
A10
  6
CONTINUOUS
 62
3
100
AcDbLine
 10
168.1570480157535
 20
86.84216143979556
 30
0.000000000000000
 11
165.1570480157535
 21
86.84216143979556
 31
0.000000000000000
  0
LINE
  5
1CC
100
AcDbEntity
  8
A10
  6
CONTINUOUS
 62
3
100
AcDbLine
 10
165.1570480157535
 20
86.84216143979556
 30
0.000000000000000
 11
165.1570480157535
 21
86.04216143979555
 31
0.000000000000000
  0
LINE
  5
1CD
100
AcDbEntity
  8
A10
  6
CONTINUOUS
 62
3
100
AcDbLine
 10
168.1570480157535
 20
86.04216143979555
 30
0.000000000000000
 11
179.5570480157544
 21
86.04216143979555
 31
0.000000000000000
  0
LINE
  5
1CE
100
AcDbEntity
  8
A10
  6
CONTINUOUS
 62
3
100
AcDbLine
 10
168.1570480157535
 20
86.84216143979556
 30
0.000000000000000
 11
179.5570480157544
 21
86.84216143979556
 31
0.000000000000000
  0
LINE
  5
1CF
100
AcDbEntity
  8
A10
  6
CONTINUOUS
 62
3
100
AcDbLine
 10
168.1570480157535
 20
86.84216143979556
 30
0.000000000000000
 11
168.1570480157535
 21
86.04216143979555
 31
0.000000000000000
  0
LINE
  5
1D0
100
AcDbEntity
  8
A10
  6
CONTINUOUS
 62
3
100
AcDbLine
 10
184.5570480157535
 20
99.34216143979555
 30
0.000000000000000
 11
185.5570480157535
 21
99.34216143979555
 31
0.000000000000000
  0
LINE
  5
1D1
100
AcDbEntity
  8
A10
  6
CONTINUOUS
 62
3
100
AcDbLine
 10
185.5570480157535
 20
98.54216143979565
 30
0.000000000000000
 11
184.5570480157535
 21
98.54216143979565
 31
0.000000000000000
  0
LINE
  5
1D2
100
AcDbEntity
  8
A10
  6
CONTINUOUS
 62
3
100
AcDbLine
 10
185.5570480157535
 20
99.34216143979555
 30
0.000000000000000
 11
185.5570480157535
 21
98.54216143979565
 31
0.000000000000000
  0
LINE
  5
1D3
100
AcDbEntity
  8
A10
  6
CONTINUOUS
 62
3
100
AcDbLine
 10
160.5570480157535
 20
99.34216143979555
 30
0.000000000000000
 11
161.5570480157535
 21
99.34216143979555
 31
0.000000000000000
  0
LINE
  5
1D4
100
AcDbEntity
  8
A10
  6
CONTINUOUS
 62
3
100
AcDbLine
 10
160.5570480157535
 20
98.54216143979565
 30
0.000000000000000
 11
160.5570480157535
 21
99.34216143979555
 31
0.000000000000000
  0
LINE
  5
1D5
100
AcDbEntity
  8
A10
  6
CONTINUOUS
 62
3
100
AcDbLine
 10
161.5570480157535
 20
98.54216143979565
 30
0.000000000000000
 11
160.5570480157535
 21
98.54216143979565
 31
0.000000000000000
  0
LINE
  5
1D6
100
AcDbEntity
  8
A10
  6
CONTINUOUS
 62
3
100
AcDbLine
 10
184.5570480157535
 20
99.34216143979555
 30
0.000000000000000
 11
161.5570480157535
 21
99.34216143979555
 31
0.000000000000000
  0
LINE
  5
1D7
100
AcDbEntity
  8
A10
  6
CONTINUOUS
 62
3
100
AcDbLine
 10
184.5570480157535
 20
98.54216143979565
 30
0.000000000000000
 11
161.5570480157535
 21
98.54216143979565
 31
0.000000000000000
  0
LINE
  5
1D8
100
AcDbEntity
  8
A10
  6
CONTINUOUS
 62
3
100
AcDbLine
 10
184.5570480157535
 20
98.54216143979565
 30
0.000000000000000
 11
184.5570480157535
 21
99.34216143979555
 31
0.000000000000000
  0
LINE
  5
1D9
100
AcDbEntity
  8
A10
  6
CONTINUOUS
 62
3
100
AcDbLine
 10
166.2360051619813
 20
97.54216143979554
 30
0.000000000000000
 11
166.2360051619813
 21
96.54216143979554
 31
0.000000000000000
  0
LINE
  5
1DA
100
AcDbEntity
  8
A10
  6
CONTINUOUS
 62
3
100
AcDbLine
 10
166.2360051619813
 20
96.54216143979554
 30
0.000000000000000
 11
166.3104585312075
 21
96.54216143979554
 31
0.000000000000000
  0
LINE
  5
1DB
100
AcDbEntity
  8
A10
  6
CONTINUOUS
 62
3
100
AcDbLine
 10
171.7422135760686
 20
95.34216143979594
 30
0.000000000000000
 11
172.0570480157535
 21
95.34216143979594
 31
0.000000000000000
  0
LINE
  5
1DC
100
AcDbEntity
  8
A10
  6
CONTINUOUS
 62
3
100
AcDbLine
 10
177.1927298513276
 20
97.54216143979554
 30
0.000000000000000
 11
176.5570480157535
 21
97.54216143979554
 31
0.000000000000000
  0
LINE
  5
1DD
100
AcDbEntity
  8
A10
  6
CONTINUOUS
 62
3
100
AcDbLine
 10
177.1927298513276
 20
96.54216143979554
 30
0.000000000000000
 11
176.5570480157535
 21
96.54216143979554
 31
0.000000000000000
  0
LINE
  5
1DE
100
AcDbEntity
  8
A10
  6
CONTINUOUS
 62
3
100
AcDbLine
 10
166.6570480157537
 20
96.54216143979554
 30
0.000000000000000
 11
166.3104585312075
 21
96.54216143979554
 31
0.000000000000000
  0
LINE
  5
1DF
100
AcDbEntity
  8
A10
  6
CONTINUOUS
 62
3
100
AcDbLine
 10
176.5570480157535
 20
96.54216143979554
 30
0.000000000000000
 11
174.7484916876508
 21
96.54216143979554
 31
0.000000000000000
  0
LINE
  5
1E0
100
AcDbEntity
  8
A10
  6
CONTINUOUS
 62
3
100
AcDbLine
 10
176.5570480157535
 20
97.54216143979554
 30
0.000000000000000
 11
174.7484916876508
 21
97.54216143979554
 31
0.000000000000000
  0
LINE
  5
1E1
100
AcDbEntity
  8
A10
  6
CONTINUOUS
 62
3
100
AcDbLine
 10
167.8275140207844
 20
96.54216143979554
 30
0.000000000000000
 11
167.7682474050128
 21
96.54216143979554
 31
0.000000000000000
  0
LINE
  5
1E2
100
AcDbEntity
  8
A10
  6
CONTINUOUS
 62
3
100
AcDbLine
 10
167.7682474050128
 20
97.54216143979554
 30
0.000000000000000
 11
167.7682474050128
 21
96.54216143979554
 31
0.000000000000000
  0
LINE
  5
1E3
100
AcDbEntity
  8
A10
  6
CONTINUOUS
 62
3
100
AcDbLine
 10
169.7427311859148
 20
97.54216143979554
 30
0.000000000000000
 11
174.7484916876508
 21
97.54216143979554
 31
0.000000000000000
  0
LINE
  5
1E4
100
AcDbEntity
  8
A10
  6
CONTINUOUS
 62
3
100
AcDbLine
 10
169.7427311859148
 20
96.54216143979554
 30
0.000000000000000
 11
174.7484916876508
 21
96.54216143979554
 31
0.000000000000000
  0
LINE
  5
1E5
100
AcDbEntity
  8
A10
  6
CONTINUOUS
 62
3
100
AcDbLine
 10
168.2125370433176
 20
97.54216143979554
 30
0.000000000000000
 11
169.2097496760023
 21
97.54216143979554
 31
0.000000000000000
  0
LINE
  5
1E6
100
AcDbEntity
  8
A10
  6
CONTINUOUS
 62
3
100
AcDbLine
 10
167.8275140207844
 20
96.54216143979554
 30
0.000000000000000
 11
169.2097496760023
 21
96.54216143979554
 31
0.000000000000000
  0
LINE
  5
1E7
100
AcDbEntity
  8
A10
  6
CONTINUOUS
 62
3
100
AcDbLine
 10
169.2097496760023
 20
97.54216143979554
 30
0.000000000000000
 11
169.7427311859148
 21
97.54216143979554
 31
0.000000000000000
  0
LINE
  5
1E8
100
AcDbEntity
  8
A10
  6
CONTINUOUS
 62
3
100
AcDbLine
 10
169.7427311859148
 20
96.54216143979554
 30
0.000000000000000
 11
169.2097496760023
 21
96.54216143979554
 31
0.000000000000000
  0
LINE
  5
1E9
100
AcDbEntity
  8
A10
  6
CONTINUOUS
 62
3
100
AcDbLine
 10
174.5570480157535
 20
99.34216143979555
 30
0.000000000000000
 11
174.5570480157535
 21
99.39216143979550
 31
0.000000000000000
  0
LINE
  5
1EA
100
AcDbEntity
  8
A10
  6
CONTINUOUS
 62
3
100
AcDbLine
 10
172.5570480157535
 20
99.39216143979550
 30
0.000000000000000
 11
172.5570480157535
 21
99.34216143979555
 31
0.000000000000000
  0
LINE
  5
1EB
100
AcDbEntity
  8
A10
  6
CONTINUOUS
 62
3
100
AcDbLine
 10
191.5570480157534
 20
99.34216143979555
 30
0.000000000000000
 11
191.5570480157534
 21
99.39216143979050
 31
0.000000000000000
  0
LINE
  5
1EC
100
AcDbEntity
  8
A10
  6
CONTINUOUS
 62
3
100
AcDbLine
 10
189.5570480157534
 20
99.39216143979550
 30
0.000000000000000
 11
189.5570480157534
 21
99.34216143979555
 31
0.000000000000000
  0
LINE
  5
1ED
100
AcDbEntity
  8
A10
  6
CONTINUOUS
 62
3
100
AcDbLine
 10
191.8070480157534
 20
98.49216143979569
 30
0.000000000000000
 11
191.8070480157534
 21
98.54216143979565
 31
0.000000000000000
  0
LINE
  5
1EE
100
AcDbEntity
  8
A10
  6
CONTINUOUS
 62
3
100
AcDbLine
 10
191.8070480157534
 20
86.84216143979556
 30
0.000000000000000
 11
191.8070480157534
 21
86.89216143979563
 31
0.000000000000000
  0
LINE
  5
1EF
100
AcDbEntity
  8
A10
  6
CONTINUOUS
 62
3
100
AcDbLine
 10
191.8070480157534
 20
85.99216143980046
 30
0.000000000000000
 11
191.8070480157534
 21
86.04216143979555
 31
0.000000000000000
  0
LINE
  5
1F0
100
AcDbEntity
  8
A10
  6
CONTINUOUS
 62
3
100
AcDbLine
 10
189.3070480157534
 20
86.04216143979555
 30
0.000000000000000
 11
189.3070480157534
 21
85.99216143979537
 31
0.000000000000000
  0
LINE
  5
1F1
100
AcDbEntity
  8
A10
  6
CONTINUOUS
 62
3
100
AcDbLine
 10
189.3070480157534
 20
86.89216143979563
 30
0.000000000000000
 11
189.3070480157534
 21
86.84216143979556
 31
0.000000000000000
  0
LINE
  5
1F2
100
AcDbEntity
  8
A10
  6
CONTINUOUS
 62
3
100
AcDbLine
 10
189.3070480157534
 20
98.54216143979565
 30
0.000000000000000
 11
189.3070480157534
 21
98.49216143979569
 31
0.000000000000000
  0
LINE
  5
1F3
100
AcDbEntity
  8
A10
  6
CONTINUOUS
 62
3
100
AcDbLine
 10
192.5570480157534
 20
84.19216143979536
 30
0.000000000000000
 11
192.5570480157534
 21
85.19216143979536
 31
0.000000000000000
  0
LINE
  5
1F4
100
AcDbEntity
  8
A10
  6
CONTINUOUS
 62
3
100
AcDbLine
 10
188.5570480157534
 20
85.19216143979536
 30
0.000000000000000
 11
188.5570480157534
 21
84.19216143979536
 31
0.000000000000000
  0
LINE
  5
1F5
100
AcDbEntity
  8
A10
  6
CONTINUOUS
 62
3
100
AcDbLine
 10
188.5570480157534
 20
84.19216143979536
 30
0.000000000000000
 11
192.5570480157534
 21
84.19216143979536
 31
0.000000000000000
  0
LINE
  5
1F6
100
AcDbEntity
  8
A10
  6
CONTINUOUS
 62
3
100
AcDbLine
 10
204.8885234677045
 20
97.44216143979574
 30
0.000000000000000
 11
204.8885234677045
 21
97.69216143979557
 31
0.000000000000000
  0
LINE
  5
1F7
100
AcDbEntity
  8
A10
  6
CONTINUOUS
 62
3
100
AcDbLine
 10
204.8885234677045
 20
87.69216143979556
 30
0.000000000000000
 11
204.8885234677045
 21
87.94216143979575
 31
0.000000000000000
  0
LINE
  5
1F8
100
AcDbEntity
  8
A10
  6
CONTINUOUS
 62
3
100
AcDbLine
 10
202.3885234677046
 20
87.94216143979575
 30
0.000000000000000
 11
202.3885234677046
 21
87.69216143979556
 31
0.000000000000000
  0
LINE
  5
1F9
100
AcDbEntity
  8
A10
  6
CONTINUOUS
 62
3
100
AcDbLine
 10
202.3885234677046
 20
97.69216143979557
 30
0.000000000000000
 11
202.3885234677046
 21
97.44216143979574
 31
0.000000000000000
  0
LINE
  5
1FA
100
AcDbEntity
  8
A10
  6
CONTINUOUS
 62
3
100
AcDbLine
 10
205.6385234677045
 20
85.89216143979563
 30
0.000000000000000
 11
205.6385234677045
 21
86.89216143979563
 31
0.000000000000000
  0
LINE
  5
1FB
100
AcDbEntity
  8
A10
  6
CONTINUOUS
 62
3
100
AcDbLine
 10
201.6385234677045
 20
86.89216143979563
 30
0.000000000000000
 11
201.6385234677045
 21
85.89216143979563
 31
0.000000000000000
  0
LINE
  5
1FC
100
AcDbEntity
  8
A10
  6
CONTINUOUS
 62
3
100
AcDbLine
 10
201.6385234677045
 20
85.89216143979563
 30
0.000000000000000
 11
205.6385234677045
 21
85.89216143979563
 31
0.000000000000000
  0
LINE
  5
1FD
100
AcDbEntity
  8
A10
  6
CENTER
 62
3
100
AcDbLine
 10
164.5570480157533
 20
77.69216143979564
 30
0.000000000000000
 11
164.5570480157533
 21
107.3144582754384
 31
0.000000000000000
  0
LINE
  5
1FE
100
AcDbEntity
  8
A10
  6
CENTER
 62
3
100
AcDbLine
 10
157.0051329593654
 20
92.69216143979564
 30
0.000000000000000
 11
207.8885234676916
 21
92.69216143979564
 31
0.000000000000000
  0
LINE
  5
1FF
100
AcDbEntity
  8
A10
  6
CENTER
 62
3
100
AcDbLine
 10
163.5570480157535
 20
101.6921614398417
 30
0.000000000000000
 11
163.5570480157535
 21
83.69216143974954
 31
0.000000000000000
  0
LINE
  5
200
100
AcDbEntity
  8
A10
  6
CENTER
 62
3
100
AcDbLine
 10
168.1570480157013
 20
85.29216143979566
 30
0.000000000000000
 11
168.1570480157013
 21
100.0921614397955
 31
0.000000000000000
  0
LINE
  5
201
100
AcDbEntity
  8
A10
  6
CENTER
 62
3
100
AcDbLine
 10
173.5570480157535
 20
83.69216143979565
 30
0.000000000000000
 11
173.5570480157638
 21
100.0921614397956
 31
0.000000000000000
  0
LINE
  5
202
100
AcDbEntity
  8
A10
  6
CENTER
 62
3
100
AcDbLine
 10
180.5570480157533
 20
77.69216143979564
 30
0.000000000000000
 11
180.5570480157533
 21
107.0042750652541
 31
0.000000000000000
  0
LINE
  5
203
100
AcDbEntity
  8
A10
  6
CENTER
 62
3
100
AcDbLine
 10
182.5570480157535
 20
101.6921614398019
 30
0.000000000000000
 11
182.5570480157535
 21
83.69216143978939
 31
0.000000000000000
  0
LINE
  5
204
100
AcDbEntity
  8
A10
  6
CENTER
 62
3
100
AcDbLine
 10
176.8914130837655
 20
80.69216143979567
 30
0.000000000000000
 11
183.7376925607474
 21
80.69216143979565
 31
0.000000000000000
  0
LINE
  5
205
100
AcDbEntity
  8
A10
  6
CENTER
 62
3
100
AcDbLine
 10
162.1449850312424
 20
80.69216143979565
 30
0.000000000000000
 11
166.9449291621387
 21
80.69216143979564
 31
0.000000000000000
  0
LINE
  5
206
100
AcDbEntity
  8
A10
  6
CENTER
 62
3
100
AcDbLine
 10
160.8091117664933
 20
104.6921614397956
 30
0.000000000000000
 11
168.0429204947851
 21
104.6921614397956
 31
0.000000000000000
  0
LINE
  5
207
100
AcDbEntity
  8
A10
  6
CENTER
 62
3
100
AcDbLine
 10
178.0539909824171
 20
104.6921614397956
 30
0.000000000000000
 11
183.4633990951360
 21
104.6921614397956
 31
0.000000000000000
  0
LINE
  5
208
100
AcDbEntity
  8
A10
  6
CENTER
 62
3
100
AcDbLine
 10
203.6385234677045
 20
101.0320015839925
 30
0.000000000000000
 11
203.6385234677044
 21
82.48096779064082
 31
0.000000000000000
  0
LINE
  5
209
100
AcDbEntity
  8
A10
  6
CENTER
 62
3
100
AcDbLine
 10
190.5570480157325
 20
100.9921614397956
 30
0.000000000000000
 11
190.5570480157360
 21
83.49654697864122
 31
0.000000000000000
  0
LINE
  5
20A
100
AcDbEntity
  8
A10
  6
CONTINUOUS
 62
3
100
AcDbLine
 10
191.8070480157350
 20
88.19216143973499
 30
0.000000000000000
 11
192.2951446914954
 21
88.19216143973499
 31
0.000000000000000
  0
ARC
  5
20B
100
AcDbEntity
  8
A10
  6
CONTINUOUS
 62
3
100
AcDbCircle
 10
188.2070480157514
 20
96.34216143979560
 30
0.000000000000000
 40
0.6000000000000192
100
AcDbArc
 50
75.67728002179629
 51
255.6772800217963
  0
ARC
  5
20C
100
AcDbEntity
  8
A10
  6
CONTINUOUS
 62
3
100
AcDbCircle
 10
192.9070480157514
 20
95.14216143979561
 30
0.000000000000000
 40
0.6000000000000000
100
AcDbArc
 50
255.6772800217973
 51
435.6772800217956
  0
LINE
  5
20D
100
AcDbEntity
  8
A10
  6
CONTINUOUS
 62
3
100
AcDbLine
 10
193.0554779629109
 20
94.48501679785008
 30
0.000000000000000
 11
188.0586180685919
 21
95.76081081342085
 31
0.000000000000000
  0
LINE
  5
20E
100
AcDbEntity
  8
A10
  6
CONTINUOUS
 62
3
100
AcDbLine
 10
188.3554779629110
 20
96.92351206617033
 30
0.000000000000000
 11
193.0554779629109
 21
95.72351206617029
 31
0.000000000000000
  0
ARC
  5
20F
100
AcDbEntity
  8
A10
  6
CONTINUOUS
 62
3
100
AcDbCircle
 10
192.9070480157513
 20
93.90366617147546
 30
0.000000000000000
 40
0.6000000000000000
100
AcDbArc
 50
255.6772800217973
 51
435.6772800217973
  0
ARC
  5
210
100
AcDbEntity
  8
A10
  6
CONTINUOUS
 62
3
100
AcDbCircle
 10
188.2070480157514
 20
95.10366617147545
 30
0.000000000000000
 40
0.6000000000000000
100
AcDbArc
 50
75.67728002179727
 51
255.6772800217973
  0
LINE
  5
211
100
AcDbEntity
  8
A10
  6
CONTINUOUS
 62
3
100
AcDbLine
 10
188.0586180685919
 20
94.52231554510078
 30
0.000000000000000
 11
193.0554779629109
 21
93.24652152953001
 31
0.000000000000000
  0
ARC
  5
212
100
AcDbEntity
  8
A10
  6
CONTINUOUS
 62
3
100
AcDbCircle
 10
192.9070480157513
 20
92.66517090315533
 30
0.000000000000000
 40
0.6000000000000000
100
AcDbArc
 50
255.6772800217973
 51
435.6772800217973
  0
LINE
  5
213
100
AcDbEntity
  8
A10
  6
CONTINUOUS
 62
3
100
AcDbLine
 10
188.0586180685919
 20
93.28382027678066
 30
0.000000000000000
 11
193.0554779629109
 21
92.00802626120989
 31
0.000000000000000
  0
ARC
  5
214
100
AcDbEntity
  8
A10
  6
CONTINUOUS
 62
3
100
AcDbCircle
 10
188.2070480157514
 20
93.86517090315530
 30
0.000000000000000
 40
0.6000000000000000
100
AcDbArc
 50
75.67728002179727
 51
255.6772800217973
  0
ARC
  5
215
100
AcDbEntity
  8
A10
  6
CONTINUOUS
 62
3
100
AcDbCircle
 10
192.9070480157513
 20
91.42667563483518
 30
0.000000000000000
 40
0.6000000000000000
100
AcDbArc
 50
255.6772800217973
 51
435.6772800217973
  0
LINE
  5
216
100
AcDbEntity
  8
A10
  6
CONTINUOUS
 62
3
100
AcDbLine
 10
188.0586180685918
 20
92.04532500846047
 30
0.000000000000000
 11
193.0554779629108
 21
90.76953099288968
 31
0.000000000000000
  0
ARC
  5
217
100
AcDbEntity
  8
A10
  6
CONTINUOUS
 62
3
100
AcDbCircle
 10
188.2070480157514
 20
92.62667563483517
 30
0.000000000000000
 40
0.6000000000000000
100
AcDbArc
 50
75.67728002179727
 51
255.6772800217973
  0
ARC
  5
218
100
AcDbEntity
  8
A10
  6
CONTINUOUS
 62
3
100
AcDbCircle
 10
192.9070480157513
 20
90.18818036651508
 30
0.000000000000000
 40
0.6000000000000000
100
AcDbArc
 50
255.6772800217973
 51
435.6772800217973
  0
LINE
  5
219
100
AcDbEntity
  8
A10
  6
CONTINUOUS
 62
3
100
AcDbLine
 10
188.0586180685919
 20
90.80682974014036
 30
0.000000000000000
 11
193.0554779629109
 21
89.53103572456959
 31
0.000000000000000
  0
ARC
  5
21A
100
AcDbEntity
  8
A10
  6
CONTINUOUS
 62
3
100
AcDbCircle
 10
188.2070480157514
 20
91.38818036651502
 30
0.000000000000000
 40
0.6000000000000000
100
AcDbArc
 50
75.67728002179727
 51
255.6772800217973
  0
ARC
  5
21B
100
AcDbEntity
  8
A10
  6
CONTINUOUS
 62
3
100
AcDbCircle
 10
192.9070480157513
 20
88.94968509819493
 30
0.000000000000000
 40
0.6000000000000000
100
AcDbArc
 50
255.6772800217973
 51
435.6772800217973
  0
LINE
  5
21C
100
AcDbEntity
  8
A10
  6
CONTINUOUS
 62
3
100
AcDbLine
 10
188.0586180685919
 20
89.56833447182021
 30
0.000000000000000
 11
192.7586180685918
 21
88.36833447182023
 31
0.000000000000000
  0
ARC
  5
21D
100
AcDbEntity
  8
A10
  6
CONTINUOUS
 62
3
100
AcDbCircle
 10
188.2070480157514
 20
90.14968509819487
 30
0.000000000000000
 40
0.6000000000000000
100
AcDbArc
 50
75.67728002179727
 51
255.6772800217973
  0
LINE
  5
21E
100
AcDbEntity
  8
A10
  6
CONTINUOUS
 62
3
100
AcDbLine
 10
188.2070480157514
 20
96.94216143979563
 30
0.000000000000000
 11
189.3070480157333
 21
96.94216143979563
 31
0.000000000000000
  0
LINE
  5
21F
100
AcDbEntity
  8
A10
  6
CONTINUOUS
 62
3
100
AcDbLine
 10
192.9070480157513
 20
88.34968509819491
 30
0.000000000000000
 11
191.8070480157349
 21
88.34968509819491
 31
0.000000000000000
  0
LINE
  5
220
100
AcDbEntity
  8
A10
  6
CONTINUOUS
 62
3
100
AcDbLine
 10
192.9824345828783
 20
95.74216143979567
 30
0.000000000000000
 11
200.1385234676915
 21
95.74216143979568
 31
0.000000000000000
  0
LINE
  5
221
100
AcDbEntity
  8
A10
  6
CONTINUOUS
 62
3
100
AcDbLine
 10
191.8070480157333
 20
96.94216143979567
 30
0.000000000000000
 11
200.1385234676916
 21
96.94216143979568
 31
0.000000000000000
  0
LINE
  5
222
100
AcDbEntity
  8
A10
  6
CONTINUOUS
 62
3
100
AcDbLine
 10
189.3070480157534
 20
97.69216143979568
 30
0.000000000000000
 11
189.3070480157534
 21
96.68055801012545
 31
0.000000000000000
  0
LINE
  5
223
100
AcDbEntity
  8
A10
  6
CONTINUOUS
 62
3
100
AcDbLine
 10
189.3070480157534
 20
89.24958640020454
 30
0.000000000000000
 11
189.3070480157534
 21
87.69216143979556
 31
0.000000000000000
  0
LINE
  5
224
100
AcDbEntity
  8
A10
  6
CONTINUOUS
 62
3
100
AcDbLine
 10
191.8070480157534
 20
87.69216143979556
 30
0.000000000000000
 11
191.8070480157534
 21
88.61128852786412
 31
0.000000000000000
  0
LINE
  5
225
100
AcDbEntity
  8
A10
  6
CONTINUOUS
 62
3
100
AcDbLine
 10
191.8070480157534
 20
96.04226013778501
 30
0.000000000000000
 11
191.8070480157534
 21
97.69216143979568
 31
0.000000000000000
  0
LINE
  5
226
100
AcDbEntity
  8
A10
  6
CONTINUOUS
 62
3
100
AcDbLine
 10
192.6783683593131
 20
87.69216143979556
 30
0.000000000000000
 11
192.6783683593131
 21
88.38882375929568
 31
0.000000000000000
  0
LINE
  5
227
100
AcDbEntity
  8
A10
  6
CONTINUOUS
 62
3
100
AcDbLine
 10
192.6783683593131
 20
96.94216143979568
 30
0.000000000000000
 11
192.6783683593131
 21
97.69216143979580
 31
0.000000000000000
  0
ELLIPSE
  5
228
100
AcDbEntity
  8
A10
  6
CONTINUOUS
 62
3
100
AcDbEllipse
 10
180.7185926711371
 20
88.94968509819493
 30
0.000000000000000
 11
0.000000000000000
 21
0.6000000000000014
 31
0.000000000000000
210
0.000000000000000
220
0.000000000000000
230
1.000000000000000
 40
0.2588190451142929
 41
0.000000000000000
 42
6.283185307179586
  0
LINE
  5
229
100
AcDbEntity
  8
A10
  6
CONTINUOUS
 62
3
100
AcDbLine
 10
181.3070480157534
 20
89.54968509819490
 30
0.000000000000000
 11
180.7185926711371
 21
89.54968509819490
 31
0.000000000000000
  0
LINE
  5
22A
100
AcDbEntity
  8
A10
  6
CONTINUOUS
 62
3
100
AcDbLine
 10
188.1316614486242
 20
89.54968509819490
 30
0.000000000000000
 11
183.8070480157534
 21
89.54968509819490
 31
0.000000000000000
  0
LINE
  5
22B
100
AcDbEntity
  8
A10
  6
CONTINUOUS
 62
3
100
AcDbLine
 10
181.3070480157534
 20
88.34968509819491
 30
0.000000000000000
 11
180.7185926711371
 21
88.34968509819491
 31
0.000000000000000
  0
LINE
  5
22C
100
AcDbEntity
  8
A10
  6
CONTINUOUS
 62
3
100
AcDbLine
 10
189.3070480157349
 20
88.34968509819491
 30
0.000000000000000
 11
183.8070480157534
 21
88.34968509819491
 31
0.000000000000000
  0
ARC
  5
22D
100
AcDbEntity
  8
A10
  6
CONTINUOUS
 62
3
100
AcDbCircle
 10
190.5570480157519
 20
99.61559893985330
 30
0.000000000000000
 40
1.376562499942434
100
AcDbArc
 50
24.76151385549635
 51
155.2384861439188
  0
ARC
  5
22E
100
AcDbEntity
  8
A10
  6
CONTINUOUS
 62
3
100
AcDbCircle
 10
203.6385234677049
 20
97.91559893986604
 30
0.000000000000000
 40
1.376562499942434
100
AcDbArc
 50
24.76151385549635
 51
155.2384861439188
  0
LINE
  5
22F
100
AcDbEntity
  8
A10
  6
CONTINUOUS
 62
3
100
AcDbLine
 10
171.6573772305438
 20
96.04216143979559
 30
0.000000000000000
 11
171.7422135760685
 21
95.34216143979600
 31
0.000000000000000
  0
LINE
  5
230
100
AcDbEntity
  8
A10
  6
CONTINUOUS
 62
3
100
AcDbLine
 10
171.7422135760685
 20
95.34216143979597
 30
0.000000000000000
 11
171.9152463572784
 21
96.04216143979556
 31
0.000000000000000
  0
LINE
  5
231
100
AcDbEntity
  8
A10
  6
CONTINUOUS
 62
3
100
AcDbLine
 10
171.7422135760685
 20
95.34216143979597
 30
0.000000000000000
 11
172.0570480157534
 21
95.34216143979599
 31
0.000000000000000
  0
LINE
  5
232
100
AcDbEntity
  8
A10
  6
PHANTOM
 62
3
100
AcDbLine
 10
175.8070480158694
 20
87.09216143979437
 30
0.000000000000000
 11
175.8070480158694
 21
96.29216143979559
 31
0.000000000000000
  0
LINE
  5
233
100
AcDbEntity
  8
A10
  6
PHANTOM
 62
3
100
AcDbLine
 10
171.3070480158701
 20
96.29216143979565
 30
0.000000000000000
 11
171.3070480158701
 21
87.59611407047363
 31
0.000000000000000
  0
LINE
  5
234
100
AcDbEntity
  8
A10
  6
CONTINUOUS
 62
3
100
AcDbLine
 10
175.4996504222576
 20
96.03153064588349
 30
0.000000000000000
 11
171.4996504222587
 21
95.08796397921654
 31
0.000000000000000
  0
ARC
  5
235
100
AcDbEntity
  8
A10
  6
CONTINUOUS
 62
3
100
AcDbCircle
 10
175.5570480158691
 20
95.78820880911641
 30
0.000000000000000
 40
0.2500000000002828
100
AcDbArc
 50
286.8719884142823
 51
464.8624685374903
  0
ARC
  5
236
100
AcDbEntity
  8
A10
  6
CONTINUOUS
 62
3
100
AcDbCircle
 10
175.5570480158698
 20
96.29216143979559
 30
0.000000000000000
 40
0.2499999999999858
100
AcDbArc
 50
270.0000000000000
 51
450.0000000000000
  0
LINE
  5
237
100
AcDbEntity
  8
A10
  6
CONTINUOUS
 62
3
100
AcDbLine
 10
171.6144456094814
 20
94.60132030568280
 30
0.000000000000000
 11
175.6144456094805
 21
95.54488697234919
 31
0.000000000000000
  0
ARC
  5
238
100
AcDbEntity
  8
A10
  6
CONTINUOUS
 62
3
100
AcDbCircle
 10
171.5570480158701
 20
94.84464214244977
 30
0.000000000000000
 40
0.2500000000000000
100
AcDbArc
 50
103.2729565859803
 51
283.2729565859733
  0
ARC
  5
239
100
AcDbEntity
  8
A10
  6
CONTINUOUS
 62
3
100
AcDbCircle
 10
171.5570480158682
 20
96.29216143979559
 30
0.000000000000000
 40
0.2500000000000213
100
AcDbArc
 50
90.00000000000000
 51
270.0000000000000
  0
LINE
  5
23A
100
AcDbEntity
  8
A10
  6
CONTINUOUS
 62
3
100
AcDbLine
 10
175.0570480157535
 20
95.92712442654252
 30
0.000000000000000
 11
175.0570480157535
 21
96.04216143979559
 31
0.000000000000000
  0
LINE
  5
23B
100
AcDbEntity
  8
A10
  6
CONTINUOUS
 62
3
100
AcDbLine
 10
172.0570480157535
 20
96.04216143979559
 30
0.000000000000000
 11
172.0570480157535
 21
95.21944942654213
 31
0.000000000000000
  0
LINE
  5
23C
100
AcDbEntity
  8
A10
  6
CONTINUOUS
 62
3
100
AcDbLine
 10
171.5727345325716
 20
87.34216143979464
 30
0.000000000000000
 11
171.5257980158697
 21
87.34807488506138
 31
0.000000000000000
  0
LINE
  5
23D
100
AcDbEntity
  8
A10
  6
CONTINUOUS
 62
3
100
AcDbLine
 10
171.4996507254391
 20
87.83943597875815
 30
0.000000000000000
 11
175.4996507254386
 21
88.78299738406662
 31
0.000000000000000
  0
ARC
  5
23E
100
AcDbEntity
  8
A10
  6
CONTINUOUS
 62
3
100
AcDbCircle
 10
171.5570480158697
 20
87.59611407047363
 30
0.000000000000000
 40
0.2499999999999915
100
AcDbArc
 50
106.8719193991643
 51
286.8719193991643
  0
LINE
  5
23F
100
AcDbEntity
  8
A10
  6
CONTINUOUS
 62
3
100
AcDbLine
 10
175.6144453063002
 20
88.29635356749765
 30
0.000000000000000
 11
171.6144453063005
 21
87.35279216218919
 31
0.000000000000000
  0
LINE
  5
240
100
AcDbEntity
  8
A10
  6
CONTINUOUS
 62
3
100
AcDbLine
 10
175.5882980158589
 20
87.34020062520636
 30
0.000000000000000
 11
175.0570480158317
 21
87.40713183397210
 31
0.000000000000000
  0
ARC
  5
241
100
AcDbEntity
  8
A10
  6
CONTINUOUS
 62
3
100
AcDbCircle
 10
175.5570480158588
 20
87.09216143979437
 30
0.000000000000000
 40
0.2500000000002984
100
AcDbArc
 50
270.0000000000000
 51
450.0000000000000
  0
ARC
  5
242
100
AcDbEntity
  8
A10
  6
CONTINUOUS
 62
3
100
AcDbCircle
 10
175.5570480158694
 20
88.53967547578209
 30
0.000000000000000
 40
0.2500000000000000
100
AcDbArc
 50
283.2728851950848
 51
463.2728851950886
  0
LINE
  5
243
100
AcDbEntity
  8
A10
  6
CONTINUOUS
 62
3
100
AcDbLine
 10
172.0570480157535
 20
87.45719787082037
 30
0.000000000000000
 11
172.0570480157535
 21
87.34216143979465
 31
0.000000000000000
  0
LINE
  5
244
100
AcDbEntity
  8
A10
  6
CONTINUOUS
 62
3
100
AcDbLine
 10
175.0570480157535
 20
87.34216143979465
 30
0.000000000000000
 11
175.0570480157535
 21
88.16486892480175
 31
0.000000000000000
  0
LINE
  5
245
100
AcDbEntity
  8
A10
  6
CONTINUOUS
 62
3
100
AcDbLine
 10
172.0570480157535
 20
87.45719787082037
 30
0.000000000000000
 11
172.0570480157535
 21
87.34216143979465
 31
0.000000000000000
  0
LINE
  5
246
100
AcDbEntity
  8
A10
  6
CONTINUOUS
 62
3
100
AcDbLine
 10
172.0570480157535
 20
94.70572652496898
 30
0.000000000000000
 11
172.0570480157535
 21
87.97092062139920
 31
0.000000000000000
  0
LINE
  5
247
100
AcDbEntity
  8
A10
  6
CONTINUOUS
 62
3
100
AcDbLine
 10
175.0570480157535
 20
87.34216143979465
 30
0.000000000000000
 11
175.0570480157535
 21
88.16486892480175
 31
0.000000000000000
  0
LINE
  5
248
100
AcDbEntity
  8
A10
  6
CONTINUOUS
 62
3
100
AcDbLine
 10
175.0570480157535
 20
88.67859167538062
 30
0.000000000000000
 11
175.0570480157535
 21
95.41340152496892
 31
0.000000000000000
  0
LINE
  5
249
100
AcDbEntity
  8
A10
  6
CONTINUOUS
 62
3
100
AcDbLine
 10
175.5570480158588
 20
87.34216143979465
 30
0.000000000000000
 11
169.6570480157536
 21
87.34216143979465
 31
0.000000000000000
  0
LINE
  5
24A
100
AcDbEntity
  8
A10
  6
CONTINUOUS
 62
3
100
AcDbLine
 10
164.8070480157534
 20
87.34216143979465
 30
0.000000000000000
 11
166.6570480157536
 21
87.34216143979465
 31
0.000000000000000
  0
LINE
  5
24B
100
AcDbEntity
  8
A10
  6
CONTINUOUS
 62
3
100
AcDbLine
 10
164.8070480157534
 20
86.84216143979465
 30
0.000000000000000
 11
165.1570480157535
 21
86.84216143979465
 31
0.000000000000000
  0
LINE
  5
24C
100
AcDbEntity
  8
A10
  6
CONTINUOUS
 62
3
100
AcDbLine
 10
171.5570480158682
 20
96.04216143979559
 30
0.000000000000000
 11
175.5570480158698
 21
96.04216143979559
 31
0.000000000000000
  0
LINE
  5
24D
100
AcDbEntity
  8
A10
  6
CONTINUOUS
 62
3
100
AcDbLine
 10
172.0570480157535
 20
96.04216143979559
 30
0.000000000000000
 11
172.0570480157535
 21
95.21944942654213
 31
0.000000000000000
  0
LINE
  5
24E
100
AcDbEntity
  8
A10
  6
CONTINUOUS
 62
3
100
AcDbLine
 10
175.0570480157535
 20
95.92712442654252
 30
0.000000000000000
 11
175.0570480157535
 21
96.04216143979559
 31
0.000000000000000
  0
LINE
  5
24F
100
AcDbEntity
  8
A10
  6
CONTINUOUS
 62
3
100
AcDbLine
 10
172.0570480157535
 20
87.45719787082039
 30
0.000000000000000
 11
172.0570480157535
 21
87.34216143979465
 31
0.000000000000000
  0
LINE
  5
250
100
AcDbEntity
  8
A10
  6
CONTINUOUS
 62
3
100
AcDbLine
 10
172.0570480157535
 20
94.70572652496898
 30
0.000000000000000
 11
172.0570480157535
 21
87.97092062139923
 31
0.000000000000000
  0
LINE
  5
251
100
AcDbEntity
  8
A10
  6
CONTINUOUS
 62
3
100
AcDbLine
 10
175.0570480157535
 20
87.34216143979465
 30
0.000000000000000
 11
175.0570480157535
 21
88.16486892480178
 31
0.000000000000000
  0
LINE
  5
252
100
AcDbEntity
  8
A10
  6
CONTINUOUS
 62
3
100
AcDbLine
 10
175.0570480157535
 20
88.67859167538064
 30
0.000000000000000
 11
175.0570480157535
 21
95.41340152496898
 31
0.000000000000000
  0
LINE
  5
253
100
AcDbEntity
  8
A10
  6
CONTINUOUS
 62
3
100
AcDbLine
 10
164.8070480157534
 20
85.99216143979537
 30
0.000000000000000
 11
164.8070480157534
 21
98.54216143979565
 31
0.000000000000000
  0
LINE
  5
254
100
AcDbEntity
  8
A10
  6
CONTINUOUS
 62
3
100
AcDbLine
 10
163.0570480157533
 20
102.9921614397956
 30
0.000000000000000
 11
166.0570480157533
 21
102.9921614397956
 31
0.000000000000000
  0
ARC
  5
255
100
AcDbEntity
  8
A10
  6
CONTINUOUS
 62
3
100
AcDbCircle
 10
163.0570480157533
 20
104.6921614397956
 30
0.000000000000000
 40
1.700000000000000
100
AcDbArc
 50
90.00000000000000
 51
270.0000000000000
  0
LINE
  5
256
100
AcDbEntity
  8
A10
  6
CONTINUOUS
 62
3
100
AcDbLine
 10
166.0570480157533
 20
106.3921614397956
 30
0.000000000000000
 11
163.0570480157533
 21
106.3921614397956
 31
0.000000000000000
  0
ARC
  5
257
100
AcDbEntity
  8
A10
  6
CONTINUOUS
 62
3
100
AcDbCircle
 10
166.0570480157533
 20
104.6921614397956
 30
0.000000000000000
 40
1.700000000000000
100
AcDbArc
 50
270.0000000000000
 51
450.0000000000000
  0
LINE
  5
258
100
AcDbEntity
  8
A10
  6
CONTINUOUS
 62
3
100
AcDbLine
 10
182.0570480157533
 20
82.39216143979556
 30
0.000000000000000
 11
179.0570480157533
 21
82.39216143979556
 31
0.000000000000000
  0
ARC
  5
259
100
AcDbEntity
  8
A10
  6
CONTINUOUS
 62
3
100
AcDbCircle
 10
179.0570480157533
 20
80.69216143979556
 30
0.000000000000000
 40
1.700000000000000
100
AcDbArc
 50
90.00000000000000
 51
270.0000000000000
  0
LINE
  5
25A
100
AcDbEntity
  8
A10
  6
CONTINUOUS
 62
3
100
AcDbLine
 10
179.0570480157533
 20
78.99216143979555
 30
0.000000000000000
 11
182.0570480157533
 21
78.99216143979555
 31
0.000000000000000
  0
ARC
  5
25B
100
AcDbEntity
  8
A10
  6
CONTINUOUS
 62
3
100
AcDbCircle
 10
182.0570480157533
 20
80.69216143979556
 30
0.000000000000000
 40
1.700000000000000
100
AcDbArc
 50
270.0000000000000
 51
450.0000000000000
  0
CIRCLE
  5
25C
100
AcDbEntity
  8
A10
  6
CONTINUOUS
 62
3
100
AcDbCircle
 10
164.5570480157533
 20
80.69216143979565
 30
0.000000000000000
 40
1.700000000000000
  0
CIRCLE
  5
25D
100
AcDbEntity
  8
A10
  6
CONTINUOUS
 62
3
100
AcDbCircle
 10
180.5570480157533
 20
104.6921614397956
 30
0.000000000000000
 40
1.700000000000000
  0
LINE
  5
25E
100
AcDbEntity
  8
A10
  6
CONTINUOUS
 62
3
100
AcDbLine
 10
185.5570480157533
 20
107.6921614397955
 30
0.000000000000000
 11
185.5570480157641
 21
100.1921614398050
 31
0.000000000000000
  0
LINE
  5
25F
100
AcDbEntity
  8
A10
  6
CONTINUOUS
 62
3
100
AcDbLine
 10
103.8373500091451
 20
177.1926988846150
 30
0.000000000000000
 11
117.2373500091451
 21
177.1926988846150
 31
0.000000000000000
  0
LINE
  5
260
100
AcDbEntity
  8
A10
  6
CENTER
 62
3
100
AcDbLine
 10
110.5373500091452
 20
177.9426988846150
 30
0.000000000000000
 11
110.5373500091452
 21
140.3331679514357
 31
0.000000000000000
  0
LINE
  5
261
100
AcDbEntity
  8
A10
  6
CONTINUOUS
 62
3
100
AcDbLine
 10
93.53735000914513
 20
143.4926988846150
 30
0.000000000000000
 11
93.53735000914513
 21
142.6926988846150
 31
0.000000000000000
  0
LINE
  5
262
100
AcDbEntity
  8
A10
  6
CONTINUOUS
 62
3
100
AcDbLine
 10
127.5373500091451
 20
143.4926988846151
 30
0.000000000000000
 11
127.5373500091451
 21
142.6926988846151
 31
0.000000000000000
  0
LINE
  5
263
100
AcDbEntity
  8
A10
  6
CONTINUOUS
 62
3
100
AcDbLine
 10
93.53735000914509
 20
143.4926988846150
 30
0.000000000000000
 11
103.0373500091451
 21
143.4926988846150
 31
0.000000000000000
  0
LINE
  5
264
100
AcDbEntity
  8
A10
  6
CONTINUOUS
 62
3
100
AcDbLine
 10
118.0373500091451
 20
143.4926988846150
 30
0.000000000000000
 11
127.5373500091451
 21
143.4926988846150
 31
0.000000000000000
  0
LINE
  5
265
100
AcDbEntity
  8
A10
  6
CONTINUOUS
 62
3
100
AcDbLine
 10
93.53735000914509
 20
142.6926988846150
 30
0.000000000000000
 11
103.0373500091451
 21
142.6926988846150
 31
0.000000000000000
  0
LINE
  5
266
100
AcDbEntity
  8
A10
  6
CONTINUOUS
 62
3
100
AcDbLine
 10
118.0373500091451
 20
142.6926988846150
 30
0.000000000000000
 11
127.5373500091451
 21
142.6926988846150
 31
0.000000000000000
  0
ARC
  5
267
100
AcDbEntity
  8
A10
  6
CONTINUOUS
 62
3
100
AcDbCircle
 10
103.8373500091450
 20
176.3926988846150
 30
0.000000000000000
 40
0.8000000000000000
100
AcDbArc
 50
90.00000000000000
 51
180.0000000000000
  0
ARC
  5
268
100
AcDbEntity
  8
A10
  6
CONTINUOUS
 62
3
100
AcDbCircle
 10
117.2373500091451
 20
176.3926988846150
 30
0.000000000000000
 40
0.8000000000000000
100
AcDbArc
 50
0.000000000000000
 51
90.00000000000000
  0
ARC
  5
269
100
AcDbEntity
  8
A10
  6
CONTINUOUS
 62
3
100
AcDbCircle
 10
118.0373500091451
 20
143.4926988846150
 30
0.000000000000000
 40
0.8000000000000000
100
AcDbArc
 50
180.0000000000000
 51
270.0000000000000
  0
ARC
  5
26A
100
AcDbEntity
  8
A10
  6
CONTINUOUS
 62
3
100
AcDbCircle
 10
103.0373500091451
 20
143.4926988846150
 30
0.000000000000000
 40
0.8000000000000000
100
AcDbArc
 50
270.0000000000000
 51
360.0000000000000
  0
LINE
  5
26B
100
AcDbEntity
  8
A10
  6
CONTINUOUS
 62
3
100
AcDbLine
 10
104.8373500091451
 20
143.4926988846150
 30
0.000000000000000
 11
116.2373500091451
 21
143.4926988846150
 31
0.000000000000000
  0
ARC
  5
26C
100
AcDbEntity
  8
A10
  6
CONTINUOUS
 62
3
100
AcDbCircle
 10
116.2373500091451
 20
144.4926988846150
 30
0.000000000000000
 40
1.000000000000000
100
AcDbArc
 50
270.0000000000000
 51
360.0000000000000
  0
ARC
  5
26D
100
AcDbEntity
  8
A10
  6
CONTINUOUS
 62
3
100
AcDbCircle
 10
104.8373500091451
 20
144.4926988846150
 30
0.000000000000000
 40
1.000000000000000
100
AcDbArc
 50
180.0000000000000
 51
270.0000000000000
  0
LINE
  5
26E
100
AcDbEntity
  8
A10
  6
CENTER
 62
3
100
AcDbLine
 10
98.53735000914514
 20
141.1926988846150
 30
0.000000000000000
 11
98.53735000914514
 21
144.9926988846150
 31
0.000000000000000
  0
LINE
  5
26F
100
AcDbEntity
  8
A10
  6
CENTER
 62
3
100
AcDbLine
 10
122.5373500091452
 20
141.1926988846150
 30
0.000000000000000
 11
122.5373500091452
 21
144.9926988846150
 31
0.000000000000000
  0
LINE
  5
270
100
AcDbEntity
  8
A10
  6
CONTINUOUS
 62
3
100
AcDbLine
 10
117.2373500091451
 20
176.3926988846987
 30
0.000000000000000
 11
116.4373500091451
 21
176.3926988847000
 31
0.000000000000000
  0
LINE
  5
271
100
AcDbEntity
  8
A10
  6
CONTINUOUS
 62
3
100
AcDbLine
 10
118.0373500091451
 20
175.3926988846975
 30
0.000000000000000
 11
117.2373500091439
 21
175.3926988846987
 31
0.000000000000000
  0
LINE
  5
272
100
AcDbEntity
  8
A10
  6
CONTINUOUS
 62
3
100
AcDbLine
 10
116.4373500091451
 20
177.1926988846150
 30
0.000000000000000
 11
116.4373500091451
 21
176.1926988846988
 31
0.000000000000000
  0
ARC
  5
273
100
AcDbEntity
  8
A10
  6
CONTINUOUS
 62
3
100
AcDbCircle
 10
117.2373500091451
 20
176.1926988846988
 30
0.000000000000000
 40
0.8000000000000000
100
AcDbArc
 50
180.0000000000000
 51
270.0000000000000
  0
ARC
  5
274
100
AcDbEntity
  8
A10
  6
CONTINUOUS
 62
3
100
AcDbCircle
 10
103.8373500091452
 20
176.1926988846988
 30
0.000000000000000
 40
0.8000000000000000
100
AcDbArc
 50
270.0000000000000
 51
360.0000000000000
  0
LINE
  5
275
100
AcDbEntity
  8
A10
  6
CONTINUOUS
 62
3
100
AcDbLine
 10
104.6373500091452
 20
177.1926988846150
 30
0.000000000000000
 11
104.6373500091452
 21
176.1926988846988
 31
0.000000000000000
  0
LINE
  5
276
100
AcDbEntity
  8
A10
  6
CONTINUOUS
 62
3
100
AcDbLine
 10
103.8373500091452
 20
176.3926988846988
 30
0.000000000000000
 11
104.6373500091452
 21
176.3926988847000
 31
0.000000000000000
  0
LINE
  5
277
100
AcDbEntity
  8
A10
  6
CONTINUOUS
 62
3
100
AcDbLine
 10
103.8373500091452
 20
175.3926988846987
 30
0.000000000000000
 11
103.0373500091444
 21
175.3926988846987
 31
0.000000000000000
  0
LINE
  5
278
100
AcDbEntity
  8
A10
  6
CONTINUOUS
 62
3
100
AcDbLine
 10
102.0373500091375
 20
157.8926988846171
 30
0.000000000000000
 11
103.0373500091375
 21
157.8926988846171
 31
0.000000000000000
  0
LINE
  5
279
100
AcDbEntity
  8
A10
  6
CONTINUOUS
 62
3
100
AcDbLine
 10
103.0373500091375
 20
153.8926988846171
 30
0.000000000000000
 11
102.0373500091375
 21
153.8926988846171
 31
0.000000000000000
  0
LINE
  5
27A
100
AcDbEntity
  8
A10
  6
CONTINUOUS
 62
3
100
AcDbLine
 10
102.0373500091375
 20
153.8926988846171
 30
0.000000000000000
 11
102.0373500091375
 21
157.8926988846171
 31
0.000000000000000
  0
LINE
  5
27B
100
AcDbEntity
  8
A10
  6
CONTINUOUS
 62
3
100
AcDbLine
 10
103.0373500091444
 20
156.8926988846173
 30
0.000000000000000
 11
103.0373500091444
 21
157.8926988846173
 31
0.000000000000000
  0
LINE
  5
27C
100
AcDbEntity
  8
A10
  6
CONTINUOUS
 62
3
100
AcDbLine
 10
103.8373500091425
 20
157.8926988846173
 30
0.000000000000000
 11
103.8373500091425
 21
156.8926988846173
 31
0.000000000000000
  0
LINE
  5
27D
100
AcDbEntity
  8
A10
  6
CONTINUOUS
 62
3
100
AcDbLine
 10
103.8373500091375
 20
172.5926988846172
 30
0.000000000000000
 11
103.8373500091375
 21
158.3972499205414
 31
0.000000000000000
  0
LINE
  5
27E
100
AcDbEntity
  8
A10
  6
CONTINUOUS
 62
3
100
AcDbLine
 10
103.8373500091425
 20
157.8926988846173
 30
0.000000000000000
 11
103.8373500091425
 21
159.4325437762257
 31
0.000000000000000
  0
LINE
  5
27F
100
AcDbEntity
  8
A10
  6
CONTINUOUS
 62
3
100
AcDbLine
 10
103.8873500091377
 20
171.1426988846171
 30
0.000000000000000
 11
103.8373500091375
 21
171.1426988846171
 31
0.000000000000000
  0
LINE
  5
280
100
AcDbEntity
  8
A10
  6
CONTINUOUS
 62
3
100
AcDbLine
 10
102.0373500091375
 20
174.3926988846171
 30
0.000000000000000
 11
103.0373500091375
 21
174.3926988846171
 31
0.000000000000000
  0
LINE
  5
281
100
AcDbEntity
  8
A10
  6
CONTINUOUS
 62
3
100
AcDbLine
 10
103.0373500091375
 20
170.3926988846171
 30
0.000000000000000
 11
102.0373500091375
 21
170.3926988846171
 31
0.000000000000000
  0
LINE
  5
282
100
AcDbEntity
  8
A10
  6
CONTINUOUS
 62
3
100
AcDbLine
 10
102.0373500091375
 20
170.3926988846171
 30
0.000000000000000
 11
102.0373500091375
 21
174.3926988846171
 31
0.000000000000000
  0
ARC
  5
283
100
AcDbEntity
  8
A10
  6
CONTINUOUS
 62
3
100
AcDbCircle
 10
117.4607875091952
 20
172.3926988846131
 30
0.000000000000000
 40
1.376562499942434
100
AcDbArc
 50
294.7615138560811
 51
425.2384861445036
  0
ARC
  5
284
100
AcDbEntity
  8
A10
  6
CONTINUOUS
 62
3
100
AcDbCircle
 10
117.4607875091951
 20
155.8926988845903
 30
0.000000000000000
 40
1.376562499942434
100
AcDbArc
 50
294.7615138560811
 51
425.2384861445036
  0
LINE
  5
285
100
AcDbEntity
  8
A10
  6
CENTER
 62
3
100
AcDbLine
 10
102.4249108532642
 20
161.4325437762257
 30
0.000000000000000
 11
118.6373500091351
 21
161.4325437762257
 31
0.000000000000000
  0
LINE
  5
286
100
AcDbEntity
  8
A10
  6
CONTINUOUS
 62
3
100
AcDbLine
 10
103.8373500091451
 20
143.4926988846150
 30
0.000000000000000
 11
103.8373500091451
 21
176.3926988846987
 31
0.000000000000000
  0
LINE
  5
287
100
AcDbEntity
  8
A10
  6
CENTER
 62
3
100
AcDbLine
 10
100.9308039161118
 20
172.3926988846177
 30
0.000000000000000
 11
119.2877363517585
 21
172.3926988846127
 31
0.000000000000000
  0
LINE
  5
288
100
AcDbEntity
  8
A10
  6
CENTER
 62
3
100
AcDbLine
 10
101.6695285977207
 20
155.8926988846111
 30
0.000000000000000
 11
119.2134995321099
 21
155.8926988846239
 31
0.000000000000000
  0
LINE
  5
289
100
AcDbEntity
  8
A10
  6
CONTINUOUS
 62
3
100
AcDbLine
 10
103.0373500091451
 20
143.4926988846150
 30
0.000000000000000
 11
103.0373500091451
 21
176.3926988846150
 31
0.000000000000000
  0
LINE
  5
28A
100
AcDbEntity
  8
A10
  6
CONTINUOUS
 62
3
100
AcDbLine
 10
117.2373500091451
 20
143.4926988846150
 30
0.000000000000000
 11
117.2373500091451
 21
176.3926988846987
 31
0.000000000000000
  0
LINE
  5
28B
100
AcDbEntity
  8
A10
  6
CONTINUOUS
 62
3
100
AcDbLine
 10
118.0373500091451
 20
143.4926988846150
 30
0.000000000000000
 11
118.0373500091451
 21
176.3926988846150
 31
0.000000000000000
  0
LINE
  5
28C
100
AcDbEntity
  8
A10
  6
CONTINUOUS
 62
3
100
AcDbLine
 10
205.9012651674974
 20
231.9427477927598
 30
0.000000000000000
 11
206.8385234677005
 21
231.9427477927598
 31
0.000000000000000
  0
LINE
  5
28D
100
AcDbEntity
  8
A10
  6
CONTINUOUS
 62
3
100
AcDbLine
 10
207.1385234677005
 20
231.6427477927598
 30
0.000000000000000
 11
206.8385234677004
 21
231.9427477927598
 31
0.000000000000000
  0
LINE
  5
28E
100
AcDbEntity
  8
A10
  6
CONTINUOUS
 62
3
100
AcDbLine
 10
202.7899953302768
 20
231.9427477927598
 30
0.000000000000000
 11
205.9012651674974
 21
231.9427477927598
 31
0.000000000000000
  0
LINE
  5
28F
100
AcDbEntity
  8
A10
  6
CONTINUOUS
 62
3
100
AcDbLine
 10
207.1385234677005
 20
222.7427477927597
 30
0.000000000000000
 11
207.1385234677005
 21
231.6427477927598
 31
0.000000000000000
  0
LINE
  5
290
100
AcDbEntity
  8
A10
  6
CONTINUOUS
 62
3
100
AcDbLine
 10
207.1385234677005
 20
231.6427477927598
 30
0.000000000000000
 11
202.7899953302769
 21
231.6427477927598
 31
0.000000000000000
  0
LINE
  5
291
100
AcDbEntity
  8
A10
  6
CONTINUOUS
 62
3
100
AcDbLine
 10
205.9012651674975
 20
222.4427477927597
 30
0.000000000000000
 11
202.7899953302768
 21
222.4427477927597
 31
0.000000000000000
  0
LINE
  5
292
100
AcDbEntity
  8
A10
  6
CONTINUOUS
 62
3
100
AcDbLine
 10
206.8385234677006
 20
222.4427477927599
 30
0.000000000000000
 11
207.1385234677004
 21
222.7427477927597
 31
0.000000000000000
  0
LINE
  5
293
100
AcDbEntity
  8
A10
  6
CONTINUOUS
 62
3
100
AcDbLine
 10
202.7899953302769
 20
222.7427477927597
 30
0.000000000000000
 11
207.1385234677005
 21
222.7427477927597
 31
0.000000000000000
  0
LINE
  5
294
100
AcDbEntity
  8
A10
  6
CONTINUOUS
 62
3
100
AcDbLine
 10
206.8385234677006
 20
222.4427477927597
 30
0.000000000000000
 11
205.9012651674975
 21
222.4427477927597
 31
0.000000000000000
  0
SPLINE
  5
295
100
AcDbEntity
  8
A10
  6
CONTINUOUS
 62
3
100
AcDbSpline
210
0.000000000000000
220
0.000000000000000
230
1.000000000000000
 70
     8
 71
     3
 72
    12
 73
     8
 74
     0
 42
1.000000000000000e-07
 43
1.000000000000000e-07
 12
0.008935881399338541
 22
0.9999600742148687
 32
0.000000000000000
 13
-0.9999896053923294
 23
0.004559506935038371
 33
0.000000000000000
 40
0.000000000000000
 40
0.000000000000000
 40
0.000000000000000
 40
0.000000000000000
 40
0.1666696156335301
 40
0.3248327049590856
 40
0.4702935064244027
 40
0.6059161452792612
 40
0.6978815903308220
 40
0.6978815903308220
 40
0.6978815903308220
 40
0.6978815903308220
 10
192.6783683593092
 20
222.1927477927596
 30
0.000000000000000
 10
192.6788648059486
 20
222.2483021131657
 30
0.000000000000000
 10
192.6655135020480
 20
222.3570724831712
 30
0.000000000000000
 10
192.6087314511069
 20
222.5051487111544
 30
0.000000000000000
 10
192.5147619142112
 20
222.6214646395556
 30
0.000000000000000
 10
192.4020982246365
 20
222.6825425072058
 30
0.000000000000000
 10
192.3257995211938
 20
222.6926080203981
 30
0.000000000000000
 10
192.2951446914915
 20
222.6927477927596
 30
0.000000000000000
  0
SPLINE
  5
296
100
AcDbEntity
  8
A10
  6
CONTINUOUS
 62
3
100
AcDbSpline
210
0.000000000000000
220
0.000000000000000
230
1.000000000000000
 70
     8
 71
     3
 72
    12
 73
     8
 74
     0
 42
1.000000000000000e-07
 43
1.000000000000000e-07
 12
0.9998434290782825
 22
0.01769512159808073
 32
0.000000000000000
 13
-0.004494417242312920
 23
0.9999899000558798
 33
0.000000000000000
 40
0.000000000000000
 40
0.000000000000000
 40
0.000000000000000
 40
0.000000000000000
 40
0.1349796613020292
 40
0.2735503089136470
 40
0.4221164522355396
 40
0.5829802995324389
 40
0.6976742149960213
 40
0.6976742149960213
 40
0.6976742149960213
 40
0.6976742149960213
 10
192.2951446914915
 20
231.6927477928206
 30
0.000000000000000
 10
192.3401308672955
 20
231.6935439533273
 30
0.000000000000000
 10
192.4326490117070
 20
231.7113196734777
 30
0.000000000000000
 10
192.5490475066971
 20
231.7973924974858
 30
0.000000000000000
 10
192.6310602844536
 20
231.9252177709000
 30
0.000000000000000
 10
192.6708342192853
 20
232.0625583270692
 30
0.000000000000000
 10
192.6785401867463
 20
232.1545168737394
 30
0.000000000000000
 10
192.6783683593092
 20
232.1927477927599
 30
0.000000000000000
  0
SPLINE
  5
297
100
AcDbEntity
  8
A10
  6
CONTINUOUS
 62
3
100
AcDbSpline
210
0.000000000000000
220
0.000000000000000
230
1.000000000000000
 70
     8
 71
     3
 72
    12
 73
     8
 74
     0
 42
1.000000000000000e-07
 43
1.000000000000000e-07
 12
0.9997216942720115
 22
-0.02359097291719081
 32
0.000000000000000
 13
-0.004112214846827555
 23
-0.9999915448115644
 33
0.000000000000000
 40
0.000000000000000
 40
0.000000000000000
 40
0.000000000000000
 40
0.000000000000000
 40
0.1321050588506715
 40
0.2693433920481839
 40
0.4180596869344477
 40
0.5792728537235081
 40
0.6922304636617769
 40
0.6922304636617769
 40
0.6922304636617769
 40
0.6922304636617769
 10
192.8671387455297
 20
222.6927477927596
 30
0.000000000000000
 10
192.9111615099484
 20
222.6917089638044
 30
0.000000000000000
 10
193.0022316581379
 20
222.6737117221533
 30
0.000000000000000
 10
193.1163974698575
 20
222.5869164445858
 30
0.000000000000000
 10
193.1974014705755
 20
222.4589426861181
 30
0.000000000000000
 10
193.2366744540890
 20
222.3218871858104
 30
0.000000000000000
 10
193.2442086195787
 20
222.2304000110464
 30
0.000000000000000
 10
193.2440537842585
 20
222.1927477927596
 30
0.000000000000000
  0
SPLINE
  5
298
100
AcDbEntity
  8
A10
  6
CONTINUOUS
 62
3
100
AcDbSpline
210
0.000000000000000
220
0.000000000000000
230
1.000000000000000
 70
     8
 71
     3
 72
    12
 73
     8
 74
     0
 42
1.000000000000000e-07
 43
1.000000000000000e-07
 12
0.008392760415972589
 22
-0.9999647801660103
 32
0.000000000000000
 13
-0.9999702981995142
 23
-0.007707316104642814
 33
0.000000000000000
 40
0.000000000000000
 40
0.000000000000000
 40
0.000000000000000
 40
0.000000000000000
 40
0.1666826845203251
 40
0.3247574611448008
 40
0.4696529829882018
 40
0.6036868384229567
 40
0.6924531563495867
 40
0.6924531563495867
 40
0.6924531563495867
 40
0.6924531563495867
 10
193.2440537842585
 20
232.1927477928207
 30
0.000000000000000
 10
193.2445200935374
 20
232.1371888548261
 30
0.000000000000000
 10
193.2312029409547
 20
232.0284472284742
 30
0.000000000000000
 10
193.1746418321484
 20
231.8805446731454
 30
0.000000000000000
 10
193.0819162619401
 20
231.7643851323836
 30
0.000000000000000
 10
192.9714240103674
 20
231.7029831564117
 30
0.000000000000000
 10
192.8967266393377
 20
231.6929758428445
 30
0.000000000000000
 10
192.8671387455353
 20
231.6927477928206
 30
0.000000000000000
  0
ELLIPSE
  5
299
100
AcDbEntity
  8
A10
  6
CONTINUOUS
 62
3
100
AcDbEllipse
 10
202.2243099053276
 20
222.1927477927596
 30
0.000000000000000
 11
0.000000000000000
 21
-0.8000000000000000
 31
0.000000000000000
210
0.000000000000000
220
0.000000000000000
230
1.000000000000000
 40
0.7071067811865489
 41
0.000000000000000
 42
1.570796326794897
  0
ELLIPSE
  5
29A
100
AcDbEntity
  8
A10
  6
CONTINUOUS
 62
3
100
AcDbEllipse
 10
202.2243099053276
 20
232.1927477927599
 30
0.000000000000000
 11
0.000000000000000
 21
-0.8000000000000000
 31
0.000000000000000
210
0.000000000000000
220
0.000000000000000
230
1.000000000000000
 40
0.7071067811865489
 41
1.570796326794897
 42
3.141592653589793
  0
ELLIPSE
  5
29B
100
AcDbEntity
  8
A10
  6
CONTINUOUS
 62
3
100
AcDbEllipse
 10
192.6783683593092
 20
222.1927477927596
 30
0.000000000000000
 11
0.000000000000000
 21
0.8000000000000000
 31
0.000000000000000
210
0.000000000000000
220
0.000000000000000
230
1.000000000000000
 40
0.7071067811865489
 41
3.141592653589793
 42
4.712388980384690
  0
ELLIPSE
  5
29C
100
AcDbEntity
  8
A10
  6
CONTINUOUS
 62
3
100
AcDbEllipse
 10
192.6783683593092
 20
232.1927477927597
 30
0.000000000000000
 11
0.000000000000000
 21
0.8000000000000000
 31
0.000000000000000
210
0.000000000000000
220
0.000000000000000
230
1.000000000000000
 40
0.7071067811865489
 41
4.712388980384690
 42
0.000000000000000
  0
ARC
  5
29D
100
AcDbEntity
  8
A10
  6
CONTINUOUS
 62
3
100
AcDbCircle
 10
191.0570480157493
 20
231.1927477928208
 30
0.000000000000000
 40
0.4999999999997726
100
AcDbArc
 50
89.99999999997721
 51
180.0000000000130
  0
ARC
  5
29E
100
AcDbEntity
  8
A10
  6
CONTINUOUS
 62
3
100
AcDbCircle
 10
191.0570480157496
 20
223.1927477927596
 30
0.000000000000000
 40
0.5000000000001137
100
AcDbArc
 50
180.0000000000000
 51
269.9999999999837
  0
LINE
  5
29F
100
AcDbEntity
  8
A10
  6
CONTINUOUS
 62
3
100
AcDbLine
 10
203.4855086389656
 20
232.9927477927598
 30
0.000000000000000
 11
202.7227601018754
 21
232.9927477927598
 31
0.000000000000000
  0
LINE
  5
2A0
100
AcDbEntity
  8
A10
  6
CONTINUOUS
 62
3
100
AcDbLine
 10
202.7899953302768
 20
232.1927477927598
 30
0.000000000000000
 11
203.4855086389656
 21
232.1927477927598
 31
0.000000000000000
  0
LINE
  5
2A1
100
AcDbEntity
  8
A10
  6
CONTINUOUS
 62
3
100
AcDbLine
 10
203.4855086389657
 20
222.1927477927596
 30
0.000000000000000
 11
202.7899953302769
 21
222.1927477927596
 31
0.000000000000000
  0
LINE
  5
2A2
100
AcDbEntity
  8
A10
  6
CONTINUOUS
 62
3
100
AcDbLine
 10
202.7227601018755
 20
221.3927477927597
 30
0.000000000000000
 11
203.4855086389657
 21
221.3927477927597
 31
0.000000000000000
  0
LINE
  5
2A3
100
AcDbEntity
  8
A10
  6
CONTINUOUS
 62
3
100
AcDbLine
 10
203.4855086389657
 20
222.1927477927597
 30
0.000000000000000
 11
203.4855086389657
 21
221.3927477927598
 31
0.000000000000000
  0
LINE
  5
2A4
100
AcDbEntity
  8
A10
  6
CONTINUOUS
 62
3
100
AcDbLine
 10
206.3885234677007
 20
221.3927477927598
 30
0.000000000000000
 11
206.3885234677007
 21
222.1927477927597
 31
0.000000000000000
  0
LINE
  5
2A5
100
AcDbEntity
  8
A10
  6
CONTINUOUS
 62
3
100
AcDbLine
 10
206.3885234677007
 20
222.1927477927596
 30
0.000000000000000
 11
203.4855086389657
 21
222.1927477927596
 31
0.000000000000000
  0
LINE
  5
2A6
100
AcDbEntity
  8
A10
  6
CONTINUOUS
 62
3
100
AcDbLine
 10
206.3885234677007
 20
221.3927477927597
 30
0.000000000000000
 11
203.4855086389657
 21
221.3927477927597
 31
0.000000000000000
  0
LINE
  5
2A7
100
AcDbEntity
  8
A10
  6
CONTINUOUS
 62
3
100
AcDbLine
 10
203.4855086389656
 20
232.9927477927598
 30
0.000000000000000
 11
206.3885234677007
 21
232.9927477927598
 31
0.000000000000000
  0
LINE
  5
2A8
100
AcDbEntity
  8
A10
  6
CONTINUOUS
 62
3
100
AcDbLine
 10
203.4855086389656
 20
232.1927477927598
 30
0.000000000000000
 11
206.3885234677007
 21
232.1927477927598
 31
0.000000000000000
  0
LINE
  5
2A9
100
AcDbEntity
  8
A10
  6
CONTINUOUS
 62
3
100
AcDbLine
 10
203.4855086389656
 20
232.9927477927599
 30
0.000000000000000
 11
203.4855086389656
 21
232.1927477927599
 31
0.000000000000000
  0
LINE
  5
2AA
100
AcDbEntity
  8
A10
  6
CONTINUOUS
 62
3
100
AcDbLine
 10
206.3885234677007
 20
232.1927477927599
 30
0.000000000000000
 11
206.3885234677007
 21
232.9927477927599
 31
0.000000000000000
  0
LINE
  5
2AB
100
AcDbEntity
  8
A10
  6
CONTINUOUS
 62
3
100
AcDbLine
 10
202.2243099053277
 20
232.9927477927599
 30
0.000000000000000
 11
202.7227601018754
 21
232.9927477927599
 31
0.000000000000000
  0
LINE
  5
2AC
100
AcDbEntity
  8
A10
  6
CONTINUOUS
 62
3
100
AcDbLine
 10
202.7227601018754
 20
232.5710265300991
 30
0.000000000000000
 11
202.7227601018754
 21
232.9927477927599
 31
0.000000000000000
  0
LINE
  5
2AD
100
AcDbEntity
  8
A10
  6
CONTINUOUS
 62
3
100
AcDbLine
 10
202.2243099053277
 20
221.3927477927598
 30
0.000000000000000
 11
202.7227601018755
 21
221.3927477927598
 31
0.000000000000000
  0
LINE
  5
2AE
100
AcDbEntity
  8
A10
  6
CONTINUOUS
 62
3
100
AcDbLine
 10
202.7227601018755
 20
221.3927477927598
 30
0.000000000000000
 11
202.7227601018755
 21
221.8144690554205
 31
0.000000000000000
  0
LINE
  5
2AF
100
AcDbEntity
  8
A10
  6
CONTINUOUS
 62
3
100
AcDbLine
 10
202.2243099053277
 20
221.3927477927598
 30
0.000000000000000
 11
192.6783683593092
 21
221.3927477927598
 31
0.000000000000000
  0
LINE
  5
2B0
100
AcDbEntity
  8
A10
  6
CONTINUOUS
 62
3
100
AcDbLine
 10
192.6783683593093
 20
232.9927477927599
 30
0.000000000000000
 11
202.2243099053277
 21
232.9927477927599
 31
0.000000000000000
  0
LINE
  5
2B1
100
AcDbEntity
  8
A10
  6
CONTINUOUS
 62
3
100
AcDbLine
 10
202.7899953302769
 20
232.1927477927599
 30
0.000000000000000
 11
202.7899953302769
 21
222.1927477927596
 31
0.000000000000000
  0
LINE
  5
2B2
100
AcDbEntity
  8
A10
  6
CONTINUOUS
 62
3
100
AcDbLine
 10
192.6783683593092
 20
222.1927477927597
 30
0.000000000000000
 11
190.5570480157535
 21
222.1927477927597
 31
0.000000000000000
  0
LINE
  5
2B3
100
AcDbEntity
  8
A10
  6
CONTINUOUS
 62
3
100
AcDbLine
 10
192.6783683593092
 20
221.3927477927598
 30
0.000000000000000
 11
190.5570480157535
 21
221.3927477927598
 31
0.000000000000000
  0
LINE
  5
2B4
100
AcDbEntity
  8
A10
  6
CONTINUOUS
 62
3
100
AcDbLine
 10
192.6783683593092
 20
222.1927477927596
 30
0.000000000000000
 11
192.6783683593092
 21
221.3927477927598
 31
0.000000000000000
  0
LINE
  5
2B5
100
AcDbEntity
  8
A10
  6
CONTINUOUS
 62
3
100
AcDbLine
 10
192.6783683593092
 20
232.9927477927598
 30
0.000000000000000
 11
192.6783683593091
 21
232.1927477927599
 31
0.000000000000000
  0
LINE
  5
2B6
100
AcDbEntity
  8
A10
  6
CONTINUOUS
 62
3
100
AcDbLine
 10
190.5570480157536
 20
232.9927477927599
 30
0.000000000000000
 11
192.6783683593092
 21
232.9927477927599
 31
0.000000000000000
  0
LINE
  5
2B7
100
AcDbEntity
  8
A10
  6
CONTINUOUS
 62
3
100
AcDbLine
 10
190.5570480157536
 20
232.1927477927599
 30
0.000000000000000
 11
192.6783683593092
 21
232.1927477927599
 31
0.000000000000000
  0
LINE
  5
2B8
100
AcDbEntity
  8
A10
  6
CONTINUOUS
 62
3
100
AcDbLine
 10
192.8671387455353
 20
231.6927477928206
 30
0.000000000000000
 11
191.0570480157493
 21
231.6927477928206
 31
0.000000000000000
  0
LINE
  5
2B9
100
AcDbEntity
  8
A10
  6
CONTINUOUS
 62
3
100
AcDbLine
 10
192.8671387455296
 20
222.6927477927596
 30
0.000000000000000
 11
191.0570480157493
 21
222.6927477927596
 31
0.000000000000000
  0
CIRCLE
  5
2BA
100
AcDbEntity
  8
A10
  6
CONTINUOUS
 62
3
100
AcDbCircle
 10
164.5570480157535
 20
239.1927477927600
 30
0.000000000000000
 40
1.600000000000000
  0
CIRCLE
  5
2BB
100
AcDbEntity
  8
A10
  6
CONTINUOUS
 62
3
100
AcDbCircle
 10
180.5570480157535
 20
215.1927477927600
 30
0.000000000000000
 40
1.600000000000000
  0
ARC
  5
2BC
100
AcDbEntity
  8
A10
  6
CONTINUOUS
 62
3
100
AcDbCircle
 10
179.3070480157535
 20
239.1927477927600
 30
0.000000000000000
 40
1.600000000000009
100
AcDbArc
 50
90.00000000000000
 51
270.0000000000000
  0
ARC
  5
2BD
100
AcDbEntity
  8
A10
  6
CONTINUOUS
 62
3
100
AcDbCircle
 10
161.5570480157535
 20
242.1927477927600
 30
0.000000000000000
 40
2.000000000000000
100
AcDbArc
 50
90.00000000000000
 51
180.0000000000000
  0
ARC
  5
2BE
100
AcDbEntity
  8
A10
  6
CONTINUOUS
 62
3
100
AcDbCircle
 10
183.5570480157535
 20
242.1927477927600
 30
0.000000000000000
 40
2.000000000000000
100
AcDbArc
 50
0.000000000000000
 51
90.00000000000000
  0
ARC
  5
2BF
100
AcDbEntity
  8
A10
  6
CONTINUOUS
 62
3
100
AcDbCircle
 10
181.8070480157535
 20
239.1927477927600
 30
0.000000000000000
 40
1.600000000000009
100
AcDbArc
 50
270.0000000000000
 51
450.0000000000000
  0
ARC
  5
2C0
100
AcDbEntity
  8
A10
  6
CONTINUOUS
 62
3
100
AcDbCircle
 10
165.8070480157535
 20
215.1927477927600
 30
0.000000000000000
 40
1.600000000000009
100
AcDbArc
 50
270.0000000000000
 51
450.0000000000000
  0
ARC
  5
2C1
100
AcDbEntity
  8
A10
  6
CONTINUOUS
 62
3
100
AcDbCircle
 10
163.3070480157535
 20
215.1927477927600
 30
0.000000000000000
 40
1.600000000000009
100
AcDbArc
 50
90.00000000000000
 51
270.0000000000000
  0
ARC
  5
2C2
100
AcDbEntity
  8
A10
  6
CONTINUOUS
 62
3
100
AcDbCircle
 10
161.5570480157535
 20
212.1927477927600
 30
0.000000000000000
 40
2.000000000000000
100
AcDbArc
 50
180.0000000000000
 51
270.0000000000000
  0
ARC
  5
2C3
100
AcDbEntity
  8
A10
  6
CONTINUOUS
 62
3
100
AcDbCircle
 10
183.5570480157535
 20
212.1927477927600
 30
0.000000000000000
 40
2.000000000000000
100
AcDbArc
 50
270.0000000000000
 51
360.0000000000000
  0
LINE
  5
2C4
100
AcDbEntity
  8
A10
  6
CONTINUOUS
 62
3
100
AcDbLine
 10
159.5570480157535
 20
242.1927477927600
 30
0.000000000000000
 11
159.5570480157535
 21
234.6927477927601
 31
0.000000000000000
  0
LINE
  5
2C5
100
AcDbEntity
  8
A10
  6
CONTINUOUS
 62
3
100
AcDbLine
 10
185.5570480157535
 20
234.6927477927601
 30
0.000000000000000
 11
185.5570480157535
 21
242.1927477927600
 31
0.000000000000000
  0
LINE
  5
2C6
100
AcDbEntity
  8
A10
  6
CONTINUOUS
 62
3
100
AcDbLine
 10
179.3070480157535
 20
240.7927477927602
 30
0.000000000000000
 11
181.8070480157535
 21
240.7927477927602
 31
0.000000000000000
  0
LINE
  5
2C7
100
AcDbEntity
  8
A10
  6
CONTINUOUS
 62
3
100
AcDbLine
 10
181.8070480157535
 20
237.5927477927600
 30
0.000000000000000
 11
179.3070480157535
 21
237.5927477927600
 31
0.000000000000000
  0
LINE
  5
2C8
100
AcDbEntity
  8
A10
  6
CONTINUOUS
 62
3
100
AcDbLine
 10
183.5570480157535
 20
244.1927477927600
 30
0.000000000000000
 11
161.5570480157535
 21
244.1927477927600
 31
0.000000000000000
  0
LINE
  5
2C9
100
AcDbEntity
  8
A10
  6
CONTINUOUS
 62
3
100
AcDbLine
 10
159.5570480157534
 20
219.6927477927601
 30
0.000000000000000
 11
159.5570480157534
 21
212.1927477927600
 31
0.000000000000000
  0
LINE
  5
2CA
100
AcDbEntity
  8
A10
  6
CONTINUOUS
 62
3
100
AcDbLine
 10
185.5570480157535
 20
212.1927477927600
 30
0.000000000000000
 11
185.5570480157535
 21
219.6927477927601
 31
0.000000000000000
  0
LINE
  5
2CB
100
AcDbEntity
  8
A10
  6
CONTINUOUS
 62
3
100
AcDbLine
 10
163.3070480157535
 20
213.5927477927601
 30
0.000000000000000
 11
165.8070480157535
 21
213.5927477927601
 31
0.000000000000000
  0
LINE
  5
2CC
100
AcDbEntity
  8
A10
  6
CONTINUOUS
 62
3
100
AcDbLine
 10
165.8070480157535
 20
216.7927477927600
 30
0.000000000000000
 11
163.3070480157535
 21
216.7927477927600
 31
0.000000000000000
  0
LINE
  5
2CD
100
AcDbEntity
  8
A10
  6
CONTINUOUS
 62
3
100
AcDbLine
 10
183.5570480157535
 20
210.1927477927600
 30
0.000000000000000
 11
161.5570480157535
 21
210.1927477927600
 31
0.000000000000000
  0
LINE
  5
2CE
100
AcDbEntity
  8
A10
  6
CONTINUOUS
 62
3
100
AcDbLine
 10
193.5570480157535
 20
220.4927477927649
 30
0.000000000000000
 11
190.5570480157530
 21
220.4927477927649
 31
0.000000000000000
  0
LINE
  5
2CF
100
AcDbEntity
  8
A10
  6
CONTINUOUS
 62
3
100
AcDbLine
 10
190.5570480157530
 20
219.6927477927668
 30
0.000000000000000
 11
193.5570480157535
 21
219.6927477927668
 31
0.000000000000000
  0
LINE
  5
2D0
100
AcDbEntity
  8
A10
  6
CONTINUOUS
 62
3
100
AcDbLine
 10
193.5570480157535
 20
219.6927477927668
 30
0.000000000000000
 11
193.5570480157535
 21
220.4927477927649
 31
0.000000000000000
  0
LINE
  5
2D1
100
AcDbEntity
  8
A10
  6
CONTINUOUS
 62
3
100
AcDbLine
 10
193.5570480157535
 20
234.6927477927532
 30
0.000000000000000
 11
190.5570480157530
 21
234.6927477927532
 31
0.000000000000000
  0
LINE
  5
2D2
100
AcDbEntity
  8
A10
  6
CONTINUOUS
 62
3
100
AcDbLine
 10
190.5570480157530
 20
233.8927477927551
 30
0.000000000000000
 11
193.5570480157535
 21
233.8927477927551
 31
0.000000000000000
  0
LINE
  5
2D3
100
AcDbEntity
  8
A10
  6
CONTINUOUS
 62
3
100
AcDbLine
 10
193.5570480157535
 20
234.6927477927532
 30
0.000000000000000
 11
193.5570480157535
 21
233.8927477927602
 31
0.000000000000000
  0
LINE
  5
2D4
100
AcDbEntity
  8
A10
  6
CONTINUOUS
 62
3
100
AcDbLine
 10
159.5570480157534
 20
220.6927477927600
 30
0.000000000000000
 11
159.5570480157534
 21
219.6927477927600
 31
0.000000000000000
  0
LINE
  5
2D5
100
AcDbEntity
  8
A10
  6
CONTINUOUS
 62
3
100
AcDbLine
 10
160.5570480157535
 20
220.4927477927599
 30
0.000000000000000
 11
160.3570480157534
 21
220.4927477927599
 31
0.000000000000000
  0
LINE
  5
2D6
100
AcDbEntity
  8
A10
  6
CONTINUOUS
 62
3
100
AcDbLine
 10
159.5570480157534
 20
219.6927477927600
 30
0.000000000000000
 11
160.5570480157535
 21
219.6927477927600
 31
0.000000000000000
  0
LINE
  5
2D7
100
AcDbEntity
  8
A10
  6
CONTINUOUS
 62
3
100
AcDbLine
 10
160.3570480157534
 20
220.6927477927600
 30
0.000000000000000
 11
160.3570480157534
 21
220.4927477927599
 31
0.000000000000000
  0
LINE
  5
2D8
100
AcDbEntity
  8
A10
  6
CONTINUOUS
 62
3
100
AcDbLine
 10
159.5570480157535
 20
233.6927477927601
 30
0.000000000000000
 11
159.5570480157535
 21
234.6927477927601
 31
0.000000000000000
  0
LINE
  5
2D9
100
AcDbEntity
  8
A10
  6
CONTINUOUS
 62
3
100
AcDbLine
 10
159.5570480157535
 20
234.6927477927601
 30
0.000000000000000
 11
160.5570480157535
 21
234.6927477927601
 31
0.000000000000000
  0
LINE
  5
2DA
100
AcDbEntity
  8
A10
  6
CONTINUOUS
 62
3
100
AcDbLine
 10
160.3570480157535
 20
233.8927477927602
 30
0.000000000000000
 11
160.5570480157535
 21
233.8927477927602
 31
0.000000000000000
  0
LINE
  5
2DB
100
AcDbEntity
  8
A10
  6
CONTINUOUS
 62
3
100
AcDbLine
 10
160.3570480157535
 20
233.8927477927602
 30
0.000000000000000
 11
160.3570480157535
 21
233.6927477927601
 31
0.000000000000000
  0
LINE
  5
2DC
100
AcDbEntity
  8
A10
  6
CONTINUOUS
 62
3
100
AcDbLine
 10
159.5570480157535
 20
233.6927477927601
 30
0.000000000000000
 11
160.3570480157535
 21
233.6927477927601
 31
0.000000000000000
  0
LINE
  5
2DD
100
AcDbEntity
  8
A10
  6
CONTINUOUS
 62
3
100
AcDbLine
 10
160.3570480157534
 20
220.6927477927600
 30
0.000000000000000
 11
159.5570480157534
 21
220.6927477927600
 31
0.000000000000000
  0
LINE
  5
2DE
100
AcDbEntity
  8
A10
  6
CONTINUOUS
 62
3
100
AcDbLine
 10
159.5570480157534
 20
220.6927477927600
 30
0.000000000000000
 11
159.5570480157535
 21
233.6927477927601
 31
0.000000000000000
  0
LINE
  5
2DF
100
AcDbEntity
  8
A10
  6
CONTINUOUS
 62
3
100
AcDbLine
 10
160.5570480157535
 20
234.6927477927600
 30
0.000000000000000
 11
160.5570480157535
 21
233.8927477927601
 31
0.000000000000000
  0
LINE
  5
2E0
100
AcDbEntity
  8
A10
  6
CONTINUOUS
 62
3
100
AcDbLine
 10
160.5570480157535
 20
234.6927477927601
 30
0.000000000000000
 11
190.5570480157522
 21
234.6927477927601
 31
0.000000000000000
  0
LINE
  5
2E1
100
AcDbEntity
  8
A10
  6
CONTINUOUS
 62
3
100
AcDbLine
 10
190.5570480155518
 20
234.6927477927600
 30
0.000000000000000
 11
190.5570480155518
 21
233.8927477927551
 31
0.000000000000000
  0
LINE
  5
2E2
100
AcDbEntity
  8
A10
  6
CONTINUOUS
 62
3
100
AcDbLine
 10
160.5570480157535
 20
233.6927477927601
 30
0.000000000000000
 11
160.3570480157535
 21
233.6927477927601
 31
0.000000000000000
  0
LINE
  5
2E3
100
AcDbEntity
  8
A10
  6
CONTINUOUS
 62
3
100
AcDbLine
 10
160.5570480157535
 20
233.6927477927601
 30
0.000000000000000
 11
160.5570480157535
 21
233.8927477927601
 31
0.000000000000000
  0
LINE
  5
2E4
100
AcDbEntity
  8
A10
  6
CONTINUOUS
 62
3
100
AcDbLine
 10
160.5570480157535
 20
220.6927477927600
 30
0.000000000000000
 11
160.5570480157535
 21
220.4927477927599
 31
0.000000000000000
  0
LINE
  5
2E5
100
AcDbEntity
  8
A10
  6
CONTINUOUS
 62
3
100
AcDbLine
 10
190.5570480157516
 20
233.8927477927551
 30
0.000000000000000
 11
190.5570480157515
 21
220.4927477927649
 31
0.000000000000000
  0
LINE
  5
2E6
100
AcDbEntity
  8
A10
  6
CONTINUOUS
 62
3
100
AcDbLine
 10
160.3570480157535
 20
233.6927477927601
 30
0.000000000000000
 11
160.3570480157534
 21
220.6927477927600
 31
0.000000000000000
  0
LINE
  5
2E7
100
AcDbEntity
  8
A10
  6
CONTINUOUS
 62
3
100
AcDbLine
 10
160.5570480157535
 20
220.6927477927600
 30
0.000000000000000
 11
160.3570480157534
 21
220.6927477927600
 31
0.000000000000000
  0
LINE
  5
2E8
100
AcDbEntity
  8
A10
  6
CONTINUOUS
 62
3
100
AcDbLine
 10
160.5570480157535
 20
220.4927477927599
 30
0.000000000000000
 11
160.5570480157535
 21
219.6927477927600
 31
0.000000000000000
  0
LINE
  5
2E9
100
AcDbEntity
  8
A10
  6
CONTINUOUS
 62
3
100
AcDbLine
 10
190.5570480157522
 20
219.6927477927601
 30
0.000000000000000
 11
160.5570480157535
 21
219.6927477927600
 31
0.000000000000000
  0
LINE
  5
2EA
100
AcDbEntity
  8
A10
  6
CONTINUOUS
 62
3
100
AcDbLine
 10
190.5570480155517
 20
220.4927477927649
 30
0.000000000000000
 11
190.5570480155517
 21
219.6927477927600
 31
0.000000000000000
  0
LINE
  5
2EB
100
AcDbEntity
  8
A10
  6
CONTINUOUS
 62
3
100
AcDbLine
 10
193.5570480157535
 20
220.5427477927600
 30
0.000000000000000
 11
190.5570480157535
 21
220.5427477927600
 31
0.000000000000000
  0
LINE
  5
2EC
100
AcDbEntity
  8
A10
  6
CONTINUOUS
 62
3
100
AcDbLine
 10
193.5570480157535
 20
221.3427477927598
 30
0.000000000000000
 11
190.5570480157535
 21
221.3427477927598
 31
0.000000000000000
  0
LINE
  5
2ED
100
AcDbEntity
  8
A10
  6
CONTINUOUS
 62
3
100
AcDbLine
 10
193.5570480157535
 20
220.5427477927600
 30
0.000000000000000
 11
193.5570480157535
 21
221.3427477927598
 31
0.000000000000000
  0
LINE
  5
2EE
100
AcDbEntity
  8
A10
  6
CONTINUOUS
 62
3
100
AcDbLine
 10
190.5570480157536
 20
233.8427477927600
 30
0.000000000000000
 11
193.5570480157536
 21
233.8427477927600
 31
0.000000000000000
  0
LINE
  5
2EF
100
AcDbEntity
  8
A10
  6
CONTINUOUS
 62
3
100
AcDbLine
 10
190.5570480157536
 20
233.0427477927601
 30
0.000000000000000
 11
193.5570480157536
 21
233.0427477927601
 31
0.000000000000000
  0
LINE
  5
2F0
100
AcDbEntity
  8
A10
  6
CONTINUOUS
 62
3
100
AcDbLine
 10
193.5570480157536
 20
233.0427477927601
 30
0.000000000000000
 11
193.5570480157536
 21
233.8427477927600
 31
0.000000000000000
  0
LINE
  5
2F1
100
AcDbEntity
  8
A10
  6
CONTINUOUS
 62
3
100
AcDbLine
 10
191.5570480157535
 20
220.4927477927649
 30
0.000000000000000
 11
191.5570480157535
 21
220.5427477927600
 31
0.000000000000000
  0
LINE
  5
2F2
100
AcDbEntity
  8
A10
  6
CONTINUOUS
 62
3
100
AcDbLine
 10
191.8070480157535
 20
233.8427477927600
 30
0.000000000000000
 11
191.8070480157535
 21
233.8927477927551
 31
0.000000000000000
  0
LINE
  5
2F3
100
AcDbEntity
  8
A10
  6
CONTINUOUS
 62
3
100
AcDbLine
 10
191.8070480157535
 20
232.9927477927599
 30
0.000000000000000
 11
191.8070480157535
 21
233.0427477927601
 31
0.000000000000000
  0
LINE
  5
2F4
100
AcDbEntity
  8
A10
  6
CONTINUOUS
 62
3
100
AcDbLine
 10
191.8070480157535
 20
231.6927477928206
 30
0.000000000000000
 11
191.8070480157535
 21
232.1927477927599
 31
0.000000000000000
  0
LINE
  5
2F5
100
AcDbEntity
  8
A10
  6
CONTINUOUS
 62
3
100
AcDbLine
 10
191.8070480157535
 20
222.1927477927597
 30
0.000000000000000
 11
191.8070480157535
 21
222.6927477927596
 31
0.000000000000000
  0
LINE
  5
2F6
100
AcDbEntity
  8
A10
  6
CONTINUOUS
 62
3
100
AcDbLine
 10
191.8070480157535
 20
221.3427477927598
 30
0.000000000000000
 11
191.8070480157535
 21
221.3927477927598
 31
0.000000000000000
  0
LINE
  5
2F7
100
AcDbEntity
  8
A10
  6
CONTINUOUS
 62
3
100
AcDbLine
 10
204.8885234677009
 20
231.9427477927598
 30
0.000000000000000
 11
204.8885234677009
 21
232.1927477927599
 31
0.000000000000000
  0
LINE
  5
2F8
100
AcDbEntity
  8
A10
  6
CONTINUOUS
 62
3
100
AcDbLine
 10
204.8885234677009
 20
222.1927477927599
 30
0.000000000000000
 11
204.8885234677009
 21
222.4427477927597
 31
0.000000000000000
  0
LINE
  5
2F9
100
AcDbEntity
  8
A10
  6
CENTER
 62
3
100
AcDbLine
 10
159.0570480157535
 20
227.1927477927601
 30
0.000000000000000
 11
209.9978995921915
 21
227.1927477927601
 31
0.000000000000000
  0
ARC
  5
2FA
100
AcDbEntity
  8
A10
  6
CONTINUOUS
 62
3
100
AcDbCircle
 10
190.5570480157521
 20
220.2693102927024
 30
0.000000000000000
 40
1.376562499942434
100
AcDbArc
 50
204.7615138560812
 51
335.2384861445037
  0
ARC
  5
2FB
100
AcDbEntity
  8
A10
  6
CONTINUOUS
 62
3
100
AcDbCircle
 10
203.6385234677051
 20
221.9693102926896
 30
0.000000000000000
 40
1.376562499942434
100
AcDbArc
 50
204.7615138560812
 51
335.2384861445037
  0
LINE
  5
2FC
100
AcDbEntity
  8
A10
  6
CONTINUOUS
 62
3
100
AcDbLine
 10
201.6385234677046
 20
233.9927477927600
 30
0.000000000000000
 11
205.6385234677046
 21
233.9927477927600
 31
0.000000000000000
  0
LINE
  5
2FD
100
AcDbEntity
  8
A10
  6
CONTINUOUS
 62
3
100
AcDbLine
 10
201.6385234677046
 20
232.9927477927600
 30
0.000000000000000
 11
201.6385234677046
 21
233.9927477927600
 31
0.000000000000000
  0
LINE
  5
2FE
100
AcDbEntity
  8
A10
  6
CONTINUOUS
 62
3
100
AcDbLine
 10
205.6385234677046
 20
233.9927477927600
 30
0.000000000000000
 11
205.6385234677046
 21
232.9927477927600
 31
0.000000000000000
  0
LINE
  5
2FF
100
AcDbEntity
  8
A10
  6
CONTINUOUS
 62
3
100
AcDbLine
 10
188.5570480157535
 20
235.6927477927603
 30
0.000000000000000
 11
192.5570480157535
 21
235.6927477927603
 31
0.000000000000000
  0
LINE
  5
300
100
AcDbEntity
  8
A10
  6
CONTINUOUS
 62
3
100
AcDbLine
 10
188.5570480157535
 20
234.6927477927603
 30
0.000000000000000
 11
188.5570480157535
 21
235.6927477927603
 31
0.000000000000000
  0
LINE
  5
301
100
AcDbEntity
  8
A10
  6
CONTINUOUS
 62
3
100
AcDbLine
 10
192.5570480157535
 20
235.6927477927603
 30
0.000000000000000
 11
192.5570480157535
 21
234.6927477927603
 31
0.000000000000000
  0
LINE
  5
302
100
AcDbEntity
  8
A10
  6
CENTER
 62
3
100
AcDbLine
 10
203.6385234677046
 20
219.6061314073749
 30
0.000000000000000
 11
203.6385234677046
 21
234.8980283702181
 31
0.000000000000000
  0
LINE
  5
303
100
AcDbEntity
  8
A10
  6
CENTER
 62
3
100
AcDbLine
 10
190.5570480157326
 20
218.8927477927600
 30
0.000000000000000
 11
190.5570480157361
 21
236.3883622539144
 31
0.000000000000000
  0
LINE
  5
304
100
AcDbEntity
  8
A10
  6
CENTER
 62
3
100
AcDbLine
 10
180.5570480157535
 20
242.1927477927600
 30
0.000000000000000
 11
180.5570480157535
 21
212.8806341673015
 31
0.000000000000000
  0
LINE
  5
305
100
AcDbEntity
  8
A10
  6
CENTER
 62
3
100
AcDbLine
 10
164.5570480157535
 20
242.1927477927600
 30
0.000000000000000
 11
164.5570480157535
 21
212.5704509571173
 31
0.000000000000000
  0
LINE
  5
306
100
AcDbEntity
  8
A10
  6
CENTER
 62
3
100
AcDbLine
 10
162.1449850312426
 20
239.1927477927600
 30
0.000000000000000
 11
166.9449291621389
 21
239.1927477927600
 31
0.000000000000000
  0
LINE
  5
307
100
AcDbEntity
  8
A10
  6
CENTER
 62
3
100
AcDbLine
 10
176.8914130837657
 20
239.1927477927600
 30
0.000000000000000
 11
183.7376925607476
 21
239.1927477927600
 31
0.000000000000000
  0
LINE
  5
308
100
AcDbEntity
  8
A10
  6
CENTER
 62
3
100
AcDbLine
 10
178.0539909824172
 20
215.1927477927600
 30
0.000000000000000
 11
183.4633990951361
 21
215.1927477927600
 31
0.000000000000000
  0
LINE
  5
309
100
AcDbEntity
  8
A10
  6
CENTER
 62
3
100
AcDbLine
 10
160.8091117664934
 20
215.1927477927600
 30
0.000000000000000
 11
168.0429204947853
 21
215.1927477927600
 31
0.000000000000000
  0
LINE
  5
30A
100
AcDbEntity
  8
A10
  6
CONTINUOUS
 62
3
100
AcDbLine
 10
184.5570480157553
 20
235.6927477927678
 30
0.000000000000000
 11
184.5570480157553
 21
234.6927477927678
 31
0.000000000000000
  0
LINE
  5
30B
100
AcDbEntity
  8
A10
  6
CONTINUOUS
 62
3
100
AcDbLine
 10
180.5570480157553
 20
234.6927477927678
 30
0.000000000000000
 11
180.5570480157553
 21
235.6927477927678
 31
0.000000000000000
  0
LINE
  5
30C
100
AcDbEntity
  8
A10
  6
CONTINUOUS
 62
3
100
AcDbLine
 10
180.5570480157553
 20
235.6927477927678
 30
0.000000000000000
 11
184.5570480157553
 21
235.6927477927678
 31
0.000000000000000
  0
ARC
  5
30D
100
AcDbEntity
  8
A10
  6
CONTINUOUS
 62
3
100
AcDbCircle
 10
182.5570480157512
 20
220.2693102927101
 30
0.000000000000000
 40
1.376562499942434
100
AcDbArc
 50
204.7615138560811
 51
335.2384861445037
  0
LINE
  5
30E
100
AcDbEntity
  8
A10
  6
CENTER
 62
3
100
AcDbLine
 10
182.5570480157536
 20
236.1927477927665
 30
0.000000000000000
 11
182.5570480157536
 21
218.1927477927540
 31
0.000000000000000
  0
ARC
  5
30F
100
AcDbEntity
  8
A10
  6
CONTINUOUS
 62
3
100
AcDbCircle
 10
163.5570480157510
 20
220.2693102927101
 30
0.000000000000000
 40
1.376562499942434
100
AcDbArc
 50
204.7615138560811
 51
335.2384861445037
  0
LINE
  5
310
100
AcDbEntity
  8
A10
  6
CONTINUOUS
 62
3
100
AcDbLine
 10
161.5570480157551
 20
235.6927477927677
 30
0.000000000000000
 11
165.5570480157551
 21
235.6927477927677
 31
0.000000000000000
  0
LINE
  5
311
100
AcDbEntity
  8
A10
  6
CONTINUOUS
 62
3
100
AcDbLine
 10
165.5570480157551
 20
235.6927477927677
 30
0.000000000000000
 11
165.5570480157551
 21
234.6927477927678
 31
0.000000000000000
  0
LINE
  5
312
100
AcDbEntity
  8
A10
  6
CONTINUOUS
 62
3
100
AcDbLine
 10
161.5570480157551
 20
234.6927477927678
 30
0.000000000000000
 11
161.5570480157551
 21
235.6927477927677
 31
0.000000000000000
  0
LINE
  5
313
100
AcDbEntity
  8
A10
  6
CENTER
 62
3
100
AcDbLine
 10
163.5570480157533
 20
236.1927477927665
 30
0.000000000000000
 11
163.5570480157533
 21
218.1927477927540
 31
0.000000000000000
  0
ENDSEC
  0
SECTION
  2
OBJECTS
  0
DICTIONARY
  5
347
100
AcDbDictionary
  3
ACAD_GROUP
350
348
  3
ACAD_LAYOUT
350
349
  3
ACAD_MLINESTYLE
350
34A
  0
DICTIONARY
  5
348
102
{ACAD_REACTORS
330
347
102
}
330
347
100
AcDbDictionary
  0
DICTIONARY
  5
349
102
{ACAD_REACTORS
330
347
102
}
330
347
100
AcDbDictionary
  3
Model
350
34B
  3
ﾚｲｱｳﾄ1
350
34C
  3
ﾚｲｱｳﾄ2
350
34D
  0
DICTIONARY
  5
34A
102
{ACAD_REACTORS
330
347
102
}
330
347
100
AcDbDictionary
  3
STANDARD
350
34E
  0
LAYOUT
  5
34B
102
{ACAD_REACTORS
330
349
102
}
330
349
100
AcDbPlotSettings
 70
11952
  4
A3
 44
297.000000
 45
420.000000
 73
  1
 72
  1
100
AcDbLayout
  1
Model
 71
0
330
33E
  0
LAYOUT
  5
34C
102
{ACAD_REACTORS
330
349
102
}
330
349
100
AcDbPlotSettings
100
AcDbLayout
  1
ﾚｲｱｳﾄ1
 71
1
330
33F
  0
LAYOUT
  5
34D
102
{ACAD_REACTORS
330
349
102
}
330
349
100
AcDbPlotSettings
100
AcDbLayout
  1
ﾚｲｱｳﾄ2
 71
2
330
340
  0
MLINESTYLE
  5
34E
102
{ACAD_REACTORS
330
34A
102
}
330
34A
100
AcDbMlineStyle
  2
STANDARD
 70
     0
  3

 62
   256
 51
90.00
 52
90.00
 71
     2
 49
0.50
 62
   256
  6
BYLAYER
 49
-0.50
 62
   256
  6
BYLAYER
  0
ENDSEC
  0
EOF
