  0
SECTION
  2
HEADER
  9
$ACADVER
  1
AC1015
  9
$ACADMAINTVER
 70
    20
  9
$DWGCODEPAGE
  3
ANSI_932
  9
$INSBASE
 10
0.0
 20
0.0
 30
0.0
  9
$EXTMIN
 10
10.0
 20
9.999999999999998
 30
0.0
  9
$EXTMAX
 10
372.8747789999998
 20
199.517492
 30
0.0
  9
$LIMMIN
 10
0.0
 20
0.0
  9
$LIMMAX
 10
396.0
 20
273.0
  9
$ORTHOMODE
 70
     1
  9
$REGENMODE
 70
     1
  9
$FILLMODE
 70
     1
  9
$QTEXTMODE
 70
     0
  9
$MIRRTEXT
 70
     1
  9
$LTSCALE
 40
20.0
  9
$ATTMODE
 70
     1
  9
$TEXTSIZE
 40
5.0
  9
$TRACEWID
 40
1.0
  9
$TEXTSTYLE
  7
STANDARD
  9
$CLAYER
  8
0
  9
$CELTYPE
  6
BYLAYER
  9
$CECOLOR
 62
   256
  9
$CELTSCALE
 40
1.0
  9
$DISPSILH
 70
     0
  9
$DIMSCALE
 40
1.0
  9
$DIMASZ
 40
3.0
  9
$DIMEXO
 40
1.0
  9
$DIMDLI
 40
10.0
  9
$DIMRND
 40
0.0
  9
$DIMDLE
 40
0.0
  9
$DIMEXE
 40
1.0
  9
$DIMTP
 40
0.0
  9
$DIMTM
 40
0.0
  9
$DIMTXT
 40
3.2
  9
$DIMCEN
 40
0.0
  9
$DIMTSZ
 40
0.0
  9
$DIMTOL
 70
     0
  9
$DIMLIM
 70
     0
  9
$DIMTIH
 70
     0
  9
$DIMTOH
 70
     0
  9
$DIMSE1
 70
     0
  9
$DIMSE2
 70
     0
  9
$DIMTAD
 70
     3
  9
$DIMZIN
 70
     8
  9
$DIMBLK
  1

  9
$DIMASO
 70
     1
  9
$DIMSHO
 70
     1
  9
$DIMPOST
  1

  9
$DIMAPOST
  1

  9
$DIMALT
 70
     0
  9
$DIMALTD
 70
     2
  9
$DIMALTF
 40
25.4
  9
$DIMLFAC
 40
1.0
  9
$DIMTOFL
 70
     1
  9
$DIMTVP
 40
0.0
  9
$DIMTIX
 70
     0
  9
$DIMSOXD
 70
     0
  9
$DIMSAH
 70
     1
  9
$DIMBLK1
  1

  9
$DIMBLK2
  1

  9
$DIMSTYLE
  2
STANDARD
  9
$DIMCLRD
 70
     0
  9
$DIMCLRE
 70
     0
  9
$DIMCLRT
 70
     0
  9
$DIMTFAC
 40
1.0
  9
$DIMGAP
 40
1.0
  9
$DIMJUST
 70
     0
  9
$DIMSD1
 70
     0
  9
$DIMSD2
 70
     0
  9
$DIMTOLJ
 70
     1
  9
$DIMTZIN
 70
     0
  9
$DIMALTZ
 70
     0
  9
$DIMALTTZ
 70
     0
  9
$DIMUPT
 70
     0
  9
$DIMDEC
 70
     4
  9
$DIMTDEC
 70
     4
  9
$DIMALTU
 70
     2
  9
$DIMALTTD
 70
     2
  9
$DIMTXSTY
  7
STANDARD
  9
$DIMAUNIT
 70
     0
  9
$DIMADEC
 70
     0
  9
$DIMALTRND
 40
0.0
  9
$DIMAZIN
 70
     0
  9
$DIMDSEP
 70
    46
  9
$DIMATFIT
 70
     3
  9
$DIMFRAC
 70
     0
  9
$DIMLDRBLK
  1

  9
$DIMLUNIT
 70
     2
  9
$DIMLWD
 70
    -2
  9
$DIMLWE
 70
    -2
  9
$DIMTMOVE
 70
     0
  9
$LUNITS
 70
     2
  9
$LUPREC
 70
     4
  9
$SKETCHINC
 40
1.0
  9
$FILLETRAD
 40
2.5
  9
$AUNITS
 70
     0
  9
$AUPREC
 70
     2
  9
$MENU
  1
.
  9
$ELEVATION
 40
0.0
  9
$PELEVATION
 40
0.0
  9
$THICKNESS
 40
0.0
  9
$LIMCHECK
 70
     0
  9
$CHAMFERA
 40
10.0
  9
$CHAMFERB
 40
10.0
  9
$CHAMFERC
 40
0.0
  9
$CHAMFERD
 40
0.0
  9
$SKPOLY
 70
     0
  9
$TDCREATE
 40
2451066.494856366
  9
$TDUCREATE
 40
2451066.119856366
  9
$TDUPDATE
 40
2457192.603397373
  9
$TDUUPDATE
 40
2457192.228397373
  9
$TDINDWG
 40
0.0170990394
  9
$TDUSRTIMER
 40
0.0170974653
  9
$USRTIMER
 70
     1
  9
$ANGBASE
 50
0.0
  9
$ANGDIR
 70
     0
  9
$PDMODE
 70
     0
  9
$PDSIZE
 40
0.0
  9
$PLINEWID
 40
0.0
  9
$SPLFRAME
 70
     0
  9
$SPLINETYPE
 70
     6
  9
$SPLINESEGS
 70
     8
  9
$HANDSEED
  5
9890
  9
$SURFTAB1
 70
     6
  9
$SURFTAB2
 70
     6
  9
$SURFTYPE
 70
     6
  9
$SURFU
 70
     6
  9
$SURFV
 70
     6
  9
$UCSBASE
  2

  9
$UCSNAME
  2

  9
$UCSORG
 10
0.0
 20
0.0
 30
0.0
  9
$UCSXDIR
 10
1.0
 20
0.0
 30
0.0
  9
$UCSYDIR
 10
0.0
 20
1.0
 30
0.0
  9
$UCSORTHOREF
  2

  9
$UCSORTHOVIEW
 70
     0
  9
$UCSORGTOP
 10
0.0
 20
0.0
 30
0.0
  9
$UCSORGBOTTOM
 10
0.0
 20
0.0
 30
0.0
  9
$UCSORGLEFT
 10
0.0
 20
0.0
 30
0.0
  9
$UCSORGRIGHT
 10
0.0
 20
0.0
 30
0.0
  9
$UCSORGFRONT
 10
0.0
 20
0.0
 30
0.0
  9
$UCSORGBACK
 10
0.0
 20
0.0
 30
0.0
  9
$PUCSBASE
  2

  9
$PUCSNAME
  2

  9
$PUCSORG
 10
0.0
 20
0.0
 30
0.0
  9
$PUCSXDIR
 10
1.0
 20
0.0
 30
0.0
  9
$PUCSYDIR
 10
0.0
 20
1.0
 30
0.0
  9
$PUCSORTHOREF
  2

  9
$PUCSORTHOVIEW
 70
     0
  9
$PUCSORGTOP
 10
0.0
 20
0.0
 30
0.0
  9
$PUCSORGBOTTOM
 10
0.0
 20
0.0
 30
0.0
  9
$PUCSORGLEFT
 10
0.0
 20
0.0
 30
0.0
  9
$PUCSORGRIGHT
 10
0.0
 20
0.0
 30
0.0
  9
$PUCSORGFRONT
 10
0.0
 20
0.0
 30
0.0
  9
$PUCSORGBACK
 10
0.0
 20
0.0
 30
0.0
  9
$USERI1
 70
     0
  9
$USERI2
 70
     0
  9
$USERI3
 70
     0
  9
$USERI4
 70
     0
  9
$USERI5
 70
     0
  9
$USERR1
 40
0.0
  9
$USERR2
 40
0.0
  9
$USERR3
 40
0.0
  9
$USERR4
 40
0.0
  9
$USERR5
 40
0.0
  9
$WORLDVIEW
 70
     1
  9
$SHADEDGE
 70
     3
  9
$SHADEDIF
 70
    70
  9
$TILEMODE
 70
     1
  9
$MAXACTVP
 70
    16
  9
$PINSBASE
 10
0.0
 20
0.0
 30
0.0
  9
$PLIMCHECK
 70
     0
  9
$PEXTMIN
 10
1.000000000000000E+20
 20
1.000000000000000E+20
 30
1.000000000000000E+20
  9
$PEXTMAX
 10
-1.000000000000000E+20
 20
-1.000000000000000E+20
 30
-1.000000000000000E+20
  9
$PLIMMIN
 10
0.0
 20
0.0
  9
$PLIMMAX
 10
420.0
 20
297.0
  9
$UNITMODE
 70
     0
  9
$VISRETAIN
 70
     0
  9
$PLINEGEN
 70
     0
  9
$PSLTSCALE
 70
     0
  9
$TREEDEPTH
 70
  3020
  9
$CMLSTYLE
  2
STANDARD
  9
$CMLJUST
 70
     0
  9
$CMLSCALE
 40
1.0
  9
$PROXYGRAPHICS
 70
     1
  9
$MEASUREMENT
 70
     0
  9
$CELWEIGHT
370
    -1
  9
$ENDCAPS
280
     0
  9
$JOINSTYLE
280
     0
  9
$LWDISPLAY
290
     0
  9
$INSUNITS
 70
     0
  9
$HYPERLINKBASE
  1

  9
$STYLESHEET
  1

  9
$XEDIT
290
     1
  9
$CEPSNTYPE
380
     0
  9
$PSTYLEMODE
290
     1
  9
$FINGERPRINTGUID
  2
{993113E1-2E0E-461F-993C-3DBA4763D328}
  9
$VERSIONGUID
  2
{67555C8E-66BD-4198-8E26-82B9B67E06D0}
  9
$EXTNAMES
290
     1
  9
$PSVPSCALE
 40
0.0
  9
$OLESTARTUP
290
     0
  0
ENDSEC
  0
SECTION
  2
CLASSES
  0
CLASS
  1
ACDBDICTIONARYWDFLT
  2
AcDbDictionaryWithDefault
  3
ObjectDBX Classes
 90
        0
280
     0
281
     0
  0
CLASS
  1
ACDBPLACEHOLDER
  2
AcDbPlaceHolder
  3
ObjectDBX Classes
 90
        0
280
     0
281
     0
  0
CLASS
  1
LAYOUT
  2
AcDbLayout
  3
ObjectDBX Classes
 90
        0
280
     0
281
     0
  0
CLASS
  1
DICTIONARYVAR
  2
AcDbDictionaryVar
  3
ObjectDBX Classes
 90
        0
280
     0
281
     0
  0
CLASS
  1
MATERIAL
  2
AcDbMaterial
  3
ObjectDBX Classes
 90
     1153
280
     0
281
     0
  0
CLASS
  1
VISUALSTYLE
  2
AcDbVisualStyle
  3
ObjectDBX Classes
 90
     4095
280
     0
281
     0
  0
CLASS
  1
TABLESTYLE
  2
AcDbTableStyle
  3
ObjectDBX Classes
 90
     4095
280
     0
281
     0
  0
CLASS
  1
SCALE
  2
AcDbScale
  3
ObjectDBX Classes
 90
     1153
280
     0
281
     0
  0
CLASS
  1
MLEADERSTYLE
  2
AcDbMLeaderStyle
  3
ACDB_MLEADERSTYLE_CLASS
 90
     4095
280
     0
281
     0
  0
CLASS
  1
ACDBSECTIONVIEWSTYLE
  2
AcDbSectionViewStyle
  3
ObjectDBX Classes
 90
     1025
280
     0
281
     0
  0
CLASS
  1
ACDBDETAILVIEWSTYLE
  2
AcDbDetailViewStyle
  3
ObjectDBX Classes
 90
     1025
280
     0
281
     0
  0
CLASS
  1
CELLSTYLEMAP
  2
AcDbCellStyleMap
  3
ObjectDBX Classes
 90
     1152
280
     0
281
     0
  0
ENDSEC
  0
SECTION
  2
TABLES
  0
TABLE
  2
VPORT
  5
954E
330
0
100
AcDbSymbolTable
 70
     1
  0
VPORT
  5
97DB
330
954E
100
AcDbSymbolTableRecord
100
AcDbViewportTableRecord
  2
*ACTIVE
 70
     0
 10
0.0
 20
0.0
 11
1.0
 21
1.0
 12
288.6094516614252
 22
104.7577520635185
 13
0.0
 23
0.0
 14
10.0
 24
10.0
 15
10.0
 25
10.0
 16
0.0
 26
0.0
 36
1.0
 17
0.0
 27
0.0
 37
0.0
 40
237.9193422450164
 41
1.899603698811096
 42
50.0
 43
0.0
 44
0.0
 50
0.0
 51
0.0
 71
     0
 72
   100
 73
     1
 74
     0
 75
     0
 76
     0
 77
     0
 78
     0
281
     0
 65
     1
110
0.0
120
0.0
130
0.0
111
1.0
121
0.0
131
0.0
112
0.0
122
1.0
132
0.0
 79
     0
146
0.0
1001
ACAD_NAV_VCDISPLAY
1070
     3
  0
ENDTAB
  0
TABLE
  2
LTYPE
  5
954B
330
0
100
AcDbSymbolTable
 70
     4
  0
LTYPE
  5
9559
330
954B
100
AcDbSymbolTableRecord
100
AcDbLinetypeTableRecord
  2
BYBLOCK
 70
     0
  3

 72
    65
 73
     0
 40
0.0
  0
LTYPE
  5
955A
330
954B
100
AcDbSymbolTableRecord
100
AcDbLinetypeTableRecord
  2
BYLAYER
 70
     0
  3

 72
    65
 73
     0
 40
0.0
  0
LTYPE
  5
955B
330
954B
100
AcDbSymbolTableRecord
100
AcDbLinetypeTableRecord
  2
CONTINUOUS
 70
     0
  3
Solid line
 72
    65
 73
     0
 40
0.0
  0
LTYPE
  5
9569
330
954B
100
AcDbSymbolTableRecord
100
AcDbLinetypeTableRecord
  2
DASHED
 70
     0
  3
__ __ __ __ __ __ __ __ __ __ __ __ __ __ __ __
 72
    65
 73
     2
 40
0.75
 49
0.5
 74
     0
 49
-0.25
 74
     0
  0
LTYPE
  5
956A
330
954B
100
AcDbSymbolTableRecord
100
AcDbLinetypeTableRecord
  2
CENTER
 70
     0
  3
____ _ ____ _ ____ _ ____ _ ____ _ ____ _ ____ 
 72
    65
 73
     4
 40
2.0
 49
1.25
 74
     0
 49
-0.25
 74
     0
 49
0.25
 74
     0
 49
-0.25
 74
     0
  0
LTYPE
  5
956B
330
954B
100
AcDbSymbolTableRecord
100
AcDbLinetypeTableRecord
  2
PHANTOM
 70
     0
  3
______  __  __  ______  __  __  ______  __  __ 
 72
    65
 73
     6
 40
2.5
 49
1.25
 74
     0
 49
-0.25
 74
     0
 49
0.25
 74
     0
 49
-0.25
 74
     0
 49
0.25
 74
     0
 49
-0.25
 74
     0
  0
ENDTAB
  0
TABLE
  2
LAYER
  5
9548
330
0
100
AcDbSymbolTable
 70
     8
  0
LAYER
  5
9556
102
{ACAD_XDICTIONARY
360
9834
102
}
330
9548
100
AcDbSymbolTableRecord
100
AcDbLayerTableRecord
  2
0
 70
     0
 62
     7
  6
CONTINUOUS
370
    -3
390
97E2
  0
LAYER
  5
956C
102
{ACAD_XDICTIONARY
360
9836
102
}
330
9548
100
AcDbSymbolTableRecord
100
AcDbLayerTableRecord
  2
4
 70
     0
 62
     1
  6
CENTER
370
    -3
390
97E2
  0
LAYER
  5
956D
102
{ACAD_XDICTIONARY
360
9838
102
}
330
9548
100
AcDbSymbolTableRecord
100
AcDbLayerTableRecord
  2
5
 70
     0
 62
     6
  6
PHANTOM
370
    -3
390
97E2
  0
LAYER
  5
956E
102
{ACAD_XDICTIONARY
360
983A
102
}
330
9548
100
AcDbSymbolTableRecord
100
AcDbLayerTableRecord
  2
1
 70
     0
 62
     7
  6
CONTINUOUS
370
    -3
390
97E2
  0
LAYER
  5
956F
102
{ACAD_XDICTIONARY
360
983C
102
}
330
9548
100
AcDbSymbolTableRecord
100
AcDbLayerTableRecord
  2
2
 70
     0
 62
     4
  6
CONTINUOUS
370
    -3
390
97E2
  0
LAYER
  5
9570
102
{ACAD_XDICTIONARY
360
983E
102
}
330
9548
100
AcDbSymbolTableRecord
100
AcDbLayerTableRecord
  2
3
 70
     0
 62
     2
  6
DASHED
370
    -3
390
97E2
  0
LAYER
  5
9571
102
{ACAD_XDICTIONARY
360
9840
102
}
330
9548
100
AcDbSymbolTableRecord
100
AcDbLayerTableRecord
  2
6
 70
     0
 62
     5
  6
CONTINUOUS
370
    -3
390
97E2
  0
LAYER
  5
9572
102
{ACAD_XDICTIONARY
360
9842
102
}
330
9548
100
AcDbSymbolTableRecord
100
AcDbLayerTableRecord
  2
7
 70
     0
 62
     3
  6
CONTINUOUS
370
    -3
390
97E2
  0
ENDTAB
  0
TABLE
  2
STYLE
  5
9549
330
0
100
AcDbSymbolTable
 70
     1
  0
STYLE
  5
9557
330
9549
100
AcDbSymbolTableRecord
100
AcDbTextStyleTableRecord
  2
STANDARD
 70
     0
 40
0.0
 41
1.0
 50
0.0
 71
     0
 42
5.0
  3
txt
  4

  0
ENDTAB
  0
TABLE
  2
VIEW
  5
954C
330
0
100
AcDbSymbolTable
 70
     0
  0
ENDTAB
  0
TABLE
  2
UCS
  5
954D
330
0
100
AcDbSymbolTable
 70
     0
  0
ENDTAB
  0
TABLE
  2
APPID
  5
954F
330
0
100
AcDbSymbolTable
 70
     3
  0
APPID
  5
9558
330
954F
100
AcDbSymbolTableRecord
100
AcDbRegAppTableRecord
  2
ACAD
 70
     0
  0
APPID
  5
984E
330
954F
100
AcDbSymbolTableRecord
100
AcDbRegAppTableRecord
  2
ACAD_NAV_VCDISPLAY
 70
     0
  0
APPID
  5
9887
330
954F
100
AcDbSymbolTableRecord
100
AcDbRegAppTableRecord
  2
ACAD_MLEADERVER
 70
     0
  0
ENDTAB
  0
TABLE
  2
DIMSTYLE
  5
9550
330
0
100
AcDbSymbolTable
 70
     1
100
AcDbDimStyleTable
 71
     0
  0
DIMSTYLE
105
9574
330
9550
100
AcDbSymbolTableRecord
100
AcDbDimStyleTableRecord
  2
STANDARD
 70
     0
 41
3.0
 42
1.0
 43
10.0
 44
1.0
 73
     0
 74
     0
 77
     3
 78
     8
140
3.2
141
0.0
147
1.0
172
     1
173
     1
284
     8
285
     8
286
     8
340
9557
  0
ENDTAB
  0
TABLE
  2
BLOCK_RECORD
  5
9547
330
0
100
AcDbSymbolTable
 70
     0
  0
BLOCK_RECORD
  5
9564
102
{ACAD_XDICTIONARY
360
9732
102
}
330
9547
100
AcDbSymbolTableRecord
100
AcDbBlockTableRecord
  2
*MODEL_SPACE
340
9830
  0
BLOCK_RECORD
  5
9560
102
{ACAD_XDICTIONARY
360
9730
102
}
330
9547
100
AcDbSymbolTableRecord
100
AcDbBlockTableRecord
  2
*PAPER_SPACE
340
9831
  0
ENDTAB
  0
ENDSEC
  0
SECTION
  2
BLOCKS
  0
BLOCK
  5
9565
330
9564
100
AcDbEntity
  8
0
100
AcDbBlockBegin
  2
*MODEL_SPACE
 70
     0
 10
0.0
 20
0.0
 30
0.0
  3
*MODEL_SPACE
  1

  0
ENDBLK
  5
9566
330
9564
100
AcDbEntity
  8
0
100
AcDbBlockEnd
  0
BLOCK
  5
9561
330
9560
100
AcDbEntity
 67
     1
  8
0
100
AcDbBlockBegin
  2
*PAPER_SPACE
 70
     0
 10
0.0
 20
0.0
 30
0.0
  3
*PAPER_SPACE
  1

  0
ENDBLK
  5
9562
330
9560
100
AcDbEntity
 67
     1
  8
0
100
AcDbBlockEnd
  0
ENDSEC
  0
SECTION
  2
ENTITIES
  0
TEXT
  5
957C
330
9564
100
AcDbEntity
  8
7
  6
Continuous
100
AcDbText
 10
10.0
 20
18.0
 30
0.0
 40
3.0
  1
TYPE No.TL-80
100
AcDbText
  0
TEXT
  5
957D
330
9564
100
AcDbEntity
  8
7
  6
Continuous
100
AcDbText
 10
10.0
 20
26.0
 30
0.0
 40
3.0
  1
CODE No.1094
100
AcDbText
  0
TEXT
  5
957E
330
9564
100
AcDbEntity
  8
1
  6
Continuous
100
AcDbText
 10
10.0
 20
10.0
 30
0.0
 40
1.399999999999999
  1
LAYER
100
AcDbText
  0
TEXT
  5
957F
330
9564
100
AcDbEntity
  8
1
  6
Continuous
100
AcDbText
 10
17.97951099999998
 20
10.04873699999998
 30
0.0
 40
1.399999999999999
  1
1
100
AcDbText
  0
TEXT
  5
9580
330
9564
100
AcDbEntity
  8
7
  6
Continuous
100
AcDbText
 10
29.97951099999999
 20
10.04873699999998
 30
0.0
 40
1.399999999999999
  1
7
100
AcDbText
  0
TEXT
  5
9581
330
9564
100
AcDbEntity
  8
4
  6
CENTER
100
AcDbText
 10
23.97951099999999
 20
10.04873699999998
 30
0.0
 40
1.399999999999999
  1
4
100
AcDbText
  0
TEXT
  5
9582
330
9564
100
AcDbEntity
  8
3
  6
DASHED
100
AcDbText
 10
21.979511
 20
10.04873699999998
 30
0.0
 40
1.399999999999999
  1
3
100
AcDbText
  0
TEXT
  5
9583
330
9564
100
AcDbEntity
  8
2
  6
Continuous
100
AcDbText
 10
19.97951099999998
 20
10.04873699999998
 30
0.0
 40
1.399999999999999
  1
2
100
AcDbText
  0
TEXT
  5
9584
330
9564
100
AcDbEntity
  8
6
  6
Continuous
100
AcDbText
 10
27.979511
 20
10.04873699999998
 30
0.0
 40
1.399999999999999
  1
6
100
AcDbText
  0
TEXT
  5
9585
330
9564
100
AcDbEntity
  8
5
  6
PHANTOM
100
AcDbText
 10
25.97951099999999
 20
10.04873699999998
 30
0.0
 40
1.399999999999999
  1
5
100
AcDbText
  0
LINE
  5
9586
330
9564
100
AcDbEntity
  8
1
  6
Continuous
100
AcDbLine
 10
91.65529600000001
 20
146.640569
 30
0.0
 11
118.6552959999997
 21
146.640569
 31
0.0
  0
LINE
  5
9587
330
9564
100
AcDbEntity
  8
4
  6
CENTER
 48
0.2
100
AcDbLine
 10
105.1552959999997
 20
149.564825
 30
0.0
 11
105.1552959999997
 21
133.45873
 31
0.0
  0
LINE
  5
9588
330
9564
100
AcDbEntity
  8
1
  6
Continuous
100
AcDbLine
 10
98.15529600000001
 20
136.640569
 30
0.0
 11
112.155296
 21
136.640569
 31
0.0
  0
LINE
  5
9589
330
9564
100
AcDbEntity
  8
1
  6
Continuous
100
AcDbLine
 10
91.65529600000001
 20
138.6405689999999
 30
0.0
 11
98.241081
 21
138.6405689999999
 31
0.0
  0
LINE
  5
958A
330
9564
100
AcDbEntity
  8
1
  6
Continuous
100
AcDbLine
 10
90.15529599999998
 20
145.1405689999999
 30
0.0
 11
90.15529599999998
 21
140.1405689999999
 31
0.0
  0
LINE
  5
958B
330
9564
100
AcDbEntity
  8
1
  6
Continuous
100
AcDbLine
 10
120.1552959999997
 20
145.1405689999999
 30
0.0
 11
120.1552959999997
 21
140.1405689999999
 31
0.0
  0
LINE
  5
958C
330
9564
100
AcDbEntity
  8
4
  6
CENTER
 48
0.1
100
AcDbLine
 10
119.6552959999998
 20
142.6405689999999
 30
0.0
 11
114.6552959999997
 21
142.6405689999999
 31
0.0
  0
LINE
  5
958D
330
9564
100
AcDbEntity
  8
4
  6
CENTER
 48
0.1
100
AcDbLine
 10
117.1552959999997
 20
145.1405689999999
 30
0.0
 11
117.1552959999997
 21
140.1405689999999
 31
0.0
  0
LINE
  5
958E
330
9564
100
AcDbEntity
  8
4
  6
CENTER
 48
0.1
100
AcDbLine
 10
95.65529600000001
 20
142.6405689999999
 30
0.0
 11
90.65529600000001
 21
142.6405689999999
 31
0.0
  0
LINE
  5
958F
330
9564
100
AcDbEntity
  8
4
  6
CENTER
 48
0.1
100
AcDbLine
 10
93.15529600000001
 20
145.1405689999999
 30
0.0
 11
93.15529600000001
 21
140.1405689999999
 31
0.0
  0
LINE
  5
9590
330
9564
100
AcDbEntity
  8
1
  6
Continuous
100
AcDbLine
 10
112.155296
 20
138.140569
 30
0.0
 11
112.155296
 21
136.640569
 31
0.0
  0
LINE
  5
9591
330
9564
100
AcDbEntity
  8
1
  6
Continuous
100
AcDbLine
 10
98.15529600000001
 20
138.140569
 30
0.0
 11
98.15529600000001
 21
136.640569
 31
0.0
  0
LINE
  5
9592
330
9564
100
AcDbEntity
  8
1
  6
Continuous
100
AcDbLine
 10
99.65529600000001
 20
139.6405689999999
 30
0.0
 11
110.6552959999997
 21
139.6405689999999
 31
0.0
  0
LINE
  5
9593
330
9564
100
AcDbEntity
  8
1
  6
Continuous
100
AcDbLine
 10
112.0695109999999
 20
138.6405689999999
 30
0.0
 11
118.6552959999997
 21
138.6405689999999
 31
0.0
  0
LINE
  5
9594
330
9564
100
AcDbEntity
  8
1
  6
Continuous
100
AcDbLine
 10
99.65529600000001
 20
138.8921559999999
 30
0.0
 11
110.6552959999997
 21
138.8921559999999
 31
0.0
  0
LINE
  5
9595
330
9564
100
AcDbEntity
  8
4
  6
CENTER
 48
0.5
100
AcDbLine
 10
25.155292
 20
143.42365
 30
0.0
 11
25.155292
 21
100.623304
 31
0.0
  0
LINE
  5
9596
330
9564
100
AcDbEntity
  8
1
  6
Continuous
100
AcDbLine
 10
40.15529199999996
 20
132.640569
 30
0.0
 11
40.15529199999996
 21
111.5374429999999
 31
0.0
  0
LINE
  5
9597
330
9564
100
AcDbEntity
  8
1
  6
Continuous
100
AcDbLine
 10
10.15529399999999
 20
132.640569
 30
0.0
 11
10.15529399999999
 21
111.5374429999999
 31
0.0
  0
LINE
  5
9599
330
9564
100
AcDbEntity
  8
1
  6
Continuous
100
AcDbLine
 10
11.46678499999998
 20
109.6596889999997
 30
0.0
 11
19.337467
 21
106.773771
 31
0.0
  0
LINE
  5
959A
330
9564
100
AcDbEntity
  8
1
  6
Continuous
100
AcDbLine
 10
38.84379899999997
 20
109.659681
 30
0.0
 11
30.97311799999999
 21
106.7737629999997
 31
0.0
  0
LINE
  5
959B
330
9564
100
AcDbEntity
  8
4
  6
CENTER
 48
0.1
100
AcDbLine
 10
39.65529199999997
 20
112.140569
 30
0.0
 11
34.65529199999998
 21
112.140569
 31
0.0
  0
LINE
  5
959C
330
9564
100
AcDbEntity
  8
4
  6
CENTER
 48
0.1
100
AcDbLine
 10
37.15529199999997
 20
114.6405689999999
 30
0.0
 11
37.15529199999997
 21
109.640569
 31
0.0
  0
LINE
  5
959D
330
9564
100
AcDbEntity
  8
4
  6
CENTER
 48
0.1
100
AcDbLine
 10
39.65529199999997
 20
129.640569
 30
0.0
 11
34.65529199999998
 21
129.640569
 31
0.0
  0
LINE
  5
959E
330
9564
100
AcDbEntity
  8
4
  6
CENTER
 48
0.1
100
AcDbLine
 10
37.15529199999997
 20
132.1405689999999
 30
0.0
 11
37.15529199999997
 21
127.1405689999999
 31
0.0
  0
LINE
  5
959F
330
9564
100
AcDbEntity
  8
4
  6
CENTER
 48
0.1
100
AcDbLine
 10
15.655296
 20
129.640569
 30
0.0
 11
10.65529399999999
 21
129.640569
 31
0.0
  0
LINE
  5
95A0
330
9564
100
AcDbEntity
  8
4
  6
CENTER
 48
0.1
100
AcDbLine
 10
13.155296
 20
132.1405689999999
 30
0.0
 11
13.155296
 21
127.1405689999999
 31
0.0
  0
LINE
  5
95A1
330
9564
100
AcDbEntity
  8
4
  6
CENTER
 48
0.1
100
AcDbLine
 10
15.655296
 20
112.140569
 30
0.0
 11
10.65529399999999
 21
112.140569
 31
0.0
  0
LINE
  5
95A2
330
9564
100
AcDbEntity
  8
4
  6
CENTER
 48
0.1
100
AcDbLine
 10
13.155296
 20
114.6405689999999
 30
0.0
 11
13.155296
 21
109.640569
 31
0.0
  0
LINE
  5
95A3
330
9564
100
AcDbEntity
  8
1
  6
Continuous
100
AcDbLine
 10
172.515037
 20
104.640569
 30
0.0
 11
173.515037
 21
104.640569
 31
0.0
  0
LINE
  5
95A4
330
9564
100
AcDbEntity
  8
1
  6
Continuous
100
AcDbLine
 10
172.515037
 20
134.640569
 30
0.0
 11
173.515037
 21
134.640569
 31
0.0
  0
LINE
  5
95A5
330
9564
100
AcDbEntity
  8
4
  6
CENTER
 48
0.1
100
AcDbLine
 10
170.515037
 20
129.640569
 30
0.0
 11
175.515037
 21
129.640569
 31
0.0
  0
LINE
  5
95A6
330
9564
100
AcDbEntity
  8
4
  6
CENTER
 48
0.1
100
AcDbLine
 10
170.515037
 20
112.140569
 30
0.0
 11
175.515037
 21
112.140569
 31
0.0
  0
LINE
  5
95A7
330
9564
100
AcDbEntity
  8
1
  6
Continuous
100
AcDbLine
 10
172.515037
 20
110.1405689999999
 30
0.0
 11
173.515037
 21
110.1405689999999
 31
0.0
  0
LINE
  5
95A8
330
9564
100
AcDbEntity
  8
1
  6
Continuous
100
AcDbLine
 10
172.515037
 20
134.640569
 30
0.0
 11
172.515037
 21
104.640569
 31
0.0
  0
LINE
  5
95A9
330
9564
100
AcDbEntity
  8
1
  6
Continuous
100
AcDbLine
 10
173.515037
 20
134.640569
 30
0.0
 11
173.515037
 21
104.640569
 31
0.0
  0
LINE
  5
95AA
330
9564
100
AcDbEntity
  8
1
  6
Continuous
100
AcDbLine
 10
33.15529199999998
 20
127.1405689999999
 30
0.0
 11
33.15529199999998
 21
109.517461
 31
0.0
  0
LINE
  5
95AB
330
9564
100
AcDbEntity
  8
1
  6
Continuous
100
AcDbLine
 10
17.15529599999999
 20
132.1825009999997
 30
0.0
 11
17.15529599999999
 21
109.517461
 31
0.0
  0
LINE
  5
95AC
330
9564
100
AcDbEntity
  8
1
  6
Continuous
100
AcDbLine
 10
29.655292
 20
127.1405689999999
 30
0.0
 11
33.15529199999998
 21
127.1405689999999
 31
0.0
  0
LINE
  5
95AD
330
9564
100
AcDbEntity
  8
1
  6
Continuous
100
AcDbLine
 10
20.65529199999998
 20
128.640569
 30
0.0
 11
29.655292
 21
128.640569
 31
0.0
  0
LINE
  5
95AE
330
9564
100
AcDbEntity
  8
1
  6
Continuous
100
AcDbLine
 10
29.655292
 20
128.640569
 30
0.0
 11
29.655292
 21
127.1405689999999
 31
0.0
  0
LINE
  5
95AF
330
9564
100
AcDbEntity
  8
1
  6
Continuous
100
AcDbLine
 10
20.65529199999998
 20
128.640569
 30
0.0
 11
20.65529199999998
 21
127.1405689999999
 31
0.0
  0
LINE
  5
95B0
330
9564
100
AcDbEntity
  8
1
  6
Continuous
100
AcDbLine
 10
17.15529599999999
 20
127.1405689999999
 30
0.0
 11
20.65529199999998
 21
127.1405689999999
 31
0.0
  0
LINE
  5
95B1
330
9564
100
AcDbEntity
  8
1
  6
Continuous
100
AcDbLine
 10
18.155292
 20
129.1405689999999
 30
0.0
 11
32.15529199999998
 21
129.1405689999999
 31
0.0
  0
LINE
  5
95B2
330
9564
100
AcDbEntity
  8
4
  6
CENTER
 48
0.5
100
AcDbLine
 10
35.962097
 20
124.640569
 30
0.0
 11
14.58171799999998
 21
124.640569
 31
0.0
  0
LINE
  5
95B3
330
9564
100
AcDbEntity
  8
1
  6
Continuous
100
AcDbLine
 10
33.65529199999999
 20
126.1405689999999
 30
0.0
 11
33.65529199999999
 21
123.140569
 31
0.0
  0
LINE
  5
95B4
330
9564
100
AcDbEntity
  8
1
  6
Continuous
100
AcDbLine
 10
16.655296
 20
126.1405689999999
 30
0.0
 11
16.655296
 21
123.140569
 31
0.0
  0
LINE
  5
95B5
330
9564
100
AcDbEntity
  8
1
  6
Continuous
100
AcDbLine
 10
33.65529199999999
 20
126.1405689999999
 30
0.0
 11
33.15529199999998
 21
126.1405689999999
 31
0.0
  0
LINE
  5
95B6
330
9564
100
AcDbEntity
  8
1
  6
Continuous
100
AcDbLine
 10
33.65529199999999
 20
123.140569
 30
0.0
 11
33.15529199999998
 21
123.140569
 31
0.0
  0
LINE
  5
95B7
330
9564
100
AcDbEntity
  8
1
  6
Continuous
100
AcDbLine
 10
17.15529599999999
 20
126.1405689999999
 30
0.0
 11
16.655296
 21
126.1405689999999
 31
0.0
  0
LINE
  5
95B8
330
9564
100
AcDbEntity
  8
1
  6
Continuous
100
AcDbLine
 10
17.15529599999999
 20
123.140569
 30
0.0
 11
16.655296
 21
123.140569
 31
0.0
  0
LINE
  5
95B9
330
9564
100
AcDbEntity
  8
1
  6
Continuous
100
AcDbLine
 10
19.915859
 20
137.640569
 30
0.0
 11
30.39472599999999
 21
137.640569
 31
0.0
  0
LINE
  5
95BA
330
9564
100
AcDbEntity
  8
4
  6
CENTER
 48
0.5
100
AcDbLine
 10
12.623428
 20
118.390569
 30
0.0
 11
37.40291599999999
 21
118.390569
 31
0.0
  0
LINE
  5
95BB
330
9564
100
AcDbEntity
  8
1
  6
Continuous
100
AcDbLine
 10
17.42847799999999
 20
135.391409
 30
0.0
 11
16.167911
 21
122.391409
 31
0.0
  0
LINE
  5
95BC
330
9564
100
AcDbEntity
  8
1
  6
Continuous
100
AcDbLine
 10
32.88210999999999
 20
135.3914239999999
 30
0.0
 11
34.14267699999999
 21
122.391424
 31
0.0
  0
LINE
  5
95BD
330
9564
100
AcDbEntity
  8
1
  6
Continuous
100
AcDbLine
 10
35.36949099999999
 20
135.6422629999997
 30
0.0
 11
36.630058
 21
122.6422629999997
 31
0.0
  0
LINE
  5
95BE
330
9564
100
AcDbEntity
  8
1
  6
Continuous
100
AcDbLine
 10
14.94109299999998
 20
135.6422479999999
 30
0.0
 11
13.680527
 21
122.6422479999999
 31
0.0
  0
LINE
  5
95C1
330
9564
100
AcDbEntity
  8
1
  6
Continuous
100
AcDbLine
 10
344.3747789999998
 20
146.640569
 30
0.0
 11
371.3747789999998
 21
146.640569
 31
0.0
  0
LINE
  5
95C2
330
9564
100
AcDbEntity
  8
4
  6
CENTER
 48
0.2
100
AcDbLine
 10
357.8747789999998
 20
149.564825
 30
0.0
 11
357.8747789999998
 21
133.45873
 31
0.0
  0
LINE
  5
95C3
330
9564
100
AcDbEntity
  8
1
  6
Continuous
100
AcDbLine
 10
350.874779
 20
136.640569
 30
0.0
 11
364.8747789999998
 21
136.640569
 31
0.0
  0
LINE
  5
95C4
330
9564
100
AcDbEntity
  8
1
  6
Continuous
100
AcDbLine
 10
344.3747789999998
 20
138.6405689999999
 30
0.0
 11
350.874779
 21
138.6405689999999
 31
0.0
  0
LINE
  5
95C5
330
9564
100
AcDbEntity
  8
1
  6
Continuous
100
AcDbLine
 10
342.874779
 20
145.1405689999999
 30
0.0
 11
342.874779
 21
140.1405689999999
 31
0.0
  0
LINE
  5
95C6
330
9564
100
AcDbEntity
  8
1
  6
Continuous
100
AcDbLine
 10
372.8747789999998
 20
145.1405689999999
 30
0.0
 11
372.8747789999998
 21
140.1405689999999
 31
0.0
  0
LINE
  5
95C7
330
9564
100
AcDbEntity
  8
4
  6
CENTER
 48
0.1
100
AcDbLine
 10
372.374779
 20
142.6405689999999
 30
0.0
 11
367.374779
 21
142.6405689999999
 31
0.0
  0
LINE
  5
95C8
330
9564
100
AcDbEntity
  8
4
  6
CENTER
 48
0.1
100
AcDbLine
 10
369.874779
 20
145.1405689999999
 30
0.0
 11
369.874779
 21
140.1405689999999
 31
0.0
  0
LINE
  5
95C9
330
9564
100
AcDbEntity
  8
4
  6
CENTER
 48
0.1
100
AcDbLine
 10
348.3747789999998
 20
142.6405689999999
 30
0.0
 11
343.3747789999998
 21
142.6405689999999
 31
0.0
  0
LINE
  5
95CA
330
9564
100
AcDbEntity
  8
4
  6
CENTER
 48
0.1
100
AcDbLine
 10
345.8747789999998
 20
145.1405689999999
 30
0.0
 11
345.8747789999998
 21
140.1405689999999
 31
0.0
  0
LINE
  5
95CB
330
9564
100
AcDbEntity
  8
1
  6
Continuous
100
AcDbLine
 10
364.8747789999998
 20
138.6405689999999
 30
0.0
 11
364.8747789999998
 21
136.640569
 31
0.0
  0
LINE
  5
95CC
330
9564
100
AcDbEntity
  8
1
  6
Continuous
100
AcDbLine
 10
350.874779
 20
138.6405689999999
 30
0.0
 11
350.874779
 21
136.640569
 31
0.0
  0
LINE
  5
95CD
330
9564
100
AcDbEntity
  8
1
  6
Continuous
100
AcDbLine
 10
364.8747789999998
 20
138.6405689999999
 30
0.0
 11
371.3747789999998
 21
138.6405689999999
 31
0.0
  0
LINE
  5
95CE
330
9564
100
AcDbEntity
  8
4
  6
CENTER
 48
0.5
100
AcDbLine
 10
287.8747789999998
 20
143.42365
 30
0.0
 11
287.8747789999998
 21
100.623304
 31
0.0
  0
LINE
  5
95CF
330
9564
100
AcDbEntity
  8
1
  6
Continuous
100
AcDbLine
 10
272.8747789999999
 20
132.640569
 30
0.0
 11
272.8747789999999
 21
111.5374429999999
 31
0.0
  0
LINE
  5
95D0
330
9564
100
AcDbEntity
  8
1
  6
Continuous
100
AcDbLine
 10
302.874779
 20
132.640569
 30
0.0
 11
302.874779
 21
111.5374429999999
 31
0.0
  0
LINE
  5
95D1
330
9564
100
AcDbEntity
  8
1
  6
Continuous
100
AcDbLine
 10
274.8747789999999
 20
134.640569
 30
0.0
 11
300.874779
 21
134.640569
 31
0.0
  0
LINE
  5
95D2
330
9564
100
AcDbEntity
  8
4
  6
CENTER
 48
0.1
100
AcDbLine
 10
273.3747789999998
 20
112.140569
 30
0.0
 11
278.374779
 21
112.140569
 31
0.0
  0
LINE
  5
95D3
330
9564
100
AcDbEntity
  8
4
  6
CENTER
 48
0.1
100
AcDbLine
 10
275.874779
 20
114.6405689999999
 30
0.0
 11
275.874779
 21
109.640569
 31
0.0
  0
LINE
  5
95D4
330
9564
100
AcDbEntity
  8
4
  6
CENTER
 48
0.1
100
AcDbLine
 10
273.3747789999998
 20
129.640569
 30
0.0
 11
278.374779
 21
129.640569
 31
0.0
  0
LINE
  5
95D5
330
9564
100
AcDbEntity
  8
4
  6
CENTER
 48
0.1
100
AcDbLine
 10
275.874779
 20
132.1405689999999
 30
0.0
 11
275.874779
 21
127.1405689999999
 31
0.0
  0
LINE
  5
95D6
330
9564
100
AcDbEntity
  8
4
  6
CENTER
 48
0.1
100
AcDbLine
 10
297.374779
 20
129.640569
 30
0.0
 11
302.3747789999998
 21
129.640569
 31
0.0
  0
LINE
  5
95D7
330
9564
100
AcDbEntity
  8
4
  6
CENTER
 48
0.1
100
AcDbLine
 10
299.8747789999999
 20
132.1405689999999
 30
0.0
 11
299.8747789999999
 21
127.1405689999999
 31
0.0
  0
LINE
  5
95D8
330
9564
100
AcDbEntity
  8
4
  6
CENTER
 48
0.1
100
AcDbLine
 10
297.374779
 20
112.140569
 30
0.0
 11
302.3747789999998
 21
112.140569
 31
0.0
  0
LINE
  5
95D9
330
9564
100
AcDbEntity
  8
4
  6
CENTER
 48
0.1
100
AcDbLine
 10
299.8747789999999
 20
114.6405689999999
 30
0.0
 11
299.8747789999999
 21
109.640569
 31
0.0
  0
LINE
  5
95DA
330
9564
100
AcDbEntity
  8
1
  6
Continuous
100
AcDbLine
 10
283.3747789999998
 20
127.1405689999999
 30
0.0
 11
280.8747789999998
 21
127.1405689999999
 31
0.0
  0
LINE
  5
95DB
330
9564
100
AcDbEntity
  8
1
  6
Continuous
100
AcDbLine
 10
292.3747789999998
 20
128.640569
 30
0.0
 11
283.3747789999998
 21
128.640569
 31
0.0
  0
LINE
  5
95DC
330
9564
100
AcDbEntity
  8
1
  6
Continuous
100
AcDbLine
 10
283.3747789999998
 20
128.640569
 30
0.0
 11
283.3747789999998
 21
125.713781
 31
0.0
  0
LINE
  5
95DD
330
9564
100
AcDbEntity
  8
1
  6
Continuous
100
AcDbLine
 10
292.3747789999998
 20
128.640569
 30
0.0
 11
292.3747789999998
 21
125.713781
 31
0.0
  0
LINE
  5
95DE
330
9564
100
AcDbEntity
  8
1
  6
Continuous
100
AcDbLine
 10
294.874779
 20
127.1405689999999
 30
0.0
 11
293.6247789999999
 21
127.1405689999999
 31
0.0
  0
LINE
  5
95DF
330
9564
100
AcDbEntity
  8
1
  6
Continuous
100
AcDbLine
 10
294.874779
 20
129.1405689999999
 30
0.0
 11
280.8747789999998
 21
129.1405689999999
 31
0.0
  0
LINE
  5
95E0
330
9564
100
AcDbEntity
  8
1
  6
Continuous
100
AcDbLine
 10
293.11422
 20
140.1405689999999
 30
0.0
 11
282.635338
 21
140.1405689999999
 31
0.0
  0
LINE
  5
95E1
330
9564
100
AcDbEntity
  8
1
  6
Continuous
100
AcDbLine
 10
293.11422
 20
137.640569
 30
0.0
 11
282.635338
 21
137.640569
 31
0.0
  0
LINE
  5
95E2
330
9564
100
AcDbEntity
  8
4
  6
CENTER
 48
0.5
100
AcDbLine
 10
300.4066389999998
 20
118.390569
 30
0.0
 11
275.627159
 21
118.390569
 31
0.0
  0
LINE
  5
95E3
330
9564
100
AcDbEntity
  8
1
  6
Continuous
100
AcDbLine
 10
295.601585
 20
135.391409
 30
0.0
 11
295.6268839999999
 21
134.640569
 31
0.0
  0
LINE
  5
95E4
330
9564
100
AcDbEntity
  8
1
  6
Continuous
100
AcDbLine
 10
280.1479719999999
 20
135.391409
 30
0.0
 11
280.122703
 21
134.640569
 31
0.0
  0
LINE
  5
95E5
330
9564
100
AcDbEntity
  8
1
  6
Continuous
100
AcDbLine
 10
277.6606059999999
 20
135.6422479999999
 30
0.0
 11
277.6100079999998
 21
134.640569
 31
0.0
  0
LINE
  5
95E6
330
9564
100
AcDbEntity
  8
1
  6
Continuous
100
AcDbLine
 10
298.0889809999998
 20
135.6422479999999
 30
0.0
 11
298.1395799999999
 21
134.640569
 31
0.0
  0
LINE
  5
95E7
330
9564
100
AcDbEntity
  8
1
  6
Continuous
100
AcDbLine
 10
294.3747789999998
 20
117.6405689999999
 30
0.0
 11
281.3747789999998
 21
117.6405689999999
 31
0.0
  0
LINE
  5
95E8
330
9564
100
AcDbEntity
  8
1
  6
Continuous
100
AcDbLine
 10
293.6247789999999
 20
129.1405689999999
 30
0.0
 11
293.6247789999999
 21
120.6405689999999
 31
0.0
  0
LINE
  5
95E9
330
9564
100
AcDbEntity
  8
1
  6
Continuous
100
AcDbLine
 10
282.124779
 20
127.1405689999999
 30
0.0
 11
282.124779
 21
119.6405689999999
 31
0.0
  0
LINE
  5
95EA
330
9564
100
AcDbEntity
  8
1
  6
Continuous
100
AcDbLine
 10
293.6247789999999
 20
120.6405689999999
 30
0.0
 11
294.3747789999998
 21
120.6405689999999
 31
0.0
  0
LINE
  5
95EB
330
9564
100
AcDbEntity
  8
1
  6
Continuous
100
AcDbLine
 10
281.3747789999998
 20
120.6405689999999
 30
0.0
 11
282.124779
 21
120.6405689999999
 31
0.0
  0
LINE
  5
95EC
330
9564
100
AcDbEntity
  8
1
  6
Continuous
100
AcDbLine
 10
226.515037
 20
146.640569
 30
0.0
 11
227.5150369999999
 21
146.640569
 31
0.0
  0
LINE
  5
95ED
330
9564
100
AcDbEntity
  8
1
  6
Continuous
100
AcDbLine
 10
222.1782909999999
 20
139.6405849999998
 30
0.0
 11
224.0235059999999
 21
138.0150509999999
 31
0.0
  0
LINE
  5
95EE
330
9564
100
AcDbEntity
  8
1
  6
Continuous
100
AcDbLine
 10
227.5150369999999
 20
146.640569
 30
0.0
 11
227.5150369999999
 21
139.1405689999999
 31
0.0
  0
LINE
  5
95EF
330
9564
100
AcDbEntity
  8
4
  6
CENTER
 48
0.1
100
AcDbLine
 10
225.1750109999999
 20
142.6405689999999
 30
0.0
 11
228.8879009999999
 21
142.6405689999999
 31
0.0
  0
LINE
  5
95F0
330
9564
100
AcDbEntity
  8
1
  6
Continuous
100
AcDbLine
 10
226.429252
 20
138.6405689999999
 30
0.0
 11
227.4645309999999
 21
138.6405689999999
 31
0.0
  0
LINE
  5
95F1
330
9564
100
AcDbEntity
  8
1
  6
Continuous
100
AcDbLine
 10
226.515037
 20
146.640569
 30
0.0
 11
226.515037
 21
139.1405689999999
 31
0.0
  0
LINE
  5
95F2
330
9564
100
AcDbEntity
  8
1
  6
Continuous
100
AcDbLine
 10
222.1782759999999
 20
139.6405689999999
 30
0.0
 11
221.5150369999999
 21
138.8921559999999
 31
0.0
  0
LINE
  5
95F3
330
9564
100
AcDbEntity
  8
1
  6
Continuous
100
AcDbLine
 10
221.5150529999999
 20
138.8921719999999
 30
0.0
 11
223.3624649999999
 21
137.2646839999999
 31
0.0
  0
LINE
  5
95F4
330
9564
100
AcDbEntity
  8
4
  6
CENTER
 48
0.1
100
AcDbLine
 10
171.015037
 20
141.3905689999999
 30
0.0
 11
171.015037
 21
136.3905689999999
 31
0.0
  0
LINE
  5
95F5
330
9564
100
AcDbEntity
  8
4
  6
CENTER
 48
0.1
100
AcDbLine
 10
168.515037
 20
138.8905689999999
 30
0.0
 11
173.515037
 21
138.8905689999999
 31
0.0
  0
LINE
  5
95F6
330
9564
100
AcDbEntity
  8
1
  6
Continuous
100
AcDbLine
 10
170.765037
 20
130.640569
 30
0.0
 11
170.765037
 21
118.390569
 31
0.0
  0
LINE
  5
95F7
330
9564
100
AcDbEntity
  8
1
  6
Continuous
100
AcDbLine
 10
168.265037
 20
130.884039
 30
0.0
 11
168.265037
 21
118.390569
 31
0.0
  0
LINE
  5
95F8
330
9564
100
AcDbEntity
  8
1
  6
Continuous
100
AcDbLine
 10
170.765037
 20
130.640569
 30
0.0
 11
172.241554
 21
138.6493889999998
 31
0.0
  0
LINE
  5
95F9
330
9564
100
AcDbEntity
  8
1
  6
Continuous
100
AcDbLine
 10
168.265037
 20
130.884039
 30
0.0
 11
169.788521
 21
139.13175
 31
0.0
  0
LINE
  5
95FA
330
9564
100
AcDbEntity
  8
4
  6
CENTER
 48
0.1
100
AcDbLine
 10
171.515037
 20
118.390569
 30
0.0
 11
167.515037
 21
118.390569
 31
0.0
  0
LINE
  5
95FB
330
9564
100
AcDbEntity
  8
4
  6
CENTER
 48
0.1
100
AcDbLine
 10
169.515037
 20
120.390569
 30
0.0
 11
169.515037
 21
116.3905689999999
 31
0.0
  0
LINE
  5
95FC
330
9564
100
AcDbEntity
  8
4
  6
CENTER
 48
0.1
100
AcDbLine
 10
169.015037
 20
127.1405689999999
 30
0.0
 11
169.015037
 21
122.140569
 31
0.0
  0
LINE
  5
95FD
330
9564
100
AcDbEntity
  8
4
  6
CENTER
 48
0.1
100
AcDbLine
 10
166.515037
 20
124.640569
 30
0.0
 11
171.515037
 21
124.640569
 31
0.0
  0
LINE
  5
95FE
330
9564
100
AcDbEntity
  8
1
  6
Continuous
100
AcDbLine
 10
171.8483659999999
 20
120.6405689999999
 30
0.0
 11
172.515037
 21
120.6405689999999
 31
0.0
  0
LINE
  5
95FF
330
9564
100
AcDbEntity
  8
1
  6
Continuous
100
AcDbLine
 10
170.765037
 20
127.1405689999999
 30
0.0
 11
172.515037
 21
127.1405689999999
 31
0.0
  0
LINE
  5
9600
330
9564
100
AcDbEntity
  8
1
  6
Continuous
100
AcDbLine
 10
90.15529599999998
 20
196.140569
 30
0.0
 11
120.1552959999997
 21
196.140569
 31
0.0
  0
LINE
  5
9601
330
9564
100
AcDbEntity
  8
1
  6
Continuous
100
AcDbLine
 10
90.15529599999998
 20
195.1405689999999
 30
0.0
 11
120.1552959999997
 21
195.1405689999999
 31
0.0
  0
LINE
  5
9602
330
9564
100
AcDbEntity
  8
1
  6
Continuous
100
AcDbLine
 10
98.15529600000001
 20
190.803808
 30
0.0
 11
112.155296
 21
190.803808
 31
0.0
  0
LINE
  5
9603
330
9564
100
AcDbEntity
  8
1
  6
Continuous
100
AcDbLine
 10
98.15529600000001
 20
190.1405689999999
 30
0.0
 11
112.155296
 21
190.1405689999999
 31
0.0
  0
LINE
  5
9604
330
9564
100
AcDbEntity
  8
4
  6
CENTER
 48
0.2
100
AcDbLine
 10
105.1552959999997
 20
187.398031
 30
0.0
 11
105.1552959999997
 21
199.517492
 31
0.0
  0
LINE
  5
9605
330
9564
100
AcDbEntity
  8
1
  6
Continuous
100
AcDbLine
 10
90.15529599999998
 20
195.1405689999999
 30
0.0
 11
90.15529599999998
 21
196.140569
 31
0.0
  0
LINE
  5
9606
330
9564
100
AcDbEntity
  8
1
  6
Continuous
100
AcDbLine
 10
120.1552959999997
 20
195.1405689999999
 30
0.0
 11
120.1552959999997
 21
196.140569
 31
0.0
  0
LINE
  5
9607
330
9564
100
AcDbEntity
  8
1
  6
Continuous
100
AcDbLine
 10
98.15529600000001
 20
190.1405689999999
 30
0.0
 11
98.15529600000001
 21
195.1405689999999
 31
0.0
  0
LINE
  5
9608
330
9564
100
AcDbEntity
  8
1
  6
Continuous
100
AcDbLine
 10
112.155296
 20
190.1405689999999
 30
0.0
 11
112.155296
 21
195.1405689999999
 31
0.0
  0
LINE
  5
9609
330
9564
100
AcDbEntity
  8
4
  6
CENTER
 48
0.2
100
AcDbLine
 10
95.21968800000001
 20
193.6405689999999
 30
0.0
 11
115.142555
 21
193.6405689999999
 31
0.0
  0
LINE
  5
960A
330
9564
100
AcDbEntity
  8
4
  6
CENTER
 48
0.1
100
AcDbLine
 10
93.15529600000001
 20
193.3754779999999
 30
0.0
 11
93.15529600000001
 21
197.944997
 31
0.0
  0
LINE
  5
960B
330
9564
100
AcDbEntity
  8
4
  6
CENTER
 48
0.1
100
AcDbLine
 10
117.1552959999997
 20
193.277227
 30
0.0
 11
117.1552959999997
 21
198.011221
 31
0.0
  0
LINE
  5
960C
330
9564
100
AcDbEntity
  8
1
  6
Continuous
100
AcDbLine
 10
10.155292
 20
196.140569
 30
0.0
 11
40.15529199999996
 21
196.140569
 31
0.0
  0
LINE
  5
960D
330
9564
100
AcDbEntity
  8
1
  6
Continuous
100
AcDbLine
 10
10.155292
 20
195.1405689999999
 30
0.0
 11
40.15529199999996
 21
195.1405689999999
 31
0.0
  0
LINE
  5
960E
330
9564
100
AcDbEntity
  8
4
  6
CENTER
 48
0.2
100
AcDbLine
 10
25.155292
 20
184.4595999999999
 30
0.0
 11
25.155292
 21
198.9388789999999
 31
0.0
  0
LINE
  5
960F
330
9564
100
AcDbEntity
  8
1
  6
Continuous
100
AcDbLine
 10
10.155292
 20
195.1405689999999
 30
0.0
 11
10.155292
 21
196.140569
 31
0.0
  0
LINE
  5
9610
330
9564
100
AcDbEntity
  8
1
  6
Continuous
100
AcDbLine
 10
40.15529199999996
 20
195.1405689999999
 30
0.0
 11
40.15529199999996
 21
196.140569
 31
0.0
  0
LINE
  5
9611
330
9564
100
AcDbEntity
  8
4
  6
CENTER
 48
0.1
100
AcDbLine
 10
13.155292
 20
193.3104759999999
 30
0.0
 11
13.155292
 21
197.933859
 31
0.0
  0
LINE
  5
9612
330
9564
100
AcDbEntity
  8
4
  6
CENTER
 48
0.1
100
AcDbLine
 10
37.15529199999997
 20
193.43543
 30
0.0
 11
37.15529199999997
 21
197.9963279999998
 31
0.0
  0
LINE
  5
9613
330
9564
100
AcDbEntity
  8
1
  6
Continuous
100
AcDbLine
 10
19.405292
 20
190.1405689999999
 30
0.0
 11
19.405292
 21
192.3905689999999
 31
0.0
  0
LINE
  5
9614
330
9564
100
AcDbEntity
  8
1
  6
Continuous
100
AcDbLine
 10
30.905292
 20
190.1405689999999
 30
0.0
 11
30.905292
 21
192.3905689999999
 31
0.0
  0
LINE
  5
9615
330
9564
100
AcDbEntity
  8
1
  6
Continuous
100
AcDbLine
 10
18.40529199999998
 20
190.1405689999999
 30
0.0
 11
18.40529199999998
 21
192.3905689999999
 31
0.0
  0
LINE
  5
9616
330
9564
100
AcDbEntity
  8
1
  6
Continuous
100
AcDbLine
 10
31.905292
 20
190.1405689999999
 30
0.0
 11
31.905292
 21
192.3905689999999
 31
0.0
  0
LINE
  5
9617
330
9564
100
AcDbEntity
  8
1
  6
Continuous
100
AcDbLine
 10
33.15529199999998
 20
187.640569
 30
0.0
 11
33.15529199999998
 21
192.305883
 31
0.0
  0
LINE
  5
9618
330
9564
100
AcDbEntity
  8
1
  6
Continuous
100
AcDbLine
 10
17.15529199999999
 20
187.640569
 30
0.0
 11
17.15529199999999
 21
192.305883
 31
0.0
  0
LINE
  5
9619
330
9564
100
AcDbEntity
  8
4
  6
CENTER
 48
0.2
100
AcDbLine
 10
15.485428
 20
191.6405689999999
 30
0.0
 11
35.216087
 21
191.6405689999999
 31
0.0
  0
LINE
  5
961A
330
9564
100
AcDbEntity
  8
1
  6
Continuous
100
AcDbLine
 10
33.65529199999999
 20
190.1405689999999
 30
0.0
 11
33.65529199999999
 21
191.9173639999999
 31
0.0
  0
LINE
  5
961B
330
9564
100
AcDbEntity
  8
1
  6
Continuous
100
AcDbLine
 10
16.65529199999999
 20
190.1405689999999
 30
0.0
 11
16.65529199999999
 21
191.9173639999999
 31
0.0
  0
LINE
  5
961C
330
9564
100
AcDbEntity
  8
1
  6
Continuous
100
AcDbLine
 10
16.65529199999999
 20
190.1405689999999
 30
0.0
 11
17.15529199999999
 21
190.1405689999999
 31
0.0
  0
LINE
  5
961D
330
9564
100
AcDbEntity
  8
1
  6
Continuous
100
AcDbLine
 10
33.15529199999998
 20
190.1405689999999
 30
0.0
 11
33.65529199999999
 21
190.1405689999999
 31
0.0
  0
LINE
  5
961E
330
9564
100
AcDbEntity
  8
1
  6
Continuous
100
AcDbLine
 10
18.155292
 20
190.390569
 30
0.0
 11
18.40529199999998
 21
190.390569
 31
0.0
  0
LINE
  5
961F
330
9564
100
AcDbEntity
  8
1
  6
Continuous
100
AcDbLine
 10
31.905292
 20
190.390569
 30
0.0
 11
32.15529199999998
 21
190.390569
 31
0.0
  0
LINE
  5
9620
330
9564
100
AcDbEntity
  8
1
  6
Continuous
100
AcDbLine
 10
20.65529199999998
 20
186.640569
 30
0.0
 11
20.65529199999998
 21
192.3905689999999
 31
0.0
  0
LINE
  5
9621
330
9564
100
AcDbEntity
  8
1
  6
Continuous
100
AcDbLine
 10
29.655292
 20
186.640569
 30
0.0
 11
29.655292
 21
192.2328699999999
 31
0.0
  0
LINE
  5
9622
330
9564
100
AcDbEntity
  8
1
  6
Continuous
100
AcDbLine
 10
18.40529199999998
 20
190.1405689999999
 30
0.0
 11
19.405292
 21
190.1405689999999
 31
0.0
  0
LINE
  5
9623
330
9564
100
AcDbEntity
  8
1
  6
Continuous
100
AcDbLine
 10
30.905292
 20
190.1405689999999
 30
0.0
 11
31.905292
 21
190.1405689999999
 31
0.0
  0
LINE
  5
9624
330
9564
100
AcDbEntity
  8
1
  6
Continuous
100
AcDbLine
 10
29.655292
 20
190.390569
 30
0.0
 11
30.905292
 21
190.390569
 31
0.0
  0
LINE
  5
9625
330
9564
100
AcDbEntity
  8
1
  6
Continuous
100
AcDbLine
 10
14.905292
 20
190.890569
 30
0.0
 11
16.65529199999999
 21
190.890569
 31
0.0
  0
LINE
  5
9626
330
9564
100
AcDbEntity
  8
4
  6
CENTER
 48
0.5
100
AcDbLine
 10
11.88320299999998
 20
192.140569
 30
0.0
 11
38.77356699999999
 21
192.140569
 31
0.0
  0
LINE
  5
9627
330
9564
100
AcDbEntity
  8
1
  6
Continuous
100
AcDbLine
 10
19.915859
 20
140.1405689999999
 30
0.0
 11
30.39472599999999
 21
140.1405689999999
 31
0.0
  0
LINE
  5
9628
330
9564
100
AcDbEntity
  8
1
  6
Continuous
100
AcDbLine
 10
16.835731
 20
194.890569
 30
0.0
 11
33.47485300000001
 21
194.890569
 31
0.0
  0
LINE
  5
9629
330
9564
100
AcDbEntity
  8
1
  6
Continuous
100
AcDbLine
 10
17.15529199999999
 20
194.890569
 30
0.0
 11
17.15529199999999
 21
195.1405689999999
 31
0.0
  0
LINE
  5
962A
330
9564
100
AcDbEntity
  8
1
  6
Continuous
100
AcDbLine
 10
18.40529199999998
 20
194.890569
 30
0.0
 11
18.40529199999998
 21
195.1405689999999
 31
0.0
  0
LINE
  5
962B
330
9564
100
AcDbEntity
  8
1
  6
Continuous
100
AcDbLine
 10
19.405292
 20
194.890569
 30
0.0
 11
19.405292
 21
195.1405689999999
 31
0.0
  0
LINE
  5
962C
330
9564
100
AcDbEntity
  8
1
  6
Continuous
100
AcDbLine
 10
30.905292
 20
194.890569
 30
0.0
 11
30.905292
 21
195.1405689999999
 31
0.0
  0
LINE
  5
962D
330
9564
100
AcDbEntity
  8
1
  6
Continuous
100
AcDbLine
 10
31.905292
 20
194.890569
 30
0.0
 11
31.905292
 21
195.1405689999999
 31
0.0
  0
LINE
  5
962E
330
9564
100
AcDbEntity
  8
1
  6
Continuous
100
AcDbLine
 10
33.15529199999998
 20
194.890569
 30
0.0
 11
33.15529199999998
 21
195.1405689999999
 31
0.0
  0
LINE
  5
962F
330
9564
100
AcDbEntity
  8
1
  6
Continuous
100
AcDbLine
 10
10.155292
 20
40.64056899999999
 30
0.0
 11
40.15529199999996
 21
40.64056899999999
 31
0.0
  0
LINE
  5
9630
330
9564
100
AcDbEntity
  8
1
  6
Continuous
100
AcDbLine
 10
10.155292
 20
41.640569
 30
0.0
 11
40.15529199999996
 21
41.640569
 31
0.0
  0
LINE
  5
9631
330
9564
100
AcDbEntity
  8
4
  6
CENTER
 48
0.2
100
AcDbLine
 10
25.155292
 20
52.321539
 30
0.0
 11
25.155292
 21
37.84225999999997
 31
0.0
  0
LINE
  5
9632
330
9564
100
AcDbEntity
  8
1
  6
Continuous
100
AcDbLine
 10
10.155292
 20
41.640569
 30
0.0
 11
10.155292
 21
40.64056899999999
 31
0.0
  0
LINE
  5
9633
330
9564
100
AcDbEntity
  8
1
  6
Continuous
100
AcDbLine
 10
40.15529199999996
 20
41.640569
 30
0.0
 11
40.15529199999996
 21
40.64056899999999
 31
0.0
  0
LINE
  5
9634
330
9564
100
AcDbEntity
  8
4
  6
CENTER
 48
0.1
100
AcDbLine
 10
13.155292
 20
43.470663
 30
0.0
 11
13.155292
 21
38.847284
 31
0.0
  0
LINE
  5
9635
330
9564
100
AcDbEntity
  8
4
  6
CENTER
 48
0.1
100
AcDbLine
 10
37.15529199999997
 20
43.345709
 30
0.0
 11
37.15529199999997
 21
38.784807
 31
0.0
  0
LINE
  5
9636
330
9564
100
AcDbEntity
  8
1
  6
Continuous
100
AcDbLine
 10
30.905292
 20
46.39056899999999
 30
0.0
 11
30.905292
 21
41.640569
 31
0.0
  0
LINE
  5
9637
330
9564
100
AcDbEntity
  8
1
  6
Continuous
100
AcDbLine
 10
31.905292
 20
46.39056899999999
 30
0.0
 11
31.905292
 21
41.640569
 31
0.0
  0
LINE
  5
9638
330
9564
100
AcDbEntity
  8
1
  6
Continuous
100
AcDbLine
 10
33.15529199999998
 20
49.140569
 30
0.0
 11
33.15529199999998
 21
41.640569
 31
0.0
  0
LINE
  5
9639
330
9564
100
AcDbEntity
  8
1
  6
Continuous
100
AcDbLine
 10
17.15529199999999
 20
49.140569
 30
0.0
 11
17.15529199999999
 21
41.640569
 31
0.0
  0
LINE
  5
963A
330
9564
100
AcDbEntity
  8
1
  6
Continuous
100
AcDbLine
 10
17.955292
 20
47.140569
 30
0.0
 11
17.955292
 21
41.640569
 31
0.0
  0
LINE
  5
963B
330
9564
100
AcDbEntity
  8
1
  6
Continuous
100
AcDbLine
 10
32.35529299999999
 20
47.140569
 30
0.0
 11
32.35529299999999
 21
41.640569
 31
0.0
  0
LINE
  5
963C
330
9564
100
AcDbEntity
  8
4
  6
CENTER
 48
0.2
100
AcDbLine
 10
15.485428
 20
45.14056899999999
 30
0.0
 11
35.216087
 21
45.14056899999999
 31
0.0
  0
LINE
  5
963D
330
9564
100
AcDbEntity
  8
1
  6
Continuous
100
AcDbLine
 10
33.65529199999999
 20
46.640569
 30
0.0
 11
33.65529199999999
 21
45.890569
 31
0.0
  0
LINE
  5
963E
330
9564
100
AcDbEntity
  8
1
  6
Continuous
100
AcDbLine
 10
16.65529199999999
 20
46.640569
 30
0.0
 11
16.65529199999999
 21
45.890569
 31
0.0
  0
LINE
  5
963F
330
9564
100
AcDbEntity
  8
1
  6
Continuous
100
AcDbLine
 10
16.65529199999999
 20
46.640569
 30
0.0
 11
17.15529199999999
 21
46.640569
 31
0.0
  0
LINE
  5
9640
330
9564
100
AcDbEntity
  8
1
  6
Continuous
100
AcDbLine
 10
33.15529199999998
 20
46.640569
 30
0.0
 11
33.65529199999999
 21
46.640569
 31
0.0
  0
LINE
  5
9641
330
9564
100
AcDbEntity
  8
1
  6
Continuous
100
AcDbLine
 10
14.905292
 20
45.890569
 30
0.0
 11
17.15529199999999
 21
45.890569
 31
0.0
  0
LINE
  5
9642
330
9564
100
AcDbEntity
  8
4
  6
CENTER
 48
0.5
100
AcDbLine
 10
11.88320299999998
 20
44.640569
 30
0.0
 11
38.77356699999999
 21
44.640569
 31
0.0
  0
LINE
  5
9643
330
9564
100
AcDbEntity
  8
1
  6
Continuous
100
AcDbLine
 10
27.655292
 20
45.890569
 30
0.0
 11
30.905292
 21
45.890569
 31
0.0
  0
LINE
  5
9644
330
9564
100
AcDbEntity
  8
1
  6
Continuous
100
AcDbLine
 10
18.40529199999998
 20
46.39056899999999
 30
0.0
 11
18.40529199999998
 21
41.640569
 31
0.0
  0
LINE
  5
9645
330
9564
100
AcDbEntity
  8
1
  6
Continuous
100
AcDbLine
 10
19.405292
 20
46.39056899999999
 30
0.0
 11
19.405292
 21
41.640569
 31
0.0
  0
LINE
  5
9646
330
9564
100
AcDbEntity
  8
1
  6
Continuous
100
AcDbLine
 10
301.5632549999999
 20
109.6596729999999
 30
0.0
 11
287.8747789999998
 21
104.640562
 31
0.0
  0
LINE
  5
9647
330
9564
100
AcDbEntity
  8
1
  6
Continuous
100
AcDbLine
 10
274.1862719999999
 20
109.659681
 30
0.0
 11
287.8747789999998
 21
104.640562
 31
0.0
  0
LINE
  5
9648
330
9564
100
AcDbEntity
  8
1
  6
Continuous
100
AcDbLine
 10
27.655292
 20
43.390569
 30
0.0
 11
30.905292
 21
43.390569
 31
0.0
  0
LINE
  5
9649
330
9564
100
AcDbEntity
  8
1
  6
Continuous
100
AcDbLine
 10
14.905292
 20
43.390569
 30
0.0
 11
17.15529199999999
 21
43.390569
 31
0.0
  0
LINE
  5
964A
330
9564
100
AcDbEntity
  8
1
  6
Continuous
100
AcDbLine
 10
27.655292
 20
45.890569
 30
0.0
 11
27.655292
 21
43.390569
 31
0.0
  0
LINE
  5
964B
330
9564
100
AcDbEntity
  8
1
  6
Continuous
100
AcDbLine
 10
22.655292
 20
45.890569
 30
0.0
 11
22.655292
 21
43.390569
 31
0.0
  0
LINE
  5
964C
330
9564
100
AcDbEntity
  8
1
  6
Continuous
100
AcDbLine
 10
17.955292
 20
43.390569
 30
0.0
 11
18.40529199999998
 21
43.390569
 31
0.0
  0
LINE
  5
964D
330
9564
100
AcDbEntity
  8
1
  6
Continuous
100
AcDbLine
 10
19.405292
 20
43.390569
 30
0.0
 11
22.655292
 21
43.390569
 31
0.0
  0
LINE
  5
964E
330
9564
100
AcDbEntity
  8
1
  6
Continuous
100
AcDbLine
 10
31.905292
 20
43.390569
 30
0.0
 11
32.35529299999999
 21
43.390569
 31
0.0
  0
LINE
  5
964F
330
9564
100
AcDbEntity
  8
1
  6
Continuous
100
AcDbLine
 10
33.15529199999998
 20
43.390569
 30
0.0
 11
35.40529199999999
 21
43.390569
 31
0.0
  0
LINE
  5
9650
330
9564
100
AcDbEntity
  8
1
  6
Continuous
100
AcDbLine
 10
166.015037
 20
112.1405769999999
 30
0.0
 11
165.015037
 21
104.779737
 31
0.0
  0
LINE
  5
9651
330
9564
100
AcDbEntity
  8
1
  6
Continuous
100
AcDbLine
 10
167.024223
 20
112.140569
 30
0.0
 11
166.005318
 21
104.640569
 31
0.0
  0
LINE
  5
9652
330
9564
100
AcDbEntity
  8
1
  6
Continuous
100
AcDbLine
 10
165.015037
 20
104.779737
 30
0.0
 11
166.005318
 21
104.640562
 31
0.0
  0
LINE
  5
9653
330
9564
100
AcDbEntity
  8
1
  6
Continuous
100
AcDbLine
 10
164.015037
 20
127.1405689999999
 30
0.0
 11
166.015037
 21
112.140569
 31
0.0
  0
LINE
  5
9654
330
9564
100
AcDbEntity
  8
1
  6
Continuous
100
AcDbLine
 10
171.124336
 20
126.070776
 30
0.0
 11
172.515037
 21
115.6405689999999
 31
0.0
  0
LINE
  5
9655
330
9564
100
AcDbEntity
  8
1
  6
Continuous
100
AcDbLine
 10
168.265037
 20
127.707235
 30
0.0
 11
164.015037
 21
127.1405689999999
 31
0.0
  0
LINE
  5
9656
330
9564
100
AcDbEntity
  8
1
  6
Continuous
100
AcDbLine
 10
172.515037
 20
115.6405689999999
 30
0.0
 11
167.024223
 21
112.140569
 31
0.0
  0
LINE
  5
9657
330
9564
100
AcDbEntity
  8
1
  6
Continuous
100
AcDbLine
 10
168.113121
 20
128.2386379999999
 30
0.0
 11
168.265037
 21
128.1509299999999
 31
0.0
  0
LINE
  5
9658
330
9564
100
AcDbEntity
  8
1
  6
Continuous
100
AcDbLine
 10
283.3747789999998
 20
125.713781
 30
0.0
 11
292.3747789999998
 21
125.713781
 31
0.0
  0
LINE
  5
9659
330
9564
100
AcDbEntity
  8
1
  6
Continuous
100
AcDbLine
 10
17.95529499999998
 20
133.640569
 30
0.0
 11
17.95529499999998
 21
127.1405689999999
 31
0.0
  0
LINE
  5
965A
330
9564
100
AcDbEntity
  8
1
  6
Continuous
100
AcDbLine
 10
17.95529499999998
 20
133.640569
 30
0.0
 11
17.30233799999998
 21
133.640569
 31
0.0
  0
LINE
  5
965B
330
9564
100
AcDbEntity
  8
1
  6
Continuous
100
AcDbLine
 10
172.493873
 20
133.5113269999999
 30
0.0
 11
171.4509349999999
 21
127.1405689999999
 31
0.0
  0
LINE
  5
965C
330
9564
100
AcDbEntity
  8
1
  6
Continuous
100
AcDbLine
 10
171.704384
 20
133.640569
 30
0.0
 11
170.765037
 21
127.902624
 31
0.0
  0
LINE
  5
965D
330
9564
100
AcDbEntity
  8
1
  6
Continuous
100
AcDbLine
 10
172.493873
 20
133.5113269999999
 30
0.0
 11
171.704384
 21
133.640569
 31
0.0
  0
LINE
  5
965E
330
9564
100
AcDbEntity
  8
1
  6
Continuous
100
AcDbLine
 10
283.3747789999998
 20
126.5797939999997
 30
0.0
 11
292.3747789999998
 21
126.5797939999997
 31
0.0
  0
LINE
  5
965F
330
9564
100
AcDbEntity
  8
1
  6
Continuous
100
AcDbLine
 10
290.374779
 20
119.6405689999999
 30
0.0
 11
290.374779
 21
117.6405689999999
 31
0.0
  0
LINE
  5
9660
330
9564
100
AcDbEntity
  8
1
  6
Continuous
100
AcDbLine
 10
285.3747789999999
 20
119.6405689999999
 30
0.0
 11
285.3747789999999
 21
117.6405689999999
 31
0.0
  0
LINE
  5
9661
330
9564
100
AcDbEntity
  8
1
  6
Continuous
100
AcDbLine
 10
295.788994
 20
119.6405689999999
 30
0.0
 11
290.374779
 21
119.6405689999999
 31
0.0
  0
LINE
  5
9662
330
9564
100
AcDbEntity
  8
1
  6
Continuous
100
AcDbLine
 10
285.3747789999999
 20
119.6405689999999
 30
0.0
 11
279.9605639999999
 21
119.6405689999999
 31
0.0
  0
LINE
  5
9663
330
9564
100
AcDbEntity
  8
1
  6
Continuous
100
AcDbLine
 10
18.155292
 20
186.640569
 30
0.0
 11
32.15529199999998
 21
186.640569
 31
0.0
  0
LINE
  5
9664
330
9564
100
AcDbEntity
  8
1
  6
Continuous
100
AcDbLine
 10
18.155292
 20
194.890569
 30
0.0
 11
18.155292
 21
195.1405689999999
 31
0.0
  0
LINE
  5
9665
330
9564
100
AcDbEntity
  8
1
  6
Continuous
100
AcDbLine
 10
18.155292
 20
187.640569
 30
0.0
 11
18.155292
 21
192.3905689999999
 31
0.0
  0
LINE
  5
9666
330
9564
100
AcDbEntity
  8
1
  6
Continuous
100
AcDbLine
 10
18.155292
 20
187.640569
 30
0.0
 11
20.65529199999998
 21
187.640569
 31
0.0
  0
LINE
  5
9667
330
9564
100
AcDbEntity
  8
1
  6
Continuous
100
AcDbLine
 10
32.15529199999998
 20
194.890569
 30
0.0
 11
32.15529199999998
 21
195.1405689999999
 31
0.0
  0
LINE
  5
9668
330
9564
100
AcDbEntity
  8
1
  6
Continuous
100
AcDbLine
 10
32.15529199999998
 20
187.640569
 30
0.0
 11
32.15529199999998
 21
192.3905689999999
 31
0.0
  0
LINE
  5
9669
330
9564
100
AcDbEntity
  8
1
  6
Continuous
100
AcDbLine
 10
29.655292
 20
187.640569
 30
0.0
 11
32.15529199999998
 21
187.640569
 31
0.0
  0
LINE
  5
966A
330
9564
100
AcDbEntity
  8
1
  6
Continuous
100
AcDbLine
 10
18.155292
 20
50.14056899999999
 30
0.0
 11
32.15529199999998
 21
50.14056899999999
 31
0.0
  0
LINE
  5
966B
330
9564
100
AcDbEntity
  8
1
  6
Continuous
100
AcDbLine
 10
33.15529199999998
 20
47.140569
 30
0.0
 11
17.15529199999999
 21
47.140569
 31
0.0
  0
LINE
  5
966C
330
9564
100
AcDbEntity
  8
1
  6
Continuous
100
AcDbLine
 10
17.955292
 20
45.890569
 30
0.0
 11
18.40529199999998
 21
45.890569
 31
0.0
  0
LINE
  5
966D
330
9564
100
AcDbEntity
  8
1
  6
Continuous
100
AcDbLine
 10
19.405292
 20
45.890569
 30
0.0
 11
22.655292
 21
45.890569
 31
0.0
  0
LINE
  5
966E
330
9564
100
AcDbEntity
  8
1
  6
Continuous
100
AcDbLine
 10
33.15529199999998
 20
45.890569
 30
0.0
 11
35.40529199999999
 21
45.890569
 31
0.0
  0
LINE
  5
966F
330
9564
100
AcDbEntity
  8
1
  6
Continuous
100
AcDbLine
 10
31.905292
 20
45.890569
 30
0.0
 11
32.35529299999999
 21
45.890569
 31
0.0
  0
LINE
  5
9670
330
9564
100
AcDbEntity
  8
4
  6
CENTER
 48
0.5
100
AcDbLine
 10
277.067955
 20
124.640569
 30
0.0
 11
298.448356
 21
124.640569
 31
0.0
  0
LINE
  5
9671
330
9564
100
AcDbEntity
  8
1
  6
Continuous
100
AcDbLine
 10
17.955292
 20
46.39056899999999
 30
0.0
 11
32.35529299999999
 21
46.39056899999999
 31
0.0
  0
LINE
  5
9672
330
9564
100
AcDbEntity
  8
1
  6
Continuous
100
AcDbLine
 10
30.061546
 20
46.39056899999999
 30
0.0
 11
29.993839
 21
45.890569
 31
0.0
  0
LINE
  5
9673
330
9564
100
AcDbEntity
  8
1
  6
Continuous
100
AcDbLine
 10
21.394882
 20
46.390573
 30
0.0
 11
21.327171
 21
45.890566
 31
0.0
  0
LINE
  5
9674
330
9564
100
AcDbEntity
  8
1
  6
Continuous
100
AcDbLine
 10
20.58757799999998
 20
46.39056899999999
 30
0.0
 11
20.51987099999998
 21
45.890569
 31
0.0
  0
LINE
  5
9675
330
9564
100
AcDbEntity
  8
1
  6
Continuous
100
AcDbLine
 10
22.26154699999999
 20
46.39056899999999
 30
0.0
 11
22.19383999999999
 21
45.890569
 31
0.0
  0
LINE
  5
9676
330
9564
100
AcDbEntity
  8
1
  6
Continuous
100
AcDbLine
 10
21.45424299999998
 20
46.390573
 30
0.0
 11
21.386536
 21
45.89057299999999
 31
0.0
  0
LINE
  5
9677
330
9564
100
AcDbEntity
  8
1
  6
Continuous
100
AcDbLine
 10
23.12821199999999
 20
46.390573
 30
0.0
 11
22.73500799999998
 21
43.486887
 31
0.0
  0
LINE
  5
9678
330
9564
100
AcDbEntity
  8
1
  6
Continuous
100
AcDbLine
 10
22.32091099999999
 20
46.39056899999999
 30
0.0
 11
22.253204
 21
45.890569
 31
0.0
  0
LINE
  5
9679
330
9564
100
AcDbEntity
  8
1
  6
Continuous
100
AcDbLine
 10
23.994881
 20
46.39056899999999
 30
0.0
 11
23.60167699999999
 21
43.486887
 31
0.0
  0
LINE
  5
967A
330
9564
100
AcDbEntity
  8
1
  6
Continuous
100
AcDbLine
 10
23.18758
 20
46.39056899999999
 30
0.0
 11
22.80891
 21
43.59423999999999
 31
0.0
  0
LINE
  5
967B
330
9564
100
AcDbEntity
  8
1
  6
Continuous
100
AcDbLine
 10
24.861545
 20
46.390573
 30
0.0
 11
24.468338
 21
43.486887
 31
0.0
  0
LINE
  5
967C
330
9564
100
AcDbEntity
  8
1
  6
Continuous
100
AcDbLine
 10
24.054245
 20
46.39056599999999
 30
0.0
 11
23.67557499999999
 21
43.59423999999999
 31
0.0
  0
LINE
  5
967D
330
9564
100
AcDbEntity
  8
1
  6
Continuous
100
AcDbLine
 10
25.728214
 20
46.39056599999999
 30
0.0
 11
25.335007
 21
43.486887
 31
0.0
  0
LINE
  5
967E
330
9564
100
AcDbEntity
  8
1
  6
Continuous
100
AcDbLine
 10
24.920914
 20
46.39056899999999
 30
0.0
 11
24.542244
 21
43.59423999999999
 31
0.0
  0
LINE
  5
967F
330
9564
100
AcDbEntity
  8
1
  6
Continuous
100
AcDbLine
 10
26.594883
 20
46.39056899999999
 30
0.0
 11
26.201675
 21
43.486887
 31
0.0
  0
LINE
  5
9680
330
9564
100
AcDbEntity
  8
1
  6
Continuous
100
AcDbLine
 10
25.78757799999999
 20
46.39056599999999
 30
0.0
 11
25.408913
 21
43.59423999999999
 31
0.0
  0
LINE
  5
9681
330
9564
100
AcDbEntity
  8
1
  6
Continuous
100
AcDbLine
 10
27.46154399999999
 20
46.39056599999999
 30
0.0
 11
27.06834000000001
 21
43.48689
 31
0.0
  0
LINE
  5
9682
330
9564
100
AcDbEntity
  8
1
  6
Continuous
100
AcDbLine
 10
26.654243
 20
46.39056899999999
 30
0.0
 11
26.275577
 21
43.59423999999999
 31
0.0
  0
LINE
  5
9683
330
9564
100
AcDbEntity
  8
1
  6
Continuous
100
AcDbLine
 10
28.328213
 20
46.39056899999999
 30
0.0
 11
28.260506
 21
45.890569
 31
0.0
  0
LINE
  5
9684
330
9564
100
AcDbEntity
  8
1
  6
Continuous
100
AcDbLine
 10
27.520912
 20
46.390573
 30
0.0
 11
27.142246
 21
43.59423999999999
 31
0.0
  0
LINE
  5
9685
330
9564
100
AcDbEntity
  8
1
  6
Continuous
100
AcDbLine
 10
29.194881
 20
46.390573
 30
0.0
 11
29.127174
 21
45.890566
 31
0.0
  0
LINE
  5
9686
330
9564
100
AcDbEntity
  8
1
  6
Continuous
100
AcDbLine
 10
28.387577
 20
46.39056899999999
 30
0.0
 11
28.31987
 21
45.890569
 31
0.0
  0
LINE
  5
9687
330
9564
100
AcDbEntity
  8
1
  6
Continuous
100
AcDbLine
 10
292.8247909999999
 20
127.1405689999999
 30
0.0
 11
292.3747789999998
 21
127.1405689999999
 31
0.0
  0
LINE
  5
9688
330
9564
100
AcDbEntity
  8
1
  6
Continuous
100
AcDbLine
 10
282.9247659999998
 20
125.8905689999999
 30
0.0
 11
283.3070599999998
 21
125.8905689999999
 31
0.0
  0
LINE
  5
9689
330
9564
100
AcDbEntity
  8
1
  6
Continuous
100
AcDbLine
 10
282.9247659999998
 20
126.240575
 30
0.0
 11
282.9247659999998
 21
119.6405689999999
 31
0.0
  0
LINE
  5
968A
330
9564
100
AcDbEntity
  8
1
  6
Continuous
100
AcDbLine
 10
282.912834
 20
126.3375909999999
 30
0.0
 11
283.024589
 21
125.8905689999999
 31
0.0
  0
LINE
  5
968B
330
9564
100
AcDbEntity
  8
1
  6
Continuous
100
AcDbLine
 10
283.361717
 20
126.294256
 30
0.0
 11
282.9283979999999
 21
123.0942439999999
 31
0.0
  0
LINE
  5
968C
330
9564
100
AcDbEntity
  8
1
  6
Continuous
100
AcDbLine
 10
284.0904459999998
 20
125.713781
 30
0.0
 11
283.7211529999999
 21
122.986898
 31
0.0
  0
LINE
  5
968D
330
9564
100
AcDbEntity
  8
1
  6
Continuous
100
AcDbLine
 10
284.149773
 20
125.713796
 30
0.0
 11
283.7950359999998
 21
123.094228
 31
0.0
  0
LINE
  5
968E
330
9564
100
AcDbEntity
  8
1
  6
Continuous
100
AcDbLine
 10
285.016472
 20
125.713781
 30
0.0
 11
284.661735
 21
123.094228
 31
0.0
  0
LINE
  5
968F
330
9564
100
AcDbEntity
  8
1
  6
Continuous
100
AcDbLine
 10
284.957085
 20
125.713781
 30
0.0
 11
284.587822
 21
122.986883
 31
0.0
  0
LINE
  5
9690
330
9564
100
AcDbEntity
  8
1
  6
Continuous
100
AcDbLine
 10
285.8831399999999
 20
125.713781
 30
0.0
 11
285.528404
 21
123.0942439999999
 31
0.0
  0
LINE
  5
9691
330
9564
100
AcDbEntity
  8
1
  6
Continuous
100
AcDbLine
 10
285.8237529999998
 20
125.713781
 30
0.0
 11
285.454491
 21
122.986883
 31
0.0
  0
LINE
  5
9692
330
9564
100
AcDbEntity
  8
1
  6
Continuous
100
AcDbLine
 10
286.7498089999999
 20
125.713781
 30
0.0
 11
286.395073
 21
123.0942439999999
 31
0.0
  0
LINE
  5
9693
330
9564
100
AcDbEntity
  8
1
  6
Continuous
100
AcDbLine
 10
286.690422
 20
125.713781
 30
0.0
 11
286.3211589999999
 21
122.986883
 31
0.0
  0
LINE
  5
9694
330
9564
100
AcDbEntity
  8
1
  6
Continuous
100
AcDbLine
 10
289.2904279999999
 20
125.713781
 30
0.0
 11
288.9211649999998
 21
122.986883
 31
0.0
  0
LINE
  5
9695
330
9564
100
AcDbEntity
  8
1
  6
Continuous
100
AcDbLine
 10
290.157097
 20
125.713781
 30
0.0
 11
289.787804
 21
122.986883
 31
0.0
  0
LINE
  5
9696
330
9564
100
AcDbEntity
  8
1
  6
Continuous
100
AcDbLine
 10
289.349785
 20
125.713781
 30
0.0
 11
288.9950479999999
 21
123.0942439999999
 31
0.0
  0
LINE
  5
9697
330
9564
100
AcDbEntity
  8
1
  6
Continuous
100
AcDbLine
 10
291.023735
 20
125.713781
 30
0.0
 11
290.6544719999999
 21
122.986883
 31
0.0
  0
LINE
  5
9698
330
9564
100
AcDbEntity
  8
1
  6
Continuous
100
AcDbLine
 10
290.2164529999998
 20
125.713781
 30
0.0
 11
289.8617169999998
 21
123.0942439999999
 31
0.0
  0
LINE
  5
9699
330
9564
100
AcDbEntity
  8
1
  6
Continuous
100
AcDbLine
 10
291.8904339999999
 20
125.713781
 30
0.0
 11
291.5211709999998
 21
122.986883
 31
0.0
  0
LINE
  5
969A
330
9564
100
AcDbEntity
  8
1
  6
Continuous
100
AcDbLine
 10
291.083122
 20
125.713781
 30
0.0
 11
290.728386
 21
123.0942439999999
 31
0.0
  0
LINE
  5
969B
330
9564
100
AcDbEntity
  8
1
  6
Continuous
100
AcDbLine
 10
287.557091
 20
125.713781
 30
0.0
 11
287.1878279999999
 21
122.986898
 31
0.0
  0
LINE
  5
969C
330
9564
100
AcDbEntity
  8
1
  6
Continuous
100
AcDbLine
 10
287.6164779999998
 20
125.713781
 30
0.0
 11
287.2617409999998
 21
123.0942439999999
 31
0.0
  0
LINE
  5
969D
330
9564
100
AcDbEntity
  8
1
  6
Continuous
100
AcDbLine
 10
288.4237589999999
 20
125.713781
 30
0.0
 11
288.054497
 21
122.986898
 31
0.0
  0
LINE
  5
969E
330
9564
100
AcDbEntity
  8
1
  6
Continuous
100
AcDbLine
 10
288.483116
 20
125.713781
 30
0.0
 11
288.1284099999998
 21
123.094228
 31
0.0
  0
LINE
  5
969F
330
9564
100
AcDbEntity
  8
1
  6
Continuous
100
AcDbLine
 10
292.8211589999999
 20
126.18691
 30
0.0
 11
292.3878399999998
 21
122.986898
 31
0.0
  0
LINE
  5
96A0
330
9564
100
AcDbEntity
  8
1
  6
Continuous
100
AcDbLine
 10
291.949791
 20
125.713781
 30
0.0
 11
291.595054
 21
123.0942439999999
 31
0.0
  0
LINE
  5
96A1
330
9564
100
AcDbEntity
  8
1
  6
Continuous
100
AcDbLine
 10
292.442497
 20
123.390569
 30
0.0
 11
292.8247909999999
 21
123.390569
 31
0.0
  0
LINE
  5
96A2
330
9564
100
AcDbEntity
  8
1
  6
Continuous
100
AcDbLine
 10
292.8247909999999
 20
129.1405689999999
 30
0.0
 11
292.8247909999999
 21
123.0405629999999
 31
0.0
  0
LINE
  5
96A3
330
9564
100
AcDbEntity
  8
1
  6
Continuous
100
AcDbLine
 10
292.836723
 20
122.943548
 30
0.0
 11
292.724968
 21
123.390569
 31
0.0
  0
LINE
  5
96A4
330
9564
100
AcDbEntity
  8
1
  6
Continuous
100
AcDbLine
 10
29.25424599999999
 20
46.39056899999999
 30
0.0
 11
29.186539
 21
45.89057299999999
 31
0.0
  0
LINE
  5
96A5
330
9564
100
AcDbEntity
  8
1
  6
Continuous
100
AcDbLine
 10
30.10529299999999
 20
46.39056899999999
 30
0.0
 11
30.10529299999999
 21
45.890569
 31
0.0
  0
LINE
  5
96A6
330
9564
100
AcDbEntity
  8
1
  6
Continuous
100
AcDbLine
 10
20.20529199999999
 20
46.39056899999999
 30
0.0
 11
20.20529199999999
 21
45.890569
 31
0.0
  0
LINE
  5
96A7
330
9564
100
AcDbEntity
  8
1
  6
Continuous
100
AcDbLine
 10
30.10529299999999
 20
43.390569
 30
0.0
 11
30.10529299999999
 21
42.04057099999999
 31
0.0
  0
LINE
  5
96A8
330
9564
100
AcDbEntity
  8
1
  6
Continuous
100
AcDbLine
 10
20.20529199999999
 20
192.3905689999999
 30
0.0
 11
20.20529199999999
 21
191.0405629999999
 31
0.0
  0
LINE
  5
96A9
330
9564
100
AcDbEntity
  8
1
  6
Continuous
100
AcDbLine
 10
20.384453
 20
192.3905689999999
 30
0.0
 11
20.20890799999997
 21
191.094244
 31
0.0
  0
LINE
  5
96AA
330
9564
100
AcDbEntity
  8
1
  6
Continuous
100
AcDbLine
 10
30.10529299999999
 20
192.3905689999999
 30
0.0
 11
30.10529299999999
 21
191.0405629999999
 31
0.0
  0
LINE
  5
96AB
330
9564
100
AcDbEntity
  8
1
  6
Continuous
100
AcDbLine
 10
29.85842100000001
 20
192.3905689999999
 30
0.0
 11
29.655292
 21
190.8905239999999
 31
0.0
  0
LINE
  5
96AC
330
9564
100
AcDbEntity
  8
1
  6
Continuous
100
AcDbLine
 10
19.405292
 20
190.390569
 30
0.0
 11
20.65529199999998
 21
190.390569
 31
0.0
  0
LINE
  5
96AD
330
9564
100
AcDbEntity
  8
1
  6
Continuous
100
AcDbLine
 10
16.06877099999999
 20
194.6276149999999
 30
0.0
 11
14.138336
 21
193.12763
 31
0.0
  0
LINE
  5
96AE
330
9564
100
AcDbEntity
  8
1
  6
Continuous
100
AcDbLine
 10
17.26428999999998
 20
192.3905689999999
 30
0.0
 11
15.578701
 21
191.0808309999999
 31
0.0
  0
LINE
  5
96AF
330
9564
100
AcDbEntity
  8
1
  6
Continuous
100
AcDbLine
 10
17.26428999999998
 20
192.3905689999999
 30
0.0
 11
33.046295
 21
192.3905689999999
 31
0.0
  0
LINE
  5
96B0
330
9564
100
AcDbEntity
  8
1
  6
Continuous
100
AcDbLine
 10
33.04629099999999
 20
192.3905689999999
 30
0.0
 11
34.73188799999999
 21
191.080816
 31
0.0
  0
LINE
  5
96B1
330
9564
100
AcDbEntity
  8
1
  6
Continuous
100
AcDbLine
 10
35.40529199999999
 20
190.890569
 30
0.0
 11
33.65529199999999
 21
190.890569
 31
0.0
  0
LINE
  5
96B2
330
9564
100
AcDbEntity
  8
1
  6
Continuous
100
AcDbLine
 10
34.241817
 20
194.6276149999999
 30
0.0
 11
36.17225299999999
 21
193.127615
 31
0.0
  0
LINE
  5
96B3
330
9564
100
AcDbEntity
  8
1
  6
Continuous
100
AcDbLine
 10
16.06877099999999
 20
42.15352
 30
0.0
 11
14.138332
 21
43.65352
 31
0.0
  0
LINE
  5
96B4
330
9564
100
AcDbEntity
  8
1
  6
Continuous
100
AcDbLine
 10
16.835731
 20
41.89056899999999
 30
0.0
 11
17.15529199999999
 21
41.89056899999999
 31
0.0
  0
LINE
  5
96B5
330
9564
100
AcDbEntity
  8
1
  6
Continuous
100
AcDbLine
 10
34.241814
 20
42.15351599999999
 30
0.0
 11
36.17225599999999
 21
43.65352
 31
0.0
  0
LINE
  5
96B6
330
9564
100
AcDbEntity
  8
1
  6
Continuous
100
AcDbLine
 10
17.955292
 20
41.89056899999999
 30
0.0
 11
18.40529199999998
 21
41.89056899999999
 31
0.0
  0
LINE
  5
96B7
330
9564
100
AcDbEntity
  8
1
  6
Continuous
100
AcDbLine
 10
19.405292
 20
41.89056899999999
 30
0.0
 11
30.134483
 21
41.89056899999999
 31
0.0
  0
LINE
  5
96B8
330
9564
100
AcDbEntity
  8
1
  6
Continuous
100
AcDbLine
 10
31.905292
 20
41.89056899999999
 30
0.0
 11
32.35529299999999
 21
41.89056899999999
 31
0.0
  0
LINE
  5
96B9
330
9564
100
AcDbEntity
  8
1
  6
Continuous
100
AcDbLine
 10
33.15529199999998
 20
41.89056899999999
 30
0.0
 11
33.47485300000001
 21
41.89056899999999
 31
0.0
  0
ARC
  5
96BA
330
9564
100
AcDbEntity
  8
1
  6
Continuous
100
AcDbCircle
 10
91.65529600000001
 20
145.1405689999999
 30
0.0
 40
1.5
100
AcDbArc
 50
90.00000300000001
 51
180.000005
  0
ARC
  5
96BB
330
9564
100
AcDbEntity
  8
1
  6
Continuous
100
AcDbCircle
 10
91.65529600000001
 20
140.1405689999999
 30
0.0
 40
1.5
100
AcDbArc
 50
179.9999909999999
 51
270.000001
  0
ARC
  5
96BC
330
9564
100
AcDbEntity
  8
1
  6
Continuous
100
AcDbCircle
 10
118.6552959999997
 20
140.1405689999999
 30
0.0
 40
1.5
100
AcDbArc
 50
269.9999969999999
 51
0.0
  0
ARC
  5
96BD
330
9564
100
AcDbEntity
  8
1
  6
Continuous
100
AcDbCircle
 10
118.6552959999997
 20
145.1405689999999
 30
0.0
 40
1.5
100
AcDbArc
 50
0.0
 51
90.00000300000001
  0
CIRCLE
  5
96BE
330
9564
100
AcDbEntity
  8
1
  6
Continuous
100
AcDbCircle
 10
117.1552959999997
 20
142.6405689999999
 30
0.0
 40
1.6
  0
CIRCLE
  5
96BF
330
9564
100
AcDbEntity
  8
1
  6
Continuous
100
AcDbCircle
 10
93.15529600000001
 20
142.6405689999999
 30
0.0
 40
1.6
  0
ARC
  5
96C0
330
9564
100
AcDbEntity
  8
1
  6
Continuous
100
AcDbCircle
 10
99.65529600000001
 20
138.140569
 30
0.0
 40
1.5
100
AcDbArc
 50
90.00000300000001
 51
180.000005
  0
ARC
  5
96C1
330
9564
100
AcDbEntity
  8
1
  6
Continuous
100
AcDbCircle
 10
110.6552959999997
 20
138.140569
 30
0.0
 40
1.5
100
AcDbArc
 50
0.0
 51
90.00000300000001
  0
ARC
  5
96C2
330
9564
100
AcDbEntity
  8
1
  6
Continuous
100
AcDbCircle
 10
99.65529600000001
 20
137.3921559999998
 30
0.0
 40
1.5
100
AcDbArc
 50
90.00000300000001
 51
180.000005
  0
ARC
  5
96C3
330
9564
100
AcDbEntity
  8
1
  6
Continuous
100
AcDbCircle
 10
110.6552959999997
 20
137.3921559999998
 30
0.0
 40
1.5
100
AcDbArc
 50
0.0
 51
90.00000300000001
  0
ARC
  5
96C4
330
9564
100
AcDbEntity
  8
1
  6
Continuous
100
AcDbCircle
 10
12.155294
 20
132.640569
 30
0.0
 40
2.0
100
AcDbArc
 50
90.00000300000001
 51
180.000005
  0
ARC
  5
96C5
330
9564
100
AcDbEntity
  8
1
  6
Continuous
100
AcDbCircle
 10
38.15529199999997
 20
132.640569
 30
0.0
 40
2.0
100
AcDbArc
 50
0.0
 51
90.00000300000001
  0
ARC
  5
96C6
330
9564
100
AcDbEntity
  8
1
  6
Continuous
100
AcDbCircle
 10
38.15529199999997
 20
111.5374429999999
 30
0.0
 40
2.0
100
AcDbArc
 50
290.136304
 51
0.0
  0
ARC
  5
96C7
330
9564
100
AcDbEntity
  8
1
  6
Continuous
100
AcDbCircle
 10
12.155294
 20
111.5374429999999
 30
0.0
 40
2.0
100
AcDbArc
 50
179.9999909999999
 51
249.8637009999999
  0
ARC
  5
96C8
330
9564
100
AcDbEntity
  8
1
  6
Continuous
100
AcDbCircle
 10
37.15529199999997
 20
129.640569
 30
0.0
 40
1.6
100
AcDbArc
 50
225.808844
 51
145.7082479999999
  0
CIRCLE
  5
96C9
330
9564
100
AcDbEntity
  8
1
  6
Continuous
100
AcDbCircle
 10
37.15529199999997
 20
112.140569
 30
0.0
 40
1.6
  0
CIRCLE
  5
96CA
330
9564
100
AcDbEntity
  8
1
  6
Continuous
100
AcDbCircle
 10
13.155296
 20
112.140569
 30
0.0
 40
1.6
  0
ARC
  5
96CB
330
9564
100
AcDbEntity
  8
1
  6
Continuous
100
AcDbCircle
 10
13.155296
 20
129.640569
 30
0.0
 40
1.6
100
AcDbArc
 50
34.29175
 51
314.1911609999999
  0
ARC
  5
96CC
330
9564
100
AcDbEntity
  8
1
  6
Continuous
100
AcDbCircle
 10
25.155292
 20
113.7797449999998
 30
0.0
 40
9.0
100
AcDbArc
 50
207.2660689999999
 51
332.733955
  0
ARC
  5
96CD
330
9564
100
AcDbEntity
  8
1
  6
Continuous
100
AcDbCircle
 10
18.155292
 20
128.1405689999999
 30
0.0
 40
1.0
100
AcDbArc
 50
90.00000300000001
 51
101.536738
  0
ARC
  5
96CE
330
9564
100
AcDbEntity
  8
1
  6
Continuous
100
AcDbCircle
 10
32.15529199999998
 20
128.1405689999999
 30
0.0
 40
1.0
100
AcDbArc
 50
269.9999969999999
 51
90.00000300000001
  0
ARC
  5
96CF
330
9564
100
AcDbEntity
  8
1
  6
Continuous
100
AcDbCircle
 10
18.655292
 20
122.140569
 30
0.0
 40
5.0
100
AcDbArc
 50
174.2414589999999
 51
252.542392
  0
ARC
  5
96D0
330
9564
100
AcDbEntity
  8
1
  6
Continuous
100
AcDbCircle
 10
31.65529199999999
 20
122.140569
 30
0.0
 40
5.0
100
AcDbArc
 50
287.4576059999998
 51
5.758543999999997
  0
ARC
  5
96D1
330
9564
100
AcDbEntity
  8
1
  6
Continuous
100
AcDbCircle
 10
31.65529199999999
 20
122.140569
 30
0.0
 40
2.5
100
AcDbArc
 50
306.8698979999998
 51
5.758543999999997
  0
ARC
  5
96D2
330
9564
100
AcDbEntity
  8
1
  6
Continuous
100
AcDbCircle
 10
18.655292
 20
122.140569
 30
0.0
 40
2.5
100
AcDbArc
 50
174.2414589999999
 51
233.1300929999999
  0
ARC
  5
96D3
330
9564
100
AcDbEntity
  8
1
  6
Continuous
100
AcDbCircle
 10
19.915859
 20
135.1405689999999
 30
0.0
 40
2.5
100
AcDbArc
 50
90.00000300000001
 51
174.2414589999999
  0
ARC
  5
96D4
330
9564
100
AcDbEntity
  8
1
  6
Continuous
100
AcDbCircle
 10
30.39472599999999
 20
135.1405689999999
 30
0.0
 40
2.5
100
AcDbArc
 50
5.758543999999997
 51
90.00000300000001
  0
ARC
  5
96D5
330
9564
100
AcDbEntity
  8
1
  6
Continuous
100
AcDbCircle
 10
19.915859
 20
135.1405689999999
 30
0.0
 40
5.0
100
AcDbArc
 50
90.00000300000001
 51
174.2414589999999
  0
ARC
  5
96D6
330
9564
100
AcDbEntity
  8
1
  6
Continuous
100
AcDbCircle
 10
30.39472599999999
 20
135.1405689999999
 30
0.0
 40
5.0
100
AcDbArc
 50
5.758543999999997
 51
90.00000300000001
  0
ARC
  5
96D7
330
9564
100
AcDbEntity
  8
1
  6
Continuous
100
AcDbCircle
 10
344.3747789999998
 20
145.1405689999999
 30
0.0
 40
1.5
100
AcDbArc
 50
90.00000300000001
 51
180.000005
  0
ARC
  5
96D8
330
9564
100
AcDbEntity
  8
1
  6
Continuous
100
AcDbCircle
 10
344.3747789999998
 20
140.1405689999999
 30
0.0
 40
1.5
100
AcDbArc
 50
179.9999909999999
 51
270.000001
  0
ARC
  5
96D9
330
9564
100
AcDbEntity
  8
1
  6
Continuous
100
AcDbCircle
 10
371.3747789999998
 20
140.1405689999999
 30
0.0
 40
1.5
100
AcDbArc
 50
269.9999969999999
 51
0.0
  0
ARC
  5
96DA
330
9564
100
AcDbEntity
  8
1
  6
Continuous
100
AcDbCircle
 10
371.3747789999998
 20
145.1405689999999
 30
0.0
 40
1.5
100
AcDbArc
 50
0.0
 51
90.00000300000001
  0
CIRCLE
  5
96DB
330
9564
100
AcDbEntity
  8
1
  6
Continuous
100
AcDbCircle
 10
369.874779
 20
142.6405689999999
 30
0.0
 40
1.6
  0
CIRCLE
  5
96DC
330
9564
100
AcDbEntity
  8
1
  6
Continuous
100
AcDbCircle
 10
345.8747789999998
 20
142.6405689999999
 30
0.0
 40
1.6
  0
ARC
  5
96DD
330
9564
100
AcDbEntity
  8
1
  6
Continuous
100
AcDbCircle
 10
300.874779
 20
132.640569
 30
0.0
 40
2.0
100
AcDbArc
 50
0.0
 51
90.00000300000001
  0
ARC
  5
96DE
330
9564
100
AcDbEntity
  8
1
  6
Continuous
100
AcDbCircle
 10
274.8747789999999
 20
132.640569
 30
0.0
 40
2.0
100
AcDbArc
 50
90.00000300000001
 51
180.000005
  0
ARC
  5
96DF
330
9564
100
AcDbEntity
  8
1
  6
Continuous
100
AcDbCircle
 10
274.8747789999999
 20
111.5374429999999
 30
0.0
 40
2.0
100
AcDbArc
 50
179.9999909999999
 51
249.8637009999999
  0
ARC
  5
96E0
330
9564
100
AcDbEntity
  8
1
  6
Continuous
100
AcDbCircle
 10
300.874779
 20
111.5374429999999
 30
0.0
 40
2.0
100
AcDbArc
 50
290.136304
 51
0.0
  0
CIRCLE
  5
96E1
330
9564
100
AcDbEntity
  8
1
  6
Continuous
100
AcDbCircle
 10
275.874779
 20
129.640569
 30
0.0
 40
1.6
  0
CIRCLE
  5
96E2
330
9564
100
AcDbEntity
  8
1
  6
Continuous
100
AcDbCircle
 10
275.874779
 20
112.140569
 30
0.0
 40
1.6
  0
CIRCLE
  5
96E3
330
9564
100
AcDbEntity
  8
1
  6
Continuous
100
AcDbCircle
 10
299.8747789999999
 20
112.140569
 30
0.0
 40
1.6
  0
CIRCLE
  5
96E4
330
9564
100
AcDbEntity
  8
1
  6
Continuous
100
AcDbCircle
 10
299.8747789999999
 20
129.640569
 30
0.0
 40
1.6
  0
ARC
  5
96E5
330
9564
100
AcDbEntity
  8
1
  6
Continuous
100
AcDbCircle
 10
287.8747789999998
 20
113.6405689999999
 30
0.0
 40
9.0
100
AcDbArc
 50
229.7273919999999
 51
310.272606
  0
ARC
  5
96E6
330
9564
100
AcDbEntity
  8
1
  6
Continuous
100
AcDbCircle
 10
294.874779
 20
128.1405689999999
 30
0.0
 40
1.0
100
AcDbArc
 50
269.9999969999999
 51
90.00000300000001
  0
ARC
  5
96E7
330
9564
100
AcDbEntity
  8
1
  6
Continuous
100
AcDbCircle
 10
280.8747789999998
 20
128.1405689999999
 30
0.0
 40
1.0
100
AcDbArc
 50
90.00000300000001
 51
270.000001
  0
ARC
  5
96E8
330
9564
100
AcDbEntity
  8
1
  6
Continuous
100
AcDbCircle
 10
293.11422
 20
135.1405689999999
 30
0.0
 40
2.5
100
AcDbArc
 50
5.758543999999997
 51
90.00000300000001
  0
ARC
  5
96E9
330
9564
100
AcDbEntity
  8
1
  6
Continuous
100
AcDbCircle
 10
282.635338
 20
135.1405689999999
 30
0.0
 40
2.5
100
AcDbArc
 50
90.00000300000001
 51
174.2414589999999
  0
ARC
  5
96EA
330
9564
100
AcDbEntity
  8
1
  6
Continuous
100
AcDbCircle
 10
293.11422
 20
135.1405689999999
 30
0.0
 40
5.0
100
AcDbArc
 50
5.758543999999997
 51
90.00000300000001
  0
ARC
  5
96EB
330
9564
100
AcDbEntity
  8
1
  6
Continuous
100
AcDbCircle
 10
282.635338
 20
135.1405689999999
 30
0.0
 40
5.0
100
AcDbArc
 50
90.00000300000001
 51
174.2414589999999
  0
ARC
  5
96EC
330
9564
100
AcDbEntity
  8
1
  6
Continuous
100
AcDbCircle
 10
294.3747789999998
 20
119.140569
 30
0.0
 40
1.5
100
AcDbArc
 50
269.9999969999999
 51
90.00000300000001
  0
ARC
  5
96ED
330
9564
100
AcDbEntity
  8
1
  6
Continuous
100
AcDbCircle
 10
281.3747789999998
 20
119.140569
 30
0.0
 40
1.5
100
AcDbArc
 50
90.00000300000001
 51
270.000001
  0
ARC
  5
96EE
330
9564
100
AcDbEntity
  8
1
  6
Continuous
100
AcDbCircle
 10
171.015037
 20
138.8905689999999
 30
0.0
 40
1.25
100
AcDbArc
 50
348.8754589999999
 51
168.875457
  0
ARC
  5
96EF
330
9564
100
AcDbEntity
  8
1
  6
Continuous
100
AcDbCircle
 10
225.015037
 20
139.1405689999999
 30
0.0
 40
2.5
100
AcDbArc
 50
228.961673
 51
0.0
  0
ARC
  5
96F0
330
9564
100
AcDbEntity
  8
1
  6
Continuous
100
AcDbCircle
 10
225.015037
 20
139.1405689999999
 30
0.0
 40
1.5
100
AcDbArc
 50
228.961673
 51
0.0
  0
ARC
  5
96F1
330
9564
100
AcDbEntity
  8
1
  6
Continuous
100
AcDbCircle
 10
169.515037
 20
118.390569
 30
0.0
 40
1.25
100
AcDbArc
 50
179.9999909999999
 51
0.00001
  0
ARC
  5
96F2
330
9564
100
AcDbEntity
  8
1
  6
Continuous
100
AcDbCircle
 10
169.015037
 20
124.640569
 30
0.0
 40
1.5
100
AcDbArc
 50
120.0000029999997
 51
240.0000069999999
  0
ARC
  5
96F3
330
9564
100
AcDbEntity
  8
1
  6
Continuous
100
AcDbCircle
 10
14.905292
 20
192.140569
 30
0.0
 40
1.25
100
AcDbArc
 50
127.8480959999999
 51
270.000001
  0
ARC
  5
96F4
330
9564
100
AcDbEntity
  8
1
  6
Continuous
100
AcDbCircle
 10
25.155292
 20
113.6405689999999
 30
0.0
 40
9.0
100
AcDbArc
 50
207.266042
 51
332.733955
  0
ARC
  5
96F5
330
9564
100
AcDbEntity
  8
1
  6
Continuous
100
AcDbCircle
 10
35.40529199999999
 20
44.640569
 30
0.0
 40
1.25
100
AcDbArc
 50
269.9999969999999
 51
90.00000300000001
  0
ARC
  5
96F6
330
9564
100
AcDbEntity
  8
1
  6
Continuous
100
AcDbCircle
 10
14.905292
 20
44.640569
 30
0.0
 40
1.25
100
AcDbArc
 50
90.00000300000001
 51
270.000001
  0
ARC
  5
96F7
330
9564
100
AcDbEntity
  8
1
  6
Continuous
100
AcDbCircle
 10
166.613121
 20
125.640569
 30
0.0
 40
3.0
100
AcDbArc
 50
60.000002
 51
149.999997
  0
ARC
  5
96F8
330
9564
100
AcDbEntity
  8
1
  6
Continuous
100
AcDbCircle
 10
166.613121
 20
125.640569
 30
0.0
 40
2.0
100
AcDbArc
 50
73.81552099999997
 51
121.3737729999999
  0
ARC
  5
96F9
330
9564
100
AcDbEntity
  8
1
  6
Continuous
100
AcDbCircle
 10
169.141884
 20
125.806448
 30
0.0
 40
2.0
100
AcDbArc
 50
7.594643999999997
 51
35.74989
  0
ARC
  5
96FA
330
9564
100
AcDbEntity
  8
1
  6
Continuous
100
AcDbCircle
 10
18.155292
 20
128.1405689999999
 30
0.0
 40
1.0
100
AcDbArc
 50
258.4632619999998
 51
269.9999969999999
  0
ARC
  5
96FB
330
9564
100
AcDbEntity
  8
1
  6
Continuous
100
AcDbCircle
 10
19.80529399999999
 20
194.740575
 30
0.0
 40
0.4
100
AcDbArc
 50
22.02336999999999
 51
157.9766339999999
  0
ARC
  5
96FC
330
9564
100
AcDbEntity
  8
1
  6
Continuous
100
AcDbCircle
 10
32.15529199999998
 20
187.640569
 30
0.0
 40
1.0
100
AcDbArc
 50
269.9999969999999
 51
0.0
  0
ARC
  5
96FD
330
9564
100
AcDbEntity
  8
1
  6
Continuous
100
AcDbCircle
 10
18.155292
 20
187.640569
 30
0.0
 40
1.0
100
AcDbArc
 50
179.9999909999999
 51
270.000001
  0
ARC
  5
96FE
330
9564
100
AcDbEntity
  8
1
  6
Continuous
100
AcDbCircle
 10
18.155292
 20
49.140569
 30
0.0
 40
1.0
100
AcDbArc
 50
90.00000300000001
 51
180.000005
  0
ARC
  5
96FF
330
9564
100
AcDbEntity
  8
1
  6
Continuous
100
AcDbCircle
 10
32.15529199999998
 20
49.140569
 30
0.0
 40
1.0
100
AcDbArc
 50
0.0
 51
90.00000300000001
  0
ARC
  5
9700
330
9564
100
AcDbEntity
  8
1
  6
Continuous
100
AcDbCircle
 10
25.155292
 20
32.140569
 30
0.0
 40
17.0
100
AcDbArc
 50
61.92751499999999
 51
118.072483
  0
ARC
  5
9701
330
9564
100
AcDbEntity
  8
1
  6
Continuous
100
AcDbCircle
 10
25.155292
 20
15.953516
 30
0.0
 40
32.196774
100
AcDbArc
 50
75.61288499999998
 51
104.3871199999999
  0
ARC
  5
9702
330
9564
100
AcDbEntity
  8
1
  6
Continuous
100
AcDbCircle
 10
29.271957
 20
43.54056299999998
 30
0.0
 40
0.4
100
AcDbArc
 50
202.0233659999999
 51
337.97663
  0
ARC
  5
9703
330
9564
100
AcDbEntity
  8
1
  6
Continuous
100
AcDbCircle
 10
283.7581099999998
 20
126.240575
 30
0.0
 40
0.4
100
AcDbArc
 50
163.4021539999999
 51
172.288134
  0
ARC
  5
9704
330
9564
100
AcDbEntity
  8
1
  6
Continuous
100
AcDbCircle
 10
20.605293
 20
43.54056299999998
 30
0.0
 40
0.4
100
AcDbArc
 50
202.0233659999999
 51
337.97663
  0
ARC
  5
9705
330
9564
100
AcDbEntity
  8
1
  6
Continuous
100
AcDbCircle
 10
21.47195799999998
 20
43.54056299999998
 30
0.0
 40
0.4
100
AcDbArc
 50
202.0233659999999
 51
337.97663
  0
ARC
  5
9706
330
9564
100
AcDbEntity
  8
1
  6
Continuous
100
AcDbCircle
 10
22.33862699999999
 20
43.54056299999998
 30
0.0
 40
0.4
100
AcDbArc
 50
202.0233659999999
 51
352.288137
  0
ARC
  5
9707
330
9564
100
AcDbEntity
  8
1
  6
Continuous
100
AcDbCircle
 10
23.205292
 20
43.54056299999998
 30
0.0
 40
0.4
100
AcDbArc
 50
172.288134
 51
352.288125
  0
ARC
  5
9708
330
9564
100
AcDbEntity
  8
1
  6
Continuous
100
AcDbCircle
 10
24.07196
 20
43.54056299999998
 30
0.0
 40
0.4
100
AcDbArc
 50
172.288134
 51
352.288125
  0
ARC
  5
9709
330
9564
100
AcDbEntity
  8
1
  6
Continuous
100
AcDbCircle
 10
24.938625
 20
43.54056299999998
 30
0.0
 40
0.4
100
AcDbArc
 50
172.288134
 51
352.288125
  0
ARC
  5
970A
330
9564
100
AcDbEntity
  8
1
  6
Continuous
100
AcDbCircle
 10
25.805294
 20
43.54056299999998
 30
0.0
 40
0.4
100
AcDbArc
 50
172.288134
 51
352.288125
  0
ARC
  5
970B
330
9564
100
AcDbEntity
  8
1
  6
Continuous
100
AcDbCircle
 10
26.671959
 20
43.54056299999998
 30
0.0
 40
0.4
100
AcDbArc
 50
172.288134
 51
352.288125
  0
ARC
  5
970C
330
9564
100
AcDbEntity
  8
1
  6
Continuous
100
AcDbCircle
 10
27.538627
 20
43.54056299999998
 30
0.0
 40
0.4
100
AcDbArc
 50
172.288134
 51
337.9766389999998
  0
ARC
  5
970D
330
9564
100
AcDbEntity
  8
1
  6
Continuous
100
AcDbCircle
 10
28.405292
 20
43.54056299999998
 30
0.0
 40
0.4
100
AcDbArc
 50
202.0233659999999
 51
337.97663
  0
ARC
  5
970E
330
9564
100
AcDbEntity
  8
1
  6
Continuous
100
AcDbCircle
 10
283.324791
 20
123.0405629999999
 30
0.0
 40
0.4
100
AcDbArc
 50
172.288134
 51
352.288125
  0
ARC
  5
970F
330
9564
100
AcDbEntity
  8
1
  6
Continuous
100
AcDbCircle
 10
284.1914599999999
 20
123.0405629999999
 30
0.0
 40
0.4
100
AcDbArc
 50
172.288134
 51
352.288125
  0
ARC
  5
9710
330
9564
100
AcDbEntity
  8
1
  6
Continuous
100
AcDbCircle
 10
285.0580979999998
 20
123.0405629999999
 30
0.0
 40
0.4
100
AcDbArc
 50
172.288134
 51
352.288125
  0
ARC
  5
9711
330
9564
100
AcDbEntity
  8
1
  6
Continuous
100
AcDbCircle
 10
282.524773
 20
126.240575
 30
0.0
 40
0.4
100
AcDbArc
 50
0.0
 51
180.000005
  0
ARC
  5
9712
330
9564
100
AcDbEntity
  8
1
  6
Continuous
100
AcDbCircle
 10
285.9247659999998
 20
123.0405629999999
 30
0.0
 40
0.4
100
AcDbArc
 50
172.288134
 51
352.288125
  0
ARC
  5
9713
330
9564
100
AcDbEntity
  8
1
  6
Continuous
100
AcDbCircle
 10
286.7914349999998
 20
123.0405629999999
 30
0.0
 40
0.4
100
AcDbArc
 50
172.288134
 51
352.288125
  0
ARC
  5
9714
330
9564
100
AcDbEntity
  8
1
  6
Continuous
100
AcDbCircle
 10
288.5247729999998
 20
123.0405629999999
 30
0.0
 40
0.4
100
AcDbArc
 50
172.288134
 51
352.288125
  0
ARC
  5
9715
330
9564
100
AcDbEntity
  8
1
  6
Continuous
100
AcDbCircle
 10
289.3914409999998
 20
123.0405629999999
 30
0.0
 40
0.4
100
AcDbArc
 50
172.288134
 51
352.288125
  0
ARC
  5
9716
330
9564
100
AcDbEntity
  8
1
  6
Continuous
100
AcDbCircle
 10
290.2581099999998
 20
123.0405629999999
 30
0.0
 40
0.4
100
AcDbArc
 50
172.288134
 51
352.288125
  0
ARC
  5
9717
330
9564
100
AcDbEntity
  8
1
  6
Continuous
100
AcDbCircle
 10
291.124779
 20
123.0405629999999
 30
0.0
 40
0.4
100
AcDbArc
 50
172.288134
 51
352.288125
  0
ARC
  5
9718
330
9564
100
AcDbEntity
  8
1
  6
Continuous
100
AcDbCircle
 10
287.6581039999998
 20
123.0405629999999
 30
0.0
 40
0.4
100
AcDbArc
 50
172.288134
 51
352.288125
  0
ARC
  5
9719
330
9564
100
AcDbEntity
  8
1
  6
Continuous
100
AcDbCircle
 10
293.2247849999999
 20
123.0405629999999
 30
0.0
 40
0.4
100
AcDbArc
 50
179.9999909999999
 51
0.00001
  0
ARC
  5
971A
330
9564
100
AcDbEntity
  8
1
  6
Continuous
100
AcDbCircle
 10
291.991447
 20
123.0405629999999
 30
0.0
 40
0.4
100
AcDbArc
 50
172.288134
 51
352.288125
  0
ARC
  5
971B
330
9564
100
AcDbEntity
  8
1
  6
Continuous
100
AcDbCircle
 10
292.4247659999998
 20
126.240575
 30
0.0
 40
0.4
100
AcDbArc
 50
352.288137
 51
97.18075800000001
  0
ARC
  5
971C
330
9564
100
AcDbEntity
  8
1
  6
Continuous
100
AcDbCircle
 10
19.80529399999999
 20
43.54056299999998
 30
0.0
 40
0.4
100
AcDbArc
 50
202.0233659999999
 51
337.97663
  0
CIRCLE
  5
971D
330
9564
100
AcDbEntity
  8
1
  6
Continuous
100
AcDbCircle
 10
30.50529099999998
 20
42.04057099999999
 30
0.0
 40
0.4
  0
ARC
  5
971E
330
9564
100
AcDbEntity
  8
1
  6
Continuous
100
AcDbCircle
 10
19.80529399999999
 20
191.0405629999999
 30
0.0
 40
0.4
100
AcDbArc
 50
179.9999909999999
 51
0.00001
  0
ARC
  5
971F
330
9564
100
AcDbEntity
  8
1
  6
Continuous
100
AcDbCircle
 10
20.605293
 20
191.0405629999999
 30
0.0
 40
0.4
100
AcDbArc
 50
172.288134
 51
277.180742
  0
ARC
  5
9720
330
9564
100
AcDbEntity
  8
1
  6
Continuous
100
AcDbCircle
 10
30.50529099999998
 20
191.0405629999999
 30
0.0
 40
0.4
100
AcDbArc
 50
179.9999909999999
 51
0.00001
  0
ARC
  5
9721
330
9564
100
AcDbEntity
  8
1
  6
Continuous
100
AcDbCircle
 10
16.835731
 20
193.6405689999999
 30
0.0
 40
1.25
100
AcDbArc
 50
90.00000300000001
 51
127.8480959999999
  0
ARC
  5
9722
330
9564
100
AcDbEntity
  8
1
  6
Continuous
100
AcDbCircle
 10
35.40529199999999
 20
192.140569
 30
0.0
 40
1.25
100
AcDbArc
 50
269.9999969999999
 51
52.15189899999999
  0
ARC
  5
9723
330
9564
100
AcDbEntity
  8
1
  6
Continuous
100
AcDbCircle
 10
33.47485300000001
 20
193.6405689999999
 30
0.0
 40
1.25
100
AcDbArc
 50
52.15189899999999
 51
90.00000300000001
  0
ARC
  5
9724
330
9564
100
AcDbEntity
  8
1
  6
Continuous
100
AcDbCircle
 10
16.835731
 20
43.14056899999999
 30
0.0
 40
1.25
100
AcDbArc
 50
232.151904
 51
269.9999969999999
  0
ARC
  5
9725
330
9564
100
AcDbEntity
  8
1
  6
Continuous
100
AcDbCircle
 10
33.47485300000001
 20
43.14056899999999
 30
0.0
 40
1.25
100
AcDbArc
 50
269.9999969999999
 51
307.8481009999998
  0
LINE
  5
978C
330
9564
100
AcDbEntity
  8
1
  6
Continuous
100
AcDbLine
 10
12.15529389528024
 20
134.640569
 30
0.0
 11
14.84396357766814
 21
134.640569
 31
0.0
  0
LINE
  5
978D
330
9564
100
AcDbEntity
  8
1
  6
Continuous
100
AcDbLine
 10
17.35567152874767
 20
134.640569
 30
0.0
 11
32.95491792575268
 21
134.640569
 31
0.0
  0
LINE
  5
978E
330
9564
100
AcDbEntity
  8
1
  6
Continuous
100
AcDbLine
 10
35.46662195388442
 20
134.640569
 30
0.0
 11
38.15529189528022
 21
134.640569
 31
0.0
  0
ENDSEC
  0
SECTION
  2
OBJECTS
  0
DICTIONARY
  5
9552
330
0
100
AcDbDictionary
281
     1
  3
ACAD_CIP_PREVIOUS_PRODUCT_INFO
350
9833
  3
ACAD_COLOR
350
9815
  3
ACAD_DETAILVIEWSTYLE
350
982E
  3
ACAD_GROUP
350
9553
  3
ACAD_LAYOUT
350
955F
  3
ACAD_MATERIAL
350
97E3
  3
ACAD_MLEADERSTYLE
350
982A
  3
ACAD_MLINESTYLE
350
955C
  3
ACAD_PLOTSETTINGS
350
955E
  3
ACAD_PLOTSTYLENAME
350
97E1
  3
ACAD_SCALELIST
350
9818
  3
ACAD_SECTIONVIEWSTYLE
350
982C
  3
ACAD_TABLESTYLE
350
9816
  3
ACAD_VISUALSTYLE
350
97FC
  3
ACDB_RECOMPOSE_DATA
350
9851
  3
AcDbVariableDictionary
350
9844
  3
DWGPROPS
350
9852
  0
DICTIONARY
  5
9834
330
9556
100
AcDbDictionary
280
     1
281
     1
  3
ADSK_XREC_LAYER_RECONCILED
360
9835
  0
DICTIONARY
  5
9836
330
956C
100
AcDbDictionary
280
     1
281
     1
  3
ADSK_XREC_LAYER_RECONCILED
360
9837
  0
DICTIONARY
  5
9838
330
956D
100
AcDbDictionary
280
     1
281
     1
  3
ADSK_XREC_LAYER_RECONCILED
360
9839
  0
DICTIONARY
  5
983A
330
956E
100
AcDbDictionary
280
     1
281
     1
  3
ADSK_XREC_LAYER_RECONCILED
360
983B
  0
DICTIONARY
  5
983C
330
956F
100
AcDbDictionary
280
     1
281
     1
  3
ADSK_XREC_LAYER_RECONCILED
360
983D
  0
DICTIONARY
  5
983E
330
9570
100
AcDbDictionary
280
     1
281
     1
  3
ADSK_XREC_LAYER_RECONCILED
360
983F
  0
DICTIONARY
  5
9840
330
9571
100
AcDbDictionary
280
     1
281
     1
  3
ADSK_XREC_LAYER_RECONCILED
360
9841
  0
DICTIONARY
  5
9842
330
9572
100
AcDbDictionary
280
     1
281
     1
  3
ADSK_XREC_LAYER_RECONCILED
360
9843
  0
DICTIONARY
  5
9732
330
9564
100
AcDbDictionary
281
     1
  3
ACAD_LAYOUTSELFREF
350
97DD
  0
DICTIONARY
  5
9730
330
9560
100
AcDbDictionary
281
     1
  3
ACAD_LAYOUTSELFREF
350
97DC
  0
XRECORD
  5
9833
102
{ACAD_REACTORS
330
9552
102
}
330
9552
100
AcDbXrecord
280
     1
300
ACDLT
300
2014
300
ACDLT_F_S
  0
DICTIONARY
  5
9815
102
{ACAD_REACTORS
330
9552
102
}
330
9552
100
AcDbDictionary
281
     1
  0
DICTIONARY
  5
982E
102
{ACAD_REACTORS
330
9552
102
}
330
9552
100
AcDbDictionary
281
     1
  3
Imperial24
350
982F
  0
DICTIONARY
  5
9553
102
{ACAD_REACTORS
330
9552
102
}
330
9552
100
AcDbDictionary
281
     1
  0
DICTIONARY
  5
955F
102
{ACAD_REACTORS
330
9552
102
}
330
9552
100
AcDbDictionary
281
     1
  3
Model
350
9830
  3
レイアウト1
350
9831
  0
DICTIONARY
  5
97E3
102
{ACAD_REACTORS
330
9552
102
}
330
9552
100
AcDbDictionary
281
     1
  3
ByBlock
350
97EC
  3
ByLayer
350
97E4
  3
Global
350
97F4
  0
DICTIONARY
  5
982A
102
{ACAD_REACTORS
330
9552
102
}
330
9552
100
AcDbDictionary
281
     1
  3
Standard
350
982B
  0
DICTIONARY
  5
955C
102
{ACAD_REACTORS
330
9552
102
}
330
9552
100
AcDbDictionary
281
     1
  3
STANDARD
350
955D
  0
DICTIONARY
  5
955E
102
{ACAD_REACTORS
330
9552
102
}
330
9552
100
AcDbDictionary
281
     1
  0
ACDBDICTIONARYWDFLT
  5
97E1
102
{ACAD_REACTORS
330
9552
102
}
330
9552
100
AcDbDictionary
281
     1
  3
Normal
350
97E2
100
AcDbDictionaryWithDefault
340
97E2
  0
DICTIONARY
  5
9818
102
{ACAD_REACTORS
330
9552
102
}
330
9552
100
AcDbDictionary
281
     1
  3
A0
350
9819
  3
A1
350
981A
  3
A2
350
981B
  3
A3
350
981C
  3
A4
350
981D
  3
A5
350
981E
  3
A6
350
981F
  3
A7
350
9820
  3
A8
350
9821
  3
A9
350
9822
  3
B0
350
9823
  3
B1
350
9824
  3
B2
350
9825
  3
B3
350
9826
  3
B4
350
9827
  3
B5
350
9828
  3
B6
350
9829
  0
DICTIONARY
  5
982C
102
{ACAD_REACTORS
330
9552
102
}
330
9552
100
AcDbDictionary
281
     1
  3
Imperial24
350
982D
  0
DICTIONARY
  5
9816
102
{ACAD_REACTORS
330
9552
102
}
330
9552
100
AcDbDictionary
281
     1
  3
Standard
350
9817
  0
DICTIONARY
  5
97FC
102
{ACAD_REACTORS
330
9552
102
}
330
9552
100
AcDbDictionary
281
     1
  3
2dWireframe
350
9802
  3
Basic
350
9801
  3
Brighten
350
9808
  3
ColorChange
350
980C
  3
Conceptual
350
9805
  3
Dim
350
9807
  3
EdgeColorOff
350
9814
  3
Facepattern
350
980B
  3
Flat
350
97FD
  3
FlatWithEdges
350
97FE
  3
Gouraud
350
97FF
  3
GouraudWithEdges
350
9800
  3
Hidden
350
9804
  3
JitterOff
350
9812
  3
Linepattern
350
980A
  3
OverhangOff
350
9813
  3
Realistic
350
9806
  3
Shaded
350
9811
  3
Shaded with edges
350
9810
  3
Shades of Gray
350
980D
  3
Sketchy
350
980E
  3
Thicken
350
9809
  3
Wireframe
350
9803
  3
X-Ray
350
980F
  0
XRECORD
  5
9851
102
{ACAD_REACTORS
330
9552
102
}
330
9552
100
AcDbXrecord
280
     1
 90
        1
330
9817
  0
DICTIONARY
  5
9844
102
{ACAD_REACTORS
330
9552
102
}
330
9552
100
AcDbDictionary
281
     1
  3
CANNOSCALE
350
9849
  3
CMLEADERSTYLE
350
9846
  3
CTABLESTYLE
350
9845
  3
CVIEWDETAILSTYLE
350
9847
  3
CVIEWSECTIONSTYLE
350
9848
  3
DIMASSOC
350
984C
  3
INDEXCTL
350
984B
  3
SORTENTS
350
984A
  3
XCLIPFRAME
350
984D
  0
XRECORD
  5
9852
102
{ACAD_REACTORS
330
9552
102
}
330
9552
100
AcDbXrecord
280
     1
  1
DWGPROPS COOKIE
  2

  3

  4

  6

  7

  8
Yoshitsune
  9

300
=
301
=
302
=
303
=
304
=
305
=
306
=
307
=
308
=
309
=
 40
0.0170983680555556
 41
2451066.494856366
 42
2457192.603397373
  1

 90
        0
  0
XRECORD
  5
9835
102
{ACAD_REACTORS
330
9834
102
}
330
9834
100
AcDbXrecord
280
     1
290
     1
  0
XRECORD
  5
9837
102
{ACAD_REACTORS
330
9836
102
}
330
9836
100
AcDbXrecord
280
     1
290
     1
  0
XRECORD
  5
9839
102
{ACAD_REACTORS
330
9838
102
}
330
9838
100
AcDbXrecord
280
     1
290
     1
  0
XRECORD
  5
983B
102
{ACAD_REACTORS
330
983A
102
}
330
983A
100
AcDbXrecord
280
     1
290
     1
  0
XRECORD
  5
983D
102
{ACAD_REACTORS
330
983C
102
}
330
983C
100
AcDbXrecord
280
     1
290
     1
  0
XRECORD
  5
983F
102
{ACAD_REACTORS
330
983E
102
}
330
983E
100
AcDbXrecord
280
     1
290
     1
  0
XRECORD
  5
9841
102
{ACAD_REACTORS
330
9840
102
}
330
9840
100
AcDbXrecord
280
     1
290
     1
  0
XRECORD
  5
9843
102
{ACAD_REACTORS
330
9842
102
}
330
9842
100
AcDbXrecord
280
     1
290
     1
  0
XRECORD
  5
97DD
102
{ACAD_REACTORS
330
9732
102
}
330
9732
100
AcDbXrecord
280
     1
340
9564
  0
XRECORD
  5
97DC
102
{ACAD_REACTORS
330
9730
102
}
330
9730
100
AcDbXrecord
280
     1
340
9560
  0
ACDBDETAILVIEWSTYLE
  5
982F
102
{ACAD_XDICTIONARY
360
988A
102
}
102
{ACAD_REACTORS
330
982E
102
}
330
982E
100
AcDbModelDocViewStyle
 70
     0
  3
Imperial24
290
     0
100
AcDbDetailViewStyle
 70
     0
 71
     0
 90
        3
 71
     1
340
9557
 40
0.24
340
0
 40
0.24
300

 40
0.36
280
     3
 71
     2
340
955B
 90
       25
 71
     3
340
9557
 40
0.24
 90
        1
 40
0.75
 90
        1
300
%<\AcVar ViewType \f "%tc1">% %<\AcVar ViewDetailId>%\PSCALE %<\AcVar ViewScale \f "%sn">%
 71
     4
340
955B
 90
       25
340
955B
 90
       25
280
     0
  0
LAYOUT
  5
9830
102
{ACAD_XDICTIONARY
360
988C
102
}
102
{ACAD_REACTORS
330
955F
102
}
330
955F
100
AcDbPlotSettings
  1

  2
Canon LBP9100C
  4

  6

 40
0.0
 41
0.0
 42
0.0
 43
0.0
 44
0.0
 45
0.0
 46
0.0
 47
0.0
 48
0.0
 49
0.0
140
0.0
141
0.0
142
1.0
143
1.0
 70
  1712
 72
     0
 73
     0
 74
     0
  7

 75
     0
147
1.0
148
0.0
149
0.0
100
AcDbLayout
  1
Model
 70
     1
 71
     0
 10
0.0
 20
0.0
 11
12.0
 21
9.0
 12
0.0
 22
0.0
 32
0.0
 14
0.0
 24
0.0
 34
0.0
 15
0.0
 25
0.0
 35
0.0
146
0.0
 13
0.0
 23
0.0
 33
0.0
 16
1.0
 26
0.0
 36
0.0
 17
0.0
 27
1.0
 37
0.0
 76
     0
330
9564
331
97DB
  0
LAYOUT
  5
9831
102
{ACAD_XDICTIONARY
360
988E
102
}
102
{ACAD_REACTORS
330
955F
102
}
330
955F
100
AcDbPlotSettings
  1

  2
Canon LBP9100C
  4

  6

 40
0.0
 41
0.0
 42
0.0
 43
0.0
 44
0.0
 45
0.0
 46
0.0
 47
0.0
 48
0.0
 49
0.0
140
0.0
141
0.0
142
1.0
143
1.0
 70
   688
 72
     0
 73
     0
 74
     5
  7

 75
    16
147
1.0
148
0.0
149
0.0
100
AcDbLayout
  1
レイアウト1
 70
     0
 71
     1
 10
0.0
 20
0.0
 11
420.0
 21
297.0
 12
0.0
 22
0.0
 32
0.0
 14
1.000000000000000E+20
 24
1.000000000000000E+20
 34
1.000000000000000E+20
 15
-1.000000000000000E+20
 25
-1.000000000000000E+20
 35
-1.000000000000000E+20
146
0.0
 13
0.0
 23
0.0
 33
0.0
 16
1.0
 26
0.0
 36
0.0
 17
0.0
 27
1.0
 37
0.0
 76
     0
330
9560
  0
MATERIAL
  5
97EC
102
{ACAD_XDICTIONARY
360
97ED
102
}
102
{ACAD_REACTORS
330
97E3
102
}
330
97E3
100
AcDbMaterial
  1
ByBlock
 72
     0
 43
0.0208333333333333
 43
0.0
 43
0.0
 43
0.0
 43
0.0
 43
0.0208333333333333
 43
0.0
 43
0.0
 43
0.0
 43
0.0
 43
1.0
 43
0.0
 43
0.0
 43
0.0
 43
0.0
 43
1.0
 77
     0
 47
0.0208333333333333
 47
0.0
 47
0.0
 47
0.0
 47
0.0
 47
0.0208333333333333
 47
0.0
 47
0.0
 47
0.0
 47
0.0
 47
1.0
 47
0.0
 47
0.0
 47
0.0
 47
0.0
 47
1.0
171
     0
 49
0.0208333333333333
 49
0.0
 49
0.0
 49
0.0
 49
0.0
 49
0.0208333333333333
 49
0.0
 49
0.0
 49
0.0
 49
0.0
 49
1.0
 49
0.0
 49
0.0
 49
0.0
 49
0.0
 49
1.0
175
     0
142
0.0208333333333333
142
0.0
142
0.0
142
0.0
142
0.0
142
0.0208333333333333
142
0.0
142
0.0
142
0.0
142
0.0
142
1.0
142
0.0
142
0.0
142
0.0
142
0.0
142
1.0
179
     0
144
0.0208333333333333
144
0.0
144
0.0
144
0.0
144
0.0
144
0.0208333333333333
144
0.0
144
0.0
144
0.0
144
0.0
144
1.0
144
0.0
144
0.0
144
0.0
144
0.0
144
1.0
147
0.0208333333333333
147
0.0
147
0.0
147
0.0
147
0.0
147
0.0208333333333333
147
0.0
147
0.0
147
0.0
147
0.0
147
1.0
147
0.0
147
0.0
147
0.0
147
0.0
147
1.0
  0
MATERIAL
  5
97E4
102
{ACAD_XDICTIONARY
360
97E5
102
}
102
{ACAD_REACTORS
330
97E3
102
}
330
97E3
100
AcDbMaterial
  1
ByLayer
 72
     0
 43
0.0208333333333333
 43
0.0
 43
0.0
 43
0.0
 43
0.0
 43
0.0208333333333333
 43
0.0
 43
0.0
 43
0.0
 43
0.0
 43
1.0
 43
0.0
 43
0.0
 43
0.0
 43
0.0
 43
1.0
 77
     0
 47
0.0208333333333333
 47
0.0
 47
0.0
 47
0.0
 47
0.0
 47
0.0208333333333333
 47
0.0
 47
0.0
 47
0.0
 47
0.0
 47
1.0
 47
0.0
 47
0.0
 47
0.0
 47
0.0
 47
1.0
171
     0
 49
0.0208333333333333
 49
0.0
 49
0.0
 49
0.0
 49
0.0
 49
0.0208333333333333
 49
0.0
 49
0.0
 49
0.0
 49
0.0
 49
1.0
 49
0.0
 49
0.0
 49
0.0
 49
0.0
 49
1.0
175
     0
142
0.0208333333333333
142
0.0
142
0.0
142
0.0
142
0.0
142
0.0208333333333333
142
0.0
142
0.0
142
0.0
142
0.0
142
1.0
142
0.0
142
0.0
142
0.0
142
0.0
142
1.0
179
     0
144
0.0208333333333333
144
0.0
144
0.0
144
0.0
144
0.0
144
0.0208333333333333
144
0.0
144
0.0
144
0.0
144
0.0
144
1.0
144
0.0
144
0.0
144
0.0
144
0.0
144
1.0
147
0.0208333333333333
147
0.0
147
0.0
147
0.0
147
0.0
147
0.0208333333333333
147
0.0
147
0.0
147
0.0
147
0.0
147
1.0
147
0.0
147
0.0
147
0.0
147
0.0
147
1.0
  0
MATERIAL
  5
97F4
102
{ACAD_XDICTIONARY
360
97F5
102
}
102
{ACAD_REACTORS
330
97E3
102
}
330
97E3
100
AcDbMaterial
  1
Global
 72
     0
 43
0.0208333333333333
 43
0.0
 43
0.0
 43
0.0
 43
0.0
 43
0.0208333333333333
 43
0.0
 43
0.0
 43
0.0
 43
0.0
 43
1.0
 43
0.0
 43
0.0
 43
0.0
 43
0.0
 43
1.0
 77
     0
 47
0.0208333333333333
 47
0.0
 47
0.0
 47
0.0
 47
0.0
 47
0.0208333333333333
 47
0.0
 47
0.0
 47
0.0
 47
0.0
 47
1.0
 47
0.0
 47
0.0
 47
0.0
 47
0.0
 47
1.0
171
     0
 49
0.0208333333333333
 49
0.0
 49
0.0
 49
0.0
 49
0.0
 49
0.0208333333333333
 49
0.0
 49
0.0
 49
0.0
 49
0.0
 49
1.0
 49
0.0
 49
0.0
 49
0.0
 49
0.0
 49
1.0
175
     0
142
0.0208333333333333
142
0.0
142
0.0
142
0.0
142
0.0
142
0.0208333333333333
142
0.0
142
0.0
142
0.0
142
0.0
142
1.0
142
0.0
142
0.0
142
0.0
142
0.0
142
1.0
179
     0
144
0.0208333333333333
144
0.0
144
0.0
144
0.0
144
0.0
144
0.0208333333333333
144
0.0
144
0.0
144
0.0
144
0.0
144
1.0
144
0.0
144
0.0
144
0.0
144
0.0
144
1.0
147
0.0208333333333333
147
0.0
147
0.0
147
0.0
147
0.0
147
0.0208333333333333
147
0.0
147
0.0
147
0.0
147
0.0
147
1.0
147
0.0
147
0.0
147
0.0
147
0.0
147
1.0
  0
MLEADERSTYLE
  5
982B
102
{ACAD_REACTORS
330
982A
102
}
330
982A
100
AcDbMLeaderStyle
170
     2
171
     1
172
     0
 90
        2
 40
0.0
 41
0.0
173
     1
 91
-1056964608
340
9559
 92
       -2
290
     1
 42
0.09
291
     1
 43
0.36
  3
Standard
 44
0.18
300

342
9557
174
     1
178
     6
175
     1
176
     0
 93
-1056964608
 45
0.18
292
     0
297
     0
 46
0.18
 94
-1056964608
 47
1.0
 49
1.0
140
1.0
293
     1
141
0.0
294
     1
177
     0
142
1.0
295
     0
296
     0
143
0.125
1001
ACAD_MLEADERVER
1070
     2
  0
MLINESTYLE
  5
955D
102
{ACAD_REACTORS
330
955C
102
}
330
955C
100
AcDbMlineStyle
  2
STANDARD
 70
     0
  3

 62
   256
 51
90.0
 52
90.0
 71
     2
 49
0.5
 62
   256
  6
BYLAYER
 49
-0.5
 62
   256
  6
BYLAYER
  0
ACDBPLACEHOLDER
  5
97E2
102
{ACAD_REACTORS
330
97E1
102
}
330
97E1
  0
SCALE
  5
9819
102
{ACAD_REACTORS
330
9818
102
}
330
9818
100
AcDbScale
 70
     0
300
1:1
140
1.0
141
1.0
290
     1
  0
SCALE
  5
981A
102
{ACAD_REACTORS
330
9818
102
}
330
9818
100
AcDbScale
 70
     0
300
1/128" = 1'-0"
140
0.0078125
141
12.0
290
     0
  0
SCALE
  5
981B
102
{ACAD_REACTORS
330
9818
102
}
330
9818
100
AcDbScale
 70
     0
300
1/64" = 1'-0"
140
0.015625
141
12.0
290
     0
  0
SCALE
  5
981C
102
{ACAD_REACTORS
330
9818
102
}
330
9818
100
AcDbScale
 70
     0
300
1/32" = 1'-0"
140
0.03125
141
12.0
290
     0
  0
SCALE
  5
981D
102
{ACAD_REACTORS
330
9818
102
}
330
9818
100
AcDbScale
 70
     0
300
1/16" = 1'-0"
140
0.0625
141
12.0
290
     0
  0
SCALE
  5
981E
102
{ACAD_REACTORS
330
9818
102
}
330
9818
100
AcDbScale
 70
     0
300
3/32" = 1'-0"
140
0.09375
141
12.0
290
     0
  0
SCALE
  5
981F
102
{ACAD_REACTORS
330
9818
102
}
330
9818
100
AcDbScale
 70
     0
300
1/8" = 1'-0"
140
0.125
141
12.0
290
     0
  0
SCALE
  5
9820
102
{ACAD_REACTORS
330
9818
102
}
330
9818
100
AcDbScale
 70
     0
300
3/16" = 1'-0"
140
0.1875
141
12.0
290
     0
  0
SCALE
  5
9821
102
{ACAD_REACTORS
330
9818
102
}
330
9818
100
AcDbScale
 70
     0
300
1/4" = 1'-0"
140
0.25
141
12.0
290
     0
  0
SCALE
  5
9822
102
{ACAD_REACTORS
330
9818
102
}
330
9818
100
AcDbScale
 70
     0
300
3/8" = 1'-0"
140
0.375
141
12.0
290
     0
  0
SCALE
  5
9823
102
{ACAD_REACTORS
330
9818
102
}
330
9818
100
AcDbScale
 70
     0
300
1/2" = 1'-0"
140
0.5
141
12.0
290
     0
  0
SCALE
  5
9824
102
{ACAD_REACTORS
330
9818
102
}
330
9818
100
AcDbScale
 70
     0
300
3/4" = 1'-0"
140
0.75
141
12.0
290
     0
  0
SCALE
  5
9825
102
{ACAD_REACTORS
330
9818
102
}
330
9818
100
AcDbScale
 70
     0
300
1" = 1'-0"
140
1.0
141
12.0
290
     0
  0
SCALE
  5
9826
102
{ACAD_REACTORS
330
9818
102
}
330
9818
100
AcDbScale
 70
     0
300
1-1/2" = 1'-0"
140
1.5
141
12.0
290
     0
  0
SCALE
  5
9827
102
{ACAD_REACTORS
330
9818
102
}
330
9818
100
AcDbScale
 70
     0
300
3" = 1'-0"
140
3.0
141
12.0
290
     0
  0
SCALE
  5
9828
102
{ACAD_REACTORS
330
9818
102
}
330
9818
100
AcDbScale
 70
     0
300
6" = 1'-0"
140
6.0
141
12.0
290
     0
  0
SCALE
  5
9829
102
{ACAD_REACTORS
330
9818
102
}
330
9818
100
AcDbScale
 70
     0
300
1'-0" = 1'-0"
140
12.0
141
12.0
290
     0
  0
ACDBSECTIONVIEWSTYLE
  5
982D
102
{ACAD_XDICTIONARY
360
9888
102
}
102
{ACAD_REACTORS
330
982C
102
}
330
982C
100
AcDbModelDocViewStyle
 70
     0
  3
Imperial24
290
     0
100
AcDbSectionViewStyle
 70
     0
 71
     0
 90
       78
 71
     1
340
9557
 40
0.24
340
0
340
0
 40
0.24
300
I, O, Q, S, X, Z
 40
0.48
 90
        3
 40
0.18
 90
        1
 71
     2
340
955B
 90
       25
340
955B
 90
       50
 40
0.24
 40
0.0
 40
0.24
 71
     3
340
9557
 40
0.24
 90
        1
 40
0.75
 90
        1
300
%<\AcVar ViewType \f "%tc1">% %<\AcVar ViewSectionStartId>%-%<\AcVar ViewSectionEndId>%\PSCALE %<\AcVar ViewScale \f "%sn">%
 71
     4
300
ANSI31
 40
1.0
 90
        0
290
     0
290
     0
 90
        6
 40
0.0
 40
1.570796326794896
 40
0.2617993877991494
 40
1.308996938995747
 40
-0.2617993877991494
 40
1.832595714594046
  0
TABLESTYLE
  5
9817
102
{ACAD_XDICTIONARY
360
984F
102
}
102
{ACAD_REACTORS
330
9816
102
}
330
9816
100
AcDbTableStyle
  3
Standard
 70
     0
 71
     0
 40
0.06
 41
0.06
280
     0
281
     0
  7
STANDARD
140
0.18
170
     2
 62
     0
 63
     7
283
     0
274
    -2
284
     1
 64
     0
275
    -2
285
     1
 65
     0
276
    -2
286
     1
 66
     0
277
    -2
287
     1
 67
     0
278
    -2
288
     1
 68
     0
279
    -2
289
     1
 69
     0
  7
STANDARD
140
0.25
170
     5
 62
     0
 63
     7
283
     0
274
    -2
284
     1
 64
     0
275
    -2
285
     1
 65
     0
276
    -2
286
     1
 66
     0
277
    -2
287
     1
 67
     0
278
    -2
288
     1
 68
     0
279
    -2
289
     1
 69
     0
  7
STANDARD
140
0.18
170
     5
 62
     0
 63
     7
283
     0
274
    -2
284
     1
 64
     0
275
    -2
285
     1
 65
     0
276
    -2
286
     1
 66
     0
277
    -2
287
     1
 67
     0
278
    -2
288
     1
 68
     0
279
    -2
289
     1
 69
     0
  0
VISUALSTYLE
  5
9802
102
{ACAD_XDICTIONARY
360
9860
102
}
102
{ACAD_REACTORS
330
97FC
102
}
330
97FC
100
AcDbVisualStyle
  2
2dWireframe
 70
     4
 71
     0
 72
     2
 73
     0
 90
        0
 40
-0.6
 41
-30.0
 62
     5
 63
     7
 74
     1
 91
        4
 64
     7
 65
   257
 75
     1
175
     1
 42
1.0
 92
        0
 66
   257
 43
1.0
 76
     1
 77
     6
 78
     2
 67
     7
 79
     5
170
     0
171
     0
290
     0
174
     0
 93
        1
 44
0.0
173
     0
291
     0
 45
0.0
1001
ACAD
1000
AcDbSavedByObjectVersion
1070
     0
  0
VISUALSTYLE
  5
9801
102
{ACAD_XDICTIONARY
360
985E
102
}
102
{ACAD_REACTORS
330
97FC
102
}
330
97FC
100
AcDbVisualStyle
  2
Basic
 70
     7
 71
     1
 72
     0
 73
     1
 90
        0
 40
-0.6
 41
-30.0
 62
     5
 63
     7
 74
     0
 91
        4
 64
     7
 65
   257
 75
     1
175
     1
 42
1.0
 92
        8
 66
     7
 43
1.0
 76
     1
 77
     6
 78
     2
 67
     7
 79
     5
170
     0
171
     0
290
     0
174
     0
 93
        1
 44
0.0
173
     0
291
     1
 45
0.0
1001
ACAD
1000
AcDbSavedByObjectVersion
1070
     0
  0
VISUALSTYLE
  5
9808
102
{ACAD_XDICTIONARY
360
986C
102
}
102
{ACAD_REACTORS
330
97FC
102
}
330
97FC
100
AcDbVisualStyle
  2
Brighten
 70
    12
 71
     2
 72
     2
 73
     0
 90
        0
 40
-0.6
 41
-30.0
 62
     5
 63
     7
 74
     1
 91
        4
 64
     7
 65
   257
 75
     1
175
     1
 42
1.0
 92
        8
 66
     7
 43
1.0
 76
     1
 77
     6
 78
     2
 67
     7
 79
     5
170
     0
171
     0
290
     0
174
     0
 93
        1
 44
50.0
173
     0
291
     1
 45
0.0
1001
ACAD
1000
AcDbSavedByObjectVersion
1070
     0
  0
VISUALSTYLE
  5
980C
102
{ACAD_XDICTIONARY
360
9874
102
}
102
{ACAD_REACTORS
330
97FC
102
}
330
97FC
100
AcDbVisualStyle
  2
ColorChange
 70
    16
 71
     2
 72
     2
 73
     3
 90
        0
 40
-0.6
 41
-30.0
 62
     5
 63
     8
 74
     1
 91
        4
 64
     7
 65
   257
 75
     1
175
     1
 42
1.0
 92
        8
 66
     8
 43
1.0
 76
     1
 77
     6
 78
     2
 67
     7
 79
     5
170
     0
171
     0
290
     0
174
     0
 93
        1
 44
0.0
173
     0
291
     1
 45
0.0
1001
ACAD
1000
AcDbSavedByObjectVersion
1070
     0
  0
VISUALSTYLE
  5
9805
102
{ACAD_XDICTIONARY
360
9866
102
}
102
{ACAD_REACTORS
330
97FC
102
}
330
97FC
100
AcDbVisualStyle
  2
Conceptual
 70
     9
 71
     3
 72
     2
 73
     0
 90
        0
 40
-0.6
 41
-30.0
 62
     5
 63
     7
 74
     2
 91
        2
 64
     7
 65
   257
 75
     1
175
     1
 42
179.0
 92
        8
 66
     7
 43
1.0
 76
     1
 77
     6
 78
     2
 67
     7
 79
     3
170
     0
171
     0
290
     0
174
     0
 93
        1
 44
0.0
173
     0
291
     0
 45
0.0
1001
ACAD
1000
AcDbSavedByObjectVersion
1070
     0
  0
VISUALSTYLE
  5
9807
102
{ACAD_XDICTIONARY
360
986A
102
}
102
{ACAD_REACTORS
330
97FC
102
}
330
97FC
100
AcDbVisualStyle
  2
Dim
 70
    11
 71
     2
 72
     2
 73
     0
 90
        0
 40
-0.6
 41
-30.0
 62
     5
 63
     7
 74
     1
 91
        4
 64
     7
 65
   257
 75
     1
175
     1
 42
1.0
 92
        8
 66
     7
 43
1.0
 76
     1
 77
     6
 78
     2
 67
     7
 79
     5
170
     0
171
     0
290
     0
174
     0
 93
        1
 44
-50.0
173
     0
291
     1
 45
0.0
1001
ACAD
1000
AcDbSavedByObjectVersion
1070
     0
  0
VISUALSTYLE
  5
9814
102
{ACAD_XDICTIONARY
360
9884
102
}
102
{ACAD_REACTORS
330
97FC
102
}
330
97FC
100
AcDbVisualStyle
  2
EdgeColorOff
 70
    22
 71
     2
 72
     2
 73
     0
 90
        0
 40
-0.6
 41
-30.0
 62
     5
 63
     7
 74
     1
 91
        4
 64
     7
 65
   257
 75
     1
175
     1
 42
1.0
 92
        8
 66
     7
 43
1.0
 76
     1
 77
     6
 78
     2
 67
     7
 79
     5
170
     0
171
     0
290
     0
174
     0
 93
        1
 44
0.0
173
     0
291
     1
 45
0.0
1001
ACAD
1000
AcDbSavedByObjectVersion
1070
     0
  0
VISUALSTYLE
  5
980B
102
{ACAD_XDICTIONARY
360
9872
102
}
102
{ACAD_REACTORS
330
97FC
102
}
330
97FC
100
AcDbVisualStyle
  2
Facepattern
 70
    15
 71
     2
 72
     2
 73
     0
 90
        0
 40
-0.6
 41
-30.0
 62
     5
 63
     7
 74
     1
 91
        4
 64
     7
 65
   257
 75
     1
175
     1
 42
1.0
 92
        8
 66
     7
 43
1.0
 76
     1
 77
     6
 78
     2
 67
     7
 79
     5
170
     0
171
     0
290
     0
174
     0
 93
        1
 44
0.0
173
     0
291
     1
 45
0.0
1001
ACAD
1000
AcDbSavedByObjectVersion
1070
     0
  0
VISUALSTYLE
  5
97FD
102
{ACAD_XDICTIONARY
360
9856
102
}
102
{ACAD_REACTORS
330
97FC
102
}
330
97FC
100
AcDbVisualStyle
  2
Flat
 70
     0
 71
     2
 72
     1
 73
     1
 90
        2
 40
-0.6
 41
30.0
 62
     5
 63
     7
 74
     0
 91
        0
 64
     7
 65
   257
 75
     1
175
     1
 42
1.0
 92
        8
 66
     7
 43
1.0
 76
     1
 77
     6
 78
     2
 67
     7
 79
     5
170
     0
171
     0
290
     0
174
     0
 93
       13
 44
0.0
173
     0
291
     1
 45
0.0
1001
ACAD
1000
AcDbSavedByObjectVersion
1070
     0
  0
VISUALSTYLE
  5
97FE
102
{ACAD_XDICTIONARY
360
9858
102
}
102
{ACAD_REACTORS
330
97FC
102
}
330
97FC
100
AcDbVisualStyle
  2
FlatWithEdges
 70
     1
 71
     2
 72
     1
 73
     1
 90
        2
 40
-0.6
 41
30.0
 62
     5
 63
     7
 74
     1
 91
        0
 64
     7
 65
   257
 75
     1
175
     1
 42
1.0
 92
        0
 66
   257
 43
1.0
 76
     1
 77
     6
 78
     2
 67
     7
 79
     5
170
     0
171
     0
290
     0
174
     0
 93
       13
 44
0.0
173
     0
291
     1
 45
0.0
1001
ACAD
1000
AcDbSavedByObjectVersion
1070
     0
  0
VISUALSTYLE
  5
97FF
102
{ACAD_XDICTIONARY
360
985A
102
}
102
{ACAD_REACTORS
330
97FC
102
}
330
97FC
100
AcDbVisualStyle
  2
Gouraud
 70
     2
 71
     2
 72
     2
 73
     1
 90
        2
 40
-0.6
 41
30.0
 62
     5
 63
     7
 74
     0
 91
        0
 64
     7
 65
   257
 75
     1
175
     1
 42
1.0
 92
        0
 66
     7
 43
1.0
 76
     1
 77
     6
 78
     2
 67
     7
 79
     5
170
     0
171
     0
290
     0
174
     0
 93
       13
 44
0.0
173
     0
291
     1
 45
0.0
1001
ACAD
1000
AcDbSavedByObjectVersion
1070
     0
  0
VISUALSTYLE
  5
9800
102
{ACAD_XDICTIONARY
360
985C
102
}
102
{ACAD_REACTORS
330
97FC
102
}
330
97FC
100
AcDbVisualStyle
  2
GouraudWithEdges
 70
     3
 71
     2
 72
     2
 73
     1
 90
        2
 40
-0.6
 41
30.0
 62
     5
 63
     7
 74
     1
 91
        0
 64
     7
 65
   257
 75
     1
175
     1
 42
1.0
 92
        0
 66
   257
 43
1.0
 76
     1
 77
     6
 78
     2
 67
     7
 79
     5
170
     0
171
     0
290
     0
174
     0
 93
       13
 44
0.0
173
     0
291
     1
 45
0.0
1001
ACAD
1000
AcDbSavedByObjectVersion
1070
     0
  0
VISUALSTYLE
  5
9804
102
{ACAD_XDICTIONARY
360
9864
102
}
102
{ACAD_REACTORS
330
97FC
102
}
330
97FC
100
AcDbVisualStyle
  2
Hidden
 70
     6
 71
     1
 72
     2
 73
     2
 90
        0
 40
-0.6
 41
-30.0
 62
     5
 63
     7
 74
     2
 91
        2
 64
     7
 65
   257
 75
     2
175
     1
 42
40.0
 92
        0
 66
   257
 43
1.0
 76
     1
 77
     6
 78
     2
 67
     7
 79
     3
170
     0
171
     0
290
     0
174
     0
 93
        1
 44
0.0
173
     0
291
     0
 45
0.0
1001
ACAD
1000
AcDbSavedByObjectVersion
1070
     0
  0
VISUALSTYLE
  5
9812
102
{ACAD_XDICTIONARY
360
9880
102
}
102
{ACAD_REACTORS
330
97FC
102
}
330
97FC
100
AcDbVisualStyle
  2
JitterOff
 70
    20
 71
     2
 72
     2
 73
     0
 90
        0
 40
-0.6
 41
-30.0
 62
     5
 63
     7
 74
     1
 91
        4
 64
     7
 65
   257
 75
     1
175
     1
 42
1.0
 92
       10
 66
     7
 43
1.0
 76
     1
 77
     6
 78
     2
 67
     7
 79
     5
170
     0
171
     0
290
     0
174
     0
 93
        1
 44
0.0
173
     0
291
     1
 45
0.0
1001
ACAD
1000
AcDbSavedByObjectVersion
1070
     0
  0
VISUALSTYLE
  5
980A
102
{ACAD_XDICTIONARY
360
9870
102
}
102
{ACAD_REACTORS
330
97FC
102
}
330
97FC
100
AcDbVisualStyle
  2
Linepattern
 70
    14
 71
     2
 72
     2
 73
     0
 90
        0
 40
-0.6
 41
-30.0
 62
     5
 63
     7
 74
     1
 91
        4
 64
     7
 65
   257
 75
     7
175
     7
 42
1.0
 92
        8
 66
     7
 43
1.0
 76
     1
 77
     6
 78
     2
 67
     7
 79
     5
170
     0
171
     0
290
     0
174
     0
 93
        1
 44
0.0
173
     0
291
     1
 45
0.0
1001
ACAD
1000
AcDbSavedByObjectVersion
1070
     0
  0
VISUALSTYLE
  5
9813
102
{ACAD_XDICTIONARY
360
9882
102
}
102
{ACAD_REACTORS
330
97FC
102
}
330
97FC
100
AcDbVisualStyle
  2
OverhangOff
 70
    21
 71
     2
 72
     2
 73
     0
 90
        0
 40
-0.6
 41
-30.0
 62
     5
 63
     7
 74
     1
 91
        4
 64
     7
 65
   257
 75
     1
175
     1
 42
1.0
 92
        9
 66
     7
 43
1.0
 76
     1
 77
     6
 78
     2
 67
     7
 79
     5
170
     0
171
     0
290
     0
174
     0
 93
        1
 44
0.0
173
     0
291
     1
 45
0.0
1001
ACAD
1000
AcDbSavedByObjectVersion
1070
     0
  0
VISUALSTYLE
  5
9806
102
{ACAD_XDICTIONARY
360
9868
102
}
102
{ACAD_REACTORS
330
97FC
102
}
330
97FC
100
AcDbVisualStyle
  2
Realistic
 70
     8
 71
     2
 72
     3
 73
     0
 90
        2
 40
-0.6
 41
30.0
 62
     5
 63
     7
 74
     0
 91
        0
 64
     7
 65
   257
 75
     1
175
     1
 42
1.0
 92
        8
 66
   257
 43
1.0
 76
     1
 77
     6
 78
     2
 67
     7
 79
     3
170
     0
171
     0
290
     0
174
     0
 93
       13
 44
0.0
173
     0
291
     0
 45
0.0
1001
ACAD
1000
AcDbSavedByObjectVersion
1070
     0
  0
VISUALSTYLE
  5
9811
102
{ACAD_XDICTIONARY
360
987E
102
}
102
{ACAD_REACTORS
330
97FC
102
}
330
97FC
100
AcDbVisualStyle
  2
Shaded
 70
    27
 71
     2
 72
     2
 73
     1
 90
        2
 40
-0.6
 41
30.0
 62
     5
 63
     7
 74
     0
 91
        4
 64
     7
 65
   257
 75
     1
175
     1
 42
1.0
 92
        8
 66
   257
 43
1.0
 76
     1
 77
     6
 78
     2
 67
     8
 79
     3
170
     0
171
     0
290
     0
174
     0
 93
        5
 44
0.0
173
     0
291
     0
 45
0.0
1001
ACAD
1000
AcDbSavedByObjectVersion
1070
     0
  0
VISUALSTYLE
  5
9810
102
{ACAD_XDICTIONARY
360
987C
102
}
102
{ACAD_REACTORS
330
97FC
102
}
330
97FC
100
AcDbVisualStyle
  2
Shaded with edges
 70
    26
 71
     2
 72
     2
 73
     1
 90
        2
 40
-0.6
 41
30.0
 62
     5
 63
     7
 74
     1
 91
       10
 64
     7
 65
   257
 75
     2
175
     1
 42
1.0
 92
        8
 66
   257
 43
1.0
 76
     1
 77
     6
 78
     2
 67
     7
 79
     3
170
     0
171
     0
290
     0
174
     0
 93
        5
 44
0.0
173
     0
291
     0
 45
0.0
1001
ACAD
1000
AcDbSavedByObjectVersion
1070
     0
  0
VISUALSTYLE
  5
980D
102
{ACAD_XDICTIONARY
360
9876
102
}
102
{ACAD_REACTORS
330
97FC
102
}
330
97FC
100
AcDbVisualStyle
  2
Shades of Gray
 70
    23
 71
     2
 72
     2
 73
     3
 90
        0
 40
-0.6
 41
-30.0
 62
     5
 63
     7
 74
     2
 91
        2
 64
     7
 65
     7
 75
     1
175
     1
 42
40.0
 92
        8
 66
     7
 43
1.0
 76
     1
 77
     6
 78
     2
 67
     7
 79
     3
170
     0
171
     0
290
     0
174
     0
 93
        1
 44
0.0
173
     0
291
     0
 45
0.0
1001
ACAD
1000
AcDbSavedByObjectVersion
1070
     0
  0
VISUALSTYLE
  5
980E
102
{ACAD_XDICTIONARY
360
9878
102
}
102
{ACAD_REACTORS
330
97FC
102
}
330
97FC
100
AcDbVisualStyle
  2
Sketchy
 70
    24
 71
     1
 72
     2
 73
     2
 90
        0
 40
-0.6
 41
-30.0
 62
     5
 63
     7
 74
     2
 91
        2
 64
     7
 65
     7
 75
     1
175
     1
 42
40.0
 92
       11
 66
     7
 43
1.0
 76
     1
 77
     6
 78
     2
 67
     7
 79
     6
170
     0
171
     0
290
     0
174
     0
 93
        1
 44
0.0
173
     0
291
     0
 45
0.0
1001
ACAD
1000
AcDbSavedByObjectVersion
1070
     0
  0
VISUALSTYLE
  5
9809
102
{ACAD_XDICTIONARY
360
986E
102
}
102
{ACAD_REACTORS
330
97FC
102
}
330
97FC
100
AcDbVisualStyle
  2
Thicken
 70
    13
 71
     2
 72
     2
 73
     0
 90
        0
 40
-0.6
 41
-30.0
 62
     5
 63
     7
 74
     1
 91
        4
 64
     7
 65
   257
 75
     1
175
     1
 42
1.0
 92
       12
 66
     7
 43
1.0
 76
     1
 77
     6
 78
     2
 67
     7
 79
     5
170
     0
171
     0
290
     0
174
     0
 93
        1
 44
0.0
173
     0
291
     1
 45
0.0
1001
ACAD
1000
AcDbSavedByObjectVersion
1070
     0
  0
VISUALSTYLE
  5
9803
102
{ACAD_XDICTIONARY
360
9862
102
}
102
{ACAD_REACTORS
330
97FC
102
}
330
97FC
100
AcDbVisualStyle
  2
Wireframe
 70
     5
 71
     0
 72
     2
 73
     0
 90
        0
 40
-0.6
 41
-30.0
 62
     5
 63
     7
 74
     1
 91
        4
 64
     7
 65
   257
 75
     1
175
     1
 42
1.0
 92
        0
 66
   257
 43
1.0
 76
     1
 77
     6
 78
     2
 67
     7
 79
     3
170
     0
171
     0
290
     0
174
     0
 93
        1
 44
0.0
173
     0
291
     0
 45
0.0
1001
ACAD
1000
AcDbSavedByObjectVersion
1070
     0
  0
VISUALSTYLE
  5
980F
102
{ACAD_XDICTIONARY
360
987A
102
}
102
{ACAD_REACTORS
330
97FC
102
}
330
97FC
100
AcDbVisualStyle
  2
X-Ray
 70
    25
 71
     2
 72
     2
 73
     1
 90
        1
 40
0.5
 41
-30.0
 62
     5
 63
     7
 74
     1
 91
        0
 64
     7
 65
   257
 75
     1
175
     1
 42
1.0
 92
        8
 66
     7
 43
1.0
 76
     1
 77
     6
 78
     2
 67
     7
 79
     3
170
     0
171
     0
290
     0
174
     0
 93
       13
 44
0.0
173
     0
291
     0
 45
0.0
1001
ACAD
1000
AcDbSavedByObjectVersion
1070
     0
  0
DICTIONARYVAR
  5
9849
102
{ACAD_REACTORS
330
9844
102
}
330
9844
100
DictionaryVariables
280
     0
  1
1:1
  0
DICTIONARYVAR
  5
9846
102
{ACAD_REACTORS
330
9844
102
}
330
9844
100
DictionaryVariables
280
     0
  1
STANDARD
  0
DICTIONARYVAR
  5
9845
102
{ACAD_REACTORS
330
9844
102
}
330
9844
100
DictionaryVariables
280
     0
  1
STANDARD
  0
DICTIONARYVAR
  5
9847
102
{ACAD_REACTORS
330
9844
102
}
330
9844
100
DictionaryVariables
280
     0
  1
Imperial24
  0
DICTIONARYVAR
  5
9848
102
{ACAD_REACTORS
330
9844
102
}
330
9844
100
DictionaryVariables
280
     0
  1
Imperial24
  0
DICTIONARYVAR
  5
984C
102
{ACAD_REACTORS
330
9844
102
}
330
9844
100
DictionaryVariables
280
     0
  1
1
  0
DICTIONARYVAR
  5
984B
102
{ACAD_REACTORS
330
9844
102
}
330
9844
100
DictionaryVariables
280
     0
  1
0
  0
DICTIONARYVAR
  5
984A
102
{ACAD_REACTORS
330
9844
102
}
330
9844
100
DictionaryVariables
280
     0
  1
127
  0
DICTIONARYVAR
  5
984D
102
{ACAD_REACTORS
330
9844
102
}
330
9844
100
DictionaryVariables
280
     0
  1
2
  0
DICTIONARY
  5
988A
330
982F
100
AcDbDictionary
280
     1
281
     1
  3
ACAD_XREC_ROUNDTRIP
360
988B
  0
DICTIONARY
  5
988C
330
9830
100
AcDbDictionary
280
     1
281
     1
  3
ACAD_XREC_ROUNDTRIP
360
988D
  0
DICTIONARY
  5
988E
330
9831
100
AcDbDictionary
280
     1
281
     1
  3
ACAD_XREC_ROUNDTRIP
360
988F
  0
DICTIONARY
  5
97ED
330
97EC
100
AcDbDictionary
280
     1
281
     1
  3
ACAD_XREC_ROUNDTRIP
360
9854
  3
BUMPTILE
360
97EF
  3
DIFFUSETILE
360
97EE
  3
OPACITYTILE
360
97F2
  3
REFLECTIONTILE
360
97F1
  3
REFRACTIONTILE
360
97F3
  3
SPECULARTILE
360
97F0
  0
DICTIONARY
  5
97E5
330
97E4
100
AcDbDictionary
280
     1
281
     1
  3
ACAD_XREC_ROUNDTRIP
360
9853
  3
BUMPTILE
360
97E7
  3
DIFFUSETILE
360
97E6
  3
OPACITYTILE
360
97EA
  3
REFLECTIONTILE
360
97E9
  3
REFRACTIONTILE
360
97EB
  3
SPECULARTILE
360
97E8
  0
DICTIONARY
  5
97F5
330
97F4
100
AcDbDictionary
280
     1
281
     1
  3
ACAD_XREC_ROUNDTRIP
360
9855
  3
BUMPTILE
360
97F7
  3
DIFFUSETILE
360
97F6
  3
OPACITYTILE
360
97FA
  3
REFLECTIONTILE
360
97F9
  3
REFRACTIONTILE
360
97FB
  3
SPECULARTILE
360
97F8
  0
DICTIONARY
  5
9888
330
982D
100
AcDbDictionary
280
     1
281
     1
  3
ACAD_XREC_ROUNDTRIP
360
9889
  0
DICTIONARY
  5
984F
330
9817
100
AcDbDictionary
280
     1
281
     1
  3
ACAD_ROUNDTRIP_2008_TABLESTYLE_CELLSTYLEMAP
360
9850
  3
ACAD_XREC_ROUNDTRIP
360
9886
  0
DICTIONARY
  5
9860
330
9802
100
AcDbDictionary
280
     1
281
     1
  3
ACAD_XREC_ROUNDTRIP
360
9861
  0
DICTIONARY
  5
985E
330
9801
100
AcDbDictionary
280
     1
281
     1
  3
ACAD_XREC_ROUNDTRIP
360
985F
  0
DICTIONARY
  5
986C
330
9808
100
AcDbDictionary
280
     1
281
     1
  3
ACAD_XREC_ROUNDTRIP
360
986D
  0
DICTIONARY
  5
9874
330
980C
100
AcDbDictionary
280
     1
281
     1
  3
ACAD_XREC_ROUNDTRIP
360
9875
  0
DICTIONARY
  5
9866
330
9805
100
AcDbDictionary
280
     1
281
     1
  3
ACAD_XREC_ROUNDTRIP
360
9867
  0
DICTIONARY
  5
986A
330
9807
100
AcDbDictionary
280
     1
281
     1
  3
ACAD_XREC_ROUNDTRIP
360
986B
  0
DICTIONARY
  5
9884
330
9814
100
AcDbDictionary
280
     1
281
     1
  3
ACAD_XREC_ROUNDTRIP
360
9885
  0
DICTIONARY
  5
9872
330
980B
100
AcDbDictionary
280
     1
281
     1
  3
ACAD_XREC_ROUNDTRIP
360
9873
  0
DICTIONARY
  5
9856
330
97FD
100
AcDbDictionary
280
     1
281
     1
  3
ACAD_XREC_ROUNDTRIP
360
9857
  0
DICTIONARY
  5
9858
330
97FE
100
AcDbDictionary
280
     1
281
     1
  3
ACAD_XREC_ROUNDTRIP
360
9859
  0
DICTIONARY
  5
985A
330
97FF
100
AcDbDictionary
280
     1
281
     1
  3
ACAD_XREC_ROUNDTRIP
360
985B
  0
DICTIONARY
  5
985C
330
9800
100
AcDbDictionary
280
     1
281
     1
  3
ACAD_XREC_ROUNDTRIP
360
985D
  0
DICTIONARY
  5
9864
330
9804
100
AcDbDictionary
280
     1
281
     1
  3
ACAD_XREC_ROUNDTRIP
360
9865
  0
DICTIONARY
  5
9880
330
9812
100
AcDbDictionary
280
     1
281
     1
  3
ACAD_XREC_ROUNDTRIP
360
9881
  0
DICTIONARY
  5
9870
330
980A
100
AcDbDictionary
280
     1
281
     1
  3
ACAD_XREC_ROUNDTRIP
360
9871
  0
DICTIONARY
  5
9882
330
9813
100
AcDbDictionary
280
     1
281
     1
  3
ACAD_XREC_ROUNDTRIP
360
9883
  0
DICTIONARY
  5
9868
330
9806
100
AcDbDictionary
280
     1
281
     1
  3
ACAD_XREC_ROUNDTRIP
360
9869
  0
DICTIONARY
  5
987E
330
9811
100
AcDbDictionary
280
     1
281
     1
  3
ACAD_XREC_ROUNDTRIP
360
987F
  0
DICTIONARY
  5
987C
330
9810
100
AcDbDictionary
280
     1
281
     1
  3
ACAD_XREC_ROUNDTRIP
360
987D
  0
DICTIONARY
  5
9876
330
980D
100
AcDbDictionary
280
     1
281
     1
  3
ACAD_XREC_ROUNDTRIP
360
9877
  0
DICTIONARY
  5
9878
330
980E
100
AcDbDictionary
280
     1
281
     1
  3
ACAD_XREC_ROUNDTRIP
360
9879
  0
DICTIONARY
  5
986E
330
9809
100
AcDbDictionary
280
     1
281
     1
  3
ACAD_XREC_ROUNDTRIP
360
986F
  0
DICTIONARY
  5
9862
330
9803
100
AcDbDictionary
280
     1
281
     1
  3
ACAD_XREC_ROUNDTRIP
360
9863
  0
DICTIONARY
  5
987A
330
980F
100
AcDbDictionary
280
     1
281
     1
  3
ACAD_XREC_ROUNDTRIP
360
987B
  0
XRECORD
  5
988B
102
{ACAD_REACTORS
330
988A
102
}
330
988A
100
AcDbXrecord
280
     1
102
DISPLAYNAME
  1
Imperial24
102
FLAGS
 90
        0
  0
XRECORD
  5
988D
102
{ACAD_REACTORS
330
988C
102
}
330
988C
100
AcDbXrecord
280
     1
102
SHADEPLOT
 70
     0
102
SHADEPLOTRESLEVEL
 70
     2
102
SHADEPLOTCUSTOMDPI
 70
   300
  0
XRECORD
  5
988F
102
{ACAD_REACTORS
330
988E
102
}
330
988E
100
AcDbXrecord
280
     1
102
SHADEPLOT
 70
     0
102
SHADEPLOTRESLEVEL
 70
     2
102
SHADEPLOTCUSTOMDPI
 70
   300
  0
XRECORD
  5
9854
102
{ACAD_REACTORS
330
97ED
102
}
330
97ED
100
AcDbXrecord
280
     1
102
MATERIAL
148
0.0
149
0.0
149
0.0
 93
        0
 94
      127
282
     0
 72
     0
 77
     0
171
     0
175
     0
179
     0
273
     0
  0
XRECORD
  5
97EF
102
{ACAD_REACTORS
330
97ED
102
}
330
97ED
100
AcDbXrecord
280
     1
270
     1
271
     1
  0
XRECORD
  5
97EE
102
{ACAD_REACTORS
330
97ED
102
}
330
97ED
100
AcDbXrecord
280
     1
270
     1
271
     1
  0
XRECORD
  5
97F2
102
{ACAD_REACTORS
330
97ED
102
}
330
97ED
100
AcDbXrecord
280
     1
270
     1
271
     1
  0
XRECORD
  5
97F1
102
{ACAD_REACTORS
330
97ED
102
}
330
97ED
100
AcDbXrecord
280
     1
270
     1
271
     1
  0
XRECORD
  5
97F3
102
{ACAD_REACTORS
330
97ED
102
}
330
97ED
100
AcDbXrecord
280
     1
270
     1
271
     1
  0
XRECORD
  5
97F0
102
{ACAD_REACTORS
330
97ED
102
}
330
97ED
100
AcDbXrecord
280
     1
270
     1
271
     1
  0
XRECORD
  5
9853
102
{ACAD_REACTORS
330
97E5
102
}
330
97E5
100
AcDbXrecord
280
     1
102
MATERIAL
148
0.0
149
0.0
149
0.0
 93
        0
 94
      127
282
     0
 72
     0
 77
     0
171
     0
175
     0
179
     0
273
     0
  0
XRECORD
  5
97E7
102
{ACAD_REACTORS
330
97E5
102
}
330
97E5
100
AcDbXrecord
280
     1
270
     1
271
     1
  0
XRECORD
  5
97E6
102
{ACAD_REACTORS
330
97E5
102
}
330
97E5
100
AcDbXrecord
280
     1
270
     1
271
     1
  0
XRECORD
  5
97EA
102
{ACAD_REACTORS
330
97E5
102
}
330
97E5
100
AcDbXrecord
280
     1
270
     1
271
     1
  0
XRECORD
  5
97E9
102
{ACAD_REACTORS
330
97E5
102
}
330
97E5
100
AcDbXrecord
280
     1
270
     1
271
     1
  0
XRECORD
  5
97EB
102
{ACAD_REACTORS
330
97E5
102
}
330
97E5
100
AcDbXrecord
280
     1
270
     1
271
     1
  0
XRECORD
  5
97E8
102
{ACAD_REACTORS
330
97E5
102
}
330
97E5
100
AcDbXrecord
280
     1
270
     1
271
     1
  0
XRECORD
  5
9855
102
{ACAD_REACTORS
330
97F5
102
}
330
97F5
100
AcDbXrecord
280
     1
102
MATERIAL
148
0.0
149
0.0
149
0.0
 93
        0
 94
      127
282
     0
 72
     0
 77
     0
171
     0
175
     0
179
     0
273
     0
  0
XRECORD
  5
97F7
102
{ACAD_REACTORS
330
97F5
102
}
330
97F5
100
AcDbXrecord
280
     1
270
     1
271
     1
  0
XRECORD
  5
97F6
102
{ACAD_REACTORS
330
97F5
102
}
330
97F5
100
AcDbXrecord
280
     1
270
     1
271
     1
  0
XRECORD
  5
97FA
102
{ACAD_REACTORS
330
97F5
102
}
330
97F5
100
AcDbXrecord
280
     1
270
     1
271
     1
  0
XRECORD
  5
97F9
102
{ACAD_REACTORS
330
97F5
102
}
330
97F5
100
AcDbXrecord
280
     1
270
     1
271
     1
  0
XRECORD
  5
97FB
102
{ACAD_REACTORS
330
97F5
102
}
330
97F5
100
AcDbXrecord
280
     1
270
     1
271
     1
  0
XRECORD
  5
97F8
102
{ACAD_REACTORS
330
97F5
102
}
330
97F5
100
AcDbXrecord
280
     1
270
     1
271
     1
  0
XRECORD
  5
9889
102
{ACAD_REACTORS
330
9888
102
}
330
9888
100
AcDbXrecord
280
     1
102
DISPLAYNAME
  1
Imperial24
102
FLAGS
 90
        0
  0
CELLSTYLEMAP
  5
9850
102
{ACAD_REACTORS
330
984F
102
}
330
984F
100
AcDbCellStyleMap
 90
        3
300
CELLSTYLE
  1
TABLEFORMAT_BEGIN
 90
        5
170
     1
 91
        0
 92
    32768
 62
   257
 93
        1
300
CONTENTFORMAT
  1
CONTENTFORMAT_BEGIN
 90
        0
 91
        0
 92
      512
 93
        0
300

 40
0.0
140
1.0
 94
        5
 62
     0
340
9557
144
0.25
309
CONTENTFORMAT_END
171
     0
 94
        0
309
TABLEFORMAT_END
  1
CELLSTYLE_BEGIN
 90
        1
 91
        1
300
_TITLE
309
CELLSTYLE_END
300
CELLSTYLE
  1
TABLEFORMAT_BEGIN
 90
        5
170
     1
 91
        0
 92
        0
 62
   257
 93
        1
300
CONTENTFORMAT
  1
CONTENTFORMAT_BEGIN
 90
        0
 91
        0
 92
      512
 93
        0
300

 40
0.0
140
1.0
 94
        5
 62
     0
340
9557
144
0.18
309
CONTENTFORMAT_END
171
     0
 94
        0
309
TABLEFORMAT_END
  1
CELLSTYLE_BEGIN
 90
        2
 91
        1
300
_HEADER
309
CELLSTYLE_END
300
CELLSTYLE
  1
TABLEFORMAT_BEGIN
 90
        5
170
     1
 91
        0
 92
        0
 62
   257
 93
        1
300
CONTENTFORMAT
  1
CONTENTFORMAT_BEGIN
 90
        0
 91
        0
 92
      512
 93
        0
300

 40
0.0
140
1.0
 94
        2
 62
     0
340
9557
144
0.18
309
CONTENTFORMAT_END
171
     0
 94
        0
309
TABLEFORMAT_END
  1
CELLSTYLE_BEGIN
 90
        3
 91
        2
300
_DATA
309
CELLSTYLE_END
  0
XRECORD
  5
9886
102
{ACAD_REACTORS
330
984F
102
}
330
984F
100
AcDbXrecord
280
     1
102
ACAD_ROUNDTRIP_PRE2007_TABLESTYLE
 90
      512
 91
        0
  1

 92
      512
 93
        0
  2

 94
      512
 95
        0
  3

  0
XRECORD
  5
9861
102
{ACAD_REACTORS
330
9860
102
}
330
9860
100
AcDbXrecord
280
     1
102
RTVSPost2010Prop28
280
     1
102
RTVSPost2010PropOp28
 70
     1
102
RTVSPost2010Prop29
280
     1
102
RTVSPost2010PropOp29
 70
     1
102
RTVSPost2010Prop30
280
     0
102
RTVSPost2010PropOp30
 70
     1
102
RTVSPost2010Prop31
280
     0
102
RTVSPost2010PropOp31
 70
     1
102
RTVSPost2010Prop32
280
     0
102
RTVSPost2010PropOp32
 70
     1
102
RTVSPost2010Prop33
280
     0
102
RTVSPost2010PropOp33
 70
     1
102
RTVSPost2010Prop34
280
     0
102
RTVSPost2010PropOp34
 70
     1
102
RTVSPost2010Prop35
280
     0
102
RTVSPost2010PropOp35
 70
     1
102
RTVSPost2010Prop36
280
     0
102
RTVSPost2010PropOp36
 70
     1
102
RTVSPost2010Prop37
 90
       50
102
RTVSPost2010PropOp37
 70
     1
102
RTVSPost2010Prop38
140
0.0
102
RTVSPost2010PropOp38
 70
     1
102
RTVSPost2010Prop39
140
1.0
102
RTVSPost2010PropOp39
 70
     1
102
RTVSPost2010Prop40
 90
        0
102
RTVSPost2010PropOp40
 70
     1
102
RTVSPost2010Prop41ColorIndex
 90
       18
102
RTVSPost2010Prop41ColorRGB
 90
        0
102
RTVSPost2010PropOp41
 70
     1
102
RTVSPost2010Prop42
 90
       50
102
RTVSPost2010PropOp42
 70
     1
102
RTVSPost2010Prop43
 90
        3
102
RTVSPost2010PropOp43
 70
     1
102
RTVSPost2010Prop44ColorIndex
 90
        5
102
RTVSPost2010Prop44ColorRGB
 90
      255
102
RTVSPost2010PropOp44
 70
     1
102
RTVSPost2010Prop45
280
     0
102
RTVSPost2010PropOp45
 70
     1
102
RTVSPost2010Prop46
 90
       50
102
RTVSPost2010PropOp46
 70
     1
102
RTVSPost2010Prop47
 90
       50
102
RTVSPost2010PropOp47
 70
     1
102
RTVSPost2010Prop48
 90
       50
102
RTVSPost2010PropOp48
 70
     1
102
RTVSPost2010Prop49
280
     0
102
RTVSPost2010PropOp49
 70
     1
102
RTVSPost2010Prop50
 90
       50
102
RTVSPost2010PropOp50
 70
     1
102
RTVSPost2010Prop51ColorIndex
 90
      256
102
RTVSPost2010Prop51ColorRGB
 90
-16777216
102
RTVSPost2010PropOp51
 70
     0
102
RTVSPost2010Prop52
140
1.0
102
RTVSPost2010PropOp52
 70
     0
102
RTVSPost2010Prop53
 90
        2
102
RTVSPost2010PropOp53
 70
     1
102
RTVSPost2010Prop54
  1
strokes_ogs.tif
102
RTVSPost2010PropOp54
 70
     1
102
RTVSPost2010Prop55
280
     0
102
RTVSPost2010PropOp55
 70
     1
102
RTVSPost2010Prop56
140
1.0
102
RTVSPost2010PropOp56
 70
     1
102
RTVSPost2010Prop57
140
1.0
102
RTVSPost2010PropOp57
 70
     1
102
RTVSPropertyOp0
 70
     1
102
RTVSPropertyOp1
 70
     1
102
RTVSPropertyOp2
 70
     1
102
RTVSPropertyOp3
 70
     1
102
RTVSPropertyOp4
 70
     1
102
RTVSPropertyOp5
 70
     1
102
RTVSPropertyOp6
 70
     1
102
RTVSPropertyOp7
 70
     1
102
RTVSPropertyOp8
 70
     1
102
RTVSPropertyOp9
 70
     1
102
RTVSPropertyOp10
 70
     1
102
RTVSPropertyOp11
 70
     1
102
RTVSPropertyOp12
 70
     1
102
RTVSPropertyOp13
 70
     1
102
RTVSPropertyOp14
 70
     1
102
RTVSPropertyOp15
 70
     1
102
RTVSPropertyOp16
 70
     1
102
RTVSPropertyOp17
 70
     1
102
RTVSPropertyOp18
 70
     1
102
RTVSPropertyOp19
 70
     1
102
RTVSPropertyOp20
 70
     1
102
RTVSPropertyOp21
 70
     1
102
RTVSPropertyOp22
 70
     1
102
RTVSPropertyOp23
 70
     1
102
RTVSPropertyOp24
 70
     1
102
RTVSPropertyOp25
 70
     1
102
RTVSPropertyOp26
 70
     1
102
RTVSPropertyOp27
 70
     1
102
RTVSPropertyOp28
 70
     1
102
RTVSPropertyOp29
 70
     1
102
RTVSPropertyOp30
 70
     1
102
RTVSPropertyOp31
 70
     1
102
RTVSPropertyOp32
 70
     1
102
RTVSPropertyOp33
 70
     1
102
RTVSPropertyOp34
 70
     1
102
RTVSPropertyOp35
 70
     1
102
RTVSPropertyOp36
 70
     1
102
RTVSPropertyOp37
 70
     1
102
RTVSPropertyOp38
 70
     1
102
RTVSPropertyOp39
 70
     1
102
RTVSPropertyOp40
 70
     1
102
RTVSPropertyOp41
 70
     1
102
RTVSPropertyOp42
 70
     1
102
RTVSPropertyOp43
 70
     1
102
RTVSPropertyOp44
 70
     1
102
RTVSPropertyOp45
 70
     1
102
RTVSPropertyOp46
 70
     1
102
RTVSPropertyOp47
 70
     1
102
RTVSPropertyOp48
 70
     1
102
RTVSPropertyOp49
 70
     1
102
RTVSPropertyOp50
 70
     1
102
RTVSPropertyOp51
 70
     0
102
RTVSPropertyOp52
 70
     0
102
RTVSPropertyOp53
 70
     1
102
RTVSPropertyOp54
 70
     1
102
RTVSPropertyOp55
 70
     1
102
RTVSPropertyOp56
 70
     1
102
RTVSPropertyOp57
 70
     1
102
RTVSPropertyOp58
 70
     1
102
RTVSPropertyOp59
 70
     1
102
RTVSPropertyOp60
 70
     1
102
RTVSPropertyOp61
 70
     1
102
RTVSPropertyOp62
 70
     1
  0
XRECORD
  5
985F
102
{ACAD_REACTORS
330
985E
102
}
330
985E
100
AcDbXrecord
280
     1
102
RTVSPost2010Prop28
280
     0
102
RTVSPost2010PropOp28
 70
     1
102
RTVSPost2010Prop29
280
     1
102
RTVSPost2010PropOp29
 70
     1
102
RTVSPost2010Prop30
280
     1
102
RTVSPost2010PropOp30
 70
     1
102
RTVSPost2010Prop31
280
     0
102
RTVSPost2010PropOp31
 70
     1
102
RTVSPost2010Prop32
280
     0
102
RTVSPost2010PropOp32
 70
     1
102
RTVSPost2010Prop33
280
     0
102
RTVSPost2010PropOp33
 70
     1
102
RTVSPost2010Prop34
280
     0
102
RTVSPost2010PropOp34
 70
     1
102
RTVSPost2010Prop35
280
     0
102
RTVSPost2010PropOp35
 70
     1
102
RTVSPost2010Prop36
280
     0
102
RTVSPost2010PropOp36
 70
     1
102
RTVSPost2010Prop37
 90
       50
102
RTVSPost2010PropOp37
 70
     1
102
RTVSPost2010Prop38
140
0.0
102
RTVSPost2010PropOp38
 70
     1
102
RTVSPost2010Prop39
140
1.0
102
RTVSPost2010PropOp39
 70
     1
102
RTVSPost2010Prop40
 90
        0
102
RTVSPost2010PropOp40
 70
     1
102
RTVSPost2010Prop41ColorIndex
 90
       18
102
RTVSPost2010Prop41ColorRGB
 90
        0
102
RTVSPost2010PropOp41
 70
     1
102
RTVSPost2010Prop42
 90
       50
102
RTVSPost2010PropOp42
 70
     1
102
RTVSPost2010Prop43
 90
        3
102
RTVSPost2010PropOp43
 70
     1
102
RTVSPost2010Prop44ColorIndex
 90
        5
102
RTVSPost2010Prop44ColorRGB
 90
      255
102
RTVSPost2010PropOp44
 70
     1
102
RTVSPost2010Prop45
280
     0
102
RTVSPost2010PropOp45
 70
     1
102
RTVSPost2010Prop46
 90
       50
102
RTVSPost2010PropOp46
 70
     1
102
RTVSPost2010Prop47
 90
       50
102
RTVSPost2010PropOp47
 70
     1
102
RTVSPost2010Prop48
 90
       50
102
RTVSPost2010PropOp48
 70
     1
102
RTVSPost2010Prop49
280
     0
102
RTVSPost2010PropOp49
 70
     1
102
RTVSPost2010Prop50
 90
       50
102
RTVSPost2010PropOp50
 70
     1
102
RTVSPost2010Prop51ColorIndex
 90
      256
102
RTVSPost2010Prop51ColorRGB
 90
-16777216
102
RTVSPost2010PropOp51
 70
     0
102
RTVSPost2010Prop52
140
1.0
102
RTVSPost2010PropOp52
 70
     0
102
RTVSPost2010Prop53
 90
        2
102
RTVSPost2010PropOp53
 70
     1
102
RTVSPost2010Prop54
  1
strokes_ogs.tif
102
RTVSPost2010PropOp54
 70
     1
102
RTVSPost2010Prop55
280
     0
102
RTVSPost2010PropOp55
 70
     1
102
RTVSPost2010Prop56
140
1.0
102
RTVSPost2010PropOp56
 70
     1
102
RTVSPost2010Prop57
140
1.0
102
RTVSPost2010PropOp57
 70
     1
102
RTVSPropertyOp0
 70
     1
102
RTVSPropertyOp1
 70
     1
102
RTVSPropertyOp2
 70
     1
102
RTVSPropertyOp3
 70
     1
102
RTVSPropertyOp4
 70
     1
102
RTVSPropertyOp5
 70
     1
102
RTVSPropertyOp6
 70
     1
102
RTVSPropertyOp7
 70
     1
102
RTVSPropertyOp8
 70
     1
102
RTVSPropertyOp9
 70
     1
102
RTVSPropertyOp10
 70
     1
102
RTVSPropertyOp11
 70
     1
102
RTVSPropertyOp12
 70
     1
102
RTVSPropertyOp13
 70
     1
102
RTVSPropertyOp14
 70
     1
102
RTVSPropertyOp15
 70
     1
102
RTVSPropertyOp16
 70
     1
102
RTVSPropertyOp17
 70
     1
102
RTVSPropertyOp18
 70
     1
102
RTVSPropertyOp19
 70
     1
102
RTVSPropertyOp20
 70
     1
102
RTVSPropertyOp21
 70
     1
102
RTVSPropertyOp22
 70
     1
102
RTVSPropertyOp23
 70
     1
102
RTVSPropertyOp24
 70
     1
102
RTVSPropertyOp25
 70
     1
102
RTVSPropertyOp26
 70
     1
102
RTVSPropertyOp27
 70
     1
102
RTVSPropertyOp28
 70
     1
102
RTVSPropertyOp29
 70
     1
102
RTVSPropertyOp30
 70
     1
102
RTVSPropertyOp31
 70
     1
102
RTVSPropertyOp32
 70
     1
102
RTVSPropertyOp33
 70
     1
102
RTVSPropertyOp34
 70
     1
102
RTVSPropertyOp35
 70
     1
102
RTVSPropertyOp36
 70
     1
102
RTVSPropertyOp37
 70
     1
102
RTVSPropertyOp38
 70
     1
102
RTVSPropertyOp39
 70
     1
102
RTVSPropertyOp40
 70
     1
102
RTVSPropertyOp41
 70
     1
102
RTVSPropertyOp42
 70
     1
102
RTVSPropertyOp43
 70
     1
102
RTVSPropertyOp44
 70
     1
102
RTVSPropertyOp45
 70
     1
102
RTVSPropertyOp46
 70
     1
102
RTVSPropertyOp47
 70
     1
102
RTVSPropertyOp48
 70
     1
102
RTVSPropertyOp49
 70
     1
102
RTVSPropertyOp50
 70
     1
102
RTVSPropertyOp51
 70
     0
102
RTVSPropertyOp52
 70
     0
102
RTVSPropertyOp53
 70
     1
102
RTVSPropertyOp54
 70
     1
102
RTVSPropertyOp55
 70
     1
102
RTVSPropertyOp56
 70
     1
102
RTVSPropertyOp57
 70
     1
102
RTVSPropertyOp58
 70
     1
102
RTVSPropertyOp59
 70
     1
102
RTVSPropertyOp60
 70
     1
102
RTVSPropertyOp61
 70
     1
102
RTVSPropertyOp62
 70
     1
  0
XRECORD
  5
986D
102
{ACAD_REACTORS
330
986C
102
}
330
986C
100
AcDbXrecord
280
     1
102
RTVSPost2010Prop28
280
     0
102
RTVSPost2010PropOp28
 70
     1
102
RTVSPost2010Prop29
280
     1
102
RTVSPost2010PropOp29
 70
     1
102
RTVSPost2010Prop30
280
     1
102
RTVSPost2010PropOp30
 70
     1
102
RTVSPost2010Prop31
280
     0
102
RTVSPost2010PropOp31
 70
     1
102
RTVSPost2010Prop32
280
     0
102
RTVSPost2010PropOp32
 70
     1
102
RTVSPost2010Prop33
280
     0
102
RTVSPost2010PropOp33
 70
     1
102
RTVSPost2010Prop34
280
     0
102
RTVSPost2010PropOp34
 70
     1
102
RTVSPost2010Prop35
280
     0
102
RTVSPost2010PropOp35
 70
     1
102
RTVSPost2010Prop36
280
     0
102
RTVSPost2010PropOp36
 70
     1
102
RTVSPost2010Prop37
 90
       50
102
RTVSPost2010PropOp37
 70
     1
102
RTVSPost2010Prop38
140
0.0
102
RTVSPost2010PropOp38
 70
     1
102
RTVSPost2010Prop39
140
1.0
102
RTVSPost2010PropOp39
 70
     1
102
RTVSPost2010Prop40
 90
        0
102
RTVSPost2010PropOp40
 70
     1
102
RTVSPost2010Prop41ColorIndex
 90
       18
102
RTVSPost2010Prop41ColorRGB
 90
        0
102
RTVSPost2010PropOp41
 70
     1
102
RTVSPost2010Prop42
 90
       50
102
RTVSPost2010PropOp42
 70
     1
102
RTVSPost2010Prop43
 90
        3
102
RTVSPost2010PropOp43
 70
     1
102
RTVSPost2010Prop44ColorIndex
 90
        5
102
RTVSPost2010Prop44ColorRGB
 90
      255
102
RTVSPost2010PropOp44
 70
     1
102
RTVSPost2010Prop45
280
     0
102
RTVSPost2010PropOp45
 70
     1
102
RTVSPost2010Prop46
 90
       50
102
RTVSPost2010PropOp46
 70
     1
102
RTVSPost2010Prop47
 90
       50
102
RTVSPost2010PropOp47
 70
     1
102
RTVSPost2010Prop48
 90
       50
102
RTVSPost2010PropOp48
 70
     1
102
RTVSPost2010Prop49
280
     0
102
RTVSPost2010PropOp49
 70
     1
102
RTVSPost2010Prop50
 90
       50
102
RTVSPost2010PropOp50
 70
     1
102
RTVSPost2010Prop51ColorIndex
 90
      256
102
RTVSPost2010Prop51ColorRGB
 90
-16777216
102
RTVSPost2010PropOp51
 70
     0
102
RTVSPost2010Prop52
140
1.0
102
RTVSPost2010PropOp52
 70
     0
102
RTVSPost2010Prop53
 90
        2
102
RTVSPost2010PropOp53
 70
     1
102
RTVSPost2010Prop54
  1
strokes_ogs.tif
102
RTVSPost2010PropOp54
 70
     1
102
RTVSPost2010Prop55
280
     0
102
RTVSPost2010PropOp55
 70
     1
102
RTVSPost2010Prop56
140
1.0
102
RTVSPost2010PropOp56
 70
     1
102
RTVSPost2010Prop57
140
1.0
102
RTVSPost2010PropOp57
 70
     1
102
RTVSPropertyOp0
 70
     1
102
RTVSPropertyOp1
 70
     1
102
RTVSPropertyOp2
 70
     1
102
RTVSPropertyOp3
 70
     1
102
RTVSPropertyOp4
 70
     1
102
RTVSPropertyOp5
 70
     1
102
RTVSPropertyOp6
 70
     1
102
RTVSPropertyOp7
 70
     1
102
RTVSPropertyOp8
 70
     1
102
RTVSPropertyOp9
 70
     1
102
RTVSPropertyOp10
 70
     1
102
RTVSPropertyOp11
 70
     1
102
RTVSPropertyOp12
 70
     1
102
RTVSPropertyOp13
 70
     1
102
RTVSPropertyOp14
 70
     1
102
RTVSPropertyOp15
 70
     1
102
RTVSPropertyOp16
 70
     1
102
RTVSPropertyOp17
 70
     1
102
RTVSPropertyOp18
 70
     1
102
RTVSPropertyOp19
 70
     1
102
RTVSPropertyOp20
 70
     1
102
RTVSPropertyOp21
 70
     1
102
RTVSPropertyOp22
 70
     1
102
RTVSPropertyOp23
 70
     1
102
RTVSPropertyOp24
 70
     1
102
RTVSPropertyOp25
 70
     1
102
RTVSPropertyOp26
 70
     1
102
RTVSPropertyOp27
 70
     1
102
RTVSPropertyOp28
 70
     1
102
RTVSPropertyOp29
 70
     1
102
RTVSPropertyOp30
 70
     1
102
RTVSPropertyOp31
 70
     1
102
RTVSPropertyOp32
 70
     1
102
RTVSPropertyOp33
 70
     1
102
RTVSPropertyOp34
 70
     1
102
RTVSPropertyOp35
 70
     1
102
RTVSPropertyOp36
 70
     1
102
RTVSPropertyOp37
 70
     1
102
RTVSPropertyOp38
 70
     1
102
RTVSPropertyOp39
 70
     1
102
RTVSPropertyOp40
 70
     1
102
RTVSPropertyOp41
 70
     1
102
RTVSPropertyOp42
 70
     1
102
RTVSPropertyOp43
 70
     1
102
RTVSPropertyOp44
 70
     1
102
RTVSPropertyOp45
 70
     1
102
RTVSPropertyOp46
 70
     1
102
RTVSPropertyOp47
 70
     1
102
RTVSPropertyOp48
 70
     1
102
RTVSPropertyOp49
 70
     1
102
RTVSPropertyOp50
 70
     1
102
RTVSPropertyOp51
 70
     0
102
RTVSPropertyOp52
 70
     0
102
RTVSPropertyOp53
 70
     1
102
RTVSPropertyOp54
 70
     1
102
RTVSPropertyOp55
 70
     1
102
RTVSPropertyOp56
 70
     1
102
RTVSPropertyOp57
 70
     1
102
RTVSPropertyOp58
 70
     1
102
RTVSPropertyOp59
 70
     1
102
RTVSPropertyOp60
 70
     1
102
RTVSPropertyOp61
 70
     1
102
RTVSPropertyOp62
 70
     1
  0
XRECORD
  5
9875
102
{ACAD_REACTORS
330
9874
102
}
330
9874
100
AcDbXrecord
280
     1
102
RTVSPost2010Prop28
280
     0
102
RTVSPost2010PropOp28
 70
     1
102
RTVSPost2010Prop29
280
     1
102
RTVSPost2010PropOp29
 70
     1
102
RTVSPost2010Prop30
280
     1
102
RTVSPost2010PropOp30
 70
     1
102
RTVSPost2010Prop31
280
     0
102
RTVSPost2010PropOp31
 70
     1
102
RTVSPost2010Prop32
280
     0
102
RTVSPost2010PropOp32
 70
     1
102
RTVSPost2010Prop33
280
     0
102
RTVSPost2010PropOp33
 70
     1
102
RTVSPost2010Prop34
280
     0
102
RTVSPost2010PropOp34
 70
     1
102
RTVSPost2010Prop35
280
     0
102
RTVSPost2010PropOp35
 70
     1
102
RTVSPost2010Prop36
280
     0
102
RTVSPost2010PropOp36
 70
     1
102
RTVSPost2010Prop37
 90
       50
102
RTVSPost2010PropOp37
 70
     1
102
RTVSPost2010Prop38
140
0.0
102
RTVSPost2010PropOp38
 70
     1
102
RTVSPost2010Prop39
140
1.0
102
RTVSPost2010PropOp39
 70
     1
102
RTVSPost2010Prop40
 90
        0
102
RTVSPost2010PropOp40
 70
     1
102
RTVSPost2010Prop41ColorIndex
 90
       18
102
RTVSPost2010Prop41ColorRGB
 90
        0
102
RTVSPost2010PropOp41
 70
     1
102
RTVSPost2010Prop42
 90
       50
102
RTVSPost2010PropOp42
 70
     1
102
RTVSPost2010Prop43
 90
        3
102
RTVSPost2010PropOp43
 70
     1
102
RTVSPost2010Prop44ColorIndex
 90
        5
102
RTVSPost2010Prop44ColorRGB
 90
      255
102
RTVSPost2010PropOp44
 70
     1
102
RTVSPost2010Prop45
280
     0
102
RTVSPost2010PropOp45
 70
     1
102
RTVSPost2010Prop46
 90
       50
102
RTVSPost2010PropOp46
 70
     1
102
RTVSPost2010Prop47
 90
       50
102
RTVSPost2010PropOp47
 70
     1
102
RTVSPost2010Prop48
 90
       50
102
RTVSPost2010PropOp48
 70
     1
102
RTVSPost2010Prop49
280
     0
102
RTVSPost2010PropOp49
 70
     1
102
RTVSPost2010Prop50
 90
       50
102
RTVSPost2010PropOp50
 70
     1
102
RTVSPost2010Prop51ColorIndex
 90
      256
102
RTVSPost2010Prop51ColorRGB
 90
-16777216
102
RTVSPost2010PropOp51
 70
     0
102
RTVSPost2010Prop52
140
1.0
102
RTVSPost2010PropOp52
 70
     0
102
RTVSPost2010Prop53
 90
        2
102
RTVSPost2010PropOp53
 70
     1
102
RTVSPost2010Prop54
  1
strokes_ogs.tif
102
RTVSPost2010PropOp54
 70
     1
102
RTVSPost2010Prop55
280
     0
102
RTVSPost2010PropOp55
 70
     1
102
RTVSPost2010Prop56
140
1.0
102
RTVSPost2010PropOp56
 70
     1
102
RTVSPost2010Prop57
140
1.0
102
RTVSPost2010PropOp57
 70
     1
102
RTVSPropertyOp0
 70
     1
102
RTVSPropertyOp1
 70
     1
102
RTVSPropertyOp2
 70
     1
102
RTVSPropertyOp3
 70
     1
102
RTVSPropertyOp4
 70
     1
102
RTVSPropertyOp5
 70
     1
102
RTVSPropertyOp6
 70
     1
102
RTVSPropertyOp7
 70
     1
102
RTVSPropertyOp8
 70
     1
102
RTVSPropertyOp9
 70
     1
102
RTVSPropertyOp10
 70
     1
102
RTVSPropertyOp11
 70
     1
102
RTVSPropertyOp12
 70
     1
102
RTVSPropertyOp13
 70
     1
102
RTVSPropertyOp14
 70
     1
102
RTVSPropertyOp15
 70
     1
102
RTVSPropertyOp16
 70
     1
102
RTVSPropertyOp17
 70
     1
102
RTVSPropertyOp18
 70
     1
102
RTVSPropertyOp19
 70
     1
102
RTVSPropertyOp20
 70
     1
102
RTVSPropertyOp21
 70
     1
102
RTVSPropertyOp22
 70
     1
102
RTVSPropertyOp23
 70
     1
102
RTVSPropertyOp24
 70
     1
102
RTVSPropertyOp25
 70
     1
102
RTVSPropertyOp26
 70
     1
102
RTVSPropertyOp27
 70
     1
102
RTVSPropertyOp28
 70
     1
102
RTVSPropertyOp29
 70
     1
102
RTVSPropertyOp30
 70
     1
102
RTVSPropertyOp31
 70
     1
102
RTVSPropertyOp32
 70
     1
102
RTVSPropertyOp33
 70
     1
102
RTVSPropertyOp34
 70
     1
102
RTVSPropertyOp35
 70
     1
102
RTVSPropertyOp36
 70
     1
102
RTVSPropertyOp37
 70
     1
102
RTVSPropertyOp38
 70
     1
102
RTVSPropertyOp39
 70
     1
102
RTVSPropertyOp40
 70
     1
102
RTVSPropertyOp41
 70
     1
102
RTVSPropertyOp42
 70
     1
102
RTVSPropertyOp43
 70
     1
102
RTVSPropertyOp44
 70
     1
102
RTVSPropertyOp45
 70
     1
102
RTVSPropertyOp46
 70
     1
102
RTVSPropertyOp47
 70
     1
102
RTVSPropertyOp48
 70
     1
102
RTVSPropertyOp49
 70
     1
102
RTVSPropertyOp50
 70
     1
102
RTVSPropertyOp51
 70
     0
102
RTVSPropertyOp52
 70
     0
102
RTVSPropertyOp53
 70
     1
102
RTVSPropertyOp54
 70
     1
102
RTVSPropertyOp55
 70
     1
102
RTVSPropertyOp56
 70
     1
102
RTVSPropertyOp57
 70
     1
102
RTVSPropertyOp58
 70
     1
102
RTVSPropertyOp59
 70
     1
102
RTVSPropertyOp60
 70
     1
102
RTVSPropertyOp61
 70
     1
102
RTVSPropertyOp62
 70
     1
  0
XRECORD
  5
9867
102
{ACAD_REACTORS
330
9866
102
}
330
9866
100
AcDbXrecord
280
     1
102
RTVSPost2010Prop28
280
     0
102
RTVSPost2010PropOp28
 70
     1
102
RTVSPost2010Prop29
280
     1
102
RTVSPost2010PropOp29
 70
     1
102
RTVSPost2010Prop30
280
     1
102
RTVSPost2010PropOp30
 70
     1
102
RTVSPost2010Prop31
280
     0
102
RTVSPost2010PropOp31
 70
     1
102
RTVSPost2010Prop32
280
     0
102
RTVSPost2010PropOp32
 70
     1
102
RTVSPost2010Prop33
280
     0
102
RTVSPost2010PropOp33
 70
     1
102
RTVSPost2010Prop34
280
     0
102
RTVSPost2010PropOp34
 70
     1
102
RTVSPost2010Prop35
280
     0
102
RTVSPost2010PropOp35
 70
     1
102
RTVSPost2010Prop36
280
     0
102
RTVSPost2010PropOp36
 70
     1
102
RTVSPost2010Prop37
 90
       50
102
RTVSPost2010PropOp37
 70
     1
102
RTVSPost2010Prop38
140
0.0
102
RTVSPost2010PropOp38
 70
     1
102
RTVSPost2010Prop39
140
1.0
102
RTVSPost2010PropOp39
 70
     1
102
RTVSPost2010Prop40
 90
        0
102
RTVSPost2010PropOp40
 70
     1
102
RTVSPost2010Prop41ColorIndex
 90
       18
102
RTVSPost2010Prop41ColorRGB
 90
        0
102
RTVSPost2010PropOp41
 70
     1
102
RTVSPost2010Prop42
 90
       50
102
RTVSPost2010PropOp42
 70
     1
102
RTVSPost2010Prop43
 90
        3
102
RTVSPost2010PropOp43
 70
     1
102
RTVSPost2010Prop44ColorIndex
 90
        5
102
RTVSPost2010Prop44ColorRGB
 90
      255
102
RTVSPost2010PropOp44
 70
     1
102
RTVSPost2010Prop45
280
     0
102
RTVSPost2010PropOp45
 70
     1
102
RTVSPost2010Prop46
 90
       50
102
RTVSPost2010PropOp46
 70
     1
102
RTVSPost2010Prop47
 90
       50
102
RTVSPost2010PropOp47
 70
     1
102
RTVSPost2010Prop48
 90
       50
102
RTVSPost2010PropOp48
 70
     1
102
RTVSPost2010Prop49
280
     0
102
RTVSPost2010PropOp49
 70
     1
102
RTVSPost2010Prop50
 90
       50
102
RTVSPost2010PropOp50
 70
     1
102
RTVSPost2010Prop51ColorIndex
 90
      256
102
RTVSPost2010Prop51ColorRGB
 90
-16777216
102
RTVSPost2010PropOp51
 70
     0
102
RTVSPost2010Prop52
140
1.0
102
RTVSPost2010PropOp52
 70
     0
102
RTVSPost2010Prop53
 90
        2
102
RTVSPost2010PropOp53
 70
     1
102
RTVSPost2010Prop54
  1
strokes_ogs.tif
102
RTVSPost2010PropOp54
 70
     1
102
RTVSPost2010Prop55
280
     0
102
RTVSPost2010PropOp55
 70
     1
102
RTVSPost2010Prop56
140
1.0
102
RTVSPost2010PropOp56
 70
     1
102
RTVSPost2010Prop57
140
1.0
102
RTVSPost2010PropOp57
 70
     1
102
RTVSPropertyOp0
 70
     1
102
RTVSPropertyOp1
 70
     1
102
RTVSPropertyOp2
 70
     1
102
RTVSPropertyOp3
 70
     1
102
RTVSPropertyOp4
 70
     1
102
RTVSPropertyOp5
 70
     1
102
RTVSPropertyOp6
 70
     1
102
RTVSPropertyOp7
 70
     1
102
RTVSPropertyOp8
 70
     1
102
RTVSPropertyOp9
 70
     1
102
RTVSPropertyOp10
 70
     1
102
RTVSPropertyOp11
 70
     1
102
RTVSPropertyOp12
 70
     1
102
RTVSPropertyOp13
 70
     1
102
RTVSPropertyOp14
 70
     1
102
RTVSPropertyOp15
 70
     1
102
RTVSPropertyOp16
 70
     1
102
RTVSPropertyOp17
 70
     1
102
RTVSPropertyOp18
 70
     1
102
RTVSPropertyOp19
 70
     1
102
RTVSPropertyOp20
 70
     1
102
RTVSPropertyOp21
 70
     1
102
RTVSPropertyOp22
 70
     1
102
RTVSPropertyOp23
 70
     1
102
RTVSPropertyOp24
 70
     1
102
RTVSPropertyOp25
 70
     1
102
RTVSPropertyOp26
 70
     1
102
RTVSPropertyOp27
 70
     1
102
RTVSPropertyOp28
 70
     1
102
RTVSPropertyOp29
 70
     1
102
RTVSPropertyOp30
 70
     1
102
RTVSPropertyOp31
 70
     1
102
RTVSPropertyOp32
 70
     1
102
RTVSPropertyOp33
 70
     1
102
RTVSPropertyOp34
 70
     1
102
RTVSPropertyOp35
 70
     1
102
RTVSPropertyOp36
 70
     1
102
RTVSPropertyOp37
 70
     1
102
RTVSPropertyOp38
 70
     1
102
RTVSPropertyOp39
 70
     1
102
RTVSPropertyOp40
 70
     1
102
RTVSPropertyOp41
 70
     1
102
RTVSPropertyOp42
 70
     1
102
RTVSPropertyOp43
 70
     1
102
RTVSPropertyOp44
 70
     1
102
RTVSPropertyOp45
 70
     1
102
RTVSPropertyOp46
 70
     1
102
RTVSPropertyOp47
 70
     1
102
RTVSPropertyOp48
 70
     1
102
RTVSPropertyOp49
 70
     1
102
RTVSPropertyOp50
 70
     1
102
RTVSPropertyOp51
 70
     0
102
RTVSPropertyOp52
 70
     0
102
RTVSPropertyOp53
 70
     1
102
RTVSPropertyOp54
 70
     1
102
RTVSPropertyOp55
 70
     1
102
RTVSPropertyOp56
 70
     1
102
RTVSPropertyOp57
 70
     1
102
RTVSPropertyOp58
 70
     1
102
RTVSPropertyOp59
 70
     1
102
RTVSPropertyOp60
 70
     1
102
RTVSPropertyOp61
 70
     1
102
RTVSPropertyOp62
 70
     1
  0
XRECORD
  5
986B
102
{ACAD_REACTORS
330
986A
102
}
330
986A
100
AcDbXrecord
280
     1
102
RTVSPost2010Prop28
280
     0
102
RTVSPost2010PropOp28
 70
     1
102
RTVSPost2010Prop29
280
     1
102
RTVSPost2010PropOp29
 70
     1
102
RTVSPost2010Prop30
280
     1
102
RTVSPost2010PropOp30
 70
     1
102
RTVSPost2010Prop31
280
     0
102
RTVSPost2010PropOp31
 70
     1
102
RTVSPost2010Prop32
280
     0
102
RTVSPost2010PropOp32
 70
     1
102
RTVSPost2010Prop33
280
     0
102
RTVSPost2010PropOp33
 70
     1
102
RTVSPost2010Prop34
280
     0
102
RTVSPost2010PropOp34
 70
     1
102
RTVSPost2010Prop35
280
     0
102
RTVSPost2010PropOp35
 70
     1
102
RTVSPost2010Prop36
280
     0
102
RTVSPost2010PropOp36
 70
     1
102
RTVSPost2010Prop37
 90
       50
102
RTVSPost2010PropOp37
 70
     1
102
RTVSPost2010Prop38
140
0.0
102
RTVSPost2010PropOp38
 70
     1
102
RTVSPost2010Prop39
140
1.0
102
RTVSPost2010PropOp39
 70
     1
102
RTVSPost2010Prop40
 90
        0
102
RTVSPost2010PropOp40
 70
     1
102
RTVSPost2010Prop41ColorIndex
 90
       18
102
RTVSPost2010Prop41ColorRGB
 90
        0
102
RTVSPost2010PropOp41
 70
     1
102
RTVSPost2010Prop42
 90
       50
102
RTVSPost2010PropOp42
 70
     1
102
RTVSPost2010Prop43
 90
        3
102
RTVSPost2010PropOp43
 70
     1
102
RTVSPost2010Prop44ColorIndex
 90
        5
102
RTVSPost2010Prop44ColorRGB
 90
      255
102
RTVSPost2010PropOp44
 70
     1
102
RTVSPost2010Prop45
280
     0
102
RTVSPost2010PropOp45
 70
     1
102
RTVSPost2010Prop46
 90
       50
102
RTVSPost2010PropOp46
 70
     1
102
RTVSPost2010Prop47
 90
       50
102
RTVSPost2010PropOp47
 70
     1
102
RTVSPost2010Prop48
 90
       50
102
RTVSPost2010PropOp48
 70
     1
102
RTVSPost2010Prop49
280
     0
102
RTVSPost2010PropOp49
 70
     1
102
RTVSPost2010Prop50
 90
       50
102
RTVSPost2010PropOp50
 70
     1
102
RTVSPost2010Prop51ColorIndex
 90
      256
102
RTVSPost2010Prop51ColorRGB
 90
-16777216
102
RTVSPost2010PropOp51
 70
     0
102
RTVSPost2010Prop52
140
1.0
102
RTVSPost2010PropOp52
 70
     0
102
RTVSPost2010Prop53
 90
        2
102
RTVSPost2010PropOp53
 70
     1
102
RTVSPost2010Prop54
  1
strokes_ogs.tif
102
RTVSPost2010PropOp54
 70
     1
102
RTVSPost2010Prop55
280
     0
102
RTVSPost2010PropOp55
 70
     1
102
RTVSPost2010Prop56
140
1.0
102
RTVSPost2010PropOp56
 70
     1
102
RTVSPost2010Prop57
140
1.0
102
RTVSPost2010PropOp57
 70
     1
102
RTVSPropertyOp0
 70
     1
102
RTVSPropertyOp1
 70
     1
102
RTVSPropertyOp2
 70
     1
102
RTVSPropertyOp3
 70
     1
102
RTVSPropertyOp4
 70
     1
102
RTVSPropertyOp5
 70
     1
102
RTVSPropertyOp6
 70
     1
102
RTVSPropertyOp7
 70
     1
102
RTVSPropertyOp8
 70
     1
102
RTVSPropertyOp9
 70
     1
102
RTVSPropertyOp10
 70
     1
102
RTVSPropertyOp11
 70
     1
102
RTVSPropertyOp12
 70
     1
102
RTVSPropertyOp13
 70
     1
102
RTVSPropertyOp14
 70
     1
102
RTVSPropertyOp15
 70
     1
102
RTVSPropertyOp16
 70
     1
102
RTVSPropertyOp17
 70
     1
102
RTVSPropertyOp18
 70
     1
102
RTVSPropertyOp19
 70
     1
102
RTVSPropertyOp20
 70
     1
102
RTVSPropertyOp21
 70
     1
102
RTVSPropertyOp22
 70
     1
102
RTVSPropertyOp23
 70
     1
102
RTVSPropertyOp24
 70
     1
102
RTVSPropertyOp25
 70
     1
102
RTVSPropertyOp26
 70
     1
102
RTVSPropertyOp27
 70
     1
102
RTVSPropertyOp28
 70
     1
102
RTVSPropertyOp29
 70
     1
102
RTVSPropertyOp30
 70
     1
102
RTVSPropertyOp31
 70
     1
102
RTVSPropertyOp32
 70
     1
102
RTVSPropertyOp33
 70
     1
102
RTVSPropertyOp34
 70
     1
102
RTVSPropertyOp35
 70
     1
102
RTVSPropertyOp36
 70
     1
102
RTVSPropertyOp37
 70
     1
102
RTVSPropertyOp38
 70
     1
102
RTVSPropertyOp39
 70
     1
102
RTVSPropertyOp40
 70
     1
102
RTVSPropertyOp41
 70
     1
102
RTVSPropertyOp42
 70
     1
102
RTVSPropertyOp43
 70
     1
102
RTVSPropertyOp44
 70
     1
102
RTVSPropertyOp45
 70
     1
102
RTVSPropertyOp46
 70
     1
102
RTVSPropertyOp47
 70
     1
102
RTVSPropertyOp48
 70
     1
102
RTVSPropertyOp49
 70
     1
102
RTVSPropertyOp50
 70
     1
102
RTVSPropertyOp51
 70
     0
102
RTVSPropertyOp52
 70
     0
102
RTVSPropertyOp53
 70
     1
102
RTVSPropertyOp54
 70
     1
102
RTVSPropertyOp55
 70
     1
102
RTVSPropertyOp56
 70
     1
102
RTVSPropertyOp57
 70
     1
102
RTVSPropertyOp58
 70
     1
102
RTVSPropertyOp59
 70
     1
102
RTVSPropertyOp60
 70
     1
102
RTVSPropertyOp61
 70
     1
102
RTVSPropertyOp62
 70
     1
  0
XRECORD
  5
9885
102
{ACAD_REACTORS
330
9884
102
}
330
9884
100
AcDbXrecord
280
     1
102
RTVSPost2010Prop28
280
     0
102
RTVSPost2010PropOp28
 70
     1
102
RTVSPost2010Prop29
280
     1
102
RTVSPost2010PropOp29
 70
     1
102
RTVSPost2010Prop30
280
     1
102
RTVSPost2010PropOp30
 70
     1
102
RTVSPost2010Prop31
280
     0
102
RTVSPost2010PropOp31
 70
     1
102
RTVSPost2010Prop32
280
     0
102
RTVSPost2010PropOp32
 70
     1
102
RTVSPost2010Prop33
280
     0
102
RTVSPost2010PropOp33
 70
     1
102
RTVSPost2010Prop34
280
     0
102
RTVSPost2010PropOp34
 70
     1
102
RTVSPost2010Prop35
280
     0
102
RTVSPost2010PropOp35
 70
     1
102
RTVSPost2010Prop36
280
     0
102
RTVSPost2010PropOp36
 70
     1
102
RTVSPost2010Prop37
 90
       50
102
RTVSPost2010PropOp37
 70
     0
102
RTVSPost2010Prop38
140
0.0
102
RTVSPost2010PropOp38
 70
     0
102
RTVSPost2010Prop39
140
1.0
102
RTVSPost2010PropOp39
 70
     0
102
RTVSPost2010Prop40
 90
        0
102
RTVSPost2010PropOp40
 70
     0
102
RTVSPost2010Prop41ColorIndex
 90
       18
102
RTVSPost2010Prop41ColorRGB
 90
        0
102
RTVSPost2010PropOp41
 70
     0
102
RTVSPost2010Prop42
 90
       50
102
RTVSPost2010PropOp42
 70
     0
102
RTVSPost2010Prop43
 90
        3
102
RTVSPost2010PropOp43
 70
     0
102
RTVSPost2010Prop44ColorIndex
 90
        5
102
RTVSPost2010Prop44ColorRGB
 90
      255
102
RTVSPost2010PropOp44
 70
     0
102
RTVSPost2010Prop45
280
     0
102
RTVSPost2010PropOp45
 70
     1
102
RTVSPost2010Prop46
 90
       50
102
RTVSPost2010PropOp46
 70
     0
102
RTVSPost2010Prop47
 90
       50
102
RTVSPost2010PropOp47
 70
     0
102
RTVSPost2010Prop48
 90
       50
102
RTVSPost2010PropOp48
 70
     0
102
RTVSPost2010Prop49
280
     0
102
RTVSPost2010PropOp49
 70
     1
102
RTVSPost2010Prop50
 90
       50
102
RTVSPost2010PropOp50
 70
     0
102
RTVSPost2010Prop51ColorIndex
 90
      256
102
RTVSPost2010Prop51ColorRGB
 90
-16777216
102
RTVSPost2010PropOp51
 70
     0
102
RTVSPost2010Prop52
140
1.0
102
RTVSPost2010PropOp52
 70
     0
102
RTVSPost2010Prop53
 90
        2
102
RTVSPost2010PropOp53
 70
     0
102
RTVSPost2010Prop54
  1
strokes_ogs.tif
102
RTVSPost2010PropOp54
 70
     0
102
RTVSPost2010Prop55
280
     0
102
RTVSPost2010PropOp55
 70
     1
102
RTVSPost2010Prop56
140
1.0
102
RTVSPost2010PropOp56
 70
     0
102
RTVSPost2010Prop57
140
1.0
102
RTVSPost2010PropOp57
 70
     0
102
RTVSPropertyOp0
 70
     0
102
RTVSPropertyOp1
 70
     0
102
RTVSPropertyOp2
 70
     0
102
RTVSPropertyOp3
 70
     0
102
RTVSPropertyOp4
 70
     0
102
RTVSPropertyOp5
 70
     0
102
RTVSPropertyOp6
 70
     0
102
RTVSPropertyOp7
 70
     0
102
RTVSPropertyOp8
 70
     0
102
RTVSPropertyOp9
 70
     0
102
RTVSPropertyOp10
 70
     0
102
RTVSPropertyOp11
 70
     0
102
RTVSPropertyOp12
 70
     0
102
RTVSPropertyOp13
 70
     0
102
RTVSPropertyOp14
 70
     2
102
RTVSPropertyOp15
 70
     0
102
RTVSPropertyOp16
 70
     0
102
RTVSPropertyOp17
 70
     0
102
RTVSPropertyOp18
 70
     0
102
RTVSPropertyOp19
 70
     0
102
RTVSPropertyOp20
 70
     0
102
RTVSPropertyOp21
 70
     0
102
RTVSPropertyOp22
 70
     0
102
RTVSPropertyOp23
 70
     0
102
RTVSPropertyOp24
 70
     0
102
RTVSPropertyOp25
 70
     0
102
RTVSPropertyOp26
 70
     0
102
RTVSPropertyOp27
 70
     0
102
RTVSPropertyOp28
 70
     1
102
RTVSPropertyOp29
 70
     1
102
RTVSPropertyOp30
 70
     1
102
RTVSPropertyOp31
 70
     1
102
RTVSPropertyOp32
 70
     1
102
RTVSPropertyOp33
 70
     1
102
RTVSPropertyOp34
 70
     1
102
RTVSPropertyOp35
 70
     1
102
RTVSPropertyOp36
 70
     1
102
RTVSPropertyOp37
 70
     0
102
RTVSPropertyOp38
 70
     0
102
RTVSPropertyOp39
 70
     0
102
RTVSPropertyOp40
 70
     0
102
RTVSPropertyOp41
 70
     0
102
RTVSPropertyOp42
 70
     0
102
RTVSPropertyOp43
 70
     0
102
RTVSPropertyOp44
 70
     0
102
RTVSPropertyOp45
 70
     1
102
RTVSPropertyOp46
 70
     0
102
RTVSPropertyOp47
 70
     0
102
RTVSPropertyOp48
 70
     0
102
RTVSPropertyOp49
 70
     1
102
RTVSPropertyOp50
 70
     0
102
RTVSPropertyOp51
 70
     0
102
RTVSPropertyOp52
 70
     0
102
RTVSPropertyOp53
 70
     0
102
RTVSPropertyOp54
 70
     0
102
RTVSPropertyOp55
 70
     1
102
RTVSPropertyOp56
 70
     0
102
RTVSPropertyOp57
 70
     0
102
RTVSPropertyOp58
 70
     0
102
RTVSPropertyOp59
 70
     0
102
RTVSPropertyOp60
 70
     0
102
RTVSPropertyOp61
 70
     0
102
RTVSPropertyOp62
 70
     0
  0
XRECORD
  5
9873
102
{ACAD_REACTORS
330
9872
102
}
330
9872
100
AcDbXrecord
280
     1
102
RTVSPost2010Prop28
280
     0
102
RTVSPost2010PropOp28
 70
     1
102
RTVSPost2010Prop29
280
     1
102
RTVSPost2010PropOp29
 70
     1
102
RTVSPost2010Prop30
280
     1
102
RTVSPost2010PropOp30
 70
     1
102
RTVSPost2010Prop31
280
     0
102
RTVSPost2010PropOp31
 70
     1
102
RTVSPost2010Prop32
280
     0
102
RTVSPost2010PropOp32
 70
     1
102
RTVSPost2010Prop33
280
     0
102
RTVSPost2010PropOp33
 70
     1
102
RTVSPost2010Prop34
280
     0
102
RTVSPost2010PropOp34
 70
     1
102
RTVSPost2010Prop35
280
     0
102
RTVSPost2010PropOp35
 70
     1
102
RTVSPost2010Prop36
280
     0
102
RTVSPost2010PropOp36
 70
     1
102
RTVSPost2010Prop37
 90
       50
102
RTVSPost2010PropOp37
 70
     1
102
RTVSPost2010Prop38
140
0.0
102
RTVSPost2010PropOp38
 70
     1
102
RTVSPost2010Prop39
140
1.0
102
RTVSPost2010PropOp39
 70
     1
102
RTVSPost2010Prop40
 90
        0
102
RTVSPost2010PropOp40
 70
     1
102
RTVSPost2010Prop41ColorIndex
 90
       18
102
RTVSPost2010Prop41ColorRGB
 90
        0
102
RTVSPost2010PropOp41
 70
     1
102
RTVSPost2010Prop42
 90
       50
102
RTVSPost2010PropOp42
 70
     1
102
RTVSPost2010Prop43
 90
        3
102
RTVSPost2010PropOp43
 70
     1
102
RTVSPost2010Prop44ColorIndex
 90
        5
102
RTVSPost2010Prop44ColorRGB
 90
      255
102
RTVSPost2010PropOp44
 70
     1
102
RTVSPost2010Prop45
280
     0
102
RTVSPost2010PropOp45
 70
     1
102
RTVSPost2010Prop46
 90
       50
102
RTVSPost2010PropOp46
 70
     1
102
RTVSPost2010Prop47
 90
       50
102
RTVSPost2010PropOp47
 70
     1
102
RTVSPost2010Prop48
 90
       50
102
RTVSPost2010PropOp48
 70
     1
102
RTVSPost2010Prop49
280
     0
102
RTVSPost2010PropOp49
 70
     1
102
RTVSPost2010Prop50
 90
       50
102
RTVSPost2010PropOp50
 70
     1
102
RTVSPost2010Prop51ColorIndex
 90
      256
102
RTVSPost2010Prop51ColorRGB
 90
-16777216
102
RTVSPost2010PropOp51
 70
     0
102
RTVSPost2010Prop52
140
1.0
102
RTVSPost2010PropOp52
 70
     0
102
RTVSPost2010Prop53
 90
        2
102
RTVSPost2010PropOp53
 70
     1
102
RTVSPost2010Prop54
  1
strokes_ogs.tif
102
RTVSPost2010PropOp54
 70
     1
102
RTVSPost2010Prop55
280
     0
102
RTVSPost2010PropOp55
 70
     1
102
RTVSPost2010Prop56
140
1.0
102
RTVSPost2010PropOp56
 70
     1
102
RTVSPost2010Prop57
140
1.0
102
RTVSPost2010PropOp57
 70
     1
102
RTVSPropertyOp0
 70
     1
102
RTVSPropertyOp1
 70
     1
102
RTVSPropertyOp2
 70
     1
102
RTVSPropertyOp3
 70
     1
102
RTVSPropertyOp4
 70
     1
102
RTVSPropertyOp5
 70
     1
102
RTVSPropertyOp6
 70
     1
102
RTVSPropertyOp7
 70
     1
102
RTVSPropertyOp8
 70
     1
102
RTVSPropertyOp9
 70
     1
102
RTVSPropertyOp10
 70
     1
102
RTVSPropertyOp11
 70
     1
102
RTVSPropertyOp12
 70
     1
102
RTVSPropertyOp13
 70
     1
102
RTVSPropertyOp14
 70
     1
102
RTVSPropertyOp15
 70
     1
102
RTVSPropertyOp16
 70
     1
102
RTVSPropertyOp17
 70
     1
102
RTVSPropertyOp18
 70
     1
102
RTVSPropertyOp19
 70
     1
102
RTVSPropertyOp20
 70
     1
102
RTVSPropertyOp21
 70
     1
102
RTVSPropertyOp22
 70
     1
102
RTVSPropertyOp23
 70
     1
102
RTVSPropertyOp24
 70
     1
102
RTVSPropertyOp25
 70
     1
102
RTVSPropertyOp26
 70
     1
102
RTVSPropertyOp27
 70
     1
102
RTVSPropertyOp28
 70
     1
102
RTVSPropertyOp29
 70
     1
102
RTVSPropertyOp30
 70
     1
102
RTVSPropertyOp31
 70
     1
102
RTVSPropertyOp32
 70
     1
102
RTVSPropertyOp33
 70
     1
102
RTVSPropertyOp34
 70
     1
102
RTVSPropertyOp35
 70
     1
102
RTVSPropertyOp36
 70
     1
102
RTVSPropertyOp37
 70
     1
102
RTVSPropertyOp38
 70
     1
102
RTVSPropertyOp39
 70
     1
102
RTVSPropertyOp40
 70
     1
102
RTVSPropertyOp41
 70
     1
102
RTVSPropertyOp42
 70
     1
102
RTVSPropertyOp43
 70
     1
102
RTVSPropertyOp44
 70
     1
102
RTVSPropertyOp45
 70
     1
102
RTVSPropertyOp46
 70
     1
102
RTVSPropertyOp47
 70
     1
102
RTVSPropertyOp48
 70
     1
102
RTVSPropertyOp49
 70
     1
102
RTVSPropertyOp50
 70
     1
102
RTVSPropertyOp51
 70
     0
102
RTVSPropertyOp52
 70
     0
102
RTVSPropertyOp53
 70
     1
102
RTVSPropertyOp54
 70
     1
102
RTVSPropertyOp55
 70
     1
102
RTVSPropertyOp56
 70
     1
102
RTVSPropertyOp57
 70
     1
102
RTVSPropertyOp58
 70
     1
102
RTVSPropertyOp59
 70
     1
102
RTVSPropertyOp60
 70
     1
102
RTVSPropertyOp61
 70
     1
102
RTVSPropertyOp62
 70
     1
  0
XRECORD
  5
9857
102
{ACAD_REACTORS
330
9856
102
}
330
9856
100
AcDbXrecord
280
     1
102
RTVSPost2010Prop28
280
     0
102
RTVSPost2010PropOp28
 70
     1
102
RTVSPost2010Prop29
280
     1
102
RTVSPost2010PropOp29
 70
     1
102
RTVSPost2010Prop30
280
     1
102
RTVSPost2010PropOp30
 70
     1
102
RTVSPost2010Prop31
280
     0
102
RTVSPost2010PropOp31
 70
     1
102
RTVSPost2010Prop32
280
     0
102
RTVSPost2010PropOp32
 70
     1
102
RTVSPost2010Prop33
280
     0
102
RTVSPost2010PropOp33
 70
     1
102
RTVSPost2010Prop34
280
     0
102
RTVSPost2010PropOp34
 70
     1
102
RTVSPost2010Prop35
280
     0
102
RTVSPost2010PropOp35
 70
     1
102
RTVSPost2010Prop36
280
     0
102
RTVSPost2010PropOp36
 70
     1
102
RTVSPost2010Prop37
 90
       50
102
RTVSPost2010PropOp37
 70
     1
102
RTVSPost2010Prop38
140
0.0
102
RTVSPost2010PropOp38
 70
     1
102
RTVSPost2010Prop39
140
1.0
102
RTVSPost2010PropOp39
 70
     1
102
RTVSPost2010Prop40
 90
        0
102
RTVSPost2010PropOp40
 70
     1
102
RTVSPost2010Prop41ColorIndex
 90
       18
102
RTVSPost2010Prop41ColorRGB
 90
        0
102
RTVSPost2010PropOp41
 70
     1
102
RTVSPost2010Prop42
 90
       50
102
RTVSPost2010PropOp42
 70
     1
102
RTVSPost2010Prop43
 90
        3
102
RTVSPost2010PropOp43
 70
     1
102
RTVSPost2010Prop44ColorIndex
 90
        5
102
RTVSPost2010Prop44ColorRGB
 90
      255
102
RTVSPost2010PropOp44
 70
     1
102
RTVSPost2010Prop45
280
     0
102
RTVSPost2010PropOp45
 70
     1
102
RTVSPost2010Prop46
 90
       50
102
RTVSPost2010PropOp46
 70
     1
102
RTVSPost2010Prop47
 90
       50
102
RTVSPost2010PropOp47
 70
     1
102
RTVSPost2010Prop48
 90
       50
102
RTVSPost2010PropOp48
 70
     1
102
RTVSPost2010Prop49
280
     0
102
RTVSPost2010PropOp49
 70
     1
102
RTVSPost2010Prop50
 90
       50
102
RTVSPost2010PropOp50
 70
     1
102
RTVSPost2010Prop51ColorIndex
 90
      256
102
RTVSPost2010Prop51ColorRGB
 90
-16777216
102
RTVSPost2010PropOp51
 70
     0
102
RTVSPost2010Prop52
140
1.0
102
RTVSPost2010PropOp52
 70
     0
102
RTVSPost2010Prop53
 90
        2
102
RTVSPost2010PropOp53
 70
     1
102
RTVSPost2010Prop54
  1
strokes_ogs.tif
102
RTVSPost2010PropOp54
 70
     1
102
RTVSPost2010Prop55
280
     0
102
RTVSPost2010PropOp55
 70
     1
102
RTVSPost2010Prop56
140
1.0
102
RTVSPost2010PropOp56
 70
     1
102
RTVSPost2010Prop57
140
1.0
102
RTVSPost2010PropOp57
 70
     1
102
RTVSPropertyOp0
 70
     1
102
RTVSPropertyOp1
 70
     1
102
RTVSPropertyOp2
 70
     1
102
RTVSPropertyOp3
 70
     1
102
RTVSPropertyOp4
 70
     1
102
RTVSPropertyOp5
 70
     1
102
RTVSPropertyOp6
 70
     1
102
RTVSPropertyOp7
 70
     1
102
RTVSPropertyOp8
 70
     1
102
RTVSPropertyOp9
 70
     1
102
RTVSPropertyOp10
 70
     1
102
RTVSPropertyOp11
 70
     1
102
RTVSPropertyOp12
 70
     1
102
RTVSPropertyOp13
 70
     1
102
RTVSPropertyOp14
 70
     1
102
RTVSPropertyOp15
 70
     1
102
RTVSPropertyOp16
 70
     1
102
RTVSPropertyOp17
 70
     1
102
RTVSPropertyOp18
 70
     1
102
RTVSPropertyOp19
 70
     1
102
RTVSPropertyOp20
 70
     1
102
RTVSPropertyOp21
 70
     1
102
RTVSPropertyOp22
 70
     1
102
RTVSPropertyOp23
 70
     1
102
RTVSPropertyOp24
 70
     1
102
RTVSPropertyOp25
 70
     1
102
RTVSPropertyOp26
 70
     1
102
RTVSPropertyOp27
 70
     1
102
RTVSPropertyOp28
 70
     1
102
RTVSPropertyOp29
 70
     1
102
RTVSPropertyOp30
 70
     1
102
RTVSPropertyOp31
 70
     1
102
RTVSPropertyOp32
 70
     1
102
RTVSPropertyOp33
 70
     1
102
RTVSPropertyOp34
 70
     1
102
RTVSPropertyOp35
 70
     1
102
RTVSPropertyOp36
 70
     1
102
RTVSPropertyOp37
 70
     1
102
RTVSPropertyOp38
 70
     1
102
RTVSPropertyOp39
 70
     1
102
RTVSPropertyOp40
 70
     1
102
RTVSPropertyOp41
 70
     1
102
RTVSPropertyOp42
 70
     1
102
RTVSPropertyOp43
 70
     1
102
RTVSPropertyOp44
 70
     1
102
RTVSPropertyOp45
 70
     1
102
RTVSPropertyOp46
 70
     1
102
RTVSPropertyOp47
 70
     1
102
RTVSPropertyOp48
 70
     1
102
RTVSPropertyOp49
 70
     1
102
RTVSPropertyOp50
 70
     1
102
RTVSPropertyOp51
 70
     0
102
RTVSPropertyOp52
 70
     0
102
RTVSPropertyOp53
 70
     1
102
RTVSPropertyOp54
 70
     1
102
RTVSPropertyOp55
 70
     1
102
RTVSPropertyOp56
 70
     1
102
RTVSPropertyOp57
 70
     1
102
RTVSPropertyOp58
 70
     1
102
RTVSPropertyOp59
 70
     1
102
RTVSPropertyOp60
 70
     1
102
RTVSPropertyOp61
 70
     1
102
RTVSPropertyOp62
 70
     1
  0
XRECORD
  5
9859
102
{ACAD_REACTORS
330
9858
102
}
330
9858
100
AcDbXrecord
280
     1
102
RTVSPost2010Prop28
280
     0
102
RTVSPost2010PropOp28
 70
     1
102
RTVSPost2010Prop29
280
     1
102
RTVSPost2010PropOp29
 70
     1
102
RTVSPost2010Prop30
280
     1
102
RTVSPost2010PropOp30
 70
     1
102
RTVSPost2010Prop31
280
     0
102
RTVSPost2010PropOp31
 70
     1
102
RTVSPost2010Prop32
280
     0
102
RTVSPost2010PropOp32
 70
     1
102
RTVSPost2010Prop33
280
     0
102
RTVSPost2010PropOp33
 70
     1
102
RTVSPost2010Prop34
280
     0
102
RTVSPost2010PropOp34
 70
     1
102
RTVSPost2010Prop35
280
     0
102
RTVSPost2010PropOp35
 70
     1
102
RTVSPost2010Prop36
280
     0
102
RTVSPost2010PropOp36
 70
     1
102
RTVSPost2010Prop37
 90
       50
102
RTVSPost2010PropOp37
 70
     1
102
RTVSPost2010Prop38
140
0.0
102
RTVSPost2010PropOp38
 70
     1
102
RTVSPost2010Prop39
140
1.0
102
RTVSPost2010PropOp39
 70
     1
102
RTVSPost2010Prop40
 90
        0
102
RTVSPost2010PropOp40
 70
     1
102
RTVSPost2010Prop41ColorIndex
 90
       18
102
RTVSPost2010Prop41ColorRGB
 90
        0
102
RTVSPost2010PropOp41
 70
     1
102
RTVSPost2010Prop42
 90
       50
102
RTVSPost2010PropOp42
 70
     1
102
RTVSPost2010Prop43
 90
        3
102
RTVSPost2010PropOp43
 70
     1
102
RTVSPost2010Prop44ColorIndex
 90
        5
102
RTVSPost2010Prop44ColorRGB
 90
      255
102
RTVSPost2010PropOp44
 70
     1
102
RTVSPost2010Prop45
280
     0
102
RTVSPost2010PropOp45
 70
     1
102
RTVSPost2010Prop46
 90
       50
102
RTVSPost2010PropOp46
 70
     1
102
RTVSPost2010Prop47
 90
       50
102
RTVSPost2010PropOp47
 70
     1
102
RTVSPost2010Prop48
 90
       50
102
RTVSPost2010PropOp48
 70
     1
102
RTVSPost2010Prop49
280
     0
102
RTVSPost2010PropOp49
 70
     1
102
RTVSPost2010Prop50
 90
       50
102
RTVSPost2010PropOp50
 70
     1
102
RTVSPost2010Prop51ColorIndex
 90
      256
102
RTVSPost2010Prop51ColorRGB
 90
-16777216
102
RTVSPost2010PropOp51
 70
     0
102
RTVSPost2010Prop52
140
1.0
102
RTVSPost2010PropOp52
 70
     0
102
RTVSPost2010Prop53
 90
        2
102
RTVSPost2010PropOp53
 70
     1
102
RTVSPost2010Prop54
  1
strokes_ogs.tif
102
RTVSPost2010PropOp54
 70
     1
102
RTVSPost2010Prop55
280
     0
102
RTVSPost2010PropOp55
 70
     1
102
RTVSPost2010Prop56
140
1.0
102
RTVSPost2010PropOp56
 70
     1
102
RTVSPost2010Prop57
140
1.0
102
RTVSPost2010PropOp57
 70
     1
102
RTVSPropertyOp0
 70
     1
102
RTVSPropertyOp1
 70
     1
102
RTVSPropertyOp2
 70
     1
102
RTVSPropertyOp3
 70
     1
102
RTVSPropertyOp4
 70
     1
102
RTVSPropertyOp5
 70
     1
102
RTVSPropertyOp6
 70
     1
102
RTVSPropertyOp7
 70
     1
102
RTVSPropertyOp8
 70
     1
102
RTVSPropertyOp9
 70
     1
102
RTVSPropertyOp10
 70
     1
102
RTVSPropertyOp11
 70
     1
102
RTVSPropertyOp12
 70
     1
102
RTVSPropertyOp13
 70
     1
102
RTVSPropertyOp14
 70
     1
102
RTVSPropertyOp15
 70
     1
102
RTVSPropertyOp16
 70
     1
102
RTVSPropertyOp17
 70
     1
102
RTVSPropertyOp18
 70
     1
102
RTVSPropertyOp19
 70
     1
102
RTVSPropertyOp20
 70
     1
102
RTVSPropertyOp21
 70
     1
102
RTVSPropertyOp22
 70
     1
102
RTVSPropertyOp23
 70
     1
102
RTVSPropertyOp24
 70
     1
102
RTVSPropertyOp25
 70
     1
102
RTVSPropertyOp26
 70
     1
102
RTVSPropertyOp27
 70
     1
102
RTVSPropertyOp28
 70
     1
102
RTVSPropertyOp29
 70
     1
102
RTVSPropertyOp30
 70
     1
102
RTVSPropertyOp31
 70
     1
102
RTVSPropertyOp32
 70
     1
102
RTVSPropertyOp33
 70
     1
102
RTVSPropertyOp34
 70
     1
102
RTVSPropertyOp35
 70
     1
102
RTVSPropertyOp36
 70
     1
102
RTVSPropertyOp37
 70
     1
102
RTVSPropertyOp38
 70
     1
102
RTVSPropertyOp39
 70
     1
102
RTVSPropertyOp40
 70
     1
102
RTVSPropertyOp41
 70
     1
102
RTVSPropertyOp42
 70
     1
102
RTVSPropertyOp43
 70
     1
102
RTVSPropertyOp44
 70
     1
102
RTVSPropertyOp45
 70
     1
102
RTVSPropertyOp46
 70
     1
102
RTVSPropertyOp47
 70
     1
102
RTVSPropertyOp48
 70
     1
102
RTVSPropertyOp49
 70
     1
102
RTVSPropertyOp50
 70
     1
102
RTVSPropertyOp51
 70
     0
102
RTVSPropertyOp52
 70
     0
102
RTVSPropertyOp53
 70
     1
102
RTVSPropertyOp54
 70
     1
102
RTVSPropertyOp55
 70
     1
102
RTVSPropertyOp56
 70
     1
102
RTVSPropertyOp57
 70
     1
102
RTVSPropertyOp58
 70
     1
102
RTVSPropertyOp59
 70
     1
102
RTVSPropertyOp60
 70
     1
102
RTVSPropertyOp61
 70
     1
102
RTVSPropertyOp62
 70
     1
  0
XRECORD
  5
985B
102
{ACAD_REACTORS
330
985A
102
}
330
985A
100
AcDbXrecord
280
     1
102
RTVSPost2010Prop28
280
     0
102
RTVSPost2010PropOp28
 70
     1
102
RTVSPost2010Prop29
280
     1
102
RTVSPost2010PropOp29
 70
     1
102
RTVSPost2010Prop30
280
     1
102
RTVSPost2010PropOp30
 70
     1
102
RTVSPost2010Prop31
280
     0
102
RTVSPost2010PropOp31
 70
     1
102
RTVSPost2010Prop32
280
     0
102
RTVSPost2010PropOp32
 70
     1
102
RTVSPost2010Prop33
280
     0
102
RTVSPost2010PropOp33
 70
     1
102
RTVSPost2010Prop34
280
     0
102
RTVSPost2010PropOp34
 70
     1
102
RTVSPost2010Prop35
280
     0
102
RTVSPost2010PropOp35
 70
     1
102
RTVSPost2010Prop36
280
     0
102
RTVSPost2010PropOp36
 70
     1
102
RTVSPost2010Prop37
 90
       50
102
RTVSPost2010PropOp37
 70
     1
102
RTVSPost2010Prop38
140
0.0
102
RTVSPost2010PropOp38
 70
     1
102
RTVSPost2010Prop39
140
1.0
102
RTVSPost2010PropOp39
 70
     1
102
RTVSPost2010Prop40
 90
        0
102
RTVSPost2010PropOp40
 70
     1
102
RTVSPost2010Prop41ColorIndex
 90
       18
102
RTVSPost2010Prop41ColorRGB
 90
        0
102
RTVSPost2010PropOp41
 70
     1
102
RTVSPost2010Prop42
 90
       50
102
RTVSPost2010PropOp42
 70
     1
102
RTVSPost2010Prop43
 90
        3
102
RTVSPost2010PropOp43
 70
     1
102
RTVSPost2010Prop44ColorIndex
 90
        5
102
RTVSPost2010Prop44ColorRGB
 90
      255
102
RTVSPost2010PropOp44
 70
     1
102
RTVSPost2010Prop45
280
     0
102
RTVSPost2010PropOp45
 70
     1
102
RTVSPost2010Prop46
 90
       50
102
RTVSPost2010PropOp46
 70
     1
102
RTVSPost2010Prop47
 90
       50
102
RTVSPost2010PropOp47
 70
     1
102
RTVSPost2010Prop48
 90
       50
102
RTVSPost2010PropOp48
 70
     1
102
RTVSPost2010Prop49
280
     0
102
RTVSPost2010PropOp49
 70
     1
102
RTVSPost2010Prop50
 90
       50
102
RTVSPost2010PropOp50
 70
     1
102
RTVSPost2010Prop51ColorIndex
 90
      256
102
RTVSPost2010Prop51ColorRGB
 90
-16777216
102
RTVSPost2010PropOp51
 70
     0
102
RTVSPost2010Prop52
140
1.0
102
RTVSPost2010PropOp52
 70
     0
102
RTVSPost2010Prop53
 90
        2
102
RTVSPost2010PropOp53
 70
     1
102
RTVSPost2010Prop54
  1
strokes_ogs.tif
102
RTVSPost2010PropOp54
 70
     1
102
RTVSPost2010Prop55
280
     0
102
RTVSPost2010PropOp55
 70
     1
102
RTVSPost2010Prop56
140
1.0
102
RTVSPost2010PropOp56
 70
     1
102
RTVSPost2010Prop57
140
1.0
102
RTVSPost2010PropOp57
 70
     1
102
RTVSPropertyOp0
 70
     1
102
RTVSPropertyOp1
 70
     1
102
RTVSPropertyOp2
 70
     1
102
RTVSPropertyOp3
 70
     1
102
RTVSPropertyOp4
 70
     1
102
RTVSPropertyOp5
 70
     1
102
RTVSPropertyOp6
 70
     1
102
RTVSPropertyOp7
 70
     1
102
RTVSPropertyOp8
 70
     1
102
RTVSPropertyOp9
 70
     1
102
RTVSPropertyOp10
 70
     1
102
RTVSPropertyOp11
 70
     1
102
RTVSPropertyOp12
 70
     1
102
RTVSPropertyOp13
 70
     1
102
RTVSPropertyOp14
 70
     1
102
RTVSPropertyOp15
 70
     1
102
RTVSPropertyOp16
 70
     1
102
RTVSPropertyOp17
 70
     1
102
RTVSPropertyOp18
 70
     1
102
RTVSPropertyOp19
 70
     1
102
RTVSPropertyOp20
 70
     1
102
RTVSPropertyOp21
 70
     1
102
RTVSPropertyOp22
 70
     1
102
RTVSPropertyOp23
 70
     1
102
RTVSPropertyOp24
 70
     1
102
RTVSPropertyOp25
 70
     1
102
RTVSPropertyOp26
 70
     1
102
RTVSPropertyOp27
 70
     1
102
RTVSPropertyOp28
 70
     1
102
RTVSPropertyOp29
 70
     1
102
RTVSPropertyOp30
 70
     1
102
RTVSPropertyOp31
 70
     1
102
RTVSPropertyOp32
 70
     1
102
RTVSPropertyOp33
 70
     1
102
RTVSPropertyOp34
 70
     1
102
RTVSPropertyOp35
 70
     1
102
RTVSPropertyOp36
 70
     1
102
RTVSPropertyOp37
 70
     1
102
RTVSPropertyOp38
 70
     1
102
RTVSPropertyOp39
 70
     1
102
RTVSPropertyOp40
 70
     1
102
RTVSPropertyOp41
 70
     1
102
RTVSPropertyOp42
 70
     1
102
RTVSPropertyOp43
 70
     1
102
RTVSPropertyOp44
 70
     1
102
RTVSPropertyOp45
 70
     1
102
RTVSPropertyOp46
 70
     1
102
RTVSPropertyOp47
 70
     1
102
RTVSPropertyOp48
 70
     1
102
RTVSPropertyOp49
 70
     1
102
RTVSPropertyOp50
 70
     1
102
RTVSPropertyOp51
 70
     0
102
RTVSPropertyOp52
 70
     0
102
RTVSPropertyOp53
 70
     1
102
RTVSPropertyOp54
 70
     1
102
RTVSPropertyOp55
 70
     1
102
RTVSPropertyOp56
 70
     1
102
RTVSPropertyOp57
 70
     1
102
RTVSPropertyOp58
 70
     1
102
RTVSPropertyOp59
 70
     1
102
RTVSPropertyOp60
 70
     1
102
RTVSPropertyOp61
 70
     1
102
RTVSPropertyOp62
 70
     1
  0
XRECORD
  5
985D
102
{ACAD_REACTORS
330
985C
102
}
330
985C
100
AcDbXrecord
280
     1
102
RTVSPost2010Prop28
280
     0
102
RTVSPost2010PropOp28
 70
     1
102
RTVSPost2010Prop29
280
     1
102
RTVSPost2010PropOp29
 70
     1
102
RTVSPost2010Prop30
280
     1
102
RTVSPost2010PropOp30
 70
     1
102
RTVSPost2010Prop31
280
     0
102
RTVSPost2010PropOp31
 70
     1
102
RTVSPost2010Prop32
280
     0
102
RTVSPost2010PropOp32
 70
     1
102
RTVSPost2010Prop33
280
     0
102
RTVSPost2010PropOp33
 70
     1
102
RTVSPost2010Prop34
280
     0
102
RTVSPost2010PropOp34
 70
     1
102
RTVSPost2010Prop35
280
     0
102
RTVSPost2010PropOp35
 70
     1
102
RTVSPost2010Prop36
280
     0
102
RTVSPost2010PropOp36
 70
     1
102
RTVSPost2010Prop37
 90
       50
102
RTVSPost2010PropOp37
 70
     1
102
RTVSPost2010Prop38
140
0.0
102
RTVSPost2010PropOp38
 70
     1
102
RTVSPost2010Prop39
140
1.0
102
RTVSPost2010PropOp39
 70
     1
102
RTVSPost2010Prop40
 90
        0
102
RTVSPost2010PropOp40
 70
     1
102
RTVSPost2010Prop41ColorIndex
 90
       18
102
RTVSPost2010Prop41ColorRGB
 90
        0
102
RTVSPost2010PropOp41
 70
     1
102
RTVSPost2010Prop42
 90
       50
102
RTVSPost2010PropOp42
 70
     1
102
RTVSPost2010Prop43
 90
        3
102
RTVSPost2010PropOp43
 70
     1
102
RTVSPost2010Prop44ColorIndex
 90
        5
102
RTVSPost2010Prop44ColorRGB
 90
      255
102
RTVSPost2010PropOp44
 70
     1
102
RTVSPost2010Prop45
280
     0
102
RTVSPost2010PropOp45
 70
     1
102
RTVSPost2010Prop46
 90
       50
102
RTVSPost2010PropOp46
 70
     1
102
RTVSPost2010Prop47
 90
       50
102
RTVSPost2010PropOp47
 70
     1
102
RTVSPost2010Prop48
 90
       50
102
RTVSPost2010PropOp48
 70
     1
102
RTVSPost2010Prop49
280
     0
102
RTVSPost2010PropOp49
 70
     1
102
RTVSPost2010Prop50
 90
       50
102
RTVSPost2010PropOp50
 70
     1
102
RTVSPost2010Prop51ColorIndex
 90
      256
102
RTVSPost2010Prop51ColorRGB
 90
-16777216
102
RTVSPost2010PropOp51
 70
     0
102
RTVSPost2010Prop52
140
1.0
102
RTVSPost2010PropOp52
 70
     0
102
RTVSPost2010Prop53
 90
        2
102
RTVSPost2010PropOp53
 70
     1
102
RTVSPost2010Prop54
  1
strokes_ogs.tif
102
RTVSPost2010PropOp54
 70
     1
102
RTVSPost2010Prop55
280
     0
102
RTVSPost2010PropOp55
 70
     1
102
RTVSPost2010Prop56
140
1.0
102
RTVSPost2010PropOp56
 70
     1
102
RTVSPost2010Prop57
140
1.0
102
RTVSPost2010PropOp57
 70
     1
102
RTVSPropertyOp0
 70
     1
102
RTVSPropertyOp1
 70
     1
102
RTVSPropertyOp2
 70
     1
102
RTVSPropertyOp3
 70
     1
102
RTVSPropertyOp4
 70
     1
102
RTVSPropertyOp5
 70
     1
102
RTVSPropertyOp6
 70
     1
102
RTVSPropertyOp7
 70
     1
102
RTVSPropertyOp8
 70
     1
102
RTVSPropertyOp9
 70
     1
102
RTVSPropertyOp10
 70
     1
102
RTVSPropertyOp11
 70
     1
102
RTVSPropertyOp12
 70
     1
102
RTVSPropertyOp13
 70
     1
102
RTVSPropertyOp14
 70
     1
102
RTVSPropertyOp15
 70
     1
102
RTVSPropertyOp16
 70
     1
102
RTVSPropertyOp17
 70
     1
102
RTVSPropertyOp18
 70
     1
102
RTVSPropertyOp19
 70
     1
102
RTVSPropertyOp20
 70
     1
102
RTVSPropertyOp21
 70
     1
102
RTVSPropertyOp22
 70
     1
102
RTVSPropertyOp23
 70
     1
102
RTVSPropertyOp24
 70
     1
102
RTVSPropertyOp25
 70
     1
102
RTVSPropertyOp26
 70
     1
102
RTVSPropertyOp27
 70
     1
102
RTVSPropertyOp28
 70
     1
102
RTVSPropertyOp29
 70
     1
102
RTVSPropertyOp30
 70
     1
102
RTVSPropertyOp31
 70
     1
102
RTVSPropertyOp32
 70
     1
102
RTVSPropertyOp33
 70
     1
102
RTVSPropertyOp34
 70
     1
102
RTVSPropertyOp35
 70
     1
102
RTVSPropertyOp36
 70
     1
102
RTVSPropertyOp37
 70
     1
102
RTVSPropertyOp38
 70
     1
102
RTVSPropertyOp39
 70
     1
102
RTVSPropertyOp40
 70
     1
102
RTVSPropertyOp41
 70
     1
102
RTVSPropertyOp42
 70
     1
102
RTVSPropertyOp43
 70
     1
102
RTVSPropertyOp44
 70
     1
102
RTVSPropertyOp45
 70
     1
102
RTVSPropertyOp46
 70
     1
102
RTVSPropertyOp47
 70
     1
102
RTVSPropertyOp48
 70
     1
102
RTVSPropertyOp49
 70
     1
102
RTVSPropertyOp50
 70
     1
102
RTVSPropertyOp51
 70
     0
102
RTVSPropertyOp52
 70
     0
102
RTVSPropertyOp53
 70
     1
102
RTVSPropertyOp54
 70
     1
102
RTVSPropertyOp55
 70
     1
102
RTVSPropertyOp56
 70
     1
102
RTVSPropertyOp57
 70
     1
102
RTVSPropertyOp58
 70
     1
102
RTVSPropertyOp59
 70
     1
102
RTVSPropertyOp60
 70
     1
102
RTVSPropertyOp61
 70
     1
102
RTVSPropertyOp62
 70
     1
  0
XRECORD
  5
9865
102
{ACAD_REACTORS
330
9864
102
}
330
9864
100
AcDbXrecord
280
     1
102
RTVSPost2010Prop28
280
     0
102
RTVSPost2010PropOp28
 70
     1
102
RTVSPost2010Prop29
280
     1
102
RTVSPost2010PropOp29
 70
     1
102
RTVSPost2010Prop30
280
     1
102
RTVSPost2010PropOp30
 70
     1
102
RTVSPost2010Prop31
280
     0
102
RTVSPost2010PropOp31
 70
     1
102
RTVSPost2010Prop32
280
     0
102
RTVSPost2010PropOp32
 70
     1
102
RTVSPost2010Prop33
280
     0
102
RTVSPost2010PropOp33
 70
     1
102
RTVSPost2010Prop34
280
     0
102
RTVSPost2010PropOp34
 70
     1
102
RTVSPost2010Prop35
280
     0
102
RTVSPost2010PropOp35
 70
     1
102
RTVSPost2010Prop36
280
     0
102
RTVSPost2010PropOp36
 70
     1
102
RTVSPost2010Prop37
 90
       50
102
RTVSPost2010PropOp37
 70
     1
102
RTVSPost2010Prop38
140
0.0
102
RTVSPost2010PropOp38
 70
     1
102
RTVSPost2010Prop39
140
1.0
102
RTVSPost2010PropOp39
 70
     1
102
RTVSPost2010Prop40
 90
        0
102
RTVSPost2010PropOp40
 70
     1
102
RTVSPost2010Prop41ColorIndex
 90
       18
102
RTVSPost2010Prop41ColorRGB
 90
        0
102
RTVSPost2010PropOp41
 70
     1
102
RTVSPost2010Prop42
 90
       50
102
RTVSPost2010PropOp42
 70
     1
102
RTVSPost2010Prop43
 90
        3
102
RTVSPost2010PropOp43
 70
     1
102
RTVSPost2010Prop44ColorIndex
 90
        5
102
RTVSPost2010Prop44ColorRGB
 90
      255
102
RTVSPost2010PropOp44
 70
     1
102
RTVSPost2010Prop45
280
     0
102
RTVSPost2010PropOp45
 70
     1
102
RTVSPost2010Prop46
 90
       50
102
RTVSPost2010PropOp46
 70
     1
102
RTVSPost2010Prop47
 90
       50
102
RTVSPost2010PropOp47
 70
     1
102
RTVSPost2010Prop48
 90
       50
102
RTVSPost2010PropOp48
 70
     1
102
RTVSPost2010Prop49
280
     0
102
RTVSPost2010PropOp49
 70
     1
102
RTVSPost2010Prop50
 90
       50
102
RTVSPost2010PropOp50
 70
     1
102
RTVSPost2010Prop51ColorIndex
 90
      256
102
RTVSPost2010Prop51ColorRGB
 90
-16777216
102
RTVSPost2010PropOp51
 70
     0
102
RTVSPost2010Prop52
140
1.0
102
RTVSPost2010PropOp52
 70
     0
102
RTVSPost2010Prop53
 90
        2
102
RTVSPost2010PropOp53
 70
     1
102
RTVSPost2010Prop54
  1
strokes_ogs.tif
102
RTVSPost2010PropOp54
 70
     1
102
RTVSPost2010Prop55
280
     0
102
RTVSPost2010PropOp55
 70
     1
102
RTVSPost2010Prop56
140
1.0
102
RTVSPost2010PropOp56
 70
     1
102
RTVSPost2010Prop57
140
1.0
102
RTVSPost2010PropOp57
 70
     1
102
RTVSPropertyOp0
 70
     1
102
RTVSPropertyOp1
 70
     1
102
RTVSPropertyOp2
 70
     1
102
RTVSPropertyOp3
 70
     1
102
RTVSPropertyOp4
 70
     1
102
RTVSPropertyOp5
 70
     1
102
RTVSPropertyOp6
 70
     1
102
RTVSPropertyOp7
 70
     1
102
RTVSPropertyOp8
 70
     1
102
RTVSPropertyOp9
 70
     1
102
RTVSPropertyOp10
 70
     1
102
RTVSPropertyOp11
 70
     1
102
RTVSPropertyOp12
 70
     1
102
RTVSPropertyOp13
 70
     1
102
RTVSPropertyOp14
 70
     1
102
RTVSPropertyOp15
 70
     1
102
RTVSPropertyOp16
 70
     1
102
RTVSPropertyOp17
 70
     1
102
RTVSPropertyOp18
 70
     1
102
RTVSPropertyOp19
 70
     1
102
RTVSPropertyOp20
 70
     1
102
RTVSPropertyOp21
 70
     1
102
RTVSPropertyOp22
 70
     1
102
RTVSPropertyOp23
 70
     1
102
RTVSPropertyOp24
 70
     1
102
RTVSPropertyOp25
 70
     1
102
RTVSPropertyOp26
 70
     1
102
RTVSPropertyOp27
 70
     1
102
RTVSPropertyOp28
 70
     1
102
RTVSPropertyOp29
 70
     1
102
RTVSPropertyOp30
 70
     1
102
RTVSPropertyOp31
 70
     1
102
RTVSPropertyOp32
 70
     1
102
RTVSPropertyOp33
 70
     1
102
RTVSPropertyOp34
 70
     1
102
RTVSPropertyOp35
 70
     1
102
RTVSPropertyOp36
 70
     1
102
RTVSPropertyOp37
 70
     1
102
RTVSPropertyOp38
 70
     1
102
RTVSPropertyOp39
 70
     1
102
RTVSPropertyOp40
 70
     1
102
RTVSPropertyOp41
 70
     1
102
RTVSPropertyOp42
 70
     1
102
RTVSPropertyOp43
 70
     1
102
RTVSPropertyOp44
 70
     1
102
RTVSPropertyOp45
 70
     1
102
RTVSPropertyOp46
 70
     1
102
RTVSPropertyOp47
 70
     1
102
RTVSPropertyOp48
 70
     1
102
RTVSPropertyOp49
 70
     1
102
RTVSPropertyOp50
 70
     1
102
RTVSPropertyOp51
 70
     0
102
RTVSPropertyOp52
 70
     0
102
RTVSPropertyOp53
 70
     1
102
RTVSPropertyOp54
 70
     1
102
RTVSPropertyOp55
 70
     1
102
RTVSPropertyOp56
 70
     1
102
RTVSPropertyOp57
 70
     1
102
RTVSPropertyOp58
 70
     1
102
RTVSPropertyOp59
 70
     1
102
RTVSPropertyOp60
 70
     1
102
RTVSPropertyOp61
 70
     1
102
RTVSPropertyOp62
 70
     1
  0
XRECORD
  5
9881
102
{ACAD_REACTORS
330
9880
102
}
330
9880
100
AcDbXrecord
280
     1
102
RTVSPost2010Prop28
280
     0
102
RTVSPost2010PropOp28
 70
     1
102
RTVSPost2010Prop29
280
     1
102
RTVSPost2010PropOp29
 70
     1
102
RTVSPost2010Prop30
280
     1
102
RTVSPost2010PropOp30
 70
     1
102
RTVSPost2010Prop31
280
     0
102
RTVSPost2010PropOp31
 70
     1
102
RTVSPost2010Prop32
280
     0
102
RTVSPost2010PropOp32
 70
     1
102
RTVSPost2010Prop33
280
     0
102
RTVSPost2010PropOp33
 70
     1
102
RTVSPost2010Prop34
280
     0
102
RTVSPost2010PropOp34
 70
     1
102
RTVSPost2010Prop35
280
     0
102
RTVSPost2010PropOp35
 70
     1
102
RTVSPost2010Prop36
280
     0
102
RTVSPost2010PropOp36
 70
     1
102
RTVSPost2010Prop37
 90
       50
102
RTVSPost2010PropOp37
 70
     0
102
RTVSPost2010Prop38
140
0.0
102
RTVSPost2010PropOp38
 70
     0
102
RTVSPost2010Prop39
140
1.0
102
RTVSPost2010PropOp39
 70
     0
102
RTVSPost2010Prop40
 90
        0
102
RTVSPost2010PropOp40
 70
     0
102
RTVSPost2010Prop41ColorIndex
 90
       18
102
RTVSPost2010Prop41ColorRGB
 90
        0
102
RTVSPost2010PropOp41
 70
     0
102
RTVSPost2010Prop42
 90
       50
102
RTVSPost2010PropOp42
 70
     0
102
RTVSPost2010Prop43
 90
        3
102
RTVSPost2010PropOp43
 70
     0
102
RTVSPost2010Prop44ColorIndex
 90
        5
102
RTVSPost2010Prop44ColorRGB
 90
      255
102
RTVSPost2010PropOp44
 70
     0
102
RTVSPost2010Prop45
280
     0
102
RTVSPost2010PropOp45
 70
     1
102
RTVSPost2010Prop46
 90
       50
102
RTVSPost2010PropOp46
 70
     0
102
RTVSPost2010Prop47
 90
       50
102
RTVSPost2010PropOp47
 70
     0
102
RTVSPost2010Prop48
 90
       50
102
RTVSPost2010PropOp48
 70
     0
102
RTVSPost2010Prop49
280
     0
102
RTVSPost2010PropOp49
 70
     1
102
RTVSPost2010Prop50
 90
       50
102
RTVSPost2010PropOp50
 70
     0
102
RTVSPost2010Prop51ColorIndex
 90
      256
102
RTVSPost2010Prop51ColorRGB
 90
-16777216
102
RTVSPost2010PropOp51
 70
     0
102
RTVSPost2010Prop52
140
1.0
102
RTVSPost2010PropOp52
 70
     0
102
RTVSPost2010Prop53
 90
        2
102
RTVSPost2010PropOp53
 70
     0
102
RTVSPost2010Prop54
  1
strokes_ogs.tif
102
RTVSPost2010PropOp54
 70
     0
102
RTVSPost2010Prop55
280
     0
102
RTVSPost2010PropOp55
 70
     1
102
RTVSPost2010Prop56
140
1.0
102
RTVSPost2010PropOp56
 70
     0
102
RTVSPost2010Prop57
140
1.0
102
RTVSPost2010PropOp57
 70
     0
102
RTVSPropertyOp0
 70
     0
102
RTVSPropertyOp1
 70
     0
102
RTVSPropertyOp2
 70
     0
102
RTVSPropertyOp3
 70
     0
102
RTVSPropertyOp4
 70
     0
102
RTVSPropertyOp5
 70
     0
102
RTVSPropertyOp6
 70
     0
102
RTVSPropertyOp7
 70
     0
102
RTVSPropertyOp8
 70
     0
102
RTVSPropertyOp9
 70
     0
102
RTVSPropertyOp10
 70
     0
102
RTVSPropertyOp11
 70
     0
102
RTVSPropertyOp12
 70
     0
102
RTVSPropertyOp13
 70
     0
102
RTVSPropertyOp14
 70
     2
102
RTVSPropertyOp15
 70
     0
102
RTVSPropertyOp16
 70
     0
102
RTVSPropertyOp17
 70
     0
102
RTVSPropertyOp18
 70
     0
102
RTVSPropertyOp19
 70
     0
102
RTVSPropertyOp20
 70
     0
102
RTVSPropertyOp21
 70
     0
102
RTVSPropertyOp22
 70
     0
102
RTVSPropertyOp23
 70
     0
102
RTVSPropertyOp24
 70
     0
102
RTVSPropertyOp25
 70
     0
102
RTVSPropertyOp26
 70
     0
102
RTVSPropertyOp27
 70
     0
102
RTVSPropertyOp28
 70
     1
102
RTVSPropertyOp29
 70
     1
102
RTVSPropertyOp30
 70
     1
102
RTVSPropertyOp31
 70
     1
102
RTVSPropertyOp32
 70
     1
102
RTVSPropertyOp33
 70
     1
102
RTVSPropertyOp34
 70
     1
102
RTVSPropertyOp35
 70
     1
102
RTVSPropertyOp36
 70
     1
102
RTVSPropertyOp37
 70
     0
102
RTVSPropertyOp38
 70
     0
102
RTVSPropertyOp39
 70
     0
102
RTVSPropertyOp40
 70
     0
102
RTVSPropertyOp41
 70
     0
102
RTVSPropertyOp42
 70
     0
102
RTVSPropertyOp43
 70
     0
102
RTVSPropertyOp44
 70
     0
102
RTVSPropertyOp45
 70
     1
102
RTVSPropertyOp46
 70
     0
102
RTVSPropertyOp47
 70
     0
102
RTVSPropertyOp48
 70
     0
102
RTVSPropertyOp49
 70
     1
102
RTVSPropertyOp50
 70
     0
102
RTVSPropertyOp51
 70
     0
102
RTVSPropertyOp52
 70
     0
102
RTVSPropertyOp53
 70
     0
102
RTVSPropertyOp54
 70
     0
102
RTVSPropertyOp55
 70
     1
102
RTVSPropertyOp56
 70
     0
102
RTVSPropertyOp57
 70
     0
102
RTVSPropertyOp58
 70
     0
102
RTVSPropertyOp59
 70
     0
102
RTVSPropertyOp60
 70
     0
102
RTVSPropertyOp61
 70
     0
102
RTVSPropertyOp62
 70
     0
  0
XRECORD
  5
9871
102
{ACAD_REACTORS
330
9870
102
}
330
9870
100
AcDbXrecord
280
     1
102
RTVSPost2010Prop28
280
     0
102
RTVSPost2010PropOp28
 70
     1
102
RTVSPost2010Prop29
280
     1
102
RTVSPost2010PropOp29
 70
     1
102
RTVSPost2010Prop30
280
     1
102
RTVSPost2010PropOp30
 70
     1
102
RTVSPost2010Prop31
280
     0
102
RTVSPost2010PropOp31
 70
     1
102
RTVSPost2010Prop32
280
     0
102
RTVSPost2010PropOp32
 70
     1
102
RTVSPost2010Prop33
280
     0
102
RTVSPost2010PropOp33
 70
     1
102
RTVSPost2010Prop34
280
     0
102
RTVSPost2010PropOp34
 70
     1
102
RTVSPost2010Prop35
280
     0
102
RTVSPost2010PropOp35
 70
     1
102
RTVSPost2010Prop36
280
     0
102
RTVSPost2010PropOp36
 70
     1
102
RTVSPost2010Prop37
 90
       50
102
RTVSPost2010PropOp37
 70
     1
102
RTVSPost2010Prop38
140
0.0
102
RTVSPost2010PropOp38
 70
     1
102
RTVSPost2010Prop39
140
1.0
102
RTVSPost2010PropOp39
 70
     1
102
RTVSPost2010Prop40
 90
        0
102
RTVSPost2010PropOp40
 70
     1
102
RTVSPost2010Prop41ColorIndex
 90
       18
102
RTVSPost2010Prop41ColorRGB
 90
        0
102
RTVSPost2010PropOp41
 70
     1
102
RTVSPost2010Prop42
 90
       50
102
RTVSPost2010PropOp42
 70
     1
102
RTVSPost2010Prop43
 90
        3
102
RTVSPost2010PropOp43
 70
     1
102
RTVSPost2010Prop44ColorIndex
 90
        5
102
RTVSPost2010Prop44ColorRGB
 90
      255
102
RTVSPost2010PropOp44
 70
     1
102
RTVSPost2010Prop45
280
     0
102
RTVSPost2010PropOp45
 70
     1
102
RTVSPost2010Prop46
 90
       50
102
RTVSPost2010PropOp46
 70
     1
102
RTVSPost2010Prop47
 90
       50
102
RTVSPost2010PropOp47
 70
     1
102
RTVSPost2010Prop48
 90
       50
102
RTVSPost2010PropOp48
 70
     1
102
RTVSPost2010Prop49
280
     0
102
RTVSPost2010PropOp49
 70
     1
102
RTVSPost2010Prop50
 90
       50
102
RTVSPost2010PropOp50
 70
     1
102
RTVSPost2010Prop51ColorIndex
 90
      256
102
RTVSPost2010Prop51ColorRGB
 90
-16777216
102
RTVSPost2010PropOp51
 70
     0
102
RTVSPost2010Prop52
140
1.0
102
RTVSPost2010PropOp52
 70
     0
102
RTVSPost2010Prop53
 90
        2
102
RTVSPost2010PropOp53
 70
     1
102
RTVSPost2010Prop54
  1
strokes_ogs.tif
102
RTVSPost2010PropOp54
 70
     1
102
RTVSPost2010Prop55
280
     0
102
RTVSPost2010PropOp55
 70
     1
102
RTVSPost2010Prop56
140
1.0
102
RTVSPost2010PropOp56
 70
     1
102
RTVSPost2010Prop57
140
1.0
102
RTVSPost2010PropOp57
 70
     1
102
RTVSPropertyOp0
 70
     1
102
RTVSPropertyOp1
 70
     1
102
RTVSPropertyOp2
 70
     1
102
RTVSPropertyOp3
 70
     1
102
RTVSPropertyOp4
 70
     1
102
RTVSPropertyOp5
 70
     1
102
RTVSPropertyOp6
 70
     1
102
RTVSPropertyOp7
 70
     1
102
RTVSPropertyOp8
 70
     1
102
RTVSPropertyOp9
 70
     1
102
RTVSPropertyOp10
 70
     1
102
RTVSPropertyOp11
 70
     1
102
RTVSPropertyOp12
 70
     1
102
RTVSPropertyOp13
 70
     1
102
RTVSPropertyOp14
 70
     1
102
RTVSPropertyOp15
 70
     1
102
RTVSPropertyOp16
 70
     1
102
RTVSPropertyOp17
 70
     1
102
RTVSPropertyOp18
 70
     1
102
RTVSPropertyOp19
 70
     1
102
RTVSPropertyOp20
 70
     1
102
RTVSPropertyOp21
 70
     1
102
RTVSPropertyOp22
 70
     1
102
RTVSPropertyOp23
 70
     1
102
RTVSPropertyOp24
 70
     1
102
RTVSPropertyOp25
 70
     1
102
RTVSPropertyOp26
 70
     1
102
RTVSPropertyOp27
 70
     1
102
RTVSPropertyOp28
 70
     1
102
RTVSPropertyOp29
 70
     1
102
RTVSPropertyOp30
 70
     1
102
RTVSPropertyOp31
 70
     1
102
RTVSPropertyOp32
 70
     1
102
RTVSPropertyOp33
 70
     1
102
RTVSPropertyOp34
 70
     1
102
RTVSPropertyOp35
 70
     1
102
RTVSPropertyOp36
 70
     1
102
RTVSPropertyOp37
 70
     1
102
RTVSPropertyOp38
 70
     1
102
RTVSPropertyOp39
 70
     1
102
RTVSPropertyOp40
 70
     1
102
RTVSPropertyOp41
 70
     1
102
RTVSPropertyOp42
 70
     1
102
RTVSPropertyOp43
 70
     1
102
RTVSPropertyOp44
 70
     1
102
RTVSPropertyOp45
 70
     1
102
RTVSPropertyOp46
 70
     1
102
RTVSPropertyOp47
 70
     1
102
RTVSPropertyOp48
 70
     1
102
RTVSPropertyOp49
 70
     1
102
RTVSPropertyOp50
 70
     1
102
RTVSPropertyOp51
 70
     0
102
RTVSPropertyOp52
 70
     0
102
RTVSPropertyOp53
 70
     1
102
RTVSPropertyOp54
 70
     1
102
RTVSPropertyOp55
 70
     1
102
RTVSPropertyOp56
 70
     1
102
RTVSPropertyOp57
 70
     1
102
RTVSPropertyOp58
 70
     1
102
RTVSPropertyOp59
 70
     1
102
RTVSPropertyOp60
 70
     1
102
RTVSPropertyOp61
 70
     1
102
RTVSPropertyOp62
 70
     1
  0
XRECORD
  5
9883
102
{ACAD_REACTORS
330
9882
102
}
330
9882
100
AcDbXrecord
280
     1
102
RTVSPost2010Prop28
280
     0
102
RTVSPost2010PropOp28
 70
     1
102
RTVSPost2010Prop29
280
     1
102
RTVSPost2010PropOp29
 70
     1
102
RTVSPost2010Prop30
280
     1
102
RTVSPost2010PropOp30
 70
     1
102
RTVSPost2010Prop31
280
     0
102
RTVSPost2010PropOp31
 70
     1
102
RTVSPost2010Prop32
280
     0
102
RTVSPost2010PropOp32
 70
     1
102
RTVSPost2010Prop33
280
     0
102
RTVSPost2010PropOp33
 70
     1
102
RTVSPost2010Prop34
280
     0
102
RTVSPost2010PropOp34
 70
     1
102
RTVSPost2010Prop35
280
     0
102
RTVSPost2010PropOp35
 70
     1
102
RTVSPost2010Prop36
280
     0
102
RTVSPost2010PropOp36
 70
     1
102
RTVSPost2010Prop37
 90
       50
102
RTVSPost2010PropOp37
 70
     0
102
RTVSPost2010Prop38
140
0.0
102
RTVSPost2010PropOp38
 70
     0
102
RTVSPost2010Prop39
140
1.0
102
RTVSPost2010PropOp39
 70
     0
102
RTVSPost2010Prop40
 90
        0
102
RTVSPost2010PropOp40
 70
     0
102
RTVSPost2010Prop41ColorIndex
 90
       18
102
RTVSPost2010Prop41ColorRGB
 90
        0
102
RTVSPost2010PropOp41
 70
     0
102
RTVSPost2010Prop42
 90
       50
102
RTVSPost2010PropOp42
 70
     0
102
RTVSPost2010Prop43
 90
        3
102
RTVSPost2010PropOp43
 70
     0
102
RTVSPost2010Prop44ColorIndex
 90
        5
102
RTVSPost2010Prop44ColorRGB
 90
      255
102
RTVSPost2010PropOp44
 70
     0
102
RTVSPost2010Prop45
280
     0
102
RTVSPost2010PropOp45
 70
     1
102
RTVSPost2010Prop46
 90
       50
102
RTVSPost2010PropOp46
 70
     0
102
RTVSPost2010Prop47
 90
       50
102
RTVSPost2010PropOp47
 70
     0
102
RTVSPost2010Prop48
 90
       50
102
RTVSPost2010PropOp48
 70
     0
102
RTVSPost2010Prop49
280
     0
102
RTVSPost2010PropOp49
 70
     1
102
RTVSPost2010Prop50
 90
       50
102
RTVSPost2010PropOp50
 70
     0
102
RTVSPost2010Prop51ColorIndex
 90
      256
102
RTVSPost2010Prop51ColorRGB
 90
-16777216
102
RTVSPost2010PropOp51
 70
     0
102
RTVSPost2010Prop52
140
1.0
102
RTVSPost2010PropOp52
 70
     0
102
RTVSPost2010Prop53
 90
        2
102
RTVSPost2010PropOp53
 70
     0
102
RTVSPost2010Prop54
  1
strokes_ogs.tif
102
RTVSPost2010PropOp54
 70
     0
102
RTVSPost2010Prop55
280
     0
102
RTVSPost2010PropOp55
 70
     1
102
RTVSPost2010Prop56
140
1.0
102
RTVSPost2010PropOp56
 70
     0
102
RTVSPost2010Prop57
140
1.0
102
RTVSPost2010PropOp57
 70
     0
102
RTVSPropertyOp0
 70
     0
102
RTVSPropertyOp1
 70
     0
102
RTVSPropertyOp2
 70
     0
102
RTVSPropertyOp3
 70
     0
102
RTVSPropertyOp4
 70
     0
102
RTVSPropertyOp5
 70
     0
102
RTVSPropertyOp6
 70
     0
102
RTVSPropertyOp7
 70
     0
102
RTVSPropertyOp8
 70
     0
102
RTVSPropertyOp9
 70
     0
102
RTVSPropertyOp10
 70
     0
102
RTVSPropertyOp11
 70
     0
102
RTVSPropertyOp12
 70
     0
102
RTVSPropertyOp13
 70
     0
102
RTVSPropertyOp14
 70
     2
102
RTVSPropertyOp15
 70
     0
102
RTVSPropertyOp16
 70
     0
102
RTVSPropertyOp17
 70
     0
102
RTVSPropertyOp18
 70
     0
102
RTVSPropertyOp19
 70
     0
102
RTVSPropertyOp20
 70
     0
102
RTVSPropertyOp21
 70
     0
102
RTVSPropertyOp22
 70
     0
102
RTVSPropertyOp23
 70
     0
102
RTVSPropertyOp24
 70
     0
102
RTVSPropertyOp25
 70
     0
102
RTVSPropertyOp26
 70
     0
102
RTVSPropertyOp27
 70
     0
102
RTVSPropertyOp28
 70
     1
102
RTVSPropertyOp29
 70
     1
102
RTVSPropertyOp30
 70
     1
102
RTVSPropertyOp31
 70
     1
102
RTVSPropertyOp32
 70
     1
102
RTVSPropertyOp33
 70
     1
102
RTVSPropertyOp34
 70
     1
102
RTVSPropertyOp35
 70
     1
102
RTVSPropertyOp36
 70
     1
102
RTVSPropertyOp37
 70
     0
102
RTVSPropertyOp38
 70
     0
102
RTVSPropertyOp39
 70
     0
102
RTVSPropertyOp40
 70
     0
102
RTVSPropertyOp41
 70
     0
102
RTVSPropertyOp42
 70
     0
102
RTVSPropertyOp43
 70
     0
102
RTVSPropertyOp44
 70
     0
102
RTVSPropertyOp45
 70
     1
102
RTVSPropertyOp46
 70
     0
102
RTVSPropertyOp47
 70
     0
102
RTVSPropertyOp48
 70
     0
102
RTVSPropertyOp49
 70
     1
102
RTVSPropertyOp50
 70
     0
102
RTVSPropertyOp51
 70
     0
102
RTVSPropertyOp52
 70
     0
102
RTVSPropertyOp53
 70
     0
102
RTVSPropertyOp54
 70
     0
102
RTVSPropertyOp55
 70
     1
102
RTVSPropertyOp56
 70
     0
102
RTVSPropertyOp57
 70
     0
102
RTVSPropertyOp58
 70
     0
102
RTVSPropertyOp59
 70
     0
102
RTVSPropertyOp60
 70
     0
102
RTVSPropertyOp61
 70
     0
102
RTVSPropertyOp62
 70
     0
  0
XRECORD
  5
9869
102
{ACAD_REACTORS
330
9868
102
}
330
9868
100
AcDbXrecord
280
     1
102
RTVSPost2010Prop28
280
     0
102
RTVSPost2010PropOp28
 70
     1
102
RTVSPost2010Prop29
280
     1
102
RTVSPost2010PropOp29
 70
     1
102
RTVSPost2010Prop30
280
     1
102
RTVSPost2010PropOp30
 70
     1
102
RTVSPost2010Prop31
280
     0
102
RTVSPost2010PropOp31
 70
     1
102
RTVSPost2010Prop32
280
     0
102
RTVSPost2010PropOp32
 70
     1
102
RTVSPost2010Prop33
280
     0
102
RTVSPost2010PropOp33
 70
     1
102
RTVSPost2010Prop34
280
     0
102
RTVSPost2010PropOp34
 70
     1
102
RTVSPost2010Prop35
280
     0
102
RTVSPost2010PropOp35
 70
     1
102
RTVSPost2010Prop36
280
     0
102
RTVSPost2010PropOp36
 70
     1
102
RTVSPost2010Prop37
 90
       50
102
RTVSPost2010PropOp37
 70
     1
102
RTVSPost2010Prop38
140
0.0
102
RTVSPost2010PropOp38
 70
     1
102
RTVSPost2010Prop39
140
1.0
102
RTVSPost2010PropOp39
 70
     1
102
RTVSPost2010Prop40
 90
        0
102
RTVSPost2010PropOp40
 70
     1
102
RTVSPost2010Prop41ColorIndex
 90
       18
102
RTVSPost2010Prop41ColorRGB
 90
        0
102
RTVSPost2010PropOp41
 70
     1
102
RTVSPost2010Prop42
 90
       50
102
RTVSPost2010PropOp42
 70
     1
102
RTVSPost2010Prop43
 90
        3
102
RTVSPost2010PropOp43
 70
     1
102
RTVSPost2010Prop44ColorIndex
 90
        5
102
RTVSPost2010Prop44ColorRGB
 90
      255
102
RTVSPost2010PropOp44
 70
     1
102
RTVSPost2010Prop45
280
     0
102
RTVSPost2010PropOp45
 70
     1
102
RTVSPost2010Prop46
 90
       50
102
RTVSPost2010PropOp46
 70
     1
102
RTVSPost2010Prop47
 90
       50
102
RTVSPost2010PropOp47
 70
     1
102
RTVSPost2010Prop48
 90
       50
102
RTVSPost2010PropOp48
 70
     1
102
RTVSPost2010Prop49
280
     0
102
RTVSPost2010PropOp49
 70
     1
102
RTVSPost2010Prop50
 90
       50
102
RTVSPost2010PropOp50
 70
     1
102
RTVSPost2010Prop51ColorIndex
 90
      256
102
RTVSPost2010Prop51ColorRGB
 90
-16777216
102
RTVSPost2010PropOp51
 70
     0
102
RTVSPost2010Prop52
140
1.0
102
RTVSPost2010PropOp52
 70
     0
102
RTVSPost2010Prop53
 90
        2
102
RTVSPost2010PropOp53
 70
     1
102
RTVSPost2010Prop54
  1
strokes_ogs.tif
102
RTVSPost2010PropOp54
 70
     1
102
RTVSPost2010Prop55
280
     0
102
RTVSPost2010PropOp55
 70
     1
102
RTVSPost2010Prop56
140
1.0
102
RTVSPost2010PropOp56
 70
     1
102
RTVSPost2010Prop57
140
1.0
102
RTVSPost2010PropOp57
 70
     1
102
RTVSPropertyOp0
 70
     1
102
RTVSPropertyOp1
 70
     1
102
RTVSPropertyOp2
 70
     1
102
RTVSPropertyOp3
 70
     1
102
RTVSPropertyOp4
 70
     1
102
RTVSPropertyOp5
 70
     1
102
RTVSPropertyOp6
 70
     1
102
RTVSPropertyOp7
 70
     1
102
RTVSPropertyOp8
 70
     1
102
RTVSPropertyOp9
 70
     1
102
RTVSPropertyOp10
 70
     1
102
RTVSPropertyOp11
 70
     1
102
RTVSPropertyOp12
 70
     1
102
RTVSPropertyOp13
 70
     1
102
RTVSPropertyOp14
 70
     1
102
RTVSPropertyOp15
 70
     1
102
RTVSPropertyOp16
 70
     1
102
RTVSPropertyOp17
 70
     1
102
RTVSPropertyOp18
 70
     1
102
RTVSPropertyOp19
 70
     1
102
RTVSPropertyOp20
 70
     1
102
RTVSPropertyOp21
 70
     1
102
RTVSPropertyOp22
 70
     1
102
RTVSPropertyOp23
 70
     1
102
RTVSPropertyOp24
 70
     1
102
RTVSPropertyOp25
 70
     1
102
RTVSPropertyOp26
 70
     1
102
RTVSPropertyOp27
 70
     1
102
RTVSPropertyOp28
 70
     1
102
RTVSPropertyOp29
 70
     1
102
RTVSPropertyOp30
 70
     1
102
RTVSPropertyOp31
 70
     1
102
RTVSPropertyOp32
 70
     1
102
RTVSPropertyOp33
 70
     1
102
RTVSPropertyOp34
 70
     1
102
RTVSPropertyOp35
 70
     1
102
RTVSPropertyOp36
 70
     1
102
RTVSPropertyOp37
 70
     1
102
RTVSPropertyOp38
 70
     1
102
RTVSPropertyOp39
 70
     1
102
RTVSPropertyOp40
 70
     1
102
RTVSPropertyOp41
 70
     1
102
RTVSPropertyOp42
 70
     1
102
RTVSPropertyOp43
 70
     1
102
RTVSPropertyOp44
 70
     1
102
RTVSPropertyOp45
 70
     1
102
RTVSPropertyOp46
 70
     1
102
RTVSPropertyOp47
 70
     1
102
RTVSPropertyOp48
 70
     1
102
RTVSPropertyOp49
 70
     1
102
RTVSPropertyOp50
 70
     1
102
RTVSPropertyOp51
 70
     0
102
RTVSPropertyOp52
 70
     0
102
RTVSPropertyOp53
 70
     1
102
RTVSPropertyOp54
 70
     1
102
RTVSPropertyOp55
 70
     1
102
RTVSPropertyOp56
 70
     1
102
RTVSPropertyOp57
 70
     1
102
RTVSPropertyOp58
 70
     1
102
RTVSPropertyOp59
 70
     1
102
RTVSPropertyOp60
 70
     1
102
RTVSPropertyOp61
 70
     1
102
RTVSPropertyOp62
 70
     1
  0
XRECORD
  5
987F
102
{ACAD_REACTORS
330
987E
102
}
330
987E
100
AcDbXrecord
280
     1
102
RTVSPost2010Prop28
280
     0
102
RTVSPost2010PropOp28
 70
     1
102
RTVSPost2010Prop29
280
     1
102
RTVSPost2010PropOp29
 70
     1
102
RTVSPost2010Prop30
280
     1
102
RTVSPost2010PropOp30
 70
     1
102
RTVSPost2010Prop31
280
     0
102
RTVSPost2010PropOp31
 70
     1
102
RTVSPost2010Prop32
280
     0
102
RTVSPost2010PropOp32
 70
     1
102
RTVSPost2010Prop33
280
     0
102
RTVSPost2010PropOp33
 70
     1
102
RTVSPost2010Prop34
280
     0
102
RTVSPost2010PropOp34
 70
     1
102
RTVSPost2010Prop35
280
     0
102
RTVSPost2010PropOp35
 70
     1
102
RTVSPost2010Prop36
280
     0
102
RTVSPost2010PropOp36
 70
     1
102
RTVSPost2010Prop37
 90
       50
102
RTVSPost2010PropOp37
 70
     1
102
RTVSPost2010Prop38
140
0.0
102
RTVSPost2010PropOp38
 70
     1
102
RTVSPost2010Prop39
140
1.0
102
RTVSPost2010PropOp39
 70
     1
102
RTVSPost2010Prop40
 90
        0
102
RTVSPost2010PropOp40
 70
     1
102
RTVSPost2010Prop41ColorIndex
 90
       18
102
RTVSPost2010Prop41ColorRGB
 90
        0
102
RTVSPost2010PropOp41
 70
     1
102
RTVSPost2010Prop42
 90
       50
102
RTVSPost2010PropOp42
 70
     1
102
RTVSPost2010Prop43
 90
        3
102
RTVSPost2010PropOp43
 70
     1
102
RTVSPost2010Prop44ColorIndex
 90
        5
102
RTVSPost2010Prop44ColorRGB
 90
      255
102
RTVSPost2010PropOp44
 70
     1
102
RTVSPost2010Prop45
280
     0
102
RTVSPost2010PropOp45
 70
     1
102
RTVSPost2010Prop46
 90
       50
102
RTVSPost2010PropOp46
 70
     1
102
RTVSPost2010Prop47
 90
       50
102
RTVSPost2010PropOp47
 70
     1
102
RTVSPost2010Prop48
 90
       50
102
RTVSPost2010PropOp48
 70
     1
102
RTVSPost2010Prop49
280
     0
102
RTVSPost2010PropOp49
 70
     1
102
RTVSPost2010Prop50
 90
       50
102
RTVSPost2010PropOp50
 70
     1
102
RTVSPost2010Prop51ColorIndex
 90
      256
102
RTVSPost2010Prop51ColorRGB
 90
-16777216
102
RTVSPost2010PropOp51
 70
     0
102
RTVSPost2010Prop52
140
1.0
102
RTVSPost2010PropOp52
 70
     0
102
RTVSPost2010Prop53
 90
        2
102
RTVSPost2010PropOp53
 70
     1
102
RTVSPost2010Prop54
  1
strokes_ogs.tif
102
RTVSPost2010PropOp54
 70
     1
102
RTVSPost2010Prop55
280
     0
102
RTVSPost2010PropOp55
 70
     1
102
RTVSPost2010Prop56
140
1.0
102
RTVSPost2010PropOp56
 70
     1
102
RTVSPost2010Prop57
140
1.0
102
RTVSPost2010PropOp57
 70
     1
102
RTVSPropertyOp0
 70
     1
102
RTVSPropertyOp1
 70
     1
102
RTVSPropertyOp2
 70
     1
102
RTVSPropertyOp3
 70
     1
102
RTVSPropertyOp4
 70
     1
102
RTVSPropertyOp5
 70
     1
102
RTVSPropertyOp6
 70
     1
102
RTVSPropertyOp7
 70
     1
102
RTVSPropertyOp8
 70
     1
102
RTVSPropertyOp9
 70
     1
102
RTVSPropertyOp10
 70
     1
102
RTVSPropertyOp11
 70
     1
102
RTVSPropertyOp12
 70
     1
102
RTVSPropertyOp13
 70
     1
102
RTVSPropertyOp14
 70
     1
102
RTVSPropertyOp15
 70
     1
102
RTVSPropertyOp16
 70
     1
102
RTVSPropertyOp17
 70
     1
102
RTVSPropertyOp18
 70
     1
102
RTVSPropertyOp19
 70
     1
102
RTVSPropertyOp20
 70
     1
102
RTVSPropertyOp21
 70
     1
102
RTVSPropertyOp22
 70
     1
102
RTVSPropertyOp23
 70
     1
102
RTVSPropertyOp24
 70
     1
102
RTVSPropertyOp25
 70
     1
102
RTVSPropertyOp26
 70
     1
102
RTVSPropertyOp27
 70
     1
102
RTVSPropertyOp28
 70
     1
102
RTVSPropertyOp29
 70
     1
102
RTVSPropertyOp30
 70
     1
102
RTVSPropertyOp31
 70
     1
102
RTVSPropertyOp32
 70
     1
102
RTVSPropertyOp33
 70
     1
102
RTVSPropertyOp34
 70
     1
102
RTVSPropertyOp35
 70
     1
102
RTVSPropertyOp36
 70
     1
102
RTVSPropertyOp37
 70
     1
102
RTVSPropertyOp38
 70
     1
102
RTVSPropertyOp39
 70
     1
102
RTVSPropertyOp40
 70
     1
102
RTVSPropertyOp41
 70
     1
102
RTVSPropertyOp42
 70
     1
102
RTVSPropertyOp43
 70
     1
102
RTVSPropertyOp44
 70
     1
102
RTVSPropertyOp45
 70
     1
102
RTVSPropertyOp46
 70
     1
102
RTVSPropertyOp47
 70
     1
102
RTVSPropertyOp48
 70
     1
102
RTVSPropertyOp49
 70
     1
102
RTVSPropertyOp50
 70
     1
102
RTVSPropertyOp51
 70
     0
102
RTVSPropertyOp52
 70
     0
102
RTVSPropertyOp53
 70
     1
102
RTVSPropertyOp54
 70
     1
102
RTVSPropertyOp55
 70
     1
102
RTVSPropertyOp56
 70
     1
102
RTVSPropertyOp57
 70
     1
102
RTVSPropertyOp58
 70
     1
102
RTVSPropertyOp59
 70
     1
102
RTVSPropertyOp60
 70
     1
102
RTVSPropertyOp61
 70
     1
102
RTVSPropertyOp62
 70
     1
  0
XRECORD
  5
987D
102
{ACAD_REACTORS
330
987C
102
}
330
987C
100
AcDbXrecord
280
     1
102
RTVSPost2010Prop28
280
     0
102
RTVSPost2010PropOp28
 70
     1
102
RTVSPost2010Prop29
280
     1
102
RTVSPost2010PropOp29
 70
     1
102
RTVSPost2010Prop30
280
     1
102
RTVSPost2010PropOp30
 70
     1
102
RTVSPost2010Prop31
280
     0
102
RTVSPost2010PropOp31
 70
     1
102
RTVSPost2010Prop32
280
     0
102
RTVSPost2010PropOp32
 70
     1
102
RTVSPost2010Prop33
280
     0
102
RTVSPost2010PropOp33
 70
     1
102
RTVSPost2010Prop34
280
     0
102
RTVSPost2010PropOp34
 70
     1
102
RTVSPost2010Prop35
280
     0
102
RTVSPost2010PropOp35
 70
     1
102
RTVSPost2010Prop36
280
     0
102
RTVSPost2010PropOp36
 70
     1
102
RTVSPost2010Prop37
 90
       50
102
RTVSPost2010PropOp37
 70
     1
102
RTVSPost2010Prop38
140
0.0
102
RTVSPost2010PropOp38
 70
     1
102
RTVSPost2010Prop39
140
1.0
102
RTVSPost2010PropOp39
 70
     1
102
RTVSPost2010Prop40
 90
        0
102
RTVSPost2010PropOp40
 70
     1
102
RTVSPost2010Prop41ColorIndex
 90
       18
102
RTVSPost2010Prop41ColorRGB
 90
        0
102
RTVSPost2010PropOp41
 70
     1
102
RTVSPost2010Prop42
 90
       50
102
RTVSPost2010PropOp42
 70
     1
102
RTVSPost2010Prop43
 90
        3
102
RTVSPost2010PropOp43
 70
     1
102
RTVSPost2010Prop44ColorIndex
 90
        5
102
RTVSPost2010Prop44ColorRGB
 90
      255
102
RTVSPost2010PropOp44
 70
     1
102
RTVSPost2010Prop45
280
     0
102
RTVSPost2010PropOp45
 70
     1
102
RTVSPost2010Prop46
 90
       50
102
RTVSPost2010PropOp46
 70
     1
102
RTVSPost2010Prop47
 90
       50
102
RTVSPost2010PropOp47
 70
     1
102
RTVSPost2010Prop48
 90
       50
102
RTVSPost2010PropOp48
 70
     1
102
RTVSPost2010Prop49
280
     0
102
RTVSPost2010PropOp49
 70
     1
102
RTVSPost2010Prop50
 90
       50
102
RTVSPost2010PropOp50
 70
     1
102
RTVSPost2010Prop51ColorIndex
 90
      256
102
RTVSPost2010Prop51ColorRGB
 90
-16777216
102
RTVSPost2010PropOp51
 70
     0
102
RTVSPost2010Prop52
140
1.0
102
RTVSPost2010PropOp52
 70
     0
102
RTVSPost2010Prop53
 90
        2
102
RTVSPost2010PropOp53
 70
     1
102
RTVSPost2010Prop54
  1
strokes_ogs.tif
102
RTVSPost2010PropOp54
 70
     1
102
RTVSPost2010Prop55
280
     0
102
RTVSPost2010PropOp55
 70
     1
102
RTVSPost2010Prop56
140
1.0
102
RTVSPost2010PropOp56
 70
     1
102
RTVSPost2010Prop57
140
1.0
102
RTVSPost2010PropOp57
 70
     1
102
RTVSPropertyOp0
 70
     1
102
RTVSPropertyOp1
 70
     1
102
RTVSPropertyOp2
 70
     1
102
RTVSPropertyOp3
 70
     1
102
RTVSPropertyOp4
 70
     1
102
RTVSPropertyOp5
 70
     1
102
RTVSPropertyOp6
 70
     1
102
RTVSPropertyOp7
 70
     1
102
RTVSPropertyOp8
 70
     1
102
RTVSPropertyOp9
 70
     1
102
RTVSPropertyOp10
 70
     1
102
RTVSPropertyOp11
 70
     1
102
RTVSPropertyOp12
 70
     1
102
RTVSPropertyOp13
 70
     1
102
RTVSPropertyOp14
 70
     1
102
RTVSPropertyOp15
 70
     1
102
RTVSPropertyOp16
 70
     1
102
RTVSPropertyOp17
 70
     1
102
RTVSPropertyOp18
 70
     1
102
RTVSPropertyOp19
 70
     1
102
RTVSPropertyOp20
 70
     1
102
RTVSPropertyOp21
 70
     1
102
RTVSPropertyOp22
 70
     1
102
RTVSPropertyOp23
 70
     1
102
RTVSPropertyOp24
 70
     1
102
RTVSPropertyOp25
 70
     1
102
RTVSPropertyOp26
 70
     1
102
RTVSPropertyOp27
 70
     1
102
RTVSPropertyOp28
 70
     1
102
RTVSPropertyOp29
 70
     1
102
RTVSPropertyOp30
 70
     1
102
RTVSPropertyOp31
 70
     1
102
RTVSPropertyOp32
 70
     1
102
RTVSPropertyOp33
 70
     1
102
RTVSPropertyOp34
 70
     1
102
RTVSPropertyOp35
 70
     1
102
RTVSPropertyOp36
 70
     1
102
RTVSPropertyOp37
 70
     1
102
RTVSPropertyOp38
 70
     1
102
RTVSPropertyOp39
 70
     1
102
RTVSPropertyOp40
 70
     1
102
RTVSPropertyOp41
 70
     1
102
RTVSPropertyOp42
 70
     1
102
RTVSPropertyOp43
 70
     1
102
RTVSPropertyOp44
 70
     1
102
RTVSPropertyOp45
 70
     1
102
RTVSPropertyOp46
 70
     1
102
RTVSPropertyOp47
 70
     1
102
RTVSPropertyOp48
 70
     1
102
RTVSPropertyOp49
 70
     1
102
RTVSPropertyOp50
 70
     1
102
RTVSPropertyOp51
 70
     0
102
RTVSPropertyOp52
 70
     0
102
RTVSPropertyOp53
 70
     1
102
RTVSPropertyOp54
 70
     1
102
RTVSPropertyOp55
 70
     1
102
RTVSPropertyOp56
 70
     1
102
RTVSPropertyOp57
 70
     1
102
RTVSPropertyOp58
 70
     1
102
RTVSPropertyOp59
 70
     1
102
RTVSPropertyOp60
 70
     1
102
RTVSPropertyOp61
 70
     1
102
RTVSPropertyOp62
 70
     1
  0
XRECORD
  5
9877
102
{ACAD_REACTORS
330
9876
102
}
330
9876
100
AcDbXrecord
280
     1
102
RTVSPost2010Prop28
280
     0
102
RTVSPost2010PropOp28
 70
     1
102
RTVSPost2010Prop29
280
     1
102
RTVSPost2010PropOp29
 70
     1
102
RTVSPost2010Prop30
280
     1
102
RTVSPost2010PropOp30
 70
     1
102
RTVSPost2010Prop31
280
     0
102
RTVSPost2010PropOp31
 70
     1
102
RTVSPost2010Prop32
280
     0
102
RTVSPost2010PropOp32
 70
     1
102
RTVSPost2010Prop33
280
     0
102
RTVSPost2010PropOp33
 70
     1
102
RTVSPost2010Prop34
280
     0
102
RTVSPost2010PropOp34
 70
     1
102
RTVSPost2010Prop35
280
     0
102
RTVSPost2010PropOp35
 70
     1
102
RTVSPost2010Prop36
280
     0
102
RTVSPost2010PropOp36
 70
     1
102
RTVSPost2010Prop37
 90
       50
102
RTVSPost2010PropOp37
 70
     1
102
RTVSPost2010Prop38
140
0.0
102
RTVSPost2010PropOp38
 70
     1
102
RTVSPost2010Prop39
140
1.0
102
RTVSPost2010PropOp39
 70
     1
102
RTVSPost2010Prop40
 90
        0
102
RTVSPost2010PropOp40
 70
     1
102
RTVSPost2010Prop41ColorIndex
 90
       18
102
RTVSPost2010Prop41ColorRGB
 90
        0
102
RTVSPost2010PropOp41
 70
     1
102
RTVSPost2010Prop42
 90
       50
102
RTVSPost2010PropOp42
 70
     1
102
RTVSPost2010Prop43
 90
        3
102
RTVSPost2010PropOp43
 70
     1
102
RTVSPost2010Prop44ColorIndex
 90
        5
102
RTVSPost2010Prop44ColorRGB
 90
      255
102
RTVSPost2010PropOp44
 70
     1
102
RTVSPost2010Prop45
280
     0
102
RTVSPost2010PropOp45
 70
     1
102
RTVSPost2010Prop46
 90
       50
102
RTVSPost2010PropOp46
 70
     1
102
RTVSPost2010Prop47
 90
       50
102
RTVSPost2010PropOp47
 70
     1
102
RTVSPost2010Prop48
 90
       50
102
RTVSPost2010PropOp48
 70
     1
102
RTVSPost2010Prop49
280
     0
102
RTVSPost2010PropOp49
 70
     1
102
RTVSPost2010Prop50
 90
       50
102
RTVSPost2010PropOp50
 70
     1
102
RTVSPost2010Prop51ColorIndex
 90
      256
102
RTVSPost2010Prop51ColorRGB
 90
-16777216
102
RTVSPost2010PropOp51
 70
     0
102
RTVSPost2010Prop52
140
1.0
102
RTVSPost2010PropOp52
 70
     0
102
RTVSPost2010Prop53
 90
        2
102
RTVSPost2010PropOp53
 70
     1
102
RTVSPost2010Prop54
  1
strokes_ogs.tif
102
RTVSPost2010PropOp54
 70
     1
102
RTVSPost2010Prop55
280
     0
102
RTVSPost2010PropOp55
 70
     1
102
RTVSPost2010Prop56
140
1.0
102
RTVSPost2010PropOp56
 70
     1
102
RTVSPost2010Prop57
140
1.0
102
RTVSPost2010PropOp57
 70
     1
102
RTVSPropertyOp0
 70
     1
102
RTVSPropertyOp1
 70
     1
102
RTVSPropertyOp2
 70
     1
102
RTVSPropertyOp3
 70
     1
102
RTVSPropertyOp4
 70
     1
102
RTVSPropertyOp5
 70
     1
102
RTVSPropertyOp6
 70
     1
102
RTVSPropertyOp7
 70
     1
102
RTVSPropertyOp8
 70
     1
102
RTVSPropertyOp9
 70
     1
102
RTVSPropertyOp10
 70
     1
102
RTVSPropertyOp11
 70
     1
102
RTVSPropertyOp12
 70
     1
102
RTVSPropertyOp13
 70
     1
102
RTVSPropertyOp14
 70
     1
102
RTVSPropertyOp15
 70
     1
102
RTVSPropertyOp16
 70
     1
102
RTVSPropertyOp17
 70
     1
102
RTVSPropertyOp18
 70
     1
102
RTVSPropertyOp19
 70
     1
102
RTVSPropertyOp20
 70
     1
102
RTVSPropertyOp21
 70
     1
102
RTVSPropertyOp22
 70
     1
102
RTVSPropertyOp23
 70
     1
102
RTVSPropertyOp24
 70
     1
102
RTVSPropertyOp25
 70
     1
102
RTVSPropertyOp26
 70
     1
102
RTVSPropertyOp27
 70
     1
102
RTVSPropertyOp28
 70
     1
102
RTVSPropertyOp29
 70
     1
102
RTVSPropertyOp30
 70
     1
102
RTVSPropertyOp31
 70
     1
102
RTVSPropertyOp32
 70
     1
102
RTVSPropertyOp33
 70
     1
102
RTVSPropertyOp34
 70
     1
102
RTVSPropertyOp35
 70
     1
102
RTVSPropertyOp36
 70
     1
102
RTVSPropertyOp37
 70
     1
102
RTVSPropertyOp38
 70
     1
102
RTVSPropertyOp39
 70
     1
102
RTVSPropertyOp40
 70
     1
102
RTVSPropertyOp41
 70
     1
102
RTVSPropertyOp42
 70
     1
102
RTVSPropertyOp43
 70
     1
102
RTVSPropertyOp44
 70
     1
102
RTVSPropertyOp45
 70
     1
102
RTVSPropertyOp46
 70
     1
102
RTVSPropertyOp47
 70
     1
102
RTVSPropertyOp48
 70
     1
102
RTVSPropertyOp49
 70
     1
102
RTVSPropertyOp50
 70
     1
102
RTVSPropertyOp51
 70
     0
102
RTVSPropertyOp52
 70
     0
102
RTVSPropertyOp53
 70
     1
102
RTVSPropertyOp54
 70
     1
102
RTVSPropertyOp55
 70
     1
102
RTVSPropertyOp56
 70
     1
102
RTVSPropertyOp57
 70
     1
102
RTVSPropertyOp58
 70
     1
102
RTVSPropertyOp59
 70
     1
102
RTVSPropertyOp60
 70
     1
102
RTVSPropertyOp61
 70
     1
102
RTVSPropertyOp62
 70
     1
  0
XRECORD
  5
9879
102
{ACAD_REACTORS
330
9878
102
}
330
9878
100
AcDbXrecord
280
     1
102
RTVSPost2010Prop28
280
     0
102
RTVSPost2010PropOp28
 70
     1
102
RTVSPost2010Prop29
280
     1
102
RTVSPost2010PropOp29
 70
     1
102
RTVSPost2010Prop30
280
     1
102
RTVSPost2010PropOp30
 70
     1
102
RTVSPost2010Prop31
280
     0
102
RTVSPost2010PropOp31
 70
     1
102
RTVSPost2010Prop32
280
     0
102
RTVSPost2010PropOp32
 70
     1
102
RTVSPost2010Prop33
280
     0
102
RTVSPost2010PropOp33
 70
     1
102
RTVSPost2010Prop34
280
     0
102
RTVSPost2010PropOp34
 70
     1
102
RTVSPost2010Prop35
280
     0
102
RTVSPost2010PropOp35
 70
     1
102
RTVSPost2010Prop36
280
     0
102
RTVSPost2010PropOp36
 70
     1
102
RTVSPost2010Prop37
 90
       50
102
RTVSPost2010PropOp37
 70
     1
102
RTVSPost2010Prop38
140
0.0
102
RTVSPost2010PropOp38
 70
     1
102
RTVSPost2010Prop39
140
1.0
102
RTVSPost2010PropOp39
 70
     1
102
RTVSPost2010Prop40
 90
        0
102
RTVSPost2010PropOp40
 70
     1
102
RTVSPost2010Prop41ColorIndex
 90
       18
102
RTVSPost2010Prop41ColorRGB
 90
        0
102
RTVSPost2010PropOp41
 70
     1
102
RTVSPost2010Prop42
 90
       50
102
RTVSPost2010PropOp42
 70
     1
102
RTVSPost2010Prop43
 90
        3
102
RTVSPost2010PropOp43
 70
     1
102
RTVSPost2010Prop44ColorIndex
 90
        5
102
RTVSPost2010Prop44ColorRGB
 90
      255
102
RTVSPost2010PropOp44
 70
     1
102
RTVSPost2010Prop45
280
     0
102
RTVSPost2010PropOp45
 70
     1
102
RTVSPost2010Prop46
 90
       50
102
RTVSPost2010PropOp46
 70
     1
102
RTVSPost2010Prop47
 90
       50
102
RTVSPost2010PropOp47
 70
     1
102
RTVSPost2010Prop48
 90
       50
102
RTVSPost2010PropOp48
 70
     1
102
RTVSPost2010Prop49
280
     0
102
RTVSPost2010PropOp49
 70
     1
102
RTVSPost2010Prop50
 90
       50
102
RTVSPost2010PropOp50
 70
     1
102
RTVSPost2010Prop51ColorIndex
 90
      256
102
RTVSPost2010Prop51ColorRGB
 90
-16777216
102
RTVSPost2010PropOp51
 70
     0
102
RTVSPost2010Prop52
140
1.0
102
RTVSPost2010PropOp52
 70
     0
102
RTVSPost2010Prop53
 90
        2
102
RTVSPost2010PropOp53
 70
     1
102
RTVSPost2010Prop54
  1
strokes_ogs.tif
102
RTVSPost2010PropOp54
 70
     1
102
RTVSPost2010Prop55
280
     0
102
RTVSPost2010PropOp55
 70
     1
102
RTVSPost2010Prop56
140
1.0
102
RTVSPost2010PropOp56
 70
     1
102
RTVSPost2010Prop57
140
1.0
102
RTVSPost2010PropOp57
 70
     1
102
RTVSPropertyOp0
 70
     1
102
RTVSPropertyOp1
 70
     1
102
RTVSPropertyOp2
 70
     1
102
RTVSPropertyOp3
 70
     1
102
RTVSPropertyOp4
 70
     1
102
RTVSPropertyOp5
 70
     1
102
RTVSPropertyOp6
 70
     1
102
RTVSPropertyOp7
 70
     1
102
RTVSPropertyOp8
 70
     1
102
RTVSPropertyOp9
 70
     1
102
RTVSPropertyOp10
 70
     1
102
RTVSPropertyOp11
 70
     1
102
RTVSPropertyOp12
 70
     1
102
RTVSPropertyOp13
 70
     1
102
RTVSPropertyOp14
 70
     1
102
RTVSPropertyOp15
 70
     1
102
RTVSPropertyOp16
 70
     1
102
RTVSPropertyOp17
 70
     1
102
RTVSPropertyOp18
 70
     1
102
RTVSPropertyOp19
 70
     1
102
RTVSPropertyOp20
 70
     1
102
RTVSPropertyOp21
 70
     1
102
RTVSPropertyOp22
 70
     1
102
RTVSPropertyOp23
 70
     1
102
RTVSPropertyOp24
 70
     1
102
RTVSPropertyOp25
 70
     1
102
RTVSPropertyOp26
 70
     1
102
RTVSPropertyOp27
 70
     1
102
RTVSPropertyOp28
 70
     1
102
RTVSPropertyOp29
 70
     1
102
RTVSPropertyOp30
 70
     1
102
RTVSPropertyOp31
 70
     1
102
RTVSPropertyOp32
 70
     1
102
RTVSPropertyOp33
 70
     1
102
RTVSPropertyOp34
 70
     1
102
RTVSPropertyOp35
 70
     1
102
RTVSPropertyOp36
 70
     1
102
RTVSPropertyOp37
 70
     1
102
RTVSPropertyOp38
 70
     1
102
RTVSPropertyOp39
 70
     1
102
RTVSPropertyOp40
 70
     1
102
RTVSPropertyOp41
 70
     1
102
RTVSPropertyOp42
 70
     1
102
RTVSPropertyOp43
 70
     1
102
RTVSPropertyOp44
 70
     1
102
RTVSPropertyOp45
 70
     1
102
RTVSPropertyOp46
 70
     1
102
RTVSPropertyOp47
 70
     1
102
RTVSPropertyOp48
 70
     1
102
RTVSPropertyOp49
 70
     1
102
RTVSPropertyOp50
 70
     1
102
RTVSPropertyOp51
 70
     0
102
RTVSPropertyOp52
 70
     0
102
RTVSPropertyOp53
 70
     1
102
RTVSPropertyOp54
 70
     1
102
RTVSPropertyOp55
 70
     1
102
RTVSPropertyOp56
 70
     1
102
RTVSPropertyOp57
 70
     1
102
RTVSPropertyOp58
 70
     1
102
RTVSPropertyOp59
 70
     1
102
RTVSPropertyOp60
 70
     1
102
RTVSPropertyOp61
 70
     1
102
RTVSPropertyOp62
 70
     1
  0
XRECORD
  5
986F
102
{ACAD_REACTORS
330
986E
102
}
330
986E
100
AcDbXrecord
280
     1
102
RTVSPost2010Prop28
280
     0
102
RTVSPost2010PropOp28
 70
     1
102
RTVSPost2010Prop29
280
     1
102
RTVSPost2010PropOp29
 70
     1
102
RTVSPost2010Prop30
280
     1
102
RTVSPost2010PropOp30
 70
     1
102
RTVSPost2010Prop31
280
     0
102
RTVSPost2010PropOp31
 70
     1
102
RTVSPost2010Prop32
280
     0
102
RTVSPost2010PropOp32
 70
     1
102
RTVSPost2010Prop33
280
     0
102
RTVSPost2010PropOp33
 70
     1
102
RTVSPost2010Prop34
280
     0
102
RTVSPost2010PropOp34
 70
     1
102
RTVSPost2010Prop35
280
     0
102
RTVSPost2010PropOp35
 70
     1
102
RTVSPost2010Prop36
280
     0
102
RTVSPost2010PropOp36
 70
     1
102
RTVSPost2010Prop37
 90
       50
102
RTVSPost2010PropOp37
 70
     1
102
RTVSPost2010Prop38
140
0.0
102
RTVSPost2010PropOp38
 70
     1
102
RTVSPost2010Prop39
140
1.0
102
RTVSPost2010PropOp39
 70
     1
102
RTVSPost2010Prop40
 90
        0
102
RTVSPost2010PropOp40
 70
     1
102
RTVSPost2010Prop41ColorIndex
 90
       18
102
RTVSPost2010Prop41ColorRGB
 90
        0
102
RTVSPost2010PropOp41
 70
     1
102
RTVSPost2010Prop42
 90
       50
102
RTVSPost2010PropOp42
 70
     1
102
RTVSPost2010Prop43
 90
        3
102
RTVSPost2010PropOp43
 70
     1
102
RTVSPost2010Prop44ColorIndex
 90
        5
102
RTVSPost2010Prop44ColorRGB
 90
      255
102
RTVSPost2010PropOp44
 70
     1
102
RTVSPost2010Prop45
280
     0
102
RTVSPost2010PropOp45
 70
     1
102
RTVSPost2010Prop46
 90
       50
102
RTVSPost2010PropOp46
 70
     1
102
RTVSPost2010Prop47
 90
       50
102
RTVSPost2010PropOp47
 70
     1
102
RTVSPost2010Prop48
 90
       50
102
RTVSPost2010PropOp48
 70
     1
102
RTVSPost2010Prop49
280
     0
102
RTVSPost2010PropOp49
 70
     1
102
RTVSPost2010Prop50
 90
       50
102
RTVSPost2010PropOp50
 70
     1
102
RTVSPost2010Prop51ColorIndex
 90
      256
102
RTVSPost2010Prop51ColorRGB
 90
-16777216
102
RTVSPost2010PropOp51
 70
     0
102
RTVSPost2010Prop52
140
1.0
102
RTVSPost2010PropOp52
 70
     0
102
RTVSPost2010Prop53
 90
        2
102
RTVSPost2010PropOp53
 70
     1
102
RTVSPost2010Prop54
  1
strokes_ogs.tif
102
RTVSPost2010PropOp54
 70
     1
102
RTVSPost2010Prop55
280
     0
102
RTVSPost2010PropOp55
 70
     1
102
RTVSPost2010Prop56
140
1.0
102
RTVSPost2010PropOp56
 70
     1
102
RTVSPost2010Prop57
140
1.0
102
RTVSPost2010PropOp57
 70
     1
102
RTVSPropertyOp0
 70
     1
102
RTVSPropertyOp1
 70
     1
102
RTVSPropertyOp2
 70
     1
102
RTVSPropertyOp3
 70
     1
102
RTVSPropertyOp4
 70
     1
102
RTVSPropertyOp5
 70
     1
102
RTVSPropertyOp6
 70
     1
102
RTVSPropertyOp7
 70
     1
102
RTVSPropertyOp8
 70
     1
102
RTVSPropertyOp9
 70
     1
102
RTVSPropertyOp10
 70
     1
102
RTVSPropertyOp11
 70
     1
102
RTVSPropertyOp12
 70
     1
102
RTVSPropertyOp13
 70
     1
102
RTVSPropertyOp14
 70
     1
102
RTVSPropertyOp15
 70
     1
102
RTVSPropertyOp16
 70
     1
102
RTVSPropertyOp17
 70
     1
102
RTVSPropertyOp18
 70
     1
102
RTVSPropertyOp19
 70
     1
102
RTVSPropertyOp20
 70
     1
102
RTVSPropertyOp21
 70
     1
102
RTVSPropertyOp22
 70
     1
102
RTVSPropertyOp23
 70
     1
102
RTVSPropertyOp24
 70
     1
102
RTVSPropertyOp25
 70
     1
102
RTVSPropertyOp26
 70
     1
102
RTVSPropertyOp27
 70
     1
102
RTVSPropertyOp28
 70
     1
102
RTVSPropertyOp29
 70
     1
102
RTVSPropertyOp30
 70
     1
102
RTVSPropertyOp31
 70
     1
102
RTVSPropertyOp32
 70
     1
102
RTVSPropertyOp33
 70
     1
102
RTVSPropertyOp34
 70
     1
102
RTVSPropertyOp35
 70
     1
102
RTVSPropertyOp36
 70
     1
102
RTVSPropertyOp37
 70
     1
102
RTVSPropertyOp38
 70
     1
102
RTVSPropertyOp39
 70
     1
102
RTVSPropertyOp40
 70
     1
102
RTVSPropertyOp41
 70
     1
102
RTVSPropertyOp42
 70
     1
102
RTVSPropertyOp43
 70
     1
102
RTVSPropertyOp44
 70
     1
102
RTVSPropertyOp45
 70
     1
102
RTVSPropertyOp46
 70
     1
102
RTVSPropertyOp47
 70
     1
102
RTVSPropertyOp48
 70
     1
102
RTVSPropertyOp49
 70
     1
102
RTVSPropertyOp50
 70
     1
102
RTVSPropertyOp51
 70
     0
102
RTVSPropertyOp52
 70
     0
102
RTVSPropertyOp53
 70
     1
102
RTVSPropertyOp54
 70
     1
102
RTVSPropertyOp55
 70
     1
102
RTVSPropertyOp56
 70
     1
102
RTVSPropertyOp57
 70
     1
102
RTVSPropertyOp58
 70
     1
102
RTVSPropertyOp59
 70
     1
102
RTVSPropertyOp60
 70
     1
102
RTVSPropertyOp61
 70
     1
102
RTVSPropertyOp62
 70
     1
  0
XRECORD
  5
9863
102
{ACAD_REACTORS
330
9862
102
}
330
9862
100
AcDbXrecord
280
     1
102
RTVSPost2010Prop28
280
     0
102
RTVSPost2010PropOp28
 70
     1
102
RTVSPost2010Prop29
280
     1
102
RTVSPost2010PropOp29
 70
     1
102
RTVSPost2010Prop30
280
     1
102
RTVSPost2010PropOp30
 70
     1
102
RTVSPost2010Prop31
280
     0
102
RTVSPost2010PropOp31
 70
     1
102
RTVSPost2010Prop32
280
     0
102
RTVSPost2010PropOp32
 70
     1
102
RTVSPost2010Prop33
280
     0
102
RTVSPost2010PropOp33
 70
     1
102
RTVSPost2010Prop34
280
     0
102
RTVSPost2010PropOp34
 70
     1
102
RTVSPost2010Prop35
280
     0
102
RTVSPost2010PropOp35
 70
     1
102
RTVSPost2010Prop36
280
     0
102
RTVSPost2010PropOp36
 70
     1
102
RTVSPost2010Prop37
 90
       50
102
RTVSPost2010PropOp37
 70
     1
102
RTVSPost2010Prop38
140
0.0
102
RTVSPost2010PropOp38
 70
     1
102
RTVSPost2010Prop39
140
1.0
102
RTVSPost2010PropOp39
 70
     1
102
RTVSPost2010Prop40
 90
        0
102
RTVSPost2010PropOp40
 70
     1
102
RTVSPost2010Prop41ColorIndex
 90
       18
102
RTVSPost2010Prop41ColorRGB
 90
        0
102
RTVSPost2010PropOp41
 70
     1
102
RTVSPost2010Prop42
 90
       50
102
RTVSPost2010PropOp42
 70
     1
102
RTVSPost2010Prop43
 90
        3
102
RTVSPost2010PropOp43
 70
     1
102
RTVSPost2010Prop44ColorIndex
 90
        5
102
RTVSPost2010Prop44ColorRGB
 90
      255
102
RTVSPost2010PropOp44
 70
     1
102
RTVSPost2010Prop45
280
     0
102
RTVSPost2010PropOp45
 70
     1
102
RTVSPost2010Prop46
 90
       50
102
RTVSPost2010PropOp46
 70
     1
102
RTVSPost2010Prop47
 90
       50
102
RTVSPost2010PropOp47
 70
     1
102
RTVSPost2010Prop48
 90
       50
102
RTVSPost2010PropOp48
 70
     1
102
RTVSPost2010Prop49
280
     0
102
RTVSPost2010PropOp49
 70
     1
102
RTVSPost2010Prop50
 90
       50
102
RTVSPost2010PropOp50
 70
     1
102
RTVSPost2010Prop51ColorIndex
 90
      256
102
RTVSPost2010Prop51ColorRGB
 90
-16777216
102
RTVSPost2010PropOp51
 70
     0
102
RTVSPost2010Prop52
140
1.0
102
RTVSPost2010PropOp52
 70
     0
102
RTVSPost2010Prop53
 90
        2
102
RTVSPost2010PropOp53
 70
     1
102
RTVSPost2010Prop54
  1
strokes_ogs.tif
102
RTVSPost2010PropOp54
 70
     1
102
RTVSPost2010Prop55
280
     0
102
RTVSPost2010PropOp55
 70
     1
102
RTVSPost2010Prop56
140
1.0
102
RTVSPost2010PropOp56
 70
     1
102
RTVSPost2010Prop57
140
1.0
102
RTVSPost2010PropOp57
 70
     1
102
RTVSPropertyOp0
 70
     1
102
RTVSPropertyOp1
 70
     1
102
RTVSPropertyOp2
 70
     1
102
RTVSPropertyOp3
 70
     1
102
RTVSPropertyOp4
 70
     1
102
RTVSPropertyOp5
 70
     1
102
RTVSPropertyOp6
 70
     1
102
RTVSPropertyOp7
 70
     1
102
RTVSPropertyOp8
 70
     1
102
RTVSPropertyOp9
 70
     1
102
RTVSPropertyOp10
 70
     1
102
RTVSPropertyOp11
 70
     1
102
RTVSPropertyOp12
 70
     1
102
RTVSPropertyOp13
 70
     1
102
RTVSPropertyOp14
 70
     1
102
RTVSPropertyOp15
 70
     1
102
RTVSPropertyOp16
 70
     1
102
RTVSPropertyOp17
 70
     1
102
RTVSPropertyOp18
 70
     1
102
RTVSPropertyOp19
 70
     1
102
RTVSPropertyOp20
 70
     1
102
RTVSPropertyOp21
 70
     1
102
RTVSPropertyOp22
 70
     1
102
RTVSPropertyOp23
 70
     1
102
RTVSPropertyOp24
 70
     1
102
RTVSPropertyOp25
 70
     1
102
RTVSPropertyOp26
 70
     1
102
RTVSPropertyOp27
 70
     1
102
RTVSPropertyOp28
 70
     1
102
RTVSPropertyOp29
 70
     1
102
RTVSPropertyOp30
 70
     1
102
RTVSPropertyOp31
 70
     1
102
RTVSPropertyOp32
 70
     1
102
RTVSPropertyOp33
 70
     1
102
RTVSPropertyOp34
 70
     1
102
RTVSPropertyOp35
 70
     1
102
RTVSPropertyOp36
 70
     1
102
RTVSPropertyOp37
 70
     1
102
RTVSPropertyOp38
 70
     1
102
RTVSPropertyOp39
 70
     1
102
RTVSPropertyOp40
 70
     1
102
RTVSPropertyOp41
 70
     1
102
RTVSPropertyOp42
 70
     1
102
RTVSPropertyOp43
 70
     1
102
RTVSPropertyOp44
 70
     1
102
RTVSPropertyOp45
 70
     1
102
RTVSPropertyOp46
 70
     1
102
RTVSPropertyOp47
 70
     1
102
RTVSPropertyOp48
 70
     1
102
RTVSPropertyOp49
 70
     1
102
RTVSPropertyOp50
 70
     1
102
RTVSPropertyOp51
 70
     0
102
RTVSPropertyOp52
 70
     0
102
RTVSPropertyOp53
 70
     1
102
RTVSPropertyOp54
 70
     1
102
RTVSPropertyOp55
 70
     1
102
RTVSPropertyOp56
 70
     1
102
RTVSPropertyOp57
 70
     1
102
RTVSPropertyOp58
 70
     1
102
RTVSPropertyOp59
 70
     1
102
RTVSPropertyOp60
 70
     1
102
RTVSPropertyOp61
 70
     1
102
RTVSPropertyOp62
 70
     1
  0
XRECORD
  5
987B
102
{ACAD_REACTORS
330
987A
102
}
330
987A
100
AcDbXrecord
280
     1
102
RTVSPost2010Prop28
280
     0
102
RTVSPost2010PropOp28
 70
     1
102
RTVSPost2010Prop29
280
     1
102
RTVSPost2010PropOp29
 70
     1
102
RTVSPost2010Prop30
280
     1
102
RTVSPost2010PropOp30
 70
     1
102
RTVSPost2010Prop31
280
     0
102
RTVSPost2010PropOp31
 70
     1
102
RTVSPost2010Prop32
280
     0
102
RTVSPost2010PropOp32
 70
     1
102
RTVSPost2010Prop33
280
     0
102
RTVSPost2010PropOp33
 70
     1
102
RTVSPost2010Prop34
280
     0
102
RTVSPost2010PropOp34
 70
     1
102
RTVSPost2010Prop35
280
     0
102
RTVSPost2010PropOp35
 70
     1
102
RTVSPost2010Prop36
280
     0
102
RTVSPost2010PropOp36
 70
     1
102
RTVSPost2010Prop37
 90
       50
102
RTVSPost2010PropOp37
 70
     1
102
RTVSPost2010Prop38
140
0.0
102
RTVSPost2010PropOp38
 70
     1
102
RTVSPost2010Prop39
140
1.0
102
RTVSPost2010PropOp39
 70
     1
102
RTVSPost2010Prop40
 90
        0
102
RTVSPost2010PropOp40
 70
     1
102
RTVSPost2010Prop41ColorIndex
 90
       18
102
RTVSPost2010Prop41ColorRGB
 90
        0
102
RTVSPost2010PropOp41
 70
     1
102
RTVSPost2010Prop42
 90
       50
102
RTVSPost2010PropOp42
 70
     1
102
RTVSPost2010Prop43
 90
        3
102
RTVSPost2010PropOp43
 70
     1
102
RTVSPost2010Prop44ColorIndex
 90
        5
102
RTVSPost2010Prop44ColorRGB
 90
      255
102
RTVSPost2010PropOp44
 70
     1
102
RTVSPost2010Prop45
280
     0
102
RTVSPost2010PropOp45
 70
     1
102
RTVSPost2010Prop46
 90
       50
102
RTVSPost2010PropOp46
 70
     1
102
RTVSPost2010Prop47
 90
       50
102
RTVSPost2010PropOp47
 70
     1
102
RTVSPost2010Prop48
 90
       50
102
RTVSPost2010PropOp48
 70
     1
102
RTVSPost2010Prop49
280
     0
102
RTVSPost2010PropOp49
 70
     1
102
RTVSPost2010Prop50
 90
       50
102
RTVSPost2010PropOp50
 70
     1
102
RTVSPost2010Prop51ColorIndex
 90
      256
102
RTVSPost2010Prop51ColorRGB
 90
-16777216
102
RTVSPost2010PropOp51
 70
     0
102
RTVSPost2010Prop52
140
1.0
102
RTVSPost2010PropOp52
 70
     0
102
RTVSPost2010Prop53
 90
        2
102
RTVSPost2010PropOp53
 70
     1
102
RTVSPost2010Prop54
  1
strokes_ogs.tif
102
RTVSPost2010PropOp54
 70
     1
102
RTVSPost2010Prop55
280
     0
102
RTVSPost2010PropOp55
 70
     1
102
RTVSPost2010Prop56
140
1.0
102
RTVSPost2010PropOp56
 70
     1
102
RTVSPost2010Prop57
140
1.0
102
RTVSPost2010PropOp57
 70
     1
102
RTVSPropertyOp0
 70
     1
102
RTVSPropertyOp1
 70
     1
102
RTVSPropertyOp2
 70
     1
102
RTVSPropertyOp3
 70
     1
102
RTVSPropertyOp4
 70
     1
102
RTVSPropertyOp5
 70
     1
102
RTVSPropertyOp6
 70
     1
102
RTVSPropertyOp7
 70
     1
102
RTVSPropertyOp8
 70
     1
102
RTVSPropertyOp9
 70
     1
102
RTVSPropertyOp10
 70
     1
102
RTVSPropertyOp11
 70
     1
102
RTVSPropertyOp12
 70
     1
102
RTVSPropertyOp13
 70
     1
102
RTVSPropertyOp14
 70
     1
102
RTVSPropertyOp15
 70
     1
102
RTVSPropertyOp16
 70
     1
102
RTVSPropertyOp17
 70
     1
102
RTVSPropertyOp18
 70
     1
102
RTVSPropertyOp19
 70
     1
102
RTVSPropertyOp20
 70
     1
102
RTVSPropertyOp21
 70
     1
102
RTVSPropertyOp22
 70
     1
102
RTVSPropertyOp23
 70
     1
102
RTVSPropertyOp24
 70
     1
102
RTVSPropertyOp25
 70
     1
102
RTVSPropertyOp26
 70
     1
102
RTVSPropertyOp27
 70
     1
102
RTVSPropertyOp28
 70
     1
102
RTVSPropertyOp29
 70
     1
102
RTVSPropertyOp30
 70
     1
102
RTVSPropertyOp31
 70
     1
102
RTVSPropertyOp32
 70
     1
102
RTVSPropertyOp33
 70
     1
102
RTVSPropertyOp34
 70
     1
102
RTVSPropertyOp35
 70
     1
102
RTVSPropertyOp36
 70
     1
102
RTVSPropertyOp37
 70
     1
102
RTVSPropertyOp38
 70
     1
102
RTVSPropertyOp39
 70
     1
102
RTVSPropertyOp40
 70
     1
102
RTVSPropertyOp41
 70
     1
102
RTVSPropertyOp42
 70
     1
102
RTVSPropertyOp43
 70
     1
102
RTVSPropertyOp44
 70
     1
102
RTVSPropertyOp45
 70
     1
102
RTVSPropertyOp46
 70
     1
102
RTVSPropertyOp47
 70
     1
102
RTVSPropertyOp48
 70
     1
102
RTVSPropertyOp49
 70
     1
102
RTVSPropertyOp50
 70
     1
102
RTVSPropertyOp51
 70
     0
102
RTVSPropertyOp52
 70
     0
102
RTVSPropertyOp53
 70
     1
102
RTVSPropertyOp54
 70
     1
102
RTVSPropertyOp55
 70
     1
102
RTVSPropertyOp56
 70
     1
102
RTVSPropertyOp57
 70
     1
102
RTVSPropertyOp58
 70
     1
102
RTVSPropertyOp59
 70
     1
102
RTVSPropertyOp60
 70
     1
102
RTVSPropertyOp61
 70
     1
102
RTVSPropertyOp62
 70
     1
  0
ENDSEC
  0
EOF
