  0
SECTION
  2
HEADER
  9
$ACADVER
  1
AC1015
  9
$ACADMAINTVER
 70
    20
  9
$DWGCODEPAGE
  3
ANSI_932
  9
$INSBASE
 10
0.0
 20
0.0
 30
0.0
  9
$EXTMIN
 10
10.0
 20
9.999999999999998
 30
0.0
  9
$EXTMAX
 10
357.605985
 20
204.6906149999999
 30
0.0
  9
$LIMMIN
 10
0.0
 20
0.0
  9
$LIMMAX
 10
396.0
 20
273.0
  9
$ORTHOMODE
 70
     1
  9
$REGENMODE
 70
     1
  9
$FILLMODE
 70
     1
  9
$QTEXTMODE
 70
     0
  9
$MIRRTEXT
 70
     1
  9
$LTSCALE
 40
20.0
  9
$ATTMODE
 70
     1
  9
$TEXTSIZE
 40
5.0
  9
$TRACEWID
 40
1.0
  9
$TEXTSTYLE
  7
STANDARD
  9
$CLAYER
  8
0
  9
$CELTYPE
  6
BYLAYER
  9
$CECOLOR
 62
   256
  9
$CELTSCALE
 40
1.0
  9
$DISPSILH
 70
     0
  9
$DIMSCALE
 40
1.0
  9
$DIMASZ
 40
3.0
  9
$DIMEXO
 40
1.0
  9
$DIMDLI
 40
10.0
  9
$DIMRND
 40
0.0
  9
$DIMDLE
 40
0.0
  9
$DIMEXE
 40
1.0
  9
$DIMTP
 40
0.0
  9
$DIMTM
 40
0.0
  9
$DIMTXT
 40
3.2
  9
$DIMCEN
 40
0.0
  9
$DIMTSZ
 40
0.0
  9
$DIMTOL
 70
     0
  9
$DIMLIM
 70
     0
  9
$DIMTIH
 70
     0
  9
$DIMTOH
 70
     0
  9
$DIMSE1
 70
     0
  9
$DIMSE2
 70
     0
  9
$DIMTAD
 70
     3
  9
$DIMZIN
 70
     8
  9
$DIMBLK
  1

  9
$DIMASO
 70
     1
  9
$DIMSHO
 70
     1
  9
$DIMPOST
  1

  9
$DIMAPOST
  1

  9
$DIMALT
 70
     0
  9
$DIMALTD
 70
     2
  9
$DIMALTF
 40
25.4
  9
$DIMLFAC
 40
1.0
  9
$DIMTOFL
 70
     1
  9
$DIMTVP
 40
0.0
  9
$DIMTIX
 70
     0
  9
$DIMSOXD
 70
     0
  9
$DIMSAH
 70
     1
  9
$DIMBLK1
  1

  9
$DIMBLK2
  1

  9
$DIMSTYLE
  2
STANDARD
  9
$DIMCLRD
 70
     0
  9
$DIMCLRE
 70
     0
  9
$DIMCLRT
 70
     0
  9
$DIMTFAC
 40
1.0
  9
$DIMGAP
 40
1.0
  9
$DIMJUST
 70
     0
  9
$DIMSD1
 70
     0
  9
$DIMSD2
 70
     0
  9
$DIMTOLJ
 70
     1
  9
$DIMTZIN
 70
     0
  9
$DIMALTZ
 70
     0
  9
$DIMALTTZ
 70
     0
  9
$DIMUPT
 70
     0
  9
$DIMDEC
 70
     4
  9
$DIMTDEC
 70
     4
  9
$DIMALTU
 70
     2
  9
$DIMALTTD
 70
     2
  9
$DIMTXSTY
  7
STANDARD
  9
$DIMAUNIT
 70
     0
  9
$DIMADEC
 70
     0
  9
$DIMALTRND
 40
0.0
  9
$DIMAZIN
 70
     0
  9
$DIMDSEP
 70
    46
  9
$DIMATFIT
 70
     3
  9
$DIMFRAC
 70
     0
  9
$DIMLDRBLK
  1

  9
$DIMLUNIT
 70
     2
  9
$DIMLWD
 70
    -2
  9
$DIMLWE
 70
    -2
  9
$DIMTMOVE
 70
     0
  9
$LUNITS
 70
     2
  9
$LUPREC
 70
     4
  9
$SKETCHINC
 40
1.0
  9
$FILLETRAD
 40
0.0
  9
$AUNITS
 70
     0
  9
$AUPREC
 70
     2
  9
$MENU
  1
.
  9
$ELEVATION
 40
0.0
  9
$PELEVATION
 40
0.0
  9
$THICKNESS
 40
0.0
  9
$LIMCHECK
 70
     0
  9
$CHAMFERA
 40
10.0
  9
$CHAMFERB
 40
10.0
  9
$CHAMFERC
 40
0.0
  9
$CHAMFERD
 40
0.0
  9
$SKPOLY
 70
     0
  9
$TDCREATE
 40
2451066.482362153
  9
$TDUCREATE
 40
2451066.107362153
  9
$TDUPDATE
 40
2457192.603438797
  9
$TDUUPDATE
 40
2457192.228438797
  9
$TDINDWG
 40
0.0000143287
  9
$TDUSRTIMER
 40
0.0000138426
  9
$USRTIMER
 70
     1
  9
$ANGBASE
 50
0.0
  9
$ANGDIR
 70
     0
  9
$PDMODE
 70
     0
  9
$PDSIZE
 40
0.0
  9
$PLINEWID
 40
0.0
  9
$SPLFRAME
 70
     0
  9
$SPLINETYPE
 70
     6
  9
$SPLINESEGS
 70
     8
  9
$HANDSEED
  5
9958
  9
$SURFTAB1
 70
     6
  9
$SURFTAB2
 70
     6
  9
$SURFTYPE
 70
     6
  9
$SURFU
 70
     6
  9
$SURFV
 70
     6
  9
$UCSBASE
  2

  9
$UCSNAME
  2

  9
$UCSORG
 10
0.0
 20
0.0
 30
0.0
  9
$UCSXDIR
 10
1.0
 20
0.0
 30
0.0
  9
$UCSYDIR
 10
0.0
 20
1.0
 30
0.0
  9
$UCSORTHOREF
  2

  9
$UCSORTHOVIEW
 70
     0
  9
$UCSORGTOP
 10
0.0
 20
0.0
 30
0.0
  9
$UCSORGBOTTOM
 10
0.0
 20
0.0
 30
0.0
  9
$UCSORGLEFT
 10
0.0
 20
0.0
 30
0.0
  9
$UCSORGRIGHT
 10
0.0
 20
0.0
 30
0.0
  9
$UCSORGFRONT
 10
0.0
 20
0.0
 30
0.0
  9
$UCSORGBACK
 10
0.0
 20
0.0
 30
0.0
  9
$PUCSBASE
  2

  9
$PUCSNAME
  2

  9
$PUCSORG
 10
0.0
 20
0.0
 30
0.0
  9
$PUCSXDIR
 10
1.0
 20
0.0
 30
0.0
  9
$PUCSYDIR
 10
0.0
 20
1.0
 30
0.0
  9
$PUCSORTHOREF
  2

  9
$PUCSORTHOVIEW
 70
     0
  9
$PUCSORGTOP
 10
0.0
 20
0.0
 30
0.0
  9
$PUCSORGBOTTOM
 10
0.0
 20
0.0
 30
0.0
  9
$PUCSORGLEFT
 10
0.0
 20
0.0
 30
0.0
  9
$PUCSORGRIGHT
 10
0.0
 20
0.0
 30
0.0
  9
$PUCSORGFRONT
 10
0.0
 20
0.0
 30
0.0
  9
$PUCSORGBACK
 10
0.0
 20
0.0
 30
0.0
  9
$USERI1
 70
     0
  9
$USERI2
 70
     0
  9
$USERI3
 70
     0
  9
$USERI4
 70
     0
  9
$USERI5
 70
     0
  9
$USERR1
 40
0.0
  9
$USERR2
 40
0.0
  9
$USERR3
 40
0.0
  9
$USERR4
 40
0.0
  9
$USERR5
 40
0.0
  9
$WORLDVIEW
 70
     1
  9
$SHADEDGE
 70
     3
  9
$SHADEDIF
 70
    70
  9
$TILEMODE
 70
     1
  9
$MAXACTVP
 70
    16
  9
$PINSBASE
 10
0.0
 20
0.0
 30
0.0
  9
$PLIMCHECK
 70
     0
  9
$PEXTMIN
 10
1.000000000000000E+20
 20
1.000000000000000E+20
 30
1.000000000000000E+20
  9
$PEXTMAX
 10
-1.000000000000000E+20
 20
-1.000000000000000E+20
 30
-1.000000000000000E+20
  9
$PLIMMIN
 10
0.0
 20
0.0
  9
$PLIMMAX
 10
420.0
 20
297.0
  9
$UNITMODE
 70
     0
  9
$VISRETAIN
 70
     0
  9
$PLINEGEN
 70
     0
  9
$PSLTSCALE
 70
     0
  9
$TREEDEPTH
 70
  3020
  9
$CMLSTYLE
  2
STANDARD
  9
$CMLJUST
 70
     0
  9
$CMLSCALE
 40
1.0
  9
$PROXYGRAPHICS
 70
     1
  9
$MEASUREMENT
 70
     0
  9
$CELWEIGHT
370
    -1
  9
$ENDCAPS
280
     0
  9
$JOINSTYLE
280
     0
  9
$LWDISPLAY
290
     0
  9
$INSUNITS
 70
     0
  9
$HYPERLINKBASE
  1

  9
$STYLESHEET
  1

  9
$XEDIT
290
     1
  9
$CEPSNTYPE
380
     0
  9
$PSTYLEMODE
290
     1
  9
$FINGERPRINTGUID
  2
{B02258A9-D296-4991-916A-09541688A1F1}
  9
$VERSIONGUID
  2
{10F4F8C6-A3D6-4781-BBF7-6392B48EDA16}
  9
$EXTNAMES
290
     1
  9
$PSVPSCALE
 40
0.0
  9
$OLESTARTUP
290
     0
  0
ENDSEC
  0
SECTION
  2
CLASSES
  0
CLASS
  1
ACDBDICTIONARYWDFLT
  2
AcDbDictionaryWithDefault
  3
ObjectDBX Classes
 90
        0
280
     0
281
     0
  0
CLASS
  1
ACDBPLACEHOLDER
  2
AcDbPlaceHolder
  3
ObjectDBX Classes
 90
        0
280
     0
281
     0
  0
CLASS
  1
LAYOUT
  2
AcDbLayout
  3
ObjectDBX Classes
 90
        0
280
     0
281
     0
  0
CLASS
  1
DICTIONARYVAR
  2
AcDbDictionaryVar
  3
ObjectDBX Classes
 90
        0
280
     0
281
     0
  0
CLASS
  1
MATERIAL
  2
AcDbMaterial
  3
ObjectDBX Classes
 90
     1153
280
     0
281
     0
  0
CLASS
  1
VISUALSTYLE
  2
AcDbVisualStyle
  3
ObjectDBX Classes
 90
     4095
280
     0
281
     0
  0
CLASS
  1
TABLESTYLE
  2
AcDbTableStyle
  3
ObjectDBX Classes
 90
     4095
280
     0
281
     0
  0
CLASS
  1
SCALE
  2
AcDbScale
  3
ObjectDBX Classes
 90
     1153
280
     0
281
     0
  0
CLASS
  1
MLEADERSTYLE
  2
AcDbMLeaderStyle
  3
ACDB_MLEADERSTYLE_CLASS
 90
     4095
280
     0
281
     0
  0
CLASS
  1
ACDBSECTIONVIEWSTYLE
  2
AcDbSectionViewStyle
  3
ObjectDBX Classes
 90
     1025
280
     0
281
     0
  0
CLASS
  1
ACDBDETAILVIEWSTYLE
  2
AcDbDetailViewStyle
  3
ObjectDBX Classes
 90
     1025
280
     0
281
     0
  0
CLASS
  1
CELLSTYLEMAP
  2
AcDbCellStyleMap
  3
ObjectDBX Classes
 90
     1152
280
     0
281
     0
  0
ENDSEC
  0
SECTION
  2
TABLES
  0
TABLE
  2
VPORT
  5
968E
330
0
100
AcDbSymbolTable
 70
     1
  0
VPORT
  5
98A1
330
968E
100
AcDbSymbolTableRecord
100
AcDbViewportTableRecord
  2
*ACTIVE
 70
     0
 10
0.0
 20
0.0
 11
1.0
 21
1.0
 12
243.6517661357997
 22
107.3404547032438
 13
0.0
 23
0.0
 14
10.0
 24
10.0
 15
10.0
 25
10.0
 16
0.0
 26
0.0
 36
1.0
 17
0.0
 27
0.0
 37
0.0
 40
199.8171181995785
 41
1.899603698811096
 42
50.0
 43
0.0
 44
0.0
 50
0.0
 51
0.0
 71
     0
 72
   100
 73
     1
 74
     0
 75
     0
 76
     0
 77
     0
 78
     0
281
     0
 65
     1
110
0.0
120
0.0
130
0.0
111
1.0
121
0.0
131
0.0
112
0.0
122
1.0
132
0.0
 79
     0
146
0.0
1001
ACAD_NAV_VCDISPLAY
1070
     3
  0
ENDTAB
  0
TABLE
  2
LTYPE
  5
968B
330
0
100
AcDbSymbolTable
 70
     4
  0
LTYPE
  5
9699
330
968B
100
AcDbSymbolTableRecord
100
AcDbLinetypeTableRecord
  2
BYBLOCK
 70
     0
  3

 72
    65
 73
     0
 40
0.0
  0
LTYPE
  5
969A
330
968B
100
AcDbSymbolTableRecord
100
AcDbLinetypeTableRecord
  2
BYLAYER
 70
     0
  3

 72
    65
 73
     0
 40
0.0
  0
LTYPE
  5
969B
330
968B
100
AcDbSymbolTableRecord
100
AcDbLinetypeTableRecord
  2
CONTINUOUS
 70
     0
  3
Solid line
 72
    65
 73
     0
 40
0.0
  0
LTYPE
  5
96A9
330
968B
100
AcDbSymbolTableRecord
100
AcDbLinetypeTableRecord
  2
DASHED
 70
     0
  3
__ __ __ __ __ __ __ __ __ __ __ __ __ __ __ __
 72
    65
 73
     2
 40
0.75
 49
0.5
 74
     0
 49
-0.25
 74
     0
  0
LTYPE
  5
96AA
330
968B
100
AcDbSymbolTableRecord
100
AcDbLinetypeTableRecord
  2
CENTER
 70
     0
  3
____ _ ____ _ ____ _ ____ _ ____ _ ____ _ ____ 
 72
    65
 73
     4
 40
2.0
 49
1.25
 74
     0
 49
-0.25
 74
     0
 49
0.25
 74
     0
 49
-0.25
 74
     0
  0
LTYPE
  5
96AB
330
968B
100
AcDbSymbolTableRecord
100
AcDbLinetypeTableRecord
  2
PHANTOM
 70
     0
  3
______  __  __  ______  __  __  ______  __  __ 
 72
    65
 73
     6
 40
2.5
 49
1.25
 74
     0
 49
-0.25
 74
     0
 49
0.25
 74
     0
 49
-0.25
 74
     0
 49
0.25
 74
     0
 49
-0.25
 74
     0
  0
ENDTAB
  0
TABLE
  2
LAYER
  5
9688
330
0
100
AcDbSymbolTable
 70
     8
  0
LAYER
  5
9696
102
{ACAD_XDICTIONARY
360
98FC
102
}
330
9688
100
AcDbSymbolTableRecord
100
AcDbLayerTableRecord
  2
0
 70
     0
 62
     7
  6
CONTINUOUS
370
    -3
390
98AA
  0
LAYER
  5
96AC
102
{ACAD_XDICTIONARY
360
98FE
102
}
330
9688
100
AcDbSymbolTableRecord
100
AcDbLayerTableRecord
  2
4
 70
     0
 62
     1
  6
CENTER
370
    -3
390
98AA
  0
LAYER
  5
96AD
102
{ACAD_XDICTIONARY
360
9900
102
}
330
9688
100
AcDbSymbolTableRecord
100
AcDbLayerTableRecord
  2
5
 70
     0
 62
     6
  6
PHANTOM
370
    -3
390
98AA
  0
LAYER
  5
96AE
102
{ACAD_XDICTIONARY
360
9902
102
}
330
9688
100
AcDbSymbolTableRecord
100
AcDbLayerTableRecord
  2
1
 70
     0
 62
     7
  6
CONTINUOUS
370
    -3
390
98AA
  0
LAYER
  5
96AF
102
{ACAD_XDICTIONARY
360
9904
102
}
330
9688
100
AcDbSymbolTableRecord
100
AcDbLayerTableRecord
  2
2
 70
     0
 62
     4
  6
CONTINUOUS
370
    -3
390
98AA
  0
LAYER
  5
96B0
102
{ACAD_XDICTIONARY
360
9906
102
}
330
9688
100
AcDbSymbolTableRecord
100
AcDbLayerTableRecord
  2
3
 70
     0
 62
     2
  6
DASHED
370
    -3
390
98AA
  0
LAYER
  5
96B1
102
{ACAD_XDICTIONARY
360
9908
102
}
330
9688
100
AcDbSymbolTableRecord
100
AcDbLayerTableRecord
  2
6
 70
     0
 62
     5
  6
CONTINUOUS
370
    -3
390
98AA
  0
LAYER
  5
96B2
102
{ACAD_XDICTIONARY
360
990A
102
}
330
9688
100
AcDbSymbolTableRecord
100
AcDbLayerTableRecord
  2
7
 70
     0
 62
     3
  6
CONTINUOUS
370
    -3
390
98AA
  0
ENDTAB
  0
TABLE
  2
STYLE
  5
9689
330
0
100
AcDbSymbolTable
 70
     1
  0
STYLE
  5
9697
330
9689
100
AcDbSymbolTableRecord
100
AcDbTextStyleTableRecord
  2
STANDARD
 70
     0
 40
0.0
 41
1.0
 50
0.0
 71
     0
 42
5.0
  3
txt
  4

  0
ENDTAB
  0
TABLE
  2
VIEW
  5
968C
330
0
100
AcDbSymbolTable
 70
     0
  0
ENDTAB
  0
TABLE
  2
UCS
  5
968D
330
0
100
AcDbSymbolTable
 70
     0
  0
ENDTAB
  0
TABLE
  2
APPID
  5
968F
330
0
100
AcDbSymbolTable
 70
     3
  0
APPID
  5
9698
330
968F
100
AcDbSymbolTableRecord
100
AcDbRegAppTableRecord
  2
ACAD
 70
     0
  0
APPID
  5
9916
330
968F
100
AcDbSymbolTableRecord
100
AcDbRegAppTableRecord
  2
ACAD_NAV_VCDISPLAY
 70
     0
  0
APPID
  5
994F
330
968F
100
AcDbSymbolTableRecord
100
AcDbRegAppTableRecord
  2
ACAD_MLEADERVER
 70
     0
  0
ENDTAB
  0
TABLE
  2
DIMSTYLE
  5
9690
330
0
100
AcDbSymbolTable
 70
     1
100
AcDbDimStyleTable
 71
     0
  0
DIMSTYLE
105
96B4
330
9690
100
AcDbSymbolTableRecord
100
AcDbDimStyleTableRecord
  2
STANDARD
 70
     0
 41
3.0
 42
1.0
 43
10.0
 44
1.0
 73
     0
 74
     0
 77
     3
 78
     8
140
3.2
141
0.0
147
1.0
172
     1
173
     1
284
     8
285
     8
286
     8
340
9697
  0
ENDTAB
  0
TABLE
  2
BLOCK_RECORD
  5
9687
330
0
100
AcDbSymbolTable
 70
     0
  0
BLOCK_RECORD
  5
96A4
102
{ACAD_XDICTIONARY
360
98A4
102
}
330
9687
100
AcDbSymbolTableRecord
100
AcDbBlockTableRecord
  2
*MODEL_SPACE
340
98F8
  0
BLOCK_RECORD
  5
96A0
102
{ACAD_XDICTIONARY
360
98A2
102
}
330
9687
100
AcDbSymbolTableRecord
100
AcDbBlockTableRecord
  2
*PAPER_SPACE
340
98F9
  0
ENDTAB
  0
ENDSEC
  0
SECTION
  2
BLOCKS
  0
BLOCK
  5
96A5
330
96A4
100
AcDbEntity
  8
0
100
AcDbBlockBegin
  2
*MODEL_SPACE
 70
     0
 10
0.0
 20
0.0
 30
0.0
  3
*MODEL_SPACE
  1

  0
ENDBLK
  5
96A6
330
96A4
100
AcDbEntity
  8
0
100
AcDbBlockEnd
  0
BLOCK
  5
96A1
330
96A0
100
AcDbEntity
 67
     1
  8
0
100
AcDbBlockBegin
  2
*PAPER_SPACE
 70
     0
 10
0.0
 20
0.0
 30
0.0
  3
*PAPER_SPACE
  1

  0
ENDBLK
  5
96A2
330
96A0
100
AcDbEntity
 67
     1
  8
0
100
AcDbBlockEnd
  0
ENDSEC
  0
SECTION
  2
ENTITIES
  0
TEXT
  5
96BC
330
96A4
100
AcDbEntity
  8
7
  6
Continuous
100
AcDbText
 10
10.0
 20
18.0
 30
0.0
 40
3.0
  1
TYPE No.TL-86-1
100
AcDbText
  0
TEXT
  5
96BD
330
96A4
100
AcDbEntity
  8
7
  6
Continuous
100
AcDbText
 10
10.0
 20
26.0
 30
0.0
 40
3.0
  1
CODE No.1079
100
AcDbText
  0
TEXT
  5
96BE
330
96A4
100
AcDbEntity
  8
1
  6
Continuous
100
AcDbText
 10
10.0
 20
10.0
 30
0.0
 40
1.399999999999999
  1
LAYER
100
AcDbText
  0
TEXT
  5
96BF
330
96A4
100
AcDbEntity
  8
1
  6
Continuous
100
AcDbText
 10
17.97951099999998
 20
10.04873699999998
 30
0.0
 40
1.399999999999999
  1
1
100
AcDbText
  0
TEXT
  5
96C0
330
96A4
100
AcDbEntity
  8
7
  6
Continuous
100
AcDbText
 10
29.97951099999999
 20
10.04873699999998
 30
0.0
 40
1.399999999999999
  1
7
100
AcDbText
  0
TEXT
  5
96C1
330
96A4
100
AcDbEntity
  8
4
  6
CENTER
100
AcDbText
 10
23.97951099999999
 20
10.04873699999998
 30
0.0
 40
1.399999999999999
  1
4
100
AcDbText
  0
TEXT
  5
96C2
330
96A4
100
AcDbEntity
  8
3
  6
DASHED
100
AcDbText
 10
21.979511
 20
10.04873699999998
 30
0.0
 40
1.399999999999999
  1
3
100
AcDbText
  0
TEXT
  5
96C3
330
96A4
100
AcDbEntity
  8
2
  6
Continuous
100
AcDbText
 10
19.97951099999999
 20
10.04873699999998
 30
0.0
 40
1.399999999999999
  1
2
100
AcDbText
  0
TEXT
  5
96C4
330
96A4
100
AcDbEntity
  8
6
  6
Continuous
100
AcDbText
 10
27.979511
 20
10.04873699999998
 30
0.0
 40
1.399999999999999
  1
6
100
AcDbText
  0
TEXT
  5
96C5
330
96A4
100
AcDbEntity
  8
5
  6
PHANTOM
100
AcDbText
 10
25.97951099999999
 20
10.04873699999998
 30
0.0
 40
1.399999999999999
  1
5
100
AcDbText
  0
LINE
  5
96C6
330
96A4
100
AcDbEntity
  8
4
  6
CENTER
100
AcDbLine
 10
17.103785
 20
117.6906149999998
 30
0.0
 11
40.79148499999997
 21
117.6906149999998
 31
0.0
  0
LINE
  5
96C7
330
96A4
100
AcDbEntity
  8
4
  6
CENTER
100
AcDbLine
 10
27.28528499999999
 20
134.563615
 30
0.0
 11
27.28528499999999
 21
100.6616149999999
 31
0.0
  0
LINE
  5
96C8
330
96A4
100
AcDbEntity
  8
1
  6
Continuous
100
AcDbLine
 10
20.28528499999999
 20
131.6906149999998
 30
0.0
 11
20.28528499999999
 21
103.6906149999999
 31
0.0
  0
LINE
  5
96C9
330
96A4
100
AcDbEntity
  8
1
  6
Continuous
100
AcDbLine
 10
34.28528499999998
 20
131.6906149999998
 30
0.0
 11
34.28528499999998
 21
103.6906149999999
 31
0.0
  0
LINE
  5
96CA
330
96A4
100
AcDbEntity
  8
1
  6
Continuous
100
AcDbLine
 10
20.28528499999999
 20
103.6906149999999
 30
0.0
 11
34.28528499999998
 21
103.6906149999999
 31
0.0
  0
LINE
  5
96CB
330
96A4
100
AcDbEntity
  8
1
  6
Continuous
100
AcDbLine
 10
20.28528499999999
 20
131.6906149999998
 30
0.0
 11
34.28528499999998
 21
131.6906149999998
 31
0.0
  0
LINE
  5
96CC
330
96A4
100
AcDbEntity
  8
4
  6
CENTER
100
AcDbLine
 10
23.549985
 20
127.690615
 30
0.0
 11
30.951085
 21
127.690615
 31
0.0
  0
LINE
  5
96CD
330
96A4
100
AcDbEntity
  8
4
  6
CENTER
100
AcDbLine
 10
23.470385
 20
107.6906149999998
 30
0.0
 11
31.26938499999999
 21
107.6906149999998
 31
0.0
  0
LINE
  5
96CE
330
96A4
100
AcDbEntity
  8
1
  6
Continuous
100
AcDbLine
 10
129.284985
 20
203.6906149999999
 30
0.0
 11
129.284985
 21
191.6906149999999
 31
0.0
  0
LINE
  5
96CF
330
96A4
100
AcDbEntity
  8
1
  6
Continuous
100
AcDbLine
 10
132.284985
 20
204.6906149999998
 30
0.0
 11
132.284985
 21
203.6906149999999
 31
0.0
  0
LINE
  5
96D0
330
96A4
100
AcDbEntity
  8
4
  6
CENTER
100
AcDbLine
 10
112.964985
 20
197.6906149999998
 30
0.0
 11
154.1809849999999
 21
197.6906149999998
 31
0.0
  0
LINE
  5
96D1
330
96A4
100
AcDbEntity
  8
1
  6
Continuous
100
AcDbLine
 10
147.284985
 20
203.6906149999999
 30
0.0
 11
147.284985
 21
192.1906149999998
 31
0.0
  0
LINE
  5
96D2
330
96A4
100
AcDbEntity
  8
5
  6
PHANTOM
100
AcDbLine
 10
140.784985
 20
201.6906149999999
 30
0.0
 11
140.784985
 21
193.6906149999998
 31
0.0
  0
LINE
  5
96D3
330
96A4
100
AcDbEntity
  8
1
  6
Continuous
100
AcDbLine
 10
116.284985
 20
201.6906149999999
 30
0.0
 11
116.284985
 21
193.6906149999998
 31
0.0
  0
LINE
  5
96D4
330
96A4
100
AcDbEntity
  8
1
  6
Continuous
100
AcDbLine
 10
125.284985
 20
202.1906149999999
 30
0.0
 11
125.284985
 21
193.1906149999998
 31
0.0
  0
LINE
  5
96D5
330
96A4
100
AcDbEntity
  8
1
  6
Continuous
100
AcDbLine
 10
116.784985
 20
193.1906149999998
 30
0.0
 11
125.284985
 21
193.1906149999998
 31
0.0
  0
LINE
  5
96D6
330
96A4
100
AcDbEntity
  8
1
  6
Continuous
100
AcDbLine
 10
116.784985
 20
202.1906149999999
 30
0.0
 11
125.284985
 21
202.1906149999999
 31
0.0
  0
LINE
  5
96D7
330
96A4
100
AcDbEntity
  8
1
  6
Continuous
100
AcDbLine
 10
125.284985
 20
193.6906149999998
 30
0.0
 11
129.284985
 21
193.6906149999998
 31
0.0
  0
LINE
  5
96D8
330
96A4
100
AcDbEntity
  8
1
  6
Continuous
100
AcDbLine
 10
125.284985
 20
201.6906149999999
 30
0.0
 11
129.284985
 21
201.6906149999999
 31
0.0
  0
LINE
  5
96D9
330
96A4
100
AcDbEntity
  8
1
  6
Continuous
100
AcDbLine
 10
116.784985
 20
202.1906149999999
 30
0.0
 11
116.284985
 21
201.6906149999999
 31
0.0
  0
LINE
  5
96DA
330
96A4
100
AcDbEntity
  8
1
  6
Continuous
100
AcDbLine
 10
116.284985
 20
193.6906149999998
 30
0.0
 11
116.784985
 21
193.1906149999998
 31
0.0
  0
LINE
  5
96DB
330
96A4
100
AcDbEntity
  8
1
  6
Continuous
100
AcDbLine
 10
116.784985
 20
202.1906149999999
 30
0.0
 11
116.784985
 21
193.1906149999998
 31
0.0
  0
LINE
  5
96DC
330
96A4
100
AcDbEntity
  8
1
  6
Continuous
100
AcDbLine
 10
116.784985
 20
201.1906149999998
 30
0.0
 11
125.284985
 21
201.1906149999998
 31
0.0
  0
LINE
  5
96DD
330
96A4
100
AcDbEntity
  8
1
  6
Continuous
100
AcDbLine
 10
116.784985
 20
200.1906149999999
 30
0.0
 11
124.284985
 21
200.1906149999999
 31
0.0
  0
LINE
  5
96DE
330
96A4
100
AcDbEntity
  8
1
  6
Continuous
100
AcDbLine
 10
116.784985
 20
199.1906149999999
 30
0.0
 11
123.284985
 21
199.1906149999999
 31
0.0
  0
LINE
  5
96DF
330
96A4
100
AcDbEntity
  8
1
  6
Continuous
100
AcDbLine
 10
116.784985
 20
198.190615
 30
0.0
 11
122.284985
 21
198.190615
 31
0.0
  0
LINE
  5
96E0
330
96A4
100
AcDbEntity
  8
1
  6
Continuous
100
AcDbLine
 10
151.284985
 20
199.2906149999998
 30
0.0
 11
151.284985
 21
196.0906149999999
 31
0.0
  0
LINE
  5
96E1
330
96A4
100
AcDbEntity
  8
1
  6
Continuous
100
AcDbLine
 10
148.284985
 20
199.2906149999998
 30
0.0
 11
148.284985
 21
197.3706149999999
 31
0.0
  0
LINE
  5
96E2
330
96A4
100
AcDbEntity
  8
1
  6
Continuous
100
AcDbLine
 10
150.0849849999999
 20
201.9906149999999
 30
0.0
 11
150.0849849999999
 21
193.390615
 31
0.0
  0
LINE
  5
96E3
330
96A4
100
AcDbEntity
  8
1
  6
Continuous
100
AcDbLine
 10
150.0849849999999
 20
199.2906149999998
 30
0.0
 11
151.284985
 21
199.2906149999998
 31
0.0
  0
LINE
  5
96E4
330
96A4
100
AcDbEntity
  8
1
  6
Continuous
100
AcDbLine
 10
150.0849849999999
 20
196.0906149999999
 30
0.0
 11
151.284985
 21
196.0906149999999
 31
0.0
  0
LINE
  5
96E5
330
96A4
100
AcDbEntity
  8
1
  6
Continuous
100
AcDbLine
 10
148.3949849999999
 20
196.5406149999998
 30
0.0
 11
148.5849849999999
 21
196.5406149999998
 31
0.0
  0
LINE
  5
96E6
330
96A4
100
AcDbEntity
  8
1
  6
Continuous
100
AcDbLine
 10
148.284985
 20
198.8406149999999
 30
0.0
 11
148.5849849999999
 21
198.8406149999999
 31
0.0
  0
LINE
  5
96E7
330
96A4
100
AcDbEntity
  8
1
  6
Continuous
100
AcDbLine
 10
135.784985
 20
200.1906149999999
 30
0.0
 11
135.784985
 21
195.1906149999999
 31
0.0
  0
LINE
  5
96E8
330
96A4
100
AcDbEntity
  8
1
  6
Continuous
100
AcDbLine
 10
147.284985
 20
196.0906149999999
 30
0.0
 11
148.0509849999999
 21
196.0906149999999
 31
0.0
  0
LINE
  5
96E9
330
96A4
100
AcDbEntity
  8
1
  6
Continuous
100
AcDbLine
 10
147.284985
 20
199.2906149999998
 30
0.0
 11
147.627985
 21
199.2906149999998
 31
0.0
  0
LINE
  5
96EA
330
96A4
100
AcDbEntity
  8
1
  6
Continuous
100
AcDbLine
 10
135.784985
 20
200.1906149999999
 30
0.0
 11
137.258985
 21
200.1906149999999
 31
0.0
  0
LINE
  5
96EB
330
96A4
100
AcDbEntity
  8
1
  6
Continuous
100
AcDbLine
 10
135.784985
 20
195.1906149999999
 30
0.0
 11
136.301985
 21
195.1906149999999
 31
0.0
  0
LINE
  5
96EC
330
96A4
100
AcDbEntity
  8
2
  6
Continuous
100
AcDbLine
 10
135.784985
 20
199.757615
 30
0.0
 11
137.1759849999999
 21
199.757615
 31
0.0
  0
LINE
  5
96ED
330
96A4
100
AcDbEntity
  8
2
  6
Continuous
100
AcDbLine
 10
135.784985
 20
195.623615
 30
0.0
 11
136.384985
 21
195.623615
 31
0.0
  0
LINE
  5
96EE
330
96A4
100
AcDbEntity
  8
1
  6
Continuous
100
AcDbLine
 10
134.284985
 20
199.6906149999998
 30
0.0
 11
134.981985
 21
199.6906149999998
 31
0.0
  0
LINE
  5
96EF
330
96A4
100
AcDbEntity
  8
1
  6
Continuous
100
AcDbLine
 10
134.724985
 20
195.6906149999998
 30
0.0
 11
135.784985
 21
195.6906149999998
 31
0.0
  0
LINE
  5
96F0
330
96A4
100
AcDbEntity
  8
1
  6
Continuous
100
AcDbLine
 10
134.284985
 20
200.1906149999999
 30
0.0
 11
134.284985
 21
196.051615
 31
0.0
  0
LINE
  5
96F1
330
96A4
100
AcDbEntity
  8
1
  6
Continuous
100
AcDbLine
 10
131.284985
 20
195.1906149999999
 30
0.0
 11
131.938985
 21
195.1906149999999
 31
0.0
  0
LINE
  5
96F2
330
96A4
100
AcDbEntity
  8
1
  6
Continuous
100
AcDbLine
 10
131.284985
 20
200.1906149999999
 30
0.0
 11
132.8959849999999
 21
200.1906149999999
 31
0.0
  0
LINE
  5
96F3
330
96A4
100
AcDbEntity
  8
4
  6
CENTER
100
AcDbLine
 10
245.466985
 20
117.6906149999998
 30
0.0
 11
222.677985
 21
117.6906149999998
 31
0.0
  0
LINE
  5
96F4
330
96A4
100
AcDbEntity
  8
4
  6
CENTER
100
AcDbLine
 10
235.284985
 20
134.563615
 30
0.0
 11
235.284985
 21
100.6616149999999
 31
0.0
  0
LINE
  5
96F5
330
96A4
100
AcDbEntity
  8
1
  6
Continuous
100
AcDbLine
 10
242.2849849999999
 20
131.6906149999998
 30
0.0
 11
242.2849849999999
 21
103.6906149999999
 31
0.0
  0
LINE
  5
96F6
330
96A4
100
AcDbEntity
  8
1
  6
Continuous
100
AcDbLine
 10
228.284985
 20
131.6906149999998
 30
0.0
 11
228.284985
 21
120.7572819999999
 31
0.0
  0
LINE
  5
96F7
330
96A4
100
AcDbEntity
  8
1
  6
Continuous
100
AcDbLine
 10
242.2849849999999
 20
103.6906149999999
 30
0.0
 11
228.284985
 21
103.6906149999999
 31
0.0
  0
LINE
  5
96F8
330
96A4
100
AcDbEntity
  8
1
  6
Continuous
100
AcDbLine
 10
242.2849849999999
 20
131.6906149999998
 30
0.0
 11
228.284985
 21
131.6906149999998
 31
0.0
  0
LINE
  5
96F9
330
96A4
100
AcDbEntity
  8
4
  6
CENTER
100
AcDbLine
 10
239.020985
 20
127.690615
 30
0.0
 11
231.619985
 21
127.690615
 31
0.0
  0
LINE
  5
96FA
330
96A4
100
AcDbEntity
  8
4
  6
CENTER
100
AcDbLine
 10
239.099985
 20
107.6906149999998
 30
0.0
 11
231.3009849999999
 21
107.6906149999998
 31
0.0
  0
LINE
  5
96FB
330
96A4
100
AcDbEntity
  8
1
  6
Continuous
100
AcDbLine
 10
241.284985
 20
131.6906149999998
 30
0.0
 11
241.284985
 21
123.1906149999998
 31
0.0
  0
LINE
  5
96FC
330
96A4
100
AcDbEntity
  8
1
  6
Continuous
100
AcDbLine
 10
229.284985
 20
131.6906149999998
 30
0.0
 11
229.284985
 21
120.890615
 31
0.0
  0
LINE
  5
96FD
330
96A4
100
AcDbEntity
  8
1
  6
Continuous
100
AcDbLine
 10
242.2849849999999
 20
123.1906149999998
 30
0.0
 11
239.183985
 21
123.1906149999998
 31
0.0
  0
LINE
  5
96FE
330
96A4
100
AcDbEntity
  8
1
  6
Continuous
100
AcDbLine
 10
242.2849849999999
 20
112.190615
 30
0.0
 11
240.784985
 21
112.190615
 31
0.0
  0
LINE
  5
96FF
330
96A4
100
AcDbEntity
  8
1
  6
Continuous
100
AcDbLine
 10
240.784985
 20
110.6906149999998
 30
0.0
 11
229.7849849999999
 21
110.6906149999998
 31
0.0
  0
LINE
  5
9700
330
96A4
100
AcDbEntity
  8
1
  6
Continuous
100
AcDbLine
 10
241.284985
 20
112.190615
 30
0.0
 11
241.284985
 21
103.6906149999999
 31
0.0
  0
LINE
  5
9701
330
96A4
100
AcDbEntity
  8
1
  6
Continuous
100
AcDbLine
 10
234.2849849999999
 20
121.148615
 30
0.0
 11
233.3709849999999
 21
123.0416149999998
 31
0.0
  0
LINE
  5
9702
330
96A4
100
AcDbEntity
  8
1
  6
Continuous
100
AcDbLine
 10
236.2849849999999
 20
121.148615
 30
0.0
 11
237.1999849999999
 21
123.0416149999998
 31
0.0
  0
LINE
  5
9703
330
96A4
100
AcDbEntity
  8
1
  6
Continuous
100
AcDbLine
 10
238.193985
 20
119.812615
 30
0.0
 11
239.270985
 21
122.0406149999998
 31
0.0
  0
LINE
  5
9704
330
96A4
100
AcDbEntity
  8
1
  6
Continuous
100
AcDbLine
 10
232.376985
 20
119.812615
 30
0.0
 11
231.299985
 21
122.0406149999998
 31
0.0
  0
LINE
  5
9705
330
96A4
100
AcDbEntity
  8
1
  6
Continuous
100
AcDbLine
 10
236.360985
 20
116.5066149999999
 30
0.0
 11
237.310985
 21
112.098615
 31
0.0
  0
LINE
  5
9706
330
96A4
100
AcDbEntity
  8
1
  6
Continuous
100
AcDbLine
 10
234.208985
 20
116.5066149999999
 30
0.0
 11
233.259985
 21
112.098615
 31
0.0
  0
LINE
  5
9707
330
96A4
100
AcDbEntity
  8
1
  6
Continuous
100
AcDbLine
 10
231.867985
 20
116.559615
 30
0.0
 11
231.0109849999999
 21
112.5826149999999
 31
0.0
  0
LINE
  5
9708
330
96A4
100
AcDbEntity
  8
1
  6
Continuous
100
AcDbLine
 10
238.702985
 20
116.559615
 30
0.0
 11
239.5599849999999
 21
112.5826149999999
 31
0.0
  0
LINE
  5
9709
330
96A4
100
AcDbEntity
  8
1
  6
Continuous
100
AcDbLine
 10
237.2869849999999
 20
123.1906149999998
 30
0.0
 11
234.784985
 21
123.1906149999998
 31
0.0
  0
LINE
  5
970A
330
96A4
100
AcDbEntity
  8
1
  6
Continuous
100
AcDbLine
 10
148.5849849999999
 20
201.9906149999999
 30
0.0
 11
148.5849849999999
 21
193.390615
 31
0.0
  0
LINE
  5
970B
330
96A4
100
AcDbEntity
  8
1
  6
Continuous
100
AcDbLine
 10
129.284985
 20
131.6906149999998
 30
0.0
 11
132.284985
 21
131.6906149999998
 31
0.0
  0
LINE
  5
970C
330
96A4
100
AcDbEntity
  8
1
  6
Continuous
100
AcDbLine
 10
129.284985
 20
103.6906149999999
 30
0.0
 11
132.284985
 21
103.6906149999999
 31
0.0
  0
LINE
  5
970D
330
96A4
100
AcDbEntity
  8
1
  6
Continuous
100
AcDbLine
 10
129.284985
 20
131.6906149999998
 30
0.0
 11
129.284985
 21
103.6906149999999
 31
0.0
  0
LINE
  5
970E
330
96A4
100
AcDbEntity
  8
1
  6
Continuous
100
AcDbLine
 10
132.284985
 20
131.6906149999998
 30
0.0
 11
132.284985
 21
103.6906149999999
 31
0.0
  0
LINE
  5
970F
330
96A4
100
AcDbEntity
  8
4
  6
CENTER
100
AcDbLine
 10
112.964985
 20
117.6906149999998
 30
0.0
 11
154.1809849999999
 21
117.6906149999998
 31
0.0
  0
LINE
  5
9710
330
96A4
100
AcDbEntity
  8
1
  6
Continuous
100
AcDbLine
 10
132.284985
 20
123.1906149999998
 30
0.0
 11
147.284985
 21
123.1906149999998
 31
0.0
  0
LINE
  5
9711
330
96A4
100
AcDbEntity
  8
1
  6
Continuous
100
AcDbLine
 10
132.284985
 20
110.6906149999998
 30
0.0
 11
146.284985
 21
110.6906149999998
 31
0.0
  0
LINE
  5
9712
330
96A4
100
AcDbEntity
  8
1
  6
Continuous
100
AcDbLine
 10
132.284985
 20
112.190615
 30
0.0
 11
146.284985
 21
112.190615
 31
0.0
  0
LINE
  5
9713
330
96A4
100
AcDbEntity
  8
1
  6
Continuous
100
AcDbLine
 10
132.284985
 20
111.6906149999998
 30
0.0
 11
146.284985
 21
111.6906149999998
 31
0.0
  0
LINE
  5
9714
330
96A4
100
AcDbEntity
  8
1
  6
Continuous
100
AcDbLine
 10
147.284985
 20
123.1906149999998
 30
0.0
 11
147.284985
 21
111.6906149999998
 31
0.0
  0
LINE
  5
9715
330
96A4
100
AcDbEntity
  8
1
  6
Continuous
100
AcDbLine
 10
146.284985
 20
123.1906149999998
 30
0.0
 11
146.284985
 21
111.6906149999998
 31
0.0
  0
LINE
  5
9716
330
96A4
100
AcDbEntity
  8
1
  6
Continuous
100
AcDbLine
 10
116.284985
 20
121.690615
 30
0.0
 11
116.284985
 21
113.6906149999998
 31
0.0
  0
LINE
  5
9717
330
96A4
100
AcDbEntity
  8
1
  6
Continuous
100
AcDbLine
 10
125.284985
 20
122.1906149999998
 30
0.0
 11
125.284985
 21
113.190615
 31
0.0
  0
LINE
  5
9718
330
96A4
100
AcDbEntity
  8
1
  6
Continuous
100
AcDbLine
 10
116.784985
 20
113.190615
 30
0.0
 11
125.284985
 21
113.190615
 31
0.0
  0
LINE
  5
9719
330
96A4
100
AcDbEntity
  8
1
  6
Continuous
100
AcDbLine
 10
116.784985
 20
122.1906149999998
 30
0.0
 11
125.284985
 21
122.1906149999998
 31
0.0
  0
LINE
  5
971A
330
96A4
100
AcDbEntity
  8
1
  6
Continuous
100
AcDbLine
 10
125.284985
 20
113.6906149999998
 30
0.0
 11
129.284985
 21
113.6906149999998
 31
0.0
  0
LINE
  5
971B
330
96A4
100
AcDbEntity
  8
1
  6
Continuous
100
AcDbLine
 10
125.284985
 20
121.690615
 30
0.0
 11
129.284985
 21
121.690615
 31
0.0
  0
LINE
  5
971C
330
96A4
100
AcDbEntity
  8
1
  6
Continuous
100
AcDbLine
 10
116.784985
 20
122.1906149999998
 30
0.0
 11
116.284985
 21
121.690615
 31
0.0
  0
LINE
  5
971D
330
96A4
100
AcDbEntity
  8
1
  6
Continuous
100
AcDbLine
 10
116.284985
 20
113.6906149999998
 30
0.0
 11
116.784985
 21
113.190615
 31
0.0
  0
LINE
  5
971E
330
96A4
100
AcDbEntity
  8
1
  6
Continuous
100
AcDbLine
 10
116.784985
 20
122.1906149999998
 30
0.0
 11
116.784985
 21
113.190615
 31
0.0
  0
LINE
  5
971F
330
96A4
100
AcDbEntity
  8
1
  6
Continuous
100
AcDbLine
 10
116.784985
 20
121.1906149999998
 30
0.0
 11
125.284985
 21
121.1906149999998
 31
0.0
  0
LINE
  5
9720
330
96A4
100
AcDbEntity
  8
1
  6
Continuous
100
AcDbLine
 10
116.784985
 20
120.1906149999998
 30
0.0
 11
124.284985
 21
120.1906149999998
 31
0.0
  0
LINE
  5
9721
330
96A4
100
AcDbEntity
  8
1
  6
Continuous
100
AcDbLine
 10
116.784985
 20
119.1906149999998
 30
0.0
 11
123.284985
 21
119.1906149999998
 31
0.0
  0
LINE
  5
9722
330
96A4
100
AcDbEntity
  8
1
  6
Continuous
100
AcDbLine
 10
116.784985
 20
118.1906149999998
 30
0.0
 11
122.284985
 21
118.1906149999998
 31
0.0
  0
LINE
  5
9723
330
96A4
100
AcDbEntity
  8
1
  6
Continuous
100
AcDbLine
 10
151.284985
 20
119.2906149999999
 30
0.0
 11
151.284985
 21
116.0906149999999
 31
0.0
  0
LINE
  5
9724
330
96A4
100
AcDbEntity
  8
1
  6
Continuous
100
AcDbLine
 10
148.284985
 20
119.2906149999999
 30
0.0
 11
148.284985
 21
117.3706149999999
 31
0.0
  0
LINE
  5
9725
330
96A4
100
AcDbEntity
  8
1
  6
Continuous
100
AcDbLine
 10
150.0849849999999
 20
123.690615
 30
0.0
 11
150.0849849999999
 21
111.190615
 31
0.0
  0
LINE
  5
9726
330
96A4
100
AcDbEntity
  8
1
  6
Continuous
100
AcDbLine
 10
150.0849849999999
 20
119.2906149999999
 30
0.0
 11
151.284985
 21
119.2906149999999
 31
0.0
  0
LINE
  5
9727
330
96A4
100
AcDbEntity
  8
1
  6
Continuous
100
AcDbLine
 10
150.0849849999999
 20
116.0906149999999
 30
0.0
 11
151.284985
 21
116.0906149999999
 31
0.0
  0
LINE
  5
9728
330
96A4
100
AcDbEntity
  8
1
  6
Continuous
100
AcDbLine
 10
148.3949849999999
 20
116.5406149999999
 30
0.0
 11
148.5849849999999
 21
116.5406149999999
 31
0.0
  0
LINE
  5
9729
330
96A4
100
AcDbEntity
  8
1
  6
Continuous
100
AcDbLine
 10
148.284985
 20
118.8406149999998
 30
0.0
 11
148.5849849999999
 21
118.8406149999998
 31
0.0
  0
LINE
  5
972A
330
96A4
100
AcDbEntity
  8
1
  6
Continuous
100
AcDbLine
 10
135.784985
 20
120.1906149999998
 30
0.0
 11
135.784985
 21
115.190615
 31
0.0
  0
LINE
  5
972B
330
96A4
100
AcDbEntity
  8
1
  6
Continuous
100
AcDbLine
 10
147.284985
 20
116.0906149999999
 30
0.0
 11
148.0509849999999
 21
116.0906149999999
 31
0.0
  0
LINE
  5
972C
330
96A4
100
AcDbEntity
  8
1
  6
Continuous
100
AcDbLine
 10
147.284985
 20
119.2906149999999
 30
0.0
 11
147.627985
 21
119.2906149999999
 31
0.0
  0
LINE
  5
972D
330
96A4
100
AcDbEntity
  8
1
  6
Continuous
100
AcDbLine
 10
135.784985
 20
120.1906149999998
 30
0.0
 11
137.258985
 21
120.1906149999998
 31
0.0
  0
LINE
  5
972E
330
96A4
100
AcDbEntity
  8
1
  6
Continuous
100
AcDbLine
 10
135.784985
 20
115.190615
 30
0.0
 11
136.301985
 21
115.190615
 31
0.0
  0
LINE
  5
972F
330
96A4
100
AcDbEntity
  8
2
  6
Continuous
100
AcDbLine
 10
135.784985
 20
119.7576149999999
 30
0.0
 11
137.1759849999999
 21
119.7576149999999
 31
0.0
  0
LINE
  5
9730
330
96A4
100
AcDbEntity
  8
2
  6
Continuous
100
AcDbLine
 10
135.784985
 20
115.6236149999999
 30
0.0
 11
136.384985
 21
115.6236149999999
 31
0.0
  0
LINE
  5
9731
330
96A4
100
AcDbEntity
  8
1
  6
Continuous
100
AcDbLine
 10
134.284985
 20
119.690615
 30
0.0
 11
134.981985
 21
119.690615
 31
0.0
  0
LINE
  5
9732
330
96A4
100
AcDbEntity
  8
1
  6
Continuous
100
AcDbLine
 10
134.724985
 20
115.6906149999998
 30
0.0
 11
135.784985
 21
115.6906149999998
 31
0.0
  0
LINE
  5
9733
330
96A4
100
AcDbEntity
  8
1
  6
Continuous
100
AcDbLine
 10
134.284985
 20
120.1906149999998
 30
0.0
 11
134.284985
 21
116.0516149999998
 31
0.0
  0
LINE
  5
9734
330
96A4
100
AcDbEntity
  8
1
  6
Continuous
100
AcDbLine
 10
132.4479849999999
 20
115.190615
 30
0.0
 11
134.119985
 21
115.190615
 31
0.0
  0
LINE
  5
9735
330
96A4
100
AcDbEntity
  8
1
  6
Continuous
100
AcDbLine
 10
132.284985
 20
120.1906149999998
 30
0.0
 11
132.8959849999999
 21
120.1906149999998
 31
0.0
  0
LINE
  5
9736
330
96A4
100
AcDbEntity
  8
1
  6
Continuous
100
AcDbLine
 10
148.5849849999999
 20
111.190615
 30
0.0
 11
150.0849849999999
 21
111.190615
 31
0.0
  0
LINE
  5
9737
330
96A4
100
AcDbEntity
  8
1
  6
Continuous
100
AcDbLine
 10
148.5849849999999
 20
123.690615
 30
0.0
 11
150.0849849999999
 21
123.690615
 31
0.0
  0
LINE
  5
9738
330
96A4
100
AcDbEntity
  8
1
  6
Continuous
100
AcDbLine
 10
148.5849849999999
 20
119.812615
 30
0.0
 11
150.0849849999999
 21
119.812615
 31
0.0
  0
LINE
  5
9739
330
96A4
100
AcDbEntity
  8
1
  6
Continuous
100
AcDbLine
 10
148.5849849999999
 20
123.690615
 30
0.0
 11
148.5849849999999
 21
111.190615
 31
0.0
  0
LINE
  5
973A
330
96A4
100
AcDbEntity
  8
1
  6
Continuous
100
AcDbLine
 10
148.5849849999999
 20
116.559615
 30
0.0
 11
150.0849849999999
 21
116.559615
 31
0.0
  0
LINE
  5
973B
330
96A4
100
AcDbEntity
  8
1
  6
Continuous
100
AcDbLine
 10
130.284985
 20
190.6906149999999
 30
0.0
 11
132.284985
 21
190.6906149999999
 31
0.0
  0
LINE
  5
973C
330
96A4
100
AcDbEntity
  8
1
  6
Continuous
100
AcDbLine
 10
130.284985
 20
203.6906149999999
 30
0.0
 11
130.284985
 21
191.6906149999999
 31
0.0
  0
LINE
  5
973D
330
96A4
100
AcDbEntity
  8
1
  6
Continuous
100
AcDbLine
 10
130.284985
 20
191.6906149999999
 30
0.0
 11
132.284985
 21
191.6906149999999
 31
0.0
  0
LINE
  5
973E
330
96A4
100
AcDbEntity
  8
1
  6
Continuous
100
AcDbLine
 10
132.284985
 20
191.6906149999999
 30
0.0
 11
132.284985
 21
190.6906149999999
 31
0.0
  0
LINE
  5
973F
330
96A4
100
AcDbEntity
  8
1
  6
Continuous
100
AcDbLine
 10
130.284985
 20
203.1906149999998
 30
0.0
 11
146.284985
 21
203.1906149999998
 31
0.0
  0
LINE
  5
9740
330
96A4
100
AcDbEntity
  8
1
  6
Continuous
100
AcDbLine
 10
130.284985
 20
204.6906149999998
 30
0.0
 11
146.284985
 21
204.6906149999998
 31
0.0
  0
LINE
  5
9741
330
96A4
100
AcDbEntity
  8
1
  6
Continuous
100
AcDbLine
 10
130.284985
 20
203.6906149999999
 30
0.0
 11
146.284985
 21
203.6906149999999
 31
0.0
  0
LINE
  5
9742
330
96A4
100
AcDbEntity
  8
1
  6
Continuous
100
AcDbLine
 10
130.7849849999997
 20
200.9406149999998
 30
0.0
 11
130.7849849999997
 21
194.4406149999998
 31
0.0
  0
LINE
  5
9743
330
96A4
100
AcDbEntity
  8
1
  6
Continuous
100
AcDbLine
 10
130.284985
 20
194.4406149999998
 30
0.0
 11
130.7849849999997
 21
194.4406149999998
 31
0.0
  0
LINE
  5
9744
330
96A4
100
AcDbEntity
  8
1
  6
Continuous
100
AcDbLine
 10
130.284985
 20
200.9406149999998
 30
0.0
 11
130.7849849999997
 21
200.9406149999998
 31
0.0
  0
LINE
  5
9745
330
96A4
100
AcDbEntity
  8
1
  6
Continuous
100
AcDbLine
 10
148.5849849999999
 20
201.7906149999999
 30
0.0
 11
150.0849849999999
 21
201.7906149999999
 31
0.0
  0
LINE
  5
9746
330
96A4
100
AcDbEntity
  8
1
  6
Continuous
100
AcDbLine
 10
148.5849849999999
 20
193.5906149999999
 30
0.0
 11
150.0849849999999
 21
193.5906149999999
 31
0.0
  0
LINE
  5
9747
330
96A4
100
AcDbEntity
  8
1
  6
Continuous
100
AcDbLine
 10
148.5849849999999
 20
198.6906149999999
 30
0.0
 11
150.0849849999999
 21
198.6906149999999
 31
0.0
  0
LINE
  5
9748
330
96A4
100
AcDbEntity
  8
1
  6
Continuous
100
AcDbLine
 10
148.5849849999999
 20
196.6906149999998
 30
0.0
 11
150.0849849999999
 21
196.6906149999998
 31
0.0
  0
LINE
  5
9749
330
96A4
100
AcDbEntity
  8
1
  6
Continuous
100
AcDbLine
 10
148.5849849999999
 20
201.9906149999999
 30
0.0
 11
150.0849849999999
 21
201.9906149999999
 31
0.0
  0
LINE
  5
974A
330
96A4
100
AcDbEntity
  8
1
  6
Continuous
100
AcDbLine
 10
148.5849849999999
 20
193.390615
 30
0.0
 11
150.0849849999999
 21
193.390615
 31
0.0
  0
LINE
  5
974B
330
96A4
100
AcDbEntity
  8
1
  6
Continuous
100
AcDbLine
 10
148.0309849999999
 20
119.2906149999999
 30
0.0
 11
148.284985
 21
119.2906149999999
 31
0.0
  0
LINE
  5
974C
330
96A4
100
AcDbEntity
  8
1
  6
Continuous
100
AcDbLine
 10
148.184985
 20
200.290615
 30
0.0
 11
148.184985
 21
199.2906149999998
 31
0.0
  0
LINE
  5
974D
330
96A4
100
AcDbEntity
  8
1
  6
Continuous
100
AcDbLine
 10
148.583985
 20
195.1166149999998
 30
0.0
 11
147.683985
 21
201.9166149999998
 31
0.0
  0
LINE
  5
974E
330
96A4
100
AcDbEntity
  8
1
  6
Continuous
100
AcDbLine
 10
147.2869849999999
 20
201.8646149999999
 30
0.0
 11
148.1869849999999
 21
195.064615
 31
0.0
  0
LINE
  5
974F
330
96A4
100
AcDbEntity
  8
1
  6
Continuous
100
AcDbLine
 10
147.684985
 20
196.0906149999999
 30
0.0
 11
147.684985
 21
193.4906149999999
 31
0.0
  0
LINE
  5
9750
330
96A4
100
AcDbEntity
  8
1
  6
Continuous
100
AcDbLine
 10
147.684985
 20
116.0906149999999
 30
0.0
 11
147.684985
 21
113.4906149999999
 31
0.0
  0
LINE
  5
9751
330
96A4
100
AcDbEntity
  8
1
  6
Continuous
100
AcDbLine
 10
147.2869849999999
 20
121.8646149999998
 30
0.0
 11
148.1869849999999
 21
115.0646149999999
 31
0.0
  0
LINE
  5
9752
330
96A4
100
AcDbEntity
  8
1
  6
Continuous
100
AcDbLine
 10
148.583985
 20
115.1166149999999
 30
0.0
 11
147.683985
 21
121.9166149999998
 31
0.0
  0
LINE
  5
9753
330
96A4
100
AcDbEntity
  8
1
  6
Continuous
100
AcDbLine
 10
148.184985
 20
120.290615
 30
0.0
 11
148.184985
 21
119.2906149999999
 31
0.0
  0
LINE
  5
9754
330
96A4
100
AcDbEntity
  8
1
  6
Continuous
100
AcDbLine
 10
148.0309849999999
 20
199.2906149999998
 30
0.0
 11
148.284985
 21
199.2906149999998
 31
0.0
  0
LINE
  5
9755
330
96A4
100
AcDbEntity
  8
5
  6
PHANTOM
100
AcDbLine
 10
132.284985
 20
190.1906149999998
 30
0.0
 11
132.284985
 21
186.6906149999999
 31
0.0
  0
LINE
  5
9756
330
96A4
100
AcDbEntity
  8
5
  6
PHANTOM
100
AcDbLine
 10
137.784985
 20
201.6906149999999
 30
0.0
 11
137.784985
 21
193.6906149999998
 31
0.0
  0
LINE
  5
9757
330
96A4
100
AcDbEntity
  8
5
  6
PHANTOM
100
AcDbLine
 10
137.784985
 20
201.6906149999999
 30
0.0
 11
140.784985
 21
201.6906149999999
 31
0.0
  0
LINE
  5
9758
330
96A4
100
AcDbEntity
  8
5
  6
PHANTOM
100
AcDbLine
 10
132.284985
 20
186.6906149999999
 30
0.0
 11
135.284985
 21
186.6906149999999
 31
0.0
  0
LINE
  5
9759
330
96A4
100
AcDbEntity
  8
5
  6
PHANTOM
100
AcDbLine
 10
135.284985
 20
190.1906149999998
 30
0.0
 11
135.284985
 21
186.6906149999999
 31
0.0
  0
LINE
  5
975A
330
96A4
100
AcDbEntity
  8
5
  6
PHANTOM
100
AcDbLine
 10
137.784985
 20
193.6906149999998
 30
0.0
 11
134.7519849999999
 21
193.1426149999998
 31
0.0
  0
LINE
  5
975B
330
96A4
100
AcDbEntity
  8
5
  6
PHANTOM
100
AcDbLine
 10
135.284985
 20
190.1906149999998
 30
0.0
 11
138.3179849999999
 21
190.7386149999999
 31
0.0
  0
LINE
  5
975C
330
96A4
100
AcDbEntity
  8
1
  6
Continuous
100
AcDbLine
 10
34.78528499999999
 20
114.6906149999998
 30
0.0
 11
34.28528499999998
 21
114.6239479999999
 31
0.0
  0
LINE
  5
975D
330
96A4
100
AcDbEntity
  8
1
  6
Continuous
100
AcDbLine
 10
34.28528499999998
 20
120.7572819999999
 30
0.0
 11
34.78528499999999
 21
120.690615
 31
0.0
  0
LINE
  5
975E
330
96A4
100
AcDbEntity
  8
1
  6
Continuous
100
AcDbLine
 10
227.7849849999999
 20
114.6906149999998
 30
0.0
 11
224.6659849999999
 21
114.6906149999998
 31
0.0
  0
LINE
  5
975F
330
96A4
100
AcDbEntity
  8
1
  6
Continuous
100
AcDbLine
 10
227.7849849999999
 20
120.690615
 30
0.0
 11
224.6659849999999
 21
120.690615
 31
0.0
  0
LINE
  5
9760
330
96A4
100
AcDbEntity
  8
1
  6
Continuous
100
AcDbLine
 10
230.7042599999999
 20
121.0798519999999
 30
0.0
 11
227.7849849999999
 21
120.690615
 31
0.0
  0
LINE
  5
9761
330
96A4
100
AcDbEntity
  8
1
  6
Continuous
100
AcDbLine
 10
229.7849849999999
 20
114.4239479999999
 30
0.0
 11
227.7849849999999
 21
114.6906149999998
 31
0.0
  0
LINE
  5
9762
330
96A4
100
AcDbEntity
  8
1
  6
Continuous
100
AcDbLine
 10
228.284985
 20
114.6239479999999
 30
0.0
 11
228.284985
 21
103.6906149999999
 31
0.0
  0
LINE
  5
9763
330
96A4
100
AcDbEntity
  8
1
  6
Continuous
100
AcDbLine
 10
229.284985
 20
114.4906149999999
 30
0.0
 11
229.284985
 21
103.6906149999999
 31
0.0
  0
LINE
  5
9764
330
96A4
100
AcDbEntity
  8
1
  6
Continuous
100
AcDbLine
 10
227.7849849999999
 20
119.9206149999999
 30
0.0
 11
227.7849849999999
 21
115.2596149999999
 31
0.0
  0
LINE
  5
9765
330
96A4
100
AcDbEntity
  8
1
  6
Continuous
100
AcDbLine
 10
140.784985
 20
120.690615
 30
0.0
 11
140.784985
 21
114.6906149999998
 31
0.0
  0
LINE
  5
9766
330
96A4
100
AcDbEntity
  8
1
  6
Continuous
100
AcDbLine
 10
137.784985
 20
120.690615
 30
0.0
 11
137.784985
 21
114.6906149999998
 31
0.0
  0
LINE
  5
9767
330
96A4
100
AcDbEntity
  8
1
  6
Continuous
100
AcDbLine
 10
143.284985
 20
121.690615
 30
0.0
 11
146.284985
 21
121.690615
 31
0.0
  0
LINE
  5
9768
330
96A4
100
AcDbEntity
  8
1
  6
Continuous
100
AcDbLine
 10
143.284985
 20
113.6906149999998
 30
0.0
 11
146.284985
 21
113.6906149999998
 31
0.0
  0
LINE
  5
9769
330
96A4
100
AcDbEntity
  8
1
  6
Continuous
100
AcDbLine
 10
137.784985
 20
114.6906149999998
 30
0.0
 11
140.784985
 21
114.6906149999998
 31
0.0
  0
LINE
  5
976A
330
96A4
100
AcDbEntity
  8
1
  6
Continuous
100
AcDbLine
 10
137.784985
 20
120.690615
 30
0.0
 11
140.784985
 21
120.690615
 31
0.0
  0
LINE
  5
976B
330
96A4
100
AcDbEntity
  8
1
  6
Continuous
100
AcDbLine
 10
146.284985
 20
121.690615
 30
0.0
 11
140.784985
 21
120.690615
 31
0.0
  0
LINE
  5
976C
330
96A4
100
AcDbEntity
  8
1
  6
Continuous
100
AcDbLine
 10
143.284985
 20
121.690615
 30
0.0
 11
137.784985
 21
120.690615
 31
0.0
  0
LINE
  5
976D
330
96A4
100
AcDbEntity
  8
1
  6
Continuous
100
AcDbLine
 10
140.784985
 20
114.6906149999998
 30
0.0
 11
146.284985
 21
113.6906149999998
 31
0.0
  0
LINE
  5
976E
330
96A4
100
AcDbEntity
  8
1
  6
Continuous
100
AcDbLine
 10
143.284985
 20
113.6906149999998
 30
0.0
 11
137.784985
 21
114.6906149999998
 31
0.0
  0
LINE
  5
976F
330
96A4
100
AcDbEntity
  8
1
  6
Continuous
100
AcDbLine
 10
143.284985
 20
201.6906149999999
 30
0.0
 11
146.284985
 21
201.6906149999999
 31
0.0
  0
LINE
  5
9770
330
96A4
100
AcDbEntity
  8
1
  6
Continuous
100
AcDbLine
 10
143.284985
 20
201.6906149999999
 30
0.0
 11
143.284985
 21
193.6906149999998
 31
0.0
  0
LINE
  5
9771
330
96A4
100
AcDbEntity
  8
1
  6
Continuous
100
AcDbLine
 10
143.284985
 20
193.6906149999998
 30
0.0
 11
140.251985
 21
193.1426149999998
 31
0.0
  0
LINE
  5
9772
330
96A4
100
AcDbEntity
  8
1
  6
Continuous
100
AcDbLine
 10
137.784985
 20
190.1906149999998
 30
0.0
 11
137.784985
 21
186.6906149999999
 31
0.0
  0
LINE
  5
9773
330
96A4
100
AcDbEntity
  8
1
  6
Continuous
100
AcDbLine
 10
137.784985
 20
186.6906149999999
 30
0.0
 11
140.784985
 21
186.6906149999999
 31
0.0
  0
LINE
  5
9774
330
96A4
100
AcDbEntity
  8
1
  6
Continuous
100
AcDbLine
 10
140.784985
 20
190.1906149999998
 30
0.0
 11
140.784985
 21
186.6906149999999
 31
0.0
  0
LINE
  5
9775
330
96A4
100
AcDbEntity
  8
1
  6
Continuous
100
AcDbLine
 10
140.784985
 20
190.1906149999998
 30
0.0
 11
143.817985
 21
190.7386149999999
 31
0.0
  0
LINE
  5
9776
330
96A4
100
AcDbEntity
  8
1
  6
Continuous
100
AcDbLine
 10
146.284985
 20
203.6906149999999
 30
0.0
 11
146.284985
 21
192.1906149999998
 31
0.0
  0
LINE
  5
9777
330
96A4
100
AcDbEntity
  8
1
  6
Continuous
100
AcDbLine
 10
142.784985
 20
200.540615
 30
0.0
 11
142.784985
 21
194.8406149999999
 31
0.0
  0
LINE
  5
9778
330
96A4
100
AcDbEntity
  8
1
  6
Continuous
100
AcDbLine
 10
131.284985
 20
200.540615
 30
0.0
 11
131.284985
 21
194.8406149999999
 31
0.0
  0
LINE
  5
9779
330
96A4
100
AcDbEntity
  8
1
  6
Continuous
100
AcDbLine
 10
131.2809849999999
 20
200.587615
 30
0.0
 11
131.356985
 21
200.1906149999999
 31
0.0
  0
LINE
  5
977A
330
96A4
100
AcDbEntity
  8
1
  6
Continuous
100
AcDbLine
 10
131.880985
 20
194.7936149999999
 30
0.0
 11
131.8049849999999
 21
195.1906149999999
 31
0.0
  0
LINE
  5
977B
330
96A4
100
AcDbEntity
  8
1
  6
Continuous
100
AcDbLine
 10
132.9719849999999
 20
120.5876149999999
 30
0.0
 11
132.284985
 21
117.0016149999999
 31
0.0
  0
LINE
  5
977C
330
96A4
100
AcDbEntity
  8
1
  6
Continuous
100
AcDbLine
 10
132.371985
 20
114.7936149999999
 30
0.0
 11
133.462985
 21
120.4936149999999
 31
0.0
  0
LINE
  5
977D
330
96A4
100
AcDbEntity
  8
1
  6
Continuous
100
AcDbLine
 10
135.152985
 20
120.5876149999999
 30
0.0
 11
134.0619849999999
 21
114.8876149999999
 31
0.0
  0
LINE
  5
977E
330
96A4
100
AcDbEntity
  8
1
  6
Continuous
100
AcDbLine
 10
135.6439849999999
 20
120.4936149999999
 30
0.0
 11
134.553985
 21
114.7936149999999
 31
0.0
  0
LINE
  5
977F
330
96A4
100
AcDbEntity
  8
1
  6
Continuous
100
AcDbLine
 10
137.3349849999999
 20
120.5876149999999
 30
0.0
 11
136.243985
 21
114.8876149999999
 31
0.0
  0
LINE
  5
9780
330
96A4
100
AcDbEntity
  8
1
  6
Continuous
100
AcDbLine
 10
137.784985
 20
120.2796149999998
 30
0.0
 11
136.7349849999999
 21
114.7936149999999
 31
0.0
  0
LINE
  5
9781
330
96A4
100
AcDbEntity
  8
1
  6
Continuous
100
AcDbLine
 10
141.698985
 20
200.587615
 30
0.0
 11
140.607985
 21
194.8876149999999
 31
0.0
  0
LINE
  5
9782
330
96A4
100
AcDbEntity
  8
1
  6
Continuous
100
AcDbLine
 10
142.189985
 20
200.4936149999998
 30
0.0
 11
141.0989849999999
 21
194.7936149999999
 31
0.0
  0
LINE
  5
9783
330
96A4
100
AcDbEntity
  8
1
  6
Continuous
100
AcDbLine
 10
142.789985
 20
194.7936149999999
 30
0.0
 11
142.713985
 21
195.1906149999999
 31
0.0
  0
LINE
  5
9784
330
96A4
100
AcDbEntity
  8
1
  6
Continuous
100
AcDbLine
 10
142.189985
 20
200.587615
 30
0.0
 11
142.265985
 21
200.1906149999999
 31
0.0
  0
LINE
  5
9785
330
96A4
100
AcDbEntity
  8
1
  6
Continuous
100
AcDbLine
 10
140.007985
 20
200.587615
 30
0.0
 11
140.083985
 21
200.1906149999999
 31
0.0
  0
LINE
  5
9786
330
96A4
100
AcDbEntity
  8
1
  6
Continuous
100
AcDbLine
 10
140.5319849999999
 20
195.1906149999999
 30
0.0
 11
140.607985
 21
194.7936149999999
 31
0.0
  0
LINE
  5
9787
330
96A4
100
AcDbEntity
  8
1
  6
Continuous
100
AcDbLine
 10
135.6449849999999
 20
120.5876149999999
 30
0.0
 11
135.784985
 21
119.8516149999999
 31
0.0
  0
LINE
  5
9788
330
96A4
100
AcDbEntity
  8
1
  6
Continuous
100
AcDbLine
 10
136.243985
 20
114.7936149999999
 30
0.0
 11
136.1679849999999
 21
115.190615
 31
0.0
  0
LINE
  5
9789
330
96A4
100
AcDbEntity
  8
1
  6
Continuous
100
AcDbLine
 10
133.462985
 20
120.5876149999999
 30
0.0
 11
133.538985
 21
120.1906149999998
 31
0.0
  0
LINE
  5
978A
330
96A4
100
AcDbEntity
  8
1
  6
Continuous
100
AcDbLine
 10
134.062985
 20
114.7936149999999
 30
0.0
 11
133.986985
 21
115.190615
 31
0.0
  0
LINE
  5
978B
330
96A4
100
AcDbEntity
  8
1
  6
Continuous
100
AcDbLine
 10
132.4479849999999
 20
195.1906149999999
 30
0.0
 11
134.119985
 21
195.1906149999999
 31
0.0
  0
LINE
  5
978C
330
96A4
100
AcDbEntity
  8
1
  6
Continuous
100
AcDbLine
 10
133.404985
 20
200.1906149999999
 30
0.0
 11
134.284985
 21
200.1906149999999
 31
0.0
  0
LINE
  5
978D
330
96A4
100
AcDbEntity
  8
1
  6
Continuous
100
AcDbLine
 10
135.490985
 20
199.6906149999998
 30
0.0
 11
135.784985
 21
199.6906149999998
 31
0.0
  0
LINE
  5
978E
330
96A4
100
AcDbEntity
  8
1
  6
Continuous
100
AcDbLine
 10
137.767985
 20
200.1906149999999
 30
0.0
 11
139.440985
 21
200.1906149999999
 31
0.0
  0
LINE
  5
978F
330
96A4
100
AcDbEntity
  8
2
  6
Continuous
100
AcDbLine
 10
137.684985
 20
199.757615
 30
0.0
 11
139.357985
 21
199.757615
 31
0.0
  0
LINE
  5
9790
330
96A4
100
AcDbEntity
  8
1
  6
Continuous
100
AcDbLine
 10
139.9499849999999
 20
200.1906149999999
 30
0.0
 11
141.622985
 21
200.1906149999999
 31
0.0
  0
LINE
  5
9791
330
96A4
100
AcDbEntity
  8
2
  6
Continuous
100
AcDbLine
 10
139.866985
 20
199.757615
 30
0.0
 11
141.539985
 21
199.757615
 31
0.0
  0
LINE
  5
9792
330
96A4
100
AcDbEntity
  8
1
  6
Continuous
100
AcDbLine
 10
142.1319849999999
 20
200.1906149999999
 30
0.0
 11
142.784985
 21
200.1906149999999
 31
0.0
  0
LINE
  5
9793
330
96A4
100
AcDbEntity
  8
2
  6
Continuous
100
AcDbLine
 10
142.0489849999999
 20
199.757615
 30
0.0
 11
142.784985
 21
199.757615
 31
0.0
  0
LINE
  5
9794
330
96A4
100
AcDbEntity
  8
2
  6
Continuous
100
AcDbLine
 10
141.257985
 20
195.623615
 30
0.0
 11
142.784985
 21
195.623615
 31
0.0
  0
LINE
  5
9795
330
96A4
100
AcDbEntity
  8
1
  6
Continuous
100
AcDbLine
 10
141.1749849999999
 20
195.1906149999999
 30
0.0
 11
142.784985
 21
195.1906149999999
 31
0.0
  0
LINE
  5
9796
330
96A4
100
AcDbEntity
  8
2
  6
Continuous
100
AcDbLine
 10
139.075985
 20
195.623615
 30
0.0
 11
140.748985
 21
195.623615
 31
0.0
  0
LINE
  5
9797
330
96A4
100
AcDbEntity
  8
1
  6
Continuous
100
AcDbLine
 10
138.992985
 20
195.1906149999999
 30
0.0
 11
140.5319849999999
 21
195.1906149999999
 31
0.0
  0
LINE
  5
9798
330
96A4
100
AcDbEntity
  8
2
  6
Continuous
100
AcDbLine
 10
136.8939849999999
 20
195.623615
 30
0.0
 11
138.5669849999999
 21
195.623615
 31
0.0
  0
LINE
  5
9799
330
96A4
100
AcDbEntity
  8
1
  6
Continuous
100
AcDbLine
 10
136.8109849999999
 20
195.1906149999999
 30
0.0
 11
138.4839849999999
 21
195.1906149999999
 31
0.0
  0
LINE
  5
979A
330
96A4
100
AcDbEntity
  8
1
  6
Continuous
100
AcDbLine
 10
132.371985
 20
194.7936149999999
 30
0.0
 11
133.462985
 21
200.4936149999998
 31
0.0
  0
LINE
  5
979B
330
96A4
100
AcDbEntity
  8
1
  6
Continuous
100
AcDbLine
 10
132.9719849999999
 20
200.587615
 30
0.0
 11
131.880985
 21
194.8876149999999
 31
0.0
  0
LINE
  5
979C
330
96A4
100
AcDbEntity
  8
1
  6
Continuous
100
AcDbLine
 10
133.462985
 20
200.587615
 30
0.0
 11
133.538985
 21
200.1906149999999
 31
0.0
  0
LINE
  5
979D
330
96A4
100
AcDbEntity
  8
1
  6
Continuous
100
AcDbLine
 10
134.062985
 20
194.7936149999999
 30
0.0
 11
133.986985
 21
195.1906149999999
 31
0.0
  0
LINE
  5
979E
330
96A4
100
AcDbEntity
  8
1
  6
Continuous
100
AcDbLine
 10
135.6439849999999
 20
200.4936149999998
 30
0.0
 11
134.553985
 21
194.7936149999999
 31
0.0
  0
LINE
  5
979F
330
96A4
100
AcDbEntity
  8
1
  6
Continuous
100
AcDbLine
 10
135.152985
 20
200.587615
 30
0.0
 11
134.0619849999999
 21
194.8876149999999
 31
0.0
  0
LINE
  5
97A0
330
96A4
100
AcDbEntity
  8
1
  6
Continuous
100
AcDbLine
 10
135.6439849999999
 20
200.587615
 30
0.0
 11
135.784985
 21
199.851615
 31
0.0
  0
LINE
  5
97A1
330
96A4
100
AcDbEntity
  8
1
  6
Continuous
100
AcDbLine
 10
137.3349849999999
 20
200.587615
 30
0.0
 11
136.243985
 21
194.8876149999999
 31
0.0
  0
LINE
  5
97A2
330
96A4
100
AcDbEntity
  8
1
  6
Continuous
100
AcDbLine
 10
136.243985
 20
194.7936149999999
 30
0.0
 11
136.1679849999999
 21
195.1906149999999
 31
0.0
  0
LINE
  5
97A3
330
96A4
100
AcDbEntity
  8
1
  6
Continuous
100
AcDbLine
 10
137.825985
 20
200.4936149999998
 30
0.0
 11
136.7349849999999
 21
194.7936149999999
 31
0.0
  0
LINE
  5
97A4
330
96A4
100
AcDbEntity
  8
1
  6
Continuous
100
AcDbLine
 10
137.9019849999999
 20
200.1906149999999
 30
0.0
 11
137.825985
 21
200.587615
 31
0.0
  0
LINE
  5
97A5
330
96A4
100
AcDbEntity
  8
1
  6
Continuous
100
AcDbLine
 10
138.3499849999997
 20
195.1906149999999
 30
0.0
 11
138.425985
 21
194.7936149999999
 31
0.0
  0
LINE
  5
97A6
330
96A4
100
AcDbEntity
  8
1
  6
Continuous
100
AcDbLine
 10
139.516985
 20
200.587615
 30
0.0
 11
138.425985
 21
194.8876149999999
 31
0.0
  0
LINE
  5
97A7
330
96A4
100
AcDbEntity
  8
1
  6
Continuous
100
AcDbLine
 10
140.007985
 20
200.4936149999998
 30
0.0
 11
138.916985
 21
194.7936149999999
 31
0.0
  0
LINE
  5
97A8
330
96A4
100
AcDbEntity
  8
1
  6
Continuous
100
AcDbLine
 10
136.8109849999999
 20
115.190615
 30
0.0
 11
137.784985
 21
115.190615
 31
0.0
  0
LINE
  5
97A9
330
96A4
100
AcDbEntity
  8
2
  6
Continuous
100
AcDbLine
 10
136.8939849999999
 20
115.6236149999999
 30
0.0
 11
137.784985
 21
115.6236149999999
 31
0.0
  0
LINE
  5
97AA
330
96A4
100
AcDbEntity
  8
2
  6
Continuous
100
AcDbLine
 10
137.684985
 20
119.7576149999999
 30
0.0
 11
137.784985
 21
119.7576149999999
 31
0.0
  0
LINE
  5
97AB
330
96A4
100
AcDbEntity
  8
1
  6
Continuous
100
AcDbLine
 10
135.490985
 20
119.690615
 30
0.0
 11
135.784985
 21
119.690615
 31
0.0
  0
LINE
  5
97AC
330
96A4
100
AcDbEntity
  8
1
  6
Continuous
100
AcDbLine
 10
133.404985
 20
120.1906149999998
 30
0.0
 11
134.284985
 21
120.1906149999998
 31
0.0
  0
LINE
  5
97AD
330
96A4
100
AcDbEntity
  8
1
  6
Continuous
100
AcDbLine
 10
341.284985
 20
131.6906149999998
 30
0.0
 11
338.2849849999999
 21
131.6906149999998
 31
0.0
  0
LINE
  5
97AE
330
96A4
100
AcDbEntity
  8
1
  6
Continuous
100
AcDbLine
 10
341.284985
 20
103.6906149999999
 30
0.0
 11
338.2849849999999
 21
103.6906149999999
 31
0.0
  0
LINE
  5
97AF
330
96A4
100
AcDbEntity
  8
1
  6
Continuous
100
AcDbLine
 10
341.284985
 20
131.6906149999998
 30
0.0
 11
341.284985
 21
103.6906149999999
 31
0.0
  0
LINE
  5
97B0
330
96A4
100
AcDbEntity
  8
1
  6
Continuous
100
AcDbLine
 10
338.2849849999999
 20
131.6906149999998
 30
0.0
 11
338.2849849999999
 21
123.1906149999998
 31
0.0
  0
LINE
  5
97B1
330
96A4
100
AcDbEntity
  8
4
  6
CENTER
100
AcDbLine
 10
357.605985
 20
117.6906149999998
 30
0.0
 11
316.389985
 21
117.6906149999998
 31
0.0
  0
LINE
  5
97B2
330
96A4
100
AcDbEntity
  8
1
  6
Continuous
100
AcDbLine
 10
338.2849849999999
 20
123.1906149999998
 30
0.0
 11
323.284985
 21
123.1906149999998
 31
0.0
  0
LINE
  5
97B3
330
96A4
100
AcDbEntity
  8
1
  6
Continuous
100
AcDbLine
 10
338.2849849999999
 20
110.6906149999998
 30
0.0
 11
324.284985
 21
110.6906149999998
 31
0.0
  0
LINE
  5
97B4
330
96A4
100
AcDbEntity
  8
1
  6
Continuous
100
AcDbLine
 10
338.2849849999999
 20
112.190615
 30
0.0
 11
323.284985
 21
112.190615
 31
0.0
  0
LINE
  5
97B5
330
96A4
100
AcDbEntity
  8
1
  6
Continuous
100
AcDbLine
 10
338.2849849999999
 20
111.6906149999998
 30
0.0
 11
324.284985
 21
111.6906149999998
 31
0.0
  0
LINE
  5
97B6
330
96A4
100
AcDbEntity
  8
1
  6
Continuous
100
AcDbLine
 10
323.284985
 20
123.1906149999998
 30
0.0
 11
323.284985
 21
111.6906149999998
 31
0.0
  0
LINE
  5
97B7
330
96A4
100
AcDbEntity
  8
1
  6
Continuous
100
AcDbLine
 10
324.284985
 20
112.190615
 30
0.0
 11
324.284985
 21
111.6906149999998
 31
0.0
  0
LINE
  5
97B8
330
96A4
100
AcDbEntity
  8
1
  6
Continuous
100
AcDbLine
 10
354.284985
 20
121.690615
 30
0.0
 11
354.284985
 21
113.6906149999998
 31
0.0
  0
LINE
  5
97B9
330
96A4
100
AcDbEntity
  8
1
  6
Continuous
100
AcDbLine
 10
345.284985
 20
122.1906149999998
 30
0.0
 11
345.284985
 21
113.190615
 31
0.0
  0
LINE
  5
97BA
330
96A4
100
AcDbEntity
  8
1
  6
Continuous
100
AcDbLine
 10
353.784985
 20
113.190615
 30
0.0
 11
345.284985
 21
113.190615
 31
0.0
  0
LINE
  5
97BB
330
96A4
100
AcDbEntity
  8
1
  6
Continuous
100
AcDbLine
 10
353.784985
 20
122.1906149999998
 30
0.0
 11
345.284985
 21
122.1906149999998
 31
0.0
  0
LINE
  5
97BC
330
96A4
100
AcDbEntity
  8
1
  6
Continuous
100
AcDbLine
 10
345.284985
 20
113.6906149999998
 30
0.0
 11
341.284985
 21
113.6906149999998
 31
0.0
  0
LINE
  5
97BD
330
96A4
100
AcDbEntity
  8
1
  6
Continuous
100
AcDbLine
 10
345.284985
 20
121.690615
 30
0.0
 11
341.284985
 21
121.690615
 31
0.0
  0
LINE
  5
97BE
330
96A4
100
AcDbEntity
  8
1
  6
Continuous
100
AcDbLine
 10
353.784985
 20
122.1906149999998
 30
0.0
 11
354.284985
 21
121.690615
 31
0.0
  0
LINE
  5
97BF
330
96A4
100
AcDbEntity
  8
1
  6
Continuous
100
AcDbLine
 10
354.284985
 20
113.6906149999998
 30
0.0
 11
353.784985
 21
113.190615
 31
0.0
  0
LINE
  5
97C0
330
96A4
100
AcDbEntity
  8
1
  6
Continuous
100
AcDbLine
 10
353.784985
 20
122.1906149999998
 30
0.0
 11
353.784985
 21
113.190615
 31
0.0
  0
LINE
  5
97C1
330
96A4
100
AcDbEntity
  8
1
  6
Continuous
100
AcDbLine
 10
353.784985
 20
121.1906149999998
 30
0.0
 11
345.284985
 21
121.1906149999998
 31
0.0
  0
LINE
  5
97C2
330
96A4
100
AcDbEntity
  8
1
  6
Continuous
100
AcDbLine
 10
353.784985
 20
120.1906149999998
 30
0.0
 11
346.284985
 21
120.1906149999998
 31
0.0
  0
LINE
  5
97C3
330
96A4
100
AcDbEntity
  8
1
  6
Continuous
100
AcDbLine
 10
353.784985
 20
119.1906149999998
 30
0.0
 11
347.284985
 21
119.1906149999998
 31
0.0
  0
LINE
  5
97C4
330
96A4
100
AcDbEntity
  8
1
  6
Continuous
100
AcDbLine
 10
353.784985
 20
118.1906149999998
 30
0.0
 11
348.284985
 21
118.1906149999998
 31
0.0
  0
LINE
  5
97C5
330
96A4
100
AcDbEntity
  8
1
  6
Continuous
100
AcDbLine
 10
319.2849849999999
 20
119.2906149999999
 30
0.0
 11
319.2849849999999
 21
116.0906149999999
 31
0.0
  0
LINE
  5
97C6
330
96A4
100
AcDbEntity
  8
1
  6
Continuous
100
AcDbLine
 10
322.284985
 20
119.2906149999999
 30
0.0
 11
322.284985
 21
117.3706149999999
 31
0.0
  0
LINE
  5
97C7
330
96A4
100
AcDbEntity
  8
1
  6
Continuous
100
AcDbLine
 10
320.4849849999998
 20
123.690615
 30
0.0
 11
320.4849849999998
 21
111.190615
 31
0.0
  0
LINE
  5
97C8
330
96A4
100
AcDbEntity
  8
1
  6
Continuous
100
AcDbLine
 10
320.4849849999998
 20
119.2906149999999
 30
0.0
 11
319.2849849999999
 21
119.2906149999999
 31
0.0
  0
LINE
  5
97C9
330
96A4
100
AcDbEntity
  8
1
  6
Continuous
100
AcDbLine
 10
320.4849849999998
 20
116.0906149999999
 30
0.0
 11
319.2849849999999
 21
116.0906149999999
 31
0.0
  0
LINE
  5
97CA
330
96A4
100
AcDbEntity
  8
1
  6
Continuous
100
AcDbLine
 10
322.174985
 20
116.5406149999999
 30
0.0
 11
321.984985
 21
116.5406149999999
 31
0.0
  0
LINE
  5
97CB
330
96A4
100
AcDbEntity
  8
1
  6
Continuous
100
AcDbLine
 10
322.284985
 20
118.8406149999998
 30
0.0
 11
321.984985
 21
118.8406149999998
 31
0.0
  0
LINE
  5
97CC
330
96A4
100
AcDbEntity
  8
1
  6
Continuous
100
AcDbLine
 10
323.284985
 20
116.0906149999999
 30
0.0
 11
322.518985
 21
116.0906149999999
 31
0.0
  0
LINE
  5
97CD
330
96A4
100
AcDbEntity
  8
1
  6
Continuous
100
AcDbLine
 10
323.284985
 20
119.2906149999999
 30
0.0
 11
322.942985
 21
119.2906149999999
 31
0.0
  0
LINE
  5
97CE
330
96A4
100
AcDbEntity
  8
1
  6
Continuous
100
AcDbLine
 10
321.984985
 20
111.190615
 30
0.0
 11
320.4849849999998
 21
111.190615
 31
0.0
  0
LINE
  5
97CF
330
96A4
100
AcDbEntity
  8
1
  6
Continuous
100
AcDbLine
 10
321.984985
 20
123.690615
 30
0.0
 11
320.4849849999998
 21
123.690615
 31
0.0
  0
LINE
  5
97D0
330
96A4
100
AcDbEntity
  8
1
  6
Continuous
100
AcDbLine
 10
321.984985
 20
119.812615
 30
0.0
 11
320.4849849999998
 21
119.812615
 31
0.0
  0
LINE
  5
97D1
330
96A4
100
AcDbEntity
  8
1
  6
Continuous
100
AcDbLine
 10
321.984985
 20
123.690615
 30
0.0
 11
321.984985
 21
111.190615
 31
0.0
  0
LINE
  5
97D2
330
96A4
100
AcDbEntity
  8
1
  6
Continuous
100
AcDbLine
 10
321.984985
 20
116.559615
 30
0.0
 11
320.4849849999998
 21
116.559615
 31
0.0
  0
LINE
  5
97D3
330
96A4
100
AcDbEntity
  8
1
  6
Continuous
100
AcDbLine
 10
322.538985
 20
119.2906149999999
 30
0.0
 11
322.284985
 21
119.2906149999999
 31
0.0
  0
LINE
  5
97D4
330
96A4
100
AcDbEntity
  8
1
  6
Continuous
100
AcDbLine
 10
322.8849849999999
 20
116.0906149999999
 30
0.0
 11
322.8849849999999
 21
113.4906149999999
 31
0.0
  0
LINE
  5
97D5
330
96A4
100
AcDbEntity
  8
1
  6
Continuous
100
AcDbLine
 10
323.2839849999999
 20
121.8646149999998
 30
0.0
 11
322.383985
 21
115.0646149999999
 31
0.0
  0
LINE
  5
97D6
330
96A4
100
AcDbEntity
  8
1
  6
Continuous
100
AcDbLine
 10
321.986985
 20
115.1166149999999
 30
0.0
 11
322.8869849999999
 21
121.9166149999998
 31
0.0
  0
LINE
  5
97D7
330
96A4
100
AcDbEntity
  8
1
  6
Continuous
100
AcDbLine
 10
322.3849849999999
 20
120.290615
 30
0.0
 11
322.3849849999999
 21
119.2906149999999
 31
0.0
  0
LINE
  5
97D8
330
96A4
100
AcDbEntity
  8
1
  6
Continuous
100
AcDbLine
 10
129.284985
 20
31.690615
 30
0.0
 11
129.284985
 21
43.69061499999999
 31
0.0
  0
LINE
  5
97D9
330
96A4
100
AcDbEntity
  8
1
  6
Continuous
100
AcDbLine
 10
132.284985
 20
30.690615
 30
0.0
 11
132.284985
 21
31.690615
 31
0.0
  0
LINE
  5
97DA
330
96A4
100
AcDbEntity
  8
4
  6
CENTER
100
AcDbLine
 10
112.964985
 20
37.690615
 30
0.0
 11
154.1809849999999
 21
37.690615
 31
0.0
  0
LINE
  5
97DB
330
96A4
100
AcDbEntity
  8
1
  6
Continuous
100
AcDbLine
 10
147.284985
 20
31.690615
 30
0.0
 11
147.284985
 21
43.190615
 31
0.0
  0
LINE
  5
97DC
330
96A4
100
AcDbEntity
  8
1
  6
Continuous
100
AcDbLine
 10
116.284985
 20
33.690615
 30
0.0
 11
116.284985
 21
41.690615
 31
0.0
  0
LINE
  5
97DD
330
96A4
100
AcDbEntity
  8
1
  6
Continuous
100
AcDbLine
 10
125.284985
 20
33.190615
 30
0.0
 11
125.284985
 21
42.190615
 31
0.0
  0
LINE
  5
97DE
330
96A4
100
AcDbEntity
  8
1
  6
Continuous
100
AcDbLine
 10
116.784985
 20
42.190615
 30
0.0
 11
125.284985
 21
42.190615
 31
0.0
  0
LINE
  5
97DF
330
96A4
100
AcDbEntity
  8
1
  6
Continuous
100
AcDbLine
 10
116.784985
 20
33.190615
 30
0.0
 11
125.284985
 21
33.190615
 31
0.0
  0
LINE
  5
97E0
330
96A4
100
AcDbEntity
  8
1
  6
Continuous
100
AcDbLine
 10
125.284985
 20
41.690615
 30
0.0
 11
129.284985
 21
41.690615
 31
0.0
  0
LINE
  5
97E1
330
96A4
100
AcDbEntity
  8
1
  6
Continuous
100
AcDbLine
 10
125.284985
 20
33.690615
 30
0.0
 11
129.284985
 21
33.690615
 31
0.0
  0
LINE
  5
97E2
330
96A4
100
AcDbEntity
  8
1
  6
Continuous
100
AcDbLine
 10
116.784985
 20
33.190615
 30
0.0
 11
116.284985
 21
33.690615
 31
0.0
  0
LINE
  5
97E3
330
96A4
100
AcDbEntity
  8
1
  6
Continuous
100
AcDbLine
 10
116.284985
 20
41.690615
 30
0.0
 11
116.784985
 21
42.190615
 31
0.0
  0
LINE
  5
97E4
330
96A4
100
AcDbEntity
  8
1
  6
Continuous
100
AcDbLine
 10
116.784985
 20
33.190615
 30
0.0
 11
116.784985
 21
42.190615
 31
0.0
  0
LINE
  5
97E5
330
96A4
100
AcDbEntity
  8
1
  6
Continuous
100
AcDbLine
 10
116.784985
 20
41.19061499999999
 30
0.0
 11
125.284985
 21
41.19061499999999
 31
0.0
  0
LINE
  5
97E6
330
96A4
100
AcDbEntity
  8
1
  6
Continuous
100
AcDbLine
 10
116.784985
 20
40.190615
 30
0.0
 11
124.284985
 21
40.190615
 31
0.0
  0
LINE
  5
97E7
330
96A4
100
AcDbEntity
  8
1
  6
Continuous
100
AcDbLine
 10
116.784985
 20
39.190615
 30
0.0
 11
123.284985
 21
39.190615
 31
0.0
  0
LINE
  5
97E8
330
96A4
100
AcDbEntity
  8
1
  6
Continuous
100
AcDbLine
 10
116.784985
 20
38.190615
 30
0.0
 11
122.284985
 21
38.190615
 31
0.0
  0
LINE
  5
97E9
330
96A4
100
AcDbEntity
  8
1
  6
Continuous
100
AcDbLine
 10
151.284985
 20
36.090615
 30
0.0
 11
151.284985
 21
39.290615
 31
0.0
  0
LINE
  5
97EA
330
96A4
100
AcDbEntity
  8
1
  6
Continuous
100
AcDbLine
 10
148.284985
 20
36.090615
 30
0.0
 11
148.284985
 21
38.010815
 31
0.0
  0
LINE
  5
97EB
330
96A4
100
AcDbEntity
  8
1
  6
Continuous
100
AcDbLine
 10
150.0849849999999
 20
33.39061499999999
 30
0.0
 11
150.0849849999999
 21
41.990615
 31
0.0
  0
LINE
  5
97EC
330
96A4
100
AcDbEntity
  8
1
  6
Continuous
100
AcDbLine
 10
150.0849849999999
 20
36.090615
 30
0.0
 11
151.284985
 21
36.090615
 31
0.0
  0
LINE
  5
97ED
330
96A4
100
AcDbEntity
  8
1
  6
Continuous
100
AcDbLine
 10
150.0849849999999
 20
39.290615
 30
0.0
 11
151.284985
 21
39.290615
 31
0.0
  0
LINE
  5
97EE
330
96A4
100
AcDbEntity
  8
1
  6
Continuous
100
AcDbLine
 10
148.3949849999999
 20
38.84061499999999
 30
0.0
 11
148.5849849999999
 21
38.84061499999999
 31
0.0
  0
LINE
  5
97EF
330
96A4
100
AcDbEntity
  8
1
  6
Continuous
100
AcDbLine
 10
148.284985
 20
36.540615
 30
0.0
 11
148.5849849999999
 21
36.540615
 31
0.0
  0
LINE
  5
97F0
330
96A4
100
AcDbEntity
  8
1
  6
Continuous
100
AcDbLine
 10
147.284985
 20
39.290615
 30
0.0
 11
148.0509849999999
 21
39.290615
 31
0.0
  0
LINE
  5
97F1
330
96A4
100
AcDbEntity
  8
1
  6
Continuous
100
AcDbLine
 10
147.284985
 20
36.090615
 30
0.0
 11
147.627985
 21
36.090615
 31
0.0
  0
LINE
  5
97F2
330
96A4
100
AcDbEntity
  8
1
  6
Continuous
100
AcDbLine
 10
148.5849849999999
 20
33.39061499999999
 30
0.0
 11
148.5849849999999
 21
41.990615
 31
0.0
  0
LINE
  5
97F3
330
96A4
100
AcDbEntity
  8
1
  6
Continuous
100
AcDbLine
 10
130.284985
 20
44.690615
 30
0.0
 11
132.284985
 21
44.690615
 31
0.0
  0
LINE
  5
97F4
330
96A4
100
AcDbEntity
  8
1
  6
Continuous
100
AcDbLine
 10
130.284985
 20
31.690615
 30
0.0
 11
130.284985
 21
43.69061499999999
 31
0.0
  0
LINE
  5
97F5
330
96A4
100
AcDbEntity
  8
1
  6
Continuous
100
AcDbLine
 10
130.284985
 20
43.69061499999999
 30
0.0
 11
132.284985
 21
43.69061499999999
 31
0.0
  0
LINE
  5
97F6
330
96A4
100
AcDbEntity
  8
1
  6
Continuous
100
AcDbLine
 10
132.284985
 20
43.69061499999999
 30
0.0
 11
132.284985
 21
44.690615
 31
0.0
  0
LINE
  5
97F7
330
96A4
100
AcDbEntity
  8
1
  6
Continuous
100
AcDbLine
 10
130.284985
 20
43.190615
 30
0.0
 11
147.284985
 21
43.190615
 31
0.0
  0
LINE
  5
97F8
330
96A4
100
AcDbEntity
  8
1
  6
Continuous
100
AcDbLine
 10
130.284985
 20
32.190615
 30
0.0
 11
147.284985
 21
32.190615
 31
0.0
  0
LINE
  5
97F9
330
96A4
100
AcDbEntity
  8
1
  6
Continuous
100
AcDbLine
 10
130.284985
 20
30.690615
 30
0.0
 11
146.284985
 21
30.690615
 31
0.0
  0
LINE
  5
97FA
330
96A4
100
AcDbEntity
  8
1
  6
Continuous
100
AcDbLine
 10
130.284985
 20
31.690615
 30
0.0
 11
146.284985
 21
31.690615
 31
0.0
  0
LINE
  5
97FB
330
96A4
100
AcDbEntity
  8
1
  6
Continuous
100
AcDbLine
 10
148.5849849999999
 20
36.690615
 30
0.0
 11
150.0849849999999
 21
36.690615
 31
0.0
  0
LINE
  5
97FC
330
96A4
100
AcDbEntity
  8
1
  6
Continuous
100
AcDbLine
 10
148.5849849999999
 20
38.690615
 30
0.0
 11
150.0849849999999
 21
38.690615
 31
0.0
  0
LINE
  5
97FD
330
96A4
100
AcDbEntity
  8
1
  6
Continuous
100
AcDbLine
 10
148.5849849999999
 20
33.39061499999999
 30
0.0
 11
150.0849849999999
 21
33.39061499999999
 31
0.0
  0
LINE
  5
97FE
330
96A4
100
AcDbEntity
  8
1
  6
Continuous
100
AcDbLine
 10
148.5849849999999
 20
41.990615
 30
0.0
 11
150.0849849999999
 21
41.990615
 31
0.0
  0
LINE
  5
97FF
330
96A4
100
AcDbEntity
  8
1
  6
Continuous
100
AcDbLine
 10
148.184985
 20
35.090615
 30
0.0
 11
148.184985
 21
36.090615
 31
0.0
  0
LINE
  5
9800
330
96A4
100
AcDbEntity
  8
1
  6
Continuous
100
AcDbLine
 10
148.583985
 20
40.26441499999999
 30
0.0
 11
147.683985
 21
33.464415
 31
0.0
  0
LINE
  5
9801
330
96A4
100
AcDbEntity
  8
1
  6
Continuous
100
AcDbLine
 10
147.2869849999999
 20
33.51691499999999
 30
0.0
 11
148.1869849999999
 21
40.31691499999999
 31
0.0
  0
LINE
  5
9802
330
96A4
100
AcDbEntity
  8
1
  6
Continuous
100
AcDbLine
 10
147.684985
 20
39.290615
 30
0.0
 11
147.684985
 21
41.890615
 31
0.0
  0
LINE
  5
9803
330
96A4
100
AcDbEntity
  8
1
  6
Continuous
100
AcDbLine
 10
148.0309849999999
 20
36.090615
 30
0.0
 11
148.284985
 21
36.090615
 31
0.0
  0
LINE
  5
9804
330
96A4
100
AcDbEntity
  8
1
  6
Continuous
100
AcDbLine
 10
137.784985
 20
45.190615
 30
0.0
 11
137.784985
 21
48.690615
 31
0.0
  0
LINE
  5
9805
330
96A4
100
AcDbEntity
  8
1
  6
Continuous
100
AcDbLine
 10
137.784985
 20
48.690615
 30
0.0
 11
140.784985
 21
48.690615
 31
0.0
  0
LINE
  5
9806
330
96A4
100
AcDbEntity
  8
1
  6
Continuous
100
AcDbLine
 10
140.784985
 20
45.190615
 30
0.0
 11
140.784985
 21
48.690615
 31
0.0
  0
LINE
  5
9807
330
96A4
100
AcDbEntity
  8
1
  6
Continuous
100
AcDbLine
 10
140.784985
 20
45.190615
 30
0.0
 11
143.817985
 21
44.642915
 31
0.0
  0
LINE
  5
9808
330
96A4
100
AcDbEntity
  8
1
  6
Continuous
100
AcDbLine
 10
146.284985
 20
31.690615
 30
0.0
 11
146.284985
 21
32.190615
 31
0.0
  0
LINE
  5
9809
330
96A4
100
AcDbEntity
  8
1
  6
Continuous
100
AcDbLine
 10
338.2849849999999
 20
112.190615
 30
0.0
 11
338.2849849999999
 21
103.6906149999999
 31
0.0
  0
LINE
  5
980A
330
96A4
100
AcDbEntity
  8
4
  6
CENTER
100
AcDbLine
 10
125.828985
 20
107.6906149999998
 30
0.0
 11
135.496985
 21
107.6906149999998
 31
0.0
  0
LINE
  5
980B
330
96A4
100
AcDbEntity
  8
4
  6
CENTER
100
AcDbLine
 10
126.104985
 20
127.690615
 30
0.0
 11
135.496985
 21
127.690615
 31
0.0
  0
LINE
  5
980C
330
96A4
100
AcDbEntity
  8
4
  6
CENTER
100
AcDbLine
 10
344.4659849999999
 20
127.690615
 30
0.0
 11
335.073985
 21
127.690615
 31
0.0
  0
LINE
  5
980D
330
96A4
100
AcDbEntity
  8
4
  6
CENTER
100
AcDbLine
 10
344.741985
 20
107.6906149999998
 30
0.0
 11
335.073985
 21
107.6906149999998
 31
0.0
  0
LINE
  5
980E
330
96A4
100
AcDbEntity
  8
1
  6
Continuous
100
AcDbLine
 10
131.284985
 20
32.190615
 30
0.0
 11
131.284985
 21
43.190615
 31
0.0
  0
LINE
  5
980F
330
96A4
100
AcDbEntity
  8
1
  6
Continuous
100
AcDbLine
 10
240.784985
 20
112.190615
 30
0.0
 11
240.784985
 21
103.6906149999999
 31
0.0
  0
LINE
  5
9810
330
96A4
100
AcDbEntity
  8
1
  6
Continuous
100
AcDbLine
 10
229.7849849999999
 20
118.1906149999998
 30
0.0
 11
229.7849849999999
 21
103.6906149999999
 31
0.0
  0
LINE
  5
9811
330
96A4
100
AcDbEntity
  8
1
  6
Continuous
100
AcDbLine
 10
145.8829849999999
 20
192.1906149999998
 30
0.0
 11
147.284985
 21
192.1906149999998
 31
0.0
  0
LINE
  5
9812
330
96A4
100
AcDbEntity
  8
1
  6
Continuous
100
AcDbLine
 10
130.284985
 20
192.1906149999998
 30
0.0
 11
138.5489849999999
 21
192.1906149999998
 31
0.0
  0
LINE
  5
9813
330
96A4
100
AcDbEntity
  8
1
  6
Continuous
100
AcDbLine
 10
34.78528499999999
 20
120.690615
 30
0.0
 11
37.90428499999999
 21
120.690615
 31
0.0
  0
LINE
  5
9814
330
96A4
100
AcDbEntity
  8
1
  6
Continuous
100
AcDbLine
 10
34.78528499999999
 20
114.6906149999998
 30
0.0
 11
37.90428499999999
 21
114.6906149999998
 31
0.0
  0
CIRCLE
  5
9815
330
96A4
100
AcDbEntity
  8
1
  6
Continuous
100
AcDbCircle
 10
27.28528499999999
 20
127.690615
 30
0.0
 40
1.6
  0
CIRCLE
  5
9816
330
96A4
100
AcDbEntity
  8
1
  6
Continuous
100
AcDbCircle
 10
27.28528499999999
 20
107.6906149999998
 30
0.0
 40
1.6
  0
CIRCLE
  5
9817
330
96A4
100
AcDbEntity
  8
1
  6
Continuous
100
AcDbCircle
 10
27.28528499999999
 20
117.6906149999998
 30
0.0
 40
4.5
  0
CIRCLE
  5
9818
330
96A4
100
AcDbEntity
  8
1
  6
Continuous
100
AcDbCircle
 10
27.28528499999999
 20
117.6906149999998
 30
0.0
 40
4.0
  0
CIRCLE
  5
9819
330
96A4
100
AcDbEntity
  8
1
  6
Continuous
100
AcDbCircle
 10
235.284985
 20
127.690615
 30
0.0
 40
1.6
  0
CIRCLE
  5
981A
330
96A4
100
AcDbEntity
  8
1
  6
Continuous
100
AcDbCircle
 10
235.284985
 20
107.6906149999998
 30
0.0
 40
1.6
  0
CIRCLE
  5
981B
330
96A4
100
AcDbEntity
  8
1
  6
Continuous
100
AcDbCircle
 10
235.284985
 20
107.6906149999998
 30
0.0
 40
1.75
  0
CIRCLE
  5
981C
330
96A4
100
AcDbEntity
  8
1
  6
Continuous
100
AcDbCircle
 10
235.284985
 20
117.6906149999998
 30
0.0
 40
1.6
  0
ARC
  5
981D
330
96A4
100
AcDbEntity
  8
1
  6
Continuous
100
AcDbCircle
 10
235.284985
 20
117.6906149999998
 30
0.0
 40
3.6
100
AcDbArc
 50
341.6819999999999
 51
36.1087
  0
ARC
  5
981E
330
96A4
100
AcDbEntity
  8
1
  6
Continuous
100
AcDbCircle
 10
235.284985
 20
117.6906149999998
 30
0.0
 40
3.6
100
AcDbArc
 50
73.8724
 51
106.128
  0
ARC
  5
981F
330
96A4
100
AcDbEntity
  8
1
  6
Continuous
100
AcDbCircle
 10
235.284985
 20
117.6906149999998
 30
0.0
 40
3.6
100
AcDbArc
 50
143.8909999999999
 51
198.3179999999999
  0
ARC
  5
9820
330
96A4
100
AcDbEntity
  8
1
  6
Continuous
100
AcDbCircle
 10
238.234985
 20
122.5406149999999
 30
0.0
 40
1.149999999999999
100
AcDbArc
 50
334.202
 51
154.2019999999999
  0
ARC
  5
9821
330
96A4
100
AcDbEntity
  8
1
  6
Continuous
100
AcDbCircle
 10
232.334985
 20
122.5406149999999
 30
0.0
 40
1.149999999999999
100
AcDbArc
 50
25.79779999999999
 51
205.798
  0
ARC
  5
9822
330
96A4
100
AcDbEntity
  8
1
  6
Continuous
100
AcDbCircle
 10
238.4349849999999
 20
112.3406149999998
 30
0.0
 40
1.149999999999999
100
AcDbArc
 50
192.1579999999999
 51
12.1576
  0
ARC
  5
9823
330
96A4
100
AcDbEntity
  8
1
  6
Continuous
100
AcDbCircle
 10
232.134985
 20
112.3406149999998
 30
0.0
 40
1.149999999999999
100
AcDbArc
 50
167.842
 51
347.8419999999999
  0
ARC
  5
9824
330
96A4
100
AcDbEntity
  8
1
  6
Continuous
100
AcDbCircle
 10
146.284985
 20
111.6906149999998
 30
0.0
 40
1.0
100
AcDbArc
 50
270.0
 51
0.0
  0
ARC
  5
9825
330
96A4
100
AcDbEntity
  8
1
  6
Continuous
100
AcDbCircle
 10
130.284985
 20
191.6906149999999
 30
0.0
 40
1.0
100
AcDbArc
 50
180.0
 51
270.0
  0
ARC
  5
9826
330
96A4
100
AcDbEntity
  8
1
  6
Continuous
100
AcDbCircle
 10
130.284985
 20
203.6906149999999
 30
0.0
 40
1.0
100
AcDbArc
 50
90.0
 51
180.0
  0
ARC
  5
9827
330
96A4
100
AcDbEntity
  8
1
  6
Continuous
100
AcDbCircle
 10
146.284985
 20
203.6906149999999
 30
0.0
 40
1.0
100
AcDbArc
 50
0.0
 51
90.0
  0
CIRCLE
  5
9828
330
96A4
100
AcDbEntity
  8
1
  6
Continuous
100
AcDbCircle
 10
148.384985
 20
200.290615
 30
0.0
 40
0.2
  0
ARC
  5
9829
330
96A4
100
AcDbEntity
  8
1
  6
Continuous
100
AcDbCircle
 10
147.484985
 20
201.8906149999998
 30
0.0
 40
0.2
100
AcDbArc
 50
0.0
 51
180.0
  0
CIRCLE
  5
982A
330
96A4
100
AcDbEntity
  8
1
  6
Continuous
100
AcDbCircle
 10
147.484985
 20
193.4906149999999
 30
0.0
 40
0.2
  0
ARC
  5
982B
330
96A4
100
AcDbEntity
  8
1
  6
Continuous
100
AcDbCircle
 10
148.384985
 20
195.0906149999999
 30
0.0
 40
0.2
100
AcDbArc
 50
180.0
 51
0.00001
  0
CIRCLE
  5
982C
330
96A4
100
AcDbEntity
  8
1
  6
Continuous
100
AcDbCircle
 10
147.484985
 20
113.4906149999999
 30
0.0
 40
0.2
  0
ARC
  5
982D
330
96A4
100
AcDbEntity
  8
1
  6
Continuous
100
AcDbCircle
 10
148.384985
 20
115.0906149999999
 30
0.0
 40
0.2
100
AcDbArc
 50
180.0
 51
0.00001
  0
CIRCLE
  5
982E
330
96A4
100
AcDbEntity
  8
1
  6
Continuous
100
AcDbCircle
 10
148.384985
 20
120.290615
 30
0.0
 40
0.2
  0
ARC
  5
982F
330
96A4
100
AcDbEntity
  8
1
  6
Continuous
100
AcDbCircle
 10
147.484985
 20
121.890615
 30
0.0
 40
0.2
100
AcDbArc
 50
0.0
 51
180.0
  0
ARC
  5
9830
330
96A4
100
AcDbEntity
  8
1
  6
Continuous
100
AcDbCircle
 10
235.284985
 20
117.6906149999998
 30
0.0
 40
4.4
100
AcDbArc
 50
72.10179999999998
 51
107.899
  0
ARC
  5
9831
330
96A4
100
AcDbEntity
  8
1
  6
Continuous
100
AcDbCircle
 10
235.284985
 20
117.6906149999998
 30
0.0
 40
4.4
100
AcDbArc
 50
326.9979999999998
 51
41.5404
  0
ARC
  5
9832
330
96A4
100
AcDbEntity
  8
1
  6
Continuous
100
AcDbCircle
 10
235.284985
 20
117.6906149999998
 30
0.0
 40
4.4
100
AcDbArc
 50
138.46
 51
213.0009999999999
  0
ARC
  5
9833
330
96A4
100
AcDbEntity
  8
5
  6
PHANTOM
100
AcDbCircle
 10
135.284985
 20
190.1906149999998
 30
0.0
 40
3.0
100
AcDbArc
 50
100.2369999999999
 51
180.0
  0
ARC
  5
9834
330
96A4
100
AcDbEntity
  8
5
  6
PHANTOM
100
AcDbCircle
 10
137.784985
 20
193.6906149999998
 30
0.0
 40
3.0
100
AcDbArc
 50
280.237
 51
0.0
  0
ARC
  5
9835
330
96A4
100
AcDbEntity
  8
1
  6
Continuous
100
AcDbCircle
 10
236.2849849999999
 20
117.6906149999998
 30
0.0
 40
12.0
100
AcDbArc
 50
165.5219999999999
 51
194.4779999999999
  0
ARC
  5
9836
330
96A4
100
AcDbEntity
  8
1
  6
Continuous
100
AcDbCircle
 10
140.784985
 20
190.1906149999998
 30
0.0
 40
3.0
100
AcDbArc
 50
100.2369999999999
 51
180.0
  0
ARC
  5
9837
330
96A4
100
AcDbEntity
  8
1
  6
Continuous
100
AcDbCircle
 10
143.284985
 20
193.6906149999998
 30
0.0
 40
3.0
100
AcDbArc
 50
280.237
 51
0.0
  0
ARC
  5
9838
330
96A4
100
AcDbEntity
  8
1
  6
Continuous
100
AcDbCircle
 10
143.0349849999998
 20
194.8406149999999
 30
0.0
 40
0.25
100
AcDbArc
 50
191.275
 51
0.0
  0
ARC
  5
9839
330
96A4
100
AcDbEntity
  8
1
  6
Continuous
100
AcDbCircle
 10
143.0349849999998
 20
200.540615
 30
0.0
 40
0.25
100
AcDbArc
 50
0.0
 51
180.0
  0
ARC
  5
983A
330
96A4
100
AcDbEntity
  8
1
  6
Continuous
100
AcDbCircle
 10
131.034985
 20
194.8406149999999
 30
0.0
 40
0.25
100
AcDbArc
 50
180.0
 51
0.00001
  0
ARC
  5
983B
330
96A4
100
AcDbEntity
  8
1
  6
Continuous
100
AcDbCircle
 10
131.034985
 20
200.540615
 30
0.0
 40
0.25
100
AcDbArc
 50
0.0
 51
180.0
  0
ARC
  5
983C
330
96A4
100
AcDbEntity
  8
1
  6
Continuous
100
AcDbCircle
 10
132.1259849999999
 20
114.8406149999999
 30
0.0
 40
0.25
100
AcDbArc
 50
309.5209999999998
 51
349.165
  0
ARC
  5
983D
330
96A4
100
AcDbEntity
  8
1
  6
Continuous
100
AcDbCircle
 10
134.307985
 20
114.8406149999999
 30
0.0
 40
0.25
100
AcDbArc
 50
190.8349999999998
 51
0.0
  0
ARC
  5
983E
330
96A4
100
AcDbEntity
  8
1
  6
Continuous
100
AcDbCircle
 10
136.489985
 20
114.8406149999999
 30
0.0
 40
0.25
100
AcDbArc
 50
190.8349999999998
 51
0.0
  0
ARC
  5
983F
330
96A4
100
AcDbEntity
  8
1
  6
Continuous
100
AcDbCircle
 10
140.8529849999999
 20
194.8406149999999
 30
0.0
 40
0.25
100
AcDbArc
 50
190.8349999999998
 51
0.0
  0
ARC
  5
9840
330
96A4
100
AcDbEntity
  8
1
  6
Continuous
100
AcDbCircle
 10
141.943985
 20
200.540615
 30
0.0
 40
0.25
100
AcDbArc
 50
10.83469999999998
 51
169.1649999999999
  0
ARC
  5
9841
330
96A4
100
AcDbEntity
  8
1
  6
Continuous
100
AcDbCircle
 10
139.7629849999999
 20
200.540615
 30
0.0
 40
0.25
100
AcDbArc
 50
0.0
 51
169.1649999999999
  0
ARC
  5
9842
330
96A4
100
AcDbEntity
  8
1
  6
Continuous
100
AcDbCircle
 10
137.580985
 20
120.5406149999999
 30
0.0
 40
0.25
100
AcDbArc
 50
35.0968
 51
169.1649999999999
  0
ARC
  5
9843
330
96A4
100
AcDbEntity
  8
1
  6
Continuous
100
AcDbCircle
 10
135.398985
 20
120.5406149999999
 30
0.0
 40
0.25
100
AcDbArc
 50
0.0
 51
169.1649999999999
  0
ARC
  5
9844
330
96A4
100
AcDbEntity
  8
1
  6
Continuous
100
AcDbCircle
 10
133.2169849999999
 20
120.5406149999999
 30
0.0
 40
0.25
100
AcDbArc
 50
0.0
 51
169.1649999999999
  0
ARC
  5
9845
330
96A4
100
AcDbEntity
  8
1
  6
Continuous
100
AcDbCircle
 10
132.1259849999999
 20
194.8406149999999
 30
0.0
 40
0.25
100
AcDbArc
 50
190.8349999999998
 51
349.165
  0
ARC
  5
9846
330
96A4
100
AcDbEntity
  8
1
  6
Continuous
100
AcDbCircle
 10
133.2169849999999
 20
200.540615
 30
0.0
 40
0.25
100
AcDbArc
 50
0.0
 51
169.1649999999999
  0
ARC
  5
9847
330
96A4
100
AcDbEntity
  8
1
  6
Continuous
100
AcDbCircle
 10
134.307985
 20
194.8406149999999
 30
0.0
 40
0.25
100
AcDbArc
 50
190.8349999999998
 51
0.0
  0
ARC
  5
9848
330
96A4
100
AcDbEntity
  8
1
  6
Continuous
100
AcDbCircle
 10
135.398985
 20
200.540615
 30
0.0
 40
0.25
100
AcDbArc
 50
0.0
 51
169.1649999999999
  0
ARC
  5
9849
330
96A4
100
AcDbEntity
  8
1
  6
Continuous
100
AcDbCircle
 10
137.580985
 20
200.540615
 30
0.0
 40
0.25
100
AcDbArc
 50
0.0
 51
169.1649999999999
  0
ARC
  5
984A
330
96A4
100
AcDbEntity
  8
1
  6
Continuous
100
AcDbCircle
 10
136.489985
 20
194.8406149999999
 30
0.0
 40
0.25
100
AcDbArc
 50
190.8349999999998
 51
0.0
  0
ARC
  5
984B
330
96A4
100
AcDbEntity
  8
1
  6
Continuous
100
AcDbCircle
 10
138.671985
 20
194.8406149999999
 30
0.0
 40
0.25
100
AcDbArc
 50
190.8349999999998
 51
0.0
  0
ARC
  5
984C
330
96A4
100
AcDbEntity
  8
1
  6
Continuous
100
AcDbCircle
 10
324.284985
 20
111.6906149999998
 30
0.0
 40
1.0
100
AcDbArc
 50
180.0
 51
270.0
  0
CIRCLE
  5
984D
330
96A4
100
AcDbEntity
  8
1
  6
Continuous
100
AcDbCircle
 10
323.084985
 20
113.4906149999999
 30
0.0
 40
0.2
  0
ARC
  5
984E
330
96A4
100
AcDbEntity
  8
1
  6
Continuous
100
AcDbCircle
 10
322.1849849999999
 20
115.0906149999999
 30
0.0
 40
0.2
100
AcDbArc
 50
180.0
 51
0.0
  0
CIRCLE
  5
984F
330
96A4
100
AcDbEntity
  8
1
  6
Continuous
100
AcDbCircle
 10
322.1849849999999
 20
120.290615
 30
0.0
 40
0.2
  0
ARC
  5
9850
330
96A4
100
AcDbEntity
  8
1
  6
Continuous
100
AcDbCircle
 10
323.084985
 20
121.890615
 30
0.0
 40
0.2
100
AcDbArc
 50
0.0
 51
180.0
  0
ARC
  5
9851
330
96A4
100
AcDbEntity
  8
1
  6
Continuous
100
AcDbCircle
 10
130.284985
 20
43.69061499999999
 30
0.0
 40
1.0
100
AcDbArc
 50
90.0
 51
180.0
  0
ARC
  5
9852
330
96A4
100
AcDbEntity
  8
1
  6
Continuous
100
AcDbCircle
 10
146.284985
 20
31.690615
 30
0.0
 40
1.0
100
AcDbArc
 50
270.0
 51
0.0
  0
CIRCLE
  5
9853
330
96A4
100
AcDbEntity
  8
1
  6
Continuous
100
AcDbCircle
 10
148.384985
 20
35.090615
 30
0.0
 40
0.2
  0
ARC
  5
9854
330
96A4
100
AcDbEntity
  8
1
  6
Continuous
100
AcDbCircle
 10
147.484985
 20
33.49061499999999
 30
0.0
 40
0.2
100
AcDbArc
 50
180.0
 51
0.00001
  0
CIRCLE
  5
9855
330
96A4
100
AcDbEntity
  8
1
  6
Continuous
100
AcDbCircle
 10
147.484985
 20
41.890615
 30
0.0
 40
0.2
  0
ARC
  5
9856
330
96A4
100
AcDbEntity
  8
1
  6
Continuous
100
AcDbCircle
 10
148.384985
 20
40.290615
 30
0.0
 40
0.2
100
AcDbArc
 50
0.0
 51
180.0
  0
ARC
  5
9857
330
96A4
100
AcDbEntity
  8
1
  6
Continuous
100
AcDbCircle
 10
140.784985
 20
45.190615
 30
0.0
 40
3.0
100
AcDbArc
 50
180.0
 51
221.81
  0
ARC
  5
9858
330
96A4
100
AcDbEntity
  8
1
  6
Continuous
100
AcDbCircle
 10
143.284985
 20
41.690615
 30
0.0
 40
3.0
100
AcDbArc
 50
30.0
 51
79.76330000000001
  0
ARC
  5
9859
330
96A4
100
AcDbEntity
  8
1
  6
Continuous
100
AcDbCircle
 10
234.784985
 20
118.1906149999998
 30
0.0
 40
5.0
100
AcDbArc
 50
90.0
 51
106.1579999999999
  0
ARC
  5
985A
330
96A4
100
AcDbEntity
  8
1
  6
Continuous
100
AcDbCircle
 10
234.784985
 20
118.1906149999998
 30
0.0
 40
5.0
100
AcDbArc
 50
132.8079999999999
 51
180.0
  0
ARC
  5
985B
330
96A4
100
AcDbEntity
  8
1
  6
Continuous
100
AcDbCircle
 10
130.284985
 20
31.690615
 30
0.0
 40
1.0
100
AcDbArc
 50
180.0
 51
270.0
  0
ARC
  5
985C
330
96A4
100
AcDbEntity
  8
1
  6
Continuous
100
AcDbCircle
 10
26.28528499999999
 20
117.6906149999998
 30
0.0
 40
12.0
100
AcDbArc
 50
345.522
 51
14.4775
  0
LINE
  5
985D
330
96A4
100
AcDbEntity
  8
4
  6
CENTER
100
AcDbLine
 10
18.123014
 20
122.132002
 30
0.0
 11
39.05323899999999
 21
111.9861299999999
 31
0.0
  0
ARC
  5
985E
330
96A4
100
AcDbEntity
  8
5
  6
PHANTOM
100
AcDbCircle
 10
26.38543499999999
 20
118.1268149999998
 30
0.0
 40
12.0
100
AcDbArc
 50
319.6603349999999
 51
348.6163349999998
  0
LINE
  5
985F
330
96A4
100
AcDbEntity
  8
5
  6
PHANTOM
100
AcDbLine
 10
29.030084
 20
121.2900139999999
 30
0.0
 11
35.34275800000001
 21
117.1186659999999
 31
0.0
  0
LINE
  5
9860
330
96A4
100
AcDbEntity
  8
5
  6
PHANTOM
100
AcDbLine
 10
35.34275800000001
 20
117.1186659999999
 30
0.0
 11
38.14938999999999
 21
115.758159
 31
0.0
  0
LINE
  5
9861
330
96A4
100
AcDbEntity
  8
5
  6
PHANTOM
100
AcDbLine
 10
32.72555899999999
 20
111.719567
 30
0.0
 11
35.53219099999999
 21
110.35906
 31
0.0
  0
LINE
  5
9862
330
96A4
100
AcDbEntity
  8
5
  6
PHANTOM
100
AcDbLine
 10
21.314237
 20
123.1308889999999
 30
0.0
 11
19.95372899999998
 21
125.9375209999999
 31
0.0
  0
LINE
  5
9863
330
96A4
100
AcDbEntity
  8
5
  6
PHANTOM
100
AcDbLine
 10
26.713336
 20
125.7480879999999
 30
0.0
 11
25.352828
 21
128.55472
 31
0.0
  0
LINE
  5
9864
330
96A4
100
AcDbEntity
  8
4
  6
CENTER
100
AcDbLine
 10
31.726671
 20
108.5283439999999
 30
0.0
 11
21.593285
 21
129.4328139999997
 31
0.0
  0
ARC
  5
9865
330
96A4
100
AcDbEntity
  8
5
  6
PHANTOM
100
AcDbCircle
 10
27.721485
 20
116.7907649999998
 30
0.0
 40
12.0
100
AcDbArc
 50
101.383665
 51
130.339665
  0
LINE
  5
9866
330
96A4
100
AcDbEntity
  8
5
  6
PHANTOM
100
AcDbLine
 10
23.68588499999999
 20
115.945816
 30
0.0
 11
21.314237
 21
123.1308889999999
 31
0.0
  0
LINE
  5
9867
330
96A4
100
AcDbEntity
  8
5
  6
PHANTOM
100
AcDbLine
 10
30.884684
 20
119.4354139999998
 30
0.0
 11
26.713336
 21
125.7480879999999
 31
0.0
  0
LINE
  5
9868
330
96A4
100
AcDbEntity
  8
5
  6
PHANTOM
100
AcDbLine
 10
25.540485
 20
114.0912159999998
 30
0.0
 11
32.72555899999999
 21
111.719567
 31
0.0
  0
LINE
  5
9869
330
96A4
100
AcDbEntity
  8
1
  6
Continuous
100
AcDbLine
 10
329.3969879999999
 20
120.509461
 30
0.0
 11
329.3969879999999
 21
118.5931529999999
 31
0.0
  0
LINE
  5
986A
330
96A4
100
AcDbEntity
  8
1
  6
Continuous
100
AcDbLine
 10
329.8408789999998
 20
118.4704509999999
 30
0.0
 11
329.8408789999998
 21
120.109779
 31
0.0
  0
LINE
  5
986B
330
96A4
100
AcDbEntity
  8
1
  6
Continuous
100
AcDbLine
 10
330.2856719999998
 20
120.38676
 30
0.0
 11
330.2856719999998
 21
118.1943729999999
 31
0.0
  0
LINE
  5
986C
330
96A4
100
AcDbEntity
  8
1
  6
Continuous
100
AcDbLine
 10
331.174356
 20
119.823777
 30
0.0
 11
331.174356
 21
120.67186
 31
0.0
  0
LINE
  5
986D
330
96A4
100
AcDbEntity
  8
1
  6
Continuous
100
AcDbLine
 10
332.063039
 20
119.290566
 30
0.0
 11
331.619149
 21
119.290566
 31
0.0
  0
ARC
  5
986E
330
96A4
100
AcDbEntity
  8
1
  6
Continuous
100
AcDbCircle
 10
329.618933
 20
119.290566
 30
0.0
 40
1.145318999999998
100
AcDbArc
 50
125.5376999999999
 51
166.5373999999999
  0
ARC
  5
986F
330
96A4
100
AcDbEntity
  8
1
  6
Continuous
100
AcDbCircle
 10
329.618933
 20
119.290566
 30
0.0
 40
1.145318999999998
100
AcDbArc
 50
180.0
 51
234.4619999999999
  0
ARC
  5
9870
330
96A4
100
AcDbEntity
  8
1
  6
Continuous
100
AcDbCircle
 10
330.0637259999998
 20
120.109779
 30
0.0
 40
0.222261
100
AcDbArc
 50
116.0144
 51
180.0
  0
ARC
  5
9871
330
96A4
100
AcDbEntity
  8
1
  6
Continuous
100
AcDbCircle
 10
332.284985
 20
115.5571919999998
 30
0.0
 40
5.288524999999999
100
AcDbArc
 50
112.9439999999999
 51
116.0144
  0
ARC
  5
9872
330
96A4
100
AcDbEntity
  8
1
  6
Continuous
100
AcDbCircle
 10
330.241463
 20
120.38676
 30
0.0
 40
0.044452
100
AcDbArc
 50
0.0
 51
112.9439999999999
  0
ARC
  5
9873
330
96A4
100
AcDbEntity
  8
1
  6
Continuous
100
AcDbCircle
 10
330.0637259999998
 20
118.4704509999999
 30
0.0
 40
0.222261
100
AcDbArc
 50
180.0
 51
243.9859999999999
  0
ARC
  5
9874
330
96A4
100
AcDbEntity
  8
1
  6
Continuous
100
AcDbCircle
 10
331.130147
 20
120.67186
 30
0.0
 40
0.044452
100
AcDbArc
 50
0.0
 51
102.7288999999999
  0
ARC
  5
9875
330
96A4
100
AcDbEntity
  8
1
  6
Continuous
100
AcDbCircle
 10
332.284985
 20
115.5571919999998
 30
0.0
 40
5.288524999999999
100
AcDbArc
 50
102.7288999999999
 51
103.2680999999999
  0
ARC
  5
9876
330
96A4
100
AcDbEntity
  8
1
  6
Continuous
100
AcDbCircle
 10
332.284985
 20
115.5571919999998
 30
0.0
 40
5.288524999999999
100
AcDbArc
 50
103.2680999999999
 51
105.2575
  0
ARC
  5
9877
330
96A4
100
AcDbEntity
  8
1
  6
Continuous
100
AcDbCircle
 10
330.9524099999998
 20
120.444502
 30
0.0
 40
0.222261
100
AcDbArc
 50
105.2575
 51
180.0
  0
ARC
  5
9878
330
96A4
100
AcDbEntity
  8
1
  6
Continuous
100
AcDbCircle
 10
330.9524099999998
 20
118.135728
 30
0.0
 40
0.222261
100
AcDbArc
 50
180.0
 51
254.742
  0
ARC
  5
9879
330
96A4
100
AcDbEntity
  8
1
  6
Continuous
100
AcDbCircle
 10
332.284985
 20
123.0230379999998
 30
0.0
 40
5.288524999999999
100
AcDbArc
 50
254.742
 51
254.794
  0
ARC
  5
987A
330
96A4
100
AcDbEntity
  8
1
  6
Continuous
100
AcDbCircle
 10
332.284985
 20
123.0230379999998
 30
0.0
 40
5.288524999999999
100
AcDbArc
 50
254.794
 51
257.2709999999998
  0
ARC
  5
987B
330
96A4
100
AcDbEntity
  8
1
  6
Continuous
100
AcDbCircle
 10
331.130147
 20
117.9083699999999
 30
0.0
 40
0.044452
100
AcDbArc
 50
257.2709999999998
 51
0.0
  0
LINE
  5
987C
330
96A4
100
AcDbEntity
  8
1
  6
Continuous
100
AcDbLine
 10
330.729563
 20
120.444502
 30
0.0
 11
330.729563
 21
118.135728
 31
0.0
  0
LINE
  5
987D
330
96A4
100
AcDbEntity
  8
1
  6
Continuous
100
AcDbLine
 10
331.174356
 20
117.9083699999999
 30
0.0
 11
331.174356
 21
118.757356
 31
0.0
  0
LINE
  5
987E
330
96A4
100
AcDbEntity
  8
1
  6
Continuous
100
AcDbLine
 10
331.619149
 20
120.803584
 30
0.0
 11
331.619149
 21
117.7766459999999
 31
0.0
  0
LINE
  5
987F
330
96A4
100
AcDbEntity
  8
1
  6
Continuous
100
AcDbLine
 10
332.063039
 20
120.840575
 30
0.0
 11
332.063039
 21
117.739655
 31
0.0
  0
ARC
  5
9880
330
96A4
100
AcDbEntity
  8
1
  6
Continuous
100
AcDbCircle
 10
330.241463
 20
118.1943729999999
 30
0.0
 40
0.044452
100
AcDbArc
 50
247.0559999999999
 51
0.0
  0
ARC
  5
9881
330
96A4
100
AcDbEntity
  8
1
  6
Continuous
100
AcDbCircle
 10
332.284985
 20
123.0230379999998
 30
0.0
 40
5.288524999999999
100
AcDbArc
 50
243.9859999999999
 51
247.0559999999999
  0
LINE
  5
9882
330
96A4
100
AcDbEntity
  8
1
  6
Continuous
100
AcDbLine
 10
333.396516
 20
119.290566
 30
0.0
 11
333.174571
 21
119.290566
 31
0.0
  0
ARC
  5
9883
330
96A4
100
AcDbEntity
  8
1
  6
Continuous
100
AcDbCircle
 10
333.174571
 20
120.5446479999999
 30
0.0
 40
0.222261
100
AcDbArc
 50
0.0
 51
79.896
  0
ARC
  5
9884
330
96A4
100
AcDbEntity
  8
1
  6
Continuous
100
AcDbCircle
 10
333.174571
 20
118.035582
 30
0.0
 40
0.222261
100
AcDbArc
 50
280.104
 51
0.0
  0
ARC
  5
9885
330
96A4
100
AcDbEntity
  8
1
  6
Continuous
100
AcDbCircle
 10
332.284985
 20
115.5571919999998
 30
0.0
 40
5.288524999999999
100
AcDbArc
 50
79.896
 51
82.20699999999999
  0
ARC
  5
9886
330
96A4
100
AcDbEntity
  8
1
  6
Continuous
100
AcDbCircle
 10
332.9968339999999
 20
120.75306
 30
0.0
 40
0.044452
100
AcDbArc
 50
82.20699999999999
 51
180.0
  0
ARC
  5
9887
330
96A4
100
AcDbEntity
  8
1
  6
Continuous
100
AcDbCircle
 10
332.9968339999999
 20
117.82717
 30
0.0
 40
0.044452
100
AcDbArc
 50
180.0
 51
277.793
  0
ARC
  5
9888
330
96A4
100
AcDbEntity
  8
1
  6
Continuous
100
AcDbCircle
 10
332.284985
 20
123.0230379999998
 30
0.0
 40
5.288524999999999
100
AcDbArc
 50
277.793
 51
280.104
  0
LINE
  5
9889
330
96A4
100
AcDbEntity
  8
1
  6
Continuous
100
AcDbLine
 10
332.507832
 20
120.840575
 30
0.0
 11
332.507832
 21
117.739655
 31
0.0
  0
LINE
  5
988A
330
96A4
100
AcDbEntity
  8
1
  6
Continuous
100
AcDbLine
 10
332.951723
 20
120.75306
 30
0.0
 11
332.951723
 21
117.82717
 31
0.0
  0
LINE
  5
988B
330
96A4
100
AcDbEntity
  8
1
  6
Continuous
100
AcDbLine
 10
333.396516
 20
119.823777
 30
0.0
 11
333.396516
 21
120.5446479999999
 31
0.0
  0
LINE
  5
988C
330
96A4
100
AcDbEntity
  8
1
  6
Continuous
100
AcDbLine
 10
334.2851999999999
 20
120.5419409999998
 30
0.0
 11
334.2851999999999
 21
119.512512
 31
0.0
  0
LINE
  5
988D
330
96A4
100
AcDbEntity
  8
1
  6
Continuous
100
AcDbLine
 10
334.7299929999999
 20
119.512512
 30
0.0
 11
334.7299929999999
 21
120.4616439999998
 31
0.0
  0
LINE
  5
988E
330
96A4
100
AcDbEntity
  8
1
  6
Continuous
100
AcDbLine
 10
334.5071449999999
 20
119.290566
 30
0.0
 11
334.5071449999999
 21
118.2241459999999
 31
0.0
  0
LINE
  5
988F
330
96A4
100
AcDbEntity
  8
1
  6
Continuous
100
AcDbLine
 10
334.955547
 20
118.458722
 30
0.0
 11
335.4580819999998
 21
120.331725
 31
0.0
  0
LINE
  5
9890
330
96A4
100
AcDbEntity
  8
1
  6
Continuous
100
AcDbLine
 10
336.096852
 20
119.290566
 30
0.0
 11
335.178395
 21
119.290566
 31
0.0
  0
ARC
  5
9891
330
96A4
100
AcDbEntity
  8
1
  6
Continuous
100
AcDbCircle
 10
334.5071449999999
 20
119.512512
 30
0.0
 40
0.222261
100
AcDbArc
 50
180.0
 51
0.0
  0
ARC
  5
9892
330
96A4
100
AcDbEntity
  8
1
  6
Continuous
100
AcDbCircle
 10
334.9519379999999
 20
119.290566
 30
0.0
 40
1.145318999999998
100
AcDbArc
 50
332.25
 51
54.46200000000001
  0
ARC
  5
9893
330
96A4
100
AcDbEntity
  8
1
  6
Continuous
100
AcDbCircle
 10
334.9519379999999
 20
119.290566
 30
0.0
 40
1.145318999999998
100
AcDbArc
 50
305.5379999999999
 51
315.699
  0
LINE
  5
9894
330
96A4
100
AcDbEntity
  8
1
  6
Continuous
100
AcDbLine
 10
333.396516
 20
118.035582
 30
0.0
 11
333.396516
 21
119.290566
 31
0.0
  0
LINE
  5
9895
330
96A4
100
AcDbEntity
  8
1
  6
Continuous
100
AcDbLine
 10
333.8404069999999
 20
120.751256
 30
0.0
 11
333.8404069999999
 21
117.968818
 31
0.0
  0
ARC
  5
9896
330
96A4
100
AcDbEntity
  8
1
  6
Continuous
100
AcDbCircle
 10
332.284985
 20
123.0230379999998
 30
0.0
 40
5.732929999999998
100
AcDbArc
 50
234.4619999999999
 51
305.5379999999999
  0
ARC
  5
9897
330
96A4
100
AcDbEntity
  8
1
  6
Continuous
100
AcDbCircle
 10
332.284985
 20
115.5571919999998
 30
0.0
 40
5.732929999999998
100
AcDbArc
 50
54.46200000000001
 51
125.5376999999999
  0
ENDSEC
  0
SECTION
  2
OBJECTS
  0
DICTIONARY
  5
9692
330
0
100
AcDbDictionary
281
     1
  3
ACAD_CIP_PREVIOUS_PRODUCT_INFO
350
98FB
  3
ACAD_COLOR
350
98DD
  3
ACAD_DETAILVIEWSTYLE
350
98F6
  3
ACAD_GROUP
350
9693
  3
ACAD_LAYOUT
350
969F
  3
ACAD_MATERIAL
350
98AB
  3
ACAD_MLEADERSTYLE
350
98F2
  3
ACAD_MLINESTYLE
350
969C
  3
ACAD_PLOTSETTINGS
350
969E
  3
ACAD_PLOTSTYLENAME
350
98A9
  3
ACAD_SCALELIST
350
98E0
  3
ACAD_SECTIONVIEWSTYLE
350
98F4
  3
ACAD_TABLESTYLE
350
98DE
  3
ACAD_VISUALSTYLE
350
98C4
  3
ACDB_RECOMPOSE_DATA
350
9919
  3
AcDbVariableDictionary
350
990C
  3
DWGPROPS
350
991A
  0
DICTIONARY
  5
98FC
330
9696
100
AcDbDictionary
280
     1
281
     1
  3
ADSK_XREC_LAYER_RECONCILED
360
98FD
  0
DICTIONARY
  5
98FE
330
96AC
100
AcDbDictionary
280
     1
281
     1
  3
ADSK_XREC_LAYER_RECONCILED
360
98FF
  0
DICTIONARY
  5
9900
330
96AD
100
AcDbDictionary
280
     1
281
     1
  3
ADSK_XREC_LAYER_RECONCILED
360
9901
  0
DICTIONARY
  5
9902
330
96AE
100
AcDbDictionary
280
     1
281
     1
  3
ADSK_XREC_LAYER_RECONCILED
360
9903
  0
DICTIONARY
  5
9904
330
96AF
100
AcDbDictionary
280
     1
281
     1
  3
ADSK_XREC_LAYER_RECONCILED
360
9905
  0
DICTIONARY
  5
9906
330
96B0
100
AcDbDictionary
280
     1
281
     1
  3
ADSK_XREC_LAYER_RECONCILED
360
9907
  0
DICTIONARY
  5
9908
330
96B1
100
AcDbDictionary
280
     1
281
     1
  3
ADSK_XREC_LAYER_RECONCILED
360
9909
  0
DICTIONARY
  5
990A
330
96B2
100
AcDbDictionary
280
     1
281
     1
  3
ADSK_XREC_LAYER_RECONCILED
360
990B
  0
DICTIONARY
  5
98A4
330
96A4
100
AcDbDictionary
281
     1
  3
ACAD_LAYOUTSELFREF
350
98A5
  0
DICTIONARY
  5
98A2
330
96A0
100
AcDbDictionary
281
     1
  3
ACAD_LAYOUTSELFREF
350
98A3
  0
XRECORD
  5
98FB
102
{ACAD_REACTORS
330
9692
102
}
330
9692
100
AcDbXrecord
280
     1
300
ACDLT
300
2014
300
ACDLT_F_S
  0
DICTIONARY
  5
98DD
102
{ACAD_REACTORS
330
9692
102
}
330
9692
100
AcDbDictionary
281
     1
  0
DICTIONARY
  5
98F6
102
{ACAD_REACTORS
330
9692
102
}
330
9692
100
AcDbDictionary
281
     1
  3
Imperial24
350
98F7
  0
DICTIONARY
  5
9693
102
{ACAD_REACTORS
330
9692
102
}
330
9692
100
AcDbDictionary
281
     1
  0
DICTIONARY
  5
969F
102
{ACAD_REACTORS
330
9692
102
}
330
9692
100
AcDbDictionary
281
     1
  3
Model
350
98F8
  3
レイアウト1
350
98F9
  0
DICTIONARY
  5
98AB
102
{ACAD_REACTORS
330
9692
102
}
330
9692
100
AcDbDictionary
281
     1
  3
ByBlock
350
98B4
  3
ByLayer
350
98AC
  3
Global
350
98BC
  0
DICTIONARY
  5
98F2
102
{ACAD_REACTORS
330
9692
102
}
330
9692
100
AcDbDictionary
281
     1
  3
Standard
350
98F3
  0
DICTIONARY
  5
969C
102
{ACAD_REACTORS
330
9692
102
}
330
9692
100
AcDbDictionary
281
     1
  3
STANDARD
350
969D
  0
DICTIONARY
  5
969E
102
{ACAD_REACTORS
330
9692
102
}
330
9692
100
AcDbDictionary
281
     1
  0
ACDBDICTIONARYWDFLT
  5
98A9
102
{ACAD_REACTORS
330
9692
102
}
330
9692
100
AcDbDictionary
281
     1
  3
Normal
350
98AA
100
AcDbDictionaryWithDefault
340
98AA
  0
DICTIONARY
  5
98E0
102
{ACAD_REACTORS
330
9692
102
}
330
9692
100
AcDbDictionary
281
     1
  3
A0
350
98E1
  3
A1
350
98E2
  3
A2
350
98E3
  3
A3
350
98E4
  3
A4
350
98E5
  3
A5
350
98E6
  3
A6
350
98E7
  3
A7
350
98E8
  3
A8
350
98E9
  3
A9
350
98EA
  3
B0
350
98EB
  3
B1
350
98EC
  3
B2
350
98ED
  3
B3
350
98EE
  3
B4
350
98EF
  3
B5
350
98F0
  3
B6
350
98F1
  0
DICTIONARY
  5
98F4
102
{ACAD_REACTORS
330
9692
102
}
330
9692
100
AcDbDictionary
281
     1
  3
Imperial24
350
98F5
  0
DICTIONARY
  5
98DE
102
{ACAD_REACTORS
330
9692
102
}
330
9692
100
AcDbDictionary
281
     1
  3
Standard
350
98DF
  0
DICTIONARY
  5
98C4
102
{ACAD_REACTORS
330
9692
102
}
330
9692
100
AcDbDictionary
281
     1
  3
2dWireframe
350
98CA
  3
Basic
350
98C9
  3
Brighten
350
98D0
  3
ColorChange
350
98D4
  3
Conceptual
350
98CD
  3
Dim
350
98CF
  3
EdgeColorOff
350
98DC
  3
Facepattern
350
98D3
  3
Flat
350
98C5
  3
FlatWithEdges
350
98C6
  3
Gouraud
350
98C7
  3
GouraudWithEdges
350
98C8
  3
Hidden
350
98CC
  3
JitterOff
350
98DA
  3
Linepattern
350
98D2
  3
OverhangOff
350
98DB
  3
Realistic
350
98CE
  3
Shaded
350
98D9
  3
Shaded with edges
350
98D8
  3
Shades of Gray
350
98D5
  3
Sketchy
350
98D6
  3
Thicken
350
98D1
  3
Wireframe
350
98CB
  3
X-Ray
350
98D7
  0
XRECORD
  5
9919
102
{ACAD_REACTORS
330
9692
102
}
330
9692
100
AcDbXrecord
280
     1
 90
        1
330
98DF
  0
DICTIONARY
  5
990C
102
{ACAD_REACTORS
330
9692
102
}
330
9692
100
AcDbDictionary
281
     1
  3
CANNOSCALE
350
9911
  3
CMLEADERSTYLE
350
990E
  3
CTABLESTYLE
350
990D
  3
CVIEWDETAILSTYLE
350
990F
  3
CVIEWSECTIONSTYLE
350
9910
  3
DIMASSOC
350
9914
  3
INDEXCTL
350
9913
  3
SORTENTS
350
9912
  3
XCLIPFRAME
350
9915
  0
XRECORD
  5
991A
102
{ACAD_REACTORS
330
9692
102
}
330
9692
100
AcDbXrecord
280
     1
  1
DWGPROPS COOKIE
  2

  3

  4

  6

  7

  8
Yoshitsune
  9

300
=
301
=
302
=
303
=
304
=
305
=
306
=
307
=
308
=
309
=
 40
0.0000136574074074
 41
2451066.482362153
 42
2457192.603438797
  1

 90
        0
  0
XRECORD
  5
98FD
102
{ACAD_REACTORS
330
98FC
102
}
330
98FC
100
AcDbXrecord
280
     1
290
     1
  0
XRECORD
  5
98FF
102
{ACAD_REACTORS
330
98FE
102
}
330
98FE
100
AcDbXrecord
280
     1
290
     1
  0
XRECORD
  5
9901
102
{ACAD_REACTORS
330
9900
102
}
330
9900
100
AcDbXrecord
280
     1
290
     1
  0
XRECORD
  5
9903
102
{ACAD_REACTORS
330
9902
102
}
330
9902
100
AcDbXrecord
280
     1
290
     1
  0
XRECORD
  5
9905
102
{ACAD_REACTORS
330
9904
102
}
330
9904
100
AcDbXrecord
280
     1
290
     1
  0
XRECORD
  5
9907
102
{ACAD_REACTORS
330
9906
102
}
330
9906
100
AcDbXrecord
280
     1
290
     1
  0
XRECORD
  5
9909
102
{ACAD_REACTORS
330
9908
102
}
330
9908
100
AcDbXrecord
280
     1
290
     1
  0
XRECORD
  5
990B
102
{ACAD_REACTORS
330
990A
102
}
330
990A
100
AcDbXrecord
280
     1
290
     1
  0
XRECORD
  5
98A5
102
{ACAD_REACTORS
330
98A4
102
}
330
98A4
100
AcDbXrecord
280
     1
340
96A4
  0
XRECORD
  5
98A3
102
{ACAD_REACTORS
330
98A2
102
}
330
98A2
100
AcDbXrecord
280
     1
340
96A0
  0
ACDBDETAILVIEWSTYLE
  5
98F7
102
{ACAD_XDICTIONARY
360
9952
102
}
102
{ACAD_REACTORS
330
98F6
102
}
330
98F6
100
AcDbModelDocViewStyle
 70
     0
  3
Imperial24
290
     0
100
AcDbDetailViewStyle
 70
     0
 71
     0
 90
        3
 71
     1
340
9697
 40
0.24
340
0
 40
0.24
300

 40
0.36
280
     3
 71
     2
340
969B
 90
       25
 71
     3
340
9697
 40
0.24
 90
        1
 40
0.75
 90
        1
300
%<\AcVar ViewType \f "%tc1">% %<\AcVar ViewDetailId>%\PSCALE %<\AcVar ViewScale \f "%sn">%
 71
     4
340
969B
 90
       25
340
969B
 90
       25
280
     0
  0
LAYOUT
  5
98F8
102
{ACAD_XDICTIONARY
360
9954
102
}
102
{ACAD_REACTORS
330
969F
102
}
330
969F
100
AcDbPlotSettings
  1

  2
Canon LBP9100C
  4

  6

 40
0.0
 41
0.0
 42
0.0
 43
0.0
 44
0.0
 45
0.0
 46
0.0
 47
0.0
 48
0.0
 49
0.0
140
0.0
141
0.0
142
1.0
143
1.0
 70
  1712
 72
     0
 73
     0
 74
     0
  7

 75
     0
147
1.0
148
0.0
149
0.0
100
AcDbLayout
  1
Model
 70
     1
 71
     0
 10
0.0
 20
0.0
 11
12.0
 21
9.0
 12
0.0
 22
0.0
 32
0.0
 14
0.0
 24
0.0
 34
0.0
 15
0.0
 25
0.0
 35
0.0
146
0.0
 13
0.0
 23
0.0
 33
0.0
 16
1.0
 26
0.0
 36
0.0
 17
0.0
 27
1.0
 37
0.0
 76
     0
330
96A4
331
98A1
  0
LAYOUT
  5
98F9
102
{ACAD_XDICTIONARY
360
9956
102
}
102
{ACAD_REACTORS
330
969F
102
}
330
969F
100
AcDbPlotSettings
  1

  2
Canon LBP9100C
  4

  6

 40
0.0
 41
0.0
 42
0.0
 43
0.0
 44
0.0
 45
0.0
 46
0.0
 47
0.0
 48
0.0
 49
0.0
140
0.0
141
0.0
142
1.0
143
1.0
 70
   688
 72
     0
 73
     0
 74
     5
  7

 75
    16
147
1.0
148
0.0
149
0.0
100
AcDbLayout
  1
レイアウト1
 70
     0
 71
     1
 10
0.0
 20
0.0
 11
420.0
 21
297.0
 12
0.0
 22
0.0
 32
0.0
 14
1.000000000000000E+20
 24
1.000000000000000E+20
 34
1.000000000000000E+20
 15
-1.000000000000000E+20
 25
-1.000000000000000E+20
 35
-1.000000000000000E+20
146
0.0
 13
0.0
 23
0.0
 33
0.0
 16
1.0
 26
0.0
 36
0.0
 17
0.0
 27
1.0
 37
0.0
 76
     0
330
96A0
  0
MATERIAL
  5
98B4
102
{ACAD_XDICTIONARY
360
98B5
102
}
102
{ACAD_REACTORS
330
98AB
102
}
330
98AB
100
AcDbMaterial
  1
ByBlock
 72
     0
 43
0.0208333333333333
 43
0.0
 43
0.0
 43
0.0
 43
0.0
 43
0.0208333333333333
 43
0.0
 43
0.0
 43
0.0
 43
0.0
 43
1.0
 43
0.0
 43
0.0
 43
0.0
 43
0.0
 43
1.0
 77
     0
 47
0.0208333333333333
 47
0.0
 47
0.0
 47
0.0
 47
0.0
 47
0.0208333333333333
 47
0.0
 47
0.0
 47
0.0
 47
0.0
 47
1.0
 47
0.0
 47
0.0
 47
0.0
 47
0.0
 47
1.0
171
     0
 49
0.0208333333333333
 49
0.0
 49
0.0
 49
0.0
 49
0.0
 49
0.0208333333333333
 49
0.0
 49
0.0
 49
0.0
 49
0.0
 49
1.0
 49
0.0
 49
0.0
 49
0.0
 49
0.0
 49
1.0
175
     0
142
0.0208333333333333
142
0.0
142
0.0
142
0.0
142
0.0
142
0.0208333333333333
142
0.0
142
0.0
142
0.0
142
0.0
142
1.0
142
0.0
142
0.0
142
0.0
142
0.0
142
1.0
179
     0
144
0.0208333333333333
144
0.0
144
0.0
144
0.0
144
0.0
144
0.0208333333333333
144
0.0
144
0.0
144
0.0
144
0.0
144
1.0
144
0.0
144
0.0
144
0.0
144
0.0
144
1.0
147
0.0208333333333333
147
0.0
147
0.0
147
0.0
147
0.0
147
0.0208333333333333
147
0.0
147
0.0
147
0.0
147
0.0
147
1.0
147
0.0
147
0.0
147
0.0
147
0.0
147
1.0
  0
MATERIAL
  5
98AC
102
{ACAD_XDICTIONARY
360
98AD
102
}
102
{ACAD_REACTORS
330
98AB
102
}
330
98AB
100
AcDbMaterial
  1
ByLayer
 72
     0
 43
0.0208333333333333
 43
0.0
 43
0.0
 43
0.0
 43
0.0
 43
0.0208333333333333
 43
0.0
 43
0.0
 43
0.0
 43
0.0
 43
1.0
 43
0.0
 43
0.0
 43
0.0
 43
0.0
 43
1.0
 77
     0
 47
0.0208333333333333
 47
0.0
 47
0.0
 47
0.0
 47
0.0
 47
0.0208333333333333
 47
0.0
 47
0.0
 47
0.0
 47
0.0
 47
1.0
 47
0.0
 47
0.0
 47
0.0
 47
0.0
 47
1.0
171
     0
 49
0.0208333333333333
 49
0.0
 49
0.0
 49
0.0
 49
0.0
 49
0.0208333333333333
 49
0.0
 49
0.0
 49
0.0
 49
0.0
 49
1.0
 49
0.0
 49
0.0
 49
0.0
 49
0.0
 49
1.0
175
     0
142
0.0208333333333333
142
0.0
142
0.0
142
0.0
142
0.0
142
0.0208333333333333
142
0.0
142
0.0
142
0.0
142
0.0
142
1.0
142
0.0
142
0.0
142
0.0
142
0.0
142
1.0
179
     0
144
0.0208333333333333
144
0.0
144
0.0
144
0.0
144
0.0
144
0.0208333333333333
144
0.0
144
0.0
144
0.0
144
0.0
144
1.0
144
0.0
144
0.0
144
0.0
144
0.0
144
1.0
147
0.0208333333333333
147
0.0
147
0.0
147
0.0
147
0.0
147
0.0208333333333333
147
0.0
147
0.0
147
0.0
147
0.0
147
1.0
147
0.0
147
0.0
147
0.0
147
0.0
147
1.0
  0
MATERIAL
  5
98BC
102
{ACAD_XDICTIONARY
360
98BD
102
}
102
{ACAD_REACTORS
330
98AB
102
}
330
98AB
100
AcDbMaterial
  1
Global
 72
     0
 43
0.0208333333333333
 43
0.0
 43
0.0
 43
0.0
 43
0.0
 43
0.0208333333333333
 43
0.0
 43
0.0
 43
0.0
 43
0.0
 43
1.0
 43
0.0
 43
0.0
 43
0.0
 43
0.0
 43
1.0
 77
     0
 47
0.0208333333333333
 47
0.0
 47
0.0
 47
0.0
 47
0.0
 47
0.0208333333333333
 47
0.0
 47
0.0
 47
0.0
 47
0.0
 47
1.0
 47
0.0
 47
0.0
 47
0.0
 47
0.0
 47
1.0
171
     0
 49
0.0208333333333333
 49
0.0
 49
0.0
 49
0.0
 49
0.0
 49
0.0208333333333333
 49
0.0
 49
0.0
 49
0.0
 49
0.0
 49
1.0
 49
0.0
 49
0.0
 49
0.0
 49
0.0
 49
1.0
175
     0
142
0.0208333333333333
142
0.0
142
0.0
142
0.0
142
0.0
142
0.0208333333333333
142
0.0
142
0.0
142
0.0
142
0.0
142
1.0
142
0.0
142
0.0
142
0.0
142
0.0
142
1.0
179
     0
144
0.0208333333333333
144
0.0
144
0.0
144
0.0
144
0.0
144
0.0208333333333333
144
0.0
144
0.0
144
0.0
144
0.0
144
1.0
144
0.0
144
0.0
144
0.0
144
0.0
144
1.0
147
0.0208333333333333
147
0.0
147
0.0
147
0.0
147
0.0
147
0.0208333333333333
147
0.0
147
0.0
147
0.0
147
0.0
147
1.0
147
0.0
147
0.0
147
0.0
147
0.0
147
1.0
  0
MLEADERSTYLE
  5
98F3
102
{ACAD_REACTORS
330
98F2
102
}
330
98F2
100
AcDbMLeaderStyle
170
     2
171
     1
172
     0
 90
        2
 40
0.0
 41
0.0
173
     1
 91
-1056964608
340
9699
 92
       -2
290
     1
 42
0.09
291
     1
 43
0.36
  3
Standard
 44
0.18
300

342
9697
174
     1
178
     6
175
     1
176
     0
 93
-1056964608
 45
0.18
292
     0
297
     0
 46
0.18
 94
-1056964608
 47
1.0
 49
1.0
140
1.0
293
     1
141
0.0
294
     1
177
     0
142
1.0
295
     0
296
     0
143
0.125
1001
ACAD_MLEADERVER
1070
     2
  0
MLINESTYLE
  5
969D
102
{ACAD_REACTORS
330
969C
102
}
330
969C
100
AcDbMlineStyle
  2
STANDARD
 70
     0
  3

 62
   256
 51
90.0
 52
90.0
 71
     2
 49
0.5
 62
   256
  6
BYLAYER
 49
-0.5
 62
   256
  6
BYLAYER
  0
ACDBPLACEHOLDER
  5
98AA
102
{ACAD_REACTORS
330
98A9
102
}
330
98A9
  0
SCALE
  5
98E1
102
{ACAD_REACTORS
330
98E0
102
}
330
98E0
100
AcDbScale
 70
     0
300
1:1
140
1.0
141
1.0
290
     1
  0
SCALE
  5
98E2
102
{ACAD_REACTORS
330
98E0
102
}
330
98E0
100
AcDbScale
 70
     0
300
1/128" = 1'-0"
140
0.0078125
141
12.0
290
     0
  0
SCALE
  5
98E3
102
{ACAD_REACTORS
330
98E0
102
}
330
98E0
100
AcDbScale
 70
     0
300
1/64" = 1'-0"
140
0.015625
141
12.0
290
     0
  0
SCALE
  5
98E4
102
{ACAD_REACTORS
330
98E0
102
}
330
98E0
100
AcDbScale
 70
     0
300
1/32" = 1'-0"
140
0.03125
141
12.0
290
     0
  0
SCALE
  5
98E5
102
{ACAD_REACTORS
330
98E0
102
}
330
98E0
100
AcDbScale
 70
     0
300
1/16" = 1'-0"
140
0.0625
141
12.0
290
     0
  0
SCALE
  5
98E6
102
{ACAD_REACTORS
330
98E0
102
}
330
98E0
100
AcDbScale
 70
     0
300
3/32" = 1'-0"
140
0.09375
141
12.0
290
     0
  0
SCALE
  5
98E7
102
{ACAD_REACTORS
330
98E0
102
}
330
98E0
100
AcDbScale
 70
     0
300
1/8" = 1'-0"
140
0.125
141
12.0
290
     0
  0
SCALE
  5
98E8
102
{ACAD_REACTORS
330
98E0
102
}
330
98E0
100
AcDbScale
 70
     0
300
3/16" = 1'-0"
140
0.1875
141
12.0
290
     0
  0
SCALE
  5
98E9
102
{ACAD_REACTORS
330
98E0
102
}
330
98E0
100
AcDbScale
 70
     0
300
1/4" = 1'-0"
140
0.25
141
12.0
290
     0
  0
SCALE
  5
98EA
102
{ACAD_REACTORS
330
98E0
102
}
330
98E0
100
AcDbScale
 70
     0
300
3/8" = 1'-0"
140
0.375
141
12.0
290
     0
  0
SCALE
  5
98EB
102
{ACAD_REACTORS
330
98E0
102
}
330
98E0
100
AcDbScale
 70
     0
300
1/2" = 1'-0"
140
0.5
141
12.0
290
     0
  0
SCALE
  5
98EC
102
{ACAD_REACTORS
330
98E0
102
}
330
98E0
100
AcDbScale
 70
     0
300
3/4" = 1'-0"
140
0.75
141
12.0
290
     0
  0
SCALE
  5
98ED
102
{ACAD_REACTORS
330
98E0
102
}
330
98E0
100
AcDbScale
 70
     0
300
1" = 1'-0"
140
1.0
141
12.0
290
     0
  0
SCALE
  5
98EE
102
{ACAD_REACTORS
330
98E0
102
}
330
98E0
100
AcDbScale
 70
     0
300
1-1/2" = 1'-0"
140
1.5
141
12.0
290
     0
  0
SCALE
  5
98EF
102
{ACAD_REACTORS
330
98E0
102
}
330
98E0
100
AcDbScale
 70
     0
300
3" = 1'-0"
140
3.0
141
12.0
290
     0
  0
SCALE
  5
98F0
102
{ACAD_REACTORS
330
98E0
102
}
330
98E0
100
AcDbScale
 70
     0
300
6" = 1'-0"
140
6.0
141
12.0
290
     0
  0
SCALE
  5
98F1
102
{ACAD_REACTORS
330
98E0
102
}
330
98E0
100
AcDbScale
 70
     0
300
1'-0" = 1'-0"
140
12.0
141
12.0
290
     0
  0
ACDBSECTIONVIEWSTYLE
  5
98F5
102
{ACAD_XDICTIONARY
360
9950
102
}
102
{ACAD_REACTORS
330
98F4
102
}
330
98F4
100
AcDbModelDocViewStyle
 70
     0
  3
Imperial24
290
     0
100
AcDbSectionViewStyle
 70
     0
 71
     0
 90
       78
 71
     1
340
9697
 40
0.24
340
0
340
0
 40
0.24
300
I, O, Q, S, X, Z
 40
0.48
 90
        3
 40
0.18
 90
        1
 71
     2
340
969B
 90
       25
340
969B
 90
       50
 40
0.24
 40
0.0
 40
0.24
 71
     3
340
9697
 40
0.24
 90
        1
 40
0.75
 90
        1
300
%<\AcVar ViewType \f "%tc1">% %<\AcVar ViewSectionStartId>%-%<\AcVar ViewSectionEndId>%\PSCALE %<\AcVar ViewScale \f "%sn">%
 71
     4
300
ANSI31
 40
1.0
 90
        0
290
     0
290
     0
 90
        6
 40
0.0
 40
1.570796326794896
 40
0.2617993877991494
 40
1.308996938995747
 40
-0.2617993877991494
 40
1.832595714594046
  0
TABLESTYLE
  5
98DF
102
{ACAD_XDICTIONARY
360
9917
102
}
102
{ACAD_REACTORS
330
98DE
102
}
330
98DE
100
AcDbTableStyle
  3
Standard
 70
     0
 71
     0
 40
0.06
 41
0.06
280
     0
281
     0
  7
STANDARD
140
0.18
170
     2
 62
     0
 63
     7
283
     0
274
    -2
284
     1
 64
     0
275
    -2
285
     1
 65
     0
276
    -2
286
     1
 66
     0
277
    -2
287
     1
 67
     0
278
    -2
288
     1
 68
     0
279
    -2
289
     1
 69
     0
  7
STANDARD
140
0.25
170
     5
 62
     0
 63
     7
283
     0
274
    -2
284
     1
 64
     0
275
    -2
285
     1
 65
     0
276
    -2
286
     1
 66
     0
277
    -2
287
     1
 67
     0
278
    -2
288
     1
 68
     0
279
    -2
289
     1
 69
     0
  7
STANDARD
140
0.18
170
     5
 62
     0
 63
     7
283
     0
274
    -2
284
     1
 64
     0
275
    -2
285
     1
 65
     0
276
    -2
286
     1
 66
     0
277
    -2
287
     1
 67
     0
278
    -2
288
     1
 68
     0
279
    -2
289
     1
 69
     0
  0
VISUALSTYLE
  5
98CA
102
{ACAD_XDICTIONARY
360
9928
102
}
102
{ACAD_REACTORS
330
98C4
102
}
330
98C4
100
AcDbVisualStyle
  2
2dWireframe
 70
     4
 71
     0
 72
     2
 73
     0
 90
        0
 40
-0.6
 41
-30.0
 62
     5
 63
     7
 74
     1
 91
        4
 64
     7
 65
   257
 75
     1
175
     1
 42
1.0
 92
        0
 66
   257
 43
1.0
 76
     1
 77
     6
 78
     2
 67
     7
 79
     5
170
     0
171
     0
290
     0
174
     0
 93
        1
 44
0.0
173
     0
291
     0
 45
0.0
1001
ACAD
1000
AcDbSavedByObjectVersion
1070
     0
  0
VISUALSTYLE
  5
98C9
102
{ACAD_XDICTIONARY
360
9926
102
}
102
{ACAD_REACTORS
330
98C4
102
}
330
98C4
100
AcDbVisualStyle
  2
Basic
 70
     7
 71
     1
 72
     0
 73
     1
 90
        0
 40
-0.6
 41
-30.0
 62
     5
 63
     7
 74
     0
 91
        4
 64
     7
 65
   257
 75
     1
175
     1
 42
1.0
 92
        8
 66
     7
 43
1.0
 76
     1
 77
     6
 78
     2
 67
     7
 79
     5
170
     0
171
     0
290
     0
174
     0
 93
        1
 44
0.0
173
     0
291
     1
 45
0.0
1001
ACAD
1000
AcDbSavedByObjectVersion
1070
     0
  0
VISUALSTYLE
  5
98D0
102
{ACAD_XDICTIONARY
360
9934
102
}
102
{ACAD_REACTORS
330
98C4
102
}
330
98C4
100
AcDbVisualStyle
  2
Brighten
 70
    12
 71
     2
 72
     2
 73
     0
 90
        0
 40
-0.6
 41
-30.0
 62
     5
 63
     7
 74
     1
 91
        4
 64
     7
 65
   257
 75
     1
175
     1
 42
1.0
 92
        8
 66
     7
 43
1.0
 76
     1
 77
     6
 78
     2
 67
     7
 79
     5
170
     0
171
     0
290
     0
174
     0
 93
        1
 44
50.0
173
     0
291
     1
 45
0.0
1001
ACAD
1000
AcDbSavedByObjectVersion
1070
     0
  0
VISUALSTYLE
  5
98D4
102
{ACAD_XDICTIONARY
360
993C
102
}
102
{ACAD_REACTORS
330
98C4
102
}
330
98C4
100
AcDbVisualStyle
  2
ColorChange
 70
    16
 71
     2
 72
     2
 73
     3
 90
        0
 40
-0.6
 41
-30.0
 62
     5
 63
     8
 74
     1
 91
        4
 64
     7
 65
   257
 75
     1
175
     1
 42
1.0
 92
        8
 66
     8
 43
1.0
 76
     1
 77
     6
 78
     2
 67
     7
 79
     5
170
     0
171
     0
290
     0
174
     0
 93
        1
 44
0.0
173
     0
291
     1
 45
0.0
1001
ACAD
1000
AcDbSavedByObjectVersion
1070
     0
  0
VISUALSTYLE
  5
98CD
102
{ACAD_XDICTIONARY
360
992E
102
}
102
{ACAD_REACTORS
330
98C4
102
}
330
98C4
100
AcDbVisualStyle
  2
Conceptual
 70
     9
 71
     3
 72
     2
 73
     0
 90
        0
 40
-0.6
 41
-30.0
 62
     5
 63
     7
 74
     2
 91
        2
 64
     7
 65
   257
 75
     1
175
     1
 42
179.0
 92
        8
 66
     7
 43
1.0
 76
     1
 77
     6
 78
     2
 67
     7
 79
     3
170
     0
171
     0
290
     0
174
     0
 93
        1
 44
0.0
173
     0
291
     0
 45
0.0
1001
ACAD
1000
AcDbSavedByObjectVersion
1070
     0
  0
VISUALSTYLE
  5
98CF
102
{ACAD_XDICTIONARY
360
9932
102
}
102
{ACAD_REACTORS
330
98C4
102
}
330
98C4
100
AcDbVisualStyle
  2
Dim
 70
    11
 71
     2
 72
     2
 73
     0
 90
        0
 40
-0.6
 41
-30.0
 62
     5
 63
     7
 74
     1
 91
        4
 64
     7
 65
   257
 75
     1
175
     1
 42
1.0
 92
        8
 66
     7
 43
1.0
 76
     1
 77
     6
 78
     2
 67
     7
 79
     5
170
     0
171
     0
290
     0
174
     0
 93
        1
 44
-50.0
173
     0
291
     1
 45
0.0
1001
ACAD
1000
AcDbSavedByObjectVersion
1070
     0
  0
VISUALSTYLE
  5
98DC
102
{ACAD_XDICTIONARY
360
994C
102
}
102
{ACAD_REACTORS
330
98C4
102
}
330
98C4
100
AcDbVisualStyle
  2
EdgeColorOff
 70
    22
 71
     2
 72
     2
 73
     0
 90
        0
 40
-0.6
 41
-30.0
 62
     5
 63
     7
 74
     1
 91
        4
 64
     7
 65
   257
 75
     1
175
     1
 42
1.0
 92
        8
 66
     7
 43
1.0
 76
     1
 77
     6
 78
     2
 67
     7
 79
     5
170
     0
171
     0
290
     0
174
     0
 93
        1
 44
0.0
173
     0
291
     1
 45
0.0
1001
ACAD
1000
AcDbSavedByObjectVersion
1070
     0
  0
VISUALSTYLE
  5
98D3
102
{ACAD_XDICTIONARY
360
993A
102
}
102
{ACAD_REACTORS
330
98C4
102
}
330
98C4
100
AcDbVisualStyle
  2
Facepattern
 70
    15
 71
     2
 72
     2
 73
     0
 90
        0
 40
-0.6
 41
-30.0
 62
     5
 63
     7
 74
     1
 91
        4
 64
     7
 65
   257
 75
     1
175
     1
 42
1.0
 92
        8
 66
     7
 43
1.0
 76
     1
 77
     6
 78
     2
 67
     7
 79
     5
170
     0
171
     0
290
     0
174
     0
 93
        1
 44
0.0
173
     0
291
     1
 45
0.0
1001
ACAD
1000
AcDbSavedByObjectVersion
1070
     0
  0
VISUALSTYLE
  5
98C5
102
{ACAD_XDICTIONARY
360
991E
102
}
102
{ACAD_REACTORS
330
98C4
102
}
330
98C4
100
AcDbVisualStyle
  2
Flat
 70
     0
 71
     2
 72
     1
 73
     1
 90
        2
 40
-0.6
 41
30.0
 62
     5
 63
     7
 74
     0
 91
        0
 64
     7
 65
   257
 75
     1
175
     1
 42
1.0
 92
        8
 66
     7
 43
1.0
 76
     1
 77
     6
 78
     2
 67
     7
 79
     5
170
     0
171
     0
290
     0
174
     0
 93
       13
 44
0.0
173
     0
291
     1
 45
0.0
1001
ACAD
1000
AcDbSavedByObjectVersion
1070
     0
  0
VISUALSTYLE
  5
98C6
102
{ACAD_XDICTIONARY
360
9920
102
}
102
{ACAD_REACTORS
330
98C4
102
}
330
98C4
100
AcDbVisualStyle
  2
FlatWithEdges
 70
     1
 71
     2
 72
     1
 73
     1
 90
        2
 40
-0.6
 41
30.0
 62
     5
 63
     7
 74
     1
 91
        0
 64
     7
 65
   257
 75
     1
175
     1
 42
1.0
 92
        0
 66
   257
 43
1.0
 76
     1
 77
     6
 78
     2
 67
     7
 79
     5
170
     0
171
     0
290
     0
174
     0
 93
       13
 44
0.0
173
     0
291
     1
 45
0.0
1001
ACAD
1000
AcDbSavedByObjectVersion
1070
     0
  0
VISUALSTYLE
  5
98C7
102
{ACAD_XDICTIONARY
360
9922
102
}
102
{ACAD_REACTORS
330
98C4
102
}
330
98C4
100
AcDbVisualStyle
  2
Gouraud
 70
     2
 71
     2
 72
     2
 73
     1
 90
        2
 40
-0.6
 41
30.0
 62
     5
 63
     7
 74
     0
 91
        0
 64
     7
 65
   257
 75
     1
175
     1
 42
1.0
 92
        0
 66
     7
 43
1.0
 76
     1
 77
     6
 78
     2
 67
     7
 79
     5
170
     0
171
     0
290
     0
174
     0
 93
       13
 44
0.0
173
     0
291
     1
 45
0.0
1001
ACAD
1000
AcDbSavedByObjectVersion
1070
     0
  0
VISUALSTYLE
  5
98C8
102
{ACAD_XDICTIONARY
360
9924
102
}
102
{ACAD_REACTORS
330
98C4
102
}
330
98C4
100
AcDbVisualStyle
  2
GouraudWithEdges
 70
     3
 71
     2
 72
     2
 73
     1
 90
        2
 40
-0.6
 41
30.0
 62
     5
 63
     7
 74
     1
 91
        0
 64
     7
 65
   257
 75
     1
175
     1
 42
1.0
 92
        0
 66
   257
 43
1.0
 76
     1
 77
     6
 78
     2
 67
     7
 79
     5
170
     0
171
     0
290
     0
174
     0
 93
       13
 44
0.0
173
     0
291
     1
 45
0.0
1001
ACAD
1000
AcDbSavedByObjectVersion
1070
     0
  0
VISUALSTYLE
  5
98CC
102
{ACAD_XDICTIONARY
360
992C
102
}
102
{ACAD_REACTORS
330
98C4
102
}
330
98C4
100
AcDbVisualStyle
  2
Hidden
 70
     6
 71
     1
 72
     2
 73
     2
 90
        0
 40
-0.6
 41
-30.0
 62
     5
 63
     7
 74
     2
 91
        2
 64
     7
 65
   257
 75
     2
175
     1
 42
40.0
 92
        0
 66
   257
 43
1.0
 76
     1
 77
     6
 78
     2
 67
     7
 79
     3
170
     0
171
     0
290
     0
174
     0
 93
        1
 44
0.0
173
     0
291
     0
 45
0.0
1001
ACAD
1000
AcDbSavedByObjectVersion
1070
     0
  0
VISUALSTYLE
  5
98DA
102
{ACAD_XDICTIONARY
360
9948
102
}
102
{ACAD_REACTORS
330
98C4
102
}
330
98C4
100
AcDbVisualStyle
  2
JitterOff
 70
    20
 71
     2
 72
     2
 73
     0
 90
        0
 40
-0.6
 41
-30.0
 62
     5
 63
     7
 74
     1
 91
        4
 64
     7
 65
   257
 75
     1
175
     1
 42
1.0
 92
       10
 66
     7
 43
1.0
 76
     1
 77
     6
 78
     2
 67
     7
 79
     5
170
     0
171
     0
290
     0
174
     0
 93
        1
 44
0.0
173
     0
291
     1
 45
0.0
1001
ACAD
1000
AcDbSavedByObjectVersion
1070
     0
  0
VISUALSTYLE
  5
98D2
102
{ACAD_XDICTIONARY
360
9938
102
}
102
{ACAD_REACTORS
330
98C4
102
}
330
98C4
100
AcDbVisualStyle
  2
Linepattern
 70
    14
 71
     2
 72
     2
 73
     0
 90
        0
 40
-0.6
 41
-30.0
 62
     5
 63
     7
 74
     1
 91
        4
 64
     7
 65
   257
 75
     7
175
     7
 42
1.0
 92
        8
 66
     7
 43
1.0
 76
     1
 77
     6
 78
     2
 67
     7
 79
     5
170
     0
171
     0
290
     0
174
     0
 93
        1
 44
0.0
173
     0
291
     1
 45
0.0
1001
ACAD
1000
AcDbSavedByObjectVersion
1070
     0
  0
VISUALSTYLE
  5
98DB
102
{ACAD_XDICTIONARY
360
994A
102
}
102
{ACAD_REACTORS
330
98C4
102
}
330
98C4
100
AcDbVisualStyle
  2
OverhangOff
 70
    21
 71
     2
 72
     2
 73
     0
 90
        0
 40
-0.6
 41
-30.0
 62
     5
 63
     7
 74
     1
 91
        4
 64
     7
 65
   257
 75
     1
175
     1
 42
1.0
 92
        9
 66
     7
 43
1.0
 76
     1
 77
     6
 78
     2
 67
     7
 79
     5
170
     0
171
     0
290
     0
174
     0
 93
        1
 44
0.0
173
     0
291
     1
 45
0.0
1001
ACAD
1000
AcDbSavedByObjectVersion
1070
     0
  0
VISUALSTYLE
  5
98CE
102
{ACAD_XDICTIONARY
360
9930
102
}
102
{ACAD_REACTORS
330
98C4
102
}
330
98C4
100
AcDbVisualStyle
  2
Realistic
 70
     8
 71
     2
 72
     3
 73
     0
 90
        2
 40
-0.6
 41
30.0
 62
     5
 63
     7
 74
     0
 91
        0
 64
     7
 65
   257
 75
     1
175
     1
 42
1.0
 92
        8
 66
   257
 43
1.0
 76
     1
 77
     6
 78
     2
 67
     7
 79
     3
170
     0
171
     0
290
     0
174
     0
 93
       13
 44
0.0
173
     0
291
     0
 45
0.0
1001
ACAD
1000
AcDbSavedByObjectVersion
1070
     0
  0
VISUALSTYLE
  5
98D9
102
{ACAD_XDICTIONARY
360
9946
102
}
102
{ACAD_REACTORS
330
98C4
102
}
330
98C4
100
AcDbVisualStyle
  2
Shaded
 70
    27
 71
     2
 72
     2
 73
     1
 90
        2
 40
-0.6
 41
30.0
 62
     5
 63
     7
 74
     0
 91
        4
 64
     7
 65
   257
 75
     1
175
     1
 42
1.0
 92
        8
 66
   257
 43
1.0
 76
     1
 77
     6
 78
     2
 67
     8
 79
     3
170
     0
171
     0
290
     0
174
     0
 93
        5
 44
0.0
173
     0
291
     0
 45
0.0
1001
ACAD
1000
AcDbSavedByObjectVersion
1070
     0
  0
VISUALSTYLE
  5
98D8
102
{ACAD_XDICTIONARY
360
9944
102
}
102
{ACAD_REACTORS
330
98C4
102
}
330
98C4
100
AcDbVisualStyle
  2
Shaded with edges
 70
    26
 71
     2
 72
     2
 73
     1
 90
        2
 40
-0.6
 41
30.0
 62
     5
 63
     7
 74
     1
 91
       10
 64
     7
 65
   257
 75
     2
175
     1
 42
1.0
 92
        8
 66
   257
 43
1.0
 76
     1
 77
     6
 78
     2
 67
     7
 79
     3
170
     0
171
     0
290
     0
174
     0
 93
        5
 44
0.0
173
     0
291
     0
 45
0.0
1001
ACAD
1000
AcDbSavedByObjectVersion
1070
     0
  0
VISUALSTYLE
  5
98D5
102
{ACAD_XDICTIONARY
360
993E
102
}
102
{ACAD_REACTORS
330
98C4
102
}
330
98C4
100
AcDbVisualStyle
  2
Shades of Gray
 70
    23
 71
     2
 72
     2
 73
     3
 90
        0
 40
-0.6
 41
-30.0
 62
     5
 63
     7
 74
     2
 91
        2
 64
     7
 65
     7
 75
     1
175
     1
 42
40.0
 92
        8
 66
     7
 43
1.0
 76
     1
 77
     6
 78
     2
 67
     7
 79
     3
170
     0
171
     0
290
     0
174
     0
 93
        1
 44
0.0
173
     0
291
     0
 45
0.0
1001
ACAD
1000
AcDbSavedByObjectVersion
1070
     0
  0
VISUALSTYLE
  5
98D6
102
{ACAD_XDICTIONARY
360
9940
102
}
102
{ACAD_REACTORS
330
98C4
102
}
330
98C4
100
AcDbVisualStyle
  2
Sketchy
 70
    24
 71
     1
 72
     2
 73
     2
 90
        0
 40
-0.6
 41
-30.0
 62
     5
 63
     7
 74
     2
 91
        2
 64
     7
 65
     7
 75
     1
175
     1
 42
40.0
 92
       11
 66
     7
 43
1.0
 76
     1
 77
     6
 78
     2
 67
     7
 79
     6
170
     0
171
     0
290
     0
174
     0
 93
        1
 44
0.0
173
     0
291
     0
 45
0.0
1001
ACAD
1000
AcDbSavedByObjectVersion
1070
     0
  0
VISUALSTYLE
  5
98D1
102
{ACAD_XDICTIONARY
360
9936
102
}
102
{ACAD_REACTORS
330
98C4
102
}
330
98C4
100
AcDbVisualStyle
  2
Thicken
 70
    13
 71
     2
 72
     2
 73
     0
 90
        0
 40
-0.6
 41
-30.0
 62
     5
 63
     7
 74
     1
 91
        4
 64
     7
 65
   257
 75
     1
175
     1
 42
1.0
 92
       12
 66
     7
 43
1.0
 76
     1
 77
     6
 78
     2
 67
     7
 79
     5
170
     0
171
     0
290
     0
174
     0
 93
        1
 44
0.0
173
     0
291
     1
 45
0.0
1001
ACAD
1000
AcDbSavedByObjectVersion
1070
     0
  0
VISUALSTYLE
  5
98CB
102
{ACAD_XDICTIONARY
360
992A
102
}
102
{ACAD_REACTORS
330
98C4
102
}
330
98C4
100
AcDbVisualStyle
  2
Wireframe
 70
     5
 71
     0
 72
     2
 73
     0
 90
        0
 40
-0.6
 41
-30.0
 62
     5
 63
     7
 74
     1
 91
        4
 64
     7
 65
   257
 75
     1
175
     1
 42
1.0
 92
        0
 66
   257
 43
1.0
 76
     1
 77
     6
 78
     2
 67
     7
 79
     3
170
     0
171
     0
290
     0
174
     0
 93
        1
 44
0.0
173
     0
291
     0
 45
0.0
1001
ACAD
1000
AcDbSavedByObjectVersion
1070
     0
  0
VISUALSTYLE
  5
98D7
102
{ACAD_XDICTIONARY
360
9942
102
}
102
{ACAD_REACTORS
330
98C4
102
}
330
98C4
100
AcDbVisualStyle
  2
X-Ray
 70
    25
 71
     2
 72
     2
 73
     1
 90
        1
 40
0.5
 41
-30.0
 62
     5
 63
     7
 74
     1
 91
        0
 64
     7
 65
   257
 75
     1
175
     1
 42
1.0
 92
        8
 66
     7
 43
1.0
 76
     1
 77
     6
 78
     2
 67
     7
 79
     3
170
     0
171
     0
290
     0
174
     0
 93
       13
 44
0.0
173
     0
291
     0
 45
0.0
1001
ACAD
1000
AcDbSavedByObjectVersion
1070
     0
  0
DICTIONARYVAR
  5
9911
102
{ACAD_REACTORS
330
990C
102
}
330
990C
100
DictionaryVariables
280
     0
  1
1:1
  0
DICTIONARYVAR
  5
990E
102
{ACAD_REACTORS
330
990C
102
}
330
990C
100
DictionaryVariables
280
     0
  1
STANDARD
  0
DICTIONARYVAR
  5
990D
102
{ACAD_REACTORS
330
990C
102
}
330
990C
100
DictionaryVariables
280
     0
  1
STANDARD
  0
DICTIONARYVAR
  5
990F
102
{ACAD_REACTORS
330
990C
102
}
330
990C
100
DictionaryVariables
280
     0
  1
Imperial24
  0
DICTIONARYVAR
  5
9910
102
{ACAD_REACTORS
330
990C
102
}
330
990C
100
DictionaryVariables
280
     0
  1
Imperial24
  0
DICTIONARYVAR
  5
9914
102
{ACAD_REACTORS
330
990C
102
}
330
990C
100
DictionaryVariables
280
     0
  1
1
  0
DICTIONARYVAR
  5
9913
102
{ACAD_REACTORS
330
990C
102
}
330
990C
100
DictionaryVariables
280
     0
  1
0
  0
DICTIONARYVAR
  5
9912
102
{ACAD_REACTORS
330
990C
102
}
330
990C
100
DictionaryVariables
280
     0
  1
127
  0
DICTIONARYVAR
  5
9915
102
{ACAD_REACTORS
330
990C
102
}
330
990C
100
DictionaryVariables
280
     0
  1
2
  0
DICTIONARY
  5
9952
330
98F7
100
AcDbDictionary
280
     1
281
     1
  3
ACAD_XREC_ROUNDTRIP
360
9953
  0
DICTIONARY
  5
9954
330
98F8
100
AcDbDictionary
280
     1
281
     1
  3
ACAD_XREC_ROUNDTRIP
360
9955
  0
DICTIONARY
  5
9956
330
98F9
100
AcDbDictionary
280
     1
281
     1
  3
ACAD_XREC_ROUNDTRIP
360
9957
  0
DICTIONARY
  5
98B5
330
98B4
100
AcDbDictionary
280
     1
281
     1
  3
ACAD_XREC_ROUNDTRIP
360
991C
  3
BUMPTILE
360
98B7
  3
DIFFUSETILE
360
98B6
  3
OPACITYTILE
360
98BA
  3
REFLECTIONTILE
360
98B9
  3
REFRACTIONTILE
360
98BB
  3
SPECULARTILE
360
98B8
  0
DICTIONARY
  5
98AD
330
98AC
100
AcDbDictionary
280
     1
281
     1
  3
ACAD_XREC_ROUNDTRIP
360
991B
  3
BUMPTILE
360
98AF
  3
DIFFUSETILE
360
98AE
  3
OPACITYTILE
360
98B2
  3
REFLECTIONTILE
360
98B1
  3
REFRACTIONTILE
360
98B3
  3
SPECULARTILE
360
98B0
  0
DICTIONARY
  5
98BD
330
98BC
100
AcDbDictionary
280
     1
281
     1
  3
ACAD_XREC_ROUNDTRIP
360
991D
  3
BUMPTILE
360
98BF
  3
DIFFUSETILE
360
98BE
  3
OPACITYTILE
360
98C2
  3
REFLECTIONTILE
360
98C1
  3
REFRACTIONTILE
360
98C3
  3
SPECULARTILE
360
98C0
  0
DICTIONARY
  5
9950
330
98F5
100
AcDbDictionary
280
     1
281
     1
  3
ACAD_XREC_ROUNDTRIP
360
9951
  0
DICTIONARY
  5
9917
330
98DF
100
AcDbDictionary
280
     1
281
     1
  3
ACAD_ROUNDTRIP_2008_TABLESTYLE_CELLSTYLEMAP
360
9918
  3
ACAD_XREC_ROUNDTRIP
360
994E
  0
DICTIONARY
  5
9928
330
98CA
100
AcDbDictionary
280
     1
281
     1
  3
ACAD_XREC_ROUNDTRIP
360
9929
  0
DICTIONARY
  5
9926
330
98C9
100
AcDbDictionary
280
     1
281
     1
  3
ACAD_XREC_ROUNDTRIP
360
9927
  0
DICTIONARY
  5
9934
330
98D0
100
AcDbDictionary
280
     1
281
     1
  3
ACAD_XREC_ROUNDTRIP
360
9935
  0
DICTIONARY
  5
993C
330
98D4
100
AcDbDictionary
280
     1
281
     1
  3
ACAD_XREC_ROUNDTRIP
360
993D
  0
DICTIONARY
  5
992E
330
98CD
100
AcDbDictionary
280
     1
281
     1
  3
ACAD_XREC_ROUNDTRIP
360
992F
  0
DICTIONARY
  5
9932
330
98CF
100
AcDbDictionary
280
     1
281
     1
  3
ACAD_XREC_ROUNDTRIP
360
9933
  0
DICTIONARY
  5
994C
330
98DC
100
AcDbDictionary
280
     1
281
     1
  3
ACAD_XREC_ROUNDTRIP
360
994D
  0
DICTIONARY
  5
993A
330
98D3
100
AcDbDictionary
280
     1
281
     1
  3
ACAD_XREC_ROUNDTRIP
360
993B
  0
DICTIONARY
  5
991E
330
98C5
100
AcDbDictionary
280
     1
281
     1
  3
ACAD_XREC_ROUNDTRIP
360
991F
  0
DICTIONARY
  5
9920
330
98C6
100
AcDbDictionary
280
     1
281
     1
  3
ACAD_XREC_ROUNDTRIP
360
9921
  0
DICTIONARY
  5
9922
330
98C7
100
AcDbDictionary
280
     1
281
     1
  3
ACAD_XREC_ROUNDTRIP
360
9923
  0
DICTIONARY
  5
9924
330
98C8
100
AcDbDictionary
280
     1
281
     1
  3
ACAD_XREC_ROUNDTRIP
360
9925
  0
DICTIONARY
  5
992C
330
98CC
100
AcDbDictionary
280
     1
281
     1
  3
ACAD_XREC_ROUNDTRIP
360
992D
  0
DICTIONARY
  5
9948
330
98DA
100
AcDbDictionary
280
     1
281
     1
  3
ACAD_XREC_ROUNDTRIP
360
9949
  0
DICTIONARY
  5
9938
330
98D2
100
AcDbDictionary
280
     1
281
     1
  3
ACAD_XREC_ROUNDTRIP
360
9939
  0
DICTIONARY
  5
994A
330
98DB
100
AcDbDictionary
280
     1
281
     1
  3
ACAD_XREC_ROUNDTRIP
360
994B
  0
DICTIONARY
  5
9930
330
98CE
100
AcDbDictionary
280
     1
281
     1
  3
ACAD_XREC_ROUNDTRIP
360
9931
  0
DICTIONARY
  5
9946
330
98D9
100
AcDbDictionary
280
     1
281
     1
  3
ACAD_XREC_ROUNDTRIP
360
9947
  0
DICTIONARY
  5
9944
330
98D8
100
AcDbDictionary
280
     1
281
     1
  3
ACAD_XREC_ROUNDTRIP
360
9945
  0
DICTIONARY
  5
993E
330
98D5
100
AcDbDictionary
280
     1
281
     1
  3
ACAD_XREC_ROUNDTRIP
360
993F
  0
DICTIONARY
  5
9940
330
98D6
100
AcDbDictionary
280
     1
281
     1
  3
ACAD_XREC_ROUNDTRIP
360
9941
  0
DICTIONARY
  5
9936
330
98D1
100
AcDbDictionary
280
     1
281
     1
  3
ACAD_XREC_ROUNDTRIP
360
9937
  0
DICTIONARY
  5
992A
330
98CB
100
AcDbDictionary
280
     1
281
     1
  3
ACAD_XREC_ROUNDTRIP
360
992B
  0
DICTIONARY
  5
9942
330
98D7
100
AcDbDictionary
280
     1
281
     1
  3
ACAD_XREC_ROUNDTRIP
360
9943
  0
XRECORD
  5
9953
102
{ACAD_REACTORS
330
9952
102
}
330
9952
100
AcDbXrecord
280
     1
102
DISPLAYNAME
  1
Imperial24
102
FLAGS
 90
        0
  0
XRECORD
  5
9955
102
{ACAD_REACTORS
330
9954
102
}
330
9954
100
AcDbXrecord
280
     1
102
SHADEPLOT
 70
     0
102
SHADEPLOTRESLEVEL
 70
     2
102
SHADEPLOTCUSTOMDPI
 70
   300
  0
XRECORD
  5
9957
102
{ACAD_REACTORS
330
9956
102
}
330
9956
100
AcDbXrecord
280
     1
102
SHADEPLOT
 70
     0
102
SHADEPLOTRESLEVEL
 70
     2
102
SHADEPLOTCUSTOMDPI
 70
   300
  0
XRECORD
  5
991C
102
{ACAD_REACTORS
330
98B5
102
}
330
98B5
100
AcDbXrecord
280
     1
102
MATERIAL
148
0.0
149
0.0
149
0.0
 93
        0
 94
      127
282
     0
 72
     0
 77
     0
171
     0
175
     0
179
     0
273
     0
  0
XRECORD
  5
98B7
102
{ACAD_REACTORS
330
98B5
102
}
330
98B5
100
AcDbXrecord
280
     1
270
     1
271
     1
  0
XRECORD
  5
98B6
102
{ACAD_REACTORS
330
98B5
102
}
330
98B5
100
AcDbXrecord
280
     1
270
     1
271
     1
  0
XRECORD
  5
98BA
102
{ACAD_REACTORS
330
98B5
102
}
330
98B5
100
AcDbXrecord
280
     1
270
     1
271
     1
  0
XRECORD
  5
98B9
102
{ACAD_REACTORS
330
98B5
102
}
330
98B5
100
AcDbXrecord
280
     1
270
     1
271
     1
  0
XRECORD
  5
98BB
102
{ACAD_REACTORS
330
98B5
102
}
330
98B5
100
AcDbXrecord
280
     1
270
     1
271
     1
  0
XRECORD
  5
98B8
102
{ACAD_REACTORS
330
98B5
102
}
330
98B5
100
AcDbXrecord
280
     1
270
     1
271
     1
  0
XRECORD
  5
991B
102
{ACAD_REACTORS
330
98AD
102
}
330
98AD
100
AcDbXrecord
280
     1
102
MATERIAL
148
0.0
149
0.0
149
0.0
 93
        0
 94
      127
282
     0
 72
     0
 77
     0
171
     0
175
     0
179
     0
273
     0
  0
XRECORD
  5
98AF
102
{ACAD_REACTORS
330
98AD
102
}
330
98AD
100
AcDbXrecord
280
     1
270
     1
271
     1
  0
XRECORD
  5
98AE
102
{ACAD_REACTORS
330
98AD
102
}
330
98AD
100
AcDbXrecord
280
     1
270
     1
271
     1
  0
XRECORD
  5
98B2
102
{ACAD_REACTORS
330
98AD
102
}
330
98AD
100
AcDbXrecord
280
     1
270
     1
271
     1
  0
XRECORD
  5
98B1
102
{ACAD_REACTORS
330
98AD
102
}
330
98AD
100
AcDbXrecord
280
     1
270
     1
271
     1
  0
XRECORD
  5
98B3
102
{ACAD_REACTORS
330
98AD
102
}
330
98AD
100
AcDbXrecord
280
     1
270
     1
271
     1
  0
XRECORD
  5
98B0
102
{ACAD_REACTORS
330
98AD
102
}
330
98AD
100
AcDbXrecord
280
     1
270
     1
271
     1
  0
XRECORD
  5
991D
102
{ACAD_REACTORS
330
98BD
102
}
330
98BD
100
AcDbXrecord
280
     1
102
MATERIAL
148
0.0
149
0.0
149
0.0
 93
        0
 94
      127
282
     0
 72
     0
 77
     0
171
     0
175
     0
179
     0
273
     0
  0
XRECORD
  5
98BF
102
{ACAD_REACTORS
330
98BD
102
}
330
98BD
100
AcDbXrecord
280
     1
270
     1
271
     1
  0
XRECORD
  5
98BE
102
{ACAD_REACTORS
330
98BD
102
}
330
98BD
100
AcDbXrecord
280
     1
270
     1
271
     1
  0
XRECORD
  5
98C2
102
{ACAD_REACTORS
330
98BD
102
}
330
98BD
100
AcDbXrecord
280
     1
270
     1
271
     1
  0
XRECORD
  5
98C1
102
{ACAD_REACTORS
330
98BD
102
}
330
98BD
100
AcDbXrecord
280
     1
270
     1
271
     1
  0
XRECORD
  5
98C3
102
{ACAD_REACTORS
330
98BD
102
}
330
98BD
100
AcDbXrecord
280
     1
270
     1
271
     1
  0
XRECORD
  5
98C0
102
{ACAD_REACTORS
330
98BD
102
}
330
98BD
100
AcDbXrecord
280
     1
270
     1
271
     1
  0
XRECORD
  5
9951
102
{ACAD_REACTORS
330
9950
102
}
330
9950
100
AcDbXrecord
280
     1
102
DISPLAYNAME
  1
Imperial24
102
FLAGS
 90
        0
  0
CELLSTYLEMAP
  5
9918
102
{ACAD_REACTORS
330
9917
102
}
330
9917
100
AcDbCellStyleMap
 90
        3
300
CELLSTYLE
  1
TABLEFORMAT_BEGIN
 90
        5
170
     1
 91
        0
 92
    32768
 62
   257
 93
        1
300
CONTENTFORMAT
  1
CONTENTFORMAT_BEGIN
 90
        0
 91
        0
 92
      512
 93
        0
300

 40
0.0
140
1.0
 94
        5
 62
     0
340
9697
144
0.25
309
CONTENTFORMAT_END
171
     0
 94
        0
309
TABLEFORMAT_END
  1
CELLSTYLE_BEGIN
 90
        1
 91
        1
300
_TITLE
309
CELLSTYLE_END
300
CELLSTYLE
  1
TABLEFORMAT_BEGIN
 90
        5
170
     1
 91
        0
 92
        0
 62
   257
 93
        1
300
CONTENTFORMAT
  1
CONTENTFORMAT_BEGIN
 90
        0
 91
        0
 92
      512
 93
        0
300

 40
0.0
140
1.0
 94
        5
 62
     0
340
9697
144
0.18
309
CONTENTFORMAT_END
171
     0
 94
        0
309
TABLEFORMAT_END
  1
CELLSTYLE_BEGIN
 90
        2
 91
        1
300
_HEADER
309
CELLSTYLE_END
300
CELLSTYLE
  1
TABLEFORMAT_BEGIN
 90
        5
170
     1
 91
        0
 92
        0
 62
   257
 93
        1
300
CONTENTFORMAT
  1
CONTENTFORMAT_BEGIN
 90
        0
 91
        0
 92
      512
 93
        0
300

 40
0.0
140
1.0
 94
        2
 62
     0
340
9697
144
0.18
309
CONTENTFORMAT_END
171
     0
 94
        0
309
TABLEFORMAT_END
  1
CELLSTYLE_BEGIN
 90
        3
 91
        2
300
_DATA
309
CELLSTYLE_END
  0
XRECORD
  5
994E
102
{ACAD_REACTORS
330
9917
102
}
330
9917
100
AcDbXrecord
280
     1
102
ACAD_ROUNDTRIP_PRE2007_TABLESTYLE
 90
      512
 91
        0
  1

 92
      512
 93
        0
  2

 94
      512
 95
        0
  3

  0
XRECORD
  5
9929
102
{ACAD_REACTORS
330
9928
102
}
330
9928
100
AcDbXrecord
280
     1
102
RTVSPost2010Prop28
280
     1
102
RTVSPost2010PropOp28
 70
     1
102
RTVSPost2010Prop29
280
     1
102
RTVSPost2010PropOp29
 70
     1
102
RTVSPost2010Prop30
280
     0
102
RTVSPost2010PropOp30
 70
     1
102
RTVSPost2010Prop31
280
     0
102
RTVSPost2010PropOp31
 70
     1
102
RTVSPost2010Prop32
280
     0
102
RTVSPost2010PropOp32
 70
     1
102
RTVSPost2010Prop33
280
     0
102
RTVSPost2010PropOp33
 70
     1
102
RTVSPost2010Prop34
280
     0
102
RTVSPost2010PropOp34
 70
     1
102
RTVSPost2010Prop35
280
     0
102
RTVSPost2010PropOp35
 70
     1
102
RTVSPost2010Prop36
280
     0
102
RTVSPost2010PropOp36
 70
     1
102
RTVSPost2010Prop37
 90
       50
102
RTVSPost2010PropOp37
 70
     1
102
RTVSPost2010Prop38
140
0.0
102
RTVSPost2010PropOp38
 70
     1
102
RTVSPost2010Prop39
140
1.0
102
RTVSPost2010PropOp39
 70
     1
102
RTVSPost2010Prop40
 90
        0
102
RTVSPost2010PropOp40
 70
     1
102
RTVSPost2010Prop41ColorIndex
 90
       18
102
RTVSPost2010Prop41ColorRGB
 90
        0
102
RTVSPost2010PropOp41
 70
     1
102
RTVSPost2010Prop42
 90
       50
102
RTVSPost2010PropOp42
 70
     1
102
RTVSPost2010Prop43
 90
        3
102
RTVSPost2010PropOp43
 70
     1
102
RTVSPost2010Prop44ColorIndex
 90
        5
102
RTVSPost2010Prop44ColorRGB
 90
      255
102
RTVSPost2010PropOp44
 70
     1
102
RTVSPost2010Prop45
280
     0
102
RTVSPost2010PropOp45
 70
     1
102
RTVSPost2010Prop46
 90
       50
102
RTVSPost2010PropOp46
 70
     1
102
RTVSPost2010Prop47
 90
       50
102
RTVSPost2010PropOp47
 70
     1
102
RTVSPost2010Prop48
 90
       50
102
RTVSPost2010PropOp48
 70
     1
102
RTVSPost2010Prop49
280
     0
102
RTVSPost2010PropOp49
 70
     1
102
RTVSPost2010Prop50
 90
       50
102
RTVSPost2010PropOp50
 70
     1
102
RTVSPost2010Prop51ColorIndex
 90
      256
102
RTVSPost2010Prop51ColorRGB
 90
-16777216
102
RTVSPost2010PropOp51
 70
     0
102
RTVSPost2010Prop52
140
1.0
102
RTVSPost2010PropOp52
 70
     0
102
RTVSPost2010Prop53
 90
        2
102
RTVSPost2010PropOp53
 70
     1
102
RTVSPost2010Prop54
  1
strokes_ogs.tif
102
RTVSPost2010PropOp54
 70
     1
102
RTVSPost2010Prop55
280
     0
102
RTVSPost2010PropOp55
 70
     1
102
RTVSPost2010Prop56
140
1.0
102
RTVSPost2010PropOp56
 70
     1
102
RTVSPost2010Prop57
140
1.0
102
RTVSPost2010PropOp57
 70
     1
102
RTVSPropertyOp0
 70
     1
102
RTVSPropertyOp1
 70
     1
102
RTVSPropertyOp2
 70
     1
102
RTVSPropertyOp3
 70
     1
102
RTVSPropertyOp4
 70
     1
102
RTVSPropertyOp5
 70
     1
102
RTVSPropertyOp6
 70
     1
102
RTVSPropertyOp7
 70
     1
102
RTVSPropertyOp8
 70
     1
102
RTVSPropertyOp9
 70
     1
102
RTVSPropertyOp10
 70
     1
102
RTVSPropertyOp11
 70
     1
102
RTVSPropertyOp12
 70
     1
102
RTVSPropertyOp13
 70
     1
102
RTVSPropertyOp14
 70
     1
102
RTVSPropertyOp15
 70
     1
102
RTVSPropertyOp16
 70
     1
102
RTVSPropertyOp17
 70
     1
102
RTVSPropertyOp18
 70
     1
102
RTVSPropertyOp19
 70
     1
102
RTVSPropertyOp20
 70
     1
102
RTVSPropertyOp21
 70
     1
102
RTVSPropertyOp22
 70
     1
102
RTVSPropertyOp23
 70
     1
102
RTVSPropertyOp24
 70
     1
102
RTVSPropertyOp25
 70
     1
102
RTVSPropertyOp26
 70
     1
102
RTVSPropertyOp27
 70
     1
102
RTVSPropertyOp28
 70
     1
102
RTVSPropertyOp29
 70
     1
102
RTVSPropertyOp30
 70
     1
102
RTVSPropertyOp31
 70
     1
102
RTVSPropertyOp32
 70
     1
102
RTVSPropertyOp33
 70
     1
102
RTVSPropertyOp34
 70
     1
102
RTVSPropertyOp35
 70
     1
102
RTVSPropertyOp36
 70
     1
102
RTVSPropertyOp37
 70
     1
102
RTVSPropertyOp38
 70
     1
102
RTVSPropertyOp39
 70
     1
102
RTVSPropertyOp40
 70
     1
102
RTVSPropertyOp41
 70
     1
102
RTVSPropertyOp42
 70
     1
102
RTVSPropertyOp43
 70
     1
102
RTVSPropertyOp44
 70
     1
102
RTVSPropertyOp45
 70
     1
102
RTVSPropertyOp46
 70
     1
102
RTVSPropertyOp47
 70
     1
102
RTVSPropertyOp48
 70
     1
102
RTVSPropertyOp49
 70
     1
102
RTVSPropertyOp50
 70
     1
102
RTVSPropertyOp51
 70
     0
102
RTVSPropertyOp52
 70
     0
102
RTVSPropertyOp53
 70
     1
102
RTVSPropertyOp54
 70
     1
102
RTVSPropertyOp55
 70
     1
102
RTVSPropertyOp56
 70
     1
102
RTVSPropertyOp57
 70
     1
102
RTVSPropertyOp58
 70
     1
102
RTVSPropertyOp59
 70
     1
102
RTVSPropertyOp60
 70
     1
102
RTVSPropertyOp61
 70
     1
102
RTVSPropertyOp62
 70
     1
  0
XRECORD
  5
9927
102
{ACAD_REACTORS
330
9926
102
}
330
9926
100
AcDbXrecord
280
     1
102
RTVSPost2010Prop28
280
     0
102
RTVSPost2010PropOp28
 70
     1
102
RTVSPost2010Prop29
280
     1
102
RTVSPost2010PropOp29
 70
     1
102
RTVSPost2010Prop30
280
     1
102
RTVSPost2010PropOp30
 70
     1
102
RTVSPost2010Prop31
280
     0
102
RTVSPost2010PropOp31
 70
     1
102
RTVSPost2010Prop32
280
     0
102
RTVSPost2010PropOp32
 70
     1
102
RTVSPost2010Prop33
280
     0
102
RTVSPost2010PropOp33
 70
     1
102
RTVSPost2010Prop34
280
     0
102
RTVSPost2010PropOp34
 70
     1
102
RTVSPost2010Prop35
280
     0
102
RTVSPost2010PropOp35
 70
     1
102
RTVSPost2010Prop36
280
     0
102
RTVSPost2010PropOp36
 70
     1
102
RTVSPost2010Prop37
 90
       50
102
RTVSPost2010PropOp37
 70
     1
102
RTVSPost2010Prop38
140
0.0
102
RTVSPost2010PropOp38
 70
     1
102
RTVSPost2010Prop39
140
1.0
102
RTVSPost2010PropOp39
 70
     1
102
RTVSPost2010Prop40
 90
        0
102
RTVSPost2010PropOp40
 70
     1
102
RTVSPost2010Prop41ColorIndex
 90
       18
102
RTVSPost2010Prop41ColorRGB
 90
        0
102
RTVSPost2010PropOp41
 70
     1
102
RTVSPost2010Prop42
 90
       50
102
RTVSPost2010PropOp42
 70
     1
102
RTVSPost2010Prop43
 90
        3
102
RTVSPost2010PropOp43
 70
     1
102
RTVSPost2010Prop44ColorIndex
 90
        5
102
RTVSPost2010Prop44ColorRGB
 90
      255
102
RTVSPost2010PropOp44
 70
     1
102
RTVSPost2010Prop45
280
     0
102
RTVSPost2010PropOp45
 70
     1
102
RTVSPost2010Prop46
 90
       50
102
RTVSPost2010PropOp46
 70
     1
102
RTVSPost2010Prop47
 90
       50
102
RTVSPost2010PropOp47
 70
     1
102
RTVSPost2010Prop48
 90
       50
102
RTVSPost2010PropOp48
 70
     1
102
RTVSPost2010Prop49
280
     0
102
RTVSPost2010PropOp49
 70
     1
102
RTVSPost2010Prop50
 90
       50
102
RTVSPost2010PropOp50
 70
     1
102
RTVSPost2010Prop51ColorIndex
 90
      256
102
RTVSPost2010Prop51ColorRGB
 90
-16777216
102
RTVSPost2010PropOp51
 70
     0
102
RTVSPost2010Prop52
140
1.0
102
RTVSPost2010PropOp52
 70
     0
102
RTVSPost2010Prop53
 90
        2
102
RTVSPost2010PropOp53
 70
     1
102
RTVSPost2010Prop54
  1
strokes_ogs.tif
102
RTVSPost2010PropOp54
 70
     1
102
RTVSPost2010Prop55
280
     0
102
RTVSPost2010PropOp55
 70
     1
102
RTVSPost2010Prop56
140
1.0
102
RTVSPost2010PropOp56
 70
     1
102
RTVSPost2010Prop57
140
1.0
102
RTVSPost2010PropOp57
 70
     1
102
RTVSPropertyOp0
 70
     1
102
RTVSPropertyOp1
 70
     1
102
RTVSPropertyOp2
 70
     1
102
RTVSPropertyOp3
 70
     1
102
RTVSPropertyOp4
 70
     1
102
RTVSPropertyOp5
 70
     1
102
RTVSPropertyOp6
 70
     1
102
RTVSPropertyOp7
 70
     1
102
RTVSPropertyOp8
 70
     1
102
RTVSPropertyOp9
 70
     1
102
RTVSPropertyOp10
 70
     1
102
RTVSPropertyOp11
 70
     1
102
RTVSPropertyOp12
 70
     1
102
RTVSPropertyOp13
 70
     1
102
RTVSPropertyOp14
 70
     1
102
RTVSPropertyOp15
 70
     1
102
RTVSPropertyOp16
 70
     1
102
RTVSPropertyOp17
 70
     1
102
RTVSPropertyOp18
 70
     1
102
RTVSPropertyOp19
 70
     1
102
RTVSPropertyOp20
 70
     1
102
RTVSPropertyOp21
 70
     1
102
RTVSPropertyOp22
 70
     1
102
RTVSPropertyOp23
 70
     1
102
RTVSPropertyOp24
 70
     1
102
RTVSPropertyOp25
 70
     1
102
RTVSPropertyOp26
 70
     1
102
RTVSPropertyOp27
 70
     1
102
RTVSPropertyOp28
 70
     1
102
RTVSPropertyOp29
 70
     1
102
RTVSPropertyOp30
 70
     1
102
RTVSPropertyOp31
 70
     1
102
RTVSPropertyOp32
 70
     1
102
RTVSPropertyOp33
 70
     1
102
RTVSPropertyOp34
 70
     1
102
RTVSPropertyOp35
 70
     1
102
RTVSPropertyOp36
 70
     1
102
RTVSPropertyOp37
 70
     1
102
RTVSPropertyOp38
 70
     1
102
RTVSPropertyOp39
 70
     1
102
RTVSPropertyOp40
 70
     1
102
RTVSPropertyOp41
 70
     1
102
RTVSPropertyOp42
 70
     1
102
RTVSPropertyOp43
 70
     1
102
RTVSPropertyOp44
 70
     1
102
RTVSPropertyOp45
 70
     1
102
RTVSPropertyOp46
 70
     1
102
RTVSPropertyOp47
 70
     1
102
RTVSPropertyOp48
 70
     1
102
RTVSPropertyOp49
 70
     1
102
RTVSPropertyOp50
 70
     1
102
RTVSPropertyOp51
 70
     0
102
RTVSPropertyOp52
 70
     0
102
RTVSPropertyOp53
 70
     1
102
RTVSPropertyOp54
 70
     1
102
RTVSPropertyOp55
 70
     1
102
RTVSPropertyOp56
 70
     1
102
RTVSPropertyOp57
 70
     1
102
RTVSPropertyOp58
 70
     1
102
RTVSPropertyOp59
 70
     1
102
RTVSPropertyOp60
 70
     1
102
RTVSPropertyOp61
 70
     1
102
RTVSPropertyOp62
 70
     1
  0
XRECORD
  5
9935
102
{ACAD_REACTORS
330
9934
102
}
330
9934
100
AcDbXrecord
280
     1
102
RTVSPost2010Prop28
280
     0
102
RTVSPost2010PropOp28
 70
     1
102
RTVSPost2010Prop29
280
     1
102
RTVSPost2010PropOp29
 70
     1
102
RTVSPost2010Prop30
280
     1
102
RTVSPost2010PropOp30
 70
     1
102
RTVSPost2010Prop31
280
     0
102
RTVSPost2010PropOp31
 70
     1
102
RTVSPost2010Prop32
280
     0
102
RTVSPost2010PropOp32
 70
     1
102
RTVSPost2010Prop33
280
     0
102
RTVSPost2010PropOp33
 70
     1
102
RTVSPost2010Prop34
280
     0
102
RTVSPost2010PropOp34
 70
     1
102
RTVSPost2010Prop35
280
     0
102
RTVSPost2010PropOp35
 70
     1
102
RTVSPost2010Prop36
280
     0
102
RTVSPost2010PropOp36
 70
     1
102
RTVSPost2010Prop37
 90
       50
102
RTVSPost2010PropOp37
 70
     1
102
RTVSPost2010Prop38
140
0.0
102
RTVSPost2010PropOp38
 70
     1
102
RTVSPost2010Prop39
140
1.0
102
RTVSPost2010PropOp39
 70
     1
102
RTVSPost2010Prop40
 90
        0
102
RTVSPost2010PropOp40
 70
     1
102
RTVSPost2010Prop41ColorIndex
 90
       18
102
RTVSPost2010Prop41ColorRGB
 90
        0
102
RTVSPost2010PropOp41
 70
     1
102
RTVSPost2010Prop42
 90
       50
102
RTVSPost2010PropOp42
 70
     1
102
RTVSPost2010Prop43
 90
        3
102
RTVSPost2010PropOp43
 70
     1
102
RTVSPost2010Prop44ColorIndex
 90
        5
102
RTVSPost2010Prop44ColorRGB
 90
      255
102
RTVSPost2010PropOp44
 70
     1
102
RTVSPost2010Prop45
280
     0
102
RTVSPost2010PropOp45
 70
     1
102
RTVSPost2010Prop46
 90
       50
102
RTVSPost2010PropOp46
 70
     1
102
RTVSPost2010Prop47
 90
       50
102
RTVSPost2010PropOp47
 70
     1
102
RTVSPost2010Prop48
 90
       50
102
RTVSPost2010PropOp48
 70
     1
102
RTVSPost2010Prop49
280
     0
102
RTVSPost2010PropOp49
 70
     1
102
RTVSPost2010Prop50
 90
       50
102
RTVSPost2010PropOp50
 70
     1
102
RTVSPost2010Prop51ColorIndex
 90
      256
102
RTVSPost2010Prop51ColorRGB
 90
-16777216
102
RTVSPost2010PropOp51
 70
     0
102
RTVSPost2010Prop52
140
1.0
102
RTVSPost2010PropOp52
 70
     0
102
RTVSPost2010Prop53
 90
        2
102
RTVSPost2010PropOp53
 70
     1
102
RTVSPost2010Prop54
  1
strokes_ogs.tif
102
RTVSPost2010PropOp54
 70
     1
102
RTVSPost2010Prop55
280
     0
102
RTVSPost2010PropOp55
 70
     1
102
RTVSPost2010Prop56
140
1.0
102
RTVSPost2010PropOp56
 70
     1
102
RTVSPost2010Prop57
140
1.0
102
RTVSPost2010PropOp57
 70
     1
102
RTVSPropertyOp0
 70
     1
102
RTVSPropertyOp1
 70
     1
102
RTVSPropertyOp2
 70
     1
102
RTVSPropertyOp3
 70
     1
102
RTVSPropertyOp4
 70
     1
102
RTVSPropertyOp5
 70
     1
102
RTVSPropertyOp6
 70
     1
102
RTVSPropertyOp7
 70
     1
102
RTVSPropertyOp8
 70
     1
102
RTVSPropertyOp9
 70
     1
102
RTVSPropertyOp10
 70
     1
102
RTVSPropertyOp11
 70
     1
102
RTVSPropertyOp12
 70
     1
102
RTVSPropertyOp13
 70
     1
102
RTVSPropertyOp14
 70
     1
102
RTVSPropertyOp15
 70
     1
102
RTVSPropertyOp16
 70
     1
102
RTVSPropertyOp17
 70
     1
102
RTVSPropertyOp18
 70
     1
102
RTVSPropertyOp19
 70
     1
102
RTVSPropertyOp20
 70
     1
102
RTVSPropertyOp21
 70
     1
102
RTVSPropertyOp22
 70
     1
102
RTVSPropertyOp23
 70
     1
102
RTVSPropertyOp24
 70
     1
102
RTVSPropertyOp25
 70
     1
102
RTVSPropertyOp26
 70
     1
102
RTVSPropertyOp27
 70
     1
102
RTVSPropertyOp28
 70
     1
102
RTVSPropertyOp29
 70
     1
102
RTVSPropertyOp30
 70
     1
102
RTVSPropertyOp31
 70
     1
102
RTVSPropertyOp32
 70
     1
102
RTVSPropertyOp33
 70
     1
102
RTVSPropertyOp34
 70
     1
102
RTVSPropertyOp35
 70
     1
102
RTVSPropertyOp36
 70
     1
102
RTVSPropertyOp37
 70
     1
102
RTVSPropertyOp38
 70
     1
102
RTVSPropertyOp39
 70
     1
102
RTVSPropertyOp40
 70
     1
102
RTVSPropertyOp41
 70
     1
102
RTVSPropertyOp42
 70
     1
102
RTVSPropertyOp43
 70
     1
102
RTVSPropertyOp44
 70
     1
102
RTVSPropertyOp45
 70
     1
102
RTVSPropertyOp46
 70
     1
102
RTVSPropertyOp47
 70
     1
102
RTVSPropertyOp48
 70
     1
102
RTVSPropertyOp49
 70
     1
102
RTVSPropertyOp50
 70
     1
102
RTVSPropertyOp51
 70
     0
102
RTVSPropertyOp52
 70
     0
102
RTVSPropertyOp53
 70
     1
102
RTVSPropertyOp54
 70
     1
102
RTVSPropertyOp55
 70
     1
102
RTVSPropertyOp56
 70
     1
102
RTVSPropertyOp57
 70
     1
102
RTVSPropertyOp58
 70
     1
102
RTVSPropertyOp59
 70
     1
102
RTVSPropertyOp60
 70
     1
102
RTVSPropertyOp61
 70
     1
102
RTVSPropertyOp62
 70
     1
  0
XRECORD
  5
993D
102
{ACAD_REACTORS
330
993C
102
}
330
993C
100
AcDbXrecord
280
     1
102
RTVSPost2010Prop28
280
     0
102
RTVSPost2010PropOp28
 70
     1
102
RTVSPost2010Prop29
280
     1
102
RTVSPost2010PropOp29
 70
     1
102
RTVSPost2010Prop30
280
     1
102
RTVSPost2010PropOp30
 70
     1
102
RTVSPost2010Prop31
280
     0
102
RTVSPost2010PropOp31
 70
     1
102
RTVSPost2010Prop32
280
     0
102
RTVSPost2010PropOp32
 70
     1
102
RTVSPost2010Prop33
280
     0
102
RTVSPost2010PropOp33
 70
     1
102
RTVSPost2010Prop34
280
     0
102
RTVSPost2010PropOp34
 70
     1
102
RTVSPost2010Prop35
280
     0
102
RTVSPost2010PropOp35
 70
     1
102
RTVSPost2010Prop36
280
     0
102
RTVSPost2010PropOp36
 70
     1
102
RTVSPost2010Prop37
 90
       50
102
RTVSPost2010PropOp37
 70
     1
102
RTVSPost2010Prop38
140
0.0
102
RTVSPost2010PropOp38
 70
     1
102
RTVSPost2010Prop39
140
1.0
102
RTVSPost2010PropOp39
 70
     1
102
RTVSPost2010Prop40
 90
        0
102
RTVSPost2010PropOp40
 70
     1
102
RTVSPost2010Prop41ColorIndex
 90
       18
102
RTVSPost2010Prop41ColorRGB
 90
        0
102
RTVSPost2010PropOp41
 70
     1
102
RTVSPost2010Prop42
 90
       50
102
RTVSPost2010PropOp42
 70
     1
102
RTVSPost2010Prop43
 90
        3
102
RTVSPost2010PropOp43
 70
     1
102
RTVSPost2010Prop44ColorIndex
 90
        5
102
RTVSPost2010Prop44ColorRGB
 90
      255
102
RTVSPost2010PropOp44
 70
     1
102
RTVSPost2010Prop45
280
     0
102
RTVSPost2010PropOp45
 70
     1
102
RTVSPost2010Prop46
 90
       50
102
RTVSPost2010PropOp46
 70
     1
102
RTVSPost2010Prop47
 90
       50
102
RTVSPost2010PropOp47
 70
     1
102
RTVSPost2010Prop48
 90
       50
102
RTVSPost2010PropOp48
 70
     1
102
RTVSPost2010Prop49
280
     0
102
RTVSPost2010PropOp49
 70
     1
102
RTVSPost2010Prop50
 90
       50
102
RTVSPost2010PropOp50
 70
     1
102
RTVSPost2010Prop51ColorIndex
 90
      256
102
RTVSPost2010Prop51ColorRGB
 90
-16777216
102
RTVSPost2010PropOp51
 70
     0
102
RTVSPost2010Prop52
140
1.0
102
RTVSPost2010PropOp52
 70
     0
102
RTVSPost2010Prop53
 90
        2
102
RTVSPost2010PropOp53
 70
     1
102
RTVSPost2010Prop54
  1
strokes_ogs.tif
102
RTVSPost2010PropOp54
 70
     1
102
RTVSPost2010Prop55
280
     0
102
RTVSPost2010PropOp55
 70
     1
102
RTVSPost2010Prop56
140
1.0
102
RTVSPost2010PropOp56
 70
     1
102
RTVSPost2010Prop57
140
1.0
102
RTVSPost2010PropOp57
 70
     1
102
RTVSPropertyOp0
 70
     1
102
RTVSPropertyOp1
 70
     1
102
RTVSPropertyOp2
 70
     1
102
RTVSPropertyOp3
 70
     1
102
RTVSPropertyOp4
 70
     1
102
RTVSPropertyOp5
 70
     1
102
RTVSPropertyOp6
 70
     1
102
RTVSPropertyOp7
 70
     1
102
RTVSPropertyOp8
 70
     1
102
RTVSPropertyOp9
 70
     1
102
RTVSPropertyOp10
 70
     1
102
RTVSPropertyOp11
 70
     1
102
RTVSPropertyOp12
 70
     1
102
RTVSPropertyOp13
 70
     1
102
RTVSPropertyOp14
 70
     1
102
RTVSPropertyOp15
 70
     1
102
RTVSPropertyOp16
 70
     1
102
RTVSPropertyOp17
 70
     1
102
RTVSPropertyOp18
 70
     1
102
RTVSPropertyOp19
 70
     1
102
RTVSPropertyOp20
 70
     1
102
RTVSPropertyOp21
 70
     1
102
RTVSPropertyOp22
 70
     1
102
RTVSPropertyOp23
 70
     1
102
RTVSPropertyOp24
 70
     1
102
RTVSPropertyOp25
 70
     1
102
RTVSPropertyOp26
 70
     1
102
RTVSPropertyOp27
 70
     1
102
RTVSPropertyOp28
 70
     1
102
RTVSPropertyOp29
 70
     1
102
RTVSPropertyOp30
 70
     1
102
RTVSPropertyOp31
 70
     1
102
RTVSPropertyOp32
 70
     1
102
RTVSPropertyOp33
 70
     1
102
RTVSPropertyOp34
 70
     1
102
RTVSPropertyOp35
 70
     1
102
RTVSPropertyOp36
 70
     1
102
RTVSPropertyOp37
 70
     1
102
RTVSPropertyOp38
 70
     1
102
RTVSPropertyOp39
 70
     1
102
RTVSPropertyOp40
 70
     1
102
RTVSPropertyOp41
 70
     1
102
RTVSPropertyOp42
 70
     1
102
RTVSPropertyOp43
 70
     1
102
RTVSPropertyOp44
 70
     1
102
RTVSPropertyOp45
 70
     1
102
RTVSPropertyOp46
 70
     1
102
RTVSPropertyOp47
 70
     1
102
RTVSPropertyOp48
 70
     1
102
RTVSPropertyOp49
 70
     1
102
RTVSPropertyOp50
 70
     1
102
RTVSPropertyOp51
 70
     0
102
RTVSPropertyOp52
 70
     0
102
RTVSPropertyOp53
 70
     1
102
RTVSPropertyOp54
 70
     1
102
RTVSPropertyOp55
 70
     1
102
RTVSPropertyOp56
 70
     1
102
RTVSPropertyOp57
 70
     1
102
RTVSPropertyOp58
 70
     1
102
RTVSPropertyOp59
 70
     1
102
RTVSPropertyOp60
 70
     1
102
RTVSPropertyOp61
 70
     1
102
RTVSPropertyOp62
 70
     1
  0
XRECORD
  5
992F
102
{ACAD_REACTORS
330
992E
102
}
330
992E
100
AcDbXrecord
280
     1
102
RTVSPost2010Prop28
280
     0
102
RTVSPost2010PropOp28
 70
     1
102
RTVSPost2010Prop29
280
     1
102
RTVSPost2010PropOp29
 70
     1
102
RTVSPost2010Prop30
280
     1
102
RTVSPost2010PropOp30
 70
     1
102
RTVSPost2010Prop31
280
     0
102
RTVSPost2010PropOp31
 70
     1
102
RTVSPost2010Prop32
280
     0
102
RTVSPost2010PropOp32
 70
     1
102
RTVSPost2010Prop33
280
     0
102
RTVSPost2010PropOp33
 70
     1
102
RTVSPost2010Prop34
280
     0
102
RTVSPost2010PropOp34
 70
     1
102
RTVSPost2010Prop35
280
     0
102
RTVSPost2010PropOp35
 70
     1
102
RTVSPost2010Prop36
280
     0
102
RTVSPost2010PropOp36
 70
     1
102
RTVSPost2010Prop37
 90
       50
102
RTVSPost2010PropOp37
 70
     1
102
RTVSPost2010Prop38
140
0.0
102
RTVSPost2010PropOp38
 70
     1
102
RTVSPost2010Prop39
140
1.0
102
RTVSPost2010PropOp39
 70
     1
102
RTVSPost2010Prop40
 90
        0
102
RTVSPost2010PropOp40
 70
     1
102
RTVSPost2010Prop41ColorIndex
 90
       18
102
RTVSPost2010Prop41ColorRGB
 90
        0
102
RTVSPost2010PropOp41
 70
     1
102
RTVSPost2010Prop42
 90
       50
102
RTVSPost2010PropOp42
 70
     1
102
RTVSPost2010Prop43
 90
        3
102
RTVSPost2010PropOp43
 70
     1
102
RTVSPost2010Prop44ColorIndex
 90
        5
102
RTVSPost2010Prop44ColorRGB
 90
      255
102
RTVSPost2010PropOp44
 70
     1
102
RTVSPost2010Prop45
280
     0
102
RTVSPost2010PropOp45
 70
     1
102
RTVSPost2010Prop46
 90
       50
102
RTVSPost2010PropOp46
 70
     1
102
RTVSPost2010Prop47
 90
       50
102
RTVSPost2010PropOp47
 70
     1
102
RTVSPost2010Prop48
 90
       50
102
RTVSPost2010PropOp48
 70
     1
102
RTVSPost2010Prop49
280
     0
102
RTVSPost2010PropOp49
 70
     1
102
RTVSPost2010Prop50
 90
       50
102
RTVSPost2010PropOp50
 70
     1
102
RTVSPost2010Prop51ColorIndex
 90
      256
102
RTVSPost2010Prop51ColorRGB
 90
-16777216
102
RTVSPost2010PropOp51
 70
     0
102
RTVSPost2010Prop52
140
1.0
102
RTVSPost2010PropOp52
 70
     0
102
RTVSPost2010Prop53
 90
        2
102
RTVSPost2010PropOp53
 70
     1
102
RTVSPost2010Prop54
  1
strokes_ogs.tif
102
RTVSPost2010PropOp54
 70
     1
102
RTVSPost2010Prop55
280
     0
102
RTVSPost2010PropOp55
 70
     1
102
RTVSPost2010Prop56
140
1.0
102
RTVSPost2010PropOp56
 70
     1
102
RTVSPost2010Prop57
140
1.0
102
RTVSPost2010PropOp57
 70
     1
102
RTVSPropertyOp0
 70
     1
102
RTVSPropertyOp1
 70
     1
102
RTVSPropertyOp2
 70
     1
102
RTVSPropertyOp3
 70
     1
102
RTVSPropertyOp4
 70
     1
102
RTVSPropertyOp5
 70
     1
102
RTVSPropertyOp6
 70
     1
102
RTVSPropertyOp7
 70
     1
102
RTVSPropertyOp8
 70
     1
102
RTVSPropertyOp9
 70
     1
102
RTVSPropertyOp10
 70
     1
102
RTVSPropertyOp11
 70
     1
102
RTVSPropertyOp12
 70
     1
102
RTVSPropertyOp13
 70
     1
102
RTVSPropertyOp14
 70
     1
102
RTVSPropertyOp15
 70
     1
102
RTVSPropertyOp16
 70
     1
102
RTVSPropertyOp17
 70
     1
102
RTVSPropertyOp18
 70
     1
102
RTVSPropertyOp19
 70
     1
102
RTVSPropertyOp20
 70
     1
102
RTVSPropertyOp21
 70
     1
102
RTVSPropertyOp22
 70
     1
102
RTVSPropertyOp23
 70
     1
102
RTVSPropertyOp24
 70
     1
102
RTVSPropertyOp25
 70
     1
102
RTVSPropertyOp26
 70
     1
102
RTVSPropertyOp27
 70
     1
102
RTVSPropertyOp28
 70
     1
102
RTVSPropertyOp29
 70
     1
102
RTVSPropertyOp30
 70
     1
102
RTVSPropertyOp31
 70
     1
102
RTVSPropertyOp32
 70
     1
102
RTVSPropertyOp33
 70
     1
102
RTVSPropertyOp34
 70
     1
102
RTVSPropertyOp35
 70
     1
102
RTVSPropertyOp36
 70
     1
102
RTVSPropertyOp37
 70
     1
102
RTVSPropertyOp38
 70
     1
102
RTVSPropertyOp39
 70
     1
102
RTVSPropertyOp40
 70
     1
102
RTVSPropertyOp41
 70
     1
102
RTVSPropertyOp42
 70
     1
102
RTVSPropertyOp43
 70
     1
102
RTVSPropertyOp44
 70
     1
102
RTVSPropertyOp45
 70
     1
102
RTVSPropertyOp46
 70
     1
102
RTVSPropertyOp47
 70
     1
102
RTVSPropertyOp48
 70
     1
102
RTVSPropertyOp49
 70
     1
102
RTVSPropertyOp50
 70
     1
102
RTVSPropertyOp51
 70
     0
102
RTVSPropertyOp52
 70
     0
102
RTVSPropertyOp53
 70
     1
102
RTVSPropertyOp54
 70
     1
102
RTVSPropertyOp55
 70
     1
102
RTVSPropertyOp56
 70
     1
102
RTVSPropertyOp57
 70
     1
102
RTVSPropertyOp58
 70
     1
102
RTVSPropertyOp59
 70
     1
102
RTVSPropertyOp60
 70
     1
102
RTVSPropertyOp61
 70
     1
102
RTVSPropertyOp62
 70
     1
  0
XRECORD
  5
9933
102
{ACAD_REACTORS
330
9932
102
}
330
9932
100
AcDbXrecord
280
     1
102
RTVSPost2010Prop28
280
     0
102
RTVSPost2010PropOp28
 70
     1
102
RTVSPost2010Prop29
280
     1
102
RTVSPost2010PropOp29
 70
     1
102
RTVSPost2010Prop30
280
     1
102
RTVSPost2010PropOp30
 70
     1
102
RTVSPost2010Prop31
280
     0
102
RTVSPost2010PropOp31
 70
     1
102
RTVSPost2010Prop32
280
     0
102
RTVSPost2010PropOp32
 70
     1
102
RTVSPost2010Prop33
280
     0
102
RTVSPost2010PropOp33
 70
     1
102
RTVSPost2010Prop34
280
     0
102
RTVSPost2010PropOp34
 70
     1
102
RTVSPost2010Prop35
280
     0
102
RTVSPost2010PropOp35
 70
     1
102
RTVSPost2010Prop36
280
     0
102
RTVSPost2010PropOp36
 70
     1
102
RTVSPost2010Prop37
 90
       50
102
RTVSPost2010PropOp37
 70
     1
102
RTVSPost2010Prop38
140
0.0
102
RTVSPost2010PropOp38
 70
     1
102
RTVSPost2010Prop39
140
1.0
102
RTVSPost2010PropOp39
 70
     1
102
RTVSPost2010Prop40
 90
        0
102
RTVSPost2010PropOp40
 70
     1
102
RTVSPost2010Prop41ColorIndex
 90
       18
102
RTVSPost2010Prop41ColorRGB
 90
        0
102
RTVSPost2010PropOp41
 70
     1
102
RTVSPost2010Prop42
 90
       50
102
RTVSPost2010PropOp42
 70
     1
102
RTVSPost2010Prop43
 90
        3
102
RTVSPost2010PropOp43
 70
     1
102
RTVSPost2010Prop44ColorIndex
 90
        5
102
RTVSPost2010Prop44ColorRGB
 90
      255
102
RTVSPost2010PropOp44
 70
     1
102
RTVSPost2010Prop45
280
     0
102
RTVSPost2010PropOp45
 70
     1
102
RTVSPost2010Prop46
 90
       50
102
RTVSPost2010PropOp46
 70
     1
102
RTVSPost2010Prop47
 90
       50
102
RTVSPost2010PropOp47
 70
     1
102
RTVSPost2010Prop48
 90
       50
102
RTVSPost2010PropOp48
 70
     1
102
RTVSPost2010Prop49
280
     0
102
RTVSPost2010PropOp49
 70
     1
102
RTVSPost2010Prop50
 90
       50
102
RTVSPost2010PropOp50
 70
     1
102
RTVSPost2010Prop51ColorIndex
 90
      256
102
RTVSPost2010Prop51ColorRGB
 90
-16777216
102
RTVSPost2010PropOp51
 70
     0
102
RTVSPost2010Prop52
140
1.0
102
RTVSPost2010PropOp52
 70
     0
102
RTVSPost2010Prop53
 90
        2
102
RTVSPost2010PropOp53
 70
     1
102
RTVSPost2010Prop54
  1
strokes_ogs.tif
102
RTVSPost2010PropOp54
 70
     1
102
RTVSPost2010Prop55
280
     0
102
RTVSPost2010PropOp55
 70
     1
102
RTVSPost2010Prop56
140
1.0
102
RTVSPost2010PropOp56
 70
     1
102
RTVSPost2010Prop57
140
1.0
102
RTVSPost2010PropOp57
 70
     1
102
RTVSPropertyOp0
 70
     1
102
RTVSPropertyOp1
 70
     1
102
RTVSPropertyOp2
 70
     1
102
RTVSPropertyOp3
 70
     1
102
RTVSPropertyOp4
 70
     1
102
RTVSPropertyOp5
 70
     1
102
RTVSPropertyOp6
 70
     1
102
RTVSPropertyOp7
 70
     1
102
RTVSPropertyOp8
 70
     1
102
RTVSPropertyOp9
 70
     1
102
RTVSPropertyOp10
 70
     1
102
RTVSPropertyOp11
 70
     1
102
RTVSPropertyOp12
 70
     1
102
RTVSPropertyOp13
 70
     1
102
RTVSPropertyOp14
 70
     1
102
RTVSPropertyOp15
 70
     1
102
RTVSPropertyOp16
 70
     1
102
RTVSPropertyOp17
 70
     1
102
RTVSPropertyOp18
 70
     1
102
RTVSPropertyOp19
 70
     1
102
RTVSPropertyOp20
 70
     1
102
RTVSPropertyOp21
 70
     1
102
RTVSPropertyOp22
 70
     1
102
RTVSPropertyOp23
 70
     1
102
RTVSPropertyOp24
 70
     1
102
RTVSPropertyOp25
 70
     1
102
RTVSPropertyOp26
 70
     1
102
RTVSPropertyOp27
 70
     1
102
RTVSPropertyOp28
 70
     1
102
RTVSPropertyOp29
 70
     1
102
RTVSPropertyOp30
 70
     1
102
RTVSPropertyOp31
 70
     1
102
RTVSPropertyOp32
 70
     1
102
RTVSPropertyOp33
 70
     1
102
RTVSPropertyOp34
 70
     1
102
RTVSPropertyOp35
 70
     1
102
RTVSPropertyOp36
 70
     1
102
RTVSPropertyOp37
 70
     1
102
RTVSPropertyOp38
 70
     1
102
RTVSPropertyOp39
 70
     1
102
RTVSPropertyOp40
 70
     1
102
RTVSPropertyOp41
 70
     1
102
RTVSPropertyOp42
 70
     1
102
RTVSPropertyOp43
 70
     1
102
RTVSPropertyOp44
 70
     1
102
RTVSPropertyOp45
 70
     1
102
RTVSPropertyOp46
 70
     1
102
RTVSPropertyOp47
 70
     1
102
RTVSPropertyOp48
 70
     1
102
RTVSPropertyOp49
 70
     1
102
RTVSPropertyOp50
 70
     1
102
RTVSPropertyOp51
 70
     0
102
RTVSPropertyOp52
 70
     0
102
RTVSPropertyOp53
 70
     1
102
RTVSPropertyOp54
 70
     1
102
RTVSPropertyOp55
 70
     1
102
RTVSPropertyOp56
 70
     1
102
RTVSPropertyOp57
 70
     1
102
RTVSPropertyOp58
 70
     1
102
RTVSPropertyOp59
 70
     1
102
RTVSPropertyOp60
 70
     1
102
RTVSPropertyOp61
 70
     1
102
RTVSPropertyOp62
 70
     1
  0
XRECORD
  5
994D
102
{ACAD_REACTORS
330
994C
102
}
330
994C
100
AcDbXrecord
280
     1
102
RTVSPost2010Prop28
280
     0
102
RTVSPost2010PropOp28
 70
     1
102
RTVSPost2010Prop29
280
     1
102
RTVSPost2010PropOp29
 70
     1
102
RTVSPost2010Prop30
280
     1
102
RTVSPost2010PropOp30
 70
     1
102
RTVSPost2010Prop31
280
     0
102
RTVSPost2010PropOp31
 70
     1
102
RTVSPost2010Prop32
280
     0
102
RTVSPost2010PropOp32
 70
     1
102
RTVSPost2010Prop33
280
     0
102
RTVSPost2010PropOp33
 70
     1
102
RTVSPost2010Prop34
280
     0
102
RTVSPost2010PropOp34
 70
     1
102
RTVSPost2010Prop35
280
     0
102
RTVSPost2010PropOp35
 70
     1
102
RTVSPost2010Prop36
280
     0
102
RTVSPost2010PropOp36
 70
     1
102
RTVSPost2010Prop37
 90
       50
102
RTVSPost2010PropOp37
 70
     0
102
RTVSPost2010Prop38
140
0.0
102
RTVSPost2010PropOp38
 70
     0
102
RTVSPost2010Prop39
140
1.0
102
RTVSPost2010PropOp39
 70
     0
102
RTVSPost2010Prop40
 90
        0
102
RTVSPost2010PropOp40
 70
     0
102
RTVSPost2010Prop41ColorIndex
 90
       18
102
RTVSPost2010Prop41ColorRGB
 90
        0
102
RTVSPost2010PropOp41
 70
     0
102
RTVSPost2010Prop42
 90
       50
102
RTVSPost2010PropOp42
 70
     0
102
RTVSPost2010Prop43
 90
        3
102
RTVSPost2010PropOp43
 70
     0
102
RTVSPost2010Prop44ColorIndex
 90
        5
102
RTVSPost2010Prop44ColorRGB
 90
      255
102
RTVSPost2010PropOp44
 70
     0
102
RTVSPost2010Prop45
280
     0
102
RTVSPost2010PropOp45
 70
     1
102
RTVSPost2010Prop46
 90
       50
102
RTVSPost2010PropOp46
 70
     0
102
RTVSPost2010Prop47
 90
       50
102
RTVSPost2010PropOp47
 70
     0
102
RTVSPost2010Prop48
 90
       50
102
RTVSPost2010PropOp48
 70
     0
102
RTVSPost2010Prop49
280
     0
102
RTVSPost2010PropOp49
 70
     1
102
RTVSPost2010Prop50
 90
       50
102
RTVSPost2010PropOp50
 70
     0
102
RTVSPost2010Prop51ColorIndex
 90
      256
102
RTVSPost2010Prop51ColorRGB
 90
-16777216
102
RTVSPost2010PropOp51
 70
     0
102
RTVSPost2010Prop52
140
1.0
102
RTVSPost2010PropOp52
 70
     0
102
RTVSPost2010Prop53
 90
        2
102
RTVSPost2010PropOp53
 70
     0
102
RTVSPost2010Prop54
  1
strokes_ogs.tif
102
RTVSPost2010PropOp54
 70
     0
102
RTVSPost2010Prop55
280
     0
102
RTVSPost2010PropOp55
 70
     1
102
RTVSPost2010Prop56
140
1.0
102
RTVSPost2010PropOp56
 70
     0
102
RTVSPost2010Prop57
140
1.0
102
RTVSPost2010PropOp57
 70
     0
102
RTVSPropertyOp0
 70
     0
102
RTVSPropertyOp1
 70
     0
102
RTVSPropertyOp2
 70
     0
102
RTVSPropertyOp3
 70
     0
102
RTVSPropertyOp4
 70
     0
102
RTVSPropertyOp5
 70
     0
102
RTVSPropertyOp6
 70
     0
102
RTVSPropertyOp7
 70
     0
102
RTVSPropertyOp8
 70
     0
102
RTVSPropertyOp9
 70
     0
102
RTVSPropertyOp10
 70
     0
102
RTVSPropertyOp11
 70
     0
102
RTVSPropertyOp12
 70
     0
102
RTVSPropertyOp13
 70
     0
102
RTVSPropertyOp14
 70
     2
102
RTVSPropertyOp15
 70
     0
102
RTVSPropertyOp16
 70
     0
102
RTVSPropertyOp17
 70
     0
102
RTVSPropertyOp18
 70
     0
102
RTVSPropertyOp19
 70
     0
102
RTVSPropertyOp20
 70
     0
102
RTVSPropertyOp21
 70
     0
102
RTVSPropertyOp22
 70
     0
102
RTVSPropertyOp23
 70
     0
102
RTVSPropertyOp24
 70
     0
102
RTVSPropertyOp25
 70
     0
102
RTVSPropertyOp26
 70
     0
102
RTVSPropertyOp27
 70
     0
102
RTVSPropertyOp28
 70
     1
102
RTVSPropertyOp29
 70
     1
102
RTVSPropertyOp30
 70
     1
102
RTVSPropertyOp31
 70
     1
102
RTVSPropertyOp32
 70
     1
102
RTVSPropertyOp33
 70
     1
102
RTVSPropertyOp34
 70
     1
102
RTVSPropertyOp35
 70
     1
102
RTVSPropertyOp36
 70
     1
102
RTVSPropertyOp37
 70
     0
102
RTVSPropertyOp38
 70
     0
102
RTVSPropertyOp39
 70
     0
102
RTVSPropertyOp40
 70
     0
102
RTVSPropertyOp41
 70
     0
102
RTVSPropertyOp42
 70
     0
102
RTVSPropertyOp43
 70
     0
102
RTVSPropertyOp44
 70
     0
102
RTVSPropertyOp45
 70
     1
102
RTVSPropertyOp46
 70
     0
102
RTVSPropertyOp47
 70
     0
102
RTVSPropertyOp48
 70
     0
102
RTVSPropertyOp49
 70
     1
102
RTVSPropertyOp50
 70
     0
102
RTVSPropertyOp51
 70
     0
102
RTVSPropertyOp52
 70
     0
102
RTVSPropertyOp53
 70
     0
102
RTVSPropertyOp54
 70
     0
102
RTVSPropertyOp55
 70
     1
102
RTVSPropertyOp56
 70
     0
102
RTVSPropertyOp57
 70
     0
102
RTVSPropertyOp58
 70
     0
102
RTVSPropertyOp59
 70
     0
102
RTVSPropertyOp60
 70
     0
102
RTVSPropertyOp61
 70
     0
102
RTVSPropertyOp62
 70
     0
  0
XRECORD
  5
993B
102
{ACAD_REACTORS
330
993A
102
}
330
993A
100
AcDbXrecord
280
     1
102
RTVSPost2010Prop28
280
     0
102
RTVSPost2010PropOp28
 70
     1
102
RTVSPost2010Prop29
280
     1
102
RTVSPost2010PropOp29
 70
     1
102
RTVSPost2010Prop30
280
     1
102
RTVSPost2010PropOp30
 70
     1
102
RTVSPost2010Prop31
280
     0
102
RTVSPost2010PropOp31
 70
     1
102
RTVSPost2010Prop32
280
     0
102
RTVSPost2010PropOp32
 70
     1
102
RTVSPost2010Prop33
280
     0
102
RTVSPost2010PropOp33
 70
     1
102
RTVSPost2010Prop34
280
     0
102
RTVSPost2010PropOp34
 70
     1
102
RTVSPost2010Prop35
280
     0
102
RTVSPost2010PropOp35
 70
     1
102
RTVSPost2010Prop36
280
     0
102
RTVSPost2010PropOp36
 70
     1
102
RTVSPost2010Prop37
 90
       50
102
RTVSPost2010PropOp37
 70
     1
102
RTVSPost2010Prop38
140
0.0
102
RTVSPost2010PropOp38
 70
     1
102
RTVSPost2010Prop39
140
1.0
102
RTVSPost2010PropOp39
 70
     1
102
RTVSPost2010Prop40
 90
        0
102
RTVSPost2010PropOp40
 70
     1
102
RTVSPost2010Prop41ColorIndex
 90
       18
102
RTVSPost2010Prop41ColorRGB
 90
        0
102
RTVSPost2010PropOp41
 70
     1
102
RTVSPost2010Prop42
 90
       50
102
RTVSPost2010PropOp42
 70
     1
102
RTVSPost2010Prop43
 90
        3
102
RTVSPost2010PropOp43
 70
     1
102
RTVSPost2010Prop44ColorIndex
 90
        5
102
RTVSPost2010Prop44ColorRGB
 90
      255
102
RTVSPost2010PropOp44
 70
     1
102
RTVSPost2010Prop45
280
     0
102
RTVSPost2010PropOp45
 70
     1
102
RTVSPost2010Prop46
 90
       50
102
RTVSPost2010PropOp46
 70
     1
102
RTVSPost2010Prop47
 90
       50
102
RTVSPost2010PropOp47
 70
     1
102
RTVSPost2010Prop48
 90
       50
102
RTVSPost2010PropOp48
 70
     1
102
RTVSPost2010Prop49
280
     0
102
RTVSPost2010PropOp49
 70
     1
102
RTVSPost2010Prop50
 90
       50
102
RTVSPost2010PropOp50
 70
     1
102
RTVSPost2010Prop51ColorIndex
 90
      256
102
RTVSPost2010Prop51ColorRGB
 90
-16777216
102
RTVSPost2010PropOp51
 70
     0
102
RTVSPost2010Prop52
140
1.0
102
RTVSPost2010PropOp52
 70
     0
102
RTVSPost2010Prop53
 90
        2
102
RTVSPost2010PropOp53
 70
     1
102
RTVSPost2010Prop54
  1
strokes_ogs.tif
102
RTVSPost2010PropOp54
 70
     1
102
RTVSPost2010Prop55
280
     0
102
RTVSPost2010PropOp55
 70
     1
102
RTVSPost2010Prop56
140
1.0
102
RTVSPost2010PropOp56
 70
     1
102
RTVSPost2010Prop57
140
1.0
102
RTVSPost2010PropOp57
 70
     1
102
RTVSPropertyOp0
 70
     1
102
RTVSPropertyOp1
 70
     1
102
RTVSPropertyOp2
 70
     1
102
RTVSPropertyOp3
 70
     1
102
RTVSPropertyOp4
 70
     1
102
RTVSPropertyOp5
 70
     1
102
RTVSPropertyOp6
 70
     1
102
RTVSPropertyOp7
 70
     1
102
RTVSPropertyOp8
 70
     1
102
RTVSPropertyOp9
 70
     1
102
RTVSPropertyOp10
 70
     1
102
RTVSPropertyOp11
 70
     1
102
RTVSPropertyOp12
 70
     1
102
RTVSPropertyOp13
 70
     1
102
RTVSPropertyOp14
 70
     1
102
RTVSPropertyOp15
 70
     1
102
RTVSPropertyOp16
 70
     1
102
RTVSPropertyOp17
 70
     1
102
RTVSPropertyOp18
 70
     1
102
RTVSPropertyOp19
 70
     1
102
RTVSPropertyOp20
 70
     1
102
RTVSPropertyOp21
 70
     1
102
RTVSPropertyOp22
 70
     1
102
RTVSPropertyOp23
 70
     1
102
RTVSPropertyOp24
 70
     1
102
RTVSPropertyOp25
 70
     1
102
RTVSPropertyOp26
 70
     1
102
RTVSPropertyOp27
 70
     1
102
RTVSPropertyOp28
 70
     1
102
RTVSPropertyOp29
 70
     1
102
RTVSPropertyOp30
 70
     1
102
RTVSPropertyOp31
 70
     1
102
RTVSPropertyOp32
 70
     1
102
RTVSPropertyOp33
 70
     1
102
RTVSPropertyOp34
 70
     1
102
RTVSPropertyOp35
 70
     1
102
RTVSPropertyOp36
 70
     1
102
RTVSPropertyOp37
 70
     1
102
RTVSPropertyOp38
 70
     1
102
RTVSPropertyOp39
 70
     1
102
RTVSPropertyOp40
 70
     1
102
RTVSPropertyOp41
 70
     1
102
RTVSPropertyOp42
 70
     1
102
RTVSPropertyOp43
 70
     1
102
RTVSPropertyOp44
 70
     1
102
RTVSPropertyOp45
 70
     1
102
RTVSPropertyOp46
 70
     1
102
RTVSPropertyOp47
 70
     1
102
RTVSPropertyOp48
 70
     1
102
RTVSPropertyOp49
 70
     1
102
RTVSPropertyOp50
 70
     1
102
RTVSPropertyOp51
 70
     0
102
RTVSPropertyOp52
 70
     0
102
RTVSPropertyOp53
 70
     1
102
RTVSPropertyOp54
 70
     1
102
RTVSPropertyOp55
 70
     1
102
RTVSPropertyOp56
 70
     1
102
RTVSPropertyOp57
 70
     1
102
RTVSPropertyOp58
 70
     1
102
RTVSPropertyOp59
 70
     1
102
RTVSPropertyOp60
 70
     1
102
RTVSPropertyOp61
 70
     1
102
RTVSPropertyOp62
 70
     1
  0
XRECORD
  5
991F
102
{ACAD_REACTORS
330
991E
102
}
330
991E
100
AcDbXrecord
280
     1
102
RTVSPost2010Prop28
280
     0
102
RTVSPost2010PropOp28
 70
     1
102
RTVSPost2010Prop29
280
     1
102
RTVSPost2010PropOp29
 70
     1
102
RTVSPost2010Prop30
280
     1
102
RTVSPost2010PropOp30
 70
     1
102
RTVSPost2010Prop31
280
     0
102
RTVSPost2010PropOp31
 70
     1
102
RTVSPost2010Prop32
280
     0
102
RTVSPost2010PropOp32
 70
     1
102
RTVSPost2010Prop33
280
     0
102
RTVSPost2010PropOp33
 70
     1
102
RTVSPost2010Prop34
280
     0
102
RTVSPost2010PropOp34
 70
     1
102
RTVSPost2010Prop35
280
     0
102
RTVSPost2010PropOp35
 70
     1
102
RTVSPost2010Prop36
280
     0
102
RTVSPost2010PropOp36
 70
     1
102
RTVSPost2010Prop37
 90
       50
102
RTVSPost2010PropOp37
 70
     1
102
RTVSPost2010Prop38
140
0.0
102
RTVSPost2010PropOp38
 70
     1
102
RTVSPost2010Prop39
140
1.0
102
RTVSPost2010PropOp39
 70
     1
102
RTVSPost2010Prop40
 90
        0
102
RTVSPost2010PropOp40
 70
     1
102
RTVSPost2010Prop41ColorIndex
 90
       18
102
RTVSPost2010Prop41ColorRGB
 90
        0
102
RTVSPost2010PropOp41
 70
     1
102
RTVSPost2010Prop42
 90
       50
102
RTVSPost2010PropOp42
 70
     1
102
RTVSPost2010Prop43
 90
        3
102
RTVSPost2010PropOp43
 70
     1
102
RTVSPost2010Prop44ColorIndex
 90
        5
102
RTVSPost2010Prop44ColorRGB
 90
      255
102
RTVSPost2010PropOp44
 70
     1
102
RTVSPost2010Prop45
280
     0
102
RTVSPost2010PropOp45
 70
     1
102
RTVSPost2010Prop46
 90
       50
102
RTVSPost2010PropOp46
 70
     1
102
RTVSPost2010Prop47
 90
       50
102
RTVSPost2010PropOp47
 70
     1
102
RTVSPost2010Prop48
 90
       50
102
RTVSPost2010PropOp48
 70
     1
102
RTVSPost2010Prop49
280
     0
102
RTVSPost2010PropOp49
 70
     1
102
RTVSPost2010Prop50
 90
       50
102
RTVSPost2010PropOp50
 70
     1
102
RTVSPost2010Prop51ColorIndex
 90
      256
102
RTVSPost2010Prop51ColorRGB
 90
-16777216
102
RTVSPost2010PropOp51
 70
     0
102
RTVSPost2010Prop52
140
1.0
102
RTVSPost2010PropOp52
 70
     0
102
RTVSPost2010Prop53
 90
        2
102
RTVSPost2010PropOp53
 70
     1
102
RTVSPost2010Prop54
  1
strokes_ogs.tif
102
RTVSPost2010PropOp54
 70
     1
102
RTVSPost2010Prop55
280
     0
102
RTVSPost2010PropOp55
 70
     1
102
RTVSPost2010Prop56
140
1.0
102
RTVSPost2010PropOp56
 70
     1
102
RTVSPost2010Prop57
140
1.0
102
RTVSPost2010PropOp57
 70
     1
102
RTVSPropertyOp0
 70
     1
102
RTVSPropertyOp1
 70
     1
102
RTVSPropertyOp2
 70
     1
102
RTVSPropertyOp3
 70
     1
102
RTVSPropertyOp4
 70
     1
102
RTVSPropertyOp5
 70
     1
102
RTVSPropertyOp6
 70
     1
102
RTVSPropertyOp7
 70
     1
102
RTVSPropertyOp8
 70
     1
102
RTVSPropertyOp9
 70
     1
102
RTVSPropertyOp10
 70
     1
102
RTVSPropertyOp11
 70
     1
102
RTVSPropertyOp12
 70
     1
102
RTVSPropertyOp13
 70
     1
102
RTVSPropertyOp14
 70
     1
102
RTVSPropertyOp15
 70
     1
102
RTVSPropertyOp16
 70
     1
102
RTVSPropertyOp17
 70
     1
102
RTVSPropertyOp18
 70
     1
102
RTVSPropertyOp19
 70
     1
102
RTVSPropertyOp20
 70
     1
102
RTVSPropertyOp21
 70
     1
102
RTVSPropertyOp22
 70
     1
102
RTVSPropertyOp23
 70
     1
102
RTVSPropertyOp24
 70
     1
102
RTVSPropertyOp25
 70
     1
102
RTVSPropertyOp26
 70
     1
102
RTVSPropertyOp27
 70
     1
102
RTVSPropertyOp28
 70
     1
102
RTVSPropertyOp29
 70
     1
102
RTVSPropertyOp30
 70
     1
102
RTVSPropertyOp31
 70
     1
102
RTVSPropertyOp32
 70
     1
102
RTVSPropertyOp33
 70
     1
102
RTVSPropertyOp34
 70
     1
102
RTVSPropertyOp35
 70
     1
102
RTVSPropertyOp36
 70
     1
102
RTVSPropertyOp37
 70
     1
102
RTVSPropertyOp38
 70
     1
102
RTVSPropertyOp39
 70
     1
102
RTVSPropertyOp40
 70
     1
102
RTVSPropertyOp41
 70
     1
102
RTVSPropertyOp42
 70
     1
102
RTVSPropertyOp43
 70
     1
102
RTVSPropertyOp44
 70
     1
102
RTVSPropertyOp45
 70
     1
102
RTVSPropertyOp46
 70
     1
102
RTVSPropertyOp47
 70
     1
102
RTVSPropertyOp48
 70
     1
102
RTVSPropertyOp49
 70
     1
102
RTVSPropertyOp50
 70
     1
102
RTVSPropertyOp51
 70
     0
102
RTVSPropertyOp52
 70
     0
102
RTVSPropertyOp53
 70
     1
102
RTVSPropertyOp54
 70
     1
102
RTVSPropertyOp55
 70
     1
102
RTVSPropertyOp56
 70
     1
102
RTVSPropertyOp57
 70
     1
102
RTVSPropertyOp58
 70
     1
102
RTVSPropertyOp59
 70
     1
102
RTVSPropertyOp60
 70
     1
102
RTVSPropertyOp61
 70
     1
102
RTVSPropertyOp62
 70
     1
  0
XRECORD
  5
9921
102
{ACAD_REACTORS
330
9920
102
}
330
9920
100
AcDbXrecord
280
     1
102
RTVSPost2010Prop28
280
     0
102
RTVSPost2010PropOp28
 70
     1
102
RTVSPost2010Prop29
280
     1
102
RTVSPost2010PropOp29
 70
     1
102
RTVSPost2010Prop30
280
     1
102
RTVSPost2010PropOp30
 70
     1
102
RTVSPost2010Prop31
280
     0
102
RTVSPost2010PropOp31
 70
     1
102
RTVSPost2010Prop32
280
     0
102
RTVSPost2010PropOp32
 70
     1
102
RTVSPost2010Prop33
280
     0
102
RTVSPost2010PropOp33
 70
     1
102
RTVSPost2010Prop34
280
     0
102
RTVSPost2010PropOp34
 70
     1
102
RTVSPost2010Prop35
280
     0
102
RTVSPost2010PropOp35
 70
     1
102
RTVSPost2010Prop36
280
     0
102
RTVSPost2010PropOp36
 70
     1
102
RTVSPost2010Prop37
 90
       50
102
RTVSPost2010PropOp37
 70
     1
102
RTVSPost2010Prop38
140
0.0
102
RTVSPost2010PropOp38
 70
     1
102
RTVSPost2010Prop39
140
1.0
102
RTVSPost2010PropOp39
 70
     1
102
RTVSPost2010Prop40
 90
        0
102
RTVSPost2010PropOp40
 70
     1
102
RTVSPost2010Prop41ColorIndex
 90
       18
102
RTVSPost2010Prop41ColorRGB
 90
        0
102
RTVSPost2010PropOp41
 70
     1
102
RTVSPost2010Prop42
 90
       50
102
RTVSPost2010PropOp42
 70
     1
102
RTVSPost2010Prop43
 90
        3
102
RTVSPost2010PropOp43
 70
     1
102
RTVSPost2010Prop44ColorIndex
 90
        5
102
RTVSPost2010Prop44ColorRGB
 90
      255
102
RTVSPost2010PropOp44
 70
     1
102
RTVSPost2010Prop45
280
     0
102
RTVSPost2010PropOp45
 70
     1
102
RTVSPost2010Prop46
 90
       50
102
RTVSPost2010PropOp46
 70
     1
102
RTVSPost2010Prop47
 90
       50
102
RTVSPost2010PropOp47
 70
     1
102
RTVSPost2010Prop48
 90
       50
102
RTVSPost2010PropOp48
 70
     1
102
RTVSPost2010Prop49
280
     0
102
RTVSPost2010PropOp49
 70
     1
102
RTVSPost2010Prop50
 90
       50
102
RTVSPost2010PropOp50
 70
     1
102
RTVSPost2010Prop51ColorIndex
 90
      256
102
RTVSPost2010Prop51ColorRGB
 90
-16777216
102
RTVSPost2010PropOp51
 70
     0
102
RTVSPost2010Prop52
140
1.0
102
RTVSPost2010PropOp52
 70
     0
102
RTVSPost2010Prop53
 90
        2
102
RTVSPost2010PropOp53
 70
     1
102
RTVSPost2010Prop54
  1
strokes_ogs.tif
102
RTVSPost2010PropOp54
 70
     1
102
RTVSPost2010Prop55
280
     0
102
RTVSPost2010PropOp55
 70
     1
102
RTVSPost2010Prop56
140
1.0
102
RTVSPost2010PropOp56
 70
     1
102
RTVSPost2010Prop57
140
1.0
102
RTVSPost2010PropOp57
 70
     1
102
RTVSPropertyOp0
 70
     1
102
RTVSPropertyOp1
 70
     1
102
RTVSPropertyOp2
 70
     1
102
RTVSPropertyOp3
 70
     1
102
RTVSPropertyOp4
 70
     1
102
RTVSPropertyOp5
 70
     1
102
RTVSPropertyOp6
 70
     1
102
RTVSPropertyOp7
 70
     1
102
RTVSPropertyOp8
 70
     1
102
RTVSPropertyOp9
 70
     1
102
RTVSPropertyOp10
 70
     1
102
RTVSPropertyOp11
 70
     1
102
RTVSPropertyOp12
 70
     1
102
RTVSPropertyOp13
 70
     1
102
RTVSPropertyOp14
 70
     1
102
RTVSPropertyOp15
 70
     1
102
RTVSPropertyOp16
 70
     1
102
RTVSPropertyOp17
 70
     1
102
RTVSPropertyOp18
 70
     1
102
RTVSPropertyOp19
 70
     1
102
RTVSPropertyOp20
 70
     1
102
RTVSPropertyOp21
 70
     1
102
RTVSPropertyOp22
 70
     1
102
RTVSPropertyOp23
 70
     1
102
RTVSPropertyOp24
 70
     1
102
RTVSPropertyOp25
 70
     1
102
RTVSPropertyOp26
 70
     1
102
RTVSPropertyOp27
 70
     1
102
RTVSPropertyOp28
 70
     1
102
RTVSPropertyOp29
 70
     1
102
RTVSPropertyOp30
 70
     1
102
RTVSPropertyOp31
 70
     1
102
RTVSPropertyOp32
 70
     1
102
RTVSPropertyOp33
 70
     1
102
RTVSPropertyOp34
 70
     1
102
RTVSPropertyOp35
 70
     1
102
RTVSPropertyOp36
 70
     1
102
RTVSPropertyOp37
 70
     1
102
RTVSPropertyOp38
 70
     1
102
RTVSPropertyOp39
 70
     1
102
RTVSPropertyOp40
 70
     1
102
RTVSPropertyOp41
 70
     1
102
RTVSPropertyOp42
 70
     1
102
RTVSPropertyOp43
 70
     1
102
RTVSPropertyOp44
 70
     1
102
RTVSPropertyOp45
 70
     1
102
RTVSPropertyOp46
 70
     1
102
RTVSPropertyOp47
 70
     1
102
RTVSPropertyOp48
 70
     1
102
RTVSPropertyOp49
 70
     1
102
RTVSPropertyOp50
 70
     1
102
RTVSPropertyOp51
 70
     0
102
RTVSPropertyOp52
 70
     0
102
RTVSPropertyOp53
 70
     1
102
RTVSPropertyOp54
 70
     1
102
RTVSPropertyOp55
 70
     1
102
RTVSPropertyOp56
 70
     1
102
RTVSPropertyOp57
 70
     1
102
RTVSPropertyOp58
 70
     1
102
RTVSPropertyOp59
 70
     1
102
RTVSPropertyOp60
 70
     1
102
RTVSPropertyOp61
 70
     1
102
RTVSPropertyOp62
 70
     1
  0
XRECORD
  5
9923
102
{ACAD_REACTORS
330
9922
102
}
330
9922
100
AcDbXrecord
280
     1
102
RTVSPost2010Prop28
280
     0
102
RTVSPost2010PropOp28
 70
     1
102
RTVSPost2010Prop29
280
     1
102
RTVSPost2010PropOp29
 70
     1
102
RTVSPost2010Prop30
280
     1
102
RTVSPost2010PropOp30
 70
     1
102
RTVSPost2010Prop31
280
     0
102
RTVSPost2010PropOp31
 70
     1
102
RTVSPost2010Prop32
280
     0
102
RTVSPost2010PropOp32
 70
     1
102
RTVSPost2010Prop33
280
     0
102
RTVSPost2010PropOp33
 70
     1
102
RTVSPost2010Prop34
280
     0
102
RTVSPost2010PropOp34
 70
     1
102
RTVSPost2010Prop35
280
     0
102
RTVSPost2010PropOp35
 70
     1
102
RTVSPost2010Prop36
280
     0
102
RTVSPost2010PropOp36
 70
     1
102
RTVSPost2010Prop37
 90
       50
102
RTVSPost2010PropOp37
 70
     1
102
RTVSPost2010Prop38
140
0.0
102
RTVSPost2010PropOp38
 70
     1
102
RTVSPost2010Prop39
140
1.0
102
RTVSPost2010PropOp39
 70
     1
102
RTVSPost2010Prop40
 90
        0
102
RTVSPost2010PropOp40
 70
     1
102
RTVSPost2010Prop41ColorIndex
 90
       18
102
RTVSPost2010Prop41ColorRGB
 90
        0
102
RTVSPost2010PropOp41
 70
     1
102
RTVSPost2010Prop42
 90
       50
102
RTVSPost2010PropOp42
 70
     1
102
RTVSPost2010Prop43
 90
        3
102
RTVSPost2010PropOp43
 70
     1
102
RTVSPost2010Prop44ColorIndex
 90
        5
102
RTVSPost2010Prop44ColorRGB
 90
      255
102
RTVSPost2010PropOp44
 70
     1
102
RTVSPost2010Prop45
280
     0
102
RTVSPost2010PropOp45
 70
     1
102
RTVSPost2010Prop46
 90
       50
102
RTVSPost2010PropOp46
 70
     1
102
RTVSPost2010Prop47
 90
       50
102
RTVSPost2010PropOp47
 70
     1
102
RTVSPost2010Prop48
 90
       50
102
RTVSPost2010PropOp48
 70
     1
102
RTVSPost2010Prop49
280
     0
102
RTVSPost2010PropOp49
 70
     1
102
RTVSPost2010Prop50
 90
       50
102
RTVSPost2010PropOp50
 70
     1
102
RTVSPost2010Prop51ColorIndex
 90
      256
102
RTVSPost2010Prop51ColorRGB
 90
-16777216
102
RTVSPost2010PropOp51
 70
     0
102
RTVSPost2010Prop52
140
1.0
102
RTVSPost2010PropOp52
 70
     0
102
RTVSPost2010Prop53
 90
        2
102
RTVSPost2010PropOp53
 70
     1
102
RTVSPost2010Prop54
  1
strokes_ogs.tif
102
RTVSPost2010PropOp54
 70
     1
102
RTVSPost2010Prop55
280
     0
102
RTVSPost2010PropOp55
 70
     1
102
RTVSPost2010Prop56
140
1.0
102
RTVSPost2010PropOp56
 70
     1
102
RTVSPost2010Prop57
140
1.0
102
RTVSPost2010PropOp57
 70
     1
102
RTVSPropertyOp0
 70
     1
102
RTVSPropertyOp1
 70
     1
102
RTVSPropertyOp2
 70
     1
102
RTVSPropertyOp3
 70
     1
102
RTVSPropertyOp4
 70
     1
102
RTVSPropertyOp5
 70
     1
102
RTVSPropertyOp6
 70
     1
102
RTVSPropertyOp7
 70
     1
102
RTVSPropertyOp8
 70
     1
102
RTVSPropertyOp9
 70
     1
102
RTVSPropertyOp10
 70
     1
102
RTVSPropertyOp11
 70
     1
102
RTVSPropertyOp12
 70
     1
102
RTVSPropertyOp13
 70
     1
102
RTVSPropertyOp14
 70
     1
102
RTVSPropertyOp15
 70
     1
102
RTVSPropertyOp16
 70
     1
102
RTVSPropertyOp17
 70
     1
102
RTVSPropertyOp18
 70
     1
102
RTVSPropertyOp19
 70
     1
102
RTVSPropertyOp20
 70
     1
102
RTVSPropertyOp21
 70
     1
102
RTVSPropertyOp22
 70
     1
102
RTVSPropertyOp23
 70
     1
102
RTVSPropertyOp24
 70
     1
102
RTVSPropertyOp25
 70
     1
102
RTVSPropertyOp26
 70
     1
102
RTVSPropertyOp27
 70
     1
102
RTVSPropertyOp28
 70
     1
102
RTVSPropertyOp29
 70
     1
102
RTVSPropertyOp30
 70
     1
102
RTVSPropertyOp31
 70
     1
102
RTVSPropertyOp32
 70
     1
102
RTVSPropertyOp33
 70
     1
102
RTVSPropertyOp34
 70
     1
102
RTVSPropertyOp35
 70
     1
102
RTVSPropertyOp36
 70
     1
102
RTVSPropertyOp37
 70
     1
102
RTVSPropertyOp38
 70
     1
102
RTVSPropertyOp39
 70
     1
102
RTVSPropertyOp40
 70
     1
102
RTVSPropertyOp41
 70
     1
102
RTVSPropertyOp42
 70
     1
102
RTVSPropertyOp43
 70
     1
102
RTVSPropertyOp44
 70
     1
102
RTVSPropertyOp45
 70
     1
102
RTVSPropertyOp46
 70
     1
102
RTVSPropertyOp47
 70
     1
102
RTVSPropertyOp48
 70
     1
102
RTVSPropertyOp49
 70
     1
102
RTVSPropertyOp50
 70
     1
102
RTVSPropertyOp51
 70
     0
102
RTVSPropertyOp52
 70
     0
102
RTVSPropertyOp53
 70
     1
102
RTVSPropertyOp54
 70
     1
102
RTVSPropertyOp55
 70
     1
102
RTVSPropertyOp56
 70
     1
102
RTVSPropertyOp57
 70
     1
102
RTVSPropertyOp58
 70
     1
102
RTVSPropertyOp59
 70
     1
102
RTVSPropertyOp60
 70
     1
102
RTVSPropertyOp61
 70
     1
102
RTVSPropertyOp62
 70
     1
  0
XRECORD
  5
9925
102
{ACAD_REACTORS
330
9924
102
}
330
9924
100
AcDbXrecord
280
     1
102
RTVSPost2010Prop28
280
     0
102
RTVSPost2010PropOp28
 70
     1
102
RTVSPost2010Prop29
280
     1
102
RTVSPost2010PropOp29
 70
     1
102
RTVSPost2010Prop30
280
     1
102
RTVSPost2010PropOp30
 70
     1
102
RTVSPost2010Prop31
280
     0
102
RTVSPost2010PropOp31
 70
     1
102
RTVSPost2010Prop32
280
     0
102
RTVSPost2010PropOp32
 70
     1
102
RTVSPost2010Prop33
280
     0
102
RTVSPost2010PropOp33
 70
     1
102
RTVSPost2010Prop34
280
     0
102
RTVSPost2010PropOp34
 70
     1
102
RTVSPost2010Prop35
280
     0
102
RTVSPost2010PropOp35
 70
     1
102
RTVSPost2010Prop36
280
     0
102
RTVSPost2010PropOp36
 70
     1
102
RTVSPost2010Prop37
 90
       50
102
RTVSPost2010PropOp37
 70
     1
102
RTVSPost2010Prop38
140
0.0
102
RTVSPost2010PropOp38
 70
     1
102
RTVSPost2010Prop39
140
1.0
102
RTVSPost2010PropOp39
 70
     1
102
RTVSPost2010Prop40
 90
        0
102
RTVSPost2010PropOp40
 70
     1
102
RTVSPost2010Prop41ColorIndex
 90
       18
102
RTVSPost2010Prop41ColorRGB
 90
        0
102
RTVSPost2010PropOp41
 70
     1
102
RTVSPost2010Prop42
 90
       50
102
RTVSPost2010PropOp42
 70
     1
102
RTVSPost2010Prop43
 90
        3
102
RTVSPost2010PropOp43
 70
     1
102
RTVSPost2010Prop44ColorIndex
 90
        5
102
RTVSPost2010Prop44ColorRGB
 90
      255
102
RTVSPost2010PropOp44
 70
     1
102
RTVSPost2010Prop45
280
     0
102
RTVSPost2010PropOp45
 70
     1
102
RTVSPost2010Prop46
 90
       50
102
RTVSPost2010PropOp46
 70
     1
102
RTVSPost2010Prop47
 90
       50
102
RTVSPost2010PropOp47
 70
     1
102
RTVSPost2010Prop48
 90
       50
102
RTVSPost2010PropOp48
 70
     1
102
RTVSPost2010Prop49
280
     0
102
RTVSPost2010PropOp49
 70
     1
102
RTVSPost2010Prop50
 90
       50
102
RTVSPost2010PropOp50
 70
     1
102
RTVSPost2010Prop51ColorIndex
 90
      256
102
RTVSPost2010Prop51ColorRGB
 90
-16777216
102
RTVSPost2010PropOp51
 70
     0
102
RTVSPost2010Prop52
140
1.0
102
RTVSPost2010PropOp52
 70
     0
102
RTVSPost2010Prop53
 90
        2
102
RTVSPost2010PropOp53
 70
     1
102
RTVSPost2010Prop54
  1
strokes_ogs.tif
102
RTVSPost2010PropOp54
 70
     1
102
RTVSPost2010Prop55
280
     0
102
RTVSPost2010PropOp55
 70
     1
102
RTVSPost2010Prop56
140
1.0
102
RTVSPost2010PropOp56
 70
     1
102
RTVSPost2010Prop57
140
1.0
102
RTVSPost2010PropOp57
 70
     1
102
RTVSPropertyOp0
 70
     1
102
RTVSPropertyOp1
 70
     1
102
RTVSPropertyOp2
 70
     1
102
RTVSPropertyOp3
 70
     1
102
RTVSPropertyOp4
 70
     1
102
RTVSPropertyOp5
 70
     1
102
RTVSPropertyOp6
 70
     1
102
RTVSPropertyOp7
 70
     1
102
RTVSPropertyOp8
 70
     1
102
RTVSPropertyOp9
 70
     1
102
RTVSPropertyOp10
 70
     1
102
RTVSPropertyOp11
 70
     1
102
RTVSPropertyOp12
 70
     1
102
RTVSPropertyOp13
 70
     1
102
RTVSPropertyOp14
 70
     1
102
RTVSPropertyOp15
 70
     1
102
RTVSPropertyOp16
 70
     1
102
RTVSPropertyOp17
 70
     1
102
RTVSPropertyOp18
 70
     1
102
RTVSPropertyOp19
 70
     1
102
RTVSPropertyOp20
 70
     1
102
RTVSPropertyOp21
 70
     1
102
RTVSPropertyOp22
 70
     1
102
RTVSPropertyOp23
 70
     1
102
RTVSPropertyOp24
 70
     1
102
RTVSPropertyOp25
 70
     1
102
RTVSPropertyOp26
 70
     1
102
RTVSPropertyOp27
 70
     1
102
RTVSPropertyOp28
 70
     1
102
RTVSPropertyOp29
 70
     1
102
RTVSPropertyOp30
 70
     1
102
RTVSPropertyOp31
 70
     1
102
RTVSPropertyOp32
 70
     1
102
RTVSPropertyOp33
 70
     1
102
RTVSPropertyOp34
 70
     1
102
RTVSPropertyOp35
 70
     1
102
RTVSPropertyOp36
 70
     1
102
RTVSPropertyOp37
 70
     1
102
RTVSPropertyOp38
 70
     1
102
RTVSPropertyOp39
 70
     1
102
RTVSPropertyOp40
 70
     1
102
RTVSPropertyOp41
 70
     1
102
RTVSPropertyOp42
 70
     1
102
RTVSPropertyOp43
 70
     1
102
RTVSPropertyOp44
 70
     1
102
RTVSPropertyOp45
 70
     1
102
RTVSPropertyOp46
 70
     1
102
RTVSPropertyOp47
 70
     1
102
RTVSPropertyOp48
 70
     1
102
RTVSPropertyOp49
 70
     1
102
RTVSPropertyOp50
 70
     1
102
RTVSPropertyOp51
 70
     0
102
RTVSPropertyOp52
 70
     0
102
RTVSPropertyOp53
 70
     1
102
RTVSPropertyOp54
 70
     1
102
RTVSPropertyOp55
 70
     1
102
RTVSPropertyOp56
 70
     1
102
RTVSPropertyOp57
 70
     1
102
RTVSPropertyOp58
 70
     1
102
RTVSPropertyOp59
 70
     1
102
RTVSPropertyOp60
 70
     1
102
RTVSPropertyOp61
 70
     1
102
RTVSPropertyOp62
 70
     1
  0
XRECORD
  5
992D
102
{ACAD_REACTORS
330
992C
102
}
330
992C
100
AcDbXrecord
280
     1
102
RTVSPost2010Prop28
280
     0
102
RTVSPost2010PropOp28
 70
     1
102
RTVSPost2010Prop29
280
     1
102
RTVSPost2010PropOp29
 70
     1
102
RTVSPost2010Prop30
280
     1
102
RTVSPost2010PropOp30
 70
     1
102
RTVSPost2010Prop31
280
     0
102
RTVSPost2010PropOp31
 70
     1
102
RTVSPost2010Prop32
280
     0
102
RTVSPost2010PropOp32
 70
     1
102
RTVSPost2010Prop33
280
     0
102
RTVSPost2010PropOp33
 70
     1
102
RTVSPost2010Prop34
280
     0
102
RTVSPost2010PropOp34
 70
     1
102
RTVSPost2010Prop35
280
     0
102
RTVSPost2010PropOp35
 70
     1
102
RTVSPost2010Prop36
280
     0
102
RTVSPost2010PropOp36
 70
     1
102
RTVSPost2010Prop37
 90
       50
102
RTVSPost2010PropOp37
 70
     1
102
RTVSPost2010Prop38
140
0.0
102
RTVSPost2010PropOp38
 70
     1
102
RTVSPost2010Prop39
140
1.0
102
RTVSPost2010PropOp39
 70
     1
102
RTVSPost2010Prop40
 90
        0
102
RTVSPost2010PropOp40
 70
     1
102
RTVSPost2010Prop41ColorIndex
 90
       18
102
RTVSPost2010Prop41ColorRGB
 90
        0
102
RTVSPost2010PropOp41
 70
     1
102
RTVSPost2010Prop42
 90
       50
102
RTVSPost2010PropOp42
 70
     1
102
RTVSPost2010Prop43
 90
        3
102
RTVSPost2010PropOp43
 70
     1
102
RTVSPost2010Prop44ColorIndex
 90
        5
102
RTVSPost2010Prop44ColorRGB
 90
      255
102
RTVSPost2010PropOp44
 70
     1
102
RTVSPost2010Prop45
280
     0
102
RTVSPost2010PropOp45
 70
     1
102
RTVSPost2010Prop46
 90
       50
102
RTVSPost2010PropOp46
 70
     1
102
RTVSPost2010Prop47
 90
       50
102
RTVSPost2010PropOp47
 70
     1
102
RTVSPost2010Prop48
 90
       50
102
RTVSPost2010PropOp48
 70
     1
102
RTVSPost2010Prop49
280
     0
102
RTVSPost2010PropOp49
 70
     1
102
RTVSPost2010Prop50
 90
       50
102
RTVSPost2010PropOp50
 70
     1
102
RTVSPost2010Prop51ColorIndex
 90
      256
102
RTVSPost2010Prop51ColorRGB
 90
-16777216
102
RTVSPost2010PropOp51
 70
     0
102
RTVSPost2010Prop52
140
1.0
102
RTVSPost2010PropOp52
 70
     0
102
RTVSPost2010Prop53
 90
        2
102
RTVSPost2010PropOp53
 70
     1
102
RTVSPost2010Prop54
  1
strokes_ogs.tif
102
RTVSPost2010PropOp54
 70
     1
102
RTVSPost2010Prop55
280
     0
102
RTVSPost2010PropOp55
 70
     1
102
RTVSPost2010Prop56
140
1.0
102
RTVSPost2010PropOp56
 70
     1
102
RTVSPost2010Prop57
140
1.0
102
RTVSPost2010PropOp57
 70
     1
102
RTVSPropertyOp0
 70
     1
102
RTVSPropertyOp1
 70
     1
102
RTVSPropertyOp2
 70
     1
102
RTVSPropertyOp3
 70
     1
102
RTVSPropertyOp4
 70
     1
102
RTVSPropertyOp5
 70
     1
102
RTVSPropertyOp6
 70
     1
102
RTVSPropertyOp7
 70
     1
102
RTVSPropertyOp8
 70
     1
102
RTVSPropertyOp9
 70
     1
102
RTVSPropertyOp10
 70
     1
102
RTVSPropertyOp11
 70
     1
102
RTVSPropertyOp12
 70
     1
102
RTVSPropertyOp13
 70
     1
102
RTVSPropertyOp14
 70
     1
102
RTVSPropertyOp15
 70
     1
102
RTVSPropertyOp16
 70
     1
102
RTVSPropertyOp17
 70
     1
102
RTVSPropertyOp18
 70
     1
102
RTVSPropertyOp19
 70
     1
102
RTVSPropertyOp20
 70
     1
102
RTVSPropertyOp21
 70
     1
102
RTVSPropertyOp22
 70
     1
102
RTVSPropertyOp23
 70
     1
102
RTVSPropertyOp24
 70
     1
102
RTVSPropertyOp25
 70
     1
102
RTVSPropertyOp26
 70
     1
102
RTVSPropertyOp27
 70
     1
102
RTVSPropertyOp28
 70
     1
102
RTVSPropertyOp29
 70
     1
102
RTVSPropertyOp30
 70
     1
102
RTVSPropertyOp31
 70
     1
102
RTVSPropertyOp32
 70
     1
102
RTVSPropertyOp33
 70
     1
102
RTVSPropertyOp34
 70
     1
102
RTVSPropertyOp35
 70
     1
102
RTVSPropertyOp36
 70
     1
102
RTVSPropertyOp37
 70
     1
102
RTVSPropertyOp38
 70
     1
102
RTVSPropertyOp39
 70
     1
102
RTVSPropertyOp40
 70
     1
102
RTVSPropertyOp41
 70
     1
102
RTVSPropertyOp42
 70
     1
102
RTVSPropertyOp43
 70
     1
102
RTVSPropertyOp44
 70
     1
102
RTVSPropertyOp45
 70
     1
102
RTVSPropertyOp46
 70
     1
102
RTVSPropertyOp47
 70
     1
102
RTVSPropertyOp48
 70
     1
102
RTVSPropertyOp49
 70
     1
102
RTVSPropertyOp50
 70
     1
102
RTVSPropertyOp51
 70
     0
102
RTVSPropertyOp52
 70
     0
102
RTVSPropertyOp53
 70
     1
102
RTVSPropertyOp54
 70
     1
102
RTVSPropertyOp55
 70
     1
102
RTVSPropertyOp56
 70
     1
102
RTVSPropertyOp57
 70
     1
102
RTVSPropertyOp58
 70
     1
102
RTVSPropertyOp59
 70
     1
102
RTVSPropertyOp60
 70
     1
102
RTVSPropertyOp61
 70
     1
102
RTVSPropertyOp62
 70
     1
  0
XRECORD
  5
9949
102
{ACAD_REACTORS
330
9948
102
}
330
9948
100
AcDbXrecord
280
     1
102
RTVSPost2010Prop28
280
     0
102
RTVSPost2010PropOp28
 70
     1
102
RTVSPost2010Prop29
280
     1
102
RTVSPost2010PropOp29
 70
     1
102
RTVSPost2010Prop30
280
     1
102
RTVSPost2010PropOp30
 70
     1
102
RTVSPost2010Prop31
280
     0
102
RTVSPost2010PropOp31
 70
     1
102
RTVSPost2010Prop32
280
     0
102
RTVSPost2010PropOp32
 70
     1
102
RTVSPost2010Prop33
280
     0
102
RTVSPost2010PropOp33
 70
     1
102
RTVSPost2010Prop34
280
     0
102
RTVSPost2010PropOp34
 70
     1
102
RTVSPost2010Prop35
280
     0
102
RTVSPost2010PropOp35
 70
     1
102
RTVSPost2010Prop36
280
     0
102
RTVSPost2010PropOp36
 70
     1
102
RTVSPost2010Prop37
 90
       50
102
RTVSPost2010PropOp37
 70
     0
102
RTVSPost2010Prop38
140
0.0
102
RTVSPost2010PropOp38
 70
     0
102
RTVSPost2010Prop39
140
1.0
102
RTVSPost2010PropOp39
 70
     0
102
RTVSPost2010Prop40
 90
        0
102
RTVSPost2010PropOp40
 70
     0
102
RTVSPost2010Prop41ColorIndex
 90
       18
102
RTVSPost2010Prop41ColorRGB
 90
        0
102
RTVSPost2010PropOp41
 70
     0
102
RTVSPost2010Prop42
 90
       50
102
RTVSPost2010PropOp42
 70
     0
102
RTVSPost2010Prop43
 90
        3
102
RTVSPost2010PropOp43
 70
     0
102
RTVSPost2010Prop44ColorIndex
 90
        5
102
RTVSPost2010Prop44ColorRGB
 90
      255
102
RTVSPost2010PropOp44
 70
     0
102
RTVSPost2010Prop45
280
     0
102
RTVSPost2010PropOp45
 70
     1
102
RTVSPost2010Prop46
 90
       50
102
RTVSPost2010PropOp46
 70
     0
102
RTVSPost2010Prop47
 90
       50
102
RTVSPost2010PropOp47
 70
     0
102
RTVSPost2010Prop48
 90
       50
102
RTVSPost2010PropOp48
 70
     0
102
RTVSPost2010Prop49
280
     0
102
RTVSPost2010PropOp49
 70
     1
102
RTVSPost2010Prop50
 90
       50
102
RTVSPost2010PropOp50
 70
     0
102
RTVSPost2010Prop51ColorIndex
 90
      256
102
RTVSPost2010Prop51ColorRGB
 90
-16777216
102
RTVSPost2010PropOp51
 70
     0
102
RTVSPost2010Prop52
140
1.0
102
RTVSPost2010PropOp52
 70
     0
102
RTVSPost2010Prop53
 90
        2
102
RTVSPost2010PropOp53
 70
     0
102
RTVSPost2010Prop54
  1
strokes_ogs.tif
102
RTVSPost2010PropOp54
 70
     0
102
RTVSPost2010Prop55
280
     0
102
RTVSPost2010PropOp55
 70
     1
102
RTVSPost2010Prop56
140
1.0
102
RTVSPost2010PropOp56
 70
     0
102
RTVSPost2010Prop57
140
1.0
102
RTVSPost2010PropOp57
 70
     0
102
RTVSPropertyOp0
 70
     0
102
RTVSPropertyOp1
 70
     0
102
RTVSPropertyOp2
 70
     0
102
RTVSPropertyOp3
 70
     0
102
RTVSPropertyOp4
 70
     0
102
RTVSPropertyOp5
 70
     0
102
RTVSPropertyOp6
 70
     0
102
RTVSPropertyOp7
 70
     0
102
RTVSPropertyOp8
 70
     0
102
RTVSPropertyOp9
 70
     0
102
RTVSPropertyOp10
 70
     0
102
RTVSPropertyOp11
 70
     0
102
RTVSPropertyOp12
 70
     0
102
RTVSPropertyOp13
 70
     0
102
RTVSPropertyOp14
 70
     2
102
RTVSPropertyOp15
 70
     0
102
RTVSPropertyOp16
 70
     0
102
RTVSPropertyOp17
 70
     0
102
RTVSPropertyOp18
 70
     0
102
RTVSPropertyOp19
 70
     0
102
RTVSPropertyOp20
 70
     0
102
RTVSPropertyOp21
 70
     0
102
RTVSPropertyOp22
 70
     0
102
RTVSPropertyOp23
 70
     0
102
RTVSPropertyOp24
 70
     0
102
RTVSPropertyOp25
 70
     0
102
RTVSPropertyOp26
 70
     0
102
RTVSPropertyOp27
 70
     0
102
RTVSPropertyOp28
 70
     1
102
RTVSPropertyOp29
 70
     1
102
RTVSPropertyOp30
 70
     1
102
RTVSPropertyOp31
 70
     1
102
RTVSPropertyOp32
 70
     1
102
RTVSPropertyOp33
 70
     1
102
RTVSPropertyOp34
 70
     1
102
RTVSPropertyOp35
 70
     1
102
RTVSPropertyOp36
 70
     1
102
RTVSPropertyOp37
 70
     0
102
RTVSPropertyOp38
 70
     0
102
RTVSPropertyOp39
 70
     0
102
RTVSPropertyOp40
 70
     0
102
RTVSPropertyOp41
 70
     0
102
RTVSPropertyOp42
 70
     0
102
RTVSPropertyOp43
 70
     0
102
RTVSPropertyOp44
 70
     0
102
RTVSPropertyOp45
 70
     1
102
RTVSPropertyOp46
 70
     0
102
RTVSPropertyOp47
 70
     0
102
RTVSPropertyOp48
 70
     0
102
RTVSPropertyOp49
 70
     1
102
RTVSPropertyOp50
 70
     0
102
RTVSPropertyOp51
 70
     0
102
RTVSPropertyOp52
 70
     0
102
RTVSPropertyOp53
 70
     0
102
RTVSPropertyOp54
 70
     0
102
RTVSPropertyOp55
 70
     1
102
RTVSPropertyOp56
 70
     0
102
RTVSPropertyOp57
 70
     0
102
RTVSPropertyOp58
 70
     0
102
RTVSPropertyOp59
 70
     0
102
RTVSPropertyOp60
 70
     0
102
RTVSPropertyOp61
 70
     0
102
RTVSPropertyOp62
 70
     0
  0
XRECORD
  5
9939
102
{ACAD_REACTORS
330
9938
102
}
330
9938
100
AcDbXrecord
280
     1
102
RTVSPost2010Prop28
280
     0
102
RTVSPost2010PropOp28
 70
     1
102
RTVSPost2010Prop29
280
     1
102
RTVSPost2010PropOp29
 70
     1
102
RTVSPost2010Prop30
280
     1
102
RTVSPost2010PropOp30
 70
     1
102
RTVSPost2010Prop31
280
     0
102
RTVSPost2010PropOp31
 70
     1
102
RTVSPost2010Prop32
280
     0
102
RTVSPost2010PropOp32
 70
     1
102
RTVSPost2010Prop33
280
     0
102
RTVSPost2010PropOp33
 70
     1
102
RTVSPost2010Prop34
280
     0
102
RTVSPost2010PropOp34
 70
     1
102
RTVSPost2010Prop35
280
     0
102
RTVSPost2010PropOp35
 70
     1
102
RTVSPost2010Prop36
280
     0
102
RTVSPost2010PropOp36
 70
     1
102
RTVSPost2010Prop37
 90
       50
102
RTVSPost2010PropOp37
 70
     1
102
RTVSPost2010Prop38
140
0.0
102
RTVSPost2010PropOp38
 70
     1
102
RTVSPost2010Prop39
140
1.0
102
RTVSPost2010PropOp39
 70
     1
102
RTVSPost2010Prop40
 90
        0
102
RTVSPost2010PropOp40
 70
     1
102
RTVSPost2010Prop41ColorIndex
 90
       18
102
RTVSPost2010Prop41ColorRGB
 90
        0
102
RTVSPost2010PropOp41
 70
     1
102
RTVSPost2010Prop42
 90
       50
102
RTVSPost2010PropOp42
 70
     1
102
RTVSPost2010Prop43
 90
        3
102
RTVSPost2010PropOp43
 70
     1
102
RTVSPost2010Prop44ColorIndex
 90
        5
102
RTVSPost2010Prop44ColorRGB
 90
      255
102
RTVSPost2010PropOp44
 70
     1
102
RTVSPost2010Prop45
280
     0
102
RTVSPost2010PropOp45
 70
     1
102
RTVSPost2010Prop46
 90
       50
102
RTVSPost2010PropOp46
 70
     1
102
RTVSPost2010Prop47
 90
       50
102
RTVSPost2010PropOp47
 70
     1
102
RTVSPost2010Prop48
 90
       50
102
RTVSPost2010PropOp48
 70
     1
102
RTVSPost2010Prop49
280
     0
102
RTVSPost2010PropOp49
 70
     1
102
RTVSPost2010Prop50
 90
       50
102
RTVSPost2010PropOp50
 70
     1
102
RTVSPost2010Prop51ColorIndex
 90
      256
102
RTVSPost2010Prop51ColorRGB
 90
-16777216
102
RTVSPost2010PropOp51
 70
     0
102
RTVSPost2010Prop52
140
1.0
102
RTVSPost2010PropOp52
 70
     0
102
RTVSPost2010Prop53
 90
        2
102
RTVSPost2010PropOp53
 70
     1
102
RTVSPost2010Prop54
  1
strokes_ogs.tif
102
RTVSPost2010PropOp54
 70
     1
102
RTVSPost2010Prop55
280
     0
102
RTVSPost2010PropOp55
 70
     1
102
RTVSPost2010Prop56
140
1.0
102
RTVSPost2010PropOp56
 70
     1
102
RTVSPost2010Prop57
140
1.0
102
RTVSPost2010PropOp57
 70
     1
102
RTVSPropertyOp0
 70
     1
102
RTVSPropertyOp1
 70
     1
102
RTVSPropertyOp2
 70
     1
102
RTVSPropertyOp3
 70
     1
102
RTVSPropertyOp4
 70
     1
102
RTVSPropertyOp5
 70
     1
102
RTVSPropertyOp6
 70
     1
102
RTVSPropertyOp7
 70
     1
102
RTVSPropertyOp8
 70
     1
102
RTVSPropertyOp9
 70
     1
102
RTVSPropertyOp10
 70
     1
102
RTVSPropertyOp11
 70
     1
102
RTVSPropertyOp12
 70
     1
102
RTVSPropertyOp13
 70
     1
102
RTVSPropertyOp14
 70
     1
102
RTVSPropertyOp15
 70
     1
102
RTVSPropertyOp16
 70
     1
102
RTVSPropertyOp17
 70
     1
102
RTVSPropertyOp18
 70
     1
102
RTVSPropertyOp19
 70
     1
102
RTVSPropertyOp20
 70
     1
102
RTVSPropertyOp21
 70
     1
102
RTVSPropertyOp22
 70
     1
102
RTVSPropertyOp23
 70
     1
102
RTVSPropertyOp24
 70
     1
102
RTVSPropertyOp25
 70
     1
102
RTVSPropertyOp26
 70
     1
102
RTVSPropertyOp27
 70
     1
102
RTVSPropertyOp28
 70
     1
102
RTVSPropertyOp29
 70
     1
102
RTVSPropertyOp30
 70
     1
102
RTVSPropertyOp31
 70
     1
102
RTVSPropertyOp32
 70
     1
102
RTVSPropertyOp33
 70
     1
102
RTVSPropertyOp34
 70
     1
102
RTVSPropertyOp35
 70
     1
102
RTVSPropertyOp36
 70
     1
102
RTVSPropertyOp37
 70
     1
102
RTVSPropertyOp38
 70
     1
102
RTVSPropertyOp39
 70
     1
102
RTVSPropertyOp40
 70
     1
102
RTVSPropertyOp41
 70
     1
102
RTVSPropertyOp42
 70
     1
102
RTVSPropertyOp43
 70
     1
102
RTVSPropertyOp44
 70
     1
102
RTVSPropertyOp45
 70
     1
102
RTVSPropertyOp46
 70
     1
102
RTVSPropertyOp47
 70
     1
102
RTVSPropertyOp48
 70
     1
102
RTVSPropertyOp49
 70
     1
102
RTVSPropertyOp50
 70
     1
102
RTVSPropertyOp51
 70
     0
102
RTVSPropertyOp52
 70
     0
102
RTVSPropertyOp53
 70
     1
102
RTVSPropertyOp54
 70
     1
102
RTVSPropertyOp55
 70
     1
102
RTVSPropertyOp56
 70
     1
102
RTVSPropertyOp57
 70
     1
102
RTVSPropertyOp58
 70
     1
102
RTVSPropertyOp59
 70
     1
102
RTVSPropertyOp60
 70
     1
102
RTVSPropertyOp61
 70
     1
102
RTVSPropertyOp62
 70
     1
  0
XRECORD
  5
994B
102
{ACAD_REACTORS
330
994A
102
}
330
994A
100
AcDbXrecord
280
     1
102
RTVSPost2010Prop28
280
     0
102
RTVSPost2010PropOp28
 70
     1
102
RTVSPost2010Prop29
280
     1
102
RTVSPost2010PropOp29
 70
     1
102
RTVSPost2010Prop30
280
     1
102
RTVSPost2010PropOp30
 70
     1
102
RTVSPost2010Prop31
280
     0
102
RTVSPost2010PropOp31
 70
     1
102
RTVSPost2010Prop32
280
     0
102
RTVSPost2010PropOp32
 70
     1
102
RTVSPost2010Prop33
280
     0
102
RTVSPost2010PropOp33
 70
     1
102
RTVSPost2010Prop34
280
     0
102
RTVSPost2010PropOp34
 70
     1
102
RTVSPost2010Prop35
280
     0
102
RTVSPost2010PropOp35
 70
     1
102
RTVSPost2010Prop36
280
     0
102
RTVSPost2010PropOp36
 70
     1
102
RTVSPost2010Prop37
 90
       50
102
RTVSPost2010PropOp37
 70
     0
102
RTVSPost2010Prop38
140
0.0
102
RTVSPost2010PropOp38
 70
     0
102
RTVSPost2010Prop39
140
1.0
102
RTVSPost2010PropOp39
 70
     0
102
RTVSPost2010Prop40
 90
        0
102
RTVSPost2010PropOp40
 70
     0
102
RTVSPost2010Prop41ColorIndex
 90
       18
102
RTVSPost2010Prop41ColorRGB
 90
        0
102
RTVSPost2010PropOp41
 70
     0
102
RTVSPost2010Prop42
 90
       50
102
RTVSPost2010PropOp42
 70
     0
102
RTVSPost2010Prop43
 90
        3
102
RTVSPost2010PropOp43
 70
     0
102
RTVSPost2010Prop44ColorIndex
 90
        5
102
RTVSPost2010Prop44ColorRGB
 90
      255
102
RTVSPost2010PropOp44
 70
     0
102
RTVSPost2010Prop45
280
     0
102
RTVSPost2010PropOp45
 70
     1
102
RTVSPost2010Prop46
 90
       50
102
RTVSPost2010PropOp46
 70
     0
102
RTVSPost2010Prop47
 90
       50
102
RTVSPost2010PropOp47
 70
     0
102
RTVSPost2010Prop48
 90
       50
102
RTVSPost2010PropOp48
 70
     0
102
RTVSPost2010Prop49
280
     0
102
RTVSPost2010PropOp49
 70
     1
102
RTVSPost2010Prop50
 90
       50
102
RTVSPost2010PropOp50
 70
     0
102
RTVSPost2010Prop51ColorIndex
 90
      256
102
RTVSPost2010Prop51ColorRGB
 90
-16777216
102
RTVSPost2010PropOp51
 70
     0
102
RTVSPost2010Prop52
140
1.0
102
RTVSPost2010PropOp52
 70
     0
102
RTVSPost2010Prop53
 90
        2
102
RTVSPost2010PropOp53
 70
     0
102
RTVSPost2010Prop54
  1
strokes_ogs.tif
102
RTVSPost2010PropOp54
 70
     0
102
RTVSPost2010Prop55
280
     0
102
RTVSPost2010PropOp55
 70
     1
102
RTVSPost2010Prop56
140
1.0
102
RTVSPost2010PropOp56
 70
     0
102
RTVSPost2010Prop57
140
1.0
102
RTVSPost2010PropOp57
 70
     0
102
RTVSPropertyOp0
 70
     0
102
RTVSPropertyOp1
 70
     0
102
RTVSPropertyOp2
 70
     0
102
RTVSPropertyOp3
 70
     0
102
RTVSPropertyOp4
 70
     0
102
RTVSPropertyOp5
 70
     0
102
RTVSPropertyOp6
 70
     0
102
RTVSPropertyOp7
 70
     0
102
RTVSPropertyOp8
 70
     0
102
RTVSPropertyOp9
 70
     0
102
RTVSPropertyOp10
 70
     0
102
RTVSPropertyOp11
 70
     0
102
RTVSPropertyOp12
 70
     0
102
RTVSPropertyOp13
 70
     0
102
RTVSPropertyOp14
 70
     2
102
RTVSPropertyOp15
 70
     0
102
RTVSPropertyOp16
 70
     0
102
RTVSPropertyOp17
 70
     0
102
RTVSPropertyOp18
 70
     0
102
RTVSPropertyOp19
 70
     0
102
RTVSPropertyOp20
 70
     0
102
RTVSPropertyOp21
 70
     0
102
RTVSPropertyOp22
 70
     0
102
RTVSPropertyOp23
 70
     0
102
RTVSPropertyOp24
 70
     0
102
RTVSPropertyOp25
 70
     0
102
RTVSPropertyOp26
 70
     0
102
RTVSPropertyOp27
 70
     0
102
RTVSPropertyOp28
 70
     1
102
RTVSPropertyOp29
 70
     1
102
RTVSPropertyOp30
 70
     1
102
RTVSPropertyOp31
 70
     1
102
RTVSPropertyOp32
 70
     1
102
RTVSPropertyOp33
 70
     1
102
RTVSPropertyOp34
 70
     1
102
RTVSPropertyOp35
 70
     1
102
RTVSPropertyOp36
 70
     1
102
RTVSPropertyOp37
 70
     0
102
RTVSPropertyOp38
 70
     0
102
RTVSPropertyOp39
 70
     0
102
RTVSPropertyOp40
 70
     0
102
RTVSPropertyOp41
 70
     0
102
RTVSPropertyOp42
 70
     0
102
RTVSPropertyOp43
 70
     0
102
RTVSPropertyOp44
 70
     0
102
RTVSPropertyOp45
 70
     1
102
RTVSPropertyOp46
 70
     0
102
RTVSPropertyOp47
 70
     0
102
RTVSPropertyOp48
 70
     0
102
RTVSPropertyOp49
 70
     1
102
RTVSPropertyOp50
 70
     0
102
RTVSPropertyOp51
 70
     0
102
RTVSPropertyOp52
 70
     0
102
RTVSPropertyOp53
 70
     0
102
RTVSPropertyOp54
 70
     0
102
RTVSPropertyOp55
 70
     1
102
RTVSPropertyOp56
 70
     0
102
RTVSPropertyOp57
 70
     0
102
RTVSPropertyOp58
 70
     0
102
RTVSPropertyOp59
 70
     0
102
RTVSPropertyOp60
 70
     0
102
RTVSPropertyOp61
 70
     0
102
RTVSPropertyOp62
 70
     0
  0
XRECORD
  5
9931
102
{ACAD_REACTORS
330
9930
102
}
330
9930
100
AcDbXrecord
280
     1
102
RTVSPost2010Prop28
280
     0
102
RTVSPost2010PropOp28
 70
     1
102
RTVSPost2010Prop29
280
     1
102
RTVSPost2010PropOp29
 70
     1
102
RTVSPost2010Prop30
280
     1
102
RTVSPost2010PropOp30
 70
     1
102
RTVSPost2010Prop31
280
     0
102
RTVSPost2010PropOp31
 70
     1
102
RTVSPost2010Prop32
280
     0
102
RTVSPost2010PropOp32
 70
     1
102
RTVSPost2010Prop33
280
     0
102
RTVSPost2010PropOp33
 70
     1
102
RTVSPost2010Prop34
280
     0
102
RTVSPost2010PropOp34
 70
     1
102
RTVSPost2010Prop35
280
     0
102
RTVSPost2010PropOp35
 70
     1
102
RTVSPost2010Prop36
280
     0
102
RTVSPost2010PropOp36
 70
     1
102
RTVSPost2010Prop37
 90
       50
102
RTVSPost2010PropOp37
 70
     1
102
RTVSPost2010Prop38
140
0.0
102
RTVSPost2010PropOp38
 70
     1
102
RTVSPost2010Prop39
140
1.0
102
RTVSPost2010PropOp39
 70
     1
102
RTVSPost2010Prop40
 90
        0
102
RTVSPost2010PropOp40
 70
     1
102
RTVSPost2010Prop41ColorIndex
 90
       18
102
RTVSPost2010Prop41ColorRGB
 90
        0
102
RTVSPost2010PropOp41
 70
     1
102
RTVSPost2010Prop42
 90
       50
102
RTVSPost2010PropOp42
 70
     1
102
RTVSPost2010Prop43
 90
        3
102
RTVSPost2010PropOp43
 70
     1
102
RTVSPost2010Prop44ColorIndex
 90
        5
102
RTVSPost2010Prop44ColorRGB
 90
      255
102
RTVSPost2010PropOp44
 70
     1
102
RTVSPost2010Prop45
280
     0
102
RTVSPost2010PropOp45
 70
     1
102
RTVSPost2010Prop46
 90
       50
102
RTVSPost2010PropOp46
 70
     1
102
RTVSPost2010Prop47
 90
       50
102
RTVSPost2010PropOp47
 70
     1
102
RTVSPost2010Prop48
 90
       50
102
RTVSPost2010PropOp48
 70
     1
102
RTVSPost2010Prop49
280
     0
102
RTVSPost2010PropOp49
 70
     1
102
RTVSPost2010Prop50
 90
       50
102
RTVSPost2010PropOp50
 70
     1
102
RTVSPost2010Prop51ColorIndex
 90
      256
102
RTVSPost2010Prop51ColorRGB
 90
-16777216
102
RTVSPost2010PropOp51
 70
     0
102
RTVSPost2010Prop52
140
1.0
102
RTVSPost2010PropOp52
 70
     0
102
RTVSPost2010Prop53
 90
        2
102
RTVSPost2010PropOp53
 70
     1
102
RTVSPost2010Prop54
  1
strokes_ogs.tif
102
RTVSPost2010PropOp54
 70
     1
102
RTVSPost2010Prop55
280
     0
102
RTVSPost2010PropOp55
 70
     1
102
RTVSPost2010Prop56
140
1.0
102
RTVSPost2010PropOp56
 70
     1
102
RTVSPost2010Prop57
140
1.0
102
RTVSPost2010PropOp57
 70
     1
102
RTVSPropertyOp0
 70
     1
102
RTVSPropertyOp1
 70
     1
102
RTVSPropertyOp2
 70
     1
102
RTVSPropertyOp3
 70
     1
102
RTVSPropertyOp4
 70
     1
102
RTVSPropertyOp5
 70
     1
102
RTVSPropertyOp6
 70
     1
102
RTVSPropertyOp7
 70
     1
102
RTVSPropertyOp8
 70
     1
102
RTVSPropertyOp9
 70
     1
102
RTVSPropertyOp10
 70
     1
102
RTVSPropertyOp11
 70
     1
102
RTVSPropertyOp12
 70
     1
102
RTVSPropertyOp13
 70
     1
102
RTVSPropertyOp14
 70
     1
102
RTVSPropertyOp15
 70
     1
102
RTVSPropertyOp16
 70
     1
102
RTVSPropertyOp17
 70
     1
102
RTVSPropertyOp18
 70
     1
102
RTVSPropertyOp19
 70
     1
102
RTVSPropertyOp20
 70
     1
102
RTVSPropertyOp21
 70
     1
102
RTVSPropertyOp22
 70
     1
102
RTVSPropertyOp23
 70
     1
102
RTVSPropertyOp24
 70
     1
102
RTVSPropertyOp25
 70
     1
102
RTVSPropertyOp26
 70
     1
102
RTVSPropertyOp27
 70
     1
102
RTVSPropertyOp28
 70
     1
102
RTVSPropertyOp29
 70
     1
102
RTVSPropertyOp30
 70
     1
102
RTVSPropertyOp31
 70
     1
102
RTVSPropertyOp32
 70
     1
102
RTVSPropertyOp33
 70
     1
102
RTVSPropertyOp34
 70
     1
102
RTVSPropertyOp35
 70
     1
102
RTVSPropertyOp36
 70
     1
102
RTVSPropertyOp37
 70
     1
102
RTVSPropertyOp38
 70
     1
102
RTVSPropertyOp39
 70
     1
102
RTVSPropertyOp40
 70
     1
102
RTVSPropertyOp41
 70
     1
102
RTVSPropertyOp42
 70
     1
102
RTVSPropertyOp43
 70
     1
102
RTVSPropertyOp44
 70
     1
102
RTVSPropertyOp45
 70
     1
102
RTVSPropertyOp46
 70
     1
102
RTVSPropertyOp47
 70
     1
102
RTVSPropertyOp48
 70
     1
102
RTVSPropertyOp49
 70
     1
102
RTVSPropertyOp50
 70
     1
102
RTVSPropertyOp51
 70
     0
102
RTVSPropertyOp52
 70
     0
102
RTVSPropertyOp53
 70
     1
102
RTVSPropertyOp54
 70
     1
102
RTVSPropertyOp55
 70
     1
102
RTVSPropertyOp56
 70
     1
102
RTVSPropertyOp57
 70
     1
102
RTVSPropertyOp58
 70
     1
102
RTVSPropertyOp59
 70
     1
102
RTVSPropertyOp60
 70
     1
102
RTVSPropertyOp61
 70
     1
102
RTVSPropertyOp62
 70
     1
  0
XRECORD
  5
9947
102
{ACAD_REACTORS
330
9946
102
}
330
9946
100
AcDbXrecord
280
     1
102
RTVSPost2010Prop28
280
     0
102
RTVSPost2010PropOp28
 70
     1
102
RTVSPost2010Prop29
280
     1
102
RTVSPost2010PropOp29
 70
     1
102
RTVSPost2010Prop30
280
     1
102
RTVSPost2010PropOp30
 70
     1
102
RTVSPost2010Prop31
280
     0
102
RTVSPost2010PropOp31
 70
     1
102
RTVSPost2010Prop32
280
     0
102
RTVSPost2010PropOp32
 70
     1
102
RTVSPost2010Prop33
280
     0
102
RTVSPost2010PropOp33
 70
     1
102
RTVSPost2010Prop34
280
     0
102
RTVSPost2010PropOp34
 70
     1
102
RTVSPost2010Prop35
280
     0
102
RTVSPost2010PropOp35
 70
     1
102
RTVSPost2010Prop36
280
     0
102
RTVSPost2010PropOp36
 70
     1
102
RTVSPost2010Prop37
 90
       50
102
RTVSPost2010PropOp37
 70
     1
102
RTVSPost2010Prop38
140
0.0
102
RTVSPost2010PropOp38
 70
     1
102
RTVSPost2010Prop39
140
1.0
102
RTVSPost2010PropOp39
 70
     1
102
RTVSPost2010Prop40
 90
        0
102
RTVSPost2010PropOp40
 70
     1
102
RTVSPost2010Prop41ColorIndex
 90
       18
102
RTVSPost2010Prop41ColorRGB
 90
        0
102
RTVSPost2010PropOp41
 70
     1
102
RTVSPost2010Prop42
 90
       50
102
RTVSPost2010PropOp42
 70
     1
102
RTVSPost2010Prop43
 90
        3
102
RTVSPost2010PropOp43
 70
     1
102
RTVSPost2010Prop44ColorIndex
 90
        5
102
RTVSPost2010Prop44ColorRGB
 90
      255
102
RTVSPost2010PropOp44
 70
     1
102
RTVSPost2010Prop45
280
     0
102
RTVSPost2010PropOp45
 70
     1
102
RTVSPost2010Prop46
 90
       50
102
RTVSPost2010PropOp46
 70
     1
102
RTVSPost2010Prop47
 90
       50
102
RTVSPost2010PropOp47
 70
     1
102
RTVSPost2010Prop48
 90
       50
102
RTVSPost2010PropOp48
 70
     1
102
RTVSPost2010Prop49
280
     0
102
RTVSPost2010PropOp49
 70
     1
102
RTVSPost2010Prop50
 90
       50
102
RTVSPost2010PropOp50
 70
     1
102
RTVSPost2010Prop51ColorIndex
 90
      256
102
RTVSPost2010Prop51ColorRGB
 90
-16777216
102
RTVSPost2010PropOp51
 70
     0
102
RTVSPost2010Prop52
140
1.0
102
RTVSPost2010PropOp52
 70
     0
102
RTVSPost2010Prop53
 90
        2
102
RTVSPost2010PropOp53
 70
     1
102
RTVSPost2010Prop54
  1
strokes_ogs.tif
102
RTVSPost2010PropOp54
 70
     1
102
RTVSPost2010Prop55
280
     0
102
RTVSPost2010PropOp55
 70
     1
102
RTVSPost2010Prop56
140
1.0
102
RTVSPost2010PropOp56
 70
     1
102
RTVSPost2010Prop57
140
1.0
102
RTVSPost2010PropOp57
 70
     1
102
RTVSPropertyOp0
 70
     1
102
RTVSPropertyOp1
 70
     1
102
RTVSPropertyOp2
 70
     1
102
RTVSPropertyOp3
 70
     1
102
RTVSPropertyOp4
 70
     1
102
RTVSPropertyOp5
 70
     1
102
RTVSPropertyOp6
 70
     1
102
RTVSPropertyOp7
 70
     1
102
RTVSPropertyOp8
 70
     1
102
RTVSPropertyOp9
 70
     1
102
RTVSPropertyOp10
 70
     1
102
RTVSPropertyOp11
 70
     1
102
RTVSPropertyOp12
 70
     1
102
RTVSPropertyOp13
 70
     1
102
RTVSPropertyOp14
 70
     1
102
RTVSPropertyOp15
 70
     1
102
RTVSPropertyOp16
 70
     1
102
RTVSPropertyOp17
 70
     1
102
RTVSPropertyOp18
 70
     1
102
RTVSPropertyOp19
 70
     1
102
RTVSPropertyOp20
 70
     1
102
RTVSPropertyOp21
 70
     1
102
RTVSPropertyOp22
 70
     1
102
RTVSPropertyOp23
 70
     1
102
RTVSPropertyOp24
 70
     1
102
RTVSPropertyOp25
 70
     1
102
RTVSPropertyOp26
 70
     1
102
RTVSPropertyOp27
 70
     1
102
RTVSPropertyOp28
 70
     1
102
RTVSPropertyOp29
 70
     1
102
RTVSPropertyOp30
 70
     1
102
RTVSPropertyOp31
 70
     1
102
RTVSPropertyOp32
 70
     1
102
RTVSPropertyOp33
 70
     1
102
RTVSPropertyOp34
 70
     1
102
RTVSPropertyOp35
 70
     1
102
RTVSPropertyOp36
 70
     1
102
RTVSPropertyOp37
 70
     1
102
RTVSPropertyOp38
 70
     1
102
RTVSPropertyOp39
 70
     1
102
RTVSPropertyOp40
 70
     1
102
RTVSPropertyOp41
 70
     1
102
RTVSPropertyOp42
 70
     1
102
RTVSPropertyOp43
 70
     1
102
RTVSPropertyOp44
 70
     1
102
RTVSPropertyOp45
 70
     1
102
RTVSPropertyOp46
 70
     1
102
RTVSPropertyOp47
 70
     1
102
RTVSPropertyOp48
 70
     1
102
RTVSPropertyOp49
 70
     1
102
RTVSPropertyOp50
 70
     1
102
RTVSPropertyOp51
 70
     0
102
RTVSPropertyOp52
 70
     0
102
RTVSPropertyOp53
 70
     1
102
RTVSPropertyOp54
 70
     1
102
RTVSPropertyOp55
 70
     1
102
RTVSPropertyOp56
 70
     1
102
RTVSPropertyOp57
 70
     1
102
RTVSPropertyOp58
 70
     1
102
RTVSPropertyOp59
 70
     1
102
RTVSPropertyOp60
 70
     1
102
RTVSPropertyOp61
 70
     1
102
RTVSPropertyOp62
 70
     1
  0
XRECORD
  5
9945
102
{ACAD_REACTORS
330
9944
102
}
330
9944
100
AcDbXrecord
280
     1
102
RTVSPost2010Prop28
280
     0
102
RTVSPost2010PropOp28
 70
     1
102
RTVSPost2010Prop29
280
     1
102
RTVSPost2010PropOp29
 70
     1
102
RTVSPost2010Prop30
280
     1
102
RTVSPost2010PropOp30
 70
     1
102
RTVSPost2010Prop31
280
     0
102
RTVSPost2010PropOp31
 70
     1
102
RTVSPost2010Prop32
280
     0
102
RTVSPost2010PropOp32
 70
     1
102
RTVSPost2010Prop33
280
     0
102
RTVSPost2010PropOp33
 70
     1
102
RTVSPost2010Prop34
280
     0
102
RTVSPost2010PropOp34
 70
     1
102
RTVSPost2010Prop35
280
     0
102
RTVSPost2010PropOp35
 70
     1
102
RTVSPost2010Prop36
280
     0
102
RTVSPost2010PropOp36
 70
     1
102
RTVSPost2010Prop37
 90
       50
102
RTVSPost2010PropOp37
 70
     1
102
RTVSPost2010Prop38
140
0.0
102
RTVSPost2010PropOp38
 70
     1
102
RTVSPost2010Prop39
140
1.0
102
RTVSPost2010PropOp39
 70
     1
102
RTVSPost2010Prop40
 90
        0
102
RTVSPost2010PropOp40
 70
     1
102
RTVSPost2010Prop41ColorIndex
 90
       18
102
RTVSPost2010Prop41ColorRGB
 90
        0
102
RTVSPost2010PropOp41
 70
     1
102
RTVSPost2010Prop42
 90
       50
102
RTVSPost2010PropOp42
 70
     1
102
RTVSPost2010Prop43
 90
        3
102
RTVSPost2010PropOp43
 70
     1
102
RTVSPost2010Prop44ColorIndex
 90
        5
102
RTVSPost2010Prop44ColorRGB
 90
      255
102
RTVSPost2010PropOp44
 70
     1
102
RTVSPost2010Prop45
280
     0
102
RTVSPost2010PropOp45
 70
     1
102
RTVSPost2010Prop46
 90
       50
102
RTVSPost2010PropOp46
 70
     1
102
RTVSPost2010Prop47
 90
       50
102
RTVSPost2010PropOp47
 70
     1
102
RTVSPost2010Prop48
 90
       50
102
RTVSPost2010PropOp48
 70
     1
102
RTVSPost2010Prop49
280
     0
102
RTVSPost2010PropOp49
 70
     1
102
RTVSPost2010Prop50
 90
       50
102
RTVSPost2010PropOp50
 70
     1
102
RTVSPost2010Prop51ColorIndex
 90
      256
102
RTVSPost2010Prop51ColorRGB
 90
-16777216
102
RTVSPost2010PropOp51
 70
     0
102
RTVSPost2010Prop52
140
1.0
102
RTVSPost2010PropOp52
 70
     0
102
RTVSPost2010Prop53
 90
        2
102
RTVSPost2010PropOp53
 70
     1
102
RTVSPost2010Prop54
  1
strokes_ogs.tif
102
RTVSPost2010PropOp54
 70
     1
102
RTVSPost2010Prop55
280
     0
102
RTVSPost2010PropOp55
 70
     1
102
RTVSPost2010Prop56
140
1.0
102
RTVSPost2010PropOp56
 70
     1
102
RTVSPost2010Prop57
140
1.0
102
RTVSPost2010PropOp57
 70
     1
102
RTVSPropertyOp0
 70
     1
102
RTVSPropertyOp1
 70
     1
102
RTVSPropertyOp2
 70
     1
102
RTVSPropertyOp3
 70
     1
102
RTVSPropertyOp4
 70
     1
102
RTVSPropertyOp5
 70
     1
102
RTVSPropertyOp6
 70
     1
102
RTVSPropertyOp7
 70
     1
102
RTVSPropertyOp8
 70
     1
102
RTVSPropertyOp9
 70
     1
102
RTVSPropertyOp10
 70
     1
102
RTVSPropertyOp11
 70
     1
102
RTVSPropertyOp12
 70
     1
102
RTVSPropertyOp13
 70
     1
102
RTVSPropertyOp14
 70
     1
102
RTVSPropertyOp15
 70
     1
102
RTVSPropertyOp16
 70
     1
102
RTVSPropertyOp17
 70
     1
102
RTVSPropertyOp18
 70
     1
102
RTVSPropertyOp19
 70
     1
102
RTVSPropertyOp20
 70
     1
102
RTVSPropertyOp21
 70
     1
102
RTVSPropertyOp22
 70
     1
102
RTVSPropertyOp23
 70
     1
102
RTVSPropertyOp24
 70
     1
102
RTVSPropertyOp25
 70
     1
102
RTVSPropertyOp26
 70
     1
102
RTVSPropertyOp27
 70
     1
102
RTVSPropertyOp28
 70
     1
102
RTVSPropertyOp29
 70
     1
102
RTVSPropertyOp30
 70
     1
102
RTVSPropertyOp31
 70
     1
102
RTVSPropertyOp32
 70
     1
102
RTVSPropertyOp33
 70
     1
102
RTVSPropertyOp34
 70
     1
102
RTVSPropertyOp35
 70
     1
102
RTVSPropertyOp36
 70
     1
102
RTVSPropertyOp37
 70
     1
102
RTVSPropertyOp38
 70
     1
102
RTVSPropertyOp39
 70
     1
102
RTVSPropertyOp40
 70
     1
102
RTVSPropertyOp41
 70
     1
102
RTVSPropertyOp42
 70
     1
102
RTVSPropertyOp43
 70
     1
102
RTVSPropertyOp44
 70
     1
102
RTVSPropertyOp45
 70
     1
102
RTVSPropertyOp46
 70
     1
102
RTVSPropertyOp47
 70
     1
102
RTVSPropertyOp48
 70
     1
102
RTVSPropertyOp49
 70
     1
102
RTVSPropertyOp50
 70
     1
102
RTVSPropertyOp51
 70
     0
102
RTVSPropertyOp52
 70
     0
102
RTVSPropertyOp53
 70
     1
102
RTVSPropertyOp54
 70
     1
102
RTVSPropertyOp55
 70
     1
102
RTVSPropertyOp56
 70
     1
102
RTVSPropertyOp57
 70
     1
102
RTVSPropertyOp58
 70
     1
102
RTVSPropertyOp59
 70
     1
102
RTVSPropertyOp60
 70
     1
102
RTVSPropertyOp61
 70
     1
102
RTVSPropertyOp62
 70
     1
  0
XRECORD
  5
993F
102
{ACAD_REACTORS
330
993E
102
}
330
993E
100
AcDbXrecord
280
     1
102
RTVSPost2010Prop28
280
     0
102
RTVSPost2010PropOp28
 70
     1
102
RTVSPost2010Prop29
280
     1
102
RTVSPost2010PropOp29
 70
     1
102
RTVSPost2010Prop30
280
     1
102
RTVSPost2010PropOp30
 70
     1
102
RTVSPost2010Prop31
280
     0
102
RTVSPost2010PropOp31
 70
     1
102
RTVSPost2010Prop32
280
     0
102
RTVSPost2010PropOp32
 70
     1
102
RTVSPost2010Prop33
280
     0
102
RTVSPost2010PropOp33
 70
     1
102
RTVSPost2010Prop34
280
     0
102
RTVSPost2010PropOp34
 70
     1
102
RTVSPost2010Prop35
280
     0
102
RTVSPost2010PropOp35
 70
     1
102
RTVSPost2010Prop36
280
     0
102
RTVSPost2010PropOp36
 70
     1
102
RTVSPost2010Prop37
 90
       50
102
RTVSPost2010PropOp37
 70
     1
102
RTVSPost2010Prop38
140
0.0
102
RTVSPost2010PropOp38
 70
     1
102
RTVSPost2010Prop39
140
1.0
102
RTVSPost2010PropOp39
 70
     1
102
RTVSPost2010Prop40
 90
        0
102
RTVSPost2010PropOp40
 70
     1
102
RTVSPost2010Prop41ColorIndex
 90
       18
102
RTVSPost2010Prop41ColorRGB
 90
        0
102
RTVSPost2010PropOp41
 70
     1
102
RTVSPost2010Prop42
 90
       50
102
RTVSPost2010PropOp42
 70
     1
102
RTVSPost2010Prop43
 90
        3
102
RTVSPost2010PropOp43
 70
     1
102
RTVSPost2010Prop44ColorIndex
 90
        5
102
RTVSPost2010Prop44ColorRGB
 90
      255
102
RTVSPost2010PropOp44
 70
     1
102
RTVSPost2010Prop45
280
     0
102
RTVSPost2010PropOp45
 70
     1
102
RTVSPost2010Prop46
 90
       50
102
RTVSPost2010PropOp46
 70
     1
102
RTVSPost2010Prop47
 90
       50
102
RTVSPost2010PropOp47
 70
     1
102
RTVSPost2010Prop48
 90
       50
102
RTVSPost2010PropOp48
 70
     1
102
RTVSPost2010Prop49
280
     0
102
RTVSPost2010PropOp49
 70
     1
102
RTVSPost2010Prop50
 90
       50
102
RTVSPost2010PropOp50
 70
     1
102
RTVSPost2010Prop51ColorIndex
 90
      256
102
RTVSPost2010Prop51ColorRGB
 90
-16777216
102
RTVSPost2010PropOp51
 70
     0
102
RTVSPost2010Prop52
140
1.0
102
RTVSPost2010PropOp52
 70
     0
102
RTVSPost2010Prop53
 90
        2
102
RTVSPost2010PropOp53
 70
     1
102
RTVSPost2010Prop54
  1
strokes_ogs.tif
102
RTVSPost2010PropOp54
 70
     1
102
RTVSPost2010Prop55
280
     0
102
RTVSPost2010PropOp55
 70
     1
102
RTVSPost2010Prop56
140
1.0
102
RTVSPost2010PropOp56
 70
     1
102
RTVSPost2010Prop57
140
1.0
102
RTVSPost2010PropOp57
 70
     1
102
RTVSPropertyOp0
 70
     1
102
RTVSPropertyOp1
 70
     1
102
RTVSPropertyOp2
 70
     1
102
RTVSPropertyOp3
 70
     1
102
RTVSPropertyOp4
 70
     1
102
RTVSPropertyOp5
 70
     1
102
RTVSPropertyOp6
 70
     1
102
RTVSPropertyOp7
 70
     1
102
RTVSPropertyOp8
 70
     1
102
RTVSPropertyOp9
 70
     1
102
RTVSPropertyOp10
 70
     1
102
RTVSPropertyOp11
 70
     1
102
RTVSPropertyOp12
 70
     1
102
RTVSPropertyOp13
 70
     1
102
RTVSPropertyOp14
 70
     1
102
RTVSPropertyOp15
 70
     1
102
RTVSPropertyOp16
 70
     1
102
RTVSPropertyOp17
 70
     1
102
RTVSPropertyOp18
 70
     1
102
RTVSPropertyOp19
 70
     1
102
RTVSPropertyOp20
 70
     1
102
RTVSPropertyOp21
 70
     1
102
RTVSPropertyOp22
 70
     1
102
RTVSPropertyOp23
 70
     1
102
RTVSPropertyOp24
 70
     1
102
RTVSPropertyOp25
 70
     1
102
RTVSPropertyOp26
 70
     1
102
RTVSPropertyOp27
 70
     1
102
RTVSPropertyOp28
 70
     1
102
RTVSPropertyOp29
 70
     1
102
RTVSPropertyOp30
 70
     1
102
RTVSPropertyOp31
 70
     1
102
RTVSPropertyOp32
 70
     1
102
RTVSPropertyOp33
 70
     1
102
RTVSPropertyOp34
 70
     1
102
RTVSPropertyOp35
 70
     1
102
RTVSPropertyOp36
 70
     1
102
RTVSPropertyOp37
 70
     1
102
RTVSPropertyOp38
 70
     1
102
RTVSPropertyOp39
 70
     1
102
RTVSPropertyOp40
 70
     1
102
RTVSPropertyOp41
 70
     1
102
RTVSPropertyOp42
 70
     1
102
RTVSPropertyOp43
 70
     1
102
RTVSPropertyOp44
 70
     1
102
RTVSPropertyOp45
 70
     1
102
RTVSPropertyOp46
 70
     1
102
RTVSPropertyOp47
 70
     1
102
RTVSPropertyOp48
 70
     1
102
RTVSPropertyOp49
 70
     1
102
RTVSPropertyOp50
 70
     1
102
RTVSPropertyOp51
 70
     0
102
RTVSPropertyOp52
 70
     0
102
RTVSPropertyOp53
 70
     1
102
RTVSPropertyOp54
 70
     1
102
RTVSPropertyOp55
 70
     1
102
RTVSPropertyOp56
 70
     1
102
RTVSPropertyOp57
 70
     1
102
RTVSPropertyOp58
 70
     1
102
RTVSPropertyOp59
 70
     1
102
RTVSPropertyOp60
 70
     1
102
RTVSPropertyOp61
 70
     1
102
RTVSPropertyOp62
 70
     1
  0
XRECORD
  5
9941
102
{ACAD_REACTORS
330
9940
102
}
330
9940
100
AcDbXrecord
280
     1
102
RTVSPost2010Prop28
280
     0
102
RTVSPost2010PropOp28
 70
     1
102
RTVSPost2010Prop29
280
     1
102
RTVSPost2010PropOp29
 70
     1
102
RTVSPost2010Prop30
280
     1
102
RTVSPost2010PropOp30
 70
     1
102
RTVSPost2010Prop31
280
     0
102
RTVSPost2010PropOp31
 70
     1
102
RTVSPost2010Prop32
280
     0
102
RTVSPost2010PropOp32
 70
     1
102
RTVSPost2010Prop33
280
     0
102
RTVSPost2010PropOp33
 70
     1
102
RTVSPost2010Prop34
280
     0
102
RTVSPost2010PropOp34
 70
     1
102
RTVSPost2010Prop35
280
     0
102
RTVSPost2010PropOp35
 70
     1
102
RTVSPost2010Prop36
280
     0
102
RTVSPost2010PropOp36
 70
     1
102
RTVSPost2010Prop37
 90
       50
102
RTVSPost2010PropOp37
 70
     1
102
RTVSPost2010Prop38
140
0.0
102
RTVSPost2010PropOp38
 70
     1
102
RTVSPost2010Prop39
140
1.0
102
RTVSPost2010PropOp39
 70
     1
102
RTVSPost2010Prop40
 90
        0
102
RTVSPost2010PropOp40
 70
     1
102
RTVSPost2010Prop41ColorIndex
 90
       18
102
RTVSPost2010Prop41ColorRGB
 90
        0
102
RTVSPost2010PropOp41
 70
     1
102
RTVSPost2010Prop42
 90
       50
102
RTVSPost2010PropOp42
 70
     1
102
RTVSPost2010Prop43
 90
        3
102
RTVSPost2010PropOp43
 70
     1
102
RTVSPost2010Prop44ColorIndex
 90
        5
102
RTVSPost2010Prop44ColorRGB
 90
      255
102
RTVSPost2010PropOp44
 70
     1
102
RTVSPost2010Prop45
280
     0
102
RTVSPost2010PropOp45
 70
     1
102
RTVSPost2010Prop46
 90
       50
102
RTVSPost2010PropOp46
 70
     1
102
RTVSPost2010Prop47
 90
       50
102
RTVSPost2010PropOp47
 70
     1
102
RTVSPost2010Prop48
 90
       50
102
RTVSPost2010PropOp48
 70
     1
102
RTVSPost2010Prop49
280
     0
102
RTVSPost2010PropOp49
 70
     1
102
RTVSPost2010Prop50
 90
       50
102
RTVSPost2010PropOp50
 70
     1
102
RTVSPost2010Prop51ColorIndex
 90
      256
102
RTVSPost2010Prop51ColorRGB
 90
-16777216
102
RTVSPost2010PropOp51
 70
     0
102
RTVSPost2010Prop52
140
1.0
102
RTVSPost2010PropOp52
 70
     0
102
RTVSPost2010Prop53
 90
        2
102
RTVSPost2010PropOp53
 70
     1
102
RTVSPost2010Prop54
  1
strokes_ogs.tif
102
RTVSPost2010PropOp54
 70
     1
102
RTVSPost2010Prop55
280
     0
102
RTVSPost2010PropOp55
 70
     1
102
RTVSPost2010Prop56
140
1.0
102
RTVSPost2010PropOp56
 70
     1
102
RTVSPost2010Prop57
140
1.0
102
RTVSPost2010PropOp57
 70
     1
102
RTVSPropertyOp0
 70
     1
102
RTVSPropertyOp1
 70
     1
102
RTVSPropertyOp2
 70
     1
102
RTVSPropertyOp3
 70
     1
102
RTVSPropertyOp4
 70
     1
102
RTVSPropertyOp5
 70
     1
102
RTVSPropertyOp6
 70
     1
102
RTVSPropertyOp7
 70
     1
102
RTVSPropertyOp8
 70
     1
102
RTVSPropertyOp9
 70
     1
102
RTVSPropertyOp10
 70
     1
102
RTVSPropertyOp11
 70
     1
102
RTVSPropertyOp12
 70
     1
102
RTVSPropertyOp13
 70
     1
102
RTVSPropertyOp14
 70
     1
102
RTVSPropertyOp15
 70
     1
102
RTVSPropertyOp16
 70
     1
102
RTVSPropertyOp17
 70
     1
102
RTVSPropertyOp18
 70
     1
102
RTVSPropertyOp19
 70
     1
102
RTVSPropertyOp20
 70
     1
102
RTVSPropertyOp21
 70
     1
102
RTVSPropertyOp22
 70
     1
102
RTVSPropertyOp23
 70
     1
102
RTVSPropertyOp24
 70
     1
102
RTVSPropertyOp25
 70
     1
102
RTVSPropertyOp26
 70
     1
102
RTVSPropertyOp27
 70
     1
102
RTVSPropertyOp28
 70
     1
102
RTVSPropertyOp29
 70
     1
102
RTVSPropertyOp30
 70
     1
102
RTVSPropertyOp31
 70
     1
102
RTVSPropertyOp32
 70
     1
102
RTVSPropertyOp33
 70
     1
102
RTVSPropertyOp34
 70
     1
102
RTVSPropertyOp35
 70
     1
102
RTVSPropertyOp36
 70
     1
102
RTVSPropertyOp37
 70
     1
102
RTVSPropertyOp38
 70
     1
102
RTVSPropertyOp39
 70
     1
102
RTVSPropertyOp40
 70
     1
102
RTVSPropertyOp41
 70
     1
102
RTVSPropertyOp42
 70
     1
102
RTVSPropertyOp43
 70
     1
102
RTVSPropertyOp44
 70
     1
102
RTVSPropertyOp45
 70
     1
102
RTVSPropertyOp46
 70
     1
102
RTVSPropertyOp47
 70
     1
102
RTVSPropertyOp48
 70
     1
102
RTVSPropertyOp49
 70
     1
102
RTVSPropertyOp50
 70
     1
102
RTVSPropertyOp51
 70
     0
102
RTVSPropertyOp52
 70
     0
102
RTVSPropertyOp53
 70
     1
102
RTVSPropertyOp54
 70
     1
102
RTVSPropertyOp55
 70
     1
102
RTVSPropertyOp56
 70
     1
102
RTVSPropertyOp57
 70
     1
102
RTVSPropertyOp58
 70
     1
102
RTVSPropertyOp59
 70
     1
102
RTVSPropertyOp60
 70
     1
102
RTVSPropertyOp61
 70
     1
102
RTVSPropertyOp62
 70
     1
  0
XRECORD
  5
9937
102
{ACAD_REACTORS
330
9936
102
}
330
9936
100
AcDbXrecord
280
     1
102
RTVSPost2010Prop28
280
     0
102
RTVSPost2010PropOp28
 70
     1
102
RTVSPost2010Prop29
280
     1
102
RTVSPost2010PropOp29
 70
     1
102
RTVSPost2010Prop30
280
     1
102
RTVSPost2010PropOp30
 70
     1
102
RTVSPost2010Prop31
280
     0
102
RTVSPost2010PropOp31
 70
     1
102
RTVSPost2010Prop32
280
     0
102
RTVSPost2010PropOp32
 70
     1
102
RTVSPost2010Prop33
280
     0
102
RTVSPost2010PropOp33
 70
     1
102
RTVSPost2010Prop34
280
     0
102
RTVSPost2010PropOp34
 70
     1
102
RTVSPost2010Prop35
280
     0
102
RTVSPost2010PropOp35
 70
     1
102
RTVSPost2010Prop36
280
     0
102
RTVSPost2010PropOp36
 70
     1
102
RTVSPost2010Prop37
 90
       50
102
RTVSPost2010PropOp37
 70
     1
102
RTVSPost2010Prop38
140
0.0
102
RTVSPost2010PropOp38
 70
     1
102
RTVSPost2010Prop39
140
1.0
102
RTVSPost2010PropOp39
 70
     1
102
RTVSPost2010Prop40
 90
        0
102
RTVSPost2010PropOp40
 70
     1
102
RTVSPost2010Prop41ColorIndex
 90
       18
102
RTVSPost2010Prop41ColorRGB
 90
        0
102
RTVSPost2010PropOp41
 70
     1
102
RTVSPost2010Prop42
 90
       50
102
RTVSPost2010PropOp42
 70
     1
102
RTVSPost2010Prop43
 90
        3
102
RTVSPost2010PropOp43
 70
     1
102
RTVSPost2010Prop44ColorIndex
 90
        5
102
RTVSPost2010Prop44ColorRGB
 90
      255
102
RTVSPost2010PropOp44
 70
     1
102
RTVSPost2010Prop45
280
     0
102
RTVSPost2010PropOp45
 70
     1
102
RTVSPost2010Prop46
 90
       50
102
RTVSPost2010PropOp46
 70
     1
102
RTVSPost2010Prop47
 90
       50
102
RTVSPost2010PropOp47
 70
     1
102
RTVSPost2010Prop48
 90
       50
102
RTVSPost2010PropOp48
 70
     1
102
RTVSPost2010Prop49
280
     0
102
RTVSPost2010PropOp49
 70
     1
102
RTVSPost2010Prop50
 90
       50
102
RTVSPost2010PropOp50
 70
     1
102
RTVSPost2010Prop51ColorIndex
 90
      256
102
RTVSPost2010Prop51ColorRGB
 90
-16777216
102
RTVSPost2010PropOp51
 70
     0
102
RTVSPost2010Prop52
140
1.0
102
RTVSPost2010PropOp52
 70
     0
102
RTVSPost2010Prop53
 90
        2
102
RTVSPost2010PropOp53
 70
     1
102
RTVSPost2010Prop54
  1
strokes_ogs.tif
102
RTVSPost2010PropOp54
 70
     1
102
RTVSPost2010Prop55
280
     0
102
RTVSPost2010PropOp55
 70
     1
102
RTVSPost2010Prop56
140
1.0
102
RTVSPost2010PropOp56
 70
     1
102
RTVSPost2010Prop57
140
1.0
102
RTVSPost2010PropOp57
 70
     1
102
RTVSPropertyOp0
 70
     1
102
RTVSPropertyOp1
 70
     1
102
RTVSPropertyOp2
 70
     1
102
RTVSPropertyOp3
 70
     1
102
RTVSPropertyOp4
 70
     1
102
RTVSPropertyOp5
 70
     1
102
RTVSPropertyOp6
 70
     1
102
RTVSPropertyOp7
 70
     1
102
RTVSPropertyOp8
 70
     1
102
RTVSPropertyOp9
 70
     1
102
RTVSPropertyOp10
 70
     1
102
RTVSPropertyOp11
 70
     1
102
RTVSPropertyOp12
 70
     1
102
RTVSPropertyOp13
 70
     1
102
RTVSPropertyOp14
 70
     1
102
RTVSPropertyOp15
 70
     1
102
RTVSPropertyOp16
 70
     1
102
RTVSPropertyOp17
 70
     1
102
RTVSPropertyOp18
 70
     1
102
RTVSPropertyOp19
 70
     1
102
RTVSPropertyOp20
 70
     1
102
RTVSPropertyOp21
 70
     1
102
RTVSPropertyOp22
 70
     1
102
RTVSPropertyOp23
 70
     1
102
RTVSPropertyOp24
 70
     1
102
RTVSPropertyOp25
 70
     1
102
RTVSPropertyOp26
 70
     1
102
RTVSPropertyOp27
 70
     1
102
RTVSPropertyOp28
 70
     1
102
RTVSPropertyOp29
 70
     1
102
RTVSPropertyOp30
 70
     1
102
RTVSPropertyOp31
 70
     1
102
RTVSPropertyOp32
 70
     1
102
RTVSPropertyOp33
 70
     1
102
RTVSPropertyOp34
 70
     1
102
RTVSPropertyOp35
 70
     1
102
RTVSPropertyOp36
 70
     1
102
RTVSPropertyOp37
 70
     1
102
RTVSPropertyOp38
 70
     1
102
RTVSPropertyOp39
 70
     1
102
RTVSPropertyOp40
 70
     1
102
RTVSPropertyOp41
 70
     1
102
RTVSPropertyOp42
 70
     1
102
RTVSPropertyOp43
 70
     1
102
RTVSPropertyOp44
 70
     1
102
RTVSPropertyOp45
 70
     1
102
RTVSPropertyOp46
 70
     1
102
RTVSPropertyOp47
 70
     1
102
RTVSPropertyOp48
 70
     1
102
RTVSPropertyOp49
 70
     1
102
RTVSPropertyOp50
 70
     1
102
RTVSPropertyOp51
 70
     0
102
RTVSPropertyOp52
 70
     0
102
RTVSPropertyOp53
 70
     1
102
RTVSPropertyOp54
 70
     1
102
RTVSPropertyOp55
 70
     1
102
RTVSPropertyOp56
 70
     1
102
RTVSPropertyOp57
 70
     1
102
RTVSPropertyOp58
 70
     1
102
RTVSPropertyOp59
 70
     1
102
RTVSPropertyOp60
 70
     1
102
RTVSPropertyOp61
 70
     1
102
RTVSPropertyOp62
 70
     1
  0
XRECORD
  5
992B
102
{ACAD_REACTORS
330
992A
102
}
330
992A
100
AcDbXrecord
280
     1
102
RTVSPost2010Prop28
280
     0
102
RTVSPost2010PropOp28
 70
     1
102
RTVSPost2010Prop29
280
     1
102
RTVSPost2010PropOp29
 70
     1
102
RTVSPost2010Prop30
280
     1
102
RTVSPost2010PropOp30
 70
     1
102
RTVSPost2010Prop31
280
     0
102
RTVSPost2010PropOp31
 70
     1
102
RTVSPost2010Prop32
280
     0
102
RTVSPost2010PropOp32
 70
     1
102
RTVSPost2010Prop33
280
     0
102
RTVSPost2010PropOp33
 70
     1
102
RTVSPost2010Prop34
280
     0
102
RTVSPost2010PropOp34
 70
     1
102
RTVSPost2010Prop35
280
     0
102
RTVSPost2010PropOp35
 70
     1
102
RTVSPost2010Prop36
280
     0
102
RTVSPost2010PropOp36
 70
     1
102
RTVSPost2010Prop37
 90
       50
102
RTVSPost2010PropOp37
 70
     1
102
RTVSPost2010Prop38
140
0.0
102
RTVSPost2010PropOp38
 70
     1
102
RTVSPost2010Prop39
140
1.0
102
RTVSPost2010PropOp39
 70
     1
102
RTVSPost2010Prop40
 90
        0
102
RTVSPost2010PropOp40
 70
     1
102
RTVSPost2010Prop41ColorIndex
 90
       18
102
RTVSPost2010Prop41ColorRGB
 90
        0
102
RTVSPost2010PropOp41
 70
     1
102
RTVSPost2010Prop42
 90
       50
102
RTVSPost2010PropOp42
 70
     1
102
RTVSPost2010Prop43
 90
        3
102
RTVSPost2010PropOp43
 70
     1
102
RTVSPost2010Prop44ColorIndex
 90
        5
102
RTVSPost2010Prop44ColorRGB
 90
      255
102
RTVSPost2010PropOp44
 70
     1
102
RTVSPost2010Prop45
280
     0
102
RTVSPost2010PropOp45
 70
     1
102
RTVSPost2010Prop46
 90
       50
102
RTVSPost2010PropOp46
 70
     1
102
RTVSPost2010Prop47
 90
       50
102
RTVSPost2010PropOp47
 70
     1
102
RTVSPost2010Prop48
 90
       50
102
RTVSPost2010PropOp48
 70
     1
102
RTVSPost2010Prop49
280
     0
102
RTVSPost2010PropOp49
 70
     1
102
RTVSPost2010Prop50
 90
       50
102
RTVSPost2010PropOp50
 70
     1
102
RTVSPost2010Prop51ColorIndex
 90
      256
102
RTVSPost2010Prop51ColorRGB
 90
-16777216
102
RTVSPost2010PropOp51
 70
     0
102
RTVSPost2010Prop52
140
1.0
102
RTVSPost2010PropOp52
 70
     0
102
RTVSPost2010Prop53
 90
        2
102
RTVSPost2010PropOp53
 70
     1
102
RTVSPost2010Prop54
  1
strokes_ogs.tif
102
RTVSPost2010PropOp54
 70
     1
102
RTVSPost2010Prop55
280
     0
102
RTVSPost2010PropOp55
 70
     1
102
RTVSPost2010Prop56
140
1.0
102
RTVSPost2010PropOp56
 70
     1
102
RTVSPost2010Prop57
140
1.0
102
RTVSPost2010PropOp57
 70
     1
102
RTVSPropertyOp0
 70
     1
102
RTVSPropertyOp1
 70
     1
102
RTVSPropertyOp2
 70
     1
102
RTVSPropertyOp3
 70
     1
102
RTVSPropertyOp4
 70
     1
102
RTVSPropertyOp5
 70
     1
102
RTVSPropertyOp6
 70
     1
102
RTVSPropertyOp7
 70
     1
102
RTVSPropertyOp8
 70
     1
102
RTVSPropertyOp9
 70
     1
102
RTVSPropertyOp10
 70
     1
102
RTVSPropertyOp11
 70
     1
102
RTVSPropertyOp12
 70
     1
102
RTVSPropertyOp13
 70
     1
102
RTVSPropertyOp14
 70
     1
102
RTVSPropertyOp15
 70
     1
102
RTVSPropertyOp16
 70
     1
102
RTVSPropertyOp17
 70
     1
102
RTVSPropertyOp18
 70
     1
102
RTVSPropertyOp19
 70
     1
102
RTVSPropertyOp20
 70
     1
102
RTVSPropertyOp21
 70
     1
102
RTVSPropertyOp22
 70
     1
102
RTVSPropertyOp23
 70
     1
102
RTVSPropertyOp24
 70
     1
102
RTVSPropertyOp25
 70
     1
102
RTVSPropertyOp26
 70
     1
102
RTVSPropertyOp27
 70
     1
102
RTVSPropertyOp28
 70
     1
102
RTVSPropertyOp29
 70
     1
102
RTVSPropertyOp30
 70
     1
102
RTVSPropertyOp31
 70
     1
102
RTVSPropertyOp32
 70
     1
102
RTVSPropertyOp33
 70
     1
102
RTVSPropertyOp34
 70
     1
102
RTVSPropertyOp35
 70
     1
102
RTVSPropertyOp36
 70
     1
102
RTVSPropertyOp37
 70
     1
102
RTVSPropertyOp38
 70
     1
102
RTVSPropertyOp39
 70
     1
102
RTVSPropertyOp40
 70
     1
102
RTVSPropertyOp41
 70
     1
102
RTVSPropertyOp42
 70
     1
102
RTVSPropertyOp43
 70
     1
102
RTVSPropertyOp44
 70
     1
102
RTVSPropertyOp45
 70
     1
102
RTVSPropertyOp46
 70
     1
102
RTVSPropertyOp47
 70
     1
102
RTVSPropertyOp48
 70
     1
102
RTVSPropertyOp49
 70
     1
102
RTVSPropertyOp50
 70
     1
102
RTVSPropertyOp51
 70
     0
102
RTVSPropertyOp52
 70
     0
102
RTVSPropertyOp53
 70
     1
102
RTVSPropertyOp54
 70
     1
102
RTVSPropertyOp55
 70
     1
102
RTVSPropertyOp56
 70
     1
102
RTVSPropertyOp57
 70
     1
102
RTVSPropertyOp58
 70
     1
102
RTVSPropertyOp59
 70
     1
102
RTVSPropertyOp60
 70
     1
102
RTVSPropertyOp61
 70
     1
102
RTVSPropertyOp62
 70
     1
  0
XRECORD
  5
9943
102
{ACAD_REACTORS
330
9942
102
}
330
9942
100
AcDbXrecord
280
     1
102
RTVSPost2010Prop28
280
     0
102
RTVSPost2010PropOp28
 70
     1
102
RTVSPost2010Prop29
280
     1
102
RTVSPost2010PropOp29
 70
     1
102
RTVSPost2010Prop30
280
     1
102
RTVSPost2010PropOp30
 70
     1
102
RTVSPost2010Prop31
280
     0
102
RTVSPost2010PropOp31
 70
     1
102
RTVSPost2010Prop32
280
     0
102
RTVSPost2010PropOp32
 70
     1
102
RTVSPost2010Prop33
280
     0
102
RTVSPost2010PropOp33
 70
     1
102
RTVSPost2010Prop34
280
     0
102
RTVSPost2010PropOp34
 70
     1
102
RTVSPost2010Prop35
280
     0
102
RTVSPost2010PropOp35
 70
     1
102
RTVSPost2010Prop36
280
     0
102
RTVSPost2010PropOp36
 70
     1
102
RTVSPost2010Prop37
 90
       50
102
RTVSPost2010PropOp37
 70
     1
102
RTVSPost2010Prop38
140
0.0
102
RTVSPost2010PropOp38
 70
     1
102
RTVSPost2010Prop39
140
1.0
102
RTVSPost2010PropOp39
 70
     1
102
RTVSPost2010Prop40
 90
        0
102
RTVSPost2010PropOp40
 70
     1
102
RTVSPost2010Prop41ColorIndex
 90
       18
102
RTVSPost2010Prop41ColorRGB
 90
        0
102
RTVSPost2010PropOp41
 70
     1
102
RTVSPost2010Prop42
 90
       50
102
RTVSPost2010PropOp42
 70
     1
102
RTVSPost2010Prop43
 90
        3
102
RTVSPost2010PropOp43
 70
     1
102
RTVSPost2010Prop44ColorIndex
 90
        5
102
RTVSPost2010Prop44ColorRGB
 90
      255
102
RTVSPost2010PropOp44
 70
     1
102
RTVSPost2010Prop45
280
     0
102
RTVSPost2010PropOp45
 70
     1
102
RTVSPost2010Prop46
 90
       50
102
RTVSPost2010PropOp46
 70
     1
102
RTVSPost2010Prop47
 90
       50
102
RTVSPost2010PropOp47
 70
     1
102
RTVSPost2010Prop48
 90
       50
102
RTVSPost2010PropOp48
 70
     1
102
RTVSPost2010Prop49
280
     0
102
RTVSPost2010PropOp49
 70
     1
102
RTVSPost2010Prop50
 90
       50
102
RTVSPost2010PropOp50
 70
     1
102
RTVSPost2010Prop51ColorIndex
 90
      256
102
RTVSPost2010Prop51ColorRGB
 90
-16777216
102
RTVSPost2010PropOp51
 70
     0
102
RTVSPost2010Prop52
140
1.0
102
RTVSPost2010PropOp52
 70
     0
102
RTVSPost2010Prop53
 90
        2
102
RTVSPost2010PropOp53
 70
     1
102
RTVSPost2010Prop54
  1
strokes_ogs.tif
102
RTVSPost2010PropOp54
 70
     1
102
RTVSPost2010Prop55
280
     0
102
RTVSPost2010PropOp55
 70
     1
102
RTVSPost2010Prop56
140
1.0
102
RTVSPost2010PropOp56
 70
     1
102
RTVSPost2010Prop57
140
1.0
102
RTVSPost2010PropOp57
 70
     1
102
RTVSPropertyOp0
 70
     1
102
RTVSPropertyOp1
 70
     1
102
RTVSPropertyOp2
 70
     1
102
RTVSPropertyOp3
 70
     1
102
RTVSPropertyOp4
 70
     1
102
RTVSPropertyOp5
 70
     1
102
RTVSPropertyOp6
 70
     1
102
RTVSPropertyOp7
 70
     1
102
RTVSPropertyOp8
 70
     1
102
RTVSPropertyOp9
 70
     1
102
RTVSPropertyOp10
 70
     1
102
RTVSPropertyOp11
 70
     1
102
RTVSPropertyOp12
 70
     1
102
RTVSPropertyOp13
 70
     1
102
RTVSPropertyOp14
 70
     1
102
RTVSPropertyOp15
 70
     1
102
RTVSPropertyOp16
 70
     1
102
RTVSPropertyOp17
 70
     1
102
RTVSPropertyOp18
 70
     1
102
RTVSPropertyOp19
 70
     1
102
RTVSPropertyOp20
 70
     1
102
RTVSPropertyOp21
 70
     1
102
RTVSPropertyOp22
 70
     1
102
RTVSPropertyOp23
 70
     1
102
RTVSPropertyOp24
 70
     1
102
RTVSPropertyOp25
 70
     1
102
RTVSPropertyOp26
 70
     1
102
RTVSPropertyOp27
 70
     1
102
RTVSPropertyOp28
 70
     1
102
RTVSPropertyOp29
 70
     1
102
RTVSPropertyOp30
 70
     1
102
RTVSPropertyOp31
 70
     1
102
RTVSPropertyOp32
 70
     1
102
RTVSPropertyOp33
 70
     1
102
RTVSPropertyOp34
 70
     1
102
RTVSPropertyOp35
 70
     1
102
RTVSPropertyOp36
 70
     1
102
RTVSPropertyOp37
 70
     1
102
RTVSPropertyOp38
 70
     1
102
RTVSPropertyOp39
 70
     1
102
RTVSPropertyOp40
 70
     1
102
RTVSPropertyOp41
 70
     1
102
RTVSPropertyOp42
 70
     1
102
RTVSPropertyOp43
 70
     1
102
RTVSPropertyOp44
 70
     1
102
RTVSPropertyOp45
 70
     1
102
RTVSPropertyOp46
 70
     1
102
RTVSPropertyOp47
 70
     1
102
RTVSPropertyOp48
 70
     1
102
RTVSPropertyOp49
 70
     1
102
RTVSPropertyOp50
 70
     1
102
RTVSPropertyOp51
 70
     0
102
RTVSPropertyOp52
 70
     0
102
RTVSPropertyOp53
 70
     1
102
RTVSPropertyOp54
 70
     1
102
RTVSPropertyOp55
 70
     1
102
RTVSPropertyOp56
 70
     1
102
RTVSPropertyOp57
 70
     1
102
RTVSPropertyOp58
 70
     1
102
RTVSPropertyOp59
 70
     1
102
RTVSPropertyOp60
 70
     1
102
RTVSPropertyOp61
 70
     1
102
RTVSPropertyOp62
 70
     1
  0
ENDSEC
  0
EOF
