  0
SECTION
  2
HEADER
  9
$ACADVER
  1
AC1015
  9
$ACADMAINTVER
 70
    20
  9
$DWGCODEPAGE
  3
ANSI_932
  9
$INSBASE
 10
0.0
 20
0.0
 30
0.0
  9
$EXTMIN
 10
10.0
 20
9.999999999999998
 30
0.0
  9
$EXTMAX
 10
365.7385609999999
 20
204.559404
 30
0.0
  9
$LIMMIN
 10
0.0
 20
0.0
  9
$LIMMAX
 10
396.0
 20
273.0
  9
$ORTHOMODE
 70
     1
  9
$REGENMODE
 70
     1
  9
$FILLMODE
 70
     1
  9
$QTEXTMODE
 70
     0
  9
$MIRRTEXT
 70
     1
  9
$LTSCALE
 40
20.0
  9
$ATTMODE
 70
     1
  9
$TEXTSIZE
 40
5.0
  9
$TRACEWID
 40
1.0
  9
$TEXTSTYLE
  7
STANDARD
  9
$CLAYER
  8
0
  9
$CELTYPE
  6
BYLAYER
  9
$CECOLOR
 62
   256
  9
$CELTSCALE
 40
1.0
  9
$DISPSILH
 70
     0
  9
$DIMSCALE
 40
1.0
  9
$DIMASZ
 40
3.0
  9
$DIMEXO
 40
1.0
  9
$DIMDLI
 40
10.0
  9
$DIMRND
 40
0.0
  9
$DIMDLE
 40
0.0
  9
$DIMEXE
 40
1.0
  9
$DIMTP
 40
0.0
  9
$DIMTM
 40
0.0
  9
$DIMTXT
 40
3.2
  9
$DIMCEN
 40
0.0
  9
$DIMTSZ
 40
0.0
  9
$DIMTOL
 70
     0
  9
$DIMLIM
 70
     0
  9
$DIMTIH
 70
     0
  9
$DIMTOH
 70
     0
  9
$DIMSE1
 70
     0
  9
$DIMSE2
 70
     0
  9
$DIMTAD
 70
     3
  9
$DIMZIN
 70
     8
  9
$DIMBLK
  1

  9
$DIMASO
 70
     1
  9
$DIMSHO
 70
     1
  9
$DIMPOST
  1

  9
$DIMAPOST
  1

  9
$DIMALT
 70
     0
  9
$DIMALTD
 70
     2
  9
$DIMALTF
 40
25.4
  9
$DIMLFAC
 40
1.0
  9
$DIMTOFL
 70
     1
  9
$DIMTVP
 40
0.0
  9
$DIMTIX
 70
     0
  9
$DIMSOXD
 70
     0
  9
$DIMSAH
 70
     1
  9
$DIMBLK1
  1

  9
$DIMBLK2
  1

  9
$DIMSTYLE
  2
STANDARD
  9
$DIMCLRD
 70
     0
  9
$DIMCLRE
 70
     0
  9
$DIMCLRT
 70
     0
  9
$DIMTFAC
 40
1.0
  9
$DIMGAP
 40
1.0
  9
$DIMJUST
 70
     0
  9
$DIMSD1
 70
     0
  9
$DIMSD2
 70
     0
  9
$DIMTOLJ
 70
     1
  9
$DIMTZIN
 70
     0
  9
$DIMALTZ
 70
     0
  9
$DIMALTTZ
 70
     0
  9
$DIMUPT
 70
     0
  9
$DIMDEC
 70
     4
  9
$DIMTDEC
 70
     4
  9
$DIMALTU
 70
     2
  9
$DIMALTTD
 70
     2
  9
$DIMTXSTY
  7
STANDARD
  9
$DIMAUNIT
 70
     0
  9
$DIMADEC
 70
     0
  9
$DIMALTRND
 40
0.0
  9
$DIMAZIN
 70
     0
  9
$DIMDSEP
 70
    46
  9
$DIMATFIT
 70
     3
  9
$DIMFRAC
 70
     0
  9
$DIMLDRBLK
  1

  9
$DIMLUNIT
 70
     2
  9
$DIMLWD
 70
    -2
  9
$DIMLWE
 70
    -2
  9
$DIMTMOVE
 70
     0
  9
$LUNITS
 70
     2
  9
$LUPREC
 70
     4
  9
$SKETCHINC
 40
1.0
  9
$FILLETRAD
 40
2.5
  9
$AUNITS
 70
     0
  9
$AUPREC
 70
     2
  9
$MENU
  1
.
  9
$ELEVATION
 40
0.0
  9
$PELEVATION
 40
0.0
  9
$THICKNESS
 40
0.0
  9
$LIMCHECK
 70
     0
  9
$CHAMFERA
 40
10.0
  9
$CHAMFERB
 40
10.0
  9
$CHAMFERC
 40
0.0
  9
$CHAMFERD
 40
0.0
  9
$SKPOLY
 70
     0
  9
$TDCREATE
 40
2451066.694740625
  9
$TDUCREATE
 40
2451066.319740625
  9
$TDUPDATE
 40
2457192.603451239
  9
$TDUUPDATE
 40
2457192.228451238
  9
$TDINDWG
 40
0.0000151042
  9
$TDUSRTIMER
 40
0.0000144329
  9
$USRTIMER
 70
     1
  9
$ANGBASE
 50
0.0
  9
$ANGDIR
 70
     0
  9
$PDMODE
 70
     0
  9
$PDSIZE
 40
0.0
  9
$PLINEWID
 40
0.0
  9
$SPLFRAME
 70
     0
  9
$SPLINETYPE
 70
     6
  9
$SPLINESEGS
 70
     8
  9
$HANDSEED
  5
99E8
  9
$SURFTAB1
 70
     6
  9
$SURFTAB2
 70
     6
  9
$SURFTYPE
 70
     6
  9
$SURFU
 70
     6
  9
$SURFV
 70
     6
  9
$UCSBASE
  2

  9
$UCSNAME
  2

  9
$UCSORG
 10
0.0
 20
0.0
 30
0.0
  9
$UCSXDIR
 10
1.0
 20
0.0
 30
0.0
  9
$UCSYDIR
 10
0.0
 20
1.0
 30
0.0
  9
$UCSORTHOREF
  2

  9
$UCSORTHOVIEW
 70
     0
  9
$UCSORGTOP
 10
0.0
 20
0.0
 30
0.0
  9
$UCSORGBOTTOM
 10
0.0
 20
0.0
 30
0.0
  9
$UCSORGLEFT
 10
0.0
 20
0.0
 30
0.0
  9
$UCSORGRIGHT
 10
0.0
 20
0.0
 30
0.0
  9
$UCSORGFRONT
 10
0.0
 20
0.0
 30
0.0
  9
$UCSORGBACK
 10
0.0
 20
0.0
 30
0.0
  9
$PUCSBASE
  2

  9
$PUCSNAME
  2

  9
$PUCSORG
 10
0.0
 20
0.0
 30
0.0
  9
$PUCSXDIR
 10
1.0
 20
0.0
 30
0.0
  9
$PUCSYDIR
 10
0.0
 20
1.0
 30
0.0
  9
$PUCSORTHOREF
  2

  9
$PUCSORTHOVIEW
 70
     0
  9
$PUCSORGTOP
 10
0.0
 20
0.0
 30
0.0
  9
$PUCSORGBOTTOM
 10
0.0
 20
0.0
 30
0.0
  9
$PUCSORGLEFT
 10
0.0
 20
0.0
 30
0.0
  9
$PUCSORGRIGHT
 10
0.0
 20
0.0
 30
0.0
  9
$PUCSORGFRONT
 10
0.0
 20
0.0
 30
0.0
  9
$PUCSORGBACK
 10
0.0
 20
0.0
 30
0.0
  9
$USERI1
 70
     0
  9
$USERI2
 70
     0
  9
$USERI3
 70
     0
  9
$USERI4
 70
     0
  9
$USERI5
 70
     0
  9
$USERR1
 40
0.0
  9
$USERR2
 40
0.0
  9
$USERR3
 40
0.0
  9
$USERR4
 40
0.0
  9
$USERR5
 40
0.0
  9
$WORLDVIEW
 70
     1
  9
$SHADEDGE
 70
     3
  9
$SHADEDIF
 70
    70
  9
$TILEMODE
 70
     1
  9
$MAXACTVP
 70
    16
  9
$PINSBASE
 10
0.0
 20
0.0
 30
0.0
  9
$PLIMCHECK
 70
     0
  9
$PEXTMIN
 10
1.000000000000000E+20
 20
1.000000000000000E+20
 30
1.000000000000000E+20
  9
$PEXTMAX
 10
-1.000000000000000E+20
 20
-1.000000000000000E+20
 30
-1.000000000000000E+20
  9
$PLIMMIN
 10
0.0
 20
0.0
  9
$PLIMMAX
 10
420.0
 20
297.0
  9
$UNITMODE
 70
     0
  9
$VISRETAIN
 70
     0
  9
$PLINEGEN
 70
     0
  9
$PSLTSCALE
 70
     0
  9
$TREEDEPTH
 70
  3020
  9
$CMLSTYLE
  2
STANDARD
  9
$CMLJUST
 70
     0
  9
$CMLSCALE
 40
1.0
  9
$PROXYGRAPHICS
 70
     1
  9
$MEASUREMENT
 70
     0
  9
$CELWEIGHT
370
    -1
  9
$ENDCAPS
280
     0
  9
$JOINSTYLE
280
     0
  9
$LWDISPLAY
290
     0
  9
$INSUNITS
 70
     0
  9
$HYPERLINKBASE
  1

  9
$STYLESHEET
  1

  9
$XEDIT
290
     1
  9
$CEPSNTYPE
380
     0
  9
$PSTYLEMODE
290
     1
  9
$FINGERPRINTGUID
  2
{BE425438-89C4-46CE-AABD-216E36C0760C}
  9
$VERSIONGUID
  2
{FDAF7097-B2F6-4267-9875-2271CDDFF7D0}
  9
$EXTNAMES
290
     1
  9
$PSVPSCALE
 40
0.0
  9
$OLESTARTUP
290
     0
  0
ENDSEC
  0
SECTION
  2
CLASSES
  0
CLASS
  1
ACDBDICTIONARYWDFLT
  2
AcDbDictionaryWithDefault
  3
ObjectDBX Classes
 90
        0
280
     0
281
     0
  0
CLASS
  1
ACDBPLACEHOLDER
  2
AcDbPlaceHolder
  3
ObjectDBX Classes
 90
        0
280
     0
281
     0
  0
CLASS
  1
LAYOUT
  2
AcDbLayout
  3
ObjectDBX Classes
 90
        0
280
     0
281
     0
  0
CLASS
  1
DICTIONARYVAR
  2
AcDbDictionaryVar
  3
ObjectDBX Classes
 90
        0
280
     0
281
     0
  0
CLASS
  1
MATERIAL
  2
AcDbMaterial
  3
ObjectDBX Classes
 90
     1153
280
     0
281
     0
  0
CLASS
  1
VISUALSTYLE
  2
AcDbVisualStyle
  3
ObjectDBX Classes
 90
     4095
280
     0
281
     0
  0
CLASS
  1
TABLESTYLE
  2
AcDbTableStyle
  3
ObjectDBX Classes
 90
     4095
280
     0
281
     0
  0
CLASS
  1
SCALE
  2
AcDbScale
  3
ObjectDBX Classes
 90
     1153
280
     0
281
     0
  0
CLASS
  1
MLEADERSTYLE
  2
AcDbMLeaderStyle
  3
ACDB_MLEADERSTYLE_CLASS
 90
     4095
280
     0
281
     0
  0
CLASS
  1
ACDBSECTIONVIEWSTYLE
  2
AcDbSectionViewStyle
  3
ObjectDBX Classes
 90
     1025
280
     0
281
     0
  0
CLASS
  1
ACDBDETAILVIEWSTYLE
  2
AcDbDetailViewStyle
  3
ObjectDBX Classes
 90
     1025
280
     0
281
     0
  0
CLASS
  1
CELLSTYLEMAP
  2
AcDbCellStyleMap
  3
ObjectDBX Classes
 90
     1152
280
     0
281
     0
  0
ENDSEC
  0
SECTION
  2
TABLES
  0
TABLE
  2
VPORT
  5
9729
330
0
100
AcDbSymbolTable
 70
     1
  0
VPORT
  5
9931
330
9729
100
AcDbSymbolTableRecord
100
AcDbViewportTableRecord
  2
*ACTIVE
 70
     0
 10
0.0
 20
0.0
 11
1.0
 21
1.0
 12
249.1146110588785
 22
107.2779699619602
 13
0.0
 23
0.0
 14
10.0
 24
10.0
 15
10.0
 25
10.0
 16
0.0
 26
0.0
 36
1.0
 17
0.0
 27
0.0
 37
0.0
 40
204.4886639032956
 41
1.899603698811096
 42
50.0
 43
0.0
 44
0.0
 50
0.0
 51
0.0
 71
     0
 72
   100
 73
     1
 74
     0
 75
     0
 76
     0
 77
     0
 78
     0
281
     0
 65
     1
110
0.0
120
0.0
130
0.0
111
1.0
121
0.0
131
0.0
112
0.0
122
1.0
132
0.0
 79
     0
146
0.0
1001
ACAD_NAV_VCDISPLAY
1070
     3
  0
ENDTAB
  0
TABLE
  2
LTYPE
  5
9726
330
0
100
AcDbSymbolTable
 70
     4
  0
LTYPE
  5
9734
330
9726
100
AcDbSymbolTableRecord
100
AcDbLinetypeTableRecord
  2
BYBLOCK
 70
     0
  3

 72
    65
 73
     0
 40
0.0
  0
LTYPE
  5
9735
330
9726
100
AcDbSymbolTableRecord
100
AcDbLinetypeTableRecord
  2
BYLAYER
 70
     0
  3

 72
    65
 73
     0
 40
0.0
  0
LTYPE
  5
9736
330
9726
100
AcDbSymbolTableRecord
100
AcDbLinetypeTableRecord
  2
CONTINUOUS
 70
     0
  3
Solid line
 72
    65
 73
     0
 40
0.0
  0
LTYPE
  5
9744
330
9726
100
AcDbSymbolTableRecord
100
AcDbLinetypeTableRecord
  2
DASHED
 70
     0
  3
__ __ __ __ __ __ __ __ __ __ __ __ __ __ __ __
 72
    65
 73
     2
 40
0.75
 49
0.5
 74
     0
 49
-0.25
 74
     0
  0
LTYPE
  5
9745
330
9726
100
AcDbSymbolTableRecord
100
AcDbLinetypeTableRecord
  2
CENTER
 70
     0
  3
____ _ ____ _ ____ _ ____ _ ____ _ ____ _ ____ 
 72
    65
 73
     4
 40
2.0
 49
1.25
 74
     0
 49
-0.25
 74
     0
 49
0.25
 74
     0
 49
-0.25
 74
     0
  0
LTYPE
  5
9746
330
9726
100
AcDbSymbolTableRecord
100
AcDbLinetypeTableRecord
  2
PHANTOM
 70
     0
  3
______  __  __  ______  __  __  ______  __  __ 
 72
    65
 73
     6
 40
2.5
 49
1.25
 74
     0
 49
-0.25
 74
     0
 49
0.25
 74
     0
 49
-0.25
 74
     0
 49
0.25
 74
     0
 49
-0.25
 74
     0
  0
ENDTAB
  0
TABLE
  2
LAYER
  5
9723
330
0
100
AcDbSymbolTable
 70
     8
  0
LAYER
  5
9731
102
{ACAD_XDICTIONARY
360
998C
102
}
330
9723
100
AcDbSymbolTableRecord
100
AcDbLayerTableRecord
  2
0
 70
     0
 62
     7
  6
CONTINUOUS
370
    -3
390
993A
  0
LAYER
  5
9747
102
{ACAD_XDICTIONARY
360
998E
102
}
330
9723
100
AcDbSymbolTableRecord
100
AcDbLayerTableRecord
  2
4
 70
     0
 62
     1
  6
CENTER
370
    -3
390
993A
  0
LAYER
  5
9748
102
{ACAD_XDICTIONARY
360
9990
102
}
330
9723
100
AcDbSymbolTableRecord
100
AcDbLayerTableRecord
  2
5
 70
     0
 62
     6
  6
PHANTOM
370
    -3
390
993A
  0
LAYER
  5
9749
102
{ACAD_XDICTIONARY
360
9992
102
}
330
9723
100
AcDbSymbolTableRecord
100
AcDbLayerTableRecord
  2
1
 70
     0
 62
     7
  6
CONTINUOUS
370
    -3
390
993A
  0
LAYER
  5
974A
102
{ACAD_XDICTIONARY
360
9994
102
}
330
9723
100
AcDbSymbolTableRecord
100
AcDbLayerTableRecord
  2
2
 70
     0
 62
     4
  6
CONTINUOUS
370
    -3
390
993A
  0
LAYER
  5
974B
102
{ACAD_XDICTIONARY
360
9996
102
}
330
9723
100
AcDbSymbolTableRecord
100
AcDbLayerTableRecord
  2
3
 70
     0
 62
     2
  6
DASHED
370
    -3
390
993A
  0
LAYER
  5
974C
102
{ACAD_XDICTIONARY
360
9998
102
}
330
9723
100
AcDbSymbolTableRecord
100
AcDbLayerTableRecord
  2
6
 70
     0
 62
     5
  6
CONTINUOUS
370
    -3
390
993A
  0
LAYER
  5
974D
102
{ACAD_XDICTIONARY
360
999A
102
}
330
9723
100
AcDbSymbolTableRecord
100
AcDbLayerTableRecord
  2
7
 70
     0
 62
     3
  6
CONTINUOUS
370
    -3
390
993A
  0
ENDTAB
  0
TABLE
  2
STYLE
  5
9724
330
0
100
AcDbSymbolTable
 70
     1
  0
STYLE
  5
9732
330
9724
100
AcDbSymbolTableRecord
100
AcDbTextStyleTableRecord
  2
STANDARD
 70
     0
 40
0.0
 41
1.0
 50
0.0
 71
     0
 42
5.0
  3
txt
  4

  0
ENDTAB
  0
TABLE
  2
VIEW
  5
9727
330
0
100
AcDbSymbolTable
 70
     0
  0
ENDTAB
  0
TABLE
  2
UCS
  5
9728
330
0
100
AcDbSymbolTable
 70
     0
  0
ENDTAB
  0
TABLE
  2
APPID
  5
972A
330
0
100
AcDbSymbolTable
 70
     3
  0
APPID
  5
9733
330
972A
100
AcDbSymbolTableRecord
100
AcDbRegAppTableRecord
  2
ACAD
 70
     0
  0
APPID
  5
99A6
330
972A
100
AcDbSymbolTableRecord
100
AcDbRegAppTableRecord
  2
ACAD_NAV_VCDISPLAY
 70
     0
  0
APPID
  5
99DF
330
972A
100
AcDbSymbolTableRecord
100
AcDbRegAppTableRecord
  2
ACAD_MLEADERVER
 70
     0
  0
ENDTAB
  0
TABLE
  2
DIMSTYLE
  5
972B
330
0
100
AcDbSymbolTable
 70
     1
100
AcDbDimStyleTable
 71
     0
  0
DIMSTYLE
105
974F
330
972B
100
AcDbSymbolTableRecord
100
AcDbDimStyleTableRecord
  2
STANDARD
 70
     0
 41
3.0
 42
1.0
 43
10.0
 44
1.0
 73
     0
 74
     0
 77
     3
 78
     8
140
3.2
141
0.0
147
1.0
172
     1
173
     1
284
     8
285
     8
286
     8
340
9732
  0
ENDTAB
  0
TABLE
  2
BLOCK_RECORD
  5
9722
330
0
100
AcDbSymbolTable
 70
     0
  0
BLOCK_RECORD
  5
973F
102
{ACAD_XDICTIONARY
360
9934
102
}
330
9722
100
AcDbSymbolTableRecord
100
AcDbBlockTableRecord
  2
*MODEL_SPACE
340
9988
  0
BLOCK_RECORD
  5
973B
102
{ACAD_XDICTIONARY
360
9932
102
}
330
9722
100
AcDbSymbolTableRecord
100
AcDbBlockTableRecord
  2
*PAPER_SPACE
340
9989
  0
ENDTAB
  0
ENDSEC
  0
SECTION
  2
BLOCKS
  0
BLOCK
  5
9740
330
973F
100
AcDbEntity
  8
0
100
AcDbBlockBegin
  2
*MODEL_SPACE
 70
     0
 10
0.0
 20
0.0
 30
0.0
  3
*MODEL_SPACE
  1

  0
ENDBLK
  5
9741
330
973F
100
AcDbEntity
  8
0
100
AcDbBlockEnd
  0
BLOCK
  5
973C
330
973B
100
AcDbEntity
 67
     1
  8
0
100
AcDbBlockBegin
  2
*PAPER_SPACE
 70
     0
 10
0.0
 20
0.0
 30
0.0
  3
*PAPER_SPACE
  1

  0
ENDBLK
  5
973D
330
973B
100
AcDbEntity
 67
     1
  8
0
100
AcDbBlockEnd
  0
ENDSEC
  0
SECTION
  2
ENTITIES
  0
TEXT
  5
9757
330
973F
100
AcDbEntity
  8
7
  6
Continuous
100
AcDbText
 10
10.0
 20
18.0
 30
0.0
 40
3.0
  1
TYPE No.TL-86-2
100
AcDbText
  0
TEXT
  5
9758
330
973F
100
AcDbEntity
  8
7
  6
Continuous
100
AcDbText
 10
10.0
 20
26.0
 30
0.0
 40
3.0
  1
CODE No.1240
100
AcDbText
  0
TEXT
  5
9759
330
973F
100
AcDbEntity
  8
1
  6
Continuous
100
AcDbText
 10
10.0
 20
10.0
 30
0.0
 40
1.399999999999999
  1
LAYER
100
AcDbText
  0
TEXT
  5
975A
330
973F
100
AcDbEntity
  8
1
  6
Continuous
100
AcDbText
 10
17.97951099999998
 20
10.04873699999998
 30
0.0
 40
1.399999999999999
  1
1
100
AcDbText
  0
TEXT
  5
975B
330
973F
100
AcDbEntity
  8
7
  6
Continuous
100
AcDbText
 10
29.97951099999999
 20
10.04873699999998
 30
0.0
 40
1.399999999999999
  1
7
100
AcDbText
  0
TEXT
  5
975C
330
973F
100
AcDbEntity
  8
4
  6
CENTER
100
AcDbText
 10
23.97951099999999
 20
10.04873699999998
 30
0.0
 40
1.399999999999999
  1
4
100
AcDbText
  0
TEXT
  5
975D
330
973F
100
AcDbEntity
  8
3
  6
DASHED
100
AcDbText
 10
21.979511
 20
10.04873699999998
 30
0.0
 40
1.399999999999999
  1
3
100
AcDbText
  0
TEXT
  5
975E
330
973F
100
AcDbEntity
  8
2
  6
Continuous
100
AcDbText
 10
19.97951099999999
 20
10.04873699999998
 30
0.0
 40
1.399999999999999
  1
2
100
AcDbText
  0
TEXT
  5
975F
330
973F
100
AcDbEntity
  8
6
  6
Continuous
100
AcDbText
 10
27.979511
 20
10.04873699999998
 30
0.0
 40
1.399999999999999
  1
6
100
AcDbText
  0
TEXT
  5
9760
330
973F
100
AcDbEntity
  8
5
  6
PHANTOM
100
AcDbText
 10
25.97951099999999
 20
10.04873699999998
 30
0.0
 40
1.399999999999999
  1
5
100
AcDbText
  0
LINE
  5
9761
330
973F
100
AcDbEntity
  8
4
  6
CENTER
100
AcDbLine
 10
13.99936099999999
 20
117.559404
 30
0.0
 11
42.382761
 21
117.559404
 31
0.0
  0
LINE
  5
9762
330
973F
100
AcDbEntity
  8
4
  6
CENTER
100
AcDbLine
 10
24.180861
 20
134.4324039999999
 30
0.0
 11
24.180861
 21
100.5304039999999
 31
0.0
  0
LINE
  5
9763
330
973F
100
AcDbEntity
  8
1
  6
Continuous
100
AcDbLine
 10
17.180861
 20
131.559404
 30
0.0
 11
17.180861
 21
103.559404
 31
0.0
  0
LINE
  5
9764
330
973F
100
AcDbEntity
  8
1
  6
Continuous
100
AcDbLine
 10
31.180861
 20
131.559404
 30
0.0
 11
31.180861
 21
103.559404
 31
0.0
  0
LINE
  5
9765
330
973F
100
AcDbEntity
  8
1
  6
Continuous
100
AcDbLine
 10
17.180861
 20
103.559404
 30
0.0
 11
31.180861
 21
103.559404
 31
0.0
  0
LINE
  5
9766
330
973F
100
AcDbEntity
  8
1
  6
Continuous
100
AcDbLine
 10
17.180861
 20
131.559404
 30
0.0
 11
31.180861
 21
131.559404
 31
0.0
  0
LINE
  5
9767
330
973F
100
AcDbEntity
  8
4
  6
CENTER
100
AcDbLine
 10
20.44556099999999
 20
127.559404
 30
0.0
 11
27.84666099999999
 21
127.559404
 31
0.0
  0
LINE
  5
9768
330
973F
100
AcDbEntity
  8
4
  6
CENTER
100
AcDbLine
 10
20.365961
 20
107.559404
 30
0.0
 11
28.164961
 21
107.559404
 31
0.0
  0
LINE
  5
9769
330
973F
100
AcDbEntity
  8
4
  6
CENTER
100
AcDbLine
 10
242.362561
 20
117.559404
 30
0.0
 11
213.0900569999998
 21
117.559404
 31
0.0
  0
LINE
  5
976A
330
973F
100
AcDbEntity
  8
4
  6
CENTER
100
AcDbLine
 10
232.1805609999999
 20
134.4324039999999
 30
0.0
 11
232.1805609999999
 21
100.5304039999999
 31
0.0
  0
LINE
  5
976B
330
973F
100
AcDbEntity
  8
1
  6
Continuous
100
AcDbLine
 10
239.180561
 20
131.559404
 30
0.0
 11
239.180561
 21
103.559404
 31
0.0
  0
LINE
  5
976C
330
973F
100
AcDbEntity
  8
1
  6
Continuous
100
AcDbLine
 10
225.1805609999999
 20
131.559404
 30
0.0
 11
225.1805609999999
 21
120.966184
 31
0.0
  0
LINE
  5
976D
330
973F
100
AcDbEntity
  8
1
  6
Continuous
100
AcDbLine
 10
239.180561
 20
103.559404
 30
0.0
 11
225.1805609999999
 21
103.559404
 31
0.0
  0
LINE
  5
976E
330
973F
100
AcDbEntity
  8
1
  6
Continuous
100
AcDbLine
 10
239.180561
 20
131.559404
 30
0.0
 11
225.1805609999999
 21
131.559404
 31
0.0
  0
LINE
  5
976F
330
973F
100
AcDbEntity
  8
4
  6
CENTER
100
AcDbLine
 10
235.9165609999998
 20
127.559404
 30
0.0
 11
228.5155609999999
 21
127.559404
 31
0.0
  0
LINE
  5
9770
330
973F
100
AcDbEntity
  8
4
  6
CENTER
100
AcDbLine
 10
235.9955609999999
 20
107.559404
 30
0.0
 11
228.1965609999998
 21
107.559404
 31
0.0
  0
LINE
  5
9771
330
973F
100
AcDbEntity
  8
1
  6
Continuous
100
AcDbLine
 10
238.1805609999999
 20
131.559404
 30
0.0
 11
238.1805609999999
 21
123.0594039999999
 31
0.0
  0
LINE
  5
9772
330
973F
100
AcDbEntity
  8
1
  6
Continuous
100
AcDbLine
 10
226.1805609999999
 20
131.559404
 30
0.0
 11
226.1805609999999
 21
121.05093
 31
0.0
  0
LINE
  5
9773
330
973F
100
AcDbEntity
  8
1
  6
Continuous
100
AcDbLine
 10
239.180561
 20
112.059404
 30
0.0
 11
237.6805609999999
 21
112.059404
 31
0.0
  0
LINE
  5
9774
330
973F
100
AcDbEntity
  8
1
  6
Continuous
100
AcDbLine
 10
237.6805609999999
 20
110.5594039999999
 30
0.0
 11
226.680561
 21
110.5594039999999
 31
0.0
  0
LINE
  5
9775
330
973F
100
AcDbEntity
  8
1
  6
Continuous
100
AcDbLine
 10
238.1805609999999
 20
112.059404
 30
0.0
 11
238.1805609999999
 21
103.559404
 31
0.0
  0
LINE
  5
9776
330
973F
100
AcDbEntity
  8
1
  6
Continuous
100
AcDbLine
 10
231.1805609999999
 20
121.017404
 30
0.0
 11
230.266561
 21
122.9104039999999
 31
0.0
  0
LINE
  5
9777
330
973F
100
AcDbEntity
  8
1
  6
Continuous
100
AcDbLine
 10
233.1805609999999
 20
121.017404
 30
0.0
 11
234.0955609999999
 21
122.9104039999999
 31
0.0
  0
LINE
  5
9778
330
973F
100
AcDbEntity
  8
1
  6
Continuous
100
AcDbLine
 10
235.0895609999998
 20
119.681404
 30
0.0
 11
236.1665609999998
 21
121.9094039999999
 31
0.0
  0
LINE
  5
9779
330
973F
100
AcDbEntity
  8
1
  6
Continuous
100
AcDbLine
 10
229.272561
 20
119.681404
 30
0.0
 11
228.195561
 21
121.9094039999999
 31
0.0
  0
LINE
  5
977A
330
973F
100
AcDbEntity
  8
1
  6
Continuous
100
AcDbLine
 10
233.2565609999999
 20
116.375404
 30
0.0
 11
234.206561
 21
111.967404
 31
0.0
  0
LINE
  5
977B
330
973F
100
AcDbEntity
  8
1
  6
Continuous
100
AcDbLine
 10
231.1045609999999
 20
116.375404
 30
0.0
 11
230.1555609999998
 21
111.967404
 31
0.0
  0
LINE
  5
977C
330
973F
100
AcDbEntity
  8
1
  6
Continuous
100
AcDbLine
 10
228.7635609999999
 20
116.428404
 30
0.0
 11
227.9065609999999
 21
112.451404
 31
0.0
  0
LINE
  5
977D
330
973F
100
AcDbEntity
  8
1
  6
Continuous
100
AcDbLine
 10
235.5985609999999
 20
116.428404
 30
0.0
 11
236.455561
 21
112.451404
 31
0.0
  0
LINE
  5
977E
330
973F
100
AcDbEntity
  8
4
  6
CENTER
100
AcDbLine
 10
99.624561
 20
37.559404
 30
0.0
 11
154.435561
 21
37.559404
 31
0.0
  0
LINE
  5
977F
330
973F
100
AcDbEntity
  8
1
  6
Continuous
100
AcDbLine
 10
150.180561
 20
199.159404
 30
0.0
 11
150.180561
 21
195.9594039999998
 31
0.0
  0
LINE
  5
9780
330
973F
100
AcDbEntity
  8
1
  6
Continuous
100
AcDbLine
 10
147.180561
 20
199.159404
 30
0.0
 11
147.180561
 21
197.239404
 31
0.0
  0
LINE
  5
9781
330
973F
100
AcDbEntity
  8
1
  6
Continuous
100
AcDbLine
 10
148.9805609999999
 20
199.159404
 30
0.0
 11
150.180561
 21
199.159404
 31
0.0
  0
LINE
  5
9782
330
973F
100
AcDbEntity
  8
1
  6
Continuous
100
AcDbLine
 10
148.9805609999999
 20
195.9594039999998
 30
0.0
 11
150.180561
 21
195.9594039999998
 31
0.0
  0
LINE
  5
9783
330
973F
100
AcDbEntity
  8
1
  6
Continuous
100
AcDbLine
 10
147.2905609999999
 20
196.4094039999999
 30
0.0
 11
147.4805609999999
 21
196.4094039999999
 31
0.0
  0
LINE
  5
9784
330
973F
100
AcDbEntity
  8
1
  6
Continuous
100
AcDbLine
 10
147.180561
 20
198.709404
 30
0.0
 11
147.4805609999999
 21
198.709404
 31
0.0
  0
LINE
  5
9785
330
973F
100
AcDbEntity
  8
1
  6
Continuous
100
AcDbLine
 10
146.180561
 20
195.9594039999998
 30
0.0
 11
146.946561
 21
195.9594039999998
 31
0.0
  0
LINE
  5
9786
330
973F
100
AcDbEntity
  8
1
  6
Continuous
100
AcDbLine
 10
146.180561
 20
199.159404
 30
0.0
 11
146.523561
 21
199.159404
 31
0.0
  0
LINE
  5
9787
330
973F
100
AcDbEntity
  8
1
  6
Continuous
100
AcDbLine
 10
146.9265609999999
 20
199.159404
 30
0.0
 11
147.180561
 21
199.159404
 31
0.0
  0
LINE
  5
9788
330
973F
100
AcDbEntity
  8
1
  6
Continuous
100
AcDbLine
 10
146.5805609999999
 20
195.9594039999998
 30
0.0
 11
146.5805609999999
 21
193.359404
 31
0.0
  0
LINE
  5
9789
330
973F
100
AcDbEntity
  8
1
  6
Continuous
100
AcDbLine
 10
146.1825609999999
 20
201.733404
 30
0.0
 11
147.082561
 21
194.933404
 31
0.0
  0
LINE
  5
978A
330
973F
100
AcDbEntity
  8
1
  6
Continuous
100
AcDbLine
 10
147.4795609999999
 20
194.9854039999999
 30
0.0
 11
146.579561
 21
201.785404
 31
0.0
  0
LINE
  5
978B
330
973F
100
AcDbEntity
  8
1
  6
Continuous
100
AcDbLine
 10
147.080561
 20
200.159404
 30
0.0
 11
147.080561
 21
199.159404
 31
0.0
  0
LINE
  5
978C
330
973F
100
AcDbEntity
  8
1
  6
Continuous
100
AcDbLine
 10
225.1805609999999
 20
114.152624
 30
0.0
 11
225.1805609999999
 21
103.559404
 31
0.0
  0
LINE
  5
978D
330
973F
100
AcDbEntity
  8
1
  6
Continuous
100
AcDbLine
 10
226.1805609999999
 20
114.067879
 30
0.0
 11
226.1805609999999
 21
103.559404
 31
0.0
  0
LINE
  5
978E
330
973F
100
AcDbEntity
  8
1
  6
Continuous
100
AcDbLine
 10
338.180561
 20
131.559404
 30
0.0
 11
335.1805609999999
 21
131.559404
 31
0.0
  0
LINE
  5
978F
330
973F
100
AcDbEntity
  8
1
  6
Continuous
100
AcDbLine
 10
338.180561
 20
103.559404
 30
0.0
 11
335.1805609999999
 21
103.559404
 31
0.0
  0
LINE
  5
9790
330
973F
100
AcDbEntity
  8
1
  6
Continuous
100
AcDbLine
 10
338.180561
 20
131.559404
 30
0.0
 11
338.180561
 21
103.559404
 31
0.0
  0
LINE
  5
9791
330
973F
100
AcDbEntity
  8
1
  6
Continuous
100
AcDbLine
 10
335.1805609999999
 20
131.559404
 30
0.0
 11
335.1805609999999
 21
123.0594039999999
 31
0.0
  0
LINE
  5
9792
330
973F
100
AcDbEntity
  8
4
  6
CENTER
100
AcDbLine
 10
365.7385609999999
 20
117.559404
 30
0.0
 11
311.2855609999999
 21
117.559404
 31
0.0
  0
LINE
  5
9793
330
973F
100
AcDbEntity
  8
1
  6
Continuous
100
AcDbLine
 10
335.1805609999999
 20
123.0594039999999
 30
0.0
 11
318.180561
 21
123.0594039999999
 31
0.0
  0
LINE
  5
9794
330
973F
100
AcDbEntity
  8
1
  6
Continuous
100
AcDbLine
 10
335.1805609999999
 20
110.5594039999999
 30
0.0
 11
319.180561
 21
110.5594039999999
 31
0.0
  0
LINE
  5
9795
330
973F
100
AcDbEntity
  8
1
  6
Continuous
100
AcDbLine
 10
335.1805609999999
 20
112.059404
 30
0.0
 11
318.180561
 21
112.059404
 31
0.0
  0
LINE
  5
9796
330
973F
100
AcDbEntity
  8
1
  6
Continuous
100
AcDbLine
 10
335.1805609999999
 20
111.5594039999999
 30
0.0
 11
319.180561
 21
111.5594039999999
 31
0.0
  0
LINE
  5
9797
330
973F
100
AcDbEntity
  8
1
  6
Continuous
100
AcDbLine
 10
318.180561
 20
123.559404
 30
0.0
 11
318.180561
 21
111.5594039999999
 31
0.0
  0
LINE
  5
9798
330
973F
100
AcDbEntity
  8
1
  6
Continuous
100
AcDbLine
 10
319.180561
 20
112.059404
 30
0.0
 11
319.180561
 21
111.5594039999999
 31
0.0
  0
LINE
  5
9799
330
973F
100
AcDbEntity
  8
1
  6
Continuous
100
AcDbLine
 10
314.180561
 20
119.159404
 30
0.0
 11
314.180561
 21
115.9594039999999
 31
0.0
  0
LINE
  5
979A
330
973F
100
AcDbEntity
  8
1
  6
Continuous
100
AcDbLine
 10
317.180561
 20
119.159404
 30
0.0
 11
317.180561
 21
117.2394039999999
 31
0.0
  0
LINE
  5
979B
330
973F
100
AcDbEntity
  8
1
  6
Continuous
100
AcDbLine
 10
315.380561
 20
123.559404
 30
0.0
 11
315.380561
 21
111.059404
 31
0.0
  0
LINE
  5
979C
330
973F
100
AcDbEntity
  8
1
  6
Continuous
100
AcDbLine
 10
315.380561
 20
119.159404
 30
0.0
 11
314.180561
 21
119.159404
 31
0.0
  0
LINE
  5
979D
330
973F
100
AcDbEntity
  8
1
  6
Continuous
100
AcDbLine
 10
315.380561
 20
115.9594039999999
 30
0.0
 11
314.180561
 21
115.9594039999999
 31
0.0
  0
LINE
  5
979E
330
973F
100
AcDbEntity
  8
1
  6
Continuous
100
AcDbLine
 10
317.070561
 20
116.4094039999999
 30
0.0
 11
316.880561
 21
116.4094039999999
 31
0.0
  0
LINE
  5
979F
330
973F
100
AcDbEntity
  8
1
  6
Continuous
100
AcDbLine
 10
317.180561
 20
118.709404
 30
0.0
 11
316.880561
 21
118.709404
 31
0.0
  0
LINE
  5
97A0
330
973F
100
AcDbEntity
  8
1
  6
Continuous
100
AcDbLine
 10
318.180561
 20
115.9594039999999
 30
0.0
 11
317.414561
 21
115.9594039999999
 31
0.0
  0
LINE
  5
97A1
330
973F
100
AcDbEntity
  8
1
  6
Continuous
100
AcDbLine
 10
318.180561
 20
119.159404
 30
0.0
 11
317.8385609999999
 21
119.159404
 31
0.0
  0
LINE
  5
97A2
330
973F
100
AcDbEntity
  8
1
  6
Continuous
100
AcDbLine
 10
316.880561
 20
111.059404
 30
0.0
 11
315.380561
 21
111.059404
 31
0.0
  0
LINE
  5
97A3
330
973F
100
AcDbEntity
  8
1
  6
Continuous
100
AcDbLine
 10
316.880561
 20
123.559404
 30
0.0
 11
315.380561
 21
123.559404
 31
0.0
  0
LINE
  5
97A4
330
973F
100
AcDbEntity
  8
1
  6
Continuous
100
AcDbLine
 10
316.880561
 20
119.681404
 30
0.0
 11
315.380561
 21
119.681404
 31
0.0
  0
LINE
  5
97A5
330
973F
100
AcDbEntity
  8
1
  6
Continuous
100
AcDbLine
 10
316.880561
 20
123.559404
 30
0.0
 11
316.880561
 21
111.059404
 31
0.0
  0
LINE
  5
97A6
330
973F
100
AcDbEntity
  8
1
  6
Continuous
100
AcDbLine
 10
316.880561
 20
116.428404
 30
0.0
 11
315.380561
 21
116.428404
 31
0.0
  0
LINE
  5
97A7
330
973F
100
AcDbEntity
  8
1
  6
Continuous
100
AcDbLine
 10
317.4345609999999
 20
119.159404
 30
0.0
 11
317.180561
 21
119.159404
 31
0.0
  0
LINE
  5
97A8
330
973F
100
AcDbEntity
  8
1
  6
Continuous
100
AcDbLine
 10
317.780561
 20
115.9594039999999
 30
0.0
 11
317.780561
 21
113.3594039999999
 31
0.0
  0
LINE
  5
97A9
330
973F
100
AcDbEntity
  8
1
  6
Continuous
100
AcDbLine
 10
318.1795609999999
 20
121.7334039999999
 30
0.0
 11
317.279561
 21
114.933404
 31
0.0
  0
LINE
  5
97AA
330
973F
100
AcDbEntity
  8
1
  6
Continuous
100
AcDbLine
 10
316.882561
 20
114.985404
 30
0.0
 11
317.7825609999998
 21
121.7854039999999
 31
0.0
  0
LINE
  5
97AB
330
973F
100
AcDbEntity
  8
1
  6
Continuous
100
AcDbLine
 10
317.2805609999999
 20
120.159404
 30
0.0
 11
317.2805609999999
 21
119.159404
 31
0.0
  0
LINE
  5
97AC
330
973F
100
AcDbEntity
  8
1
  6
Continuous
100
AcDbLine
 10
126.180561
 20
31.55940399999999
 30
0.0
 11
126.180561
 21
43.559404
 31
0.0
  0
LINE
  5
97AD
330
973F
100
AcDbEntity
  8
1
  6
Continuous
100
AcDbLine
 10
129.180561
 20
30.55940399999999
 30
0.0
 11
129.180561
 21
31.55940399999999
 31
0.0
  0
LINE
  5
97AE
330
973F
100
AcDbEntity
  8
1
  6
Continuous
100
AcDbLine
 10
146.180561
 20
31.55940399999999
 30
0.0
 11
146.180561
 21
43.05940399999999
 31
0.0
  0
LINE
  5
97AF
330
973F
100
AcDbEntity
  8
1
  6
Continuous
100
AcDbLine
 10
150.180561
 20
35.95940399999999
 30
0.0
 11
150.180561
 21
39.15940399999998
 31
0.0
  0
LINE
  5
97B0
330
973F
100
AcDbEntity
  8
1
  6
Continuous
100
AcDbLine
 10
147.180561
 20
35.95940399999999
 30
0.0
 11
147.180561
 21
37.879604
 31
0.0
  0
LINE
  5
97B1
330
973F
100
AcDbEntity
  8
1
  6
Continuous
100
AcDbLine
 10
148.9805609999999
 20
193.2594039999999
 30
0.0
 11
148.9805609999999
 21
201.8594039999999
 31
0.0
  0
LINE
  5
97B2
330
973F
100
AcDbEntity
  8
1
  6
Continuous
100
AcDbLine
 10
148.9805609999999
 20
35.95940399999999
 30
0.0
 11
150.180561
 21
35.95940399999999
 31
0.0
  0
LINE
  5
97B3
330
973F
100
AcDbEntity
  8
1
  6
Continuous
100
AcDbLine
 10
148.9805609999999
 20
39.15940399999998
 30
0.0
 11
150.180561
 21
39.15940399999998
 31
0.0
  0
LINE
  5
97B4
330
973F
100
AcDbEntity
  8
1
  6
Continuous
100
AcDbLine
 10
147.2905609999999
 20
38.709404
 30
0.0
 11
147.4805609999999
 21
38.709404
 31
0.0
  0
LINE
  5
97B5
330
973F
100
AcDbEntity
  8
1
  6
Continuous
100
AcDbLine
 10
147.180561
 20
36.40940399999998
 30
0.0
 11
147.4805609999999
 21
36.40940399999998
 31
0.0
  0
LINE
  5
97B6
330
973F
100
AcDbEntity
  8
1
  6
Continuous
100
AcDbLine
 10
146.180561
 20
39.15940399999998
 30
0.0
 11
146.946561
 21
39.15940399999998
 31
0.0
  0
LINE
  5
97B7
330
973F
100
AcDbEntity
  8
1
  6
Continuous
100
AcDbLine
 10
146.180561
 20
35.95940399999999
 30
0.0
 11
146.523561
 21
35.95940399999999
 31
0.0
  0
LINE
  5
97B8
330
973F
100
AcDbEntity
  8
1
  6
Continuous
100
AcDbLine
 10
147.4805609999999
 20
193.2594039999999
 30
0.0
 11
147.4805609999999
 21
201.8594039999999
 31
0.0
  0
LINE
  5
97B9
330
973F
100
AcDbEntity
  8
1
  6
Continuous
100
AcDbLine
 10
127.180561
 20
44.559404
 30
0.0
 11
129.180561
 21
44.559404
 31
0.0
  0
LINE
  5
97BA
330
973F
100
AcDbEntity
  8
1
  6
Continuous
100
AcDbLine
 10
127.180561
 20
31.55940399999999
 30
0.0
 11
127.180561
 21
43.559404
 31
0.0
  0
LINE
  5
97BB
330
973F
100
AcDbEntity
  8
1
  6
Continuous
100
AcDbLine
 10
127.180561
 20
43.559404
 30
0.0
 11
129.180561
 21
43.559404
 31
0.0
  0
LINE
  5
97BC
330
973F
100
AcDbEntity
  8
1
  6
Continuous
100
AcDbLine
 10
129.180561
 20
43.559404
 30
0.0
 11
129.180561
 21
44.559404
 31
0.0
  0
LINE
  5
97BD
330
973F
100
AcDbEntity
  8
1
  6
Continuous
100
AcDbLine
 10
127.180561
 20
43.05940399999999
 30
0.0
 11
146.180561
 21
43.05940399999999
 31
0.0
  0
LINE
  5
97BE
330
973F
100
AcDbEntity
  8
1
  6
Continuous
100
AcDbLine
 10
127.180561
 20
32.059404
 30
0.0
 11
146.180561
 21
32.059404
 31
0.0
  0
LINE
  5
97BF
330
973F
100
AcDbEntity
  8
1
  6
Continuous
100
AcDbLine
 10
127.180561
 20
30.55940399999999
 30
0.0
 11
145.180561
 21
30.55940399999999
 31
0.0
  0
LINE
  5
97C0
330
973F
100
AcDbEntity
  8
1
  6
Continuous
100
AcDbLine
 10
127.180561
 20
31.55940399999999
 30
0.0
 11
145.180561
 21
31.55940399999999
 31
0.0
  0
LINE
  5
97C1
330
973F
100
AcDbEntity
  8
1
  6
Continuous
100
AcDbLine
 10
147.4805609999999
 20
196.559404
 30
0.0
 11
148.9805609999999
 21
196.559404
 31
0.0
  0
LINE
  5
97C2
330
973F
100
AcDbEntity
  8
1
  6
Continuous
100
AcDbLine
 10
147.4805609999999
 20
198.559404
 30
0.0
 11
148.9805609999999
 21
198.559404
 31
0.0
  0
LINE
  5
97C3
330
973F
100
AcDbEntity
  8
1
  6
Continuous
100
AcDbLine
 10
147.4805609999999
 20
193.2594039999999
 30
0.0
 11
148.9805609999999
 21
193.2594039999999
 31
0.0
  0
LINE
  5
97C4
330
973F
100
AcDbEntity
  8
1
  6
Continuous
100
AcDbLine
 10
147.4805609999999
 20
201.8594039999999
 30
0.0
 11
148.9805609999999
 21
201.8594039999999
 31
0.0
  0
LINE
  5
97C5
330
973F
100
AcDbEntity
  8
1
  6
Continuous
100
AcDbLine
 10
147.080561
 20
34.959404
 30
0.0
 11
147.080561
 21
35.95940399999999
 31
0.0
  0
LINE
  5
97C6
330
973F
100
AcDbEntity
  8
1
  6
Continuous
100
AcDbLine
 10
147.4795609999999
 20
40.133204
 30
0.0
 11
146.579561
 21
33.33320399999998
 31
0.0
  0
LINE
  5
97C7
330
973F
100
AcDbEntity
  8
1
  6
Continuous
100
AcDbLine
 10
146.1825609999999
 20
33.385704
 30
0.0
 11
147.082561
 21
40.185704
 31
0.0
  0
LINE
  5
97C8
330
973F
100
AcDbEntity
  8
1
  6
Continuous
100
AcDbLine
 10
146.5805609999999
 20
39.15940399999998
 30
0.0
 11
146.5805609999999
 21
41.75940399999999
 31
0.0
  0
LINE
  5
97C9
330
973F
100
AcDbEntity
  8
1
  6
Continuous
100
AcDbLine
 10
146.9265609999999
 20
35.95940399999999
 30
0.0
 11
147.180561
 21
35.95940399999999
 31
0.0
  0
LINE
  5
97CA
330
973F
100
AcDbEntity
  8
1
  6
Continuous
100
AcDbLine
 10
145.180561
 20
31.55940399999999
 30
0.0
 11
145.180561
 21
32.059404
 31
0.0
  0
LINE
  5
97CB
330
973F
100
AcDbEntity
  8
1
  6
Continuous
100
AcDbLine
 10
335.1805609999999
 20
112.059404
 30
0.0
 11
335.1805609999999
 21
103.559404
 31
0.0
  0
LINE
  5
97CC
330
973F
100
AcDbEntity
  8
4
  6
CENTER
100
AcDbLine
 10
341.3615609999999
 20
127.559404
 30
0.0
 11
331.969561
 21
127.559404
 31
0.0
  0
LINE
  5
97CD
330
973F
100
AcDbEntity
  8
4
  6
CENTER
100
AcDbLine
 10
341.637561
 20
107.559404
 30
0.0
 11
331.969561
 21
107.559404
 31
0.0
  0
LINE
  5
97CE
330
973F
100
AcDbEntity
  8
1
  6
Continuous
100
AcDbLine
 10
128.180561
 20
32.059404
 30
0.0
 11
128.180561
 21
43.05940399999999
 31
0.0
  0
LINE
  5
97CF
330
973F
100
AcDbEntity
  8
1
  6
Continuous
100
AcDbLine
 10
237.6805609999999
 20
112.059404
 30
0.0
 11
237.6805609999999
 21
103.559404
 31
0.0
  0
LINE
  5
97D0
330
973F
100
AcDbEntity
  8
1
  6
Continuous
100
AcDbLine
 10
226.680561
 20
124.559404
 30
0.0
 11
226.680561
 21
123.559404
 31
0.0
  0
LINE
  5
97D1
330
973F
100
AcDbEntity
  8
1
  6
Continuous
100
AcDbLine
 10
39.180861
 20
120.559404
 30
0.0
 11
39.180861
 21
114.5594039999999
 31
0.0
  0
LINE
  5
97D2
330
973F
100
AcDbEntity
  8
1
  6
Continuous
100
AcDbLine
 10
35.98086099999999
 20
114.5594039999999
 30
0.0
 11
39.180861
 21
114.5594039999999
 31
0.0
  0
LINE
  5
97D3
330
973F
100
AcDbEntity
  8
1
  6
Continuous
100
AcDbLine
 10
35.98086099999999
 20
120.559404
 30
0.0
 11
39.180861
 21
120.559404
 31
0.0
  0
LINE
  5
97D4
330
973F
100
AcDbEntity
  8
1
  6
Continuous
100
AcDbLine
 10
35.98086099999999
 20
120.559404
 30
0.0
 11
35.98086099999999
 21
114.5594039999999
 31
0.0
  0
LINE
  5
97D5
330
973F
100
AcDbEntity
  8
1
  6
Continuous
100
AcDbLine
 10
35.98086099999999
 20
120.559404
 30
0.0
 11
31.180861
 21
120.966184
 31
0.0
  0
LINE
  5
97D6
330
973F
100
AcDbEntity
  8
1
  6
Continuous
100
AcDbLine
 10
35.98086099999999
 20
114.5594039999999
 30
0.0
 11
31.180861
 21
114.152624
 31
0.0
  0
LINE
  5
97D7
330
973F
100
AcDbEntity
  8
1
  6
Continuous
100
AcDbLine
 10
101.1805609999999
 20
43.05940399999999
 30
0.0
 11
101.1805609999999
 21
32.059404
 31
0.0
  0
LINE
  5
97D8
330
973F
100
AcDbEntity
  8
1
  6
Continuous
100
AcDbLine
 10
107.180561
 20
43.05940399999999
 30
0.0
 11
107.180561
 21
32.059404
 31
0.0
  0
LINE
  5
97D9
330
973F
100
AcDbEntity
  8
1
  6
Continuous
100
AcDbLine
 10
120.180561
 20
42.559404
 30
0.0
 11
120.180561
 21
32.559404
 31
0.0
  0
LINE
  5
97DA
330
973F
100
AcDbEntity
  8
1
  6
Continuous
100
AcDbLine
 10
120.680561
 20
43.05940399999999
 30
0.0
 11
126.180561
 21
43.05940399999999
 31
0.0
  0
LINE
  5
97DB
330
973F
100
AcDbEntity
  8
1
  6
Continuous
100
AcDbLine
 10
120.680561
 20
32.059404
 30
0.0
 11
126.180561
 21
32.059404
 31
0.0
  0
LINE
  5
97DC
330
973F
100
AcDbEntity
  8
1
  6
Continuous
100
AcDbLine
 10
101.680561
 20
43.559404
 30
0.0
 11
106.680561
 21
43.559404
 31
0.0
  0
LINE
  5
97DD
330
973F
100
AcDbEntity
  8
1
  6
Continuous
100
AcDbLine
 10
101.680561
 20
31.55940399999999
 30
0.0
 11
106.680561
 21
31.55940399999999
 31
0.0
  0
LINE
  5
97DE
330
973F
100
AcDbEntity
  8
1
  6
Continuous
100
AcDbLine
 10
101.680561
 20
43.559404
 30
0.0
 11
101.1805609999999
 21
43.05940399999999
 31
0.0
  0
LINE
  5
97DF
330
973F
100
AcDbEntity
  8
1
  6
Continuous
100
AcDbLine
 10
101.1805609999999
 20
32.059404
 30
0.0
 11
101.680561
 21
31.55940399999999
 31
0.0
  0
LINE
  5
97E0
330
973F
100
AcDbEntity
  8
1
  6
Continuous
100
AcDbLine
 10
106.680561
 20
31.55940399999999
 30
0.0
 11
107.180561
 21
32.059404
 31
0.0
  0
LINE
  5
97E1
330
973F
100
AcDbEntity
  8
1
  6
Continuous
100
AcDbLine
 10
107.180561
 20
43.05940399999999
 30
0.0
 11
106.680561
 21
43.559404
 31
0.0
  0
LINE
  5
97E2
330
973F
100
AcDbEntity
  8
1
  6
Continuous
100
AcDbLine
 10
120.680561
 20
43.05940399999999
 30
0.0
 11
120.180561
 21
42.559404
 31
0.0
  0
LINE
  5
97E3
330
973F
100
AcDbEntity
  8
1
  6
Continuous
100
AcDbLine
 10
120.180561
 20
32.559404
 30
0.0
 11
120.680561
 21
32.059404
 31
0.0
  0
LINE
  5
97E4
330
973F
100
AcDbEntity
  8
1
  6
Continuous
100
AcDbLine
 10
108.680561
 20
34.559404
 30
0.0
 11
118.680561
 21
34.559404
 31
0.0
  0
LINE
  5
97E5
330
973F
100
AcDbEntity
  8
1
  6
Continuous
100
AcDbLine
 10
108.680561
 20
40.55940399999999
 30
0.0
 11
118.680561
 21
40.55940399999999
 31
0.0
  0
LINE
  5
97E6
330
973F
100
AcDbEntity
  8
1
  6
Continuous
100
AcDbLine
 10
120.680561
 20
43.05940399999999
 30
0.0
 11
120.680561
 21
32.059404
 31
0.0
  0
LINE
  5
97E7
330
973F
100
AcDbEntity
  8
1
  6
Continuous
100
AcDbLine
 10
106.680561
 20
43.559404
 30
0.0
 11
106.680561
 21
31.55940399999999
 31
0.0
  0
LINE
  5
97E8
330
973F
100
AcDbEntity
  8
1
  6
Continuous
100
AcDbLine
 10
101.680561
 20
31.55940399999999
 30
0.0
 11
101.680561
 21
43.559404
 31
0.0
  0
LINE
  5
97E9
330
973F
100
AcDbEntity
  8
4
  6
CENTER
100
AcDbLine
 10
99.624561
 20
197.559404
 30
0.0
 11
154.435561
 21
197.559404
 31
0.0
  0
LINE
  5
97EA
330
973F
100
AcDbEntity
  8
1
  6
Continuous
100
AcDbLine
 10
101.1805609999999
 20
203.0594039999999
 30
0.0
 11
101.1805609999999
 21
192.059404
 31
0.0
  0
LINE
  5
97EB
330
973F
100
AcDbEntity
  8
1
  6
Continuous
100
AcDbLine
 10
107.180561
 20
203.0594039999999
 30
0.0
 11
107.180561
 21
192.059404
 31
0.0
  0
LINE
  5
97EC
330
973F
100
AcDbEntity
  8
1
  6
Continuous
100
AcDbLine
 10
120.180561
 20
202.559404
 30
0.0
 11
120.180561
 21
192.559404
 31
0.0
  0
LINE
  5
97ED
330
973F
100
AcDbEntity
  8
1
  6
Continuous
100
AcDbLine
 10
120.680561
 20
203.0594039999999
 30
0.0
 11
126.180561
 21
203.0594039999999
 31
0.0
  0
LINE
  5
97EE
330
973F
100
AcDbEntity
  8
1
  6
Continuous
100
AcDbLine
 10
120.680561
 20
192.059404
 30
0.0
 11
126.180561
 21
192.059404
 31
0.0
  0
LINE
  5
97EF
330
973F
100
AcDbEntity
  8
1
  6
Continuous
100
AcDbLine
 10
101.680561
 20
203.5594039999998
 30
0.0
 11
106.680561
 21
203.5594039999998
 31
0.0
  0
LINE
  5
97F0
330
973F
100
AcDbEntity
  8
1
  6
Continuous
100
AcDbLine
 10
101.680561
 20
191.559404
 30
0.0
 11
106.680561
 21
191.559404
 31
0.0
  0
LINE
  5
97F1
330
973F
100
AcDbEntity
  8
1
  6
Continuous
100
AcDbLine
 10
101.680561
 20
203.5594039999998
 30
0.0
 11
101.1805609999999
 21
203.0594039999999
 31
0.0
  0
LINE
  5
97F2
330
973F
100
AcDbEntity
  8
1
  6
Continuous
100
AcDbLine
 10
101.1805609999999
 20
192.059404
 30
0.0
 11
101.680561
 21
191.559404
 31
0.0
  0
LINE
  5
97F3
330
973F
100
AcDbEntity
  8
1
  6
Continuous
100
AcDbLine
 10
106.680561
 20
191.559404
 30
0.0
 11
107.180561
 21
192.059404
 31
0.0
  0
LINE
  5
97F4
330
973F
100
AcDbEntity
  8
1
  6
Continuous
100
AcDbLine
 10
107.180561
 20
203.0594039999999
 30
0.0
 11
106.680561
 21
203.5594039999998
 31
0.0
  0
LINE
  5
97F5
330
973F
100
AcDbEntity
  8
1
  6
Continuous
100
AcDbLine
 10
120.680561
 20
203.0594039999999
 30
0.0
 11
120.180561
 21
202.559404
 31
0.0
  0
LINE
  5
97F6
330
973F
100
AcDbEntity
  8
1
  6
Continuous
100
AcDbLine
 10
120.180561
 20
192.559404
 30
0.0
 11
120.680561
 21
192.059404
 31
0.0
  0
LINE
  5
97F7
330
973F
100
AcDbEntity
  8
1
  6
Continuous
100
AcDbLine
 10
108.680561
 20
194.5594039999998
 30
0.0
 11
118.680561
 21
194.5594039999998
 31
0.0
  0
LINE
  5
97F8
330
973F
100
AcDbEntity
  8
1
  6
Continuous
100
AcDbLine
 10
108.680561
 20
200.559404
 30
0.0
 11
118.680561
 21
200.559404
 31
0.0
  0
LINE
  5
97F9
330
973F
100
AcDbEntity
  8
1
  6
Continuous
100
AcDbLine
 10
120.680561
 20
203.0594039999999
 30
0.0
 11
120.680561
 21
192.059404
 31
0.0
  0
LINE
  5
97FA
330
973F
100
AcDbEntity
  8
1
  6
Continuous
100
AcDbLine
 10
106.680561
 20
203.5594039999998
 30
0.0
 11
106.680561
 21
191.559404
 31
0.0
  0
LINE
  5
97FB
330
973F
100
AcDbEntity
  8
1
  6
Continuous
100
AcDbLine
 10
101.680561
 20
191.559404
 30
0.0
 11
101.680561
 21
203.5594039999998
 31
0.0
  0
LINE
  5
97FC
330
973F
100
AcDbEntity
  8
1
  6
Continuous
100
AcDbLine
 10
126.180561
 20
131.559404
 30
0.0
 11
129.180561
 21
131.559404
 31
0.0
  0
LINE
  5
97FD
330
973F
100
AcDbEntity
  8
1
  6
Continuous
100
AcDbLine
 10
126.180561
 20
103.559404
 30
0.0
 11
129.180561
 21
103.559404
 31
0.0
  0
LINE
  5
97FE
330
973F
100
AcDbEntity
  8
1
  6
Continuous
100
AcDbLine
 10
126.180561
 20
131.559404
 30
0.0
 11
126.180561
 21
103.559404
 31
0.0
  0
LINE
  5
97FF
330
973F
100
AcDbEntity
  8
1
  6
Continuous
100
AcDbLine
 10
129.180561
 20
131.559404
 30
0.0
 11
129.180561
 21
103.559404
 31
0.0
  0
LINE
  5
9800
330
973F
100
AcDbEntity
  8
1
  6
Continuous
100
AcDbLine
 10
129.180561
 20
123.0594039999999
 30
0.0
 11
146.180561
 21
123.0594039999999
 31
0.0
  0
LINE
  5
9801
330
973F
100
AcDbEntity
  8
1
  6
Continuous
100
AcDbLine
 10
129.180561
 20
110.5594039999999
 30
0.0
 11
145.180561
 21
110.5594039999999
 31
0.0
  0
LINE
  5
9802
330
973F
100
AcDbEntity
  8
1
  6
Continuous
100
AcDbLine
 10
129.180561
 20
112.059404
 30
0.0
 11
145.180561
 21
112.059404
 31
0.0
  0
LINE
  5
9803
330
973F
100
AcDbEntity
  8
1
  6
Continuous
100
AcDbLine
 10
129.180561
 20
111.5594039999999
 30
0.0
 11
145.180561
 21
111.5594039999999
 31
0.0
  0
LINE
  5
9804
330
973F
100
AcDbEntity
  8
1
  6
Continuous
100
AcDbLine
 10
146.180561
 20
123.559404
 30
0.0
 11
146.180561
 21
111.5594039999999
 31
0.0
  0
LINE
  5
9805
330
973F
100
AcDbEntity
  8
1
  6
Continuous
100
AcDbLine
 10
145.180561
 20
123.559404
 30
0.0
 11
145.180561
 21
111.5594039999999
 31
0.0
  0
LINE
  5
9806
330
973F
100
AcDbEntity
  8
1
  6
Continuous
100
AcDbLine
 10
150.180561
 20
119.159404
 30
0.0
 11
150.180561
 21
115.9594039999999
 31
0.0
  0
LINE
  5
9807
330
973F
100
AcDbEntity
  8
1
  6
Continuous
100
AcDbLine
 10
147.180561
 20
119.159404
 30
0.0
 11
147.180561
 21
117.2394039999999
 31
0.0
  0
LINE
  5
9808
330
973F
100
AcDbEntity
  8
1
  6
Continuous
100
AcDbLine
 10
148.9805609999999
 20
123.559404
 30
0.0
 11
148.9805609999999
 21
111.059404
 31
0.0
  0
LINE
  5
9809
330
973F
100
AcDbEntity
  8
1
  6
Continuous
100
AcDbLine
 10
148.9805609999999
 20
119.159404
 30
0.0
 11
150.180561
 21
119.159404
 31
0.0
  0
LINE
  5
980A
330
973F
100
AcDbEntity
  8
1
  6
Continuous
100
AcDbLine
 10
148.9805609999999
 20
115.9594039999999
 30
0.0
 11
150.180561
 21
115.9594039999999
 31
0.0
  0
LINE
  5
980B
330
973F
100
AcDbEntity
  8
1
  6
Continuous
100
AcDbLine
 10
147.2905609999999
 20
116.4094039999999
 30
0.0
 11
147.4805609999999
 21
116.4094039999999
 31
0.0
  0
LINE
  5
980C
330
973F
100
AcDbEntity
  8
1
  6
Continuous
100
AcDbLine
 10
147.180561
 20
118.709404
 30
0.0
 11
147.4805609999999
 21
118.709404
 31
0.0
  0
LINE
  5
980D
330
973F
100
AcDbEntity
  8
1
  6
Continuous
100
AcDbLine
 10
146.180561
 20
115.9594039999999
 30
0.0
 11
146.946561
 21
115.9594039999999
 31
0.0
  0
LINE
  5
980E
330
973F
100
AcDbEntity
  8
1
  6
Continuous
100
AcDbLine
 10
146.180561
 20
119.159404
 30
0.0
 11
146.523561
 21
119.159404
 31
0.0
  0
LINE
  5
980F
330
973F
100
AcDbEntity
  8
1
  6
Continuous
100
AcDbLine
 10
129.3435609999999
 20
115.059404
 30
0.0
 11
131.015561
 21
115.059404
 31
0.0
  0
LINE
  5
9810
330
973F
100
AcDbEntity
  8
1
  6
Continuous
100
AcDbLine
 10
147.4805609999999
 20
111.059404
 30
0.0
 11
148.9805609999999
 21
111.059404
 31
0.0
  0
LINE
  5
9811
330
973F
100
AcDbEntity
  8
1
  6
Continuous
100
AcDbLine
 10
147.4805609999999
 20
123.559404
 30
0.0
 11
148.9805609999999
 21
123.559404
 31
0.0
  0
LINE
  5
9812
330
973F
100
AcDbEntity
  8
1
  6
Continuous
100
AcDbLine
 10
147.4805609999999
 20
119.681404
 30
0.0
 11
148.9805609999999
 21
119.681404
 31
0.0
  0
LINE
  5
9813
330
973F
100
AcDbEntity
  8
1
  6
Continuous
100
AcDbLine
 10
147.4805609999999
 20
123.559404
 30
0.0
 11
147.4805609999999
 21
111.059404
 31
0.0
  0
LINE
  5
9814
330
973F
100
AcDbEntity
  8
1
  6
Continuous
100
AcDbLine
 10
147.4805609999999
 20
116.428404
 30
0.0
 11
148.9805609999999
 21
116.428404
 31
0.0
  0
LINE
  5
9815
330
973F
100
AcDbEntity
  8
1
  6
Continuous
100
AcDbLine
 10
146.9265609999999
 20
119.159404
 30
0.0
 11
147.180561
 21
119.159404
 31
0.0
  0
LINE
  5
9816
330
973F
100
AcDbEntity
  8
1
  6
Continuous
100
AcDbLine
 10
146.5805609999999
 20
115.9594039999999
 30
0.0
 11
146.5805609999999
 21
113.3594039999999
 31
0.0
  0
LINE
  5
9817
330
973F
100
AcDbEntity
  8
1
  6
Continuous
100
AcDbLine
 10
146.1825609999999
 20
121.7334039999999
 30
0.0
 11
147.082561
 21
114.933404
 31
0.0
  0
LINE
  5
9818
330
973F
100
AcDbEntity
  8
1
  6
Continuous
100
AcDbLine
 10
147.4795609999999
 20
114.985404
 30
0.0
 11
146.579561
 21
121.7854039999999
 31
0.0
  0
LINE
  5
9819
330
973F
100
AcDbEntity
  8
1
  6
Continuous
100
AcDbLine
 10
147.080561
 20
120.159404
 30
0.0
 11
147.080561
 21
119.159404
 31
0.0
  0
LINE
  5
981A
330
973F
100
AcDbEntity
  8
4
  6
CENTER
100
AcDbLine
 10
122.7245609999999
 20
107.559404
 30
0.0
 11
132.392561
 21
107.559404
 31
0.0
  0
LINE
  5
981B
330
973F
100
AcDbEntity
  8
4
  6
CENTER
100
AcDbLine
 10
123.000561
 20
127.559404
 30
0.0
 11
132.392561
 21
127.559404
 31
0.0
  0
LINE
  5
981C
330
973F
100
AcDbEntity
  8
1
  6
Continuous
100
AcDbLine
 10
129.180561
 20
123.559404
 30
0.0
 11
145.180561
 21
123.559404
 31
0.0
  0
LINE
  5
981D
330
973F
100
AcDbEntity
  8
1
  6
Continuous
100
AcDbLine
 10
129.180561
 20
124.559404
 30
0.0
 11
145.180561
 21
124.559404
 31
0.0
  0
LINE
  5
981E
330
973F
100
AcDbEntity
  8
1
  6
Continuous
100
AcDbLine
 10
140.680561
 20
124.559404
 30
0.0
 11
140.680561
 21
123.559404
 31
0.0
  0
LINE
  5
981F
330
973F
100
AcDbEntity
  8
4
  6
CENTER
100
AcDbLine
 10
99.624561
 20
117.559404
 30
0.0
 11
154.435561
 21
117.559404
 31
0.0
  0
LINE
  5
9820
330
973F
100
AcDbEntity
  8
1
  6
Continuous
100
AcDbLine
 10
101.1805609999999
 20
123.0594039999999
 30
0.0
 11
101.1805609999999
 21
112.059404
 31
0.0
  0
LINE
  5
9821
330
973F
100
AcDbEntity
  8
1
  6
Continuous
100
AcDbLine
 10
107.180561
 20
123.0594039999999
 30
0.0
 11
107.180561
 21
112.059404
 31
0.0
  0
LINE
  5
9822
330
973F
100
AcDbEntity
  8
1
  6
Continuous
100
AcDbLine
 10
120.180561
 20
122.559404
 30
0.0
 11
120.180561
 21
112.5594039999999
 31
0.0
  0
LINE
  5
9823
330
973F
100
AcDbEntity
  8
1
  6
Continuous
100
AcDbLine
 10
120.680561
 20
123.0594039999999
 30
0.0
 11
126.180561
 21
123.0594039999999
 31
0.0
  0
LINE
  5
9824
330
973F
100
AcDbEntity
  8
1
  6
Continuous
100
AcDbLine
 10
120.680561
 20
112.059404
 30
0.0
 11
126.180561
 21
112.059404
 31
0.0
  0
LINE
  5
9825
330
973F
100
AcDbEntity
  8
1
  6
Continuous
100
AcDbLine
 10
101.680561
 20
123.559404
 30
0.0
 11
106.680561
 21
123.559404
 31
0.0
  0
LINE
  5
9826
330
973F
100
AcDbEntity
  8
1
  6
Continuous
100
AcDbLine
 10
101.680561
 20
111.5594039999999
 30
0.0
 11
106.680561
 21
111.5594039999999
 31
0.0
  0
LINE
  5
9827
330
973F
100
AcDbEntity
  8
1
  6
Continuous
100
AcDbLine
 10
101.680561
 20
123.559404
 30
0.0
 11
101.1805609999999
 21
123.0594039999999
 31
0.0
  0
LINE
  5
9828
330
973F
100
AcDbEntity
  8
1
  6
Continuous
100
AcDbLine
 10
101.1805609999999
 20
112.059404
 30
0.0
 11
101.680561
 21
111.5594039999999
 31
0.0
  0
LINE
  5
9829
330
973F
100
AcDbEntity
  8
1
  6
Continuous
100
AcDbLine
 10
106.680561
 20
111.5594039999999
 30
0.0
 11
107.180561
 21
112.059404
 31
0.0
  0
LINE
  5
982A
330
973F
100
AcDbEntity
  8
1
  6
Continuous
100
AcDbLine
 10
107.180561
 20
123.0594039999999
 30
0.0
 11
106.680561
 21
123.559404
 31
0.0
  0
LINE
  5
982B
330
973F
100
AcDbEntity
  8
1
  6
Continuous
100
AcDbLine
 10
120.680561
 20
123.0594039999999
 30
0.0
 11
120.180561
 21
122.559404
 31
0.0
  0
LINE
  5
982C
330
973F
100
AcDbEntity
  8
1
  6
Continuous
100
AcDbLine
 10
120.180561
 20
112.5594039999999
 30
0.0
 11
120.680561
 21
112.059404
 31
0.0
  0
LINE
  5
982D
330
973F
100
AcDbEntity
  8
1
  6
Continuous
100
AcDbLine
 10
108.680561
 20
114.5594039999999
 30
0.0
 11
118.680561
 21
114.5594039999999
 31
0.0
  0
LINE
  5
982E
330
973F
100
AcDbEntity
  8
1
  6
Continuous
100
AcDbLine
 10
108.680561
 20
120.559404
 30
0.0
 11
118.680561
 21
120.559404
 31
0.0
  0
LINE
  5
982F
330
973F
100
AcDbEntity
  8
1
  6
Continuous
100
AcDbLine
 10
120.680561
 20
123.0594039999999
 30
0.0
 11
120.680561
 21
112.059404
 31
0.0
  0
LINE
  5
9830
330
973F
100
AcDbEntity
  8
1
  6
Continuous
100
AcDbLine
 10
106.680561
 20
123.559404
 30
0.0
 11
106.680561
 21
111.5594039999999
 31
0.0
  0
LINE
  5
9831
330
973F
100
AcDbEntity
  8
1
  6
Continuous
100
AcDbLine
 10
101.680561
 20
111.5594039999999
 30
0.0
 11
101.680561
 21
123.559404
 31
0.0
  0
LINE
  5
9832
330
973F
100
AcDbEntity
  8
1
  6
Continuous
100
AcDbLine
 10
129.180561
 20
204.559404
 30
0.0
 11
129.180561
 21
203.5594039999998
 31
0.0
  0
LINE
  5
9833
330
973F
100
AcDbEntity
  8
1
  6
Continuous
100
AcDbLine
 10
127.180561
 20
203.5594039999998
 30
0.0
 11
127.180561
 21
191.559404
 31
0.0
  0
LINE
  5
9834
330
973F
100
AcDbEntity
  8
1
  6
Continuous
100
AcDbLine
 10
127.180561
 20
203.0594039999999
 30
0.0
 11
146.180561
 21
203.0594039999999
 31
0.0
  0
LINE
  5
9835
330
973F
100
AcDbEntity
  8
1
  6
Continuous
100
AcDbLine
 10
127.180561
 20
204.559404
 30
0.0
 11
145.180561
 21
204.559404
 31
0.0
  0
LINE
  5
9836
330
973F
100
AcDbEntity
  8
1
  6
Continuous
100
AcDbLine
 10
127.180561
 20
203.5594039999998
 30
0.0
 11
145.180561
 21
203.5594039999998
 31
0.0
  0
LINE
  5
9837
330
973F
100
AcDbEntity
  8
1
  6
Continuous
100
AcDbLine
 10
128.180561
 20
203.0594039999999
 30
0.0
 11
128.180561
 21
192.059404
 31
0.0
  0
LINE
  5
9838
330
973F
100
AcDbEntity
  8
1
  6
Continuous
100
AcDbLine
 10
126.180561
 20
203.5594039999998
 30
0.0
 11
126.180561
 21
191.559404
 31
0.0
  0
LINE
  5
9839
330
973F
100
AcDbEntity
  8
1
  6
Continuous
100
AcDbLine
 10
127.180561
 20
191.559404
 30
0.0
 11
129.180561
 21
191.559404
 31
0.0
  0
LINE
  5
983A
330
973F
100
AcDbEntity
  8
1
  6
Continuous
100
AcDbLine
 10
127.180561
 20
190.559404
 30
0.0
 11
129.180561
 21
190.559404
 31
0.0
  0
LINE
  5
983B
330
973F
100
AcDbEntity
  8
1
  6
Continuous
100
AcDbLine
 10
129.180561
 20
191.559404
 30
0.0
 11
129.180561
 21
190.559404
 31
0.0
  0
LINE
  5
983C
330
973F
100
AcDbEntity
  8
1
  6
Continuous
100
AcDbLine
 10
127.180561
 20
192.059404
 30
0.0
 11
140.980561
 21
192.059404
 31
0.0
  0
LINE
  5
983D
330
973F
100
AcDbEntity
  8
1
  6
Continuous
100
AcDbLine
 10
145.180561
 20
203.5594039999998
 30
0.0
 11
145.180561
 21
203.0594039999999
 31
0.0
  0
LINE
  5
983E
330
973F
100
AcDbEntity
  8
1
  6
Continuous
100
AcDbLine
 10
146.180561
 20
203.5594039999998
 30
0.0
 11
146.180561
 21
192.059404
 31
0.0
  0
LINE
  5
983F
330
973F
100
AcDbEntity
  8
1
  6
Continuous
100
AcDbLine
 10
145.180561
 20
199.2594039999999
 30
0.0
 11
145.180561
 21
192.059404
 31
0.0
  0
LINE
  5
9840
330
973F
100
AcDbEntity
  8
1
  6
Continuous
100
AcDbLine
 10
140.680561
 20
199.2594039999999
 30
0.0
 11
146.180561
 21
199.2594039999999
 31
0.0
  0
LINE
  5
9841
330
973F
100
AcDbEntity
  8
1
  6
Continuous
100
AcDbLine
 10
220.3805609999998
 20
114.5594039999999
 30
0.0
 11
226.680561
 21
114.0255059999999
 31
0.0
  0
LINE
  5
9842
330
973F
100
AcDbEntity
  8
1
  6
Continuous
100
AcDbLine
 10
217.1805609999999
 20
120.559404
 30
0.0
 11
217.1805609999999
 21
114.5594039999999
 31
0.0
  0
LINE
  5
9843
330
973F
100
AcDbEntity
  8
1
  6
Continuous
100
AcDbLine
 10
220.3805609999998
 20
114.5594039999999
 30
0.0
 11
217.1805609999999
 21
114.5594039999999
 31
0.0
  0
LINE
  5
9844
330
973F
100
AcDbEntity
  8
1
  6
Continuous
100
AcDbLine
 10
220.3805609999998
 20
120.559404
 30
0.0
 11
217.1805609999999
 21
120.559404
 31
0.0
  0
LINE
  5
9845
330
973F
100
AcDbEntity
  8
1
  6
Continuous
100
AcDbLine
 10
220.3805609999998
 20
120.559404
 30
0.0
 11
226.680561
 21
121.0933019999999
 31
0.0
  0
LINE
  5
9846
330
973F
100
AcDbEntity
  8
1
  6
Continuous
100
AcDbLine
 10
239.180561
 20
123.0594039999999
 30
0.0
 11
237.6805609999999
 21
123.0594039999999
 31
0.0
  0
LINE
  5
9847
330
973F
100
AcDbEntity
  8
1
  6
Continuous
100
AcDbLine
 10
237.6805609999999
 20
124.559404
 30
0.0
 11
226.680561
 21
124.559404
 31
0.0
  0
LINE
  5
9848
330
973F
100
AcDbEntity
  8
1
  6
Continuous
100
AcDbLine
 10
237.6805609999999
 20
123.0594039999999
 30
0.0
 11
237.6805609999999
 21
131.559404
 31
0.0
  0
LINE
  5
9849
330
973F
100
AcDbEntity
  8
1
  6
Continuous
100
AcDbLine
 10
233.880561
 20
123.559404
 30
0.0
 11
226.680561
 21
123.559404
 31
0.0
  0
LINE
  5
984A
330
973F
100
AcDbEntity
  8
1
  6
Continuous
100
AcDbLine
 10
233.880561
 20
123.0594039999999
 30
0.0
 11
230.193561
 21
123.0594039999999
 31
0.0
  0
LINE
  5
984B
330
973F
100
AcDbEntity
  8
1
  6
Continuous
100
AcDbLine
 10
226.680561
 20
123.0594039999999
 30
0.0
 11
226.680561
 21
103.559404
 31
0.0
  0
LINE
  5
984C
330
973F
100
AcDbEntity
  8
1
  6
Continuous
100
AcDbLine
 10
233.880561
 20
123.0594039999999
 30
0.0
 11
233.880561
 21
124.559404
 31
0.0
  0
LINE
  5
984D
330
973F
100
AcDbEntity
  8
1
  6
Continuous
100
AcDbLine
 10
228.2825609999999
 20
123.0594039999999
 30
0.0
 11
226.680561
 21
123.0594039999999
 31
0.0
  0
LINE
  5
984E
330
973F
100
AcDbEntity
  8
1
  6
Continuous
100
AcDbLine
 10
363.180561
 20
123.0594039999999
 30
0.0
 11
363.180561
 21
112.059404
 31
0.0
  0
LINE
  5
984F
330
973F
100
AcDbEntity
  8
1
  6
Continuous
100
AcDbLine
 10
357.180561
 20
123.0594039999999
 30
0.0
 11
357.180561
 21
112.059404
 31
0.0
  0
LINE
  5
9850
330
973F
100
AcDbEntity
  8
1
  6
Continuous
100
AcDbLine
 10
344.180561
 20
122.559404
 30
0.0
 11
344.180561
 21
112.5594039999999
 31
0.0
  0
LINE
  5
9851
330
973F
100
AcDbEntity
  8
1
  6
Continuous
100
AcDbLine
 10
343.680561
 20
123.0594039999999
 30
0.0
 11
338.180561
 21
123.0594039999999
 31
0.0
  0
LINE
  5
9852
330
973F
100
AcDbEntity
  8
1
  6
Continuous
100
AcDbLine
 10
343.680561
 20
112.059404
 30
0.0
 11
338.180561
 21
112.059404
 31
0.0
  0
LINE
  5
9853
330
973F
100
AcDbEntity
  8
1
  6
Continuous
100
AcDbLine
 10
362.680561
 20
123.559404
 30
0.0
 11
357.680561
 21
123.559404
 31
0.0
  0
LINE
  5
9854
330
973F
100
AcDbEntity
  8
1
  6
Continuous
100
AcDbLine
 10
362.680561
 20
111.5594039999999
 30
0.0
 11
357.680561
 21
111.5594039999999
 31
0.0
  0
LINE
  5
9855
330
973F
100
AcDbEntity
  8
1
  6
Continuous
100
AcDbLine
 10
362.680561
 20
123.559404
 30
0.0
 11
363.180561
 21
123.0594039999999
 31
0.0
  0
LINE
  5
9856
330
973F
100
AcDbEntity
  8
1
  6
Continuous
100
AcDbLine
 10
363.180561
 20
112.059404
 30
0.0
 11
362.680561
 21
111.5594039999999
 31
0.0
  0
LINE
  5
9857
330
973F
100
AcDbEntity
  8
1
  6
Continuous
100
AcDbLine
 10
357.680561
 20
111.5594039999999
 30
0.0
 11
357.180561
 21
112.059404
 31
0.0
  0
LINE
  5
9858
330
973F
100
AcDbEntity
  8
1
  6
Continuous
100
AcDbLine
 10
357.180561
 20
123.0594039999999
 30
0.0
 11
357.680561
 21
123.559404
 31
0.0
  0
LINE
  5
9859
330
973F
100
AcDbEntity
  8
1
  6
Continuous
100
AcDbLine
 10
343.680561
 20
123.0594039999999
 30
0.0
 11
344.180561
 21
122.559404
 31
0.0
  0
LINE
  5
985A
330
973F
100
AcDbEntity
  8
1
  6
Continuous
100
AcDbLine
 10
344.180561
 20
112.5594039999999
 30
0.0
 11
343.680561
 21
112.059404
 31
0.0
  0
LINE
  5
985B
330
973F
100
AcDbEntity
  8
1
  6
Continuous
100
AcDbLine
 10
355.680561
 20
114.5594039999999
 30
0.0
 11
345.6805609999999
 21
114.5594039999999
 31
0.0
  0
LINE
  5
985C
330
973F
100
AcDbEntity
  8
1
  6
Continuous
100
AcDbLine
 10
355.680561
 20
120.559404
 30
0.0
 11
345.6805609999999
 21
120.559404
 31
0.0
  0
LINE
  5
985D
330
973F
100
AcDbEntity
  8
1
  6
Continuous
100
AcDbLine
 10
343.680561
 20
123.0594039999999
 30
0.0
 11
343.680561
 21
112.059404
 31
0.0
  0
LINE
  5
985E
330
973F
100
AcDbEntity
  8
1
  6
Continuous
100
AcDbLine
 10
357.680561
 20
123.559404
 30
0.0
 11
357.680561
 21
111.5594039999999
 31
0.0
  0
LINE
  5
985F
330
973F
100
AcDbEntity
  8
1
  6
Continuous
100
AcDbLine
 10
362.680561
 20
111.5594039999999
 30
0.0
 11
362.680561
 21
123.559404
 31
0.0
  0
LINE
  5
9860
330
973F
100
AcDbEntity
  8
5
  6
PHANTOM
100
AcDbLine
 10
122.680561
 20
185.759404
 30
0.0
 11
122.680561
 21
182.559404
 31
0.0
  0
LINE
  5
9861
330
973F
100
AcDbEntity
  8
5
  6
PHANTOM
100
AcDbLine
 10
135.680561
 20
192.059404
 30
0.0
 11
135.680561
 21
185.759404
 31
0.0
  0
LINE
  5
9862
330
973F
100
AcDbEntity
  8
5
  6
PHANTOM
100
AcDbLine
 10
132.480561
 20
192.059404
 30
0.0
 11
132.480561
 21
185.759404
 31
0.0
  0
LINE
  5
9863
330
973F
100
AcDbEntity
  8
5
  6
PHANTOM
100
AcDbLine
 10
122.680561
 20
182.559404
 30
0.0
 11
131.180561
 21
182.559404
 31
0.0
  0
LINE
  5
9864
330
973F
100
AcDbEntity
  8
5
  6
PHANTOM
100
AcDbLine
 10
122.680561
 20
185.759404
 30
0.0
 11
132.480561
 21
185.759404
 31
0.0
  0
LINE
  5
9865
330
973F
100
AcDbEntity
  8
1
  6
Continuous
100
AcDbLine
 10
131.180561
 20
185.759404
 30
0.0
 11
140.980561
 21
185.759404
 31
0.0
  0
LINE
  5
9866
330
973F
100
AcDbEntity
  8
1
  6
Continuous
100
AcDbLine
 10
131.180561
 20
185.759404
 30
0.0
 11
131.180561
 21
182.559404
 31
0.0
  0
LINE
  5
9867
330
973F
100
AcDbEntity
  8
1
  6
Continuous
100
AcDbLine
 10
131.180561
 20
182.559404
 30
0.0
 11
140.980561
 21
182.559404
 31
0.0
  0
LINE
  5
9868
330
973F
100
AcDbEntity
  8
1
  6
Continuous
100
AcDbLine
 10
144.180561
 20
199.2594039999999
 30
0.0
 11
144.180561
 21
185.759404
 31
0.0
  0
LINE
  5
9869
330
973F
100
AcDbEntity
  8
1
  6
Continuous
100
AcDbLine
 10
140.980561
 20
199.2594039999999
 30
0.0
 11
140.980561
 21
185.759404
 31
0.0
  0
LINE
  5
986A
330
973F
100
AcDbEntity
  8
1
  6
Continuous
100
AcDbLine
 10
131.180561
 20
120.559404
 30
0.0
 11
131.180561
 21
114.5594039999999
 31
0.0
  0
LINE
  5
986B
330
973F
100
AcDbEntity
  8
1
  6
Continuous
100
AcDbLine
 10
140.980561
 20
121.559404
 30
0.0
 11
140.980561
 21
120.559404
 31
0.0
  0
LINE
  5
986C
330
973F
100
AcDbEntity
  8
1
  6
Continuous
100
AcDbLine
 10
144.180561
 20
121.559404
 30
0.0
 11
144.180561
 21
113.5594039999999
 31
0.0
  0
LINE
  5
986D
330
973F
100
AcDbEntity
  8
1
  6
Continuous
100
AcDbLine
 10
140.980561
 20
121.559404
 30
0.0
 11
144.180561
 21
121.559404
 31
0.0
  0
LINE
  5
986E
330
973F
100
AcDbEntity
  8
1
  6
Continuous
100
AcDbLine
 10
140.980561
 20
113.5594039999999
 30
0.0
 11
144.180561
 21
113.5594039999999
 31
0.0
  0
LINE
  5
986F
330
973F
100
AcDbEntity
  8
1
  6
Continuous
100
AcDbLine
 10
131.180561
 20
120.559404
 30
0.0
 11
145.180561
 21
120.559404
 31
0.0
  0
LINE
  5
9870
330
973F
100
AcDbEntity
  8
1
  6
Continuous
100
AcDbLine
 10
131.180561
 20
114.5594039999999
 30
0.0
 11
145.180561
 21
114.5594039999999
 31
0.0
  0
LINE
  5
9871
330
973F
100
AcDbEntity
  8
1
  6
Continuous
100
AcDbLine
 10
140.980561
 20
114.5594039999999
 30
0.0
 11
140.980561
 21
113.5594039999999
 31
0.0
  0
LINE
  5
9872
330
973F
100
AcDbEntity
  8
1
  6
Continuous
100
AcDbLine
 10
129.180561
 20
120.059404
 30
0.0
 11
129.7915609999998
 21
120.059404
 31
0.0
  0
LINE
  5
9873
330
973F
100
AcDbEntity
  8
1
  6
Continuous
100
AcDbLine
 10
144.180561
 20
194.5594039999998
 30
0.0
 11
145.180561
 21
194.5594039999998
 31
0.0
  0
LINE
  5
9874
330
973F
100
AcDbEntity
  8
1
  6
Continuous
100
AcDbLine
 10
130.358561
 20
120.456404
 30
0.0
 11
130.434561
 21
120.059404
 31
0.0
  0
LINE
  5
9875
330
973F
100
AcDbEntity
  8
1
  6
Continuous
100
AcDbLine
 10
129.180561
 20
114.2104039999999
 30
0.0
 11
130.358561
 21
120.362404
 31
0.0
  0
LINE
  5
9876
330
973F
100
AcDbEntity
  8
1
  6
Continuous
100
AcDbLine
 10
129.8675609999999
 20
120.456404
 30
0.0
 11
129.180561
 21
116.8704039999999
 31
0.0
  0
LINE
  5
9877
330
973F
100
AcDbEntity
  8
1
  6
Continuous
100
AcDbLine
 10
130.958561
 20
114.662404
 30
0.0
 11
130.882561
 21
115.059404
 31
0.0
  0
LINE
  5
9878
330
973F
100
AcDbEntity
  8
1
  6
Continuous
100
AcDbLine
 10
131.180561
 20
115.920404
 30
0.0
 11
130.957561
 21
114.756404
 31
0.0
  0
LINE
  5
9879
330
973F
100
AcDbEntity
  8
1
  6
Continuous
100
AcDbLine
 10
130.3005609999999
 20
120.059404
 30
0.0
 11
131.180561
 21
120.059404
 31
0.0
  0
LINE
  5
987A
330
973F
100
AcDbEntity
  8
1
  6
Continuous
100
AcDbLine
 10
147.4805609999999
 20
33.25940399999999
 30
0.0
 11
148.9805609999999
 21
33.25940399999999
 31
0.0
  0
LINE
  5
987B
330
973F
100
AcDbEntity
  8
1
  6
Continuous
100
AcDbLine
 10
148.9805609999999
 20
33.25940399999999
 30
0.0
 11
148.9805609999999
 21
41.85940399999998
 31
0.0
  0
LINE
  5
987C
330
973F
100
AcDbEntity
  8
1
  6
Continuous
100
AcDbLine
 10
147.4805609999999
 20
33.25940399999999
 30
0.0
 11
147.4805609999999
 21
41.85940399999998
 31
0.0
  0
LINE
  5
987D
330
973F
100
AcDbEntity
  8
1
  6
Continuous
100
AcDbLine
 10
147.4805609999999
 20
36.559404
 30
0.0
 11
148.9805609999999
 21
36.559404
 31
0.0
  0
LINE
  5
987E
330
973F
100
AcDbEntity
  8
1
  6
Continuous
100
AcDbLine
 10
147.4805609999999
 20
38.559404
 30
0.0
 11
148.9805609999999
 21
38.559404
 31
0.0
  0
LINE
  5
987F
330
973F
100
AcDbEntity
  8
1
  6
Continuous
100
AcDbLine
 10
147.4805609999999
 20
41.85940399999998
 30
0.0
 11
148.9805609999999
 21
41.85940399999998
 31
0.0
  0
LINE
  5
9880
330
973F
100
AcDbEntity
  8
1
  6
Continuous
100
AcDbLine
 10
147.4805609999999
 20
193.459404
 30
0.0
 11
148.9805609999999
 21
193.459404
 31
0.0
  0
LINE
  5
9881
330
973F
100
AcDbEntity
  8
1
  6
Continuous
100
AcDbLine
 10
147.4805609999999
 20
201.659404
 30
0.0
 11
148.9805609999999
 21
201.659404
 31
0.0
  0
LINE
  5
9882
330
973F
100
AcDbEntity
  8
1
  6
Continuous
100
AcDbLine
 10
131.180561
 20
52.559404
 30
0.0
 11
140.980561
 21
52.559404
 31
0.0
  0
LINE
  5
9883
330
973F
100
AcDbEntity
  8
1
  6
Continuous
100
AcDbLine
 10
131.180561
 20
49.35940399999999
 30
0.0
 11
140.980561
 21
49.35940399999999
 31
0.0
  0
LINE
  5
9884
330
973F
100
AcDbEntity
  8
1
  6
Continuous
100
AcDbLine
 10
131.180561
 20
49.35940399999999
 30
0.0
 11
131.180561
 21
52.559404
 31
0.0
  0
LINE
  5
9885
330
973F
100
AcDbEntity
  8
1
  6
Continuous
100
AcDbLine
 10
144.180561
 20
43.05940399999999
 30
0.0
 11
144.180561
 21
49.35940399999999
 31
0.0
  0
LINE
  5
9886
330
973F
100
AcDbEntity
  8
1
  6
Continuous
100
AcDbLine
 10
140.980561
 20
43.05940399999999
 30
0.0
 11
140.980561
 21
49.35940399999999
 31
0.0
  0
LINE
  5
9887
330
973F
100
AcDbEntity
  8
1
  6
Continuous
100
AcDbLine
 10
319.180561
 20
123.0594039999999
 30
0.0
 11
319.180561
 21
123.559404
 31
0.0
  0
LINE
  5
9888
330
973F
100
AcDbEntity
  8
1
  6
Continuous
100
AcDbLine
 10
335.1805609999999
 20
123.559404
 30
0.0
 11
319.180561
 21
123.559404
 31
0.0
  0
LINE
  5
9889
330
973F
100
AcDbEntity
  8
1
  6
Continuous
100
AcDbLine
 10
335.1805609999999
 20
124.559404
 30
0.0
 11
319.180561
 21
124.559404
 31
0.0
  0
CIRCLE
  5
988A
330
973F
100
AcDbEntity
  8
1
  6
Continuous
100
AcDbCircle
 10
24.180861
 20
127.559404
 30
0.0
 40
1.6
  0
CIRCLE
  5
988B
330
973F
100
AcDbEntity
  8
1
  6
Continuous
100
AcDbCircle
 10
24.180861
 20
107.559404
 30
0.0
 40
1.6
  0
CIRCLE
  5
988C
330
973F
100
AcDbEntity
  8
1
  6
Continuous
100
AcDbCircle
 10
232.1805609999999
 20
127.559404
 30
0.0
 40
1.6
  0
CIRCLE
  5
988D
330
973F
100
AcDbEntity
  8
1
  6
Continuous
100
AcDbCircle
 10
232.1805609999999
 20
107.559404
 30
0.0
 40
1.6
  0
CIRCLE
  5
988E
330
973F
100
AcDbEntity
  8
1
  6
Continuous
100
AcDbCircle
 10
232.1805609999999
 20
107.559404
 30
0.0
 40
1.75
  0
CIRCLE
  5
988F
330
973F
100
AcDbEntity
  8
1
  6
Continuous
100
AcDbCircle
 10
232.1805609999999
 20
117.559404
 30
0.0
 40
1.6
  0
ARC
  5
9890
330
973F
100
AcDbEntity
  8
1
  6
Continuous
100
AcDbCircle
 10
232.1805609999999
 20
117.559404
 30
0.0
 40
3.6
100
AcDbArc
 50
341.6819999999999
 51
36.1087
  0
ARC
  5
9891
330
973F
100
AcDbEntity
  8
1
  6
Continuous
100
AcDbCircle
 10
232.1805609999999
 20
117.559404
 30
0.0
 40
3.6
100
AcDbArc
 50
73.8724
 51
106.128
  0
ARC
  5
9892
330
973F
100
AcDbEntity
  8
1
  6
Continuous
100
AcDbCircle
 10
232.1805609999999
 20
117.559404
 30
0.0
 40
3.6
100
AcDbArc
 50
143.8909999999999
 51
198.3179999999999
  0
ARC
  5
9893
330
973F
100
AcDbEntity
  8
1
  6
Continuous
100
AcDbCircle
 10
235.130561
 20
122.4094039999999
 30
0.0
 40
1.149999999999999
100
AcDbArc
 50
334.202
 51
154.2019999999999
  0
ARC
  5
9894
330
973F
100
AcDbEntity
  8
1
  6
Continuous
100
AcDbCircle
 10
229.230561
 20
122.4094039999999
 30
0.0
 40
1.149999999999999
100
AcDbArc
 50
25.79779999999999
 51
205.798
  0
ARC
  5
9895
330
973F
100
AcDbEntity
  8
1
  6
Continuous
100
AcDbCircle
 10
235.330561
 20
112.209404
 30
0.0
 40
1.149999999999999
100
AcDbArc
 50
192.1579999999999
 51
12.1576
  0
ARC
  5
9896
330
973F
100
AcDbEntity
  8
1
  6
Continuous
100
AcDbCircle
 10
229.0305609999998
 20
112.209404
 30
0.0
 40
1.149999999999999
100
AcDbArc
 50
167.842
 51
347.8419999999999
  0
CIRCLE
  5
9897
330
973F
100
AcDbEntity
  8
1
  6
Continuous
100
AcDbCircle
 10
146.380561
 20
193.359404
 30
0.0
 40
0.2
  0
ARC
  5
9898
330
973F
100
AcDbEntity
  8
1
  6
Continuous
100
AcDbCircle
 10
147.2805609999998
 20
194.959404
 30
0.0
 40
0.2
100
AcDbArc
 50
180.0
 51
0.00001
  0
CIRCLE
  5
9899
330
973F
100
AcDbEntity
  8
1
  6
Continuous
100
AcDbCircle
 10
147.2805609999998
 20
200.159404
 30
0.0
 40
0.2
  0
ARC
  5
989A
330
973F
100
AcDbEntity
  8
1
  6
Continuous
100
AcDbCircle
 10
146.380561
 20
201.759404
 30
0.0
 40
0.2
100
AcDbArc
 50
0.0
 51
180.0
  0
ARC
  5
989B
330
973F
100
AcDbEntity
  8
1
  6
Continuous
100
AcDbCircle
 10
232.1805609999999
 20
117.559404
 30
0.0
 40
4.4
100
AcDbArc
 50
72.10179999999998
 51
107.899
  0
ARC
  5
989C
330
973F
100
AcDbEntity
  8
1
  6
Continuous
100
AcDbCircle
 10
232.1805609999999
 20
117.559404
 30
0.0
 40
4.4
100
AcDbArc
 50
326.9979999999998
 51
41.5404
  0
ARC
  5
989D
330
973F
100
AcDbEntity
  8
1
  6
Continuous
100
AcDbCircle
 10
232.1805609999999
 20
117.559404
 30
0.0
 40
4.4
100
AcDbArc
 50
138.46
 51
213.0009999999999
  0
ARC
  5
989E
330
973F
100
AcDbEntity
  8
1
  6
Continuous
100
AcDbCircle
 10
319.180561
 20
111.5594039999999
 30
0.0
 40
1.0
100
AcDbArc
 50
180.0
 51
270.0
  0
CIRCLE
  5
989F
330
973F
100
AcDbEntity
  8
1
  6
Continuous
100
AcDbCircle
 10
317.9805609999998
 20
113.3594039999999
 30
0.0
 40
0.2
  0
ARC
  5
98A0
330
973F
100
AcDbEntity
  8
1
  6
Continuous
100
AcDbCircle
 10
317.0805609999998
 20
114.9594039999999
 30
0.0
 40
0.2
100
AcDbArc
 50
180.0
 51
0.0
  0
CIRCLE
  5
98A1
330
973F
100
AcDbEntity
  8
1
  6
Continuous
100
AcDbCircle
 10
317.0805609999998
 20
120.159404
 30
0.0
 40
0.2
  0
ARC
  5
98A2
330
973F
100
AcDbEntity
  8
1
  6
Continuous
100
AcDbCircle
 10
317.9805609999998
 20
121.759404
 30
0.0
 40
0.2
100
AcDbArc
 50
0.0
 51
180.0
  0
ARC
  5
98A3
330
973F
100
AcDbEntity
  8
1
  6
Continuous
100
AcDbCircle
 10
127.180561
 20
43.559404
 30
0.0
 40
1.0
100
AcDbArc
 50
90.0
 51
180.0
  0
ARC
  5
98A4
330
973F
100
AcDbEntity
  8
1
  6
Continuous
100
AcDbCircle
 10
145.180561
 20
31.55940399999999
 30
0.0
 40
1.0
100
AcDbArc
 50
270.0
 51
0.0
  0
CIRCLE
  5
98A5
330
973F
100
AcDbEntity
  8
1
  6
Continuous
100
AcDbCircle
 10
147.2805609999998
 20
34.959404
 30
0.0
 40
0.2
  0
ARC
  5
98A6
330
973F
100
AcDbEntity
  8
1
  6
Continuous
100
AcDbCircle
 10
146.380561
 20
33.359404
 30
0.0
 40
0.2
100
AcDbArc
 50
180.0
 51
0.00001
  0
CIRCLE
  5
98A7
330
973F
100
AcDbEntity
  8
1
  6
Continuous
100
AcDbCircle
 10
146.380561
 20
41.75940399999999
 30
0.0
 40
0.2
  0
ARC
  5
98A8
330
973F
100
AcDbEntity
  8
1
  6
Continuous
100
AcDbCircle
 10
147.2805609999998
 20
40.15940399999997
 30
0.0
 40
0.2
100
AcDbArc
 50
0.0
 51
180.0
  0
ARC
  5
98A9
330
973F
100
AcDbEntity
  8
1
  6
Continuous
100
AcDbCircle
 10
127.180561
 20
31.55940399999999
 30
0.0
 40
1.0
100
AcDbArc
 50
180.0
 51
270.0
  0
CIRCLE
  5
98AA
330
973F
100
AcDbEntity
  8
1
  6
Continuous
100
AcDbCircle
 10
24.180861
 20
117.559404
 30
0.0
 40
6.0
  0
CIRCLE
  5
98AB
330
973F
100
AcDbEntity
  8
1
  6
Continuous
100
AcDbCircle
 10
24.180861
 20
117.559404
 30
0.0
 40
5.5
  0
ARC
  5
98AC
330
973F
100
AcDbEntity
  8
1
  6
Continuous
100
AcDbCircle
 10
118.680561
 20
42.059404
 30
0.0
 40
1.5
100
AcDbArc
 50
270.0
 51
0.0
  0
ARC
  5
98AD
330
973F
100
AcDbEntity
  8
1
  6
Continuous
100
AcDbCircle
 10
108.680561
 20
42.059404
 30
0.0
 40
1.5
100
AcDbArc
 50
180.0
 51
270.0
  0
ARC
  5
98AE
330
973F
100
AcDbEntity
  8
1
  6
Continuous
100
AcDbCircle
 10
108.680561
 20
33.059404
 30
0.0
 40
1.5
100
AcDbArc
 50
90.0
 51
180.0
  0
ARC
  5
98AF
330
973F
100
AcDbEntity
  8
1
  6
Continuous
100
AcDbCircle
 10
118.680561
 20
33.059404
 30
0.0
 40
1.5
100
AcDbArc
 50
0.0
 51
90.0
  0
ARC
  5
98B0
330
973F
100
AcDbEntity
  8
1
  6
Continuous
100
AcDbCircle
 10
118.680561
 20
202.059404
 30
0.0
 40
1.5
100
AcDbArc
 50
270.0
 51
0.0
  0
ARC
  5
98B1
330
973F
100
AcDbEntity
  8
1
  6
Continuous
100
AcDbCircle
 10
108.680561
 20
202.059404
 30
0.0
 40
1.5
100
AcDbArc
 50
180.0
 51
270.0
  0
ARC
  5
98B2
330
973F
100
AcDbEntity
  8
1
  6
Continuous
100
AcDbCircle
 10
108.680561
 20
193.059404
 30
0.0
 40
1.5
100
AcDbArc
 50
90.0
 51
180.0
  0
ARC
  5
98B3
330
973F
100
AcDbEntity
  8
1
  6
Continuous
100
AcDbCircle
 10
118.680561
 20
193.059404
 30
0.0
 40
1.5
100
AcDbArc
 50
0.0
 51
90.0
  0
ARC
  5
98B4
330
973F
100
AcDbEntity
  8
1
  6
Continuous
100
AcDbCircle
 10
145.180561
 20
111.5594039999999
 30
0.0
 40
1.0
100
AcDbArc
 50
270.0
 51
0.0
  0
CIRCLE
  5
98B5
330
973F
100
AcDbEntity
  8
1
  6
Continuous
100
AcDbCircle
 10
146.380561
 20
113.3594039999999
 30
0.0
 40
0.2
  0
ARC
  5
98B6
330
973F
100
AcDbEntity
  8
1
  6
Continuous
100
AcDbCircle
 10
147.2805609999998
 20
114.9594039999999
 30
0.0
 40
0.2
100
AcDbArc
 50
180.0
 51
0.00001
  0
CIRCLE
  5
98B7
330
973F
100
AcDbEntity
  8
1
  6
Continuous
100
AcDbCircle
 10
147.2805609999998
 20
120.159404
 30
0.0
 40
0.2
  0
ARC
  5
98B8
330
973F
100
AcDbEntity
  8
1
  6
Continuous
100
AcDbCircle
 10
146.380561
 20
121.759404
 30
0.0
 40
0.2
100
AcDbArc
 50
0.0
 51
180.0
  0
ARC
  5
98B9
330
973F
100
AcDbEntity
  8
1
  6
Continuous
100
AcDbCircle
 10
145.180561
 20
123.559404
 30
0.0
 40
1.0
100
AcDbArc
 50
0.0
 51
90.0
  0
ARC
  5
98BA
330
973F
100
AcDbEntity
  8
1
  6
Continuous
100
AcDbCircle
 10
118.680561
 20
122.0594039999999
 30
0.0
 40
1.5
100
AcDbArc
 50
270.0
 51
0.0
  0
ARC
  5
98BB
330
973F
100
AcDbEntity
  8
1
  6
Continuous
100
AcDbCircle
 10
108.680561
 20
122.0594039999999
 30
0.0
 40
1.5
100
AcDbArc
 50
180.0
 51
270.0
  0
ARC
  5
98BC
330
973F
100
AcDbEntity
  8
1
  6
Continuous
100
AcDbCircle
 10
108.680561
 20
113.059404
 30
0.0
 40
1.5
100
AcDbArc
 50
90.0
 51
180.0
  0
ARC
  5
98BD
330
973F
100
AcDbEntity
  8
1
  6
Continuous
100
AcDbCircle
 10
118.680561
 20
113.059404
 30
0.0
 40
1.5
100
AcDbArc
 50
0.0
 51
90.0
  0
ARC
  5
98BE
330
973F
100
AcDbEntity
  8
1
  6
Continuous
100
AcDbCircle
 10
127.180561
 20
203.5594039999998
 30
0.0
 40
1.0
100
AcDbArc
 50
90.0
 51
180.0
  0
ARC
  5
98BF
330
973F
100
AcDbEntity
  8
1
  6
Continuous
100
AcDbCircle
 10
127.180561
 20
191.559404
 30
0.0
 40
1.0
100
AcDbArc
 50
180.0
 51
270.0
  0
ARC
  5
98C0
330
973F
100
AcDbEntity
  8
1
  6
Continuous
100
AcDbCircle
 10
145.180561
 20
203.5594039999998
 30
0.0
 40
1.0
100
AcDbArc
 50
0.0
 51
90.0
  0
ARC
  5
98C1
330
973F
100
AcDbEntity
  8
1
  6
Continuous
100
AcDbCircle
 10
345.6805609999999
 20
122.0594039999999
 30
0.0
 40
1.5
100
AcDbArc
 50
180.0
 51
270.0
  0
ARC
  5
98C2
330
973F
100
AcDbEntity
  8
1
  6
Continuous
100
AcDbCircle
 10
355.680561
 20
122.0594039999999
 30
0.0
 40
1.5
100
AcDbArc
 50
270.0
 51
0.0
  0
ARC
  5
98C3
330
973F
100
AcDbEntity
  8
1
  6
Continuous
100
AcDbCircle
 10
355.680561
 20
113.059404
 30
0.0
 40
1.5
100
AcDbArc
 50
0.0
 51
90.0
  0
ARC
  5
98C4
330
973F
100
AcDbEntity
  8
1
  6
Continuous
100
AcDbCircle
 10
345.6805609999999
 20
113.059404
 30
0.0
 40
1.5
100
AcDbArc
 50
90.0
 51
180.0
  0
ARC
  5
98C5
330
973F
100
AcDbEntity
  8
5
  6
PHANTOM
100
AcDbCircle
 10
132.480561
 20
185.759404
 30
0.0
 40
3.2
100
AcDbArc
 50
270.0
 51
0.0
  0
ARC
  5
98C6
330
973F
100
AcDbEntity
  8
1
  6
Continuous
100
AcDbCircle
 10
140.980561
 20
185.759404
 30
0.0
 40
3.2
100
AcDbArc
 50
270.0
 51
0.0
  0
ARC
  5
98C7
330
973F
100
AcDbEntity
  8
1
  6
Continuous
100
AcDbCircle
 10
130.1125609999999
 20
120.4094039999999
 30
0.0
 40
0.25
100
AcDbArc
 50
0.0
 51
169.1649999999999
  0
ARC
  5
98C8
330
973F
100
AcDbEntity
  8
1
  6
Continuous
100
AcDbCircle
 10
131.203561
 20
114.709404
 30
0.0
 40
0.25
100
AcDbArc
 50
190.8349999999998
 51
323.13
  0
ARC
  5
98C9
330
973F
100
AcDbEntity
  8
1
  6
Continuous
100
AcDbCircle
 10
140.980561
 20
49.35940399999999
 30
0.0
 40
3.2
100
AcDbArc
 50
0.0
 51
90.0
  0
ARC
  5
98CA
330
973F
100
AcDbEntity
  8
1
  6
Continuous
100
AcDbCircle
 10
319.180561
 20
123.559404
 30
0.0
 40
1.0
100
AcDbArc
 50
90.0
 51
180.0
  0
LINE
  5
98CB
330
973F
100
AcDbEntity
  8
1
  6
Continuous
100
AcDbLine
 10
140.680561
 20
199.2594039999999
 30
0.0
 11
140.680561
 21
192.059404
 31
0.0
  0
LINE
  5
98CC
330
973F
100
AcDbEntity
  8
1
  6
Continuous
100
AcDbLine
 10
144.180561
 20
192.059404
 30
0.0
 11
146.180561
 21
192.059404
 31
0.0
  0
LINE
  5
98CD
330
973F
100
AcDbEntity
  8
5
  6
PHANTOM
100
AcDbLine
 10
36.21456099999999
 20
115.707362
 30
0.0
 11
30.008426
 21
118.987512
 31
0.0
  0
LINE
  5
98CE
330
973F
100
AcDbEntity
  8
5
  6
PHANTOM
100
AcDbLine
 10
33.86882999999999
 20
110.184904
 30
0.0
 11
27.199209
 21
112.3738879999998
 31
0.0
  0
LINE
  5
98CF
330
973F
100
AcDbEntity
  8
4
  6
CENTER
100
AcDbLine
 10
13.498403
 20
122.096908
 30
0.0
 11
41.751946
 21
110.0958719999999
 31
0.0
  0
LINE
  5
98D0
330
973F
100
AcDbEntity
  8
5
  6
PHANTOM
100
AcDbLine
 10
36.21456099999999
 20
115.707362
 30
0.0
 11
39.159872
 21
114.456305
 31
0.0
  0
LINE
  5
98D1
330
973F
100
AcDbEntity
  8
5
  6
PHANTOM
100
AcDbLine
 10
33.86882999999999
 20
110.184904
 30
0.0
 11
36.814141
 21
108.9338469999999
 31
0.0
  0
LINE
  5
98D2
330
973F
100
AcDbEntity
  8
5
  6
PHANTOM
100
AcDbLine
 10
39.159872
 20
114.456305
 30
0.0
 11
36.814141
 21
108.9338469999999
 31
0.0
  0
LINE
  5
98D3
330
973F
100
AcDbEntity
  8
4
  6
CENTER
100
AcDbLine
 10
20.06589799999998
 20
107.269718
 30
0.0
 11
31.26954299999999
 21
135.285033
 31
0.0
  0
LINE
  5
98D4
330
973F
100
AcDbEntity
  8
5
  6
PHANTOM
100
AcDbLine
 10
25.77692
 20
129.6297229999999
 30
0.0
 11
26.965143
 21
132.6009389999998
 31
0.0
  0
LINE
  5
98D5
330
973F
100
AcDbEntity
  8
5
  6
PHANTOM
100
AcDbLine
 10
31.34795
 20
127.401804
 30
0.0
 11
32.536173
 21
130.3730199999999
 31
0.0
  0
LINE
  5
98D6
330
973F
100
AcDbEntity
  8
5
  6
PHANTOM
100
AcDbLine
 10
26.965143
 20
132.6009389999998
 30
0.0
 11
32.536173
 21
130.3730199999999
 31
0.0
  0
LINE
  5
98D7
330
973F
100
AcDbEntity
  8
5
  6
PHANTOM
100
AcDbLine
 10
25.77692
 20
129.6297229999999
 30
0.0
 11
22.629312
 21
123.3553249999998
 31
0.0
  0
LINE
  5
98D8
330
973F
100
AcDbEntity
  8
5
  6
PHANTOM
100
AcDbLine
 10
31.34795
 20
127.401804
 30
0.0
 11
29.301106
 21
120.687198
 31
0.0
  0
LINE
  5
98D9
330
973F
100
AcDbEntity
  8
1
  6
Continuous
100
AcDbLine
 10
101.680561
 20
123.559404
 30
0.0
 11
104.680561
 21
120.559404
 31
0.0
  0
LINE
  5
98DA
330
973F
100
AcDbEntity
  8
1
  6
Continuous
100
AcDbLine
 10
101.680561
 20
122.145191
 30
0.0
 11
104.2663479999998
 21
119.559404
 31
0.0
  0
LINE
  5
98DB
330
973F
100
AcDbEntity
  8
1
  6
Continuous
100
AcDbLine
 10
101.680561
 20
120.7309769999999
 30
0.0
 11
102.8521339999998
 21
119.559404
 31
0.0
  0
LINE
  5
98DC
330
973F
100
AcDbEntity
  8
1
  6
Continuous
100
AcDbLine
 10
103.0947749999999
 20
123.559404
 30
0.0
 11
104.680561
 21
121.9736179999999
 31
0.0
  0
LINE
  5
98DD
330
973F
100
AcDbEntity
  8
1
  6
Continuous
100
AcDbLine
 10
101.680561
 20
119.559404
 30
0.0
 11
104.680561
 21
122.559404
 31
0.0
  0
LINE
  5
98DE
330
973F
100
AcDbEntity
  8
1
  6
Continuous
100
AcDbLine
 10
101.680561
 20
120.9736179999999
 30
0.0
 11
104.2663479999998
 21
123.559404
 31
0.0
  0
LINE
  5
98DF
330
973F
100
AcDbEntity
  8
1
  6
Continuous
100
AcDbLine
 10
101.680561
 20
122.387831
 30
0.0
 11
102.8521339999998
 21
123.559404
 31
0.0
  0
LINE
  5
98E0
330
973F
100
AcDbEntity
  8
1
  6
Continuous
100
AcDbLine
 10
103.0947749999999
 20
119.559404
 30
0.0
 11
104.680561
 21
121.145191
 31
0.0
  0
LINE
  5
98E1
330
973F
100
AcDbEntity
  8
1
  6
Continuous
100
AcDbLine
 10
101.680561
 20
202.1451909999999
 30
0.0
 11
104.2663479999998
 21
199.559404
 31
0.0
  0
LINE
  5
98E2
330
973F
100
AcDbEntity
  8
1
  6
Continuous
100
AcDbLine
 10
101.680561
 20
200.7309769999999
 30
0.0
 11
102.8521339999998
 21
199.559404
 31
0.0
  0
LINE
  5
98E3
330
973F
100
AcDbEntity
  8
1
  6
Continuous
100
AcDbLine
 10
103.0947749999999
 20
199.559404
 30
0.0
 11
104.680561
 21
201.1451909999999
 31
0.0
  0
LINE
  5
98E4
330
973F
100
AcDbEntity
  8
1
  6
Continuous
100
AcDbLine
 10
101.680561
 20
200.9736179999999
 30
0.0
 11
104.2663479999998
 21
203.5594039999998
 31
0.0
  0
LINE
  5
98E5
330
973F
100
AcDbEntity
  8
1
  6
Continuous
100
AcDbLine
 10
101.680561
 20
202.387831
 30
0.0
 11
102.8521339999998
 21
203.5594039999998
 31
0.0
  0
LINE
  5
98E6
330
973F
100
AcDbEntity
  8
1
  6
Continuous
100
AcDbLine
 10
103.0947749999999
 20
203.5594039999998
 30
0.0
 11
104.680561
 21
201.9736179999999
 31
0.0
  0
LINE
  5
98E7
330
973F
100
AcDbEntity
  8
1
  6
Continuous
100
AcDbLine
 10
101.680561
 20
199.559404
 30
0.0
 11
104.680561
 21
202.559404
 31
0.0
  0
LINE
  5
98E8
330
973F
100
AcDbEntity
  8
1
  6
Continuous
100
AcDbLine
 10
101.680561
 20
203.5594039999998
 30
0.0
 11
104.680561
 21
200.559404
 31
0.0
  0
LINE
  5
98E9
330
973F
100
AcDbEntity
  8
1
  6
Continuous
100
AcDbLine
 10
101.680561
 20
42.14519099999999
 30
0.0
 11
104.2663479999998
 21
39.559404
 31
0.0
  0
LINE
  5
98EA
330
973F
100
AcDbEntity
  8
1
  6
Continuous
100
AcDbLine
 10
101.680561
 20
40.730977
 30
0.0
 11
102.8521339999998
 21
39.559404
 31
0.0
  0
LINE
  5
98EB
330
973F
100
AcDbEntity
  8
1
  6
Continuous
100
AcDbLine
 10
103.0947749999999
 20
39.559404
 30
0.0
 11
104.680561
 21
41.14519099999998
 31
0.0
  0
LINE
  5
98EC
330
973F
100
AcDbEntity
  8
1
  6
Continuous
100
AcDbLine
 10
101.680561
 20
40.973618
 30
0.0
 11
104.2663479999998
 21
43.559404
 31
0.0
  0
LINE
  5
98ED
330
973F
100
AcDbEntity
  8
1
  6
Continuous
100
AcDbLine
 10
101.680561
 20
42.387831
 30
0.0
 11
102.8521339999998
 21
43.559404
 31
0.0
  0
LINE
  5
98EE
330
973F
100
AcDbEntity
  8
1
  6
Continuous
100
AcDbLine
 10
103.0947749999999
 20
43.559404
 30
0.0
 11
104.680561
 21
41.973618
 31
0.0
  0
LINE
  5
98EF
330
973F
100
AcDbEntity
  8
1
  6
Continuous
100
AcDbLine
 10
101.680561
 20
39.559404
 30
0.0
 11
104.680561
 21
42.559404
 31
0.0
  0
LINE
  5
98F0
330
973F
100
AcDbEntity
  8
1
  6
Continuous
100
AcDbLine
 10
101.680561
 20
43.559404
 30
0.0
 11
104.680561
 21
40.55940399999999
 31
0.0
  0
LINE
  5
98F1
330
973F
100
AcDbEntity
  8
1
  6
Continuous
100
AcDbLine
 10
362.680561
 20
122.145191
 30
0.0
 11
360.094775
 21
119.559404
 31
0.0
  0
LINE
  5
98F2
330
973F
100
AcDbEntity
  8
1
  6
Continuous
100
AcDbLine
 10
362.680561
 20
120.7309769999999
 30
0.0
 11
361.5089879999999
 21
119.559404
 31
0.0
  0
LINE
  5
98F3
330
973F
100
AcDbEntity
  8
1
  6
Continuous
100
AcDbLine
 10
361.266348
 20
119.559404
 30
0.0
 11
359.680561
 21
121.145191
 31
0.0
  0
LINE
  5
98F4
330
973F
100
AcDbEntity
  8
1
  6
Continuous
100
AcDbLine
 10
362.680561
 20
120.9736179999999
 30
0.0
 11
360.094775
 21
123.559404
 31
0.0
  0
LINE
  5
98F5
330
973F
100
AcDbEntity
  8
1
  6
Continuous
100
AcDbLine
 10
362.680561
 20
122.387831
 30
0.0
 11
361.5089879999999
 21
123.559404
 31
0.0
  0
LINE
  5
98F6
330
973F
100
AcDbEntity
  8
1
  6
Continuous
100
AcDbLine
 10
361.266348
 20
123.559404
 30
0.0
 11
359.680561
 21
121.9736179999999
 31
0.0
  0
LINE
  5
98F7
330
973F
100
AcDbEntity
  8
1
  6
Continuous
100
AcDbLine
 10
362.680561
 20
119.559404
 30
0.0
 11
359.680561
 21
122.559404
 31
0.0
  0
LINE
  5
98F8
330
973F
100
AcDbEntity
  8
1
  6
Continuous
100
AcDbLine
 10
362.680561
 20
123.559404
 30
0.0
 11
359.680561
 21
120.559404
 31
0.0
  0
LINE
  5
98F9
330
973F
100
AcDbEntity
  8
1
  6
Continuous
100
AcDbLine
 10
324.2925649999999
 20
120.3782499999998
 30
0.0
 11
324.2925649999999
 21
118.461941
 31
0.0
  0
LINE
  5
98FA
330
973F
100
AcDbEntity
  8
1
  6
Continuous
100
AcDbLine
 10
324.7364549999999
 20
118.33924
 30
0.0
 11
324.7364549999999
 21
119.9785679999999
 31
0.0
  0
LINE
  5
98FB
330
973F
100
AcDbEntity
  8
1
  6
Continuous
100
AcDbLine
 10
325.1812479999999
 20
120.2555489999999
 30
0.0
 11
325.1812479999999
 21
118.0631619999999
 31
0.0
  0
LINE
  5
98FC
330
973F
100
AcDbEntity
  8
1
  6
Continuous
100
AcDbLine
 10
326.069932
 20
119.6925649999998
 30
0.0
 11
326.069932
 21
120.540649
 31
0.0
  0
LINE
  5
98FD
330
973F
100
AcDbEntity
  8
1
  6
Continuous
100
AcDbLine
 10
326.958616
 20
119.159355
 30
0.0
 11
326.514725
 21
119.159355
 31
0.0
  0
ARC
  5
98FE
330
973F
100
AcDbEntity
  8
1
  6
Continuous
100
AcDbCircle
 10
324.5145099999998
 20
119.159355
 30
0.0
 40
1.145318999999998
100
AcDbArc
 50
125.5376999999999
 51
166.5373999999999
  0
ARC
  5
98FF
330
973F
100
AcDbEntity
  8
1
  6
Continuous
100
AcDbCircle
 10
324.5145099999998
 20
119.159355
 30
0.0
 40
1.145318999999998
100
AcDbArc
 50
180.0
 51
234.4619999999999
  0
ARC
  5
9900
330
973F
100
AcDbEntity
  8
1
  6
Continuous
100
AcDbCircle
 10
324.9593029999999
 20
119.9785679999999
 30
0.0
 40
0.222261
100
AcDbArc
 50
116.0144
 51
180.0
  0
ARC
  5
9901
330
973F
100
AcDbEntity
  8
1
  6
Continuous
100
AcDbCircle
 10
327.180561
 20
115.4259809999999
 30
0.0
 40
5.288524999999999
100
AcDbArc
 50
112.9439999999999
 51
116.0144
  0
ARC
  5
9902
330
973F
100
AcDbEntity
  8
1
  6
Continuous
100
AcDbCircle
 10
325.13704
 20
120.2555489999999
 30
0.0
 40
0.044452
100
AcDbArc
 50
0.0
 51
112.9439999999999
  0
ARC
  5
9903
330
973F
100
AcDbEntity
  8
1
  6
Continuous
100
AcDbCircle
 10
324.9593029999999
 20
118.33924
 30
0.0
 40
0.222261
100
AcDbArc
 50
180.0
 51
243.9859999999999
  0
ARC
  5
9904
330
973F
100
AcDbEntity
  8
1
  6
Continuous
100
AcDbCircle
 10
326.0257229999999
 20
120.540649
 30
0.0
 40
0.044452
100
AcDbArc
 50
0.0
 51
102.7288999999999
  0
ARC
  5
9905
330
973F
100
AcDbEntity
  8
1
  6
Continuous
100
AcDbCircle
 10
327.180561
 20
115.4259809999999
 30
0.0
 40
5.288524999999999
100
AcDbArc
 50
102.7288999999999
 51
103.2680999999999
  0
ARC
  5
9906
330
973F
100
AcDbEntity
  8
1
  6
Continuous
100
AcDbCircle
 10
327.180561
 20
115.4259809999999
 30
0.0
 40
5.288524999999999
100
AcDbArc
 50
103.2680999999999
 51
105.2575
  0
ARC
  5
9907
330
973F
100
AcDbEntity
  8
1
  6
Continuous
100
AcDbCircle
 10
325.8479869999998
 20
120.3132909999998
 30
0.0
 40
0.222261
100
AcDbArc
 50
105.2575
 51
180.0
  0
ARC
  5
9908
330
973F
100
AcDbEntity
  8
1
  6
Continuous
100
AcDbCircle
 10
325.8479869999998
 20
118.0045169999998
 30
0.0
 40
0.222261
100
AcDbArc
 50
180.0
 51
254.742
  0
ARC
  5
9909
330
973F
100
AcDbEntity
  8
1
  6
Continuous
100
AcDbCircle
 10
327.180561
 20
122.891827
 30
0.0
 40
5.288524999999999
100
AcDbArc
 50
254.742
 51
254.794
  0
ARC
  5
990A
330
973F
100
AcDbEntity
  8
1
  6
Continuous
100
AcDbCircle
 10
327.180561
 20
122.891827
 30
0.0
 40
5.288524999999999
100
AcDbArc
 50
254.794
 51
257.2709999999998
  0
ARC
  5
990B
330
973F
100
AcDbEntity
  8
1
  6
Continuous
100
AcDbCircle
 10
326.0257229999999
 20
117.777159
 30
0.0
 40
0.044452
100
AcDbArc
 50
257.2709999999998
 51
0.0
  0
LINE
  5
990C
330
973F
100
AcDbEntity
  8
1
  6
Continuous
100
AcDbLine
 10
325.625139
 20
120.3132909999998
 30
0.0
 11
325.625139
 21
118.0045169999998
 31
0.0
  0
LINE
  5
990D
330
973F
100
AcDbEntity
  8
1
  6
Continuous
100
AcDbLine
 10
326.069932
 20
117.777159
 30
0.0
 11
326.069932
 21
118.6261449999998
 31
0.0
  0
LINE
  5
990E
330
973F
100
AcDbEntity
  8
1
  6
Continuous
100
AcDbLine
 10
326.514725
 20
120.6723729999998
 30
0.0
 11
326.514725
 21
117.6454349999999
 31
0.0
  0
LINE
  5
990F
330
973F
100
AcDbEntity
  8
1
  6
Continuous
100
AcDbLine
 10
326.958616
 20
120.7093639999998
 30
0.0
 11
326.958616
 21
117.6084439999999
 31
0.0
  0
ARC
  5
9910
330
973F
100
AcDbEntity
  8
1
  6
Continuous
100
AcDbCircle
 10
325.13704
 20
118.0631619999999
 30
0.0
 40
0.044452
100
AcDbArc
 50
247.0559999999999
 51
0.0
  0
ARC
  5
9911
330
973F
100
AcDbEntity
  8
1
  6
Continuous
100
AcDbCircle
 10
327.180561
 20
122.891827
 30
0.0
 40
5.288524999999999
100
AcDbArc
 50
243.9859999999999
 51
247.0559999999999
  0
LINE
  5
9912
330
973F
100
AcDbEntity
  8
1
  6
Continuous
100
AcDbLine
 10
328.2920919999999
 20
119.159355
 30
0.0
 11
328.070147
 21
119.159355
 31
0.0
  0
ARC
  5
9913
330
973F
100
AcDbEntity
  8
1
  6
Continuous
100
AcDbCircle
 10
328.070147
 20
120.413437
 30
0.0
 40
0.222261
100
AcDbArc
 50
0.0
 51
79.896
  0
ARC
  5
9914
330
973F
100
AcDbEntity
  8
1
  6
Continuous
100
AcDbCircle
 10
328.070147
 20
117.9043709999999
 30
0.0
 40
0.222261
100
AcDbArc
 50
280.104
 51
0.0
  0
ARC
  5
9915
330
973F
100
AcDbEntity
  8
1
  6
Continuous
100
AcDbCircle
 10
327.180561
 20
115.4259809999999
 30
0.0
 40
5.288524999999999
100
AcDbArc
 50
79.896
 51
82.20699999999999
  0
ARC
  5
9916
330
973F
100
AcDbEntity
  8
1
  6
Continuous
100
AcDbCircle
 10
327.8924099999999
 20
120.6218489999999
 30
0.0
 40
0.044452
100
AcDbArc
 50
82.20699999999999
 51
180.0
  0
ARC
  5
9917
330
973F
100
AcDbEntity
  8
1
  6
Continuous
100
AcDbCircle
 10
327.8924099999999
 20
117.695959
 30
0.0
 40
0.044452
100
AcDbArc
 50
180.0
 51
277.793
  0
ARC
  5
9918
330
973F
100
AcDbEntity
  8
1
  6
Continuous
100
AcDbCircle
 10
327.180561
 20
122.891827
 30
0.0
 40
5.288524999999999
100
AcDbArc
 50
277.793
 51
280.104
  0
LINE
  5
9919
330
973F
100
AcDbEntity
  8
1
  6
Continuous
100
AcDbLine
 10
327.403409
 20
120.7093639999998
 30
0.0
 11
327.403409
 21
117.6084439999999
 31
0.0
  0
LINE
  5
991A
330
973F
100
AcDbEntity
  8
1
  6
Continuous
100
AcDbLine
 10
327.847299
 20
120.6218489999999
 30
0.0
 11
327.847299
 21
117.695959
 31
0.0
  0
LINE
  5
991B
330
973F
100
AcDbEntity
  8
1
  6
Continuous
100
AcDbLine
 10
328.2920919999999
 20
119.6925649999998
 30
0.0
 11
328.2920919999999
 21
120.413437
 31
0.0
  0
LINE
  5
991C
330
973F
100
AcDbEntity
  8
1
  6
Continuous
100
AcDbLine
 10
329.1807759999999
 20
120.4107299999999
 30
0.0
 11
329.1807759999999
 21
119.3813009999999
 31
0.0
  0
LINE
  5
991D
330
973F
100
AcDbEntity
  8
1
  6
Continuous
100
AcDbLine
 10
329.6255689999999
 20
119.3813009999999
 30
0.0
 11
329.6255689999999
 21
120.330433
 31
0.0
  0
LINE
  5
991E
330
973F
100
AcDbEntity
  8
1
  6
Continuous
100
AcDbLine
 10
329.4027219999999
 20
119.159355
 30
0.0
 11
329.4027219999999
 21
118.092935
 31
0.0
  0
LINE
  5
991F
330
973F
100
AcDbEntity
  8
1
  6
Continuous
100
AcDbLine
 10
329.8511229999999
 20
118.327511
 30
0.0
 11
330.3536579999998
 21
120.2005139999998
 31
0.0
  0
LINE
  5
9920
330
973F
100
AcDbEntity
  8
1
  6
Continuous
100
AcDbLine
 10
330.9924279999999
 20
119.159355
 30
0.0
 11
330.0739709999998
 21
119.159355
 31
0.0
  0
ARC
  5
9921
330
973F
100
AcDbEntity
  8
1
  6
Continuous
100
AcDbCircle
 10
329.4027219999999
 20
119.3813009999999
 30
0.0
 40
0.222261
100
AcDbArc
 50
180.0
 51
0.0
  0
ARC
  5
9922
330
973F
100
AcDbEntity
  8
1
  6
Continuous
100
AcDbCircle
 10
329.8475149999998
 20
119.159355
 30
0.0
 40
1.145318999999998
100
AcDbArc
 50
332.25
 51
54.46200000000001
  0
ARC
  5
9923
330
973F
100
AcDbEntity
  8
1
  6
Continuous
100
AcDbCircle
 10
329.8475149999998
 20
119.159355
 30
0.0
 40
1.145318999999998
100
AcDbArc
 50
305.5379999999999
 51
315.699
  0
LINE
  5
9924
330
973F
100
AcDbEntity
  8
1
  6
Continuous
100
AcDbLine
 10
328.2920919999999
 20
117.9043709999999
 30
0.0
 11
328.2920919999999
 21
119.159355
 31
0.0
  0
LINE
  5
9925
330
973F
100
AcDbEntity
  8
1
  6
Continuous
100
AcDbLine
 10
328.7359829999999
 20
120.6200449999999
 30
0.0
 11
328.7359829999999
 21
117.837607
 31
0.0
  0
ARC
  5
9926
330
973F
100
AcDbEntity
  8
1
  6
Continuous
100
AcDbCircle
 10
327.180561
 20
122.891827
 30
0.0
 40
5.732929999999998
100
AcDbArc
 50
234.4619999999999
 51
305.5379999999999
  0
ARC
  5
9927
330
973F
100
AcDbEntity
  8
1
  6
Continuous
100
AcDbCircle
 10
327.180561
 20
115.4259809999999
 30
0.0
 40
5.732929999999998
100
AcDbArc
 50
54.46200000000001
 51
125.5376999999999
  0
ENDSEC
  0
SECTION
  2
OBJECTS
  0
DICTIONARY
  5
972D
330
0
100
AcDbDictionary
281
     1
  3
ACAD_CIP_PREVIOUS_PRODUCT_INFO
350
998B
  3
ACAD_COLOR
350
996D
  3
ACAD_DETAILVIEWSTYLE
350
9986
  3
ACAD_GROUP
350
972E
  3
ACAD_LAYOUT
350
973A
  3
ACAD_MATERIAL
350
993B
  3
ACAD_MLEADERSTYLE
350
9982
  3
ACAD_MLINESTYLE
350
9737
  3
ACAD_PLOTSETTINGS
350
9739
  3
ACAD_PLOTSTYLENAME
350
9939
  3
ACAD_SCALELIST
350
9970
  3
ACAD_SECTIONVIEWSTYLE
350
9984
  3
ACAD_TABLESTYLE
350
996E
  3
ACAD_VISUALSTYLE
350
9954
  3
ACDB_RECOMPOSE_DATA
350
99A9
  3
AcDbVariableDictionary
350
999C
  3
DWGPROPS
350
99AA
  0
DICTIONARY
  5
998C
330
9731
100
AcDbDictionary
280
     1
281
     1
  3
ADSK_XREC_LAYER_RECONCILED
360
998D
  0
DICTIONARY
  5
998E
330
9747
100
AcDbDictionary
280
     1
281
     1
  3
ADSK_XREC_LAYER_RECONCILED
360
998F
  0
DICTIONARY
  5
9990
330
9748
100
AcDbDictionary
280
     1
281
     1
  3
ADSK_XREC_LAYER_RECONCILED
360
9991
  0
DICTIONARY
  5
9992
330
9749
100
AcDbDictionary
280
     1
281
     1
  3
ADSK_XREC_LAYER_RECONCILED
360
9993
  0
DICTIONARY
  5
9994
330
974A
100
AcDbDictionary
280
     1
281
     1
  3
ADSK_XREC_LAYER_RECONCILED
360
9995
  0
DICTIONARY
  5
9996
330
974B
100
AcDbDictionary
280
     1
281
     1
  3
ADSK_XREC_LAYER_RECONCILED
360
9997
  0
DICTIONARY
  5
9998
330
974C
100
AcDbDictionary
280
     1
281
     1
  3
ADSK_XREC_LAYER_RECONCILED
360
9999
  0
DICTIONARY
  5
999A
330
974D
100
AcDbDictionary
280
     1
281
     1
  3
ADSK_XREC_LAYER_RECONCILED
360
999B
  0
DICTIONARY
  5
9934
330
973F
100
AcDbDictionary
281
     1
  3
ACAD_LAYOUTSELFREF
350
9935
  0
DICTIONARY
  5
9932
330
973B
100
AcDbDictionary
281
     1
  3
ACAD_LAYOUTSELFREF
350
9933
  0
XRECORD
  5
998B
102
{ACAD_REACTORS
330
972D
102
}
330
972D
100
AcDbXrecord
280
     1
300
ACDLT
300
2014
300
ACDLT_F_S
  0
DICTIONARY
  5
996D
102
{ACAD_REACTORS
330
972D
102
}
330
972D
100
AcDbDictionary
281
     1
  0
DICTIONARY
  5
9986
102
{ACAD_REACTORS
330
972D
102
}
330
972D
100
AcDbDictionary
281
     1
  3
Imperial24
350
9987
  0
DICTIONARY
  5
972E
102
{ACAD_REACTORS
330
972D
102
}
330
972D
100
AcDbDictionary
281
     1
  0
DICTIONARY
  5
973A
102
{ACAD_REACTORS
330
972D
102
}
330
972D
100
AcDbDictionary
281
     1
  3
Model
350
9988
  3
レイアウト1
350
9989
  0
DICTIONARY
  5
993B
102
{ACAD_REACTORS
330
972D
102
}
330
972D
100
AcDbDictionary
281
     1
  3
ByBlock
350
9944
  3
ByLayer
350
993C
  3
Global
350
994C
  0
DICTIONARY
  5
9982
102
{ACAD_REACTORS
330
972D
102
}
330
972D
100
AcDbDictionary
281
     1
  3
Standard
350
9983
  0
DICTIONARY
  5
9737
102
{ACAD_REACTORS
330
972D
102
}
330
972D
100
AcDbDictionary
281
     1
  3
STANDARD
350
9738
  0
DICTIONARY
  5
9739
102
{ACAD_REACTORS
330
972D
102
}
330
972D
100
AcDbDictionary
281
     1
  0
ACDBDICTIONARYWDFLT
  5
9939
102
{ACAD_REACTORS
330
972D
102
}
330
972D
100
AcDbDictionary
281
     1
  3
Normal
350
993A
100
AcDbDictionaryWithDefault
340
993A
  0
DICTIONARY
  5
9970
102
{ACAD_REACTORS
330
972D
102
}
330
972D
100
AcDbDictionary
281
     1
  3
A0
350
9971
  3
A1
350
9972
  3
A2
350
9973
  3
A3
350
9974
  3
A4
350
9975
  3
A5
350
9976
  3
A6
350
9977
  3
A7
350
9978
  3
A8
350
9979
  3
A9
350
997A
  3
B0
350
997B
  3
B1
350
997C
  3
B2
350
997D
  3
B3
350
997E
  3
B4
350
997F
  3
B5
350
9980
  3
B6
350
9981
  0
DICTIONARY
  5
9984
102
{ACAD_REACTORS
330
972D
102
}
330
972D
100
AcDbDictionary
281
     1
  3
Imperial24
350
9985
  0
DICTIONARY
  5
996E
102
{ACAD_REACTORS
330
972D
102
}
330
972D
100
AcDbDictionary
281
     1
  3
Standard
350
996F
  0
DICTIONARY
  5
9954
102
{ACAD_REACTORS
330
972D
102
}
330
972D
100
AcDbDictionary
281
     1
  3
2dWireframe
350
995A
  3
Basic
350
9959
  3
Brighten
350
9960
  3
ColorChange
350
9964
  3
Conceptual
350
995D
  3
Dim
350
995F
  3
EdgeColorOff
350
996C
  3
Facepattern
350
9963
  3
Flat
350
9955
  3
FlatWithEdges
350
9956
  3
Gouraud
350
9957
  3
GouraudWithEdges
350
9958
  3
Hidden
350
995C
  3
JitterOff
350
996A
  3
Linepattern
350
9962
  3
OverhangOff
350
996B
  3
Realistic
350
995E
  3
Shaded
350
9969
  3
Shaded with edges
350
9968
  3
Shades of Gray
350
9965
  3
Sketchy
350
9966
  3
Thicken
350
9961
  3
Wireframe
350
995B
  3
X-Ray
350
9967
  0
XRECORD
  5
99A9
102
{ACAD_REACTORS
330
972D
102
}
330
972D
100
AcDbXrecord
280
     1
 90
        1
330
996F
  0
DICTIONARY
  5
999C
102
{ACAD_REACTORS
330
972D
102
}
330
972D
100
AcDbDictionary
281
     1
  3
CANNOSCALE
350
99A1
  3
CMLEADERSTYLE
350
999E
  3
CTABLESTYLE
350
999D
  3
CVIEWDETAILSTYLE
350
999F
  3
CVIEWSECTIONSTYLE
350
99A0
  3
DIMASSOC
350
99A4
  3
INDEXCTL
350
99A3
  3
SORTENTS
350
99A2
  3
XCLIPFRAME
350
99A5
  0
XRECORD
  5
99AA
102
{ACAD_REACTORS
330
972D
102
}
330
972D
100
AcDbXrecord
280
     1
  1
DWGPROPS COOKIE
  2

  3

  4

  6

  7

  8
Yoshitsune
  9

300
=
301
=
302
=
303
=
304
=
305
=
306
=
307
=
308
=
309
=
 40
0.0000143865740741
 41
2451066.694740625
 42
2457192.603451239
  1

 90
        0
  0
XRECORD
  5
998D
102
{ACAD_REACTORS
330
998C
102
}
330
998C
100
AcDbXrecord
280
     1
290
     1
  0
XRECORD
  5
998F
102
{ACAD_REACTORS
330
998E
102
}
330
998E
100
AcDbXrecord
280
     1
290
     1
  0
XRECORD
  5
9991
102
{ACAD_REACTORS
330
9990
102
}
330
9990
100
AcDbXrecord
280
     1
290
     1
  0
XRECORD
  5
9993
102
{ACAD_REACTORS
330
9992
102
}
330
9992
100
AcDbXrecord
280
     1
290
     1
  0
XRECORD
  5
9995
102
{ACAD_REACTORS
330
9994
102
}
330
9994
100
AcDbXrecord
280
     1
290
     1
  0
XRECORD
  5
9997
102
{ACAD_REACTORS
330
9996
102
}
330
9996
100
AcDbXrecord
280
     1
290
     1
  0
XRECORD
  5
9999
102
{ACAD_REACTORS
330
9998
102
}
330
9998
100
AcDbXrecord
280
     1
290
     1
  0
XRECORD
  5
999B
102
{ACAD_REACTORS
330
999A
102
}
330
999A
100
AcDbXrecord
280
     1
290
     1
  0
XRECORD
  5
9935
102
{ACAD_REACTORS
330
9934
102
}
330
9934
100
AcDbXrecord
280
     1
340
973F
  0
XRECORD
  5
9933
102
{ACAD_REACTORS
330
9932
102
}
330
9932
100
AcDbXrecord
280
     1
340
973B
  0
ACDBDETAILVIEWSTYLE
  5
9987
102
{ACAD_XDICTIONARY
360
99E2
102
}
102
{ACAD_REACTORS
330
9986
102
}
330
9986
100
AcDbModelDocViewStyle
 70
     0
  3
Imperial24
290
     0
100
AcDbDetailViewStyle
 70
     0
 71
     0
 90
        3
 71
     1
340
9732
 40
0.24
340
0
 40
0.24
300

 40
0.36
280
     3
 71
     2
340
9736
 90
       25
 71
     3
340
9732
 40
0.24
 90
        1
 40
0.75
 90
        1
300
%<\AcVar ViewType \f "%tc1">% %<\AcVar ViewDetailId>%\PSCALE %<\AcVar ViewScale \f "%sn">%
 71
     4
340
9736
 90
       25
340
9736
 90
       25
280
     0
  0
LAYOUT
  5
9988
102
{ACAD_XDICTIONARY
360
99E4
102
}
102
{ACAD_REACTORS
330
973A
102
}
330
973A
100
AcDbPlotSettings
  1

  2
Canon LBP9100C
  4

  6

 40
0.0
 41
0.0
 42
0.0
 43
0.0
 44
0.0
 45
0.0
 46
0.0
 47
0.0
 48
0.0
 49
0.0
140
0.0
141
0.0
142
1.0
143
1.0
 70
  1712
 72
     0
 73
     0
 74
     0
  7

 75
     0
147
1.0
148
0.0
149
0.0
100
AcDbLayout
  1
Model
 70
     1
 71
     0
 10
0.0
 20
0.0
 11
12.0
 21
9.0
 12
0.0
 22
0.0
 32
0.0
 14
0.0
 24
0.0
 34
0.0
 15
0.0
 25
0.0
 35
0.0
146
0.0
 13
0.0
 23
0.0
 33
0.0
 16
1.0
 26
0.0
 36
0.0
 17
0.0
 27
1.0
 37
0.0
 76
     0
330
973F
331
9931
  0
LAYOUT
  5
9989
102
{ACAD_XDICTIONARY
360
99E6
102
}
102
{ACAD_REACTORS
330
973A
102
}
330
973A
100
AcDbPlotSettings
  1

  2
Canon LBP9100C
  4

  6

 40
0.0
 41
0.0
 42
0.0
 43
0.0
 44
0.0
 45
0.0
 46
0.0
 47
0.0
 48
0.0
 49
0.0
140
0.0
141
0.0
142
1.0
143
1.0
 70
   688
 72
     0
 73
     0
 74
     5
  7

 75
    16
147
1.0
148
0.0
149
0.0
100
AcDbLayout
  1
レイアウト1
 70
     0
 71
     1
 10
0.0
 20
0.0
 11
420.0
 21
297.0
 12
0.0
 22
0.0
 32
0.0
 14
1.000000000000000E+20
 24
1.000000000000000E+20
 34
1.000000000000000E+20
 15
-1.000000000000000E+20
 25
-1.000000000000000E+20
 35
-1.000000000000000E+20
146
0.0
 13
0.0
 23
0.0
 33
0.0
 16
1.0
 26
0.0
 36
0.0
 17
0.0
 27
1.0
 37
0.0
 76
     0
330
973B
  0
MATERIAL
  5
9944
102
{ACAD_XDICTIONARY
360
9945
102
}
102
{ACAD_REACTORS
330
993B
102
}
330
993B
100
AcDbMaterial
  1
ByBlock
 72
     0
 43
0.0208333333333333
 43
0.0
 43
0.0
 43
0.0
 43
0.0
 43
0.0208333333333333
 43
0.0
 43
0.0
 43
0.0
 43
0.0
 43
1.0
 43
0.0
 43
0.0
 43
0.0
 43
0.0
 43
1.0
 77
     0
 47
0.0208333333333333
 47
0.0
 47
0.0
 47
0.0
 47
0.0
 47
0.0208333333333333
 47
0.0
 47
0.0
 47
0.0
 47
0.0
 47
1.0
 47
0.0
 47
0.0
 47
0.0
 47
0.0
 47
1.0
171
     0
 49
0.0208333333333333
 49
0.0
 49
0.0
 49
0.0
 49
0.0
 49
0.0208333333333333
 49
0.0
 49
0.0
 49
0.0
 49
0.0
 49
1.0
 49
0.0
 49
0.0
 49
0.0
 49
0.0
 49
1.0
175
     0
142
0.0208333333333333
142
0.0
142
0.0
142
0.0
142
0.0
142
0.0208333333333333
142
0.0
142
0.0
142
0.0
142
0.0
142
1.0
142
0.0
142
0.0
142
0.0
142
0.0
142
1.0
179
     0
144
0.0208333333333333
144
0.0
144
0.0
144
0.0
144
0.0
144
0.0208333333333333
144
0.0
144
0.0
144
0.0
144
0.0
144
1.0
144
0.0
144
0.0
144
0.0
144
0.0
144
1.0
147
0.0208333333333333
147
0.0
147
0.0
147
0.0
147
0.0
147
0.0208333333333333
147
0.0
147
0.0
147
0.0
147
0.0
147
1.0
147
0.0
147
0.0
147
0.0
147
0.0
147
1.0
  0
MATERIAL
  5
993C
102
{ACAD_XDICTIONARY
360
993D
102
}
102
{ACAD_REACTORS
330
993B
102
}
330
993B
100
AcDbMaterial
  1
ByLayer
 72
     0
 43
0.0208333333333333
 43
0.0
 43
0.0
 43
0.0
 43
0.0
 43
0.0208333333333333
 43
0.0
 43
0.0
 43
0.0
 43
0.0
 43
1.0
 43
0.0
 43
0.0
 43
0.0
 43
0.0
 43
1.0
 77
     0
 47
0.0208333333333333
 47
0.0
 47
0.0
 47
0.0
 47
0.0
 47
0.0208333333333333
 47
0.0
 47
0.0
 47
0.0
 47
0.0
 47
1.0
 47
0.0
 47
0.0
 47
0.0
 47
0.0
 47
1.0
171
     0
 49
0.0208333333333333
 49
0.0
 49
0.0
 49
0.0
 49
0.0
 49
0.0208333333333333
 49
0.0
 49
0.0
 49
0.0
 49
0.0
 49
1.0
 49
0.0
 49
0.0
 49
0.0
 49
0.0
 49
1.0
175
     0
142
0.0208333333333333
142
0.0
142
0.0
142
0.0
142
0.0
142
0.0208333333333333
142
0.0
142
0.0
142
0.0
142
0.0
142
1.0
142
0.0
142
0.0
142
0.0
142
0.0
142
1.0
179
     0
144
0.0208333333333333
144
0.0
144
0.0
144
0.0
144
0.0
144
0.0208333333333333
144
0.0
144
0.0
144
0.0
144
0.0
144
1.0
144
0.0
144
0.0
144
0.0
144
0.0
144
1.0
147
0.0208333333333333
147
0.0
147
0.0
147
0.0
147
0.0
147
0.0208333333333333
147
0.0
147
0.0
147
0.0
147
0.0
147
1.0
147
0.0
147
0.0
147
0.0
147
0.0
147
1.0
  0
MATERIAL
  5
994C
102
{ACAD_XDICTIONARY
360
994D
102
}
102
{ACAD_REACTORS
330
993B
102
}
330
993B
100
AcDbMaterial
  1
Global
 72
     0
 43
0.0208333333333333
 43
0.0
 43
0.0
 43
0.0
 43
0.0
 43
0.0208333333333333
 43
0.0
 43
0.0
 43
0.0
 43
0.0
 43
1.0
 43
0.0
 43
0.0
 43
0.0
 43
0.0
 43
1.0
 77
     0
 47
0.0208333333333333
 47
0.0
 47
0.0
 47
0.0
 47
0.0
 47
0.0208333333333333
 47
0.0
 47
0.0
 47
0.0
 47
0.0
 47
1.0
 47
0.0
 47
0.0
 47
0.0
 47
0.0
 47
1.0
171
     0
 49
0.0208333333333333
 49
0.0
 49
0.0
 49
0.0
 49
0.0
 49
0.0208333333333333
 49
0.0
 49
0.0
 49
0.0
 49
0.0
 49
1.0
 49
0.0
 49
0.0
 49
0.0
 49
0.0
 49
1.0
175
     0
142
0.0208333333333333
142
0.0
142
0.0
142
0.0
142
0.0
142
0.0208333333333333
142
0.0
142
0.0
142
0.0
142
0.0
142
1.0
142
0.0
142
0.0
142
0.0
142
0.0
142
1.0
179
     0
144
0.0208333333333333
144
0.0
144
0.0
144
0.0
144
0.0
144
0.0208333333333333
144
0.0
144
0.0
144
0.0
144
0.0
144
1.0
144
0.0
144
0.0
144
0.0
144
0.0
144
1.0
147
0.0208333333333333
147
0.0
147
0.0
147
0.0
147
0.0
147
0.0208333333333333
147
0.0
147
0.0
147
0.0
147
0.0
147
1.0
147
0.0
147
0.0
147
0.0
147
0.0
147
1.0
  0
MLEADERSTYLE
  5
9983
102
{ACAD_REACTORS
330
9982
102
}
330
9982
100
AcDbMLeaderStyle
170
     2
171
     1
172
     0
 90
        2
 40
0.0
 41
0.0
173
     1
 91
-1056964608
340
9734
 92
       -2
290
     1
 42
0.09
291
     1
 43
0.36
  3
Standard
 44
0.18
300

342
9732
174
     1
178
     6
175
     1
176
     0
 93
-1056964608
 45
0.18
292
     0
297
     0
 46
0.18
 94
-1056964608
 47
1.0
 49
1.0
140
1.0
293
     1
141
0.0
294
     1
177
     0
142
1.0
295
     0
296
     0
143
0.125
1001
ACAD_MLEADERVER
1070
     2
  0
MLINESTYLE
  5
9738
102
{ACAD_REACTORS
330
9737
102
}
330
9737
100
AcDbMlineStyle
  2
STANDARD
 70
     0
  3

 62
   256
 51
90.0
 52
90.0
 71
     2
 49
0.5
 62
   256
  6
BYLAYER
 49
-0.5
 62
   256
  6
BYLAYER
  0
ACDBPLACEHOLDER
  5
993A
102
{ACAD_REACTORS
330
9939
102
}
330
9939
  0
SCALE
  5
9971
102
{ACAD_REACTORS
330
9970
102
}
330
9970
100
AcDbScale
 70
     0
300
1:1
140
1.0
141
1.0
290
     1
  0
SCALE
  5
9972
102
{ACAD_REACTORS
330
9970
102
}
330
9970
100
AcDbScale
 70
     0
300
1/128" = 1'-0"
140
0.0078125
141
12.0
290
     0
  0
SCALE
  5
9973
102
{ACAD_REACTORS
330
9970
102
}
330
9970
100
AcDbScale
 70
     0
300
1/64" = 1'-0"
140
0.015625
141
12.0
290
     0
  0
SCALE
  5
9974
102
{ACAD_REACTORS
330
9970
102
}
330
9970
100
AcDbScale
 70
     0
300
1/32" = 1'-0"
140
0.03125
141
12.0
290
     0
  0
SCALE
  5
9975
102
{ACAD_REACTORS
330
9970
102
}
330
9970
100
AcDbScale
 70
     0
300
1/16" = 1'-0"
140
0.0625
141
12.0
290
     0
  0
SCALE
  5
9976
102
{ACAD_REACTORS
330
9970
102
}
330
9970
100
AcDbScale
 70
     0
300
3/32" = 1'-0"
140
0.09375
141
12.0
290
     0
  0
SCALE
  5
9977
102
{ACAD_REACTORS
330
9970
102
}
330
9970
100
AcDbScale
 70
     0
300
1/8" = 1'-0"
140
0.125
141
12.0
290
     0
  0
SCALE
  5
9978
102
{ACAD_REACTORS
330
9970
102
}
330
9970
100
AcDbScale
 70
     0
300
3/16" = 1'-0"
140
0.1875
141
12.0
290
     0
  0
SCALE
  5
9979
102
{ACAD_REACTORS
330
9970
102
}
330
9970
100
AcDbScale
 70
     0
300
1/4" = 1'-0"
140
0.25
141
12.0
290
     0
  0
SCALE
  5
997A
102
{ACAD_REACTORS
330
9970
102
}
330
9970
100
AcDbScale
 70
     0
300
3/8" = 1'-0"
140
0.375
141
12.0
290
     0
  0
SCALE
  5
997B
102
{ACAD_REACTORS
330
9970
102
}
330
9970
100
AcDbScale
 70
     0
300
1/2" = 1'-0"
140
0.5
141
12.0
290
     0
  0
SCALE
  5
997C
102
{ACAD_REACTORS
330
9970
102
}
330
9970
100
AcDbScale
 70
     0
300
3/4" = 1'-0"
140
0.75
141
12.0
290
     0
  0
SCALE
  5
997D
102
{ACAD_REACTORS
330
9970
102
}
330
9970
100
AcDbScale
 70
     0
300
1" = 1'-0"
140
1.0
141
12.0
290
     0
  0
SCALE
  5
997E
102
{ACAD_REACTORS
330
9970
102
}
330
9970
100
AcDbScale
 70
     0
300
1-1/2" = 1'-0"
140
1.5
141
12.0
290
     0
  0
SCALE
  5
997F
102
{ACAD_REACTORS
330
9970
102
}
330
9970
100
AcDbScale
 70
     0
300
3" = 1'-0"
140
3.0
141
12.0
290
     0
  0
SCALE
  5
9980
102
{ACAD_REACTORS
330
9970
102
}
330
9970
100
AcDbScale
 70
     0
300
6" = 1'-0"
140
6.0
141
12.0
290
     0
  0
SCALE
  5
9981
102
{ACAD_REACTORS
330
9970
102
}
330
9970
100
AcDbScale
 70
     0
300
1'-0" = 1'-0"
140
12.0
141
12.0
290
     0
  0
ACDBSECTIONVIEWSTYLE
  5
9985
102
{ACAD_XDICTIONARY
360
99E0
102
}
102
{ACAD_REACTORS
330
9984
102
}
330
9984
100
AcDbModelDocViewStyle
 70
     0
  3
Imperial24
290
     0
100
AcDbSectionViewStyle
 70
     0
 71
     0
 90
       78
 71
     1
340
9732
 40
0.24
340
0
340
0
 40
0.24
300
I, O, Q, S, X, Z
 40
0.48
 90
        3
 40
0.18
 90
        1
 71
     2
340
9736
 90
       25
340
9736
 90
       50
 40
0.24
 40
0.0
 40
0.24
 71
     3
340
9732
 40
0.24
 90
        1
 40
0.75
 90
        1
300
%<\AcVar ViewType \f "%tc1">% %<\AcVar ViewSectionStartId>%-%<\AcVar ViewSectionEndId>%\PSCALE %<\AcVar ViewScale \f "%sn">%
 71
     4
300
ANSI31
 40
1.0
 90
        0
290
     0
290
     0
 90
        6
 40
0.0
 40
1.570796326794896
 40
0.2617993877991494
 40
1.308996938995747
 40
-0.2617993877991494
 40
1.832595714594046
  0
TABLESTYLE
  5
996F
102
{ACAD_XDICTIONARY
360
99A7
102
}
102
{ACAD_REACTORS
330
996E
102
}
330
996E
100
AcDbTableStyle
  3
Standard
 70
     0
 71
     0
 40
0.06
 41
0.06
280
     0
281
     0
  7
STANDARD
140
0.18
170
     2
 62
     0
 63
     7
283
     0
274
    -2
284
     1
 64
     0
275
    -2
285
     1
 65
     0
276
    -2
286
     1
 66
     0
277
    -2
287
     1
 67
     0
278
    -2
288
     1
 68
     0
279
    -2
289
     1
 69
     0
  7
STANDARD
140
0.25
170
     5
 62
     0
 63
     7
283
     0
274
    -2
284
     1
 64
     0
275
    -2
285
     1
 65
     0
276
    -2
286
     1
 66
     0
277
    -2
287
     1
 67
     0
278
    -2
288
     1
 68
     0
279
    -2
289
     1
 69
     0
  7
STANDARD
140
0.18
170
     5
 62
     0
 63
     7
283
     0
274
    -2
284
     1
 64
     0
275
    -2
285
     1
 65
     0
276
    -2
286
     1
 66
     0
277
    -2
287
     1
 67
     0
278
    -2
288
     1
 68
     0
279
    -2
289
     1
 69
     0
  0
VISUALSTYLE
  5
995A
102
{ACAD_XDICTIONARY
360
99B8
102
}
102
{ACAD_REACTORS
330
9954
102
}
330
9954
100
AcDbVisualStyle
  2
2dWireframe
 70
     4
 71
     0
 72
     2
 73
     0
 90
        0
 40
-0.6
 41
-30.0
 62
     5
 63
     7
 74
     1
 91
        4
 64
     7
 65
   257
 75
     1
175
     1
 42
1.0
 92
        0
 66
   257
 43
1.0
 76
     1
 77
     6
 78
     2
 67
     7
 79
     5
170
     0
171
     0
290
     0
174
     0
 93
        1
 44
0.0
173
     0
291
     0
 45
0.0
1001
ACAD
1000
AcDbSavedByObjectVersion
1070
     0
  0
VISUALSTYLE
  5
9959
102
{ACAD_XDICTIONARY
360
99B6
102
}
102
{ACAD_REACTORS
330
9954
102
}
330
9954
100
AcDbVisualStyle
  2
Basic
 70
     7
 71
     1
 72
     0
 73
     1
 90
        0
 40
-0.6
 41
-30.0
 62
     5
 63
     7
 74
     0
 91
        4
 64
     7
 65
   257
 75
     1
175
     1
 42
1.0
 92
        8
 66
     7
 43
1.0
 76
     1
 77
     6
 78
     2
 67
     7
 79
     5
170
     0
171
     0
290
     0
174
     0
 93
        1
 44
0.0
173
     0
291
     1
 45
0.0
1001
ACAD
1000
AcDbSavedByObjectVersion
1070
     0
  0
VISUALSTYLE
  5
9960
102
{ACAD_XDICTIONARY
360
99C4
102
}
102
{ACAD_REACTORS
330
9954
102
}
330
9954
100
AcDbVisualStyle
  2
Brighten
 70
    12
 71
     2
 72
     2
 73
     0
 90
        0
 40
-0.6
 41
-30.0
 62
     5
 63
     7
 74
     1
 91
        4
 64
     7
 65
   257
 75
     1
175
     1
 42
1.0
 92
        8
 66
     7
 43
1.0
 76
     1
 77
     6
 78
     2
 67
     7
 79
     5
170
     0
171
     0
290
     0
174
     0
 93
        1
 44
50.0
173
     0
291
     1
 45
0.0
1001
ACAD
1000
AcDbSavedByObjectVersion
1070
     0
  0
VISUALSTYLE
  5
9964
102
{ACAD_XDICTIONARY
360
99CC
102
}
102
{ACAD_REACTORS
330
9954
102
}
330
9954
100
AcDbVisualStyle
  2
ColorChange
 70
    16
 71
     2
 72
     2
 73
     3
 90
        0
 40
-0.6
 41
-30.0
 62
     5
 63
     8
 74
     1
 91
        4
 64
     7
 65
   257
 75
     1
175
     1
 42
1.0
 92
        8
 66
     8
 43
1.0
 76
     1
 77
     6
 78
     2
 67
     7
 79
     5
170
     0
171
     0
290
     0
174
     0
 93
        1
 44
0.0
173
     0
291
     1
 45
0.0
1001
ACAD
1000
AcDbSavedByObjectVersion
1070
     0
  0
VISUALSTYLE
  5
995D
102
{ACAD_XDICTIONARY
360
99BE
102
}
102
{ACAD_REACTORS
330
9954
102
}
330
9954
100
AcDbVisualStyle
  2
Conceptual
 70
     9
 71
     3
 72
     2
 73
     0
 90
        0
 40
-0.6
 41
-30.0
 62
     5
 63
     7
 74
     2
 91
        2
 64
     7
 65
   257
 75
     1
175
     1
 42
179.0
 92
        8
 66
     7
 43
1.0
 76
     1
 77
     6
 78
     2
 67
     7
 79
     3
170
     0
171
     0
290
     0
174
     0
 93
        1
 44
0.0
173
     0
291
     0
 45
0.0
1001
ACAD
1000
AcDbSavedByObjectVersion
1070
     0
  0
VISUALSTYLE
  5
995F
102
{ACAD_XDICTIONARY
360
99C2
102
}
102
{ACAD_REACTORS
330
9954
102
}
330
9954
100
AcDbVisualStyle
  2
Dim
 70
    11
 71
     2
 72
     2
 73
     0
 90
        0
 40
-0.6
 41
-30.0
 62
     5
 63
     7
 74
     1
 91
        4
 64
     7
 65
   257
 75
     1
175
     1
 42
1.0
 92
        8
 66
     7
 43
1.0
 76
     1
 77
     6
 78
     2
 67
     7
 79
     5
170
     0
171
     0
290
     0
174
     0
 93
        1
 44
-50.0
173
     0
291
     1
 45
0.0
1001
ACAD
1000
AcDbSavedByObjectVersion
1070
     0
  0
VISUALSTYLE
  5
996C
102
{ACAD_XDICTIONARY
360
99DC
102
}
102
{ACAD_REACTORS
330
9954
102
}
330
9954
100
AcDbVisualStyle
  2
EdgeColorOff
 70
    22
 71
     2
 72
     2
 73
     0
 90
        0
 40
-0.6
 41
-30.0
 62
     5
 63
     7
 74
     1
 91
        4
 64
     7
 65
   257
 75
     1
175
     1
 42
1.0
 92
        8
 66
     7
 43
1.0
 76
     1
 77
     6
 78
     2
 67
     7
 79
     5
170
     0
171
     0
290
     0
174
     0
 93
        1
 44
0.0
173
     0
291
     1
 45
0.0
1001
ACAD
1000
AcDbSavedByObjectVersion
1070
     0
  0
VISUALSTYLE
  5
9963
102
{ACAD_XDICTIONARY
360
99CA
102
}
102
{ACAD_REACTORS
330
9954
102
}
330
9954
100
AcDbVisualStyle
  2
Facepattern
 70
    15
 71
     2
 72
     2
 73
     0
 90
        0
 40
-0.6
 41
-30.0
 62
     5
 63
     7
 74
     1
 91
        4
 64
     7
 65
   257
 75
     1
175
     1
 42
1.0
 92
        8
 66
     7
 43
1.0
 76
     1
 77
     6
 78
     2
 67
     7
 79
     5
170
     0
171
     0
290
     0
174
     0
 93
        1
 44
0.0
173
     0
291
     1
 45
0.0
1001
ACAD
1000
AcDbSavedByObjectVersion
1070
     0
  0
VISUALSTYLE
  5
9955
102
{ACAD_XDICTIONARY
360
99AE
102
}
102
{ACAD_REACTORS
330
9954
102
}
330
9954
100
AcDbVisualStyle
  2
Flat
 70
     0
 71
     2
 72
     1
 73
     1
 90
        2
 40
-0.6
 41
30.0
 62
     5
 63
     7
 74
     0
 91
        0
 64
     7
 65
   257
 75
     1
175
     1
 42
1.0
 92
        8
 66
     7
 43
1.0
 76
     1
 77
     6
 78
     2
 67
     7
 79
     5
170
     0
171
     0
290
     0
174
     0
 93
       13
 44
0.0
173
     0
291
     1
 45
0.0
1001
ACAD
1000
AcDbSavedByObjectVersion
1070
     0
  0
VISUALSTYLE
  5
9956
102
{ACAD_XDICTIONARY
360
99B0
102
}
102
{ACAD_REACTORS
330
9954
102
}
330
9954
100
AcDbVisualStyle
  2
FlatWithEdges
 70
     1
 71
     2
 72
     1
 73
     1
 90
        2
 40
-0.6
 41
30.0
 62
     5
 63
     7
 74
     1
 91
        0
 64
     7
 65
   257
 75
     1
175
     1
 42
1.0
 92
        0
 66
   257
 43
1.0
 76
     1
 77
     6
 78
     2
 67
     7
 79
     5
170
     0
171
     0
290
     0
174
     0
 93
       13
 44
0.0
173
     0
291
     1
 45
0.0
1001
ACAD
1000
AcDbSavedByObjectVersion
1070
     0
  0
VISUALSTYLE
  5
9957
102
{ACAD_XDICTIONARY
360
99B2
102
}
102
{ACAD_REACTORS
330
9954
102
}
330
9954
100
AcDbVisualStyle
  2
Gouraud
 70
     2
 71
     2
 72
     2
 73
     1
 90
        2
 40
-0.6
 41
30.0
 62
     5
 63
     7
 74
     0
 91
        0
 64
     7
 65
   257
 75
     1
175
     1
 42
1.0
 92
        0
 66
     7
 43
1.0
 76
     1
 77
     6
 78
     2
 67
     7
 79
     5
170
     0
171
     0
290
     0
174
     0
 93
       13
 44
0.0
173
     0
291
     1
 45
0.0
1001
ACAD
1000
AcDbSavedByObjectVersion
1070
     0
  0
VISUALSTYLE
  5
9958
102
{ACAD_XDICTIONARY
360
99B4
102
}
102
{ACAD_REACTORS
330
9954
102
}
330
9954
100
AcDbVisualStyle
  2
GouraudWithEdges
 70
     3
 71
     2
 72
     2
 73
     1
 90
        2
 40
-0.6
 41
30.0
 62
     5
 63
     7
 74
     1
 91
        0
 64
     7
 65
   257
 75
     1
175
     1
 42
1.0
 92
        0
 66
   257
 43
1.0
 76
     1
 77
     6
 78
     2
 67
     7
 79
     5
170
     0
171
     0
290
     0
174
     0
 93
       13
 44
0.0
173
     0
291
     1
 45
0.0
1001
ACAD
1000
AcDbSavedByObjectVersion
1070
     0
  0
VISUALSTYLE
  5
995C
102
{ACAD_XDICTIONARY
360
99BC
102
}
102
{ACAD_REACTORS
330
9954
102
}
330
9954
100
AcDbVisualStyle
  2
Hidden
 70
     6
 71
     1
 72
     2
 73
     2
 90
        0
 40
-0.6
 41
-30.0
 62
     5
 63
     7
 74
     2
 91
        2
 64
     7
 65
   257
 75
     2
175
     1
 42
40.0
 92
        0
 66
   257
 43
1.0
 76
     1
 77
     6
 78
     2
 67
     7
 79
     3
170
     0
171
     0
290
     0
174
     0
 93
        1
 44
0.0
173
     0
291
     0
 45
0.0
1001
ACAD
1000
AcDbSavedByObjectVersion
1070
     0
  0
VISUALSTYLE
  5
996A
102
{ACAD_XDICTIONARY
360
99D8
102
}
102
{ACAD_REACTORS
330
9954
102
}
330
9954
100
AcDbVisualStyle
  2
JitterOff
 70
    20
 71
     2
 72
     2
 73
     0
 90
        0
 40
-0.6
 41
-30.0
 62
     5
 63
     7
 74
     1
 91
        4
 64
     7
 65
   257
 75
     1
175
     1
 42
1.0
 92
       10
 66
     7
 43
1.0
 76
     1
 77
     6
 78
     2
 67
     7
 79
     5
170
     0
171
     0
290
     0
174
     0
 93
        1
 44
0.0
173
     0
291
     1
 45
0.0
1001
ACAD
1000
AcDbSavedByObjectVersion
1070
     0
  0
VISUALSTYLE
  5
9962
102
{ACAD_XDICTIONARY
360
99C8
102
}
102
{ACAD_REACTORS
330
9954
102
}
330
9954
100
AcDbVisualStyle
  2
Linepattern
 70
    14
 71
     2
 72
     2
 73
     0
 90
        0
 40
-0.6
 41
-30.0
 62
     5
 63
     7
 74
     1
 91
        4
 64
     7
 65
   257
 75
     7
175
     7
 42
1.0
 92
        8
 66
     7
 43
1.0
 76
     1
 77
     6
 78
     2
 67
     7
 79
     5
170
     0
171
     0
290
     0
174
     0
 93
        1
 44
0.0
173
     0
291
     1
 45
0.0
1001
ACAD
1000
AcDbSavedByObjectVersion
1070
     0
  0
VISUALSTYLE
  5
996B
102
{ACAD_XDICTIONARY
360
99DA
102
}
102
{ACAD_REACTORS
330
9954
102
}
330
9954
100
AcDbVisualStyle
  2
OverhangOff
 70
    21
 71
     2
 72
     2
 73
     0
 90
        0
 40
-0.6
 41
-30.0
 62
     5
 63
     7
 74
     1
 91
        4
 64
     7
 65
   257
 75
     1
175
     1
 42
1.0
 92
        9
 66
     7
 43
1.0
 76
     1
 77
     6
 78
     2
 67
     7
 79
     5
170
     0
171
     0
290
     0
174
     0
 93
        1
 44
0.0
173
     0
291
     1
 45
0.0
1001
ACAD
1000
AcDbSavedByObjectVersion
1070
     0
  0
VISUALSTYLE
  5
995E
102
{ACAD_XDICTIONARY
360
99C0
102
}
102
{ACAD_REACTORS
330
9954
102
}
330
9954
100
AcDbVisualStyle
  2
Realistic
 70
     8
 71
     2
 72
     3
 73
     0
 90
        2
 40
-0.6
 41
30.0
 62
     5
 63
     7
 74
     0
 91
        0
 64
     7
 65
   257
 75
     1
175
     1
 42
1.0
 92
        8
 66
   257
 43
1.0
 76
     1
 77
     6
 78
     2
 67
     7
 79
     3
170
     0
171
     0
290
     0
174
     0
 93
       13
 44
0.0
173
     0
291
     0
 45
0.0
1001
ACAD
1000
AcDbSavedByObjectVersion
1070
     0
  0
VISUALSTYLE
  5
9969
102
{ACAD_XDICTIONARY
360
99D6
102
}
102
{ACAD_REACTORS
330
9954
102
}
330
9954
100
AcDbVisualStyle
  2
Shaded
 70
    27
 71
     2
 72
     2
 73
     1
 90
        2
 40
-0.6
 41
30.0
 62
     5
 63
     7
 74
     0
 91
        4
 64
     7
 65
   257
 75
     1
175
     1
 42
1.0
 92
        8
 66
   257
 43
1.0
 76
     1
 77
     6
 78
     2
 67
     8
 79
     3
170
     0
171
     0
290
     0
174
     0
 93
        5
 44
0.0
173
     0
291
     0
 45
0.0
1001
ACAD
1000
AcDbSavedByObjectVersion
1070
     0
  0
VISUALSTYLE
  5
9968
102
{ACAD_XDICTIONARY
360
99D4
102
}
102
{ACAD_REACTORS
330
9954
102
}
330
9954
100
AcDbVisualStyle
  2
Shaded with edges
 70
    26
 71
     2
 72
     2
 73
     1
 90
        2
 40
-0.6
 41
30.0
 62
     5
 63
     7
 74
     1
 91
       10
 64
     7
 65
   257
 75
     2
175
     1
 42
1.0
 92
        8
 66
   257
 43
1.0
 76
     1
 77
     6
 78
     2
 67
     7
 79
     3
170
     0
171
     0
290
     0
174
     0
 93
        5
 44
0.0
173
     0
291
     0
 45
0.0
1001
ACAD
1000
AcDbSavedByObjectVersion
1070
     0
  0
VISUALSTYLE
  5
9965
102
{ACAD_XDICTIONARY
360
99CE
102
}
102
{ACAD_REACTORS
330
9954
102
}
330
9954
100
AcDbVisualStyle
  2
Shades of Gray
 70
    23
 71
     2
 72
     2
 73
     3
 90
        0
 40
-0.6
 41
-30.0
 62
     5
 63
     7
 74
     2
 91
        2
 64
     7
 65
     7
 75
     1
175
     1
 42
40.0
 92
        8
 66
     7
 43
1.0
 76
     1
 77
     6
 78
     2
 67
     7
 79
     3
170
     0
171
     0
290
     0
174
     0
 93
        1
 44
0.0
173
     0
291
     0
 45
0.0
1001
ACAD
1000
AcDbSavedByObjectVersion
1070
     0
  0
VISUALSTYLE
  5
9966
102
{ACAD_XDICTIONARY
360
99D0
102
}
102
{ACAD_REACTORS
330
9954
102
}
330
9954
100
AcDbVisualStyle
  2
Sketchy
 70
    24
 71
     1
 72
     2
 73
     2
 90
        0
 40
-0.6
 41
-30.0
 62
     5
 63
     7
 74
     2
 91
        2
 64
     7
 65
     7
 75
     1
175
     1
 42
40.0
 92
       11
 66
     7
 43
1.0
 76
     1
 77
     6
 78
     2
 67
     7
 79
     6
170
     0
171
     0
290
     0
174
     0
 93
        1
 44
0.0
173
     0
291
     0
 45
0.0
1001
ACAD
1000
AcDbSavedByObjectVersion
1070
     0
  0
VISUALSTYLE
  5
9961
102
{ACAD_XDICTIONARY
360
99C6
102
}
102
{ACAD_REACTORS
330
9954
102
}
330
9954
100
AcDbVisualStyle
  2
Thicken
 70
    13
 71
     2
 72
     2
 73
     0
 90
        0
 40
-0.6
 41
-30.0
 62
     5
 63
     7
 74
     1
 91
        4
 64
     7
 65
   257
 75
     1
175
     1
 42
1.0
 92
       12
 66
     7
 43
1.0
 76
     1
 77
     6
 78
     2
 67
     7
 79
     5
170
     0
171
     0
290
     0
174
     0
 93
        1
 44
0.0
173
     0
291
     1
 45
0.0
1001
ACAD
1000
AcDbSavedByObjectVersion
1070
     0
  0
VISUALSTYLE
  5
995B
102
{ACAD_XDICTIONARY
360
99BA
102
}
102
{ACAD_REACTORS
330
9954
102
}
330
9954
100
AcDbVisualStyle
  2
Wireframe
 70
     5
 71
     0
 72
     2
 73
     0
 90
        0
 40
-0.6
 41
-30.0
 62
     5
 63
     7
 74
     1
 91
        4
 64
     7
 65
   257
 75
     1
175
     1
 42
1.0
 92
        0
 66
   257
 43
1.0
 76
     1
 77
     6
 78
     2
 67
     7
 79
     3
170
     0
171
     0
290
     0
174
     0
 93
        1
 44
0.0
173
     0
291
     0
 45
0.0
1001
ACAD
1000
AcDbSavedByObjectVersion
1070
     0
  0
VISUALSTYLE
  5
9967
102
{ACAD_XDICTIONARY
360
99D2
102
}
102
{ACAD_REACTORS
330
9954
102
}
330
9954
100
AcDbVisualStyle
  2
X-Ray
 70
    25
 71
     2
 72
     2
 73
     1
 90
        1
 40
0.5
 41
-30.0
 62
     5
 63
     7
 74
     1
 91
        0
 64
     7
 65
   257
 75
     1
175
     1
 42
1.0
 92
        8
 66
     7
 43
1.0
 76
     1
 77
     6
 78
     2
 67
     7
 79
     3
170
     0
171
     0
290
     0
174
     0
 93
       13
 44
0.0
173
     0
291
     0
 45
0.0
1001
ACAD
1000
AcDbSavedByObjectVersion
1070
     0
  0
DICTIONARYVAR
  5
99A1
102
{ACAD_REACTORS
330
999C
102
}
330
999C
100
DictionaryVariables
280
     0
  1
1:1
  0
DICTIONARYVAR
  5
999E
102
{ACAD_REACTORS
330
999C
102
}
330
999C
100
DictionaryVariables
280
     0
  1
STANDARD
  0
DICTIONARYVAR
  5
999D
102
{ACAD_REACTORS
330
999C
102
}
330
999C
100
DictionaryVariables
280
     0
  1
STANDARD
  0
DICTIONARYVAR
  5
999F
102
{ACAD_REACTORS
330
999C
102
}
330
999C
100
DictionaryVariables
280
     0
  1
Imperial24
  0
DICTIONARYVAR
  5
99A0
102
{ACAD_REACTORS
330
999C
102
}
330
999C
100
DictionaryVariables
280
     0
  1
Imperial24
  0
DICTIONARYVAR
  5
99A4
102
{ACAD_REACTORS
330
999C
102
}
330
999C
100
DictionaryVariables
280
     0
  1
1
  0
DICTIONARYVAR
  5
99A3
102
{ACAD_REACTORS
330
999C
102
}
330
999C
100
DictionaryVariables
280
     0
  1
0
  0
DICTIONARYVAR
  5
99A2
102
{ACAD_REACTORS
330
999C
102
}
330
999C
100
DictionaryVariables
280
     0
  1
127
  0
DICTIONARYVAR
  5
99A5
102
{ACAD_REACTORS
330
999C
102
}
330
999C
100
DictionaryVariables
280
     0
  1
2
  0
DICTIONARY
  5
99E2
330
9987
100
AcDbDictionary
280
     1
281
     1
  3
ACAD_XREC_ROUNDTRIP
360
99E3
  0
DICTIONARY
  5
99E4
330
9988
100
AcDbDictionary
280
     1
281
     1
  3
ACAD_XREC_ROUNDTRIP
360
99E5
  0
DICTIONARY
  5
99E6
330
9989
100
AcDbDictionary
280
     1
281
     1
  3
ACAD_XREC_ROUNDTRIP
360
99E7
  0
DICTIONARY
  5
9945
330
9944
100
AcDbDictionary
280
     1
281
     1
  3
ACAD_XREC_ROUNDTRIP
360
99AC
  3
BUMPTILE
360
9947
  3
DIFFUSETILE
360
9946
  3
OPACITYTILE
360
994A
  3
REFLECTIONTILE
360
9949
  3
REFRACTIONTILE
360
994B
  3
SPECULARTILE
360
9948
  0
DICTIONARY
  5
993D
330
993C
100
AcDbDictionary
280
     1
281
     1
  3
ACAD_XREC_ROUNDTRIP
360
99AB
  3
BUMPTILE
360
993F
  3
DIFFUSETILE
360
993E
  3
OPACITYTILE
360
9942
  3
REFLECTIONTILE
360
9941
  3
REFRACTIONTILE
360
9943
  3
SPECULARTILE
360
9940
  0
DICTIONARY
  5
994D
330
994C
100
AcDbDictionary
280
     1
281
     1
  3
ACAD_XREC_ROUNDTRIP
360
99AD
  3
BUMPTILE
360
994F
  3
DIFFUSETILE
360
994E
  3
OPACITYTILE
360
9952
  3
REFLECTIONTILE
360
9951
  3
REFRACTIONTILE
360
9953
  3
SPECULARTILE
360
9950
  0
DICTIONARY
  5
99E0
330
9985
100
AcDbDictionary
280
     1
281
     1
  3
ACAD_XREC_ROUNDTRIP
360
99E1
  0
DICTIONARY
  5
99A7
330
996F
100
AcDbDictionary
280
     1
281
     1
  3
ACAD_ROUNDTRIP_2008_TABLESTYLE_CELLSTYLEMAP
360
99A8
  3
ACAD_XREC_ROUNDTRIP
360
99DE
  0
DICTIONARY
  5
99B8
330
995A
100
AcDbDictionary
280
     1
281
     1
  3
ACAD_XREC_ROUNDTRIP
360
99B9
  0
DICTIONARY
  5
99B6
330
9959
100
AcDbDictionary
280
     1
281
     1
  3
ACAD_XREC_ROUNDTRIP
360
99B7
  0
DICTIONARY
  5
99C4
330
9960
100
AcDbDictionary
280
     1
281
     1
  3
ACAD_XREC_ROUNDTRIP
360
99C5
  0
DICTIONARY
  5
99CC
330
9964
100
AcDbDictionary
280
     1
281
     1
  3
ACAD_XREC_ROUNDTRIP
360
99CD
  0
DICTIONARY
  5
99BE
330
995D
100
AcDbDictionary
280
     1
281
     1
  3
ACAD_XREC_ROUNDTRIP
360
99BF
  0
DICTIONARY
  5
99C2
330
995F
100
AcDbDictionary
280
     1
281
     1
  3
ACAD_XREC_ROUNDTRIP
360
99C3
  0
DICTIONARY
  5
99DC
330
996C
100
AcDbDictionary
280
     1
281
     1
  3
ACAD_XREC_ROUNDTRIP
360
99DD
  0
DICTIONARY
  5
99CA
330
9963
100
AcDbDictionary
280
     1
281
     1
  3
ACAD_XREC_ROUNDTRIP
360
99CB
  0
DICTIONARY
  5
99AE
330
9955
100
AcDbDictionary
280
     1
281
     1
  3
ACAD_XREC_ROUNDTRIP
360
99AF
  0
DICTIONARY
  5
99B0
330
9956
100
AcDbDictionary
280
     1
281
     1
  3
ACAD_XREC_ROUNDTRIP
360
99B1
  0
DICTIONARY
  5
99B2
330
9957
100
AcDbDictionary
280
     1
281
     1
  3
ACAD_XREC_ROUNDTRIP
360
99B3
  0
DICTIONARY
  5
99B4
330
9958
100
AcDbDictionary
280
     1
281
     1
  3
ACAD_XREC_ROUNDTRIP
360
99B5
  0
DICTIONARY
  5
99BC
330
995C
100
AcDbDictionary
280
     1
281
     1
  3
ACAD_XREC_ROUNDTRIP
360
99BD
  0
DICTIONARY
  5
99D8
330
996A
100
AcDbDictionary
280
     1
281
     1
  3
ACAD_XREC_ROUNDTRIP
360
99D9
  0
DICTIONARY
  5
99C8
330
9962
100
AcDbDictionary
280
     1
281
     1
  3
ACAD_XREC_ROUNDTRIP
360
99C9
  0
DICTIONARY
  5
99DA
330
996B
100
AcDbDictionary
280
     1
281
     1
  3
ACAD_XREC_ROUNDTRIP
360
99DB
  0
DICTIONARY
  5
99C0
330
995E
100
AcDbDictionary
280
     1
281
     1
  3
ACAD_XREC_ROUNDTRIP
360
99C1
  0
DICTIONARY
  5
99D6
330
9969
100
AcDbDictionary
280
     1
281
     1
  3
ACAD_XREC_ROUNDTRIP
360
99D7
  0
DICTIONARY
  5
99D4
330
9968
100
AcDbDictionary
280
     1
281
     1
  3
ACAD_XREC_ROUNDTRIP
360
99D5
  0
DICTIONARY
  5
99CE
330
9965
100
AcDbDictionary
280
     1
281
     1
  3
ACAD_XREC_ROUNDTRIP
360
99CF
  0
DICTIONARY
  5
99D0
330
9966
100
AcDbDictionary
280
     1
281
     1
  3
ACAD_XREC_ROUNDTRIP
360
99D1
  0
DICTIONARY
  5
99C6
330
9961
100
AcDbDictionary
280
     1
281
     1
  3
ACAD_XREC_ROUNDTRIP
360
99C7
  0
DICTIONARY
  5
99BA
330
995B
100
AcDbDictionary
280
     1
281
     1
  3
ACAD_XREC_ROUNDTRIP
360
99BB
  0
DICTIONARY
  5
99D2
330
9967
100
AcDbDictionary
280
     1
281
     1
  3
ACAD_XREC_ROUNDTRIP
360
99D3
  0
XRECORD
  5
99E3
102
{ACAD_REACTORS
330
99E2
102
}
330
99E2
100
AcDbXrecord
280
     1
102
DISPLAYNAME
  1
Imperial24
102
FLAGS
 90
        0
  0
XRECORD
  5
99E5
102
{ACAD_REACTORS
330
99E4
102
}
330
99E4
100
AcDbXrecord
280
     1
102
SHADEPLOT
 70
     0
102
SHADEPLOTRESLEVEL
 70
     2
102
SHADEPLOTCUSTOMDPI
 70
   300
  0
XRECORD
  5
99E7
102
{ACAD_REACTORS
330
99E6
102
}
330
99E6
100
AcDbXrecord
280
     1
102
SHADEPLOT
 70
     0
102
SHADEPLOTRESLEVEL
 70
     2
102
SHADEPLOTCUSTOMDPI
 70
   300
  0
XRECORD
  5
99AC
102
{ACAD_REACTORS
330
9945
102
}
330
9945
100
AcDbXrecord
280
     1
102
MATERIAL
148
0.0
149
0.0
149
0.0
 93
        0
 94
      127
282
     0
 72
     0
 77
     0
171
     0
175
     0
179
     0
273
     0
  0
XRECORD
  5
9947
102
{ACAD_REACTORS
330
9945
102
}
330
9945
100
AcDbXrecord
280
     1
270
     1
271
     1
  0
XRECORD
  5
9946
102
{ACAD_REACTORS
330
9945
102
}
330
9945
100
AcDbXrecord
280
     1
270
     1
271
     1
  0
XRECORD
  5
994A
102
{ACAD_REACTORS
330
9945
102
}
330
9945
100
AcDbXrecord
280
     1
270
     1
271
     1
  0
XRECORD
  5
9949
102
{ACAD_REACTORS
330
9945
102
}
330
9945
100
AcDbXrecord
280
     1
270
     1
271
     1
  0
XRECORD
  5
994B
102
{ACAD_REACTORS
330
9945
102
}
330
9945
100
AcDbXrecord
280
     1
270
     1
271
     1
  0
XRECORD
  5
9948
102
{ACAD_REACTORS
330
9945
102
}
330
9945
100
AcDbXrecord
280
     1
270
     1
271
     1
  0
XRECORD
  5
99AB
102
{ACAD_REACTORS
330
993D
102
}
330
993D
100
AcDbXrecord
280
     1
102
MATERIAL
148
0.0
149
0.0
149
0.0
 93
        0
 94
      127
282
     0
 72
     0
 77
     0
171
     0
175
     0
179
     0
273
     0
  0
XRECORD
  5
993F
102
{ACAD_REACTORS
330
993D
102
}
330
993D
100
AcDbXrecord
280
     1
270
     1
271
     1
  0
XRECORD
  5
993E
102
{ACAD_REACTORS
330
993D
102
}
330
993D
100
AcDbXrecord
280
     1
270
     1
271
     1
  0
XRECORD
  5
9942
102
{ACAD_REACTORS
330
993D
102
}
330
993D
100
AcDbXrecord
280
     1
270
     1
271
     1
  0
XRECORD
  5
9941
102
{ACAD_REACTORS
330
993D
102
}
330
993D
100
AcDbXrecord
280
     1
270
     1
271
     1
  0
XRECORD
  5
9943
102
{ACAD_REACTORS
330
993D
102
}
330
993D
100
AcDbXrecord
280
     1
270
     1
271
     1
  0
XRECORD
  5
9940
102
{ACAD_REACTORS
330
993D
102
}
330
993D
100
AcDbXrecord
280
     1
270
     1
271
     1
  0
XRECORD
  5
99AD
102
{ACAD_REACTORS
330
994D
102
}
330
994D
100
AcDbXrecord
280
     1
102
MATERIAL
148
0.0
149
0.0
149
0.0
 93
        0
 94
      127
282
     0
 72
     0
 77
     0
171
     0
175
     0
179
     0
273
     0
  0
XRECORD
  5
994F
102
{ACAD_REACTORS
330
994D
102
}
330
994D
100
AcDbXrecord
280
     1
270
     1
271
     1
  0
XRECORD
  5
994E
102
{ACAD_REACTORS
330
994D
102
}
330
994D
100
AcDbXrecord
280
     1
270
     1
271
     1
  0
XRECORD
  5
9952
102
{ACAD_REACTORS
330
994D
102
}
330
994D
100
AcDbXrecord
280
     1
270
     1
271
     1
  0
XRECORD
  5
9951
102
{ACAD_REACTORS
330
994D
102
}
330
994D
100
AcDbXrecord
280
     1
270
     1
271
     1
  0
XRECORD
  5
9953
102
{ACAD_REACTORS
330
994D
102
}
330
994D
100
AcDbXrecord
280
     1
270
     1
271
     1
  0
XRECORD
  5
9950
102
{ACAD_REACTORS
330
994D
102
}
330
994D
100
AcDbXrecord
280
     1
270
     1
271
     1
  0
XRECORD
  5
99E1
102
{ACAD_REACTORS
330
99E0
102
}
330
99E0
100
AcDbXrecord
280
     1
102
DISPLAYNAME
  1
Imperial24
102
FLAGS
 90
        0
  0
CELLSTYLEMAP
  5
99A8
102
{ACAD_REACTORS
330
99A7
102
}
330
99A7
100
AcDbCellStyleMap
 90
        3
300
CELLSTYLE
  1
TABLEFORMAT_BEGIN
 90
        5
170
     1
 91
        0
 92
    32768
 62
   257
 93
        1
300
CONTENTFORMAT
  1
CONTENTFORMAT_BEGIN
 90
        0
 91
        0
 92
      512
 93
        0
300

 40
0.0
140
1.0
 94
        5
 62
     0
340
9732
144
0.25
309
CONTENTFORMAT_END
171
     0
 94
        0
309
TABLEFORMAT_END
  1
CELLSTYLE_BEGIN
 90
        1
 91
        1
300
_TITLE
309
CELLSTYLE_END
300
CELLSTYLE
  1
TABLEFORMAT_BEGIN
 90
        5
170
     1
 91
        0
 92
        0
 62
   257
 93
        1
300
CONTENTFORMAT
  1
CONTENTFORMAT_BEGIN
 90
        0
 91
        0
 92
      512
 93
        0
300

 40
0.0
140
1.0
 94
        5
 62
     0
340
9732
144
0.18
309
CONTENTFORMAT_END
171
     0
 94
        0
309
TABLEFORMAT_END
  1
CELLSTYLE_BEGIN
 90
        2
 91
        1
300
_HEADER
309
CELLSTYLE_END
300
CELLSTYLE
  1
TABLEFORMAT_BEGIN
 90
        5
170
     1
 91
        0
 92
        0
 62
   257
 93
        1
300
CONTENTFORMAT
  1
CONTENTFORMAT_BEGIN
 90
        0
 91
        0
 92
      512
 93
        0
300

 40
0.0
140
1.0
 94
        2
 62
     0
340
9732
144
0.18
309
CONTENTFORMAT_END
171
     0
 94
        0
309
TABLEFORMAT_END
  1
CELLSTYLE_BEGIN
 90
        3
 91
        2
300
_DATA
309
CELLSTYLE_END
  0
XRECORD
  5
99DE
102
{ACAD_REACTORS
330
99A7
102
}
330
99A7
100
AcDbXrecord
280
     1
102
ACAD_ROUNDTRIP_PRE2007_TABLESTYLE
 90
      512
 91
        0
  1

 92
      512
 93
        0
  2

 94
      512
 95
        0
  3

  0
XRECORD
  5
99B9
102
{ACAD_REACTORS
330
99B8
102
}
330
99B8
100
AcDbXrecord
280
     1
102
RTVSPost2010Prop28
280
     1
102
RTVSPost2010PropOp28
 70
     1
102
RTVSPost2010Prop29
280
     1
102
RTVSPost2010PropOp29
 70
     1
102
RTVSPost2010Prop30
280
     0
102
RTVSPost2010PropOp30
 70
     1
102
RTVSPost2010Prop31
280
     0
102
RTVSPost2010PropOp31
 70
     1
102
RTVSPost2010Prop32
280
     0
102
RTVSPost2010PropOp32
 70
     1
102
RTVSPost2010Prop33
280
     0
102
RTVSPost2010PropOp33
 70
     1
102
RTVSPost2010Prop34
280
     0
102
RTVSPost2010PropOp34
 70
     1
102
RTVSPost2010Prop35
280
     0
102
RTVSPost2010PropOp35
 70
     1
102
RTVSPost2010Prop36
280
     0
102
RTVSPost2010PropOp36
 70
     1
102
RTVSPost2010Prop37
 90
       50
102
RTVSPost2010PropOp37
 70
     1
102
RTVSPost2010Prop38
140
0.0
102
RTVSPost2010PropOp38
 70
     1
102
RTVSPost2010Prop39
140
1.0
102
RTVSPost2010PropOp39
 70
     1
102
RTVSPost2010Prop40
 90
        0
102
RTVSPost2010PropOp40
 70
     1
102
RTVSPost2010Prop41ColorIndex
 90
       18
102
RTVSPost2010Prop41ColorRGB
 90
        0
102
RTVSPost2010PropOp41
 70
     1
102
RTVSPost2010Prop42
 90
       50
102
RTVSPost2010PropOp42
 70
     1
102
RTVSPost2010Prop43
 90
        3
102
RTVSPost2010PropOp43
 70
     1
102
RTVSPost2010Prop44ColorIndex
 90
        5
102
RTVSPost2010Prop44ColorRGB
 90
      255
102
RTVSPost2010PropOp44
 70
     1
102
RTVSPost2010Prop45
280
     0
102
RTVSPost2010PropOp45
 70
     1
102
RTVSPost2010Prop46
 90
       50
102
RTVSPost2010PropOp46
 70
     1
102
RTVSPost2010Prop47
 90
       50
102
RTVSPost2010PropOp47
 70
     1
102
RTVSPost2010Prop48
 90
       50
102
RTVSPost2010PropOp48
 70
     1
102
RTVSPost2010Prop49
280
     0
102
RTVSPost2010PropOp49
 70
     1
102
RTVSPost2010Prop50
 90
       50
102
RTVSPost2010PropOp50
 70
     1
102
RTVSPost2010Prop51ColorIndex
 90
      256
102
RTVSPost2010Prop51ColorRGB
 90
-16777216
102
RTVSPost2010PropOp51
 70
     0
102
RTVSPost2010Prop52
140
1.0
102
RTVSPost2010PropOp52
 70
     0
102
RTVSPost2010Prop53
 90
        2
102
RTVSPost2010PropOp53
 70
     1
102
RTVSPost2010Prop54
  1
strokes_ogs.tif
102
RTVSPost2010PropOp54
 70
     1
102
RTVSPost2010Prop55
280
     0
102
RTVSPost2010PropOp55
 70
     1
102
RTVSPost2010Prop56
140
1.0
102
RTVSPost2010PropOp56
 70
     1
102
RTVSPost2010Prop57
140
1.0
102
RTVSPost2010PropOp57
 70
     1
102
RTVSPropertyOp0
 70
     1
102
RTVSPropertyOp1
 70
     1
102
RTVSPropertyOp2
 70
     1
102
RTVSPropertyOp3
 70
     1
102
RTVSPropertyOp4
 70
     1
102
RTVSPropertyOp5
 70
     1
102
RTVSPropertyOp6
 70
     1
102
RTVSPropertyOp7
 70
     1
102
RTVSPropertyOp8
 70
     1
102
RTVSPropertyOp9
 70
     1
102
RTVSPropertyOp10
 70
     1
102
RTVSPropertyOp11
 70
     1
102
RTVSPropertyOp12
 70
     1
102
RTVSPropertyOp13
 70
     1
102
RTVSPropertyOp14
 70
     1
102
RTVSPropertyOp15
 70
     1
102
RTVSPropertyOp16
 70
     1
102
RTVSPropertyOp17
 70
     1
102
RTVSPropertyOp18
 70
     1
102
RTVSPropertyOp19
 70
     1
102
RTVSPropertyOp20
 70
     1
102
RTVSPropertyOp21
 70
     1
102
RTVSPropertyOp22
 70
     1
102
RTVSPropertyOp23
 70
     1
102
RTVSPropertyOp24
 70
     1
102
RTVSPropertyOp25
 70
     1
102
RTVSPropertyOp26
 70
     1
102
RTVSPropertyOp27
 70
     1
102
RTVSPropertyOp28
 70
     1
102
RTVSPropertyOp29
 70
     1
102
RTVSPropertyOp30
 70
     1
102
RTVSPropertyOp31
 70
     1
102
RTVSPropertyOp32
 70
     1
102
RTVSPropertyOp33
 70
     1
102
RTVSPropertyOp34
 70
     1
102
RTVSPropertyOp35
 70
     1
102
RTVSPropertyOp36
 70
     1
102
RTVSPropertyOp37
 70
     1
102
RTVSPropertyOp38
 70
     1
102
RTVSPropertyOp39
 70
     1
102
RTVSPropertyOp40
 70
     1
102
RTVSPropertyOp41
 70
     1
102
RTVSPropertyOp42
 70
     1
102
RTVSPropertyOp43
 70
     1
102
RTVSPropertyOp44
 70
     1
102
RTVSPropertyOp45
 70
     1
102
RTVSPropertyOp46
 70
     1
102
RTVSPropertyOp47
 70
     1
102
RTVSPropertyOp48
 70
     1
102
RTVSPropertyOp49
 70
     1
102
RTVSPropertyOp50
 70
     1
102
RTVSPropertyOp51
 70
     0
102
RTVSPropertyOp52
 70
     0
102
RTVSPropertyOp53
 70
     1
102
RTVSPropertyOp54
 70
     1
102
RTVSPropertyOp55
 70
     1
102
RTVSPropertyOp56
 70
     1
102
RTVSPropertyOp57
 70
     1
102
RTVSPropertyOp58
 70
     1
102
RTVSPropertyOp59
 70
     1
102
RTVSPropertyOp60
 70
     1
102
RTVSPropertyOp61
 70
     1
102
RTVSPropertyOp62
 70
     1
  0
XRECORD
  5
99B7
102
{ACAD_REACTORS
330
99B6
102
}
330
99B6
100
AcDbXrecord
280
     1
102
RTVSPost2010Prop28
280
     0
102
RTVSPost2010PropOp28
 70
     1
102
RTVSPost2010Prop29
280
     1
102
RTVSPost2010PropOp29
 70
     1
102
RTVSPost2010Prop30
280
     1
102
RTVSPost2010PropOp30
 70
     1
102
RTVSPost2010Prop31
280
     0
102
RTVSPost2010PropOp31
 70
     1
102
RTVSPost2010Prop32
280
     0
102
RTVSPost2010PropOp32
 70
     1
102
RTVSPost2010Prop33
280
     0
102
RTVSPost2010PropOp33
 70
     1
102
RTVSPost2010Prop34
280
     0
102
RTVSPost2010PropOp34
 70
     1
102
RTVSPost2010Prop35
280
     0
102
RTVSPost2010PropOp35
 70
     1
102
RTVSPost2010Prop36
280
     0
102
RTVSPost2010PropOp36
 70
     1
102
RTVSPost2010Prop37
 90
       50
102
RTVSPost2010PropOp37
 70
     1
102
RTVSPost2010Prop38
140
0.0
102
RTVSPost2010PropOp38
 70
     1
102
RTVSPost2010Prop39
140
1.0
102
RTVSPost2010PropOp39
 70
     1
102
RTVSPost2010Prop40
 90
        0
102
RTVSPost2010PropOp40
 70
     1
102
RTVSPost2010Prop41ColorIndex
 90
       18
102
RTVSPost2010Prop41ColorRGB
 90
        0
102
RTVSPost2010PropOp41
 70
     1
102
RTVSPost2010Prop42
 90
       50
102
RTVSPost2010PropOp42
 70
     1
102
RTVSPost2010Prop43
 90
        3
102
RTVSPost2010PropOp43
 70
     1
102
RTVSPost2010Prop44ColorIndex
 90
        5
102
RTVSPost2010Prop44ColorRGB
 90
      255
102
RTVSPost2010PropOp44
 70
     1
102
RTVSPost2010Prop45
280
     0
102
RTVSPost2010PropOp45
 70
     1
102
RTVSPost2010Prop46
 90
       50
102
RTVSPost2010PropOp46
 70
     1
102
RTVSPost2010Prop47
 90
       50
102
RTVSPost2010PropOp47
 70
     1
102
RTVSPost2010Prop48
 90
       50
102
RTVSPost2010PropOp48
 70
     1
102
RTVSPost2010Prop49
280
     0
102
RTVSPost2010PropOp49
 70
     1
102
RTVSPost2010Prop50
 90
       50
102
RTVSPost2010PropOp50
 70
     1
102
RTVSPost2010Prop51ColorIndex
 90
      256
102
RTVSPost2010Prop51ColorRGB
 90
-16777216
102
RTVSPost2010PropOp51
 70
     0
102
RTVSPost2010Prop52
140
1.0
102
RTVSPost2010PropOp52
 70
     0
102
RTVSPost2010Prop53
 90
        2
102
RTVSPost2010PropOp53
 70
     1
102
RTVSPost2010Prop54
  1
strokes_ogs.tif
102
RTVSPost2010PropOp54
 70
     1
102
RTVSPost2010Prop55
280
     0
102
RTVSPost2010PropOp55
 70
     1
102
RTVSPost2010Prop56
140
1.0
102
RTVSPost2010PropOp56
 70
     1
102
RTVSPost2010Prop57
140
1.0
102
RTVSPost2010PropOp57
 70
     1
102
RTVSPropertyOp0
 70
     1
102
RTVSPropertyOp1
 70
     1
102
RTVSPropertyOp2
 70
     1
102
RTVSPropertyOp3
 70
     1
102
RTVSPropertyOp4
 70
     1
102
RTVSPropertyOp5
 70
     1
102
RTVSPropertyOp6
 70
     1
102
RTVSPropertyOp7
 70
     1
102
RTVSPropertyOp8
 70
     1
102
RTVSPropertyOp9
 70
     1
102
RTVSPropertyOp10
 70
     1
102
RTVSPropertyOp11
 70
     1
102
RTVSPropertyOp12
 70
     1
102
RTVSPropertyOp13
 70
     1
102
RTVSPropertyOp14
 70
     1
102
RTVSPropertyOp15
 70
     1
102
RTVSPropertyOp16
 70
     1
102
RTVSPropertyOp17
 70
     1
102
RTVSPropertyOp18
 70
     1
102
RTVSPropertyOp19
 70
     1
102
RTVSPropertyOp20
 70
     1
102
RTVSPropertyOp21
 70
     1
102
RTVSPropertyOp22
 70
     1
102
RTVSPropertyOp23
 70
     1
102
RTVSPropertyOp24
 70
     1
102
RTVSPropertyOp25
 70
     1
102
RTVSPropertyOp26
 70
     1
102
RTVSPropertyOp27
 70
     1
102
RTVSPropertyOp28
 70
     1
102
RTVSPropertyOp29
 70
     1
102
RTVSPropertyOp30
 70
     1
102
RTVSPropertyOp31
 70
     1
102
RTVSPropertyOp32
 70
     1
102
RTVSPropertyOp33
 70
     1
102
RTVSPropertyOp34
 70
     1
102
RTVSPropertyOp35
 70
     1
102
RTVSPropertyOp36
 70
     1
102
RTVSPropertyOp37
 70
     1
102
RTVSPropertyOp38
 70
     1
102
RTVSPropertyOp39
 70
     1
102
RTVSPropertyOp40
 70
     1
102
RTVSPropertyOp41
 70
     1
102
RTVSPropertyOp42
 70
     1
102
RTVSPropertyOp43
 70
     1
102
RTVSPropertyOp44
 70
     1
102
RTVSPropertyOp45
 70
     1
102
RTVSPropertyOp46
 70
     1
102
RTVSPropertyOp47
 70
     1
102
RTVSPropertyOp48
 70
     1
102
RTVSPropertyOp49
 70
     1
102
RTVSPropertyOp50
 70
     1
102
RTVSPropertyOp51
 70
     0
102
RTVSPropertyOp52
 70
     0
102
RTVSPropertyOp53
 70
     1
102
RTVSPropertyOp54
 70
     1
102
RTVSPropertyOp55
 70
     1
102
RTVSPropertyOp56
 70
     1
102
RTVSPropertyOp57
 70
     1
102
RTVSPropertyOp58
 70
     1
102
RTVSPropertyOp59
 70
     1
102
RTVSPropertyOp60
 70
     1
102
RTVSPropertyOp61
 70
     1
102
RTVSPropertyOp62
 70
     1
  0
XRECORD
  5
99C5
102
{ACAD_REACTORS
330
99C4
102
}
330
99C4
100
AcDbXrecord
280
     1
102
RTVSPost2010Prop28
280
     0
102
RTVSPost2010PropOp28
 70
     1
102
RTVSPost2010Prop29
280
     1
102
RTVSPost2010PropOp29
 70
     1
102
RTVSPost2010Prop30
280
     1
102
RTVSPost2010PropOp30
 70
     1
102
RTVSPost2010Prop31
280
     0
102
RTVSPost2010PropOp31
 70
     1
102
RTVSPost2010Prop32
280
     0
102
RTVSPost2010PropOp32
 70
     1
102
RTVSPost2010Prop33
280
     0
102
RTVSPost2010PropOp33
 70
     1
102
RTVSPost2010Prop34
280
     0
102
RTVSPost2010PropOp34
 70
     1
102
RTVSPost2010Prop35
280
     0
102
RTVSPost2010PropOp35
 70
     1
102
RTVSPost2010Prop36
280
     0
102
RTVSPost2010PropOp36
 70
     1
102
RTVSPost2010Prop37
 90
       50
102
RTVSPost2010PropOp37
 70
     1
102
RTVSPost2010Prop38
140
0.0
102
RTVSPost2010PropOp38
 70
     1
102
RTVSPost2010Prop39
140
1.0
102
RTVSPost2010PropOp39
 70
     1
102
RTVSPost2010Prop40
 90
        0
102
RTVSPost2010PropOp40
 70
     1
102
RTVSPost2010Prop41ColorIndex
 90
       18
102
RTVSPost2010Prop41ColorRGB
 90
        0
102
RTVSPost2010PropOp41
 70
     1
102
RTVSPost2010Prop42
 90
       50
102
RTVSPost2010PropOp42
 70
     1
102
RTVSPost2010Prop43
 90
        3
102
RTVSPost2010PropOp43
 70
     1
102
RTVSPost2010Prop44ColorIndex
 90
        5
102
RTVSPost2010Prop44ColorRGB
 90
      255
102
RTVSPost2010PropOp44
 70
     1
102
RTVSPost2010Prop45
280
     0
102
RTVSPost2010PropOp45
 70
     1
102
RTVSPost2010Prop46
 90
       50
102
RTVSPost2010PropOp46
 70
     1
102
RTVSPost2010Prop47
 90
       50
102
RTVSPost2010PropOp47
 70
     1
102
RTVSPost2010Prop48
 90
       50
102
RTVSPost2010PropOp48
 70
     1
102
RTVSPost2010Prop49
280
     0
102
RTVSPost2010PropOp49
 70
     1
102
RTVSPost2010Prop50
 90
       50
102
RTVSPost2010PropOp50
 70
     1
102
RTVSPost2010Prop51ColorIndex
 90
      256
102
RTVSPost2010Prop51ColorRGB
 90
-16777216
102
RTVSPost2010PropOp51
 70
     0
102
RTVSPost2010Prop52
140
1.0
102
RTVSPost2010PropOp52
 70
     0
102
RTVSPost2010Prop53
 90
        2
102
RTVSPost2010PropOp53
 70
     1
102
RTVSPost2010Prop54
  1
strokes_ogs.tif
102
RTVSPost2010PropOp54
 70
     1
102
RTVSPost2010Prop55
280
     0
102
RTVSPost2010PropOp55
 70
     1
102
RTVSPost2010Prop56
140
1.0
102
RTVSPost2010PropOp56
 70
     1
102
RTVSPost2010Prop57
140
1.0
102
RTVSPost2010PropOp57
 70
     1
102
RTVSPropertyOp0
 70
     1
102
RTVSPropertyOp1
 70
     1
102
RTVSPropertyOp2
 70
     1
102
RTVSPropertyOp3
 70
     1
102
RTVSPropertyOp4
 70
     1
102
RTVSPropertyOp5
 70
     1
102
RTVSPropertyOp6
 70
     1
102
RTVSPropertyOp7
 70
     1
102
RTVSPropertyOp8
 70
     1
102
RTVSPropertyOp9
 70
     1
102
RTVSPropertyOp10
 70
     1
102
RTVSPropertyOp11
 70
     1
102
RTVSPropertyOp12
 70
     1
102
RTVSPropertyOp13
 70
     1
102
RTVSPropertyOp14
 70
     1
102
RTVSPropertyOp15
 70
     1
102
RTVSPropertyOp16
 70
     1
102
RTVSPropertyOp17
 70
     1
102
RTVSPropertyOp18
 70
     1
102
RTVSPropertyOp19
 70
     1
102
RTVSPropertyOp20
 70
     1
102
RTVSPropertyOp21
 70
     1
102
RTVSPropertyOp22
 70
     1
102
RTVSPropertyOp23
 70
     1
102
RTVSPropertyOp24
 70
     1
102
RTVSPropertyOp25
 70
     1
102
RTVSPropertyOp26
 70
     1
102
RTVSPropertyOp27
 70
     1
102
RTVSPropertyOp28
 70
     1
102
RTVSPropertyOp29
 70
     1
102
RTVSPropertyOp30
 70
     1
102
RTVSPropertyOp31
 70
     1
102
RTVSPropertyOp32
 70
     1
102
RTVSPropertyOp33
 70
     1
102
RTVSPropertyOp34
 70
     1
102
RTVSPropertyOp35
 70
     1
102
RTVSPropertyOp36
 70
     1
102
RTVSPropertyOp37
 70
     1
102
RTVSPropertyOp38
 70
     1
102
RTVSPropertyOp39
 70
     1
102
RTVSPropertyOp40
 70
     1
102
RTVSPropertyOp41
 70
     1
102
RTVSPropertyOp42
 70
     1
102
RTVSPropertyOp43
 70
     1
102
RTVSPropertyOp44
 70
     1
102
RTVSPropertyOp45
 70
     1
102
RTVSPropertyOp46
 70
     1
102
RTVSPropertyOp47
 70
     1
102
RTVSPropertyOp48
 70
     1
102
RTVSPropertyOp49
 70
     1
102
RTVSPropertyOp50
 70
     1
102
RTVSPropertyOp51
 70
     0
102
RTVSPropertyOp52
 70
     0
102
RTVSPropertyOp53
 70
     1
102
RTVSPropertyOp54
 70
     1
102
RTVSPropertyOp55
 70
     1
102
RTVSPropertyOp56
 70
     1
102
RTVSPropertyOp57
 70
     1
102
RTVSPropertyOp58
 70
     1
102
RTVSPropertyOp59
 70
     1
102
RTVSPropertyOp60
 70
     1
102
RTVSPropertyOp61
 70
     1
102
RTVSPropertyOp62
 70
     1
  0
XRECORD
  5
99CD
102
{ACAD_REACTORS
330
99CC
102
}
330
99CC
100
AcDbXrecord
280
     1
102
RTVSPost2010Prop28
280
     0
102
RTVSPost2010PropOp28
 70
     1
102
RTVSPost2010Prop29
280
     1
102
RTVSPost2010PropOp29
 70
     1
102
RTVSPost2010Prop30
280
     1
102
RTVSPost2010PropOp30
 70
     1
102
RTVSPost2010Prop31
280
     0
102
RTVSPost2010PropOp31
 70
     1
102
RTVSPost2010Prop32
280
     0
102
RTVSPost2010PropOp32
 70
     1
102
RTVSPost2010Prop33
280
     0
102
RTVSPost2010PropOp33
 70
     1
102
RTVSPost2010Prop34
280
     0
102
RTVSPost2010PropOp34
 70
     1
102
RTVSPost2010Prop35
280
     0
102
RTVSPost2010PropOp35
 70
     1
102
RTVSPost2010Prop36
280
     0
102
RTVSPost2010PropOp36
 70
     1
102
RTVSPost2010Prop37
 90
       50
102
RTVSPost2010PropOp37
 70
     1
102
RTVSPost2010Prop38
140
0.0
102
RTVSPost2010PropOp38
 70
     1
102
RTVSPost2010Prop39
140
1.0
102
RTVSPost2010PropOp39
 70
     1
102
RTVSPost2010Prop40
 90
        0
102
RTVSPost2010PropOp40
 70
     1
102
RTVSPost2010Prop41ColorIndex
 90
       18
102
RTVSPost2010Prop41ColorRGB
 90
        0
102
RTVSPost2010PropOp41
 70
     1
102
RTVSPost2010Prop42
 90
       50
102
RTVSPost2010PropOp42
 70
     1
102
RTVSPost2010Prop43
 90
        3
102
RTVSPost2010PropOp43
 70
     1
102
RTVSPost2010Prop44ColorIndex
 90
        5
102
RTVSPost2010Prop44ColorRGB
 90
      255
102
RTVSPost2010PropOp44
 70
     1
102
RTVSPost2010Prop45
280
     0
102
RTVSPost2010PropOp45
 70
     1
102
RTVSPost2010Prop46
 90
       50
102
RTVSPost2010PropOp46
 70
     1
102
RTVSPost2010Prop47
 90
       50
102
RTVSPost2010PropOp47
 70
     1
102
RTVSPost2010Prop48
 90
       50
102
RTVSPost2010PropOp48
 70
     1
102
RTVSPost2010Prop49
280
     0
102
RTVSPost2010PropOp49
 70
     1
102
RTVSPost2010Prop50
 90
       50
102
RTVSPost2010PropOp50
 70
     1
102
RTVSPost2010Prop51ColorIndex
 90
      256
102
RTVSPost2010Prop51ColorRGB
 90
-16777216
102
RTVSPost2010PropOp51
 70
     0
102
RTVSPost2010Prop52
140
1.0
102
RTVSPost2010PropOp52
 70
     0
102
RTVSPost2010Prop53
 90
        2
102
RTVSPost2010PropOp53
 70
     1
102
RTVSPost2010Prop54
  1
strokes_ogs.tif
102
RTVSPost2010PropOp54
 70
     1
102
RTVSPost2010Prop55
280
     0
102
RTVSPost2010PropOp55
 70
     1
102
RTVSPost2010Prop56
140
1.0
102
RTVSPost2010PropOp56
 70
     1
102
RTVSPost2010Prop57
140
1.0
102
RTVSPost2010PropOp57
 70
     1
102
RTVSPropertyOp0
 70
     1
102
RTVSPropertyOp1
 70
     1
102
RTVSPropertyOp2
 70
     1
102
RTVSPropertyOp3
 70
     1
102
RTVSPropertyOp4
 70
     1
102
RTVSPropertyOp5
 70
     1
102
RTVSPropertyOp6
 70
     1
102
RTVSPropertyOp7
 70
     1
102
RTVSPropertyOp8
 70
     1
102
RTVSPropertyOp9
 70
     1
102
RTVSPropertyOp10
 70
     1
102
RTVSPropertyOp11
 70
     1
102
RTVSPropertyOp12
 70
     1
102
RTVSPropertyOp13
 70
     1
102
RTVSPropertyOp14
 70
     1
102
RTVSPropertyOp15
 70
     1
102
RTVSPropertyOp16
 70
     1
102
RTVSPropertyOp17
 70
     1
102
RTVSPropertyOp18
 70
     1
102
RTVSPropertyOp19
 70
     1
102
RTVSPropertyOp20
 70
     1
102
RTVSPropertyOp21
 70
     1
102
RTVSPropertyOp22
 70
     1
102
RTVSPropertyOp23
 70
     1
102
RTVSPropertyOp24
 70
     1
102
RTVSPropertyOp25
 70
     1
102
RTVSPropertyOp26
 70
     1
102
RTVSPropertyOp27
 70
     1
102
RTVSPropertyOp28
 70
     1
102
RTVSPropertyOp29
 70
     1
102
RTVSPropertyOp30
 70
     1
102
RTVSPropertyOp31
 70
     1
102
RTVSPropertyOp32
 70
     1
102
RTVSPropertyOp33
 70
     1
102
RTVSPropertyOp34
 70
     1
102
RTVSPropertyOp35
 70
     1
102
RTVSPropertyOp36
 70
     1
102
RTVSPropertyOp37
 70
     1
102
RTVSPropertyOp38
 70
     1
102
RTVSPropertyOp39
 70
     1
102
RTVSPropertyOp40
 70
     1
102
RTVSPropertyOp41
 70
     1
102
RTVSPropertyOp42
 70
     1
102
RTVSPropertyOp43
 70
     1
102
RTVSPropertyOp44
 70
     1
102
RTVSPropertyOp45
 70
     1
102
RTVSPropertyOp46
 70
     1
102
RTVSPropertyOp47
 70
     1
102
RTVSPropertyOp48
 70
     1
102
RTVSPropertyOp49
 70
     1
102
RTVSPropertyOp50
 70
     1
102
RTVSPropertyOp51
 70
     0
102
RTVSPropertyOp52
 70
     0
102
RTVSPropertyOp53
 70
     1
102
RTVSPropertyOp54
 70
     1
102
RTVSPropertyOp55
 70
     1
102
RTVSPropertyOp56
 70
     1
102
RTVSPropertyOp57
 70
     1
102
RTVSPropertyOp58
 70
     1
102
RTVSPropertyOp59
 70
     1
102
RTVSPropertyOp60
 70
     1
102
RTVSPropertyOp61
 70
     1
102
RTVSPropertyOp62
 70
     1
  0
XRECORD
  5
99BF
102
{ACAD_REACTORS
330
99BE
102
}
330
99BE
100
AcDbXrecord
280
     1
102
RTVSPost2010Prop28
280
     0
102
RTVSPost2010PropOp28
 70
     1
102
RTVSPost2010Prop29
280
     1
102
RTVSPost2010PropOp29
 70
     1
102
RTVSPost2010Prop30
280
     1
102
RTVSPost2010PropOp30
 70
     1
102
RTVSPost2010Prop31
280
     0
102
RTVSPost2010PropOp31
 70
     1
102
RTVSPost2010Prop32
280
     0
102
RTVSPost2010PropOp32
 70
     1
102
RTVSPost2010Prop33
280
     0
102
RTVSPost2010PropOp33
 70
     1
102
RTVSPost2010Prop34
280
     0
102
RTVSPost2010PropOp34
 70
     1
102
RTVSPost2010Prop35
280
     0
102
RTVSPost2010PropOp35
 70
     1
102
RTVSPost2010Prop36
280
     0
102
RTVSPost2010PropOp36
 70
     1
102
RTVSPost2010Prop37
 90
       50
102
RTVSPost2010PropOp37
 70
     1
102
RTVSPost2010Prop38
140
0.0
102
RTVSPost2010PropOp38
 70
     1
102
RTVSPost2010Prop39
140
1.0
102
RTVSPost2010PropOp39
 70
     1
102
RTVSPost2010Prop40
 90
        0
102
RTVSPost2010PropOp40
 70
     1
102
RTVSPost2010Prop41ColorIndex
 90
       18
102
RTVSPost2010Prop41ColorRGB
 90
        0
102
RTVSPost2010PropOp41
 70
     1
102
RTVSPost2010Prop42
 90
       50
102
RTVSPost2010PropOp42
 70
     1
102
RTVSPost2010Prop43
 90
        3
102
RTVSPost2010PropOp43
 70
     1
102
RTVSPost2010Prop44ColorIndex
 90
        5
102
RTVSPost2010Prop44ColorRGB
 90
      255
102
RTVSPost2010PropOp44
 70
     1
102
RTVSPost2010Prop45
280
     0
102
RTVSPost2010PropOp45
 70
     1
102
RTVSPost2010Prop46
 90
       50
102
RTVSPost2010PropOp46
 70
     1
102
RTVSPost2010Prop47
 90
       50
102
RTVSPost2010PropOp47
 70
     1
102
RTVSPost2010Prop48
 90
       50
102
RTVSPost2010PropOp48
 70
     1
102
RTVSPost2010Prop49
280
     0
102
RTVSPost2010PropOp49
 70
     1
102
RTVSPost2010Prop50
 90
       50
102
RTVSPost2010PropOp50
 70
     1
102
RTVSPost2010Prop51ColorIndex
 90
      256
102
RTVSPost2010Prop51ColorRGB
 90
-16777216
102
RTVSPost2010PropOp51
 70
     0
102
RTVSPost2010Prop52
140
1.0
102
RTVSPost2010PropOp52
 70
     0
102
RTVSPost2010Prop53
 90
        2
102
RTVSPost2010PropOp53
 70
     1
102
RTVSPost2010Prop54
  1
strokes_ogs.tif
102
RTVSPost2010PropOp54
 70
     1
102
RTVSPost2010Prop55
280
     0
102
RTVSPost2010PropOp55
 70
     1
102
RTVSPost2010Prop56
140
1.0
102
RTVSPost2010PropOp56
 70
     1
102
RTVSPost2010Prop57
140
1.0
102
RTVSPost2010PropOp57
 70
     1
102
RTVSPropertyOp0
 70
     1
102
RTVSPropertyOp1
 70
     1
102
RTVSPropertyOp2
 70
     1
102
RTVSPropertyOp3
 70
     1
102
RTVSPropertyOp4
 70
     1
102
RTVSPropertyOp5
 70
     1
102
RTVSPropertyOp6
 70
     1
102
RTVSPropertyOp7
 70
     1
102
RTVSPropertyOp8
 70
     1
102
RTVSPropertyOp9
 70
     1
102
RTVSPropertyOp10
 70
     1
102
RTVSPropertyOp11
 70
     1
102
RTVSPropertyOp12
 70
     1
102
RTVSPropertyOp13
 70
     1
102
RTVSPropertyOp14
 70
     1
102
RTVSPropertyOp15
 70
     1
102
RTVSPropertyOp16
 70
     1
102
RTVSPropertyOp17
 70
     1
102
RTVSPropertyOp18
 70
     1
102
RTVSPropertyOp19
 70
     1
102
RTVSPropertyOp20
 70
     1
102
RTVSPropertyOp21
 70
     1
102
RTVSPropertyOp22
 70
     1
102
RTVSPropertyOp23
 70
     1
102
RTVSPropertyOp24
 70
     1
102
RTVSPropertyOp25
 70
     1
102
RTVSPropertyOp26
 70
     1
102
RTVSPropertyOp27
 70
     1
102
RTVSPropertyOp28
 70
     1
102
RTVSPropertyOp29
 70
     1
102
RTVSPropertyOp30
 70
     1
102
RTVSPropertyOp31
 70
     1
102
RTVSPropertyOp32
 70
     1
102
RTVSPropertyOp33
 70
     1
102
RTVSPropertyOp34
 70
     1
102
RTVSPropertyOp35
 70
     1
102
RTVSPropertyOp36
 70
     1
102
RTVSPropertyOp37
 70
     1
102
RTVSPropertyOp38
 70
     1
102
RTVSPropertyOp39
 70
     1
102
RTVSPropertyOp40
 70
     1
102
RTVSPropertyOp41
 70
     1
102
RTVSPropertyOp42
 70
     1
102
RTVSPropertyOp43
 70
     1
102
RTVSPropertyOp44
 70
     1
102
RTVSPropertyOp45
 70
     1
102
RTVSPropertyOp46
 70
     1
102
RTVSPropertyOp47
 70
     1
102
RTVSPropertyOp48
 70
     1
102
RTVSPropertyOp49
 70
     1
102
RTVSPropertyOp50
 70
     1
102
RTVSPropertyOp51
 70
     0
102
RTVSPropertyOp52
 70
     0
102
RTVSPropertyOp53
 70
     1
102
RTVSPropertyOp54
 70
     1
102
RTVSPropertyOp55
 70
     1
102
RTVSPropertyOp56
 70
     1
102
RTVSPropertyOp57
 70
     1
102
RTVSPropertyOp58
 70
     1
102
RTVSPropertyOp59
 70
     1
102
RTVSPropertyOp60
 70
     1
102
RTVSPropertyOp61
 70
     1
102
RTVSPropertyOp62
 70
     1
  0
XRECORD
  5
99C3
102
{ACAD_REACTORS
330
99C2
102
}
330
99C2
100
AcDbXrecord
280
     1
102
RTVSPost2010Prop28
280
     0
102
RTVSPost2010PropOp28
 70
     1
102
RTVSPost2010Prop29
280
     1
102
RTVSPost2010PropOp29
 70
     1
102
RTVSPost2010Prop30
280
     1
102
RTVSPost2010PropOp30
 70
     1
102
RTVSPost2010Prop31
280
     0
102
RTVSPost2010PropOp31
 70
     1
102
RTVSPost2010Prop32
280
     0
102
RTVSPost2010PropOp32
 70
     1
102
RTVSPost2010Prop33
280
     0
102
RTVSPost2010PropOp33
 70
     1
102
RTVSPost2010Prop34
280
     0
102
RTVSPost2010PropOp34
 70
     1
102
RTVSPost2010Prop35
280
     0
102
RTVSPost2010PropOp35
 70
     1
102
RTVSPost2010Prop36
280
     0
102
RTVSPost2010PropOp36
 70
     1
102
RTVSPost2010Prop37
 90
       50
102
RTVSPost2010PropOp37
 70
     1
102
RTVSPost2010Prop38
140
0.0
102
RTVSPost2010PropOp38
 70
     1
102
RTVSPost2010Prop39
140
1.0
102
RTVSPost2010PropOp39
 70
     1
102
RTVSPost2010Prop40
 90
        0
102
RTVSPost2010PropOp40
 70
     1
102
RTVSPost2010Prop41ColorIndex
 90
       18
102
RTVSPost2010Prop41ColorRGB
 90
        0
102
RTVSPost2010PropOp41
 70
     1
102
RTVSPost2010Prop42
 90
       50
102
RTVSPost2010PropOp42
 70
     1
102
RTVSPost2010Prop43
 90
        3
102
RTVSPost2010PropOp43
 70
     1
102
RTVSPost2010Prop44ColorIndex
 90
        5
102
RTVSPost2010Prop44ColorRGB
 90
      255
102
RTVSPost2010PropOp44
 70
     1
102
RTVSPost2010Prop45
280
     0
102
RTVSPost2010PropOp45
 70
     1
102
RTVSPost2010Prop46
 90
       50
102
RTVSPost2010PropOp46
 70
     1
102
RTVSPost2010Prop47
 90
       50
102
RTVSPost2010PropOp47
 70
     1
102
RTVSPost2010Prop48
 90
       50
102
RTVSPost2010PropOp48
 70
     1
102
RTVSPost2010Prop49
280
     0
102
RTVSPost2010PropOp49
 70
     1
102
RTVSPost2010Prop50
 90
       50
102
RTVSPost2010PropOp50
 70
     1
102
RTVSPost2010Prop51ColorIndex
 90
      256
102
RTVSPost2010Prop51ColorRGB
 90
-16777216
102
RTVSPost2010PropOp51
 70
     0
102
RTVSPost2010Prop52
140
1.0
102
RTVSPost2010PropOp52
 70
     0
102
RTVSPost2010Prop53
 90
        2
102
RTVSPost2010PropOp53
 70
     1
102
RTVSPost2010Prop54
  1
strokes_ogs.tif
102
RTVSPost2010PropOp54
 70
     1
102
RTVSPost2010Prop55
280
     0
102
RTVSPost2010PropOp55
 70
     1
102
RTVSPost2010Prop56
140
1.0
102
RTVSPost2010PropOp56
 70
     1
102
RTVSPost2010Prop57
140
1.0
102
RTVSPost2010PropOp57
 70
     1
102
RTVSPropertyOp0
 70
     1
102
RTVSPropertyOp1
 70
     1
102
RTVSPropertyOp2
 70
     1
102
RTVSPropertyOp3
 70
     1
102
RTVSPropertyOp4
 70
     1
102
RTVSPropertyOp5
 70
     1
102
RTVSPropertyOp6
 70
     1
102
RTVSPropertyOp7
 70
     1
102
RTVSPropertyOp8
 70
     1
102
RTVSPropertyOp9
 70
     1
102
RTVSPropertyOp10
 70
     1
102
RTVSPropertyOp11
 70
     1
102
RTVSPropertyOp12
 70
     1
102
RTVSPropertyOp13
 70
     1
102
RTVSPropertyOp14
 70
     1
102
RTVSPropertyOp15
 70
     1
102
RTVSPropertyOp16
 70
     1
102
RTVSPropertyOp17
 70
     1
102
RTVSPropertyOp18
 70
     1
102
RTVSPropertyOp19
 70
     1
102
RTVSPropertyOp20
 70
     1
102
RTVSPropertyOp21
 70
     1
102
RTVSPropertyOp22
 70
     1
102
RTVSPropertyOp23
 70
     1
102
RTVSPropertyOp24
 70
     1
102
RTVSPropertyOp25
 70
     1
102
RTVSPropertyOp26
 70
     1
102
RTVSPropertyOp27
 70
     1
102
RTVSPropertyOp28
 70
     1
102
RTVSPropertyOp29
 70
     1
102
RTVSPropertyOp30
 70
     1
102
RTVSPropertyOp31
 70
     1
102
RTVSPropertyOp32
 70
     1
102
RTVSPropertyOp33
 70
     1
102
RTVSPropertyOp34
 70
     1
102
RTVSPropertyOp35
 70
     1
102
RTVSPropertyOp36
 70
     1
102
RTVSPropertyOp37
 70
     1
102
RTVSPropertyOp38
 70
     1
102
RTVSPropertyOp39
 70
     1
102
RTVSPropertyOp40
 70
     1
102
RTVSPropertyOp41
 70
     1
102
RTVSPropertyOp42
 70
     1
102
RTVSPropertyOp43
 70
     1
102
RTVSPropertyOp44
 70
     1
102
RTVSPropertyOp45
 70
     1
102
RTVSPropertyOp46
 70
     1
102
RTVSPropertyOp47
 70
     1
102
RTVSPropertyOp48
 70
     1
102
RTVSPropertyOp49
 70
     1
102
RTVSPropertyOp50
 70
     1
102
RTVSPropertyOp51
 70
     0
102
RTVSPropertyOp52
 70
     0
102
RTVSPropertyOp53
 70
     1
102
RTVSPropertyOp54
 70
     1
102
RTVSPropertyOp55
 70
     1
102
RTVSPropertyOp56
 70
     1
102
RTVSPropertyOp57
 70
     1
102
RTVSPropertyOp58
 70
     1
102
RTVSPropertyOp59
 70
     1
102
RTVSPropertyOp60
 70
     1
102
RTVSPropertyOp61
 70
     1
102
RTVSPropertyOp62
 70
     1
  0
XRECORD
  5
99DD
102
{ACAD_REACTORS
330
99DC
102
}
330
99DC
100
AcDbXrecord
280
     1
102
RTVSPost2010Prop28
280
     0
102
RTVSPost2010PropOp28
 70
     1
102
RTVSPost2010Prop29
280
     1
102
RTVSPost2010PropOp29
 70
     1
102
RTVSPost2010Prop30
280
     1
102
RTVSPost2010PropOp30
 70
     1
102
RTVSPost2010Prop31
280
     0
102
RTVSPost2010PropOp31
 70
     1
102
RTVSPost2010Prop32
280
     0
102
RTVSPost2010PropOp32
 70
     1
102
RTVSPost2010Prop33
280
     0
102
RTVSPost2010PropOp33
 70
     1
102
RTVSPost2010Prop34
280
     0
102
RTVSPost2010PropOp34
 70
     1
102
RTVSPost2010Prop35
280
     0
102
RTVSPost2010PropOp35
 70
     1
102
RTVSPost2010Prop36
280
     0
102
RTVSPost2010PropOp36
 70
     1
102
RTVSPost2010Prop37
 90
       50
102
RTVSPost2010PropOp37
 70
     0
102
RTVSPost2010Prop38
140
0.0
102
RTVSPost2010PropOp38
 70
     0
102
RTVSPost2010Prop39
140
1.0
102
RTVSPost2010PropOp39
 70
     0
102
RTVSPost2010Prop40
 90
        0
102
RTVSPost2010PropOp40
 70
     0
102
RTVSPost2010Prop41ColorIndex
 90
       18
102
RTVSPost2010Prop41ColorRGB
 90
        0
102
RTVSPost2010PropOp41
 70
     0
102
RTVSPost2010Prop42
 90
       50
102
RTVSPost2010PropOp42
 70
     0
102
RTVSPost2010Prop43
 90
        3
102
RTVSPost2010PropOp43
 70
     0
102
RTVSPost2010Prop44ColorIndex
 90
        5
102
RTVSPost2010Prop44ColorRGB
 90
      255
102
RTVSPost2010PropOp44
 70
     0
102
RTVSPost2010Prop45
280
     0
102
RTVSPost2010PropOp45
 70
     1
102
RTVSPost2010Prop46
 90
       50
102
RTVSPost2010PropOp46
 70
     0
102
RTVSPost2010Prop47
 90
       50
102
RTVSPost2010PropOp47
 70
     0
102
RTVSPost2010Prop48
 90
       50
102
RTVSPost2010PropOp48
 70
     0
102
RTVSPost2010Prop49
280
     0
102
RTVSPost2010PropOp49
 70
     1
102
RTVSPost2010Prop50
 90
       50
102
RTVSPost2010PropOp50
 70
     0
102
RTVSPost2010Prop51ColorIndex
 90
      256
102
RTVSPost2010Prop51ColorRGB
 90
-16777216
102
RTVSPost2010PropOp51
 70
     0
102
RTVSPost2010Prop52
140
1.0
102
RTVSPost2010PropOp52
 70
     0
102
RTVSPost2010Prop53
 90
        2
102
RTVSPost2010PropOp53
 70
     0
102
RTVSPost2010Prop54
  1
strokes_ogs.tif
102
RTVSPost2010PropOp54
 70
     0
102
RTVSPost2010Prop55
280
     0
102
RTVSPost2010PropOp55
 70
     1
102
RTVSPost2010Prop56
140
1.0
102
RTVSPost2010PropOp56
 70
     0
102
RTVSPost2010Prop57
140
1.0
102
RTVSPost2010PropOp57
 70
     0
102
RTVSPropertyOp0
 70
     0
102
RTVSPropertyOp1
 70
     0
102
RTVSPropertyOp2
 70
     0
102
RTVSPropertyOp3
 70
     0
102
RTVSPropertyOp4
 70
     0
102
RTVSPropertyOp5
 70
     0
102
RTVSPropertyOp6
 70
     0
102
RTVSPropertyOp7
 70
     0
102
RTVSPropertyOp8
 70
     0
102
RTVSPropertyOp9
 70
     0
102
RTVSPropertyOp10
 70
     0
102
RTVSPropertyOp11
 70
     0
102
RTVSPropertyOp12
 70
     0
102
RTVSPropertyOp13
 70
     0
102
RTVSPropertyOp14
 70
     2
102
RTVSPropertyOp15
 70
     0
102
RTVSPropertyOp16
 70
     0
102
RTVSPropertyOp17
 70
     0
102
RTVSPropertyOp18
 70
     0
102
RTVSPropertyOp19
 70
     0
102
RTVSPropertyOp20
 70
     0
102
RTVSPropertyOp21
 70
     0
102
RTVSPropertyOp22
 70
     0
102
RTVSPropertyOp23
 70
     0
102
RTVSPropertyOp24
 70
     0
102
RTVSPropertyOp25
 70
     0
102
RTVSPropertyOp26
 70
     0
102
RTVSPropertyOp27
 70
     0
102
RTVSPropertyOp28
 70
     1
102
RTVSPropertyOp29
 70
     1
102
RTVSPropertyOp30
 70
     1
102
RTVSPropertyOp31
 70
     1
102
RTVSPropertyOp32
 70
     1
102
RTVSPropertyOp33
 70
     1
102
RTVSPropertyOp34
 70
     1
102
RTVSPropertyOp35
 70
     1
102
RTVSPropertyOp36
 70
     1
102
RTVSPropertyOp37
 70
     0
102
RTVSPropertyOp38
 70
     0
102
RTVSPropertyOp39
 70
     0
102
RTVSPropertyOp40
 70
     0
102
RTVSPropertyOp41
 70
     0
102
RTVSPropertyOp42
 70
     0
102
RTVSPropertyOp43
 70
     0
102
RTVSPropertyOp44
 70
     0
102
RTVSPropertyOp45
 70
     1
102
RTVSPropertyOp46
 70
     0
102
RTVSPropertyOp47
 70
     0
102
RTVSPropertyOp48
 70
     0
102
RTVSPropertyOp49
 70
     1
102
RTVSPropertyOp50
 70
     0
102
RTVSPropertyOp51
 70
     0
102
RTVSPropertyOp52
 70
     0
102
RTVSPropertyOp53
 70
     0
102
RTVSPropertyOp54
 70
     0
102
RTVSPropertyOp55
 70
     1
102
RTVSPropertyOp56
 70
     0
102
RTVSPropertyOp57
 70
     0
102
RTVSPropertyOp58
 70
     0
102
RTVSPropertyOp59
 70
     0
102
RTVSPropertyOp60
 70
     0
102
RTVSPropertyOp61
 70
     0
102
RTVSPropertyOp62
 70
     0
  0
XRECORD
  5
99CB
102
{ACAD_REACTORS
330
99CA
102
}
330
99CA
100
AcDbXrecord
280
     1
102
RTVSPost2010Prop28
280
     0
102
RTVSPost2010PropOp28
 70
     1
102
RTVSPost2010Prop29
280
     1
102
RTVSPost2010PropOp29
 70
     1
102
RTVSPost2010Prop30
280
     1
102
RTVSPost2010PropOp30
 70
     1
102
RTVSPost2010Prop31
280
     0
102
RTVSPost2010PropOp31
 70
     1
102
RTVSPost2010Prop32
280
     0
102
RTVSPost2010PropOp32
 70
     1
102
RTVSPost2010Prop33
280
     0
102
RTVSPost2010PropOp33
 70
     1
102
RTVSPost2010Prop34
280
     0
102
RTVSPost2010PropOp34
 70
     1
102
RTVSPost2010Prop35
280
     0
102
RTVSPost2010PropOp35
 70
     1
102
RTVSPost2010Prop36
280
     0
102
RTVSPost2010PropOp36
 70
     1
102
RTVSPost2010Prop37
 90
       50
102
RTVSPost2010PropOp37
 70
     1
102
RTVSPost2010Prop38
140
0.0
102
RTVSPost2010PropOp38
 70
     1
102
RTVSPost2010Prop39
140
1.0
102
RTVSPost2010PropOp39
 70
     1
102
RTVSPost2010Prop40
 90
        0
102
RTVSPost2010PropOp40
 70
     1
102
RTVSPost2010Prop41ColorIndex
 90
       18
102
RTVSPost2010Prop41ColorRGB
 90
        0
102
RTVSPost2010PropOp41
 70
     1
102
RTVSPost2010Prop42
 90
       50
102
RTVSPost2010PropOp42
 70
     1
102
RTVSPost2010Prop43
 90
        3
102
RTVSPost2010PropOp43
 70
     1
102
RTVSPost2010Prop44ColorIndex
 90
        5
102
RTVSPost2010Prop44ColorRGB
 90
      255
102
RTVSPost2010PropOp44
 70
     1
102
RTVSPost2010Prop45
280
     0
102
RTVSPost2010PropOp45
 70
     1
102
RTVSPost2010Prop46
 90
       50
102
RTVSPost2010PropOp46
 70
     1
102
RTVSPost2010Prop47
 90
       50
102
RTVSPost2010PropOp47
 70
     1
102
RTVSPost2010Prop48
 90
       50
102
RTVSPost2010PropOp48
 70
     1
102
RTVSPost2010Prop49
280
     0
102
RTVSPost2010PropOp49
 70
     1
102
RTVSPost2010Prop50
 90
       50
102
RTVSPost2010PropOp50
 70
     1
102
RTVSPost2010Prop51ColorIndex
 90
      256
102
RTVSPost2010Prop51ColorRGB
 90
-16777216
102
RTVSPost2010PropOp51
 70
     0
102
RTVSPost2010Prop52
140
1.0
102
RTVSPost2010PropOp52
 70
     0
102
RTVSPost2010Prop53
 90
        2
102
RTVSPost2010PropOp53
 70
     1
102
RTVSPost2010Prop54
  1
strokes_ogs.tif
102
RTVSPost2010PropOp54
 70
     1
102
RTVSPost2010Prop55
280
     0
102
RTVSPost2010PropOp55
 70
     1
102
RTVSPost2010Prop56
140
1.0
102
RTVSPost2010PropOp56
 70
     1
102
RTVSPost2010Prop57
140
1.0
102
RTVSPost2010PropOp57
 70
     1
102
RTVSPropertyOp0
 70
     1
102
RTVSPropertyOp1
 70
     1
102
RTVSPropertyOp2
 70
     1
102
RTVSPropertyOp3
 70
     1
102
RTVSPropertyOp4
 70
     1
102
RTVSPropertyOp5
 70
     1
102
RTVSPropertyOp6
 70
     1
102
RTVSPropertyOp7
 70
     1
102
RTVSPropertyOp8
 70
     1
102
RTVSPropertyOp9
 70
     1
102
RTVSPropertyOp10
 70
     1
102
RTVSPropertyOp11
 70
     1
102
RTVSPropertyOp12
 70
     1
102
RTVSPropertyOp13
 70
     1
102
RTVSPropertyOp14
 70
     1
102
RTVSPropertyOp15
 70
     1
102
RTVSPropertyOp16
 70
     1
102
RTVSPropertyOp17
 70
     1
102
RTVSPropertyOp18
 70
     1
102
RTVSPropertyOp19
 70
     1
102
RTVSPropertyOp20
 70
     1
102
RTVSPropertyOp21
 70
     1
102
RTVSPropertyOp22
 70
     1
102
RTVSPropertyOp23
 70
     1
102
RTVSPropertyOp24
 70
     1
102
RTVSPropertyOp25
 70
     1
102
RTVSPropertyOp26
 70
     1
102
RTVSPropertyOp27
 70
     1
102
RTVSPropertyOp28
 70
     1
102
RTVSPropertyOp29
 70
     1
102
RTVSPropertyOp30
 70
     1
102
RTVSPropertyOp31
 70
     1
102
RTVSPropertyOp32
 70
     1
102
RTVSPropertyOp33
 70
     1
102
RTVSPropertyOp34
 70
     1
102
RTVSPropertyOp35
 70
     1
102
RTVSPropertyOp36
 70
     1
102
RTVSPropertyOp37
 70
     1
102
RTVSPropertyOp38
 70
     1
102
RTVSPropertyOp39
 70
     1
102
RTVSPropertyOp40
 70
     1
102
RTVSPropertyOp41
 70
     1
102
RTVSPropertyOp42
 70
     1
102
RTVSPropertyOp43
 70
     1
102
RTVSPropertyOp44
 70
     1
102
RTVSPropertyOp45
 70
     1
102
RTVSPropertyOp46
 70
     1
102
RTVSPropertyOp47
 70
     1
102
RTVSPropertyOp48
 70
     1
102
RTVSPropertyOp49
 70
     1
102
RTVSPropertyOp50
 70
     1
102
RTVSPropertyOp51
 70
     0
102
RTVSPropertyOp52
 70
     0
102
RTVSPropertyOp53
 70
     1
102
RTVSPropertyOp54
 70
     1
102
RTVSPropertyOp55
 70
     1
102
RTVSPropertyOp56
 70
     1
102
RTVSPropertyOp57
 70
     1
102
RTVSPropertyOp58
 70
     1
102
RTVSPropertyOp59
 70
     1
102
RTVSPropertyOp60
 70
     1
102
RTVSPropertyOp61
 70
     1
102
RTVSPropertyOp62
 70
     1
  0
XRECORD
  5
99AF
102
{ACAD_REACTORS
330
99AE
102
}
330
99AE
100
AcDbXrecord
280
     1
102
RTVSPost2010Prop28
280
     0
102
RTVSPost2010PropOp28
 70
     1
102
RTVSPost2010Prop29
280
     1
102
RTVSPost2010PropOp29
 70
     1
102
RTVSPost2010Prop30
280
     1
102
RTVSPost2010PropOp30
 70
     1
102
RTVSPost2010Prop31
280
     0
102
RTVSPost2010PropOp31
 70
     1
102
RTVSPost2010Prop32
280
     0
102
RTVSPost2010PropOp32
 70
     1
102
RTVSPost2010Prop33
280
     0
102
RTVSPost2010PropOp33
 70
     1
102
RTVSPost2010Prop34
280
     0
102
RTVSPost2010PropOp34
 70
     1
102
RTVSPost2010Prop35
280
     0
102
RTVSPost2010PropOp35
 70
     1
102
RTVSPost2010Prop36
280
     0
102
RTVSPost2010PropOp36
 70
     1
102
RTVSPost2010Prop37
 90
       50
102
RTVSPost2010PropOp37
 70
     1
102
RTVSPost2010Prop38
140
0.0
102
RTVSPost2010PropOp38
 70
     1
102
RTVSPost2010Prop39
140
1.0
102
RTVSPost2010PropOp39
 70
     1
102
RTVSPost2010Prop40
 90
        0
102
RTVSPost2010PropOp40
 70
     1
102
RTVSPost2010Prop41ColorIndex
 90
       18
102
RTVSPost2010Prop41ColorRGB
 90
        0
102
RTVSPost2010PropOp41
 70
     1
102
RTVSPost2010Prop42
 90
       50
102
RTVSPost2010PropOp42
 70
     1
102
RTVSPost2010Prop43
 90
        3
102
RTVSPost2010PropOp43
 70
     1
102
RTVSPost2010Prop44ColorIndex
 90
        5
102
RTVSPost2010Prop44ColorRGB
 90
      255
102
RTVSPost2010PropOp44
 70
     1
102
RTVSPost2010Prop45
280
     0
102
RTVSPost2010PropOp45
 70
     1
102
RTVSPost2010Prop46
 90
       50
102
RTVSPost2010PropOp46
 70
     1
102
RTVSPost2010Prop47
 90
       50
102
RTVSPost2010PropOp47
 70
     1
102
RTVSPost2010Prop48
 90
       50
102
RTVSPost2010PropOp48
 70
     1
102
RTVSPost2010Prop49
280
     0
102
RTVSPost2010PropOp49
 70
     1
102
RTVSPost2010Prop50
 90
       50
102
RTVSPost2010PropOp50
 70
     1
102
RTVSPost2010Prop51ColorIndex
 90
      256
102
RTVSPost2010Prop51ColorRGB
 90
-16777216
102
RTVSPost2010PropOp51
 70
     0
102
RTVSPost2010Prop52
140
1.0
102
RTVSPost2010PropOp52
 70
     0
102
RTVSPost2010Prop53
 90
        2
102
RTVSPost2010PropOp53
 70
     1
102
RTVSPost2010Prop54
  1
strokes_ogs.tif
102
RTVSPost2010PropOp54
 70
     1
102
RTVSPost2010Prop55
280
     0
102
RTVSPost2010PropOp55
 70
     1
102
RTVSPost2010Prop56
140
1.0
102
RTVSPost2010PropOp56
 70
     1
102
RTVSPost2010Prop57
140
1.0
102
RTVSPost2010PropOp57
 70
     1
102
RTVSPropertyOp0
 70
     1
102
RTVSPropertyOp1
 70
     1
102
RTVSPropertyOp2
 70
     1
102
RTVSPropertyOp3
 70
     1
102
RTVSPropertyOp4
 70
     1
102
RTVSPropertyOp5
 70
     1
102
RTVSPropertyOp6
 70
     1
102
RTVSPropertyOp7
 70
     1
102
RTVSPropertyOp8
 70
     1
102
RTVSPropertyOp9
 70
     1
102
RTVSPropertyOp10
 70
     1
102
RTVSPropertyOp11
 70
     1
102
RTVSPropertyOp12
 70
     1
102
RTVSPropertyOp13
 70
     1
102
RTVSPropertyOp14
 70
     1
102
RTVSPropertyOp15
 70
     1
102
RTVSPropertyOp16
 70
     1
102
RTVSPropertyOp17
 70
     1
102
RTVSPropertyOp18
 70
     1
102
RTVSPropertyOp19
 70
     1
102
RTVSPropertyOp20
 70
     1
102
RTVSPropertyOp21
 70
     1
102
RTVSPropertyOp22
 70
     1
102
RTVSPropertyOp23
 70
     1
102
RTVSPropertyOp24
 70
     1
102
RTVSPropertyOp25
 70
     1
102
RTVSPropertyOp26
 70
     1
102
RTVSPropertyOp27
 70
     1
102
RTVSPropertyOp28
 70
     1
102
RTVSPropertyOp29
 70
     1
102
RTVSPropertyOp30
 70
     1
102
RTVSPropertyOp31
 70
     1
102
RTVSPropertyOp32
 70
     1
102
RTVSPropertyOp33
 70
     1
102
RTVSPropertyOp34
 70
     1
102
RTVSPropertyOp35
 70
     1
102
RTVSPropertyOp36
 70
     1
102
RTVSPropertyOp37
 70
     1
102
RTVSPropertyOp38
 70
     1
102
RTVSPropertyOp39
 70
     1
102
RTVSPropertyOp40
 70
     1
102
RTVSPropertyOp41
 70
     1
102
RTVSPropertyOp42
 70
     1
102
RTVSPropertyOp43
 70
     1
102
RTVSPropertyOp44
 70
     1
102
RTVSPropertyOp45
 70
     1
102
RTVSPropertyOp46
 70
     1
102
RTVSPropertyOp47
 70
     1
102
RTVSPropertyOp48
 70
     1
102
RTVSPropertyOp49
 70
     1
102
RTVSPropertyOp50
 70
     1
102
RTVSPropertyOp51
 70
     0
102
RTVSPropertyOp52
 70
     0
102
RTVSPropertyOp53
 70
     1
102
RTVSPropertyOp54
 70
     1
102
RTVSPropertyOp55
 70
     1
102
RTVSPropertyOp56
 70
     1
102
RTVSPropertyOp57
 70
     1
102
RTVSPropertyOp58
 70
     1
102
RTVSPropertyOp59
 70
     1
102
RTVSPropertyOp60
 70
     1
102
RTVSPropertyOp61
 70
     1
102
RTVSPropertyOp62
 70
     1
  0
XRECORD
  5
99B1
102
{ACAD_REACTORS
330
99B0
102
}
330
99B0
100
AcDbXrecord
280
     1
102
RTVSPost2010Prop28
280
     0
102
RTVSPost2010PropOp28
 70
     1
102
RTVSPost2010Prop29
280
     1
102
RTVSPost2010PropOp29
 70
     1
102
RTVSPost2010Prop30
280
     1
102
RTVSPost2010PropOp30
 70
     1
102
RTVSPost2010Prop31
280
     0
102
RTVSPost2010PropOp31
 70
     1
102
RTVSPost2010Prop32
280
     0
102
RTVSPost2010PropOp32
 70
     1
102
RTVSPost2010Prop33
280
     0
102
RTVSPost2010PropOp33
 70
     1
102
RTVSPost2010Prop34
280
     0
102
RTVSPost2010PropOp34
 70
     1
102
RTVSPost2010Prop35
280
     0
102
RTVSPost2010PropOp35
 70
     1
102
RTVSPost2010Prop36
280
     0
102
RTVSPost2010PropOp36
 70
     1
102
RTVSPost2010Prop37
 90
       50
102
RTVSPost2010PropOp37
 70
     1
102
RTVSPost2010Prop38
140
0.0
102
RTVSPost2010PropOp38
 70
     1
102
RTVSPost2010Prop39
140
1.0
102
RTVSPost2010PropOp39
 70
     1
102
RTVSPost2010Prop40
 90
        0
102
RTVSPost2010PropOp40
 70
     1
102
RTVSPost2010Prop41ColorIndex
 90
       18
102
RTVSPost2010Prop41ColorRGB
 90
        0
102
RTVSPost2010PropOp41
 70
     1
102
RTVSPost2010Prop42
 90
       50
102
RTVSPost2010PropOp42
 70
     1
102
RTVSPost2010Prop43
 90
        3
102
RTVSPost2010PropOp43
 70
     1
102
RTVSPost2010Prop44ColorIndex
 90
        5
102
RTVSPost2010Prop44ColorRGB
 90
      255
102
RTVSPost2010PropOp44
 70
     1
102
RTVSPost2010Prop45
280
     0
102
RTVSPost2010PropOp45
 70
     1
102
RTVSPost2010Prop46
 90
       50
102
RTVSPost2010PropOp46
 70
     1
102
RTVSPost2010Prop47
 90
       50
102
RTVSPost2010PropOp47
 70
     1
102
RTVSPost2010Prop48
 90
       50
102
RTVSPost2010PropOp48
 70
     1
102
RTVSPost2010Prop49
280
     0
102
RTVSPost2010PropOp49
 70
     1
102
RTVSPost2010Prop50
 90
       50
102
RTVSPost2010PropOp50
 70
     1
102
RTVSPost2010Prop51ColorIndex
 90
      256
102
RTVSPost2010Prop51ColorRGB
 90
-16777216
102
RTVSPost2010PropOp51
 70
     0
102
RTVSPost2010Prop52
140
1.0
102
RTVSPost2010PropOp52
 70
     0
102
RTVSPost2010Prop53
 90
        2
102
RTVSPost2010PropOp53
 70
     1
102
RTVSPost2010Prop54
  1
strokes_ogs.tif
102
RTVSPost2010PropOp54
 70
     1
102
RTVSPost2010Prop55
280
     0
102
RTVSPost2010PropOp55
 70
     1
102
RTVSPost2010Prop56
140
1.0
102
RTVSPost2010PropOp56
 70
     1
102
RTVSPost2010Prop57
140
1.0
102
RTVSPost2010PropOp57
 70
     1
102
RTVSPropertyOp0
 70
     1
102
RTVSPropertyOp1
 70
     1
102
RTVSPropertyOp2
 70
     1
102
RTVSPropertyOp3
 70
     1
102
RTVSPropertyOp4
 70
     1
102
RTVSPropertyOp5
 70
     1
102
RTVSPropertyOp6
 70
     1
102
RTVSPropertyOp7
 70
     1
102
RTVSPropertyOp8
 70
     1
102
RTVSPropertyOp9
 70
     1
102
RTVSPropertyOp10
 70
     1
102
RTVSPropertyOp11
 70
     1
102
RTVSPropertyOp12
 70
     1
102
RTVSPropertyOp13
 70
     1
102
RTVSPropertyOp14
 70
     1
102
RTVSPropertyOp15
 70
     1
102
RTVSPropertyOp16
 70
     1
102
RTVSPropertyOp17
 70
     1
102
RTVSPropertyOp18
 70
     1
102
RTVSPropertyOp19
 70
     1
102
RTVSPropertyOp20
 70
     1
102
RTVSPropertyOp21
 70
     1
102
RTVSPropertyOp22
 70
     1
102
RTVSPropertyOp23
 70
     1
102
RTVSPropertyOp24
 70
     1
102
RTVSPropertyOp25
 70
     1
102
RTVSPropertyOp26
 70
     1
102
RTVSPropertyOp27
 70
     1
102
RTVSPropertyOp28
 70
     1
102
RTVSPropertyOp29
 70
     1
102
RTVSPropertyOp30
 70
     1
102
RTVSPropertyOp31
 70
     1
102
RTVSPropertyOp32
 70
     1
102
RTVSPropertyOp33
 70
     1
102
RTVSPropertyOp34
 70
     1
102
RTVSPropertyOp35
 70
     1
102
RTVSPropertyOp36
 70
     1
102
RTVSPropertyOp37
 70
     1
102
RTVSPropertyOp38
 70
     1
102
RTVSPropertyOp39
 70
     1
102
RTVSPropertyOp40
 70
     1
102
RTVSPropertyOp41
 70
     1
102
RTVSPropertyOp42
 70
     1
102
RTVSPropertyOp43
 70
     1
102
RTVSPropertyOp44
 70
     1
102
RTVSPropertyOp45
 70
     1
102
RTVSPropertyOp46
 70
     1
102
RTVSPropertyOp47
 70
     1
102
RTVSPropertyOp48
 70
     1
102
RTVSPropertyOp49
 70
     1
102
RTVSPropertyOp50
 70
     1
102
RTVSPropertyOp51
 70
     0
102
RTVSPropertyOp52
 70
     0
102
RTVSPropertyOp53
 70
     1
102
RTVSPropertyOp54
 70
     1
102
RTVSPropertyOp55
 70
     1
102
RTVSPropertyOp56
 70
     1
102
RTVSPropertyOp57
 70
     1
102
RTVSPropertyOp58
 70
     1
102
RTVSPropertyOp59
 70
     1
102
RTVSPropertyOp60
 70
     1
102
RTVSPropertyOp61
 70
     1
102
RTVSPropertyOp62
 70
     1
  0
XRECORD
  5
99B3
102
{ACAD_REACTORS
330
99B2
102
}
330
99B2
100
AcDbXrecord
280
     1
102
RTVSPost2010Prop28
280
     0
102
RTVSPost2010PropOp28
 70
     1
102
RTVSPost2010Prop29
280
     1
102
RTVSPost2010PropOp29
 70
     1
102
RTVSPost2010Prop30
280
     1
102
RTVSPost2010PropOp30
 70
     1
102
RTVSPost2010Prop31
280
     0
102
RTVSPost2010PropOp31
 70
     1
102
RTVSPost2010Prop32
280
     0
102
RTVSPost2010PropOp32
 70
     1
102
RTVSPost2010Prop33
280
     0
102
RTVSPost2010PropOp33
 70
     1
102
RTVSPost2010Prop34
280
     0
102
RTVSPost2010PropOp34
 70
     1
102
RTVSPost2010Prop35
280
     0
102
RTVSPost2010PropOp35
 70
     1
102
RTVSPost2010Prop36
280
     0
102
RTVSPost2010PropOp36
 70
     1
102
RTVSPost2010Prop37
 90
       50
102
RTVSPost2010PropOp37
 70
     1
102
RTVSPost2010Prop38
140
0.0
102
RTVSPost2010PropOp38
 70
     1
102
RTVSPost2010Prop39
140
1.0
102
RTVSPost2010PropOp39
 70
     1
102
RTVSPost2010Prop40
 90
        0
102
RTVSPost2010PropOp40
 70
     1
102
RTVSPost2010Prop41ColorIndex
 90
       18
102
RTVSPost2010Prop41ColorRGB
 90
        0
102
RTVSPost2010PropOp41
 70
     1
102
RTVSPost2010Prop42
 90
       50
102
RTVSPost2010PropOp42
 70
     1
102
RTVSPost2010Prop43
 90
        3
102
RTVSPost2010PropOp43
 70
     1
102
RTVSPost2010Prop44ColorIndex
 90
        5
102
RTVSPost2010Prop44ColorRGB
 90
      255
102
RTVSPost2010PropOp44
 70
     1
102
RTVSPost2010Prop45
280
     0
102
RTVSPost2010PropOp45
 70
     1
102
RTVSPost2010Prop46
 90
       50
102
RTVSPost2010PropOp46
 70
     1
102
RTVSPost2010Prop47
 90
       50
102
RTVSPost2010PropOp47
 70
     1
102
RTVSPost2010Prop48
 90
       50
102
RTVSPost2010PropOp48
 70
     1
102
RTVSPost2010Prop49
280
     0
102
RTVSPost2010PropOp49
 70
     1
102
RTVSPost2010Prop50
 90
       50
102
RTVSPost2010PropOp50
 70
     1
102
RTVSPost2010Prop51ColorIndex
 90
      256
102
RTVSPost2010Prop51ColorRGB
 90
-16777216
102
RTVSPost2010PropOp51
 70
     0
102
RTVSPost2010Prop52
140
1.0
102
RTVSPost2010PropOp52
 70
     0
102
RTVSPost2010Prop53
 90
        2
102
RTVSPost2010PropOp53
 70
     1
102
RTVSPost2010Prop54
  1
strokes_ogs.tif
102
RTVSPost2010PropOp54
 70
     1
102
RTVSPost2010Prop55
280
     0
102
RTVSPost2010PropOp55
 70
     1
102
RTVSPost2010Prop56
140
1.0
102
RTVSPost2010PropOp56
 70
     1
102
RTVSPost2010Prop57
140
1.0
102
RTVSPost2010PropOp57
 70
     1
102
RTVSPropertyOp0
 70
     1
102
RTVSPropertyOp1
 70
     1
102
RTVSPropertyOp2
 70
     1
102
RTVSPropertyOp3
 70
     1
102
RTVSPropertyOp4
 70
     1
102
RTVSPropertyOp5
 70
     1
102
RTVSPropertyOp6
 70
     1
102
RTVSPropertyOp7
 70
     1
102
RTVSPropertyOp8
 70
     1
102
RTVSPropertyOp9
 70
     1
102
RTVSPropertyOp10
 70
     1
102
RTVSPropertyOp11
 70
     1
102
RTVSPropertyOp12
 70
     1
102
RTVSPropertyOp13
 70
     1
102
RTVSPropertyOp14
 70
     1
102
RTVSPropertyOp15
 70
     1
102
RTVSPropertyOp16
 70
     1
102
RTVSPropertyOp17
 70
     1
102
RTVSPropertyOp18
 70
     1
102
RTVSPropertyOp19
 70
     1
102
RTVSPropertyOp20
 70
     1
102
RTVSPropertyOp21
 70
     1
102
RTVSPropertyOp22
 70
     1
102
RTVSPropertyOp23
 70
     1
102
RTVSPropertyOp24
 70
     1
102
RTVSPropertyOp25
 70
     1
102
RTVSPropertyOp26
 70
     1
102
RTVSPropertyOp27
 70
     1
102
RTVSPropertyOp28
 70
     1
102
RTVSPropertyOp29
 70
     1
102
RTVSPropertyOp30
 70
     1
102
RTVSPropertyOp31
 70
     1
102
RTVSPropertyOp32
 70
     1
102
RTVSPropertyOp33
 70
     1
102
RTVSPropertyOp34
 70
     1
102
RTVSPropertyOp35
 70
     1
102
RTVSPropertyOp36
 70
     1
102
RTVSPropertyOp37
 70
     1
102
RTVSPropertyOp38
 70
     1
102
RTVSPropertyOp39
 70
     1
102
RTVSPropertyOp40
 70
     1
102
RTVSPropertyOp41
 70
     1
102
RTVSPropertyOp42
 70
     1
102
RTVSPropertyOp43
 70
     1
102
RTVSPropertyOp44
 70
     1
102
RTVSPropertyOp45
 70
     1
102
RTVSPropertyOp46
 70
     1
102
RTVSPropertyOp47
 70
     1
102
RTVSPropertyOp48
 70
     1
102
RTVSPropertyOp49
 70
     1
102
RTVSPropertyOp50
 70
     1
102
RTVSPropertyOp51
 70
     0
102
RTVSPropertyOp52
 70
     0
102
RTVSPropertyOp53
 70
     1
102
RTVSPropertyOp54
 70
     1
102
RTVSPropertyOp55
 70
     1
102
RTVSPropertyOp56
 70
     1
102
RTVSPropertyOp57
 70
     1
102
RTVSPropertyOp58
 70
     1
102
RTVSPropertyOp59
 70
     1
102
RTVSPropertyOp60
 70
     1
102
RTVSPropertyOp61
 70
     1
102
RTVSPropertyOp62
 70
     1
  0
XRECORD
  5
99B5
102
{ACAD_REACTORS
330
99B4
102
}
330
99B4
100
AcDbXrecord
280
     1
102
RTVSPost2010Prop28
280
     0
102
RTVSPost2010PropOp28
 70
     1
102
RTVSPost2010Prop29
280
     1
102
RTVSPost2010PropOp29
 70
     1
102
RTVSPost2010Prop30
280
     1
102
RTVSPost2010PropOp30
 70
     1
102
RTVSPost2010Prop31
280
     0
102
RTVSPost2010PropOp31
 70
     1
102
RTVSPost2010Prop32
280
     0
102
RTVSPost2010PropOp32
 70
     1
102
RTVSPost2010Prop33
280
     0
102
RTVSPost2010PropOp33
 70
     1
102
RTVSPost2010Prop34
280
     0
102
RTVSPost2010PropOp34
 70
     1
102
RTVSPost2010Prop35
280
     0
102
RTVSPost2010PropOp35
 70
     1
102
RTVSPost2010Prop36
280
     0
102
RTVSPost2010PropOp36
 70
     1
102
RTVSPost2010Prop37
 90
       50
102
RTVSPost2010PropOp37
 70
     1
102
RTVSPost2010Prop38
140
0.0
102
RTVSPost2010PropOp38
 70
     1
102
RTVSPost2010Prop39
140
1.0
102
RTVSPost2010PropOp39
 70
     1
102
RTVSPost2010Prop40
 90
        0
102
RTVSPost2010PropOp40
 70
     1
102
RTVSPost2010Prop41ColorIndex
 90
       18
102
RTVSPost2010Prop41ColorRGB
 90
        0
102
RTVSPost2010PropOp41
 70
     1
102
RTVSPost2010Prop42
 90
       50
102
RTVSPost2010PropOp42
 70
     1
102
RTVSPost2010Prop43
 90
        3
102
RTVSPost2010PropOp43
 70
     1
102
RTVSPost2010Prop44ColorIndex
 90
        5
102
RTVSPost2010Prop44ColorRGB
 90
      255
102
RTVSPost2010PropOp44
 70
     1
102
RTVSPost2010Prop45
280
     0
102
RTVSPost2010PropOp45
 70
     1
102
RTVSPost2010Prop46
 90
       50
102
RTVSPost2010PropOp46
 70
     1
102
RTVSPost2010Prop47
 90
       50
102
RTVSPost2010PropOp47
 70
     1
102
RTVSPost2010Prop48
 90
       50
102
RTVSPost2010PropOp48
 70
     1
102
RTVSPost2010Prop49
280
     0
102
RTVSPost2010PropOp49
 70
     1
102
RTVSPost2010Prop50
 90
       50
102
RTVSPost2010PropOp50
 70
     1
102
RTVSPost2010Prop51ColorIndex
 90
      256
102
RTVSPost2010Prop51ColorRGB
 90
-16777216
102
RTVSPost2010PropOp51
 70
     0
102
RTVSPost2010Prop52
140
1.0
102
RTVSPost2010PropOp52
 70
     0
102
RTVSPost2010Prop53
 90
        2
102
RTVSPost2010PropOp53
 70
     1
102
RTVSPost2010Prop54
  1
strokes_ogs.tif
102
RTVSPost2010PropOp54
 70
     1
102
RTVSPost2010Prop55
280
     0
102
RTVSPost2010PropOp55
 70
     1
102
RTVSPost2010Prop56
140
1.0
102
RTVSPost2010PropOp56
 70
     1
102
RTVSPost2010Prop57
140
1.0
102
RTVSPost2010PropOp57
 70
     1
102
RTVSPropertyOp0
 70
     1
102
RTVSPropertyOp1
 70
     1
102
RTVSPropertyOp2
 70
     1
102
RTVSPropertyOp3
 70
     1
102
RTVSPropertyOp4
 70
     1
102
RTVSPropertyOp5
 70
     1
102
RTVSPropertyOp6
 70
     1
102
RTVSPropertyOp7
 70
     1
102
RTVSPropertyOp8
 70
     1
102
RTVSPropertyOp9
 70
     1
102
RTVSPropertyOp10
 70
     1
102
RTVSPropertyOp11
 70
     1
102
RTVSPropertyOp12
 70
     1
102
RTVSPropertyOp13
 70
     1
102
RTVSPropertyOp14
 70
     1
102
RTVSPropertyOp15
 70
     1
102
RTVSPropertyOp16
 70
     1
102
RTVSPropertyOp17
 70
     1
102
RTVSPropertyOp18
 70
     1
102
RTVSPropertyOp19
 70
     1
102
RTVSPropertyOp20
 70
     1
102
RTVSPropertyOp21
 70
     1
102
RTVSPropertyOp22
 70
     1
102
RTVSPropertyOp23
 70
     1
102
RTVSPropertyOp24
 70
     1
102
RTVSPropertyOp25
 70
     1
102
RTVSPropertyOp26
 70
     1
102
RTVSPropertyOp27
 70
     1
102
RTVSPropertyOp28
 70
     1
102
RTVSPropertyOp29
 70
     1
102
RTVSPropertyOp30
 70
     1
102
RTVSPropertyOp31
 70
     1
102
RTVSPropertyOp32
 70
     1
102
RTVSPropertyOp33
 70
     1
102
RTVSPropertyOp34
 70
     1
102
RTVSPropertyOp35
 70
     1
102
RTVSPropertyOp36
 70
     1
102
RTVSPropertyOp37
 70
     1
102
RTVSPropertyOp38
 70
     1
102
RTVSPropertyOp39
 70
     1
102
RTVSPropertyOp40
 70
     1
102
RTVSPropertyOp41
 70
     1
102
RTVSPropertyOp42
 70
     1
102
RTVSPropertyOp43
 70
     1
102
RTVSPropertyOp44
 70
     1
102
RTVSPropertyOp45
 70
     1
102
RTVSPropertyOp46
 70
     1
102
RTVSPropertyOp47
 70
     1
102
RTVSPropertyOp48
 70
     1
102
RTVSPropertyOp49
 70
     1
102
RTVSPropertyOp50
 70
     1
102
RTVSPropertyOp51
 70
     0
102
RTVSPropertyOp52
 70
     0
102
RTVSPropertyOp53
 70
     1
102
RTVSPropertyOp54
 70
     1
102
RTVSPropertyOp55
 70
     1
102
RTVSPropertyOp56
 70
     1
102
RTVSPropertyOp57
 70
     1
102
RTVSPropertyOp58
 70
     1
102
RTVSPropertyOp59
 70
     1
102
RTVSPropertyOp60
 70
     1
102
RTVSPropertyOp61
 70
     1
102
RTVSPropertyOp62
 70
     1
  0
XRECORD
  5
99BD
102
{ACAD_REACTORS
330
99BC
102
}
330
99BC
100
AcDbXrecord
280
     1
102
RTVSPost2010Prop28
280
     0
102
RTVSPost2010PropOp28
 70
     1
102
RTVSPost2010Prop29
280
     1
102
RTVSPost2010PropOp29
 70
     1
102
RTVSPost2010Prop30
280
     1
102
RTVSPost2010PropOp30
 70
     1
102
RTVSPost2010Prop31
280
     0
102
RTVSPost2010PropOp31
 70
     1
102
RTVSPost2010Prop32
280
     0
102
RTVSPost2010PropOp32
 70
     1
102
RTVSPost2010Prop33
280
     0
102
RTVSPost2010PropOp33
 70
     1
102
RTVSPost2010Prop34
280
     0
102
RTVSPost2010PropOp34
 70
     1
102
RTVSPost2010Prop35
280
     0
102
RTVSPost2010PropOp35
 70
     1
102
RTVSPost2010Prop36
280
     0
102
RTVSPost2010PropOp36
 70
     1
102
RTVSPost2010Prop37
 90
       50
102
RTVSPost2010PropOp37
 70
     1
102
RTVSPost2010Prop38
140
0.0
102
RTVSPost2010PropOp38
 70
     1
102
RTVSPost2010Prop39
140
1.0
102
RTVSPost2010PropOp39
 70
     1
102
RTVSPost2010Prop40
 90
        0
102
RTVSPost2010PropOp40
 70
     1
102
RTVSPost2010Prop41ColorIndex
 90
       18
102
RTVSPost2010Prop41ColorRGB
 90
        0
102
RTVSPost2010PropOp41
 70
     1
102
RTVSPost2010Prop42
 90
       50
102
RTVSPost2010PropOp42
 70
     1
102
RTVSPost2010Prop43
 90
        3
102
RTVSPost2010PropOp43
 70
     1
102
RTVSPost2010Prop44ColorIndex
 90
        5
102
RTVSPost2010Prop44ColorRGB
 90
      255
102
RTVSPost2010PropOp44
 70
     1
102
RTVSPost2010Prop45
280
     0
102
RTVSPost2010PropOp45
 70
     1
102
RTVSPost2010Prop46
 90
       50
102
RTVSPost2010PropOp46
 70
     1
102
RTVSPost2010Prop47
 90
       50
102
RTVSPost2010PropOp47
 70
     1
102
RTVSPost2010Prop48
 90
       50
102
RTVSPost2010PropOp48
 70
     1
102
RTVSPost2010Prop49
280
     0
102
RTVSPost2010PropOp49
 70
     1
102
RTVSPost2010Prop50
 90
       50
102
RTVSPost2010PropOp50
 70
     1
102
RTVSPost2010Prop51ColorIndex
 90
      256
102
RTVSPost2010Prop51ColorRGB
 90
-16777216
102
RTVSPost2010PropOp51
 70
     0
102
RTVSPost2010Prop52
140
1.0
102
RTVSPost2010PropOp52
 70
     0
102
RTVSPost2010Prop53
 90
        2
102
RTVSPost2010PropOp53
 70
     1
102
RTVSPost2010Prop54
  1
strokes_ogs.tif
102
RTVSPost2010PropOp54
 70
     1
102
RTVSPost2010Prop55
280
     0
102
RTVSPost2010PropOp55
 70
     1
102
RTVSPost2010Prop56
140
1.0
102
RTVSPost2010PropOp56
 70
     1
102
RTVSPost2010Prop57
140
1.0
102
RTVSPost2010PropOp57
 70
     1
102
RTVSPropertyOp0
 70
     1
102
RTVSPropertyOp1
 70
     1
102
RTVSPropertyOp2
 70
     1
102
RTVSPropertyOp3
 70
     1
102
RTVSPropertyOp4
 70
     1
102
RTVSPropertyOp5
 70
     1
102
RTVSPropertyOp6
 70
     1
102
RTVSPropertyOp7
 70
     1
102
RTVSPropertyOp8
 70
     1
102
RTVSPropertyOp9
 70
     1
102
RTVSPropertyOp10
 70
     1
102
RTVSPropertyOp11
 70
     1
102
RTVSPropertyOp12
 70
     1
102
RTVSPropertyOp13
 70
     1
102
RTVSPropertyOp14
 70
     1
102
RTVSPropertyOp15
 70
     1
102
RTVSPropertyOp16
 70
     1
102
RTVSPropertyOp17
 70
     1
102
RTVSPropertyOp18
 70
     1
102
RTVSPropertyOp19
 70
     1
102
RTVSPropertyOp20
 70
     1
102
RTVSPropertyOp21
 70
     1
102
RTVSPropertyOp22
 70
     1
102
RTVSPropertyOp23
 70
     1
102
RTVSPropertyOp24
 70
     1
102
RTVSPropertyOp25
 70
     1
102
RTVSPropertyOp26
 70
     1
102
RTVSPropertyOp27
 70
     1
102
RTVSPropertyOp28
 70
     1
102
RTVSPropertyOp29
 70
     1
102
RTVSPropertyOp30
 70
     1
102
RTVSPropertyOp31
 70
     1
102
RTVSPropertyOp32
 70
     1
102
RTVSPropertyOp33
 70
     1
102
RTVSPropertyOp34
 70
     1
102
RTVSPropertyOp35
 70
     1
102
RTVSPropertyOp36
 70
     1
102
RTVSPropertyOp37
 70
     1
102
RTVSPropertyOp38
 70
     1
102
RTVSPropertyOp39
 70
     1
102
RTVSPropertyOp40
 70
     1
102
RTVSPropertyOp41
 70
     1
102
RTVSPropertyOp42
 70
     1
102
RTVSPropertyOp43
 70
     1
102
RTVSPropertyOp44
 70
     1
102
RTVSPropertyOp45
 70
     1
102
RTVSPropertyOp46
 70
     1
102
RTVSPropertyOp47
 70
     1
102
RTVSPropertyOp48
 70
     1
102
RTVSPropertyOp49
 70
     1
102
RTVSPropertyOp50
 70
     1
102
RTVSPropertyOp51
 70
     0
102
RTVSPropertyOp52
 70
     0
102
RTVSPropertyOp53
 70
     1
102
RTVSPropertyOp54
 70
     1
102
RTVSPropertyOp55
 70
     1
102
RTVSPropertyOp56
 70
     1
102
RTVSPropertyOp57
 70
     1
102
RTVSPropertyOp58
 70
     1
102
RTVSPropertyOp59
 70
     1
102
RTVSPropertyOp60
 70
     1
102
RTVSPropertyOp61
 70
     1
102
RTVSPropertyOp62
 70
     1
  0
XRECORD
  5
99D9
102
{ACAD_REACTORS
330
99D8
102
}
330
99D8
100
AcDbXrecord
280
     1
102
RTVSPost2010Prop28
280
     0
102
RTVSPost2010PropOp28
 70
     1
102
RTVSPost2010Prop29
280
     1
102
RTVSPost2010PropOp29
 70
     1
102
RTVSPost2010Prop30
280
     1
102
RTVSPost2010PropOp30
 70
     1
102
RTVSPost2010Prop31
280
     0
102
RTVSPost2010PropOp31
 70
     1
102
RTVSPost2010Prop32
280
     0
102
RTVSPost2010PropOp32
 70
     1
102
RTVSPost2010Prop33
280
     0
102
RTVSPost2010PropOp33
 70
     1
102
RTVSPost2010Prop34
280
     0
102
RTVSPost2010PropOp34
 70
     1
102
RTVSPost2010Prop35
280
     0
102
RTVSPost2010PropOp35
 70
     1
102
RTVSPost2010Prop36
280
     0
102
RTVSPost2010PropOp36
 70
     1
102
RTVSPost2010Prop37
 90
       50
102
RTVSPost2010PropOp37
 70
     0
102
RTVSPost2010Prop38
140
0.0
102
RTVSPost2010PropOp38
 70
     0
102
RTVSPost2010Prop39
140
1.0
102
RTVSPost2010PropOp39
 70
     0
102
RTVSPost2010Prop40
 90
        0
102
RTVSPost2010PropOp40
 70
     0
102
RTVSPost2010Prop41ColorIndex
 90
       18
102
RTVSPost2010Prop41ColorRGB
 90
        0
102
RTVSPost2010PropOp41
 70
     0
102
RTVSPost2010Prop42
 90
       50
102
RTVSPost2010PropOp42
 70
     0
102
RTVSPost2010Prop43
 90
        3
102
RTVSPost2010PropOp43
 70
     0
102
RTVSPost2010Prop44ColorIndex
 90
        5
102
RTVSPost2010Prop44ColorRGB
 90
      255
102
RTVSPost2010PropOp44
 70
     0
102
RTVSPost2010Prop45
280
     0
102
RTVSPost2010PropOp45
 70
     1
102
RTVSPost2010Prop46
 90
       50
102
RTVSPost2010PropOp46
 70
     0
102
RTVSPost2010Prop47
 90
       50
102
RTVSPost2010PropOp47
 70
     0
102
RTVSPost2010Prop48
 90
       50
102
RTVSPost2010PropOp48
 70
     0
102
RTVSPost2010Prop49
280
     0
102
RTVSPost2010PropOp49
 70
     1
102
RTVSPost2010Prop50
 90
       50
102
RTVSPost2010PropOp50
 70
     0
102
RTVSPost2010Prop51ColorIndex
 90
      256
102
RTVSPost2010Prop51ColorRGB
 90
-16777216
102
RTVSPost2010PropOp51
 70
     0
102
RTVSPost2010Prop52
140
1.0
102
RTVSPost2010PropOp52
 70
     0
102
RTVSPost2010Prop53
 90
        2
102
RTVSPost2010PropOp53
 70
     0
102
RTVSPost2010Prop54
  1
strokes_ogs.tif
102
RTVSPost2010PropOp54
 70
     0
102
RTVSPost2010Prop55
280
     0
102
RTVSPost2010PropOp55
 70
     1
102
RTVSPost2010Prop56
140
1.0
102
RTVSPost2010PropOp56
 70
     0
102
RTVSPost2010Prop57
140
1.0
102
RTVSPost2010PropOp57
 70
     0
102
RTVSPropertyOp0
 70
     0
102
RTVSPropertyOp1
 70
     0
102
RTVSPropertyOp2
 70
     0
102
RTVSPropertyOp3
 70
     0
102
RTVSPropertyOp4
 70
     0
102
RTVSPropertyOp5
 70
     0
102
RTVSPropertyOp6
 70
     0
102
RTVSPropertyOp7
 70
     0
102
RTVSPropertyOp8
 70
     0
102
RTVSPropertyOp9
 70
     0
102
RTVSPropertyOp10
 70
     0
102
RTVSPropertyOp11
 70
     0
102
RTVSPropertyOp12
 70
     0
102
RTVSPropertyOp13
 70
     0
102
RTVSPropertyOp14
 70
     2
102
RTVSPropertyOp15
 70
     0
102
RTVSPropertyOp16
 70
     0
102
RTVSPropertyOp17
 70
     0
102
RTVSPropertyOp18
 70
     0
102
RTVSPropertyOp19
 70
     0
102
RTVSPropertyOp20
 70
     0
102
RTVSPropertyOp21
 70
     0
102
RTVSPropertyOp22
 70
     0
102
RTVSPropertyOp23
 70
     0
102
RTVSPropertyOp24
 70
     0
102
RTVSPropertyOp25
 70
     0
102
RTVSPropertyOp26
 70
     0
102
RTVSPropertyOp27
 70
     0
102
RTVSPropertyOp28
 70
     1
102
RTVSPropertyOp29
 70
     1
102
RTVSPropertyOp30
 70
     1
102
RTVSPropertyOp31
 70
     1
102
RTVSPropertyOp32
 70
     1
102
RTVSPropertyOp33
 70
     1
102
RTVSPropertyOp34
 70
     1
102
RTVSPropertyOp35
 70
     1
102
RTVSPropertyOp36
 70
     1
102
RTVSPropertyOp37
 70
     0
102
RTVSPropertyOp38
 70
     0
102
RTVSPropertyOp39
 70
     0
102
RTVSPropertyOp40
 70
     0
102
RTVSPropertyOp41
 70
     0
102
RTVSPropertyOp42
 70
     0
102
RTVSPropertyOp43
 70
     0
102
RTVSPropertyOp44
 70
     0
102
RTVSPropertyOp45
 70
     1
102
RTVSPropertyOp46
 70
     0
102
RTVSPropertyOp47
 70
     0
102
RTVSPropertyOp48
 70
     0
102
RTVSPropertyOp49
 70
     1
102
RTVSPropertyOp50
 70
     0
102
RTVSPropertyOp51
 70
     0
102
RTVSPropertyOp52
 70
     0
102
RTVSPropertyOp53
 70
     0
102
RTVSPropertyOp54
 70
     0
102
RTVSPropertyOp55
 70
     1
102
RTVSPropertyOp56
 70
     0
102
RTVSPropertyOp57
 70
     0
102
RTVSPropertyOp58
 70
     0
102
RTVSPropertyOp59
 70
     0
102
RTVSPropertyOp60
 70
     0
102
RTVSPropertyOp61
 70
     0
102
RTVSPropertyOp62
 70
     0
  0
XRECORD
  5
99C9
102
{ACAD_REACTORS
330
99C8
102
}
330
99C8
100
AcDbXrecord
280
     1
102
RTVSPost2010Prop28
280
     0
102
RTVSPost2010PropOp28
 70
     1
102
RTVSPost2010Prop29
280
     1
102
RTVSPost2010PropOp29
 70
     1
102
RTVSPost2010Prop30
280
     1
102
RTVSPost2010PropOp30
 70
     1
102
RTVSPost2010Prop31
280
     0
102
RTVSPost2010PropOp31
 70
     1
102
RTVSPost2010Prop32
280
     0
102
RTVSPost2010PropOp32
 70
     1
102
RTVSPost2010Prop33
280
     0
102
RTVSPost2010PropOp33
 70
     1
102
RTVSPost2010Prop34
280
     0
102
RTVSPost2010PropOp34
 70
     1
102
RTVSPost2010Prop35
280
     0
102
RTVSPost2010PropOp35
 70
     1
102
RTVSPost2010Prop36
280
     0
102
RTVSPost2010PropOp36
 70
     1
102
RTVSPost2010Prop37
 90
       50
102
RTVSPost2010PropOp37
 70
     1
102
RTVSPost2010Prop38
140
0.0
102
RTVSPost2010PropOp38
 70
     1
102
RTVSPost2010Prop39
140
1.0
102
RTVSPost2010PropOp39
 70
     1
102
RTVSPost2010Prop40
 90
        0
102
RTVSPost2010PropOp40
 70
     1
102
RTVSPost2010Prop41ColorIndex
 90
       18
102
RTVSPost2010Prop41ColorRGB
 90
        0
102
RTVSPost2010PropOp41
 70
     1
102
RTVSPost2010Prop42
 90
       50
102
RTVSPost2010PropOp42
 70
     1
102
RTVSPost2010Prop43
 90
        3
102
RTVSPost2010PropOp43
 70
     1
102
RTVSPost2010Prop44ColorIndex
 90
        5
102
RTVSPost2010Prop44ColorRGB
 90
      255
102
RTVSPost2010PropOp44
 70
     1
102
RTVSPost2010Prop45
280
     0
102
RTVSPost2010PropOp45
 70
     1
102
RTVSPost2010Prop46
 90
       50
102
RTVSPost2010PropOp46
 70
     1
102
RTVSPost2010Prop47
 90
       50
102
RTVSPost2010PropOp47
 70
     1
102
RTVSPost2010Prop48
 90
       50
102
RTVSPost2010PropOp48
 70
     1
102
RTVSPost2010Prop49
280
     0
102
RTVSPost2010PropOp49
 70
     1
102
RTVSPost2010Prop50
 90
       50
102
RTVSPost2010PropOp50
 70
     1
102
RTVSPost2010Prop51ColorIndex
 90
      256
102
RTVSPost2010Prop51ColorRGB
 90
-16777216
102
RTVSPost2010PropOp51
 70
     0
102
RTVSPost2010Prop52
140
1.0
102
RTVSPost2010PropOp52
 70
     0
102
RTVSPost2010Prop53
 90
        2
102
RTVSPost2010PropOp53
 70
     1
102
RTVSPost2010Prop54
  1
strokes_ogs.tif
102
RTVSPost2010PropOp54
 70
     1
102
RTVSPost2010Prop55
280
     0
102
RTVSPost2010PropOp55
 70
     1
102
RTVSPost2010Prop56
140
1.0
102
RTVSPost2010PropOp56
 70
     1
102
RTVSPost2010Prop57
140
1.0
102
RTVSPost2010PropOp57
 70
     1
102
RTVSPropertyOp0
 70
     1
102
RTVSPropertyOp1
 70
     1
102
RTVSPropertyOp2
 70
     1
102
RTVSPropertyOp3
 70
     1
102
RTVSPropertyOp4
 70
     1
102
RTVSPropertyOp5
 70
     1
102
RTVSPropertyOp6
 70
     1
102
RTVSPropertyOp7
 70
     1
102
RTVSPropertyOp8
 70
     1
102
RTVSPropertyOp9
 70
     1
102
RTVSPropertyOp10
 70
     1
102
RTVSPropertyOp11
 70
     1
102
RTVSPropertyOp12
 70
     1
102
RTVSPropertyOp13
 70
     1
102
RTVSPropertyOp14
 70
     1
102
RTVSPropertyOp15
 70
     1
102
RTVSPropertyOp16
 70
     1
102
RTVSPropertyOp17
 70
     1
102
RTVSPropertyOp18
 70
     1
102
RTVSPropertyOp19
 70
     1
102
RTVSPropertyOp20
 70
     1
102
RTVSPropertyOp21
 70
     1
102
RTVSPropertyOp22
 70
     1
102
RTVSPropertyOp23
 70
     1
102
RTVSPropertyOp24
 70
     1
102
RTVSPropertyOp25
 70
     1
102
RTVSPropertyOp26
 70
     1
102
RTVSPropertyOp27
 70
     1
102
RTVSPropertyOp28
 70
     1
102
RTVSPropertyOp29
 70
     1
102
RTVSPropertyOp30
 70
     1
102
RTVSPropertyOp31
 70
     1
102
RTVSPropertyOp32
 70
     1
102
RTVSPropertyOp33
 70
     1
102
RTVSPropertyOp34
 70
     1
102
RTVSPropertyOp35
 70
     1
102
RTVSPropertyOp36
 70
     1
102
RTVSPropertyOp37
 70
     1
102
RTVSPropertyOp38
 70
     1
102
RTVSPropertyOp39
 70
     1
102
RTVSPropertyOp40
 70
     1
102
RTVSPropertyOp41
 70
     1
102
RTVSPropertyOp42
 70
     1
102
RTVSPropertyOp43
 70
     1
102
RTVSPropertyOp44
 70
     1
102
RTVSPropertyOp45
 70
     1
102
RTVSPropertyOp46
 70
     1
102
RTVSPropertyOp47
 70
     1
102
RTVSPropertyOp48
 70
     1
102
RTVSPropertyOp49
 70
     1
102
RTVSPropertyOp50
 70
     1
102
RTVSPropertyOp51
 70
     0
102
RTVSPropertyOp52
 70
     0
102
RTVSPropertyOp53
 70
     1
102
RTVSPropertyOp54
 70
     1
102
RTVSPropertyOp55
 70
     1
102
RTVSPropertyOp56
 70
     1
102
RTVSPropertyOp57
 70
     1
102
RTVSPropertyOp58
 70
     1
102
RTVSPropertyOp59
 70
     1
102
RTVSPropertyOp60
 70
     1
102
RTVSPropertyOp61
 70
     1
102
RTVSPropertyOp62
 70
     1
  0
XRECORD
  5
99DB
102
{ACAD_REACTORS
330
99DA
102
}
330
99DA
100
AcDbXrecord
280
     1
102
RTVSPost2010Prop28
280
     0
102
RTVSPost2010PropOp28
 70
     1
102
RTVSPost2010Prop29
280
     1
102
RTVSPost2010PropOp29
 70
     1
102
RTVSPost2010Prop30
280
     1
102
RTVSPost2010PropOp30
 70
     1
102
RTVSPost2010Prop31
280
     0
102
RTVSPost2010PropOp31
 70
     1
102
RTVSPost2010Prop32
280
     0
102
RTVSPost2010PropOp32
 70
     1
102
RTVSPost2010Prop33
280
     0
102
RTVSPost2010PropOp33
 70
     1
102
RTVSPost2010Prop34
280
     0
102
RTVSPost2010PropOp34
 70
     1
102
RTVSPost2010Prop35
280
     0
102
RTVSPost2010PropOp35
 70
     1
102
RTVSPost2010Prop36
280
     0
102
RTVSPost2010PropOp36
 70
     1
102
RTVSPost2010Prop37
 90
       50
102
RTVSPost2010PropOp37
 70
     0
102
RTVSPost2010Prop38
140
0.0
102
RTVSPost2010PropOp38
 70
     0
102
RTVSPost2010Prop39
140
1.0
102
RTVSPost2010PropOp39
 70
     0
102
RTVSPost2010Prop40
 90
        0
102
RTVSPost2010PropOp40
 70
     0
102
RTVSPost2010Prop41ColorIndex
 90
       18
102
RTVSPost2010Prop41ColorRGB
 90
        0
102
RTVSPost2010PropOp41
 70
     0
102
RTVSPost2010Prop42
 90
       50
102
RTVSPost2010PropOp42
 70
     0
102
RTVSPost2010Prop43
 90
        3
102
RTVSPost2010PropOp43
 70
     0
102
RTVSPost2010Prop44ColorIndex
 90
        5
102
RTVSPost2010Prop44ColorRGB
 90
      255
102
RTVSPost2010PropOp44
 70
     0
102
RTVSPost2010Prop45
280
     0
102
RTVSPost2010PropOp45
 70
     1
102
RTVSPost2010Prop46
 90
       50
102
RTVSPost2010PropOp46
 70
     0
102
RTVSPost2010Prop47
 90
       50
102
RTVSPost2010PropOp47
 70
     0
102
RTVSPost2010Prop48
 90
       50
102
RTVSPost2010PropOp48
 70
     0
102
RTVSPost2010Prop49
280
     0
102
RTVSPost2010PropOp49
 70
     1
102
RTVSPost2010Prop50
 90
       50
102
RTVSPost2010PropOp50
 70
     0
102
RTVSPost2010Prop51ColorIndex
 90
      256
102
RTVSPost2010Prop51ColorRGB
 90
-16777216
102
RTVSPost2010PropOp51
 70
     0
102
RTVSPost2010Prop52
140
1.0
102
RTVSPost2010PropOp52
 70
     0
102
RTVSPost2010Prop53
 90
        2
102
RTVSPost2010PropOp53
 70
     0
102
RTVSPost2010Prop54
  1
strokes_ogs.tif
102
RTVSPost2010PropOp54
 70
     0
102
RTVSPost2010Prop55
280
     0
102
RTVSPost2010PropOp55
 70
     1
102
RTVSPost2010Prop56
140
1.0
102
RTVSPost2010PropOp56
 70
     0
102
RTVSPost2010Prop57
140
1.0
102
RTVSPost2010PropOp57
 70
     0
102
RTVSPropertyOp0
 70
     0
102
RTVSPropertyOp1
 70
     0
102
RTVSPropertyOp2
 70
     0
102
RTVSPropertyOp3
 70
     0
102
RTVSPropertyOp4
 70
     0
102
RTVSPropertyOp5
 70
     0
102
RTVSPropertyOp6
 70
     0
102
RTVSPropertyOp7
 70
     0
102
RTVSPropertyOp8
 70
     0
102
RTVSPropertyOp9
 70
     0
102
RTVSPropertyOp10
 70
     0
102
RTVSPropertyOp11
 70
     0
102
RTVSPropertyOp12
 70
     0
102
RTVSPropertyOp13
 70
     0
102
RTVSPropertyOp14
 70
     2
102
RTVSPropertyOp15
 70
     0
102
RTVSPropertyOp16
 70
     0
102
RTVSPropertyOp17
 70
     0
102
RTVSPropertyOp18
 70
     0
102
RTVSPropertyOp19
 70
     0
102
RTVSPropertyOp20
 70
     0
102
RTVSPropertyOp21
 70
     0
102
RTVSPropertyOp22
 70
     0
102
RTVSPropertyOp23
 70
     0
102
RTVSPropertyOp24
 70
     0
102
RTVSPropertyOp25
 70
     0
102
RTVSPropertyOp26
 70
     0
102
RTVSPropertyOp27
 70
     0
102
RTVSPropertyOp28
 70
     1
102
RTVSPropertyOp29
 70
     1
102
RTVSPropertyOp30
 70
     1
102
RTVSPropertyOp31
 70
     1
102
RTVSPropertyOp32
 70
     1
102
RTVSPropertyOp33
 70
     1
102
RTVSPropertyOp34
 70
     1
102
RTVSPropertyOp35
 70
     1
102
RTVSPropertyOp36
 70
     1
102
RTVSPropertyOp37
 70
     0
102
RTVSPropertyOp38
 70
     0
102
RTVSPropertyOp39
 70
     0
102
RTVSPropertyOp40
 70
     0
102
RTVSPropertyOp41
 70
     0
102
RTVSPropertyOp42
 70
     0
102
RTVSPropertyOp43
 70
     0
102
RTVSPropertyOp44
 70
     0
102
RTVSPropertyOp45
 70
     1
102
RTVSPropertyOp46
 70
     0
102
RTVSPropertyOp47
 70
     0
102
RTVSPropertyOp48
 70
     0
102
RTVSPropertyOp49
 70
     1
102
RTVSPropertyOp50
 70
     0
102
RTVSPropertyOp51
 70
     0
102
RTVSPropertyOp52
 70
     0
102
RTVSPropertyOp53
 70
     0
102
RTVSPropertyOp54
 70
     0
102
RTVSPropertyOp55
 70
     1
102
RTVSPropertyOp56
 70
     0
102
RTVSPropertyOp57
 70
     0
102
RTVSPropertyOp58
 70
     0
102
RTVSPropertyOp59
 70
     0
102
RTVSPropertyOp60
 70
     0
102
RTVSPropertyOp61
 70
     0
102
RTVSPropertyOp62
 70
     0
  0
XRECORD
  5
99C1
102
{ACAD_REACTORS
330
99C0
102
}
330
99C0
100
AcDbXrecord
280
     1
102
RTVSPost2010Prop28
280
     0
102
RTVSPost2010PropOp28
 70
     1
102
RTVSPost2010Prop29
280
     1
102
RTVSPost2010PropOp29
 70
     1
102
RTVSPost2010Prop30
280
     1
102
RTVSPost2010PropOp30
 70
     1
102
RTVSPost2010Prop31
280
     0
102
RTVSPost2010PropOp31
 70
     1
102
RTVSPost2010Prop32
280
     0
102
RTVSPost2010PropOp32
 70
     1
102
RTVSPost2010Prop33
280
     0
102
RTVSPost2010PropOp33
 70
     1
102
RTVSPost2010Prop34
280
     0
102
RTVSPost2010PropOp34
 70
     1
102
RTVSPost2010Prop35
280
     0
102
RTVSPost2010PropOp35
 70
     1
102
RTVSPost2010Prop36
280
     0
102
RTVSPost2010PropOp36
 70
     1
102
RTVSPost2010Prop37
 90
       50
102
RTVSPost2010PropOp37
 70
     1
102
RTVSPost2010Prop38
140
0.0
102
RTVSPost2010PropOp38
 70
     1
102
RTVSPost2010Prop39
140
1.0
102
RTVSPost2010PropOp39
 70
     1
102
RTVSPost2010Prop40
 90
        0
102
RTVSPost2010PropOp40
 70
     1
102
RTVSPost2010Prop41ColorIndex
 90
       18
102
RTVSPost2010Prop41ColorRGB
 90
        0
102
RTVSPost2010PropOp41
 70
     1
102
RTVSPost2010Prop42
 90
       50
102
RTVSPost2010PropOp42
 70
     1
102
RTVSPost2010Prop43
 90
        3
102
RTVSPost2010PropOp43
 70
     1
102
RTVSPost2010Prop44ColorIndex
 90
        5
102
RTVSPost2010Prop44ColorRGB
 90
      255
102
RTVSPost2010PropOp44
 70
     1
102
RTVSPost2010Prop45
280
     0
102
RTVSPost2010PropOp45
 70
     1
102
RTVSPost2010Prop46
 90
       50
102
RTVSPost2010PropOp46
 70
     1
102
RTVSPost2010Prop47
 90
       50
102
RTVSPost2010PropOp47
 70
     1
102
RTVSPost2010Prop48
 90
       50
102
RTVSPost2010PropOp48
 70
     1
102
RTVSPost2010Prop49
280
     0
102
RTVSPost2010PropOp49
 70
     1
102
RTVSPost2010Prop50
 90
       50
102
RTVSPost2010PropOp50
 70
     1
102
RTVSPost2010Prop51ColorIndex
 90
      256
102
RTVSPost2010Prop51ColorRGB
 90
-16777216
102
RTVSPost2010PropOp51
 70
     0
102
RTVSPost2010Prop52
140
1.0
102
RTVSPost2010PropOp52
 70
     0
102
RTVSPost2010Prop53
 90
        2
102
RTVSPost2010PropOp53
 70
     1
102
RTVSPost2010Prop54
  1
strokes_ogs.tif
102
RTVSPost2010PropOp54
 70
     1
102
RTVSPost2010Prop55
280
     0
102
RTVSPost2010PropOp55
 70
     1
102
RTVSPost2010Prop56
140
1.0
102
RTVSPost2010PropOp56
 70
     1
102
RTVSPost2010Prop57
140
1.0
102
RTVSPost2010PropOp57
 70
     1
102
RTVSPropertyOp0
 70
     1
102
RTVSPropertyOp1
 70
     1
102
RTVSPropertyOp2
 70
     1
102
RTVSPropertyOp3
 70
     1
102
RTVSPropertyOp4
 70
     1
102
RTVSPropertyOp5
 70
     1
102
RTVSPropertyOp6
 70
     1
102
RTVSPropertyOp7
 70
     1
102
RTVSPropertyOp8
 70
     1
102
RTVSPropertyOp9
 70
     1
102
RTVSPropertyOp10
 70
     1
102
RTVSPropertyOp11
 70
     1
102
RTVSPropertyOp12
 70
     1
102
RTVSPropertyOp13
 70
     1
102
RTVSPropertyOp14
 70
     1
102
RTVSPropertyOp15
 70
     1
102
RTVSPropertyOp16
 70
     1
102
RTVSPropertyOp17
 70
     1
102
RTVSPropertyOp18
 70
     1
102
RTVSPropertyOp19
 70
     1
102
RTVSPropertyOp20
 70
     1
102
RTVSPropertyOp21
 70
     1
102
RTVSPropertyOp22
 70
     1
102
RTVSPropertyOp23
 70
     1
102
RTVSPropertyOp24
 70
     1
102
RTVSPropertyOp25
 70
     1
102
RTVSPropertyOp26
 70
     1
102
RTVSPropertyOp27
 70
     1
102
RTVSPropertyOp28
 70
     1
102
RTVSPropertyOp29
 70
     1
102
RTVSPropertyOp30
 70
     1
102
RTVSPropertyOp31
 70
     1
102
RTVSPropertyOp32
 70
     1
102
RTVSPropertyOp33
 70
     1
102
RTVSPropertyOp34
 70
     1
102
RTVSPropertyOp35
 70
     1
102
RTVSPropertyOp36
 70
     1
102
RTVSPropertyOp37
 70
     1
102
RTVSPropertyOp38
 70
     1
102
RTVSPropertyOp39
 70
     1
102
RTVSPropertyOp40
 70
     1
102
RTVSPropertyOp41
 70
     1
102
RTVSPropertyOp42
 70
     1
102
RTVSPropertyOp43
 70
     1
102
RTVSPropertyOp44
 70
     1
102
RTVSPropertyOp45
 70
     1
102
RTVSPropertyOp46
 70
     1
102
RTVSPropertyOp47
 70
     1
102
RTVSPropertyOp48
 70
     1
102
RTVSPropertyOp49
 70
     1
102
RTVSPropertyOp50
 70
     1
102
RTVSPropertyOp51
 70
     0
102
RTVSPropertyOp52
 70
     0
102
RTVSPropertyOp53
 70
     1
102
RTVSPropertyOp54
 70
     1
102
RTVSPropertyOp55
 70
     1
102
RTVSPropertyOp56
 70
     1
102
RTVSPropertyOp57
 70
     1
102
RTVSPropertyOp58
 70
     1
102
RTVSPropertyOp59
 70
     1
102
RTVSPropertyOp60
 70
     1
102
RTVSPropertyOp61
 70
     1
102
RTVSPropertyOp62
 70
     1
  0
XRECORD
  5
99D7
102
{ACAD_REACTORS
330
99D6
102
}
330
99D6
100
AcDbXrecord
280
     1
102
RTVSPost2010Prop28
280
     0
102
RTVSPost2010PropOp28
 70
     1
102
RTVSPost2010Prop29
280
     1
102
RTVSPost2010PropOp29
 70
     1
102
RTVSPost2010Prop30
280
     1
102
RTVSPost2010PropOp30
 70
     1
102
RTVSPost2010Prop31
280
     0
102
RTVSPost2010PropOp31
 70
     1
102
RTVSPost2010Prop32
280
     0
102
RTVSPost2010PropOp32
 70
     1
102
RTVSPost2010Prop33
280
     0
102
RTVSPost2010PropOp33
 70
     1
102
RTVSPost2010Prop34
280
     0
102
RTVSPost2010PropOp34
 70
     1
102
RTVSPost2010Prop35
280
     0
102
RTVSPost2010PropOp35
 70
     1
102
RTVSPost2010Prop36
280
     0
102
RTVSPost2010PropOp36
 70
     1
102
RTVSPost2010Prop37
 90
       50
102
RTVSPost2010PropOp37
 70
     1
102
RTVSPost2010Prop38
140
0.0
102
RTVSPost2010PropOp38
 70
     1
102
RTVSPost2010Prop39
140
1.0
102
RTVSPost2010PropOp39
 70
     1
102
RTVSPost2010Prop40
 90
        0
102
RTVSPost2010PropOp40
 70
     1
102
RTVSPost2010Prop41ColorIndex
 90
       18
102
RTVSPost2010Prop41ColorRGB
 90
        0
102
RTVSPost2010PropOp41
 70
     1
102
RTVSPost2010Prop42
 90
       50
102
RTVSPost2010PropOp42
 70
     1
102
RTVSPost2010Prop43
 90
        3
102
RTVSPost2010PropOp43
 70
     1
102
RTVSPost2010Prop44ColorIndex
 90
        5
102
RTVSPost2010Prop44ColorRGB
 90
      255
102
RTVSPost2010PropOp44
 70
     1
102
RTVSPost2010Prop45
280
     0
102
RTVSPost2010PropOp45
 70
     1
102
RTVSPost2010Prop46
 90
       50
102
RTVSPost2010PropOp46
 70
     1
102
RTVSPost2010Prop47
 90
       50
102
RTVSPost2010PropOp47
 70
     1
102
RTVSPost2010Prop48
 90
       50
102
RTVSPost2010PropOp48
 70
     1
102
RTVSPost2010Prop49
280
     0
102
RTVSPost2010PropOp49
 70
     1
102
RTVSPost2010Prop50
 90
       50
102
RTVSPost2010PropOp50
 70
     1
102
RTVSPost2010Prop51ColorIndex
 90
      256
102
RTVSPost2010Prop51ColorRGB
 90
-16777216
102
RTVSPost2010PropOp51
 70
     0
102
RTVSPost2010Prop52
140
1.0
102
RTVSPost2010PropOp52
 70
     0
102
RTVSPost2010Prop53
 90
        2
102
RTVSPost2010PropOp53
 70
     1
102
RTVSPost2010Prop54
  1
strokes_ogs.tif
102
RTVSPost2010PropOp54
 70
     1
102
RTVSPost2010Prop55
280
     0
102
RTVSPost2010PropOp55
 70
     1
102
RTVSPost2010Prop56
140
1.0
102
RTVSPost2010PropOp56
 70
     1
102
RTVSPost2010Prop57
140
1.0
102
RTVSPost2010PropOp57
 70
     1
102
RTVSPropertyOp0
 70
     1
102
RTVSPropertyOp1
 70
     1
102
RTVSPropertyOp2
 70
     1
102
RTVSPropertyOp3
 70
     1
102
RTVSPropertyOp4
 70
     1
102
RTVSPropertyOp5
 70
     1
102
RTVSPropertyOp6
 70
     1
102
RTVSPropertyOp7
 70
     1
102
RTVSPropertyOp8
 70
     1
102
RTVSPropertyOp9
 70
     1
102
RTVSPropertyOp10
 70
     1
102
RTVSPropertyOp11
 70
     1
102
RTVSPropertyOp12
 70
     1
102
RTVSPropertyOp13
 70
     1
102
RTVSPropertyOp14
 70
     1
102
RTVSPropertyOp15
 70
     1
102
RTVSPropertyOp16
 70
     1
102
RTVSPropertyOp17
 70
     1
102
RTVSPropertyOp18
 70
     1
102
RTVSPropertyOp19
 70
     1
102
RTVSPropertyOp20
 70
     1
102
RTVSPropertyOp21
 70
     1
102
RTVSPropertyOp22
 70
     1
102
RTVSPropertyOp23
 70
     1
102
RTVSPropertyOp24
 70
     1
102
RTVSPropertyOp25
 70
     1
102
RTVSPropertyOp26
 70
     1
102
RTVSPropertyOp27
 70
     1
102
RTVSPropertyOp28
 70
     1
102
RTVSPropertyOp29
 70
     1
102
RTVSPropertyOp30
 70
     1
102
RTVSPropertyOp31
 70
     1
102
RTVSPropertyOp32
 70
     1
102
RTVSPropertyOp33
 70
     1
102
RTVSPropertyOp34
 70
     1
102
RTVSPropertyOp35
 70
     1
102
RTVSPropertyOp36
 70
     1
102
RTVSPropertyOp37
 70
     1
102
RTVSPropertyOp38
 70
     1
102
RTVSPropertyOp39
 70
     1
102
RTVSPropertyOp40
 70
     1
102
RTVSPropertyOp41
 70
     1
102
RTVSPropertyOp42
 70
     1
102
RTVSPropertyOp43
 70
     1
102
RTVSPropertyOp44
 70
     1
102
RTVSPropertyOp45
 70
     1
102
RTVSPropertyOp46
 70
     1
102
RTVSPropertyOp47
 70
     1
102
RTVSPropertyOp48
 70
     1
102
RTVSPropertyOp49
 70
     1
102
RTVSPropertyOp50
 70
     1
102
RTVSPropertyOp51
 70
     0
102
RTVSPropertyOp52
 70
     0
102
RTVSPropertyOp53
 70
     1
102
RTVSPropertyOp54
 70
     1
102
RTVSPropertyOp55
 70
     1
102
RTVSPropertyOp56
 70
     1
102
RTVSPropertyOp57
 70
     1
102
RTVSPropertyOp58
 70
     1
102
RTVSPropertyOp59
 70
     1
102
RTVSPropertyOp60
 70
     1
102
RTVSPropertyOp61
 70
     1
102
RTVSPropertyOp62
 70
     1
  0
XRECORD
  5
99D5
102
{ACAD_REACTORS
330
99D4
102
}
330
99D4
100
AcDbXrecord
280
     1
102
RTVSPost2010Prop28
280
     0
102
RTVSPost2010PropOp28
 70
     1
102
RTVSPost2010Prop29
280
     1
102
RTVSPost2010PropOp29
 70
     1
102
RTVSPost2010Prop30
280
     1
102
RTVSPost2010PropOp30
 70
     1
102
RTVSPost2010Prop31
280
     0
102
RTVSPost2010PropOp31
 70
     1
102
RTVSPost2010Prop32
280
     0
102
RTVSPost2010PropOp32
 70
     1
102
RTVSPost2010Prop33
280
     0
102
RTVSPost2010PropOp33
 70
     1
102
RTVSPost2010Prop34
280
     0
102
RTVSPost2010PropOp34
 70
     1
102
RTVSPost2010Prop35
280
     0
102
RTVSPost2010PropOp35
 70
     1
102
RTVSPost2010Prop36
280
     0
102
RTVSPost2010PropOp36
 70
     1
102
RTVSPost2010Prop37
 90
       50
102
RTVSPost2010PropOp37
 70
     1
102
RTVSPost2010Prop38
140
0.0
102
RTVSPost2010PropOp38
 70
     1
102
RTVSPost2010Prop39
140
1.0
102
RTVSPost2010PropOp39
 70
     1
102
RTVSPost2010Prop40
 90
        0
102
RTVSPost2010PropOp40
 70
     1
102
RTVSPost2010Prop41ColorIndex
 90
       18
102
RTVSPost2010Prop41ColorRGB
 90
        0
102
RTVSPost2010PropOp41
 70
     1
102
RTVSPost2010Prop42
 90
       50
102
RTVSPost2010PropOp42
 70
     1
102
RTVSPost2010Prop43
 90
        3
102
RTVSPost2010PropOp43
 70
     1
102
RTVSPost2010Prop44ColorIndex
 90
        5
102
RTVSPost2010Prop44ColorRGB
 90
      255
102
RTVSPost2010PropOp44
 70
     1
102
RTVSPost2010Prop45
280
     0
102
RTVSPost2010PropOp45
 70
     1
102
RTVSPost2010Prop46
 90
       50
102
RTVSPost2010PropOp46
 70
     1
102
RTVSPost2010Prop47
 90
       50
102
RTVSPost2010PropOp47
 70
     1
102
RTVSPost2010Prop48
 90
       50
102
RTVSPost2010PropOp48
 70
     1
102
RTVSPost2010Prop49
280
     0
102
RTVSPost2010PropOp49
 70
     1
102
RTVSPost2010Prop50
 90
       50
102
RTVSPost2010PropOp50
 70
     1
102
RTVSPost2010Prop51ColorIndex
 90
      256
102
RTVSPost2010Prop51ColorRGB
 90
-16777216
102
RTVSPost2010PropOp51
 70
     0
102
RTVSPost2010Prop52
140
1.0
102
RTVSPost2010PropOp52
 70
     0
102
RTVSPost2010Prop53
 90
        2
102
RTVSPost2010PropOp53
 70
     1
102
RTVSPost2010Prop54
  1
strokes_ogs.tif
102
RTVSPost2010PropOp54
 70
     1
102
RTVSPost2010Prop55
280
     0
102
RTVSPost2010PropOp55
 70
     1
102
RTVSPost2010Prop56
140
1.0
102
RTVSPost2010PropOp56
 70
     1
102
RTVSPost2010Prop57
140
1.0
102
RTVSPost2010PropOp57
 70
     1
102
RTVSPropertyOp0
 70
     1
102
RTVSPropertyOp1
 70
     1
102
RTVSPropertyOp2
 70
     1
102
RTVSPropertyOp3
 70
     1
102
RTVSPropertyOp4
 70
     1
102
RTVSPropertyOp5
 70
     1
102
RTVSPropertyOp6
 70
     1
102
RTVSPropertyOp7
 70
     1
102
RTVSPropertyOp8
 70
     1
102
RTVSPropertyOp9
 70
     1
102
RTVSPropertyOp10
 70
     1
102
RTVSPropertyOp11
 70
     1
102
RTVSPropertyOp12
 70
     1
102
RTVSPropertyOp13
 70
     1
102
RTVSPropertyOp14
 70
     1
102
RTVSPropertyOp15
 70
     1
102
RTVSPropertyOp16
 70
     1
102
RTVSPropertyOp17
 70
     1
102
RTVSPropertyOp18
 70
     1
102
RTVSPropertyOp19
 70
     1
102
RTVSPropertyOp20
 70
     1
102
RTVSPropertyOp21
 70
     1
102
RTVSPropertyOp22
 70
     1
102
RTVSPropertyOp23
 70
     1
102
RTVSPropertyOp24
 70
     1
102
RTVSPropertyOp25
 70
     1
102
RTVSPropertyOp26
 70
     1
102
RTVSPropertyOp27
 70
     1
102
RTVSPropertyOp28
 70
     1
102
RTVSPropertyOp29
 70
     1
102
RTVSPropertyOp30
 70
     1
102
RTVSPropertyOp31
 70
     1
102
RTVSPropertyOp32
 70
     1
102
RTVSPropertyOp33
 70
     1
102
RTVSPropertyOp34
 70
     1
102
RTVSPropertyOp35
 70
     1
102
RTVSPropertyOp36
 70
     1
102
RTVSPropertyOp37
 70
     1
102
RTVSPropertyOp38
 70
     1
102
RTVSPropertyOp39
 70
     1
102
RTVSPropertyOp40
 70
     1
102
RTVSPropertyOp41
 70
     1
102
RTVSPropertyOp42
 70
     1
102
RTVSPropertyOp43
 70
     1
102
RTVSPropertyOp44
 70
     1
102
RTVSPropertyOp45
 70
     1
102
RTVSPropertyOp46
 70
     1
102
RTVSPropertyOp47
 70
     1
102
RTVSPropertyOp48
 70
     1
102
RTVSPropertyOp49
 70
     1
102
RTVSPropertyOp50
 70
     1
102
RTVSPropertyOp51
 70
     0
102
RTVSPropertyOp52
 70
     0
102
RTVSPropertyOp53
 70
     1
102
RTVSPropertyOp54
 70
     1
102
RTVSPropertyOp55
 70
     1
102
RTVSPropertyOp56
 70
     1
102
RTVSPropertyOp57
 70
     1
102
RTVSPropertyOp58
 70
     1
102
RTVSPropertyOp59
 70
     1
102
RTVSPropertyOp60
 70
     1
102
RTVSPropertyOp61
 70
     1
102
RTVSPropertyOp62
 70
     1
  0
XRECORD
  5
99CF
102
{ACAD_REACTORS
330
99CE
102
}
330
99CE
100
AcDbXrecord
280
     1
102
RTVSPost2010Prop28
280
     0
102
RTVSPost2010PropOp28
 70
     1
102
RTVSPost2010Prop29
280
     1
102
RTVSPost2010PropOp29
 70
     1
102
RTVSPost2010Prop30
280
     1
102
RTVSPost2010PropOp30
 70
     1
102
RTVSPost2010Prop31
280
     0
102
RTVSPost2010PropOp31
 70
     1
102
RTVSPost2010Prop32
280
     0
102
RTVSPost2010PropOp32
 70
     1
102
RTVSPost2010Prop33
280
     0
102
RTVSPost2010PropOp33
 70
     1
102
RTVSPost2010Prop34
280
     0
102
RTVSPost2010PropOp34
 70
     1
102
RTVSPost2010Prop35
280
     0
102
RTVSPost2010PropOp35
 70
     1
102
RTVSPost2010Prop36
280
     0
102
RTVSPost2010PropOp36
 70
     1
102
RTVSPost2010Prop37
 90
       50
102
RTVSPost2010PropOp37
 70
     1
102
RTVSPost2010Prop38
140
0.0
102
RTVSPost2010PropOp38
 70
     1
102
RTVSPost2010Prop39
140
1.0
102
RTVSPost2010PropOp39
 70
     1
102
RTVSPost2010Prop40
 90
        0
102
RTVSPost2010PropOp40
 70
     1
102
RTVSPost2010Prop41ColorIndex
 90
       18
102
RTVSPost2010Prop41ColorRGB
 90
        0
102
RTVSPost2010PropOp41
 70
     1
102
RTVSPost2010Prop42
 90
       50
102
RTVSPost2010PropOp42
 70
     1
102
RTVSPost2010Prop43
 90
        3
102
RTVSPost2010PropOp43
 70
     1
102
RTVSPost2010Prop44ColorIndex
 90
        5
102
RTVSPost2010Prop44ColorRGB
 90
      255
102
RTVSPost2010PropOp44
 70
     1
102
RTVSPost2010Prop45
280
     0
102
RTVSPost2010PropOp45
 70
     1
102
RTVSPost2010Prop46
 90
       50
102
RTVSPost2010PropOp46
 70
     1
102
RTVSPost2010Prop47
 90
       50
102
RTVSPost2010PropOp47
 70
     1
102
RTVSPost2010Prop48
 90
       50
102
RTVSPost2010PropOp48
 70
     1
102
RTVSPost2010Prop49
280
     0
102
RTVSPost2010PropOp49
 70
     1
102
RTVSPost2010Prop50
 90
       50
102
RTVSPost2010PropOp50
 70
     1
102
RTVSPost2010Prop51ColorIndex
 90
      256
102
RTVSPost2010Prop51ColorRGB
 90
-16777216
102
RTVSPost2010PropOp51
 70
     0
102
RTVSPost2010Prop52
140
1.0
102
RTVSPost2010PropOp52
 70
     0
102
RTVSPost2010Prop53
 90
        2
102
RTVSPost2010PropOp53
 70
     1
102
RTVSPost2010Prop54
  1
strokes_ogs.tif
102
RTVSPost2010PropOp54
 70
     1
102
RTVSPost2010Prop55
280
     0
102
RTVSPost2010PropOp55
 70
     1
102
RTVSPost2010Prop56
140
1.0
102
RTVSPost2010PropOp56
 70
     1
102
RTVSPost2010Prop57
140
1.0
102
RTVSPost2010PropOp57
 70
     1
102
RTVSPropertyOp0
 70
     1
102
RTVSPropertyOp1
 70
     1
102
RTVSPropertyOp2
 70
     1
102
RTVSPropertyOp3
 70
     1
102
RTVSPropertyOp4
 70
     1
102
RTVSPropertyOp5
 70
     1
102
RTVSPropertyOp6
 70
     1
102
RTVSPropertyOp7
 70
     1
102
RTVSPropertyOp8
 70
     1
102
RTVSPropertyOp9
 70
     1
102
RTVSPropertyOp10
 70
     1
102
RTVSPropertyOp11
 70
     1
102
RTVSPropertyOp12
 70
     1
102
RTVSPropertyOp13
 70
     1
102
RTVSPropertyOp14
 70
     1
102
RTVSPropertyOp15
 70
     1
102
RTVSPropertyOp16
 70
     1
102
RTVSPropertyOp17
 70
     1
102
RTVSPropertyOp18
 70
     1
102
RTVSPropertyOp19
 70
     1
102
RTVSPropertyOp20
 70
     1
102
RTVSPropertyOp21
 70
     1
102
RTVSPropertyOp22
 70
     1
102
RTVSPropertyOp23
 70
     1
102
RTVSPropertyOp24
 70
     1
102
RTVSPropertyOp25
 70
     1
102
RTVSPropertyOp26
 70
     1
102
RTVSPropertyOp27
 70
     1
102
RTVSPropertyOp28
 70
     1
102
RTVSPropertyOp29
 70
     1
102
RTVSPropertyOp30
 70
     1
102
RTVSPropertyOp31
 70
     1
102
RTVSPropertyOp32
 70
     1
102
RTVSPropertyOp33
 70
     1
102
RTVSPropertyOp34
 70
     1
102
RTVSPropertyOp35
 70
     1
102
RTVSPropertyOp36
 70
     1
102
RTVSPropertyOp37
 70
     1
102
RTVSPropertyOp38
 70
     1
102
RTVSPropertyOp39
 70
     1
102
RTVSPropertyOp40
 70
     1
102
RTVSPropertyOp41
 70
     1
102
RTVSPropertyOp42
 70
     1
102
RTVSPropertyOp43
 70
     1
102
RTVSPropertyOp44
 70
     1
102
RTVSPropertyOp45
 70
     1
102
RTVSPropertyOp46
 70
     1
102
RTVSPropertyOp47
 70
     1
102
RTVSPropertyOp48
 70
     1
102
RTVSPropertyOp49
 70
     1
102
RTVSPropertyOp50
 70
     1
102
RTVSPropertyOp51
 70
     0
102
RTVSPropertyOp52
 70
     0
102
RTVSPropertyOp53
 70
     1
102
RTVSPropertyOp54
 70
     1
102
RTVSPropertyOp55
 70
     1
102
RTVSPropertyOp56
 70
     1
102
RTVSPropertyOp57
 70
     1
102
RTVSPropertyOp58
 70
     1
102
RTVSPropertyOp59
 70
     1
102
RTVSPropertyOp60
 70
     1
102
RTVSPropertyOp61
 70
     1
102
RTVSPropertyOp62
 70
     1
  0
XRECORD
  5
99D1
102
{ACAD_REACTORS
330
99D0
102
}
330
99D0
100
AcDbXrecord
280
     1
102
RTVSPost2010Prop28
280
     0
102
RTVSPost2010PropOp28
 70
     1
102
RTVSPost2010Prop29
280
     1
102
RTVSPost2010PropOp29
 70
     1
102
RTVSPost2010Prop30
280
     1
102
RTVSPost2010PropOp30
 70
     1
102
RTVSPost2010Prop31
280
     0
102
RTVSPost2010PropOp31
 70
     1
102
RTVSPost2010Prop32
280
     0
102
RTVSPost2010PropOp32
 70
     1
102
RTVSPost2010Prop33
280
     0
102
RTVSPost2010PropOp33
 70
     1
102
RTVSPost2010Prop34
280
     0
102
RTVSPost2010PropOp34
 70
     1
102
RTVSPost2010Prop35
280
     0
102
RTVSPost2010PropOp35
 70
     1
102
RTVSPost2010Prop36
280
     0
102
RTVSPost2010PropOp36
 70
     1
102
RTVSPost2010Prop37
 90
       50
102
RTVSPost2010PropOp37
 70
     1
102
RTVSPost2010Prop38
140
0.0
102
RTVSPost2010PropOp38
 70
     1
102
RTVSPost2010Prop39
140
1.0
102
RTVSPost2010PropOp39
 70
     1
102
RTVSPost2010Prop40
 90
        0
102
RTVSPost2010PropOp40
 70
     1
102
RTVSPost2010Prop41ColorIndex
 90
       18
102
RTVSPost2010Prop41ColorRGB
 90
        0
102
RTVSPost2010PropOp41
 70
     1
102
RTVSPost2010Prop42
 90
       50
102
RTVSPost2010PropOp42
 70
     1
102
RTVSPost2010Prop43
 90
        3
102
RTVSPost2010PropOp43
 70
     1
102
RTVSPost2010Prop44ColorIndex
 90
        5
102
RTVSPost2010Prop44ColorRGB
 90
      255
102
RTVSPost2010PropOp44
 70
     1
102
RTVSPost2010Prop45
280
     0
102
RTVSPost2010PropOp45
 70
     1
102
RTVSPost2010Prop46
 90
       50
102
RTVSPost2010PropOp46
 70
     1
102
RTVSPost2010Prop47
 90
       50
102
RTVSPost2010PropOp47
 70
     1
102
RTVSPost2010Prop48
 90
       50
102
RTVSPost2010PropOp48
 70
     1
102
RTVSPost2010Prop49
280
     0
102
RTVSPost2010PropOp49
 70
     1
102
RTVSPost2010Prop50
 90
       50
102
RTVSPost2010PropOp50
 70
     1
102
RTVSPost2010Prop51ColorIndex
 90
      256
102
RTVSPost2010Prop51ColorRGB
 90
-16777216
102
RTVSPost2010PropOp51
 70
     0
102
RTVSPost2010Prop52
140
1.0
102
RTVSPost2010PropOp52
 70
     0
102
RTVSPost2010Prop53
 90
        2
102
RTVSPost2010PropOp53
 70
     1
102
RTVSPost2010Prop54
  1
strokes_ogs.tif
102
RTVSPost2010PropOp54
 70
     1
102
RTVSPost2010Prop55
280
     0
102
RTVSPost2010PropOp55
 70
     1
102
RTVSPost2010Prop56
140
1.0
102
RTVSPost2010PropOp56
 70
     1
102
RTVSPost2010Prop57
140
1.0
102
RTVSPost2010PropOp57
 70
     1
102
RTVSPropertyOp0
 70
     1
102
RTVSPropertyOp1
 70
     1
102
RTVSPropertyOp2
 70
     1
102
RTVSPropertyOp3
 70
     1
102
RTVSPropertyOp4
 70
     1
102
RTVSPropertyOp5
 70
     1
102
RTVSPropertyOp6
 70
     1
102
RTVSPropertyOp7
 70
     1
102
RTVSPropertyOp8
 70
     1
102
RTVSPropertyOp9
 70
     1
102
RTVSPropertyOp10
 70
     1
102
RTVSPropertyOp11
 70
     1
102
RTVSPropertyOp12
 70
     1
102
RTVSPropertyOp13
 70
     1
102
RTVSPropertyOp14
 70
     1
102
RTVSPropertyOp15
 70
     1
102
RTVSPropertyOp16
 70
     1
102
RTVSPropertyOp17
 70
     1
102
RTVSPropertyOp18
 70
     1
102
RTVSPropertyOp19
 70
     1
102
RTVSPropertyOp20
 70
     1
102
RTVSPropertyOp21
 70
     1
102
RTVSPropertyOp22
 70
     1
102
RTVSPropertyOp23
 70
     1
102
RTVSPropertyOp24
 70
     1
102
RTVSPropertyOp25
 70
     1
102
RTVSPropertyOp26
 70
     1
102
RTVSPropertyOp27
 70
     1
102
RTVSPropertyOp28
 70
     1
102
RTVSPropertyOp29
 70
     1
102
RTVSPropertyOp30
 70
     1
102
RTVSPropertyOp31
 70
     1
102
RTVSPropertyOp32
 70
     1
102
RTVSPropertyOp33
 70
     1
102
RTVSPropertyOp34
 70
     1
102
RTVSPropertyOp35
 70
     1
102
RTVSPropertyOp36
 70
     1
102
RTVSPropertyOp37
 70
     1
102
RTVSPropertyOp38
 70
     1
102
RTVSPropertyOp39
 70
     1
102
RTVSPropertyOp40
 70
     1
102
RTVSPropertyOp41
 70
     1
102
RTVSPropertyOp42
 70
     1
102
RTVSPropertyOp43
 70
     1
102
RTVSPropertyOp44
 70
     1
102
RTVSPropertyOp45
 70
     1
102
RTVSPropertyOp46
 70
     1
102
RTVSPropertyOp47
 70
     1
102
RTVSPropertyOp48
 70
     1
102
RTVSPropertyOp49
 70
     1
102
RTVSPropertyOp50
 70
     1
102
RTVSPropertyOp51
 70
     0
102
RTVSPropertyOp52
 70
     0
102
RTVSPropertyOp53
 70
     1
102
RTVSPropertyOp54
 70
     1
102
RTVSPropertyOp55
 70
     1
102
RTVSPropertyOp56
 70
     1
102
RTVSPropertyOp57
 70
     1
102
RTVSPropertyOp58
 70
     1
102
RTVSPropertyOp59
 70
     1
102
RTVSPropertyOp60
 70
     1
102
RTVSPropertyOp61
 70
     1
102
RTVSPropertyOp62
 70
     1
  0
XRECORD
  5
99C7
102
{ACAD_REACTORS
330
99C6
102
}
330
99C6
100
AcDbXrecord
280
     1
102
RTVSPost2010Prop28
280
     0
102
RTVSPost2010PropOp28
 70
     1
102
RTVSPost2010Prop29
280
     1
102
RTVSPost2010PropOp29
 70
     1
102
RTVSPost2010Prop30
280
     1
102
RTVSPost2010PropOp30
 70
     1
102
RTVSPost2010Prop31
280
     0
102
RTVSPost2010PropOp31
 70
     1
102
RTVSPost2010Prop32
280
     0
102
RTVSPost2010PropOp32
 70
     1
102
RTVSPost2010Prop33
280
     0
102
RTVSPost2010PropOp33
 70
     1
102
RTVSPost2010Prop34
280
     0
102
RTVSPost2010PropOp34
 70
     1
102
RTVSPost2010Prop35
280
     0
102
RTVSPost2010PropOp35
 70
     1
102
RTVSPost2010Prop36
280
     0
102
RTVSPost2010PropOp36
 70
     1
102
RTVSPost2010Prop37
 90
       50
102
RTVSPost2010PropOp37
 70
     1
102
RTVSPost2010Prop38
140
0.0
102
RTVSPost2010PropOp38
 70
     1
102
RTVSPost2010Prop39
140
1.0
102
RTVSPost2010PropOp39
 70
     1
102
RTVSPost2010Prop40
 90
        0
102
RTVSPost2010PropOp40
 70
     1
102
RTVSPost2010Prop41ColorIndex
 90
       18
102
RTVSPost2010Prop41ColorRGB
 90
        0
102
RTVSPost2010PropOp41
 70
     1
102
RTVSPost2010Prop42
 90
       50
102
RTVSPost2010PropOp42
 70
     1
102
RTVSPost2010Prop43
 90
        3
102
RTVSPost2010PropOp43
 70
     1
102
RTVSPost2010Prop44ColorIndex
 90
        5
102
RTVSPost2010Prop44ColorRGB
 90
      255
102
RTVSPost2010PropOp44
 70
     1
102
RTVSPost2010Prop45
280
     0
102
RTVSPost2010PropOp45
 70
     1
102
RTVSPost2010Prop46
 90
       50
102
RTVSPost2010PropOp46
 70
     1
102
RTVSPost2010Prop47
 90
       50
102
RTVSPost2010PropOp47
 70
     1
102
RTVSPost2010Prop48
 90
       50
102
RTVSPost2010PropOp48
 70
     1
102
RTVSPost2010Prop49
280
     0
102
RTVSPost2010PropOp49
 70
     1
102
RTVSPost2010Prop50
 90
       50
102
RTVSPost2010PropOp50
 70
     1
102
RTVSPost2010Prop51ColorIndex
 90
      256
102
RTVSPost2010Prop51ColorRGB
 90
-16777216
102
RTVSPost2010PropOp51
 70
     0
102
RTVSPost2010Prop52
140
1.0
102
RTVSPost2010PropOp52
 70
     0
102
RTVSPost2010Prop53
 90
        2
102
RTVSPost2010PropOp53
 70
     1
102
RTVSPost2010Prop54
  1
strokes_ogs.tif
102
RTVSPost2010PropOp54
 70
     1
102
RTVSPost2010Prop55
280
     0
102
RTVSPost2010PropOp55
 70
     1
102
RTVSPost2010Prop56
140
1.0
102
RTVSPost2010PropOp56
 70
     1
102
RTVSPost2010Prop57
140
1.0
102
RTVSPost2010PropOp57
 70
     1
102
RTVSPropertyOp0
 70
     1
102
RTVSPropertyOp1
 70
     1
102
RTVSPropertyOp2
 70
     1
102
RTVSPropertyOp3
 70
     1
102
RTVSPropertyOp4
 70
     1
102
RTVSPropertyOp5
 70
     1
102
RTVSPropertyOp6
 70
     1
102
RTVSPropertyOp7
 70
     1
102
RTVSPropertyOp8
 70
     1
102
RTVSPropertyOp9
 70
     1
102
RTVSPropertyOp10
 70
     1
102
RTVSPropertyOp11
 70
     1
102
RTVSPropertyOp12
 70
     1
102
RTVSPropertyOp13
 70
     1
102
RTVSPropertyOp14
 70
     1
102
RTVSPropertyOp15
 70
     1
102
RTVSPropertyOp16
 70
     1
102
RTVSPropertyOp17
 70
     1
102
RTVSPropertyOp18
 70
     1
102
RTVSPropertyOp19
 70
     1
102
RTVSPropertyOp20
 70
     1
102
RTVSPropertyOp21
 70
     1
102
RTVSPropertyOp22
 70
     1
102
RTVSPropertyOp23
 70
     1
102
RTVSPropertyOp24
 70
     1
102
RTVSPropertyOp25
 70
     1
102
RTVSPropertyOp26
 70
     1
102
RTVSPropertyOp27
 70
     1
102
RTVSPropertyOp28
 70
     1
102
RTVSPropertyOp29
 70
     1
102
RTVSPropertyOp30
 70
     1
102
RTVSPropertyOp31
 70
     1
102
RTVSPropertyOp32
 70
     1
102
RTVSPropertyOp33
 70
     1
102
RTVSPropertyOp34
 70
     1
102
RTVSPropertyOp35
 70
     1
102
RTVSPropertyOp36
 70
     1
102
RTVSPropertyOp37
 70
     1
102
RTVSPropertyOp38
 70
     1
102
RTVSPropertyOp39
 70
     1
102
RTVSPropertyOp40
 70
     1
102
RTVSPropertyOp41
 70
     1
102
RTVSPropertyOp42
 70
     1
102
RTVSPropertyOp43
 70
     1
102
RTVSPropertyOp44
 70
     1
102
RTVSPropertyOp45
 70
     1
102
RTVSPropertyOp46
 70
     1
102
RTVSPropertyOp47
 70
     1
102
RTVSPropertyOp48
 70
     1
102
RTVSPropertyOp49
 70
     1
102
RTVSPropertyOp50
 70
     1
102
RTVSPropertyOp51
 70
     0
102
RTVSPropertyOp52
 70
     0
102
RTVSPropertyOp53
 70
     1
102
RTVSPropertyOp54
 70
     1
102
RTVSPropertyOp55
 70
     1
102
RTVSPropertyOp56
 70
     1
102
RTVSPropertyOp57
 70
     1
102
RTVSPropertyOp58
 70
     1
102
RTVSPropertyOp59
 70
     1
102
RTVSPropertyOp60
 70
     1
102
RTVSPropertyOp61
 70
     1
102
RTVSPropertyOp62
 70
     1
  0
XRECORD
  5
99BB
102
{ACAD_REACTORS
330
99BA
102
}
330
99BA
100
AcDbXrecord
280
     1
102
RTVSPost2010Prop28
280
     0
102
RTVSPost2010PropOp28
 70
     1
102
RTVSPost2010Prop29
280
     1
102
RTVSPost2010PropOp29
 70
     1
102
RTVSPost2010Prop30
280
     1
102
RTVSPost2010PropOp30
 70
     1
102
RTVSPost2010Prop31
280
     0
102
RTVSPost2010PropOp31
 70
     1
102
RTVSPost2010Prop32
280
     0
102
RTVSPost2010PropOp32
 70
     1
102
RTVSPost2010Prop33
280
     0
102
RTVSPost2010PropOp33
 70
     1
102
RTVSPost2010Prop34
280
     0
102
RTVSPost2010PropOp34
 70
     1
102
RTVSPost2010Prop35
280
     0
102
RTVSPost2010PropOp35
 70
     1
102
RTVSPost2010Prop36
280
     0
102
RTVSPost2010PropOp36
 70
     1
102
RTVSPost2010Prop37
 90
       50
102
RTVSPost2010PropOp37
 70
     1
102
RTVSPost2010Prop38
140
0.0
102
RTVSPost2010PropOp38
 70
     1
102
RTVSPost2010Prop39
140
1.0
102
RTVSPost2010PropOp39
 70
     1
102
RTVSPost2010Prop40
 90
        0
102
RTVSPost2010PropOp40
 70
     1
102
RTVSPost2010Prop41ColorIndex
 90
       18
102
RTVSPost2010Prop41ColorRGB
 90
        0
102
RTVSPost2010PropOp41
 70
     1
102
RTVSPost2010Prop42
 90
       50
102
RTVSPost2010PropOp42
 70
     1
102
RTVSPost2010Prop43
 90
        3
102
RTVSPost2010PropOp43
 70
     1
102
RTVSPost2010Prop44ColorIndex
 90
        5
102
RTVSPost2010Prop44ColorRGB
 90
      255
102
RTVSPost2010PropOp44
 70
     1
102
RTVSPost2010Prop45
280
     0
102
RTVSPost2010PropOp45
 70
     1
102
RTVSPost2010Prop46
 90
       50
102
RTVSPost2010PropOp46
 70
     1
102
RTVSPost2010Prop47
 90
       50
102
RTVSPost2010PropOp47
 70
     1
102
RTVSPost2010Prop48
 90
       50
102
RTVSPost2010PropOp48
 70
     1
102
RTVSPost2010Prop49
280
     0
102
RTVSPost2010PropOp49
 70
     1
102
RTVSPost2010Prop50
 90
       50
102
RTVSPost2010PropOp50
 70
     1
102
RTVSPost2010Prop51ColorIndex
 90
      256
102
RTVSPost2010Prop51ColorRGB
 90
-16777216
102
RTVSPost2010PropOp51
 70
     0
102
RTVSPost2010Prop52
140
1.0
102
RTVSPost2010PropOp52
 70
     0
102
RTVSPost2010Prop53
 90
        2
102
RTVSPost2010PropOp53
 70
     1
102
RTVSPost2010Prop54
  1
strokes_ogs.tif
102
RTVSPost2010PropOp54
 70
     1
102
RTVSPost2010Prop55
280
     0
102
RTVSPost2010PropOp55
 70
     1
102
RTVSPost2010Prop56
140
1.0
102
RTVSPost2010PropOp56
 70
     1
102
RTVSPost2010Prop57
140
1.0
102
RTVSPost2010PropOp57
 70
     1
102
RTVSPropertyOp0
 70
     1
102
RTVSPropertyOp1
 70
     1
102
RTVSPropertyOp2
 70
     1
102
RTVSPropertyOp3
 70
     1
102
RTVSPropertyOp4
 70
     1
102
RTVSPropertyOp5
 70
     1
102
RTVSPropertyOp6
 70
     1
102
RTVSPropertyOp7
 70
     1
102
RTVSPropertyOp8
 70
     1
102
RTVSPropertyOp9
 70
     1
102
RTVSPropertyOp10
 70
     1
102
RTVSPropertyOp11
 70
     1
102
RTVSPropertyOp12
 70
     1
102
RTVSPropertyOp13
 70
     1
102
RTVSPropertyOp14
 70
     1
102
RTVSPropertyOp15
 70
     1
102
RTVSPropertyOp16
 70
     1
102
RTVSPropertyOp17
 70
     1
102
RTVSPropertyOp18
 70
     1
102
RTVSPropertyOp19
 70
     1
102
RTVSPropertyOp20
 70
     1
102
RTVSPropertyOp21
 70
     1
102
RTVSPropertyOp22
 70
     1
102
RTVSPropertyOp23
 70
     1
102
RTVSPropertyOp24
 70
     1
102
RTVSPropertyOp25
 70
     1
102
RTVSPropertyOp26
 70
     1
102
RTVSPropertyOp27
 70
     1
102
RTVSPropertyOp28
 70
     1
102
RTVSPropertyOp29
 70
     1
102
RTVSPropertyOp30
 70
     1
102
RTVSPropertyOp31
 70
     1
102
RTVSPropertyOp32
 70
     1
102
RTVSPropertyOp33
 70
     1
102
RTVSPropertyOp34
 70
     1
102
RTVSPropertyOp35
 70
     1
102
RTVSPropertyOp36
 70
     1
102
RTVSPropertyOp37
 70
     1
102
RTVSPropertyOp38
 70
     1
102
RTVSPropertyOp39
 70
     1
102
RTVSPropertyOp40
 70
     1
102
RTVSPropertyOp41
 70
     1
102
RTVSPropertyOp42
 70
     1
102
RTVSPropertyOp43
 70
     1
102
RTVSPropertyOp44
 70
     1
102
RTVSPropertyOp45
 70
     1
102
RTVSPropertyOp46
 70
     1
102
RTVSPropertyOp47
 70
     1
102
RTVSPropertyOp48
 70
     1
102
RTVSPropertyOp49
 70
     1
102
RTVSPropertyOp50
 70
     1
102
RTVSPropertyOp51
 70
     0
102
RTVSPropertyOp52
 70
     0
102
RTVSPropertyOp53
 70
     1
102
RTVSPropertyOp54
 70
     1
102
RTVSPropertyOp55
 70
     1
102
RTVSPropertyOp56
 70
     1
102
RTVSPropertyOp57
 70
     1
102
RTVSPropertyOp58
 70
     1
102
RTVSPropertyOp59
 70
     1
102
RTVSPropertyOp60
 70
     1
102
RTVSPropertyOp61
 70
     1
102
RTVSPropertyOp62
 70
     1
  0
XRECORD
  5
99D3
102
{ACAD_REACTORS
330
99D2
102
}
330
99D2
100
AcDbXrecord
280
     1
102
RTVSPost2010Prop28
280
     0
102
RTVSPost2010PropOp28
 70
     1
102
RTVSPost2010Prop29
280
     1
102
RTVSPost2010PropOp29
 70
     1
102
RTVSPost2010Prop30
280
     1
102
RTVSPost2010PropOp30
 70
     1
102
RTVSPost2010Prop31
280
     0
102
RTVSPost2010PropOp31
 70
     1
102
RTVSPost2010Prop32
280
     0
102
RTVSPost2010PropOp32
 70
     1
102
RTVSPost2010Prop33
280
     0
102
RTVSPost2010PropOp33
 70
     1
102
RTVSPost2010Prop34
280
     0
102
RTVSPost2010PropOp34
 70
     1
102
RTVSPost2010Prop35
280
     0
102
RTVSPost2010PropOp35
 70
     1
102
RTVSPost2010Prop36
280
     0
102
RTVSPost2010PropOp36
 70
     1
102
RTVSPost2010Prop37
 90
       50
102
RTVSPost2010PropOp37
 70
     1
102
RTVSPost2010Prop38
140
0.0
102
RTVSPost2010PropOp38
 70
     1
102
RTVSPost2010Prop39
140
1.0
102
RTVSPost2010PropOp39
 70
     1
102
RTVSPost2010Prop40
 90
        0
102
RTVSPost2010PropOp40
 70
     1
102
RTVSPost2010Prop41ColorIndex
 90
       18
102
RTVSPost2010Prop41ColorRGB
 90
        0
102
RTVSPost2010PropOp41
 70
     1
102
RTVSPost2010Prop42
 90
       50
102
RTVSPost2010PropOp42
 70
     1
102
RTVSPost2010Prop43
 90
        3
102
RTVSPost2010PropOp43
 70
     1
102
RTVSPost2010Prop44ColorIndex
 90
        5
102
RTVSPost2010Prop44ColorRGB
 90
      255
102
RTVSPost2010PropOp44
 70
     1
102
RTVSPost2010Prop45
280
     0
102
RTVSPost2010PropOp45
 70
     1
102
RTVSPost2010Prop46
 90
       50
102
RTVSPost2010PropOp46
 70
     1
102
RTVSPost2010Prop47
 90
       50
102
RTVSPost2010PropOp47
 70
     1
102
RTVSPost2010Prop48
 90
       50
102
RTVSPost2010PropOp48
 70
     1
102
RTVSPost2010Prop49
280
     0
102
RTVSPost2010PropOp49
 70
     1
102
RTVSPost2010Prop50
 90
       50
102
RTVSPost2010PropOp50
 70
     1
102
RTVSPost2010Prop51ColorIndex
 90
      256
102
RTVSPost2010Prop51ColorRGB
 90
-16777216
102
RTVSPost2010PropOp51
 70
     0
102
RTVSPost2010Prop52
140
1.0
102
RTVSPost2010PropOp52
 70
     0
102
RTVSPost2010Prop53
 90
        2
102
RTVSPost2010PropOp53
 70
     1
102
RTVSPost2010Prop54
  1
strokes_ogs.tif
102
RTVSPost2010PropOp54
 70
     1
102
RTVSPost2010Prop55
280
     0
102
RTVSPost2010PropOp55
 70
     1
102
RTVSPost2010Prop56
140
1.0
102
RTVSPost2010PropOp56
 70
     1
102
RTVSPost2010Prop57
140
1.0
102
RTVSPost2010PropOp57
 70
     1
102
RTVSPropertyOp0
 70
     1
102
RTVSPropertyOp1
 70
     1
102
RTVSPropertyOp2
 70
     1
102
RTVSPropertyOp3
 70
     1
102
RTVSPropertyOp4
 70
     1
102
RTVSPropertyOp5
 70
     1
102
RTVSPropertyOp6
 70
     1
102
RTVSPropertyOp7
 70
     1
102
RTVSPropertyOp8
 70
     1
102
RTVSPropertyOp9
 70
     1
102
RTVSPropertyOp10
 70
     1
102
RTVSPropertyOp11
 70
     1
102
RTVSPropertyOp12
 70
     1
102
RTVSPropertyOp13
 70
     1
102
RTVSPropertyOp14
 70
     1
102
RTVSPropertyOp15
 70
     1
102
RTVSPropertyOp16
 70
     1
102
RTVSPropertyOp17
 70
     1
102
RTVSPropertyOp18
 70
     1
102
RTVSPropertyOp19
 70
     1
102
RTVSPropertyOp20
 70
     1
102
RTVSPropertyOp21
 70
     1
102
RTVSPropertyOp22
 70
     1
102
RTVSPropertyOp23
 70
     1
102
RTVSPropertyOp24
 70
     1
102
RTVSPropertyOp25
 70
     1
102
RTVSPropertyOp26
 70
     1
102
RTVSPropertyOp27
 70
     1
102
RTVSPropertyOp28
 70
     1
102
RTVSPropertyOp29
 70
     1
102
RTVSPropertyOp30
 70
     1
102
RTVSPropertyOp31
 70
     1
102
RTVSPropertyOp32
 70
     1
102
RTVSPropertyOp33
 70
     1
102
RTVSPropertyOp34
 70
     1
102
RTVSPropertyOp35
 70
     1
102
RTVSPropertyOp36
 70
     1
102
RTVSPropertyOp37
 70
     1
102
RTVSPropertyOp38
 70
     1
102
RTVSPropertyOp39
 70
     1
102
RTVSPropertyOp40
 70
     1
102
RTVSPropertyOp41
 70
     1
102
RTVSPropertyOp42
 70
     1
102
RTVSPropertyOp43
 70
     1
102
RTVSPropertyOp44
 70
     1
102
RTVSPropertyOp45
 70
     1
102
RTVSPropertyOp46
 70
     1
102
RTVSPropertyOp47
 70
     1
102
RTVSPropertyOp48
 70
     1
102
RTVSPropertyOp49
 70
     1
102
RTVSPropertyOp50
 70
     1
102
RTVSPropertyOp51
 70
     0
102
RTVSPropertyOp52
 70
     0
102
RTVSPropertyOp53
 70
     1
102
RTVSPropertyOp54
 70
     1
102
RTVSPropertyOp55
 70
     1
102
RTVSPropertyOp56
 70
     1
102
RTVSPropertyOp57
 70
     1
102
RTVSPropertyOp58
 70
     1
102
RTVSPropertyOp59
 70
     1
102
RTVSPropertyOp60
 70
     1
102
RTVSPropertyOp61
 70
     1
102
RTVSPropertyOp62
 70
     1
  0
ENDSEC
  0
EOF
