  0
SECTION
  2
HEADER
  9
$ACADVER
  1
AC1015
  9
$ACADMAINTVER
 70
    20
  9
$DWGCODEPAGE
  3
ANSI_932
  9
$INSBASE
 10
0.0
 20
0.0
 30
0.0
  9
$EXTMIN
 10
10.0
 20
9.999999999999998
 30
0.0
  9
$EXTMAX
 10
353.1412639999999
 20
204.243011
 30
0.0
  9
$LIMMIN
 10
0.0
 20
0.0
  9
$LIMMAX
 10
396.0
 20
273.0
  9
$ORTHOMODE
 70
     1
  9
$REGENMODE
 70
     1
  9
$FILLMODE
 70
     1
  9
$QTEXTMODE
 70
     0
  9
$MIRRTEXT
 70
     1
  9
$LTSCALE
 40
20.0
  9
$ATTMODE
 70
     1
  9
$TEXTSIZE
 40
5.0
  9
$TRACEWID
 40
1.0
  9
$TEXTSTYLE
  7
STANDARD
  9
$CLAYER
  8
0
  9
$CELTYPE
  6
BYLAYER
  9
$CECOLOR
 62
   256
  9
$CELTSCALE
 40
1.0
  9
$DISPSILH
 70
     0
  9
$DIMSCALE
 40
1.0
  9
$DIMASZ
 40
3.0
  9
$DIMEXO
 40
1.0
  9
$DIMDLI
 40
10.0
  9
$DIMRND
 40
0.0
  9
$DIMDLE
 40
0.0
  9
$DIMEXE
 40
1.0
  9
$DIMTP
 40
0.0
  9
$DIMTM
 40
0.0
  9
$DIMTXT
 40
3.2
  9
$DIMCEN
 40
0.0
  9
$DIMTSZ
 40
0.0
  9
$DIMTOL
 70
     0
  9
$DIMLIM
 70
     0
  9
$DIMTIH
 70
     0
  9
$DIMTOH
 70
     0
  9
$DIMSE1
 70
     0
  9
$DIMSE2
 70
     0
  9
$DIMTAD
 70
     3
  9
$DIMZIN
 70
     8
  9
$DIMBLK
  1

  9
$DIMASO
 70
     1
  9
$DIMSHO
 70
     1
  9
$DIMPOST
  1

  9
$DIMAPOST
  1

  9
$DIMALT
 70
     0
  9
$DIMALTD
 70
     2
  9
$DIMALTF
 40
25.4
  9
$DIMLFAC
 40
1.0
  9
$DIMTOFL
 70
     1
  9
$DIMTVP
 40
0.0
  9
$DIMTIX
 70
     0
  9
$DIMSOXD
 70
     0
  9
$DIMSAH
 70
     1
  9
$DIMBLK1
  1

  9
$DIMBLK2
  1

  9
$DIMSTYLE
  2
STANDARD
  9
$DIMCLRD
 70
     0
  9
$DIMCLRE
 70
     0
  9
$DIMCLRT
 70
     0
  9
$DIMTFAC
 40
1.0
  9
$DIMGAP
 40
1.0
  9
$DIMJUST
 70
     0
  9
$DIMSD1
 70
     0
  9
$DIMSD2
 70
     0
  9
$DIMTOLJ
 70
     1
  9
$DIMTZIN
 70
     0
  9
$DIMALTZ
 70
     0
  9
$DIMALTTZ
 70
     0
  9
$DIMUPT
 70
     0
  9
$DIMDEC
 70
     4
  9
$DIMTDEC
 70
     4
  9
$DIMALTU
 70
     2
  9
$DIMALTTD
 70
     2
  9
$DIMTXSTY
  7
STANDARD
  9
$DIMAUNIT
 70
     0
  9
$DIMADEC
 70
     0
  9
$DIMALTRND
 40
0.0
  9
$DIMAZIN
 70
     0
  9
$DIMDSEP
 70
    46
  9
$DIMATFIT
 70
     3
  9
$DIMFRAC
 70
     0
  9
$DIMLDRBLK
  1

  9
$DIMLUNIT
 70
     2
  9
$DIMLWD
 70
    -2
  9
$DIMLWE
 70
    -2
  9
$DIMTMOVE
 70
     0
  9
$LUNITS
 70
     2
  9
$LUPREC
 70
     4
  9
$SKETCHINC
 40
1.0
  9
$FILLETRAD
 40
2.5
  9
$AUNITS
 70
     0
  9
$AUPREC
 70
     2
  9
$MENU
  1
.
  9
$ELEVATION
 40
0.0
  9
$PELEVATION
 40
0.0
  9
$THICKNESS
 40
0.0
  9
$LIMCHECK
 70
     0
  9
$CHAMFERA
 40
10.0
  9
$CHAMFERB
 40
10.0
  9
$CHAMFERC
 40
0.0
  9
$CHAMFERD
 40
0.0
  9
$SKPOLY
 70
     0
  9
$TDCREATE
 40
2451066.696056019
  9
$TDUCREATE
 40
2451066.321056019
  9
$TDUPDATE
 40
2457192.603462975
  9
$TDUUPDATE
 40
2457192.228462975
  9
$TDINDWG
 40
0.0000140856
  9
$TDUSRTIMER
 40
0.0000137963
  9
$USRTIMER
 70
     1
  9
$ANGBASE
 50
0.0
  9
$ANGDIR
 70
     0
  9
$PDMODE
 70
     0
  9
$PDSIZE
 40
0.0
  9
$PLINEWID
 40
0.0
  9
$SPLFRAME
 70
     0
  9
$SPLINETYPE
 70
     6
  9
$SPLINESEGS
 70
     8
  9
$HANDSEED
  5
98D3
  9
$SURFTAB1
 70
     6
  9
$SURFTAB2
 70
     6
  9
$SURFTYPE
 70
     6
  9
$SURFU
 70
     6
  9
$SURFV
 70
     6
  9
$UCSBASE
  2

  9
$UCSNAME
  2

  9
$UCSORG
 10
0.0
 20
0.0
 30
0.0
  9
$UCSXDIR
 10
1.0
 20
0.0
 30
0.0
  9
$UCSYDIR
 10
0.0
 20
1.0
 30
0.0
  9
$UCSORTHOREF
  2

  9
$UCSORTHOVIEW
 70
     0
  9
$UCSORGTOP
 10
0.0
 20
0.0
 30
0.0
  9
$UCSORGBOTTOM
 10
0.0
 20
0.0
 30
0.0
  9
$UCSORGLEFT
 10
0.0
 20
0.0
 30
0.0
  9
$UCSORGRIGHT
 10
0.0
 20
0.0
 30
0.0
  9
$UCSORGFRONT
 10
0.0
 20
0.0
 30
0.0
  9
$UCSORGBACK
 10
0.0
 20
0.0
 30
0.0
  9
$PUCSBASE
  2

  9
$PUCSNAME
  2

  9
$PUCSORG
 10
0.0
 20
0.0
 30
0.0
  9
$PUCSXDIR
 10
1.0
 20
0.0
 30
0.0
  9
$PUCSYDIR
 10
0.0
 20
1.0
 30
0.0
  9
$PUCSORTHOREF
  2

  9
$PUCSORTHOVIEW
 70
     0
  9
$PUCSORGTOP
 10
0.0
 20
0.0
 30
0.0
  9
$PUCSORGBOTTOM
 10
0.0
 20
0.0
 30
0.0
  9
$PUCSORGLEFT
 10
0.0
 20
0.0
 30
0.0
  9
$PUCSORGRIGHT
 10
0.0
 20
0.0
 30
0.0
  9
$PUCSORGFRONT
 10
0.0
 20
0.0
 30
0.0
  9
$PUCSORGBACK
 10
0.0
 20
0.0
 30
0.0
  9
$USERI1
 70
     0
  9
$USERI2
 70
     0
  9
$USERI3
 70
     0
  9
$USERI4
 70
     0
  9
$USERI5
 70
     0
  9
$USERR1
 40
0.0
  9
$USERR2
 40
0.0
  9
$USERR3
 40
0.0
  9
$USERR4
 40
0.0
  9
$USERR5
 40
0.0
  9
$WORLDVIEW
 70
     1
  9
$SHADEDGE
 70
     3
  9
$SHADEDIF
 70
    70
  9
$TILEMODE
 70
     1
  9
$MAXACTVP
 70
    16
  9
$PINSBASE
 10
0.0
 20
0.0
 30
0.0
  9
$PLIMCHECK
 70
     0
  9
$PEXTMIN
 10
1.000000000000000E+20
 20
1.000000000000000E+20
 30
1.000000000000000E+20
  9
$PEXTMAX
 10
-1.000000000000000E+20
 20
-1.000000000000000E+20
 30
-1.000000000000000E+20
  9
$PLIMMIN
 10
0.0
 20
0.0
  9
$PLIMMAX
 10
420.0
 20
297.0
  9
$UNITMODE
 70
     0
  9
$VISRETAIN
 70
     0
  9
$PLINEGEN
 70
     0
  9
$PSLTSCALE
 70
     0
  9
$TREEDEPTH
 70
  3020
  9
$CMLSTYLE
  2
STANDARD
  9
$CMLJUST
 70
     0
  9
$CMLSCALE
 40
1.0
  9
$PROXYGRAPHICS
 70
     1
  9
$MEASUREMENT
 70
     0
  9
$CELWEIGHT
370
    -1
  9
$ENDCAPS
280
     0
  9
$JOINSTYLE
280
     0
  9
$LWDISPLAY
290
     0
  9
$INSUNITS
 70
     0
  9
$HYPERLINKBASE
  1

  9
$STYLESHEET
  1

  9
$XEDIT
290
     1
  9
$CEPSNTYPE
380
     0
  9
$PSTYLEMODE
290
     1
  9
$FINGERPRINTGUID
  2
{8CBB715D-F3F0-4256-A1F0-95BA5F0AD3CD}
  9
$VERSIONGUID
  2
{DEEF318A-BDB2-49E6-ABA5-956490154867}
  9
$EXTNAMES
290
     1
  9
$PSVPSCALE
 40
0.0
  9
$OLESTARTUP
290
     0
  0
ENDSEC
  0
SECTION
  2
CLASSES
  0
CLASS
  1
ACDBDICTIONARYWDFLT
  2
AcDbDictionaryWithDefault
  3
ObjectDBX Classes
 90
        0
280
     0
281
     0
  0
CLASS
  1
ACDBPLACEHOLDER
  2
AcDbPlaceHolder
  3
ObjectDBX Classes
 90
        0
280
     0
281
     0
  0
CLASS
  1
LAYOUT
  2
AcDbLayout
  3
ObjectDBX Classes
 90
        0
280
     0
281
     0
  0
CLASS
  1
DICTIONARYVAR
  2
AcDbDictionaryVar
  3
ObjectDBX Classes
 90
        0
280
     0
281
     0
  0
CLASS
  1
MATERIAL
  2
AcDbMaterial
  3
ObjectDBX Classes
 90
     1153
280
     0
281
     0
  0
CLASS
  1
VISUALSTYLE
  2
AcDbVisualStyle
  3
ObjectDBX Classes
 90
     4095
280
     0
281
     0
  0
CLASS
  1
TABLESTYLE
  2
AcDbTableStyle
  3
ObjectDBX Classes
 90
     4095
280
     0
281
     0
  0
CLASS
  1
SCALE
  2
AcDbScale
  3
ObjectDBX Classes
 90
     1153
280
     0
281
     0
  0
CLASS
  1
MLEADERSTYLE
  2
AcDbMLeaderStyle
  3
ACDB_MLEADERSTYLE_CLASS
 90
     4095
280
     0
281
     0
  0
CLASS
  1
ACDBSECTIONVIEWSTYLE
  2
AcDbSectionViewStyle
  3
ObjectDBX Classes
 90
     1025
280
     0
281
     0
  0
CLASS
  1
ACDBDETAILVIEWSTYLE
  2
AcDbDetailViewStyle
  3
ObjectDBX Classes
 90
     1025
280
     0
281
     0
  0
CLASS
  1
CELLSTYLEMAP
  2
AcDbCellStyleMap
  3
ObjectDBX Classes
 90
     1152
280
     0
281
     0
  0
ENDSEC
  0
SECTION
  2
TABLES
  0
TABLE
  2
VPORT
  5
9611
330
0
100
AcDbSymbolTable
 70
     1
  0
VPORT
  5
981C
330
9611
100
AcDbSymbolTableRecord
100
AcDbViewportTableRecord
  2
*ACTIVE
 70
     0
 10
0.0
 20
0.0
 11
1.0
 21
1.0
 12
240.6664940031134
 22
107.121758108751
 13
0.0
 23
0.0
 14
10.0
 24
10.0
 15
10.0
 25
10.0
 16
0.0
 26
0.0
 36
1.0
 17
0.0
 27
0.0
 37
0.0
 40
197.2642660863949
 41
1.899603698811096
 42
50.0
 43
0.0
 44
0.0
 50
0.0
 51
0.0
 71
     0
 72
   100
 73
     1
 74
     0
 75
     0
 76
     0
 77
     0
 78
     0
281
     0
 65
     1
110
0.0
120
0.0
130
0.0
111
1.0
121
0.0
131
0.0
112
0.0
122
1.0
132
0.0
 79
     0
146
0.0
1001
ACAD_NAV_VCDISPLAY
1070
     3
  0
ENDTAB
  0
TABLE
  2
LTYPE
  5
960E
330
0
100
AcDbSymbolTable
 70
     4
  0
LTYPE
  5
961C
330
960E
100
AcDbSymbolTableRecord
100
AcDbLinetypeTableRecord
  2
BYBLOCK
 70
     0
  3

 72
    65
 73
     0
 40
0.0
  0
LTYPE
  5
961D
330
960E
100
AcDbSymbolTableRecord
100
AcDbLinetypeTableRecord
  2
BYLAYER
 70
     0
  3

 72
    65
 73
     0
 40
0.0
  0
LTYPE
  5
961E
330
960E
100
AcDbSymbolTableRecord
100
AcDbLinetypeTableRecord
  2
CONTINUOUS
 70
     0
  3
Solid line
 72
    65
 73
     0
 40
0.0
  0
LTYPE
  5
962C
330
960E
100
AcDbSymbolTableRecord
100
AcDbLinetypeTableRecord
  2
DASHED
 70
     0
  3
__ __ __ __ __ __ __ __ __ __ __ __ __ __ __ __
 72
    65
 73
     2
 40
0.75
 49
0.5
 74
     0
 49
-0.25
 74
     0
  0
LTYPE
  5
962D
330
960E
100
AcDbSymbolTableRecord
100
AcDbLinetypeTableRecord
  2
CENTER
 70
     0
  3
____ _ ____ _ ____ _ ____ _ ____ _ ____ _ ____ 
 72
    65
 73
     4
 40
2.0
 49
1.25
 74
     0
 49
-0.25
 74
     0
 49
0.25
 74
     0
 49
-0.25
 74
     0
  0
LTYPE
  5
962E
330
960E
100
AcDbSymbolTableRecord
100
AcDbLinetypeTableRecord
  2
PHANTOM
 70
     0
  3
______  __  __  ______  __  __  ______  __  __ 
 72
    65
 73
     6
 40
2.5
 49
1.25
 74
     0
 49
-0.25
 74
     0
 49
0.25
 74
     0
 49
-0.25
 74
     0
 49
0.25
 74
     0
 49
-0.25
 74
     0
  0
ENDTAB
  0
TABLE
  2
LAYER
  5
960B
330
0
100
AcDbSymbolTable
 70
     8
  0
LAYER
  5
9619
102
{ACAD_XDICTIONARY
360
9877
102
}
330
960B
100
AcDbSymbolTableRecord
100
AcDbLayerTableRecord
  2
0
 70
     0
 62
     7
  6
CONTINUOUS
370
    -3
390
9825
  0
LAYER
  5
962F
102
{ACAD_XDICTIONARY
360
9879
102
}
330
960B
100
AcDbSymbolTableRecord
100
AcDbLayerTableRecord
  2
4
 70
     0
 62
     1
  6
CENTER
370
    -3
390
9825
  0
LAYER
  5
9630
102
{ACAD_XDICTIONARY
360
987B
102
}
330
960B
100
AcDbSymbolTableRecord
100
AcDbLayerTableRecord
  2
5
 70
     0
 62
     6
  6
PHANTOM
370
    -3
390
9825
  0
LAYER
  5
9631
102
{ACAD_XDICTIONARY
360
987D
102
}
330
960B
100
AcDbSymbolTableRecord
100
AcDbLayerTableRecord
  2
1
 70
     0
 62
     7
  6
CONTINUOUS
370
    -3
390
9825
  0
LAYER
  5
9632
102
{ACAD_XDICTIONARY
360
987F
102
}
330
960B
100
AcDbSymbolTableRecord
100
AcDbLayerTableRecord
  2
2
 70
     0
 62
     4
  6
CONTINUOUS
370
    -3
390
9825
  0
LAYER
  5
9633
102
{ACAD_XDICTIONARY
360
9881
102
}
330
960B
100
AcDbSymbolTableRecord
100
AcDbLayerTableRecord
  2
3
 70
     0
 62
     2
  6
DASHED
370
    -3
390
9825
  0
LAYER
  5
9634
102
{ACAD_XDICTIONARY
360
9883
102
}
330
960B
100
AcDbSymbolTableRecord
100
AcDbLayerTableRecord
  2
6
 70
     0
 62
     5
  6
CONTINUOUS
370
    -3
390
9825
  0
LAYER
  5
9635
102
{ACAD_XDICTIONARY
360
9885
102
}
330
960B
100
AcDbSymbolTableRecord
100
AcDbLayerTableRecord
  2
7
 70
     0
 62
     3
  6
CONTINUOUS
370
    -3
390
9825
  0
ENDTAB
  0
TABLE
  2
STYLE
  5
960C
330
0
100
AcDbSymbolTable
 70
     1
  0
STYLE
  5
961A
330
960C
100
AcDbSymbolTableRecord
100
AcDbTextStyleTableRecord
  2
STANDARD
 70
     0
 40
0.0
 41
1.0
 50
0.0
 71
     0
 42
5.0
  3
txt
  4

  0
ENDTAB
  0
TABLE
  2
VIEW
  5
960F
330
0
100
AcDbSymbolTable
 70
     0
  0
ENDTAB
  0
TABLE
  2
UCS
  5
9610
330
0
100
AcDbSymbolTable
 70
     0
  0
ENDTAB
  0
TABLE
  2
APPID
  5
9612
330
0
100
AcDbSymbolTable
 70
     3
  0
APPID
  5
961B
330
9612
100
AcDbSymbolTableRecord
100
AcDbRegAppTableRecord
  2
ACAD
 70
     0
  0
APPID
  5
9891
330
9612
100
AcDbSymbolTableRecord
100
AcDbRegAppTableRecord
  2
ACAD_NAV_VCDISPLAY
 70
     0
  0
APPID
  5
98CA
330
9612
100
AcDbSymbolTableRecord
100
AcDbRegAppTableRecord
  2
ACAD_MLEADERVER
 70
     0
  0
ENDTAB
  0
TABLE
  2
DIMSTYLE
  5
9613
330
0
100
AcDbSymbolTable
 70
     1
100
AcDbDimStyleTable
 71
     0
  0
DIMSTYLE
105
9637
330
9613
100
AcDbSymbolTableRecord
100
AcDbDimStyleTableRecord
  2
STANDARD
 70
     0
 41
3.0
 42
1.0
 43
10.0
 44
1.0
 73
     0
 74
     0
 77
     3
 78
     8
140
3.2
141
0.0
147
1.0
172
     1
173
     1
284
     8
285
     8
286
     8
340
961A
  0
ENDTAB
  0
TABLE
  2
BLOCK_RECORD
  5
960A
330
0
100
AcDbSymbolTable
 70
     0
  0
BLOCK_RECORD
  5
9627
102
{ACAD_XDICTIONARY
360
981F
102
}
330
960A
100
AcDbSymbolTableRecord
100
AcDbBlockTableRecord
  2
*MODEL_SPACE
340
9873
  0
BLOCK_RECORD
  5
9623
102
{ACAD_XDICTIONARY
360
981D
102
}
330
960A
100
AcDbSymbolTableRecord
100
AcDbBlockTableRecord
  2
*PAPER_SPACE
340
9874
  0
ENDTAB
  0
ENDSEC
  0
SECTION
  2
BLOCKS
  0
BLOCK
  5
9628
330
9627
100
AcDbEntity
  8
0
100
AcDbBlockBegin
  2
*MODEL_SPACE
 70
     0
 10
0.0
 20
0.0
 30
0.0
  3
*MODEL_SPACE
  1

  0
ENDBLK
  5
9629
330
9627
100
AcDbEntity
  8
0
100
AcDbBlockEnd
  0
BLOCK
  5
9624
330
9623
100
AcDbEntity
 67
     1
  8
0
100
AcDbBlockBegin
  2
*PAPER_SPACE
 70
     0
 10
0.0
 20
0.0
 30
0.0
  3
*PAPER_SPACE
  1

  0
ENDBLK
  5
9625
330
9623
100
AcDbEntity
 67
     1
  8
0
100
AcDbBlockEnd
  0
ENDSEC
  0
SECTION
  2
ENTITIES
  0
TEXT
  5
963F
330
9627
100
AcDbEntity
  8
7
  6
Continuous
100
AcDbText
 10
10.0
 20
18.0
 30
0.0
 40
3.0
  1
TYPE No.TL-86-3
100
AcDbText
  0
TEXT
  5
9640
330
9627
100
AcDbEntity
  8
7
  6
Continuous
100
AcDbText
 10
10.0
 20
26.0
 30
0.0
 40
3.0
  1
CODE No.1242
100
AcDbText
  0
TEXT
  5
9641
330
9627
100
AcDbEntity
  8
1
  6
Continuous
100
AcDbText
 10
10.0
 20
10.0
 30
0.0
 40
1.399999999999999
  1
LAYER
100
AcDbText
  0
TEXT
  5
9642
330
9627
100
AcDbEntity
  8
1
  6
Continuous
100
AcDbText
 10
17.97951099999998
 20
10.04873699999998
 30
0.0
 40
1.399999999999999
  1
1
100
AcDbText
  0
TEXT
  5
9643
330
9627
100
AcDbEntity
  8
7
  6
Continuous
100
AcDbText
 10
29.97951099999999
 20
10.04873699999998
 30
0.0
 40
1.399999999999999
  1
7
100
AcDbText
  0
TEXT
  5
9644
330
9627
100
AcDbEntity
  8
4
  6
CENTER
100
AcDbText
 10
23.97951099999999
 20
10.04873699999998
 30
0.0
 40
1.399999999999999
  1
4
100
AcDbText
  0
TEXT
  5
9645
330
9627
100
AcDbEntity
  8
3
  6
DASHED
100
AcDbText
 10
21.979511
 20
10.04873699999998
 30
0.0
 40
1.399999999999999
  1
3
100
AcDbText
  0
TEXT
  5
9646
330
9627
100
AcDbEntity
  8
2
  6
Continuous
100
AcDbText
 10
19.97951099999999
 20
10.04873699999998
 30
0.0
 40
1.399999999999999
  1
2
100
AcDbText
  0
TEXT
  5
9647
330
9627
100
AcDbEntity
  8
6
  6
Continuous
100
AcDbText
 10
27.979511
 20
10.04873699999998
 30
0.0
 40
1.399999999999999
  1
6
100
AcDbText
  0
TEXT
  5
9648
330
9627
100
AcDbEntity
  8
5
  6
PHANTOM
100
AcDbText
 10
25.97951099999999
 20
10.04873699999998
 30
0.0
 40
1.399999999999999
  1
5
100
AcDbText
  0
LINE
  5
9649
330
9627
100
AcDbEntity
  8
4
  6
CENTER
100
AcDbLine
 10
43.120064
 20
117.243011
 30
0.0
 11
14.321864
 21
117.243011
 31
0.0
  0
LINE
  5
964A
330
9627
100
AcDbEntity
  8
4
  6
CENTER
100
AcDbLine
 10
26.526464
 20
135.179011
 30
0.0
 11
26.526464
 21
98.22901100000001
 31
0.0
  0
LINE
  5
964B
330
9627
100
AcDbEntity
  8
1
  6
Continuous
100
AcDbLine
 10
33.52646399999999
 20
131.243011
 30
0.0
 11
33.52646399999999
 21
103.2430109999999
 31
0.0
  0
LINE
  5
964C
330
9627
100
AcDbEntity
  8
1
  6
Continuous
100
AcDbLine
 10
19.526464
 20
131.243011
 30
0.0
 11
19.526464
 21
103.2430109999999
 31
0.0
  0
LINE
  5
964D
330
9627
100
AcDbEntity
  8
1
  6
Continuous
100
AcDbLine
 10
33.52646399999999
 20
103.2430109999999
 30
0.0
 11
19.526464
 21
103.2430109999999
 31
0.0
  0
LINE
  5
964E
330
9627
100
AcDbEntity
  8
1
  6
Continuous
100
AcDbLine
 10
33.52646399999999
 20
131.243011
 30
0.0
 11
19.526464
 21
131.243011
 31
0.0
  0
LINE
  5
964F
330
9627
100
AcDbEntity
  8
4
  6
CENTER
100
AcDbLine
 10
29.026464
 20
107.243011
 30
0.0
 11
24.026464
 21
107.243011
 31
0.0
  0
LINE
  5
9650
330
9627
100
AcDbEntity
  8
4
  6
CENTER
100
AcDbLine
 10
29.026464
 20
127.243011
 30
0.0
 11
24.026464
 21
127.243011
 31
0.0
  0
LINE
  5
9651
330
9627
100
AcDbEntity
  8
4
  6
CENTER
100
AcDbLine
 10
104.0672639999998
 20
197.243011
 30
0.0
 11
149.3322639999998
 21
197.243011
 31
0.0
  0
LINE
  5
9652
330
9627
100
AcDbEntity
  8
1
  6
Continuous
100
AcDbLine
 10
124.5652639999998
 20
203.243011
 30
0.0
 11
124.5652639999998
 21
191.243011
 31
0.0
  0
LINE
  5
9653
330
9627
100
AcDbEntity
  8
1
  6
Continuous
100
AcDbLine
 10
142.5652639999998
 20
191.743011
 30
0.0
 11
142.5652639999998
 21
203.243011
 31
0.0
  0
LINE
  5
9654
330
9627
100
AcDbEntity
  8
1
  6
Continuous
100
AcDbLine
 10
125.5652639999998
 20
202.743011
 30
0.0
 11
141.5652639999999
 21
202.743011
 31
0.0
  0
LINE
  5
9655
330
9627
100
AcDbEntity
  8
1
  6
Continuous
100
AcDbLine
 10
125.5652639999998
 20
191.743011
 30
0.0
 11
136.3652639999999
 21
191.743011
 31
0.0
  0
LINE
  5
9656
330
9627
100
AcDbEntity
  8
1
  6
Continuous
100
AcDbLine
 10
125.5652639999998
 20
204.243011
 30
0.0
 11
141.5652639999999
 21
204.243011
 31
0.0
  0
LINE
  5
9657
330
9627
100
AcDbEntity
  8
1
  6
Continuous
100
AcDbLine
 10
125.5652639999998
 20
203.243011
 30
0.0
 11
141.5652639999999
 21
203.243011
 31
0.0
  0
LINE
  5
9658
330
9627
100
AcDbEntity
  8
1
  6
Continuous
100
AcDbLine
 10
141.5652639999999
 20
191.743011
 30
0.0
 11
141.5652639999999
 21
203.243011
 31
0.0
  0
LINE
  5
9659
330
9627
100
AcDbEntity
  8
1
  6
Continuous
100
AcDbLine
 10
120.5652639999998
 20
201.243011
 30
0.0
 11
120.5652639999998
 21
193.243011
 31
0.0
  0
LINE
  5
965A
330
9627
100
AcDbEntity
  8
1
  6
Continuous
100
AcDbLine
 10
106.5652639999999
 20
200.243011
 30
0.0
 11
106.5652639999999
 21
194.243011
 31
0.0
  0
LINE
  5
965B
330
9627
100
AcDbEntity
  8
1
  6
Continuous
100
AcDbLine
 10
106.5652639999999
 20
200.243011
 30
0.0
 11
120.5652639999998
 21
200.243011
 31
0.0
  0
LINE
  5
965C
330
9627
100
AcDbEntity
  8
1
  6
Continuous
100
AcDbLine
 10
106.5652639999999
 20
194.243011
 30
0.0
 11
120.5652639999998
 21
194.243011
 31
0.0
  0
LINE
  5
965D
330
9627
100
AcDbEntity
  8
1
  6
Continuous
100
AcDbLine
 10
120.5652639999998
 20
201.243011
 30
0.0
 11
124.5652639999998
 21
201.243011
 31
0.0
  0
LINE
  5
965E
330
9627
100
AcDbEntity
  8
1
  6
Continuous
100
AcDbLine
 10
120.5652639999998
 20
193.243011
 30
0.0
 11
124.5652639999998
 21
193.243011
 31
0.0
  0
LINE
  5
965F
330
9627
100
AcDbEntity
  8
1
  6
Continuous
100
AcDbLine
 10
37.52646399999999
 20
121.243011
 30
0.0
 11
33.52646399999999
 21
121.243011
 31
0.0
  0
LINE
  5
9660
330
9627
100
AcDbEntity
  8
1
  6
Continuous
100
AcDbLine
 10
39.52646399999999
 20
119.243011
 30
0.0
 11
39.52646399999999
 21
115.243011
 31
0.0
  0
LINE
  5
9661
330
9627
100
AcDbEntity
  8
1
  6
Continuous
100
AcDbLine
 10
37.52646399999999
 20
113.243011
 30
0.0
 11
33.52646399999999
 21
113.243011
 31
0.0
  0
LINE
  5
9662
330
9627
100
AcDbEntity
  8
1
  6
Continuous
100
AcDbLine
 10
129.5652639999999
 20
199.743011
 30
0.0
 11
129.5652639999999
 21
197.086011
 31
0.0
  0
LINE
  5
9663
330
9627
100
AcDbEntity
  8
1
  6
Continuous
100
AcDbLine
 10
126.5652639999998
 20
194.743011
 30
0.0
 11
127.1322639999999
 21
194.743011
 31
0.0
  0
LINE
  5
9664
330
9627
100
AcDbEntity
  8
1
  6
Continuous
100
AcDbLine
 10
126.5652639999998
 20
199.743011
 30
0.0
 11
128.0172639999999
 21
199.743011
 31
0.0
  0
LINE
  5
9665
330
9627
100
AcDbEntity
  8
1
  6
Continuous
100
AcDbLine
 10
131.0652639999998
 20
199.743011
 30
0.0
 11
131.0652639999998
 21
194.743011
 31
0.0
  0
LINE
  5
9666
330
9627
100
AcDbEntity
  8
1
  6
Continuous
100
AcDbLine
 10
129.5652639999999
 20
199.243011
 30
0.0
 11
129.9472639999999
 21
199.243011
 31
0.0
  0
LINE
  5
9667
330
9627
100
AcDbEntity
  8
1
  6
Continuous
100
AcDbLine
 10
129.747264
 20
195.243011
 30
0.0
 11
131.0652639999998
 21
195.243011
 31
0.0
  0
LINE
  5
9668
330
9627
100
AcDbEntity
  8
1
  6
Continuous
100
AcDbLine
 10
131.0652639999998
 20
194.743011
 30
0.0
 11
131.1692639999999
 21
194.743011
 31
0.0
  0
LINE
  5
9669
330
9627
100
AcDbEntity
  8
1
  6
Continuous
100
AcDbLine
 10
131.0652639999998
 20
199.743011
 30
0.0
 11
132.0542639999999
 21
199.743011
 31
0.0
  0
LINE
  5
966A
330
9627
100
AcDbEntity
  8
2
  6
Continuous
100
AcDbLine
 10
131.0652639999998
 20
199.310011
 30
0.0
 11
131.9772639999999
 21
199.310011
 31
0.0
  0
LINE
  5
966B
330
9627
100
AcDbEntity
  8
2
  6
Continuous
100
AcDbLine
 10
131.0652639999998
 20
195.176011
 30
0.0
 11
131.2452639999999
 21
195.176011
 31
0.0
  0
LINE
  5
966C
330
9627
100
AcDbEntity
  8
1
  6
Continuous
100
AcDbLine
 10
124.5652639999998
 20
103.2430109999999
 30
0.0
 11
127.5652639999999
 21
103.2430109999999
 31
0.0
  0
LINE
  5
966D
330
9627
100
AcDbEntity
  8
1
  6
Continuous
100
AcDbLine
 10
124.5652639999998
 20
131.243011
 30
0.0
 11
127.5652639999999
 21
131.243011
 31
0.0
  0
LINE
  5
966E
330
9627
100
AcDbEntity
  8
4
  6
CENTER
100
AcDbLine
 10
122.5652639999998
 20
127.243011
 30
0.0
 11
129.5652639999999
 21
127.243011
 31
0.0
  0
LINE
  5
966F
330
9627
100
AcDbEntity
  8
4
  6
CENTER
100
AcDbLine
 10
122.5652639999998
 20
107.243011
 30
0.0
 11
129.5652639999999
 21
107.243011
 31
0.0
  0
LINE
  5
9670
330
9627
100
AcDbEntity
  8
4
  6
CENTER
100
AcDbLine
 10
104.0672639999998
 20
117.243011
 30
0.0
 11
149.3322639999998
 21
117.243011
 31
0.0
  0
LINE
  5
9671
330
9627
100
AcDbEntity
  8
1
  6
Continuous
100
AcDbLine
 10
124.5652639999998
 20
131.243011
 30
0.0
 11
124.5652639999998
 21
103.2430109999999
 31
0.0
  0
LINE
  5
9672
330
9627
100
AcDbEntity
  8
1
  6
Continuous
100
AcDbLine
 10
127.5652639999999
 20
131.243011
 30
0.0
 11
127.5652639999999
 21
103.2430109999999
 31
0.0
  0
LINE
  5
9673
330
9627
100
AcDbEntity
  8
1
  6
Continuous
100
AcDbLine
 10
142.5652639999998
 20
122.743011
 30
0.0
 11
142.5652639999998
 21
111.243011
 31
0.0
  0
LINE
  5
9674
330
9627
100
AcDbEntity
  8
1
  6
Continuous
100
AcDbLine
 10
127.5652639999999
 20
111.743011
 30
0.0
 11
141.5652639999999
 21
111.743011
 31
0.0
  0
LINE
  5
9675
330
9627
100
AcDbEntity
  8
1
  6
Continuous
100
AcDbLine
 10
127.5652639999999
 20
122.743011
 30
0.0
 11
142.5652639999998
 21
122.743011
 31
0.0
  0
LINE
  5
9676
330
9627
100
AcDbEntity
  8
1
  6
Continuous
100
AcDbLine
 10
127.5652639999999
 20
110.243011
 30
0.0
 11
141.5652639999999
 21
110.243011
 31
0.0
  0
LINE
  5
9677
330
9627
100
AcDbEntity
  8
1
  6
Continuous
100
AcDbLine
 10
127.5652639999999
 20
111.243011
 30
0.0
 11
141.5652639999999
 21
111.243011
 31
0.0
  0
LINE
  5
9678
330
9627
100
AcDbEntity
  8
1
  6
Continuous
100
AcDbLine
 10
141.5652639999999
 20
122.743011
 30
0.0
 11
141.5652639999999
 21
111.243011
 31
0.0
  0
LINE
  5
9679
330
9627
100
AcDbEntity
  8
1
  6
Continuous
100
AcDbLine
 10
120.5652639999998
 20
121.243011
 30
0.0
 11
120.5652639999998
 21
113.243011
 31
0.0
  0
LINE
  5
967A
330
9627
100
AcDbEntity
  8
1
  6
Continuous
100
AcDbLine
 10
106.5652639999999
 20
120.243011
 30
0.0
 11
106.5652639999999
 21
114.243011
 31
0.0
  0
LINE
  5
967B
330
9627
100
AcDbEntity
  8
1
  6
Continuous
100
AcDbLine
 10
106.5652639999999
 20
120.243011
 30
0.0
 11
120.5652639999998
 21
120.243011
 31
0.0
  0
LINE
  5
967C
330
9627
100
AcDbEntity
  8
1
  6
Continuous
100
AcDbLine
 10
106.5652639999999
 20
114.243011
 30
0.0
 11
120.5652639999998
 21
114.243011
 31
0.0
  0
LINE
  5
967D
330
9627
100
AcDbEntity
  8
1
  6
Continuous
100
AcDbLine
 10
120.5652639999998
 20
121.243011
 30
0.0
 11
124.5652639999998
 21
121.243011
 31
0.0
  0
LINE
  5
967E
330
9627
100
AcDbEntity
  8
1
  6
Continuous
100
AcDbLine
 10
120.5652639999998
 20
113.243011
 30
0.0
 11
124.5652639999998
 21
113.243011
 31
0.0
  0
LINE
  5
967F
330
9627
100
AcDbEntity
  8
1
  6
Continuous
100
AcDbLine
 10
129.5652639999999
 20
119.743011
 30
0.0
 11
129.5652639999999
 21
117.086011
 31
0.0
  0
LINE
  5
9680
330
9627
100
AcDbEntity
  8
1
  6
Continuous
100
AcDbLine
 10
127.6402639999999
 20
114.743011
 30
0.0
 11
129.150264
 21
114.743011
 31
0.0
  0
LINE
  5
9681
330
9627
100
AcDbEntity
  8
1
  6
Continuous
100
AcDbLine
 10
127.5652639999999
 20
119.743011
 30
0.0
 11
128.0172639999999
 21
119.743011
 31
0.0
  0
LINE
  5
9682
330
9627
100
AcDbEntity
  8
1
  6
Continuous
100
AcDbLine
 10
131.0652639999998
 20
119.743011
 30
0.0
 11
131.0652639999998
 21
114.743011
 31
0.0
  0
LINE
  5
9683
330
9627
100
AcDbEntity
  8
1
  6
Continuous
100
AcDbLine
 10
129.5652639999999
 20
119.243011
 30
0.0
 11
129.9472639999999
 21
119.243011
 31
0.0
  0
LINE
  5
9684
330
9627
100
AcDbEntity
  8
1
  6
Continuous
100
AcDbLine
 10
129.747264
 20
115.243011
 30
0.0
 11
131.0652639999998
 21
115.243011
 31
0.0
  0
LINE
  5
9685
330
9627
100
AcDbEntity
  8
1
  6
Continuous
100
AcDbLine
 10
131.0652639999998
 20
114.743011
 30
0.0
 11
131.1692639999999
 21
114.743011
 31
0.0
  0
LINE
  5
9686
330
9627
100
AcDbEntity
  8
1
  6
Continuous
100
AcDbLine
 10
131.0652639999998
 20
119.743011
 30
0.0
 11
132.0542639999999
 21
119.743011
 31
0.0
  0
LINE
  5
9687
330
9627
100
AcDbEntity
  8
2
  6
Continuous
100
AcDbLine
 10
131.0652639999998
 20
119.310011
 30
0.0
 11
131.9772639999999
 21
119.310011
 31
0.0
  0
LINE
  5
9688
330
9627
100
AcDbEntity
  8
2
  6
Continuous
100
AcDbLine
 10
131.0652639999998
 20
115.176011
 30
0.0
 11
131.2452639999999
 21
115.176011
 31
0.0
  0
LINE
  5
9689
330
9627
100
AcDbEntity
  8
1
  6
Continuous
100
AcDbLine
 10
146.5652639999998
 20
198.8430109999999
 30
0.0
 11
146.5652639999998
 21
195.643011
 31
0.0
  0
LINE
  5
968A
330
9627
100
AcDbEntity
  8
1
  6
Continuous
100
AcDbLine
 10
145.365264
 20
201.543011
 30
0.0
 11
145.365264
 21
192.943011
 31
0.0
  0
LINE
  5
968B
330
9627
100
AcDbEntity
  8
1
  6
Continuous
100
AcDbLine
 10
145.365264
 20
195.643011
 30
0.0
 11
146.5652639999998
 21
195.643011
 31
0.0
  0
LINE
  5
968C
330
9627
100
AcDbEntity
  8
1
  6
Continuous
100
AcDbLine
 10
145.365264
 20
198.8430109999999
 30
0.0
 11
146.5652639999998
 21
198.8430109999999
 31
0.0
  0
LINE
  5
968D
330
9627
100
AcDbEntity
  8
1
  6
Continuous
100
AcDbLine
 10
125.5652639999998
 20
190.243011
 30
0.0
 11
127.5652639999999
 21
190.243011
 31
0.0
  0
LINE
  5
968E
330
9627
100
AcDbEntity
  8
1
  6
Continuous
100
AcDbLine
 10
125.5652639999998
 20
191.243011
 30
0.0
 11
127.5652639999999
 21
191.243011
 31
0.0
  0
LINE
  5
968F
330
9627
100
AcDbEntity
  8
1
  6
Continuous
100
AcDbLine
 10
127.5652639999999
 20
191.243011
 30
0.0
 11
127.5652639999999
 21
190.243011
 31
0.0
  0
LINE
  5
9690
330
9627
100
AcDbEntity
  8
1
  6
Continuous
100
AcDbLine
 10
125.5652639999998
 20
203.243011
 30
0.0
 11
125.5652639999998
 21
191.243011
 31
0.0
  0
LINE
  5
9691
330
9627
100
AcDbEntity
  8
1
  6
Continuous
100
AcDbLine
 10
127.5652639999999
 20
204.243011
 30
0.0
 11
127.5652639999999
 21
203.243011
 31
0.0
  0
LINE
  5
9692
330
9627
100
AcDbEntity
  8
1
  6
Continuous
100
AcDbLine
 10
126.0652639999999
 20
200.493011
 30
0.0
 11
126.0652639999999
 21
193.993011
 31
0.0
  0
LINE
  5
9693
330
9627
100
AcDbEntity
  8
1
  6
Continuous
100
AcDbLine
 10
125.5652639999998
 20
193.993011
 30
0.0
 11
126.0652639999999
 21
193.993011
 31
0.0
  0
LINE
  5
9694
330
9627
100
AcDbEntity
  8
1
  6
Continuous
100
AcDbLine
 10
125.5652639999998
 20
200.493011
 30
0.0
 11
126.0652639999999
 21
200.493011
 31
0.0
  0
LINE
  5
9695
330
9627
100
AcDbEntity
  8
4
  6
CENTER
100
AcDbLine
 10
212.010264
 20
117.243011
 30
0.0
 11
240.809264
 21
117.243011
 31
0.0
  0
LINE
  5
9696
330
9627
100
AcDbEntity
  8
4
  6
CENTER
100
AcDbLine
 10
228.604264
 20
135.179011
 30
0.0
 11
228.604264
 21
98.22901100000001
 31
0.0
  0
LINE
  5
9697
330
9627
100
AcDbEntity
  8
1
  6
Continuous
100
AcDbLine
 10
221.6042639999999
 20
131.243011
 30
0.0
 11
221.6042639999999
 21
121.243011
 31
0.0
  0
LINE
  5
9698
330
9627
100
AcDbEntity
  8
1
  6
Continuous
100
AcDbLine
 10
235.604264
 20
131.243011
 30
0.0
 11
235.604264
 21
103.2430109999999
 31
0.0
  0
LINE
  5
9699
330
9627
100
AcDbEntity
  8
1
  6
Continuous
100
AcDbLine
 10
221.6042639999999
 20
103.2430109999999
 30
0.0
 11
235.604264
 21
103.2430109999999
 31
0.0
  0
LINE
  5
969A
330
9627
100
AcDbEntity
  8
1
  6
Continuous
100
AcDbLine
 10
221.6042639999999
 20
131.243011
 30
0.0
 11
235.604264
 21
131.243011
 31
0.0
  0
LINE
  5
969B
330
9627
100
AcDbEntity
  8
4
  6
CENTER
100
AcDbLine
 10
226.1042639999998
 20
107.243011
 30
0.0
 11
231.104264
 21
107.243011
 31
0.0
  0
LINE
  5
969C
330
9627
100
AcDbEntity
  8
4
  6
CENTER
100
AcDbLine
 10
226.1042639999998
 20
127.243011
 30
0.0
 11
231.104264
 21
127.243011
 31
0.0
  0
LINE
  5
969D
330
9627
100
AcDbEntity
  8
1
  6
Continuous
100
AcDbLine
 10
217.6042639999999
 20
121.243011
 30
0.0
 11
224.5335499999999
 21
121.243011
 31
0.0
  0
LINE
  5
969E
330
9627
100
AcDbEntity
  8
1
  6
Continuous
100
AcDbLine
 10
215.6042639999999
 20
119.243011
 30
0.0
 11
215.6042639999999
 21
115.243011
 31
0.0
  0
LINE
  5
969F
330
9627
100
AcDbEntity
  8
1
  6
Continuous
100
AcDbLine
 10
217.6042639999999
 20
113.243011
 30
0.0
 11
223.104264
 21
113.243011
 31
0.0
  0
LINE
  5
96A0
330
9627
100
AcDbEntity
  8
1
  6
Continuous
100
AcDbLine
 10
222.604264
 20
131.243011
 30
0.0
 11
222.604264
 21
121.243011
 31
0.0
  0
LINE
  5
96A1
330
9627
100
AcDbEntity
  8
1
  6
Continuous
100
AcDbLine
 10
234.6042639999998
 20
131.243011
 30
0.0
 11
234.6042639999998
 21
122.743011
 31
0.0
  0
LINE
  5
96A2
330
9627
100
AcDbEntity
  8
1
  6
Continuous
100
AcDbLine
 10
234.1042639999999
 20
111.743011
 30
0.0
 11
234.1042639999999
 21
103.2430109999999
 31
0.0
  0
LINE
  5
96A3
330
9627
100
AcDbEntity
  8
1
  6
Continuous
100
AcDbLine
 10
223.104264
 20
117.743011
 30
0.0
 11
223.104264
 21
103.2430109999999
 31
0.0
  0
LINE
  5
96A4
330
9627
100
AcDbEntity
  8
1
  6
Continuous
100
AcDbLine
 10
228.1042639999999
 20
122.743011
 30
0.0
 11
230.605264
 21
122.743011
 31
0.0
  0
LINE
  5
96A5
330
9627
100
AcDbEntity
  8
1
  6
Continuous
100
AcDbLine
 10
234.1042639999999
 20
111.743011
 30
0.0
 11
235.604264
 21
111.743011
 31
0.0
  0
LINE
  5
96A6
330
9627
100
AcDbEntity
  8
1
  6
Continuous
100
AcDbLine
 10
223.104264
 20
110.243011
 30
0.0
 11
234.1042639999999
 21
110.243011
 31
0.0
  0
LINE
  5
96A7
330
9627
100
AcDbEntity
  8
1
  6
Continuous
100
AcDbLine
 10
234.6042639999998
 20
111.743011
 30
0.0
 11
234.6042639999998
 21
103.2430109999999
 31
0.0
  0
LINE
  5
96A8
330
9627
100
AcDbEntity
  8
1
  6
Continuous
100
AcDbLine
 10
227.604264
 20
120.702011
 30
0.0
 11
226.689264
 21
122.594011
 31
0.0
  0
LINE
  5
96A9
330
9627
100
AcDbEntity
  8
1
  6
Continuous
100
AcDbLine
 10
229.604264
 20
120.702011
 30
0.0
 11
230.519264
 21
122.594011
 31
0.0
  0
LINE
  5
96AA
330
9627
100
AcDbEntity
  8
1
  6
Continuous
100
AcDbLine
 10
231.5122639999999
 20
119.365011
 30
0.0
 11
232.5892639999999
 21
121.593011
 31
0.0
  0
LINE
  5
96AB
330
9627
100
AcDbEntity
  8
1
  6
Continuous
100
AcDbLine
 10
225.695264
 20
119.365011
 30
0.0
 11
224.6192639999999
 21
121.593011
 31
0.0
  0
LINE
  5
96AC
330
9627
100
AcDbEntity
  8
1
  6
Continuous
100
AcDbLine
 10
227.5282639999999
 20
116.059011
 30
0.0
 11
226.5782639999999
 21
111.651011
 31
0.0
  0
LINE
  5
96AD
330
9627
100
AcDbEntity
  8
1
  6
Continuous
100
AcDbLine
 10
229.680264
 20
116.059011
 30
0.0
 11
230.630264
 21
111.651011
 31
0.0
  0
LINE
  5
96AE
330
9627
100
AcDbEntity
  8
1
  6
Continuous
100
AcDbLine
 10
232.021264
 20
116.112011
 30
0.0
 11
232.878264
 21
112.136011
 31
0.0
  0
LINE
  5
96AF
330
9627
100
AcDbEntity
  8
1
  6
Continuous
100
AcDbLine
 10
225.186264
 20
116.112011
 30
0.0
 11
224.330264
 21
112.136011
 31
0.0
  0
LINE
  5
96B0
330
9627
100
AcDbEntity
  8
1
  6
Continuous
100
AcDbLine
 10
232.5032639999998
 20
122.743011
 30
0.0
 11
235.604264
 21
122.743011
 31
0.0
  0
LINE
  5
96B1
330
9627
100
AcDbEntity
  8
1
  6
Continuous
100
AcDbLine
 10
143.765264
 20
201.543011
 30
0.0
 11
143.765264
 21
192.943011
 31
0.0
  0
LINE
  5
96B2
330
9627
100
AcDbEntity
  8
1
  6
Continuous
100
AcDbLine
 10
146.5652639999998
 20
118.843011
 30
0.0
 11
146.5652639999998
 21
115.643011
 31
0.0
  0
LINE
  5
96B3
330
9627
100
AcDbEntity
  8
1
  6
Continuous
100
AcDbLine
 10
143.5652639999998
 20
38.84341099999998
 30
0.0
 11
143.5652639999998
 21
36.355111
 31
0.0
  0
LINE
  5
96B4
330
9627
100
AcDbEntity
  8
1
  6
Continuous
100
AcDbLine
 10
145.365264
 20
123.243011
 30
0.0
 11
145.365264
 21
110.743011
 31
0.0
  0
LINE
  5
96B5
330
9627
100
AcDbEntity
  8
1
  6
Continuous
100
AcDbLine
 10
142.5652639999998
 20
38.84341099999998
 30
0.0
 11
142.8572639999998
 21
38.84341099999998
 31
0.0
  0
LINE
  5
96B6
330
9627
100
AcDbEntity
  8
1
  6
Continuous
100
AcDbLine
 10
142.5652639999998
 20
35.643411
 30
0.0
 11
143.2462639999999
 21
35.643411
 31
0.0
  0
LINE
  5
96B7
330
9627
100
AcDbEntity
  8
1
  6
Continuous
100
AcDbLine
 10
143.5652639999998
 20
38.393411
 30
0.0
 11
143.765264
 21
38.393411
 31
0.0
  0
LINE
  5
96B8
330
9627
100
AcDbEntity
  8
1
  6
Continuous
100
AcDbLine
 10
143.5962639999999
 20
36.09341099999999
 30
0.0
 11
143.765264
 21
36.09341099999999
 31
0.0
  0
LINE
  5
96B9
330
9627
100
AcDbEntity
  8
1
  6
Continuous
100
AcDbLine
 10
145.365264
 20
115.643011
 30
0.0
 11
146.5652639999998
 21
115.643011
 31
0.0
  0
LINE
  5
96BA
330
9627
100
AcDbEntity
  8
1
  6
Continuous
100
AcDbLine
 10
145.365264
 20
118.843011
 30
0.0
 11
146.5652639999998
 21
118.843011
 31
0.0
  0
LINE
  5
96BB
330
9627
100
AcDbEntity
  8
1
  6
Continuous
100
AcDbLine
 10
143.765264
 20
123.243011
 30
0.0
 11
145.365264
 21
123.243011
 31
0.0
  0
LINE
  5
96BC
330
9627
100
AcDbEntity
  8
1
  6
Continuous
100
AcDbLine
 10
143.765264
 20
110.743011
 30
0.0
 11
145.365264
 21
110.743011
 31
0.0
  0
LINE
  5
96BD
330
9627
100
AcDbEntity
  8
1
  6
Continuous
100
AcDbLine
 10
143.765264
 20
119.365011
 30
0.0
 11
145.365264
 21
119.365011
 31
0.0
  0
LINE
  5
96BE
330
9627
100
AcDbEntity
  8
1
  6
Continuous
100
AcDbLine
 10
143.765264
 20
116.112011
 30
0.0
 11
145.365264
 21
116.112011
 31
0.0
  0
LINE
  5
96BF
330
9627
100
AcDbEntity
  8
1
  6
Continuous
100
AcDbLine
 10
143.765264
 20
123.243011
 30
0.0
 11
143.765264
 21
110.743011
 31
0.0
  0
LINE
  5
96C0
330
9627
100
AcDbEntity
  8
1
  6
Continuous
100
AcDbLine
 10
143.2722639999998
 20
38.84341099999998
 30
0.0
 11
143.5652639999998
 21
38.84341099999998
 31
0.0
  0
LINE
  5
96C1
330
9627
100
AcDbEntity
  8
1
  6
Continuous
100
AcDbLine
 10
143.765264
 20
201.3430109999999
 30
0.0
 11
145.365264
 21
201.3430109999999
 31
0.0
  0
LINE
  5
96C2
330
9627
100
AcDbEntity
  8
1
  6
Continuous
100
AcDbLine
 10
143.765264
 20
193.1430109999998
 30
0.0
 11
145.365264
 21
193.1430109999998
 31
0.0
  0
LINE
  5
96C3
330
9627
100
AcDbEntity
  8
1
  6
Continuous
100
AcDbLine
 10
143.765264
 20
196.243011
 30
0.0
 11
145.365264
 21
196.243011
 31
0.0
  0
LINE
  5
96C4
330
9627
100
AcDbEntity
  8
1
  6
Continuous
100
AcDbLine
 10
143.765264
 20
198.243011
 30
0.0
 11
145.365264
 21
198.243011
 31
0.0
  0
LINE
  5
96C5
330
9627
100
AcDbEntity
  8
1
  6
Continuous
100
AcDbLine
 10
143.765264
 20
192.943011
 30
0.0
 11
145.365264
 21
192.943011
 31
0.0
  0
LINE
  5
96C6
330
9627
100
AcDbEntity
  8
1
  6
Continuous
100
AcDbLine
 10
143.765264
 20
201.543011
 30
0.0
 11
145.365264
 21
201.543011
 31
0.0
  0
LINE
  5
96C7
330
9627
100
AcDbEntity
  8
5
  6
PHANTOM
100
AcDbLine
 10
127.5652639999999
 20
189.743011
 30
0.0
 11
127.5652639999999
 21
184.243011
 31
0.0
  0
LINE
  5
96C8
330
9627
100
AcDbEntity
  8
5
  6
PHANTOM
100
AcDbLine
 10
132.5652639999999
 20
201.243011
 30
0.0
 11
132.5652639999999
 21
192.743011
 31
0.0
  0
LINE
  5
96C9
330
9627
100
AcDbEntity
  8
5
  6
PHANTOM
100
AcDbLine
 10
129.6652639999998
 20
201.243011
 30
0.0
 11
129.6652639999998
 21
193.510011
 31
0.0
  0
LINE
  5
96CA
330
9627
100
AcDbEntity
  8
5
  6
PHANTOM
100
AcDbLine
 10
127.5652639999999
 20
184.243011
 30
0.0
 11
130.465264
 21
184.243011
 31
0.0
  0
LINE
  5
96CB
330
9627
100
AcDbEntity
  8
5
  6
PHANTOM
100
AcDbLine
 10
129.6652639999998
 20
201.243011
 30
0.0
 11
132.5652639999999
 21
201.243011
 31
0.0
  0
LINE
  5
96CC
330
9627
100
AcDbEntity
  8
5
  6
PHANTOM
100
AcDbLine
 10
130.465264
 20
188.977011
 30
0.0
 11
130.465264
 21
184.243011
 31
0.0
  0
LINE
  5
96CD
330
9627
100
AcDbEntity
  8
5
  6
PHANTOM
100
AcDbLine
 10
129.0442639999999
 20
192.294011
 30
0.0
 11
128.7662639999997
 21
192.094011
 31
0.0
  0
LINE
  5
96CE
330
9627
100
AcDbEntity
  8
5
  6
PHANTOM
100
AcDbLine
 10
131.086264
 20
190.192011
 30
0.0
 11
131.3642639999999
 21
190.393011
 31
0.0
  0
LINE
  5
96CF
330
9627
100
AcDbEntity
  8
1
  6
Continuous
100
AcDbLine
 10
140.5652639999999
 20
200.243011
 30
0.0
 11
141.5652639999999
 21
200.243011
 31
0.0
  0
LINE
  5
96D0
330
9627
100
AcDbEntity
  8
1
  6
Continuous
100
AcDbLine
 10
140.5652639999999
 20
194.243011
 30
0.0
 11
141.5652639999999
 21
194.243011
 31
0.0
  0
LINE
  5
96D1
330
9627
100
AcDbEntity
  8
1
  6
Continuous
100
AcDbLine
 10
140.3872639999999
 20
191.743011
 30
0.0
 11
142.5652639999998
 21
191.743011
 31
0.0
  0
LINE
  5
96D2
330
9627
100
AcDbEntity
  8
1
  6
Continuous
100
AcDbLine
 10
135.5652639999999
 20
121.243011
 30
0.0
 11
135.5652639999999
 21
113.243011
 31
0.0
  0
LINE
  5
96D3
330
9627
100
AcDbEntity
  8
1
  6
Continuous
100
AcDbLine
 10
138.4652639999999
 20
121.243011
 30
0.0
 11
138.4652639999999
 21
113.243011
 31
0.0
  0
LINE
  5
96D4
330
9627
100
AcDbEntity
  8
1
  6
Continuous
100
AcDbLine
 10
140.5652639999999
 20
121.243011
 30
0.0
 11
140.5652639999999
 21
113.243011
 31
0.0
  0
LINE
  5
96D5
330
9627
100
AcDbEntity
  8
1
  6
Continuous
100
AcDbLine
 10
135.5652639999999
 20
121.243011
 30
0.0
 11
140.5652639999999
 21
121.243011
 31
0.0
  0
LINE
  5
96D6
330
9627
100
AcDbEntity
  8
1
  6
Continuous
100
AcDbLine
 10
135.5652639999999
 20
113.243011
 30
0.0
 11
140.5652639999999
 21
113.243011
 31
0.0
  0
LINE
  5
96D7
330
9627
100
AcDbEntity
  8
1
  6
Continuous
100
AcDbLine
 10
140.5652639999999
 20
120.243011
 30
0.0
 11
141.5652639999999
 21
120.243011
 31
0.0
  0
LINE
  5
96D8
330
9627
100
AcDbEntity
  8
1
  6
Continuous
100
AcDbLine
 10
140.5652639999999
 20
114.243011
 30
0.0
 11
141.5652639999999
 21
114.243011
 31
0.0
  0
LINE
  5
96D9
330
9627
100
AcDbEntity
  8
1
  6
Continuous
100
AcDbLine
 10
137.6652639999998
 20
201.243011
 30
0.0
 11
140.5652639999999
 21
201.243011
 31
0.0
  0
LINE
  5
96DA
330
9627
100
AcDbEntity
  8
1
  6
Continuous
100
AcDbLine
 10
137.6652639999998
 20
201.243011
 30
0.0
 11
137.6652639999998
 21
193.510011
 31
0.0
  0
LINE
  5
96DB
330
9627
100
AcDbEntity
  8
1
  6
Continuous
100
AcDbLine
 10
140.5652639999999
 20
201.243011
 30
0.0
 11
140.5652639999999
 21
192.743011
 31
0.0
  0
LINE
  5
96DC
330
9627
100
AcDbEntity
  8
1
  6
Continuous
100
AcDbLine
 10
138.4652639999999
 20
188.977011
 30
0.0
 11
138.4652639999999
 21
184.243011
 31
0.0
  0
LINE
  5
96DD
330
9627
100
AcDbEntity
  8
1
  6
Continuous
100
AcDbLine
 10
139.0862639999998
 20
190.192011
 30
0.0
 11
139.3642639999999
 21
190.393011
 31
0.0
  0
LINE
  5
96DE
330
9627
100
AcDbEntity
  8
1
  6
Continuous
100
AcDbLine
 10
135.5652639999999
 20
184.243011
 30
0.0
 11
138.4652639999999
 21
184.243011
 31
0.0
  0
LINE
  5
96DF
330
9627
100
AcDbEntity
  8
1
  6
Continuous
100
AcDbLine
 10
137.044264
 20
192.294011
 30
0.0
 11
136.7662639999998
 21
192.094011
 31
0.0
  0
LINE
  5
96E0
330
9627
100
AcDbEntity
  8
1
  6
Continuous
100
AcDbLine
 10
135.5652639999999
 20
189.743011
 30
0.0
 11
135.5652639999999
 21
184.243011
 31
0.0
  0
LINE
  5
96E1
330
9627
100
AcDbEntity
  8
1
  6
Continuous
100
AcDbLine
 10
137.1652639999997
 20
200.093011
 30
0.0
 11
137.1652639999997
 21
194.393011
 31
0.0
  0
LINE
  5
96E2
330
9627
100
AcDbEntity
  8
1
  6
Continuous
100
AcDbLine
 10
126.5652639999998
 20
200.093011
 30
0.0
 11
126.5652639999998
 21
194.393011
 31
0.0
  0
LINE
  5
96E3
330
9627
100
AcDbEntity
  8
1
  6
Continuous
100
AcDbLine
 10
126.561264
 20
200.1370109999998
 30
0.0
 11
126.6312639999999
 21
199.743011
 31
0.0
  0
LINE
  5
96E4
330
9627
100
AcDbEntity
  8
1
  6
Continuous
100
AcDbLine
 10
128.0872639999998
 20
120.137011
 30
0.0
 11
127.5652639999999
 21
117.188011
 31
0.0
  0
LINE
  5
96E5
330
9627
100
AcDbEntity
  8
1
  6
Continuous
100
AcDbLine
 10
127.5702639999999
 20
114.3500109999999
 30
0.0
 11
128.5792639999999
 21
120.050011
 31
0.0
  0
LINE
  5
96E6
330
9627
100
AcDbEntity
  8
1
  6
Continuous
100
AcDbLine
 10
128.5792639999999
 20
120.137011
 30
0.0
 11
128.6492639999998
 21
119.743011
 31
0.0
  0
LINE
  5
96E7
330
9627
100
AcDbEntity
  8
1
  6
Continuous
100
AcDbLine
 10
129.0962639999999
 20
114.3500109999999
 30
0.0
 11
129.0262639999999
 21
114.743011
 31
0.0
  0
LINE
  5
96E8
330
9627
100
AcDbEntity
  8
1
  6
Continuous
100
AcDbLine
 10
130.1052639999997
 20
120.137011
 30
0.0
 11
129.0962639999999
 21
114.437011
 31
0.0
  0
LINE
  5
96E9
330
9627
100
AcDbEntity
  8
1
  6
Continuous
100
AcDbLine
 10
129.5892639999999
 20
114.3500109999999
 30
0.0
 11
130.598264
 21
120.050011
 31
0.0
  0
LINE
  5
96EA
330
9627
100
AcDbEntity
  8
1
  6
Continuous
100
AcDbLine
 10
132.1232639999998
 20
120.137011
 30
0.0
 11
131.1142639999999
 21
114.437011
 31
0.0
  0
LINE
  5
96EB
330
9627
100
AcDbEntity
  8
1
  6
Continuous
100
AcDbLine
 10
131.6072639999999
 20
114.3500109999999
 30
0.0
 11
132.6162639999998
 21
120.050011
 31
0.0
  0
LINE
  5
96EC
330
9627
100
AcDbEntity
  8
1
  6
Continuous
100
AcDbLine
 10
130.7562639999999
 20
119.243011
 30
0.0
 11
130.598264
 21
120.137011
 31
0.0
  0
LINE
  5
96ED
330
9627
100
AcDbEntity
  8
1
  6
Continuous
100
AcDbLine
 10
130.9562639999998
 20
115.243011
 30
0.0
 11
131.1142639999999
 21
114.3500109999999
 31
0.0
  0
LINE
  5
96EE
330
9627
100
AcDbEntity
  8
1
  6
Continuous
100
AcDbLine
 10
133.133264
 20
114.3500109999999
 30
0.0
 11
133.063264
 21
114.743011
 31
0.0
  0
LINE
  5
96EF
330
9627
100
AcDbEntity
  8
1
  6
Continuous
100
AcDbLine
 10
132.6162639999998
 20
120.137011
 30
0.0
 11
132.685264
 21
119.743011
 31
0.0
  0
LINE
  5
96F0
330
9627
100
AcDbEntity
  8
1
  6
Continuous
100
AcDbLine
 10
133.6252639999998
 20
114.3500109999999
 30
0.0
 11
134.634264
 21
120.050011
 31
0.0
  0
LINE
  5
96F1
330
9627
100
AcDbEntity
  8
1
  6
Continuous
100
AcDbLine
 10
134.1422639999999
 20
120.137011
 30
0.0
 11
133.133264
 21
114.437011
 31
0.0
  0
LINE
  5
96F2
330
9627
100
AcDbEntity
  8
1
  6
Continuous
100
AcDbLine
 10
134.634264
 20
120.137011
 30
0.0
 11
134.7042639999999
 21
119.743011
 31
0.0
  0
LINE
  5
96F3
330
9627
100
AcDbEntity
  8
1
  6
Continuous
100
AcDbLine
 10
135.1512639999999
 20
114.3500109999999
 30
0.0
 11
135.0812639999998
 21
114.743011
 31
0.0
  0
LINE
  5
96F4
330
9627
100
AcDbEntity
  8
1
  6
Continuous
100
AcDbLine
 10
135.5652639999999
 20
116.778011
 30
0.0
 11
135.1512639999999
 21
114.437011
 31
0.0
  0
LINE
  5
96F5
330
9627
100
AcDbEntity
  8
1
  6
Continuous
100
AcDbLine
 10
136.652264
 20
200.1370109999998
 30
0.0
 11
136.722264
 21
199.743011
 31
0.0
  0
LINE
  5
96F6
330
9627
100
AcDbEntity
  8
1
  6
Continuous
100
AcDbLine
 10
137.169264
 20
194.350011
 30
0.0
 11
137.0992639999998
 21
194.743011
 31
0.0
  0
LINE
  5
96F7
330
9627
100
AcDbEntity
  8
1
  6
Continuous
100
AcDbLine
 10
127.6402639999999
 20
194.743011
 30
0.0
 11
129.150264
 21
194.743011
 31
0.0
  0
LINE
  5
96F8
330
9627
100
AcDbEntity
  8
1
  6
Continuous
100
AcDbLine
 10
128.5252639999999
 20
199.743011
 30
0.0
 11
129.5652639999999
 21
199.743011
 31
0.0
  0
LINE
  5
96F9
330
9627
100
AcDbEntity
  8
1
  6
Continuous
100
AcDbLine
 10
130.455264
 20
199.243011
 30
0.0
 11
131.0652639999998
 21
199.243011
 31
0.0
  0
LINE
  5
96FA
330
9627
100
AcDbEntity
  8
1
  6
Continuous
100
AcDbLine
 10
131.676264
 20
194.743011
 30
0.0
 11
133.187264
 21
194.743011
 31
0.0
  0
LINE
  5
96FB
330
9627
100
AcDbEntity
  8
2
  6
Continuous
100
AcDbLine
 10
131.753264
 20
195.176011
 30
0.0
 11
133.2632639999999
 21
195.176011
 31
0.0
  0
LINE
  5
96FC
330
9627
100
AcDbEntity
  8
2
  6
Continuous
100
AcDbLine
 10
132.485264
 20
199.310011
 30
0.0
 11
133.9952639999999
 21
199.310011
 31
0.0
  0
LINE
  5
96FD
330
9627
100
AcDbEntity
  8
1
  6
Continuous
100
AcDbLine
 10
132.5622639999999
 20
199.743011
 30
0.0
 11
134.0722639999998
 21
199.743011
 31
0.0
  0
LINE
  5
96FE
330
9627
100
AcDbEntity
  8
1
  6
Continuous
100
AcDbLine
 10
134.580264
 20
199.743011
 30
0.0
 11
136.0902639999999
 21
199.743011
 31
0.0
  0
LINE
  5
96FF
330
9627
100
AcDbEntity
  8
2
  6
Continuous
100
AcDbLine
 10
134.503264
 20
199.310011
 30
0.0
 11
136.013264
 21
199.310011
 31
0.0
  0
LINE
  5
9700
330
9627
100
AcDbEntity
  8
1
  6
Continuous
100
AcDbLine
 10
136.598264
 20
199.743011
 30
0.0
 11
137.1652639999997
 21
199.743011
 31
0.0
  0
LINE
  5
9701
330
9627
100
AcDbEntity
  8
2
  6
Continuous
100
AcDbLine
 10
136.5212639999998
 20
199.310011
 30
0.0
 11
137.1652639999997
 21
199.310011
 31
0.0
  0
LINE
  5
9702
330
9627
100
AcDbEntity
  8
2
  6
Continuous
100
AcDbLine
 10
135.7892639999998
 20
195.176011
 30
0.0
 11
137.1652639999997
 21
195.176011
 31
0.0
  0
LINE
  5
9703
330
9627
100
AcDbEntity
  8
1
  6
Continuous
100
AcDbLine
 10
135.7132639999999
 20
194.743011
 30
0.0
 11
137.1652639999997
 21
194.743011
 31
0.0
  0
LINE
  5
9704
330
9627
100
AcDbEntity
  8
2
  6
Continuous
100
AcDbLine
 10
133.771264
 20
195.176011
 30
0.0
 11
135.282264
 21
195.176011
 31
0.0
  0
LINE
  5
9705
330
9627
100
AcDbEntity
  8
1
  6
Continuous
100
AcDbLine
 10
133.6952639999998
 20
194.743011
 30
0.0
 11
135.2052639999998
 21
194.743011
 31
0.0
  0
LINE
  5
9706
330
9627
100
AcDbEntity
  8
1
  6
Continuous
100
AcDbLine
 10
135.1512639999999
 20
194.350011
 30
0.0
 11
135.0812639999998
 21
194.743011
 31
0.0
  0
LINE
  5
9707
330
9627
100
AcDbEntity
  8
1
  6
Continuous
100
AcDbLine
 10
136.1602639999998
 20
200.1370109999998
 30
0.0
 11
135.1512639999999
 21
194.437011
 31
0.0
  0
LINE
  5
9708
330
9627
100
AcDbEntity
  8
1
  6
Continuous
100
AcDbLine
 10
135.6432639999999
 20
194.350011
 30
0.0
 11
136.652264
 21
200.0500109999999
 31
0.0
  0
LINE
  5
9709
330
9627
100
AcDbEntity
  8
1
  6
Continuous
100
AcDbLine
 10
133.6252639999998
 20
194.350011
 30
0.0
 11
134.634264
 21
200.0500109999999
 31
0.0
  0
LINE
  5
970A
330
9627
100
AcDbEntity
  8
1
  6
Continuous
100
AcDbLine
 10
134.1422639999999
 20
200.1370109999998
 30
0.0
 11
133.133264
 21
194.437011
 31
0.0
  0
LINE
  5
970B
330
9627
100
AcDbEntity
  8
1
  6
Continuous
100
AcDbLine
 10
133.133264
 20
194.350011
 30
0.0
 11
133.063264
 21
194.743011
 31
0.0
  0
LINE
  5
970C
330
9627
100
AcDbEntity
  8
1
  6
Continuous
100
AcDbLine
 10
134.634264
 20
200.1370109999998
 30
0.0
 11
134.7042639999999
 21
199.743011
 31
0.0
  0
LINE
  5
970D
330
9627
100
AcDbEntity
  8
1
  6
Continuous
100
AcDbLine
 10
132.6162639999998
 20
200.1370109999998
 30
0.0
 11
132.685264
 21
199.743011
 31
0.0
  0
LINE
  5
970E
330
9627
100
AcDbEntity
  8
1
  6
Continuous
100
AcDbLine
 10
132.1232639999998
 20
200.1370109999998
 30
0.0
 11
131.1142639999999
 21
194.437011
 31
0.0
  0
LINE
  5
970F
330
9627
100
AcDbEntity
  8
1
  6
Continuous
100
AcDbLine
 10
131.6072639999999
 20
194.350011
 30
0.0
 11
132.6162639999998
 21
200.0500109999999
 31
0.0
  0
LINE
  5
9710
330
9627
100
AcDbEntity
  8
1
  6
Continuous
100
AcDbLine
 10
130.9562639999998
 20
195.243011
 30
0.0
 11
131.1142639999999
 21
194.350011
 31
0.0
  0
LINE
  5
9711
330
9627
100
AcDbEntity
  8
1
  6
Continuous
100
AcDbLine
 10
129.5892639999999
 20
194.350011
 30
0.0
 11
130.598264
 21
200.0500109999999
 31
0.0
  0
LINE
  5
9712
330
9627
100
AcDbEntity
  8
1
  6
Continuous
100
AcDbLine
 10
130.1052639999997
 20
200.1370109999998
 30
0.0
 11
129.0962639999999
 21
194.437011
 31
0.0
  0
LINE
  5
9713
330
9627
100
AcDbEntity
  8
1
  6
Continuous
100
AcDbLine
 10
129.0962639999999
 20
194.350011
 30
0.0
 11
129.0262639999999
 21
194.743011
 31
0.0
  0
LINE
  5
9714
330
9627
100
AcDbEntity
  8
1
  6
Continuous
100
AcDbLine
 10
130.7562639999999
 20
199.243011
 30
0.0
 11
130.598264
 21
200.1370109999998
 31
0.0
  0
LINE
  5
9715
330
9627
100
AcDbEntity
  8
1
  6
Continuous
100
AcDbLine
 10
128.5792639999999
 20
200.1370109999998
 30
0.0
 11
128.6492639999998
 21
199.743011
 31
0.0
  0
LINE
  5
9716
330
9627
100
AcDbEntity
  8
1
  6
Continuous
100
AcDbLine
 10
127.5702639999999
 20
194.350011
 30
0.0
 11
128.5792639999999
 21
200.0500109999999
 31
0.0
  0
LINE
  5
9717
330
9627
100
AcDbEntity
  8
1
  6
Continuous
100
AcDbLine
 10
128.0872639999998
 20
200.1370109999998
 30
0.0
 11
127.0782639999999
 21
194.437011
 31
0.0
  0
LINE
  5
9718
330
9627
100
AcDbEntity
  8
1
  6
Continuous
100
AcDbLine
 10
127.0782639999999
 20
194.350011
 30
0.0
 11
127.0082639999999
 21
194.743011
 31
0.0
  0
LINE
  5
9719
330
9627
100
AcDbEntity
  8
1
  6
Continuous
100
AcDbLine
 10
128.5252639999999
 20
119.743011
 30
0.0
 11
129.5652639999999
 21
119.743011
 31
0.0
  0
LINE
  5
971A
330
9627
100
AcDbEntity
  8
1
  6
Continuous
100
AcDbLine
 10
130.455264
 20
119.243011
 30
0.0
 11
131.0652639999998
 21
119.243011
 31
0.0
  0
LINE
  5
971B
330
9627
100
AcDbEntity
  8
2
  6
Continuous
100
AcDbLine
 10
132.485264
 20
119.310011
 30
0.0
 11
133.9952639999999
 21
119.310011
 31
0.0
  0
LINE
  5
971C
330
9627
100
AcDbEntity
  8
1
  6
Continuous
100
AcDbLine
 10
132.5622639999999
 20
119.743011
 30
0.0
 11
134.0722639999998
 21
119.743011
 31
0.0
  0
LINE
  5
971D
330
9627
100
AcDbEntity
  8
2
  6
Continuous
100
AcDbLine
 10
134.503264
 20
119.310011
 30
0.0
 11
135.5652639999999
 21
119.310011
 31
0.0
  0
LINE
  5
971E
330
9627
100
AcDbEntity
  8
1
  6
Continuous
100
AcDbLine
 10
134.580264
 20
119.743011
 30
0.0
 11
135.5652639999999
 21
119.743011
 31
0.0
  0
LINE
  5
971F
330
9627
100
AcDbEntity
  8
2
  6
Continuous
100
AcDbLine
 10
133.771264
 20
115.176011
 30
0.0
 11
135.282264
 21
115.176011
 31
0.0
  0
LINE
  5
9720
330
9627
100
AcDbEntity
  8
1
  6
Continuous
100
AcDbLine
 10
133.6952639999998
 20
114.743011
 30
0.0
 11
135.2052639999998
 21
114.743011
 31
0.0
  0
LINE
  5
9721
330
9627
100
AcDbEntity
  8
1
  6
Continuous
100
AcDbLine
 10
131.676264
 20
114.743011
 30
0.0
 11
133.187264
 21
114.743011
 31
0.0
  0
LINE
  5
9722
330
9627
100
AcDbEntity
  8
2
  6
Continuous
100
AcDbLine
 10
131.753264
 20
115.176011
 30
0.0
 11
133.2632639999999
 21
115.176011
 31
0.0
  0
LINE
  5
9723
330
9627
100
AcDbEntity
  8
4
  6
CENTER
100
AcDbLine
 10
104.0672639999998
 20
37.243411
 30
0.0
 11
149.3322639999998
 21
37.243411
 31
0.0
  0
LINE
  5
9724
330
9627
100
AcDbEntity
  8
1
  6
Continuous
100
AcDbLine
 10
124.5652639999998
 20
31.243411
 30
0.0
 11
124.5652639999998
 21
43.243411
 31
0.0
  0
LINE
  5
9725
330
9627
100
AcDbEntity
  8
1
  6
Continuous
100
AcDbLine
 10
142.5652639999998
 20
42.743411
 30
0.0
 11
142.5652639999998
 21
31.243411
 31
0.0
  0
LINE
  5
9726
330
9627
100
AcDbEntity
  8
1
  6
Continuous
100
AcDbLine
 10
125.5652639999998
 20
31.74341099999999
 30
0.0
 11
142.5652639999998
 21
31.74341099999999
 31
0.0
  0
LINE
  5
9727
330
9627
100
AcDbEntity
  8
1
  6
Continuous
100
AcDbLine
 10
125.5652639999998
 20
42.743411
 30
0.0
 11
142.5652639999998
 21
42.743411
 31
0.0
  0
LINE
  5
9728
330
9627
100
AcDbEntity
  8
1
  6
Continuous
100
AcDbLine
 10
125.5652639999998
 20
30.243411
 30
0.0
 11
141.5652639999999
 21
30.243411
 31
0.0
  0
LINE
  5
9729
330
9627
100
AcDbEntity
  8
1
  6
Continuous
100
AcDbLine
 10
125.5652639999998
 20
31.243411
 30
0.0
 11
141.5652639999999
 21
31.243411
 31
0.0
  0
LINE
  5
972A
330
9627
100
AcDbEntity
  8
1
  6
Continuous
100
AcDbLine
 10
141.5652639999999
 20
31.74341099999999
 30
0.0
 11
141.5652639999999
 21
31.243411
 31
0.0
  0
LINE
  5
972B
330
9627
100
AcDbEntity
  8
1
  6
Continuous
100
AcDbLine
 10
120.5652639999998
 20
33.243411
 30
0.0
 11
120.5652639999998
 21
41.243411
 31
0.0
  0
LINE
  5
972C
330
9627
100
AcDbEntity
  8
1
  6
Continuous
100
AcDbLine
 10
106.5652639999999
 20
34.243411
 30
0.0
 11
106.5652639999999
 21
40.243411
 31
0.0
  0
LINE
  5
972D
330
9627
100
AcDbEntity
  8
1
  6
Continuous
100
AcDbLine
 10
106.5652639999999
 20
34.243411
 30
0.0
 11
120.5652639999998
 21
34.243411
 31
0.0
  0
LINE
  5
972E
330
9627
100
AcDbEntity
  8
1
  6
Continuous
100
AcDbLine
 10
106.5652639999999
 20
40.243411
 30
0.0
 11
120.5652639999998
 21
40.243411
 31
0.0
  0
LINE
  5
972F
330
9627
100
AcDbEntity
  8
1
  6
Continuous
100
AcDbLine
 10
120.5652639999998
 20
33.243411
 30
0.0
 11
124.5652639999998
 21
33.243411
 31
0.0
  0
LINE
  5
9730
330
9627
100
AcDbEntity
  8
1
  6
Continuous
100
AcDbLine
 10
120.5652639999998
 20
41.243411
 30
0.0
 11
124.5652639999998
 21
41.243411
 31
0.0
  0
LINE
  5
9731
330
9627
100
AcDbEntity
  8
1
  6
Continuous
100
AcDbLine
 10
146.5652639999998
 20
35.643411
 30
0.0
 11
146.5652639999998
 21
38.84341099999998
 31
0.0
  0
LINE
  5
9732
330
9627
100
AcDbEntity
  8
1
  6
Continuous
100
AcDbLine
 10
145.365264
 20
32.943411
 30
0.0
 11
145.365264
 21
41.54341099999999
 31
0.0
  0
LINE
  5
9733
330
9627
100
AcDbEntity
  8
1
  6
Continuous
100
AcDbLine
 10
145.365264
 20
38.84341099999998
 30
0.0
 11
146.5652639999998
 21
38.84341099999998
 31
0.0
  0
LINE
  5
9734
330
9627
100
AcDbEntity
  8
1
  6
Continuous
100
AcDbLine
 10
145.365264
 20
35.643411
 30
0.0
 11
146.5652639999998
 21
35.643411
 31
0.0
  0
LINE
  5
9735
330
9627
100
AcDbEntity
  8
1
  6
Continuous
100
AcDbLine
 10
125.5652639999998
 20
44.243411
 30
0.0
 11
127.5652639999999
 21
44.243411
 31
0.0
  0
LINE
  5
9736
330
9627
100
AcDbEntity
  8
1
  6
Continuous
100
AcDbLine
 10
125.5652639999998
 20
43.243411
 30
0.0
 11
127.5652639999999
 21
43.243411
 31
0.0
  0
LINE
  5
9737
330
9627
100
AcDbEntity
  8
1
  6
Continuous
100
AcDbLine
 10
127.5652639999999
 20
43.243411
 30
0.0
 11
127.5652639999999
 21
44.243411
 31
0.0
  0
LINE
  5
9738
330
9627
100
AcDbEntity
  8
1
  6
Continuous
100
AcDbLine
 10
125.5652639999998
 20
31.243411
 30
0.0
 11
125.5652639999998
 21
43.243411
 31
0.0
  0
LINE
  5
9739
330
9627
100
AcDbEntity
  8
1
  6
Continuous
100
AcDbLine
 10
127.5652639999999
 20
30.243411
 30
0.0
 11
127.5652639999999
 21
31.243411
 31
0.0
  0
LINE
  5
973A
330
9627
100
AcDbEntity
  8
1
  6
Continuous
100
AcDbLine
 10
143.765264
 20
32.943411
 30
0.0
 11
143.765264
 21
41.54341099999999
 31
0.0
  0
LINE
  5
973B
330
9627
100
AcDbEntity
  8
1
  6
Continuous
100
AcDbLine
 10
143.765264
 20
33.143411
 30
0.0
 11
145.365264
 21
33.143411
 31
0.0
  0
LINE
  5
973C
330
9627
100
AcDbEntity
  8
1
  6
Continuous
100
AcDbLine
 10
143.765264
 20
41.34341099999999
 30
0.0
 11
145.365264
 21
41.34341099999999
 31
0.0
  0
LINE
  5
973D
330
9627
100
AcDbEntity
  8
1
  6
Continuous
100
AcDbLine
 10
143.765264
 20
38.243411
 30
0.0
 11
145.365264
 21
38.243411
 31
0.0
  0
LINE
  5
973E
330
9627
100
AcDbEntity
  8
1
  6
Continuous
100
AcDbLine
 10
143.765264
 20
36.243411
 30
0.0
 11
145.365264
 21
36.243411
 31
0.0
  0
LINE
  5
973F
330
9627
100
AcDbEntity
  8
1
  6
Continuous
100
AcDbLine
 10
143.765264
 20
41.54341099999999
 30
0.0
 11
145.365264
 21
41.54341099999999
 31
0.0
  0
LINE
  5
9740
330
9627
100
AcDbEntity
  8
1
  6
Continuous
100
AcDbLine
 10
143.765264
 20
32.943411
 30
0.0
 11
145.365264
 21
32.943411
 31
0.0
  0
LINE
  5
9741
330
9627
100
AcDbEntity
  8
1
  6
Continuous
100
AcDbLine
 10
138.4652639999999
 20
45.51001099999999
 30
0.0
 11
138.4652639999999
 21
50.243411
 31
0.0
  0
LINE
  5
9742
330
9627
100
AcDbEntity
  8
1
  6
Continuous
100
AcDbLine
 10
139.0862639999998
 20
44.294311
 30
0.0
 11
139.3642639999999
 21
44.093711
 31
0.0
  0
LINE
  5
9743
330
9627
100
AcDbEntity
  8
1
  6
Continuous
100
AcDbLine
 10
135.5652639999999
 20
50.243411
 30
0.0
 11
138.4652639999999
 21
50.243411
 31
0.0
  0
LINE
  5
9744
330
9627
100
AcDbEntity
  8
1
  6
Continuous
100
AcDbLine
 10
135.5652639999999
 20
44.743411
 30
0.0
 11
135.5652639999999
 21
50.243411
 31
0.0
  0
LINE
  5
9745
330
9627
100
AcDbEntity
  8
1
  6
Continuous
100
AcDbLine
 10
126.5652639999998
 20
31.74341099999999
 30
0.0
 11
126.5652639999998
 21
42.743411
 31
0.0
  0
LINE
  5
9746
330
9627
100
AcDbEntity
  8
1
  6
Continuous
100
AcDbLine
 10
332.643264
 20
103.2430109999999
 30
0.0
 11
329.6432639999999
 21
103.2430109999999
 31
0.0
  0
LINE
  5
9747
330
9627
100
AcDbEntity
  8
1
  6
Continuous
100
AcDbLine
 10
332.643264
 20
131.243011
 30
0.0
 11
329.6432639999999
 21
131.243011
 31
0.0
  0
LINE
  5
9748
330
9627
100
AcDbEntity
  8
4
  6
CENTER
100
AcDbLine
 10
334.6432639999998
 20
127.243011
 30
0.0
 11
327.6432639999999
 21
127.243011
 31
0.0
  0
LINE
  5
9749
330
9627
100
AcDbEntity
  8
4
  6
CENTER
100
AcDbLine
 10
334.6432639999998
 20
107.243011
 30
0.0
 11
327.6432639999999
 21
107.243011
 31
0.0
  0
LINE
  5
974A
330
9627
100
AcDbEntity
  8
4
  6
CENTER
100
AcDbLine
 10
353.1412639999999
 20
117.243011
 30
0.0
 11
307.8762639999998
 21
117.243011
 31
0.0
  0
LINE
  5
974B
330
9627
100
AcDbEntity
  8
1
  6
Continuous
100
AcDbLine
 10
332.643264
 20
131.243011
 30
0.0
 11
332.643264
 21
103.2430109999999
 31
0.0
  0
LINE
  5
974C
330
9627
100
AcDbEntity
  8
1
  6
Continuous
100
AcDbLine
 10
329.6432639999999
 20
131.243011
 30
0.0
 11
329.6432639999999
 21
103.2430109999999
 31
0.0
  0
LINE
  5
974D
330
9627
100
AcDbEntity
  8
1
  6
Continuous
100
AcDbLine
 10
314.643264
 20
122.743011
 30
0.0
 11
314.643264
 21
111.243011
 31
0.0
  0
LINE
  5
974E
330
9627
100
AcDbEntity
  8
1
  6
Continuous
100
AcDbLine
 10
329.6432639999999
 20
111.743011
 30
0.0
 11
314.643264
 21
111.743011
 31
0.0
  0
LINE
  5
974F
330
9627
100
AcDbEntity
  8
1
  6
Continuous
100
AcDbLine
 10
329.6432639999999
 20
122.743011
 30
0.0
 11
314.643264
 21
122.743011
 31
0.0
  0
LINE
  5
9750
330
9627
100
AcDbEntity
  8
1
  6
Continuous
100
AcDbLine
 10
329.6432639999999
 20
110.243011
 30
0.0
 11
315.6432639999998
 21
110.243011
 31
0.0
  0
LINE
  5
9751
330
9627
100
AcDbEntity
  8
1
  6
Continuous
100
AcDbLine
 10
329.6432639999999
 20
111.243011
 30
0.0
 11
315.6432639999998
 21
111.243011
 31
0.0
  0
LINE
  5
9752
330
9627
100
AcDbEntity
  8
1
  6
Continuous
100
AcDbLine
 10
315.6432639999998
 20
111.743011
 30
0.0
 11
315.6432639999998
 21
111.243011
 31
0.0
  0
LINE
  5
9753
330
9627
100
AcDbEntity
  8
1
  6
Continuous
100
AcDbLine
 10
336.6432639999998
 20
121.243011
 30
0.0
 11
336.6432639999998
 21
113.243011
 31
0.0
  0
LINE
  5
9754
330
9627
100
AcDbEntity
  8
1
  6
Continuous
100
AcDbLine
 10
350.6432639999999
 20
120.243011
 30
0.0
 11
350.6432639999999
 21
114.243011
 31
0.0
  0
LINE
  5
9755
330
9627
100
AcDbEntity
  8
1
  6
Continuous
100
AcDbLine
 10
350.6432639999999
 20
120.243011
 30
0.0
 11
336.6432639999998
 21
120.243011
 31
0.0
  0
LINE
  5
9756
330
9627
100
AcDbEntity
  8
1
  6
Continuous
100
AcDbLine
 10
350.6432639999999
 20
114.243011
 30
0.0
 11
336.6432639999998
 21
114.243011
 31
0.0
  0
LINE
  5
9757
330
9627
100
AcDbEntity
  8
1
  6
Continuous
100
AcDbLine
 10
336.6432639999998
 20
121.243011
 30
0.0
 11
332.643264
 21
121.243011
 31
0.0
  0
LINE
  5
9758
330
9627
100
AcDbEntity
  8
1
  6
Continuous
100
AcDbLine
 10
336.6432639999998
 20
113.243011
 30
0.0
 11
332.643264
 21
113.243011
 31
0.0
  0
LINE
  5
9759
330
9627
100
AcDbEntity
  8
1
  6
Continuous
100
AcDbLine
 10
310.6432639999998
 20
118.843011
 30
0.0
 11
310.6432639999998
 21
115.643011
 31
0.0
  0
LINE
  5
975A
330
9627
100
AcDbEntity
  8
1
  6
Continuous
100
AcDbLine
 10
311.8432639999999
 20
123.243011
 30
0.0
 11
311.8432639999999
 21
110.743011
 31
0.0
  0
LINE
  5
975B
330
9627
100
AcDbEntity
  8
1
  6
Continuous
100
AcDbLine
 10
311.8432639999999
 20
115.643011
 30
0.0
 11
310.6432639999998
 21
115.643011
 31
0.0
  0
LINE
  5
975C
330
9627
100
AcDbEntity
  8
1
  6
Continuous
100
AcDbLine
 10
311.8432639999999
 20
118.843011
 30
0.0
 11
310.6432639999998
 21
118.843011
 31
0.0
  0
LINE
  5
975D
330
9627
100
AcDbEntity
  8
1
  6
Continuous
100
AcDbLine
 10
313.4432639999999
 20
123.243011
 30
0.0
 11
311.8432639999999
 21
123.243011
 31
0.0
  0
LINE
  5
975E
330
9627
100
AcDbEntity
  8
1
  6
Continuous
100
AcDbLine
 10
313.4432639999999
 20
110.743011
 30
0.0
 11
311.8432639999999
 21
110.743011
 31
0.0
  0
LINE
  5
975F
330
9627
100
AcDbEntity
  8
1
  6
Continuous
100
AcDbLine
 10
313.4432639999999
 20
119.365011
 30
0.0
 11
311.8432639999999
 21
119.365011
 31
0.0
  0
LINE
  5
9760
330
9627
100
AcDbEntity
  8
1
  6
Continuous
100
AcDbLine
 10
313.4432639999999
 20
116.112011
 30
0.0
 11
311.8432639999999
 21
116.112011
 31
0.0
  0
LINE
  5
9761
330
9627
100
AcDbEntity
  8
1
  6
Continuous
100
AcDbLine
 10
313.4432639999999
 20
123.243011
 30
0.0
 11
313.4432639999999
 21
110.743011
 31
0.0
  0
LINE
  5
9762
330
9627
100
AcDbEntity
  8
1
  6
Continuous
100
AcDbLine
 10
142.965264
 20
35.643411
 30
0.0
 11
142.965264
 21
33.043411
 31
0.0
  0
LINE
  5
9763
330
9627
100
AcDbEntity
  8
1
  6
Continuous
100
AcDbLine
 10
143.365264
 20
39.84341099999999
 30
0.0
 11
143.365264
 21
38.84341099999998
 31
0.0
  0
LINE
  5
9764
330
9627
100
AcDbEntity
  8
1
  6
Continuous
100
AcDbLine
 10
142.9642639999999
 20
41.46671099999998
 30
0.0
 11
143.7642639999999
 21
34.666711
 31
0.0
  0
LINE
  5
9765
330
9627
100
AcDbEntity
  8
1
  6
Continuous
100
AcDbLine
 10
143.366264
 20
34.620011
 30
0.0
 11
142.5662639999998
 21
41.42001099999997
 31
0.0
  0
LINE
  5
9766
330
9627
100
AcDbEntity
  8
1
  6
Continuous
100
AcDbLine
 10
142.9642639999999
 20
121.467011
 30
0.0
 11
143.7642639999999
 21
114.667011
 31
0.0
  0
LINE
  5
9767
330
9627
100
AcDbEntity
  8
1
  6
Continuous
100
AcDbLine
 10
143.366264
 20
114.620011
 30
0.0
 11
142.5662639999998
 21
121.420011
 31
0.0
  0
LINE
  5
9768
330
9627
100
AcDbEntity
  8
1
  6
Continuous
100
AcDbLine
 10
143.365264
 20
119.843011
 30
0.0
 11
143.365264
 21
118.843011
 31
0.0
  0
LINE
  5
9769
330
9627
100
AcDbEntity
  8
1
  6
Continuous
100
AcDbLine
 10
143.2722639999998
 20
118.843011
 30
0.0
 11
143.5652639999998
 21
118.843011
 31
0.0
  0
LINE
  5
976A
330
9627
100
AcDbEntity
  8
1
  6
Continuous
100
AcDbLine
 10
143.5652639999998
 20
118.843011
 30
0.0
 11
143.5652639999998
 21
116.355011
 31
0.0
  0
LINE
  5
976B
330
9627
100
AcDbEntity
  8
1
  6
Continuous
100
AcDbLine
 10
143.5652639999998
 20
118.393011
 30
0.0
 11
143.765264
 21
118.393011
 31
0.0
  0
LINE
  5
976C
330
9627
100
AcDbEntity
  8
1
  6
Continuous
100
AcDbLine
 10
142.5652639999998
 20
118.843011
 30
0.0
 11
142.8572639999998
 21
118.843011
 31
0.0
  0
LINE
  5
976D
330
9627
100
AcDbEntity
  8
1
  6
Continuous
100
AcDbLine
 10
142.5652639999998
 20
115.643011
 30
0.0
 11
143.2462639999999
 21
115.643011
 31
0.0
  0
LINE
  5
976E
330
9627
100
AcDbEntity
  8
1
  6
Continuous
100
AcDbLine
 10
142.965264
 20
115.643011
 30
0.0
 11
142.965264
 21
113.043011
 31
0.0
  0
LINE
  5
976F
330
9627
100
AcDbEntity
  8
1
  6
Continuous
100
AcDbLine
 10
143.5962639999999
 20
116.093011
 30
0.0
 11
143.765264
 21
116.093011
 31
0.0
  0
LINE
  5
9770
330
9627
100
AcDbEntity
  8
1
  6
Continuous
100
AcDbLine
 10
142.9642639999999
 20
201.4670109999999
 30
0.0
 11
143.7642639999999
 21
194.667011
 31
0.0
  0
LINE
  5
9771
330
9627
100
AcDbEntity
  8
1
  6
Continuous
100
AcDbLine
 10
143.366264
 20
194.620011
 30
0.0
 11
142.5662639999998
 21
201.4200109999999
 31
0.0
  0
LINE
  5
9772
330
9627
100
AcDbEntity
  8
1
  6
Continuous
100
AcDbLine
 10
143.365264
 20
199.8430109999999
 30
0.0
 11
143.365264
 21
198.8430109999999
 31
0.0
  0
LINE
  5
9773
330
9627
100
AcDbEntity
  8
1
  6
Continuous
100
AcDbLine
 10
143.2722639999998
 20
198.8430109999999
 30
0.0
 11
143.5652639999998
 21
198.8430109999999
 31
0.0
  0
LINE
  5
9774
330
9627
100
AcDbEntity
  8
1
  6
Continuous
100
AcDbLine
 10
143.5652639999998
 20
198.8430109999999
 30
0.0
 11
143.5652639999998
 21
196.3550109999999
 31
0.0
  0
LINE
  5
9775
330
9627
100
AcDbEntity
  8
1
  6
Continuous
100
AcDbLine
 10
143.5652639999998
 20
198.393011
 30
0.0
 11
143.765264
 21
198.393011
 31
0.0
  0
LINE
  5
9776
330
9627
100
AcDbEntity
  8
1
  6
Continuous
100
AcDbLine
 10
142.5652639999998
 20
198.8430109999999
 30
0.0
 11
142.8572639999998
 21
198.8430109999999
 31
0.0
  0
LINE
  5
9777
330
9627
100
AcDbEntity
  8
1
  6
Continuous
100
AcDbLine
 10
142.5652639999998
 20
195.643011
 30
0.0
 11
143.2462639999999
 21
195.643011
 31
0.0
  0
LINE
  5
9778
330
9627
100
AcDbEntity
  8
1
  6
Continuous
100
AcDbLine
 10
142.965264
 20
195.643011
 30
0.0
 11
142.965264
 21
193.0430109999998
 31
0.0
  0
LINE
  5
9779
330
9627
100
AcDbEntity
  8
1
  6
Continuous
100
AcDbLine
 10
143.5962639999999
 20
196.0930109999999
 30
0.0
 11
143.765264
 21
196.0930109999999
 31
0.0
  0
LINE
  5
977A
330
9627
100
AcDbEntity
  8
1
  6
Continuous
100
AcDbLine
 10
313.6122639999999
 20
116.093011
 30
0.0
 11
313.4432639999999
 21
116.093011
 31
0.0
  0
LINE
  5
977B
330
9627
100
AcDbEntity
  8
1
  6
Continuous
100
AcDbLine
 10
314.244264
 20
121.467011
 30
0.0
 11
313.4442639999999
 21
114.667011
 31
0.0
  0
LINE
  5
977C
330
9627
100
AcDbEntity
  8
1
  6
Continuous
100
AcDbLine
 10
313.841264
 20
114.620011
 30
0.0
 11
314.6412639999998
 21
121.420011
 31
0.0
  0
LINE
  5
977D
330
9627
100
AcDbEntity
  8
1
  6
Continuous
100
AcDbLine
 10
313.8432639999999
 20
119.843011
 30
0.0
 11
313.8432639999999
 21
118.843011
 31
0.0
  0
LINE
  5
977E
330
9627
100
AcDbEntity
  8
1
  6
Continuous
100
AcDbLine
 10
313.935264
 20
118.843011
 30
0.0
 11
313.6432639999998
 21
118.843011
 31
0.0
  0
LINE
  5
977F
330
9627
100
AcDbEntity
  8
1
  6
Continuous
100
AcDbLine
 10
313.6432639999998
 20
118.843011
 30
0.0
 11
313.6432639999998
 21
116.355011
 31
0.0
  0
LINE
  5
9780
330
9627
100
AcDbEntity
  8
1
  6
Continuous
100
AcDbLine
 10
313.6432639999998
 20
118.393011
 30
0.0
 11
313.4432639999999
 21
118.393011
 31
0.0
  0
LINE
  5
9781
330
9627
100
AcDbEntity
  8
1
  6
Continuous
100
AcDbLine
 10
314.643264
 20
118.843011
 30
0.0
 11
314.351264
 21
118.843011
 31
0.0
  0
LINE
  5
9782
330
9627
100
AcDbEntity
  8
1
  6
Continuous
100
AcDbLine
 10
314.643264
 20
115.643011
 30
0.0
 11
313.962264
 21
115.643011
 31
0.0
  0
LINE
  5
9783
330
9627
100
AcDbEntity
  8
1
  6
Continuous
100
AcDbLine
 10
314.2432639999999
 20
115.643011
 30
0.0
 11
314.2432639999999
 21
113.043011
 31
0.0
  0
CIRCLE
  5
9784
330
9627
100
AcDbEntity
  8
1
  6
Continuous
100
AcDbCircle
 10
26.526464
 20
117.243011
 30
0.0
 40
3.0
  0
CIRCLE
  5
9785
330
9627
100
AcDbEntity
  8
1
  6
Continuous
100
AcDbCircle
 10
26.526464
 20
117.243011
 30
0.0
 40
4.0
  0
CIRCLE
  5
9786
330
9627
100
AcDbEntity
  8
1
  6
Continuous
100
AcDbCircle
 10
26.526464
 20
127.243011
 30
0.0
 40
1.6
  0
CIRCLE
  5
9787
330
9627
100
AcDbEntity
  8
1
  6
Continuous
100
AcDbCircle
 10
26.526464
 20
107.243011
 30
0.0
 40
1.6
  0
ARC
  5
9788
330
9627
100
AcDbEntity
  8
1
  6
Continuous
100
AcDbCircle
 10
141.5652639999999
 20
203.243011
 30
0.0
 40
1.0
100
AcDbArc
 50
0.0
 51
90.0
  0
ARC
  5
9789
330
9627
100
AcDbEntity
  8
1
  6
Continuous
100
AcDbCircle
 10
37.52646399999999
 20
119.243011
 30
0.0
 40
2.0
100
AcDbArc
 50
0.0
 51
90.0
  0
ARC
  5
978A
330
9627
100
AcDbEntity
  8
1
  6
Continuous
100
AcDbCircle
 10
37.52646399999999
 20
115.243011
 30
0.0
 40
2.0
100
AcDbArc
 50
270.0
 51
0.0
  0
ARC
  5
978B
330
9627
100
AcDbEntity
  8
1
  6
Continuous
100
AcDbCircle
 10
141.5652639999999
 20
111.243011
 30
0.0
 40
1.0
100
AcDbArc
 50
270.0
 51
0.0
  0
ARC
  5
978C
330
9627
100
AcDbEntity
  8
1
  6
Continuous
100
AcDbCircle
 10
125.5652639999998
 20
203.243011
 30
0.0
 40
1.0
100
AcDbArc
 50
90.0
 51
180.0
  0
ARC
  5
978D
330
9627
100
AcDbEntity
  8
1
  6
Continuous
100
AcDbCircle
 10
125.5652639999998
 20
191.243011
 30
0.0
 40
1.0
100
AcDbArc
 50
180.0
 51
270.0
  0
CIRCLE
  5
978E
330
9627
100
AcDbEntity
  8
1
  6
Continuous
100
AcDbCircle
 10
228.604264
 20
127.243011
 30
0.0
 40
1.6
  0
CIRCLE
  5
978F
330
9627
100
AcDbEntity
  8
1
  6
Continuous
100
AcDbCircle
 10
228.604264
 20
107.243011
 30
0.0
 40
1.6
  0
ARC
  5
9790
330
9627
100
AcDbEntity
  8
1
  6
Continuous
100
AcDbCircle
 10
217.6042639999999
 20
119.243011
 30
0.0
 40
2.0
100
AcDbArc
 50
90.0
 51
180.0
  0
ARC
  5
9791
330
9627
100
AcDbEntity
  8
1
  6
Continuous
100
AcDbCircle
 10
217.6042639999999
 20
115.243011
 30
0.0
 40
2.0
100
AcDbArc
 50
180.0
 51
270.0
  0
CIRCLE
  5
9792
330
9627
100
AcDbEntity
  8
1
  6
Continuous
100
AcDbCircle
 10
228.604264
 20
107.243011
 30
0.0
 40
1.75
  0
CIRCLE
  5
9793
330
9627
100
AcDbEntity
  8
1
  6
Continuous
100
AcDbCircle
 10
228.604264
 20
117.243011
 30
0.0
 40
1.6
  0
ARC
  5
9794
330
9627
100
AcDbEntity
  8
1
  6
Continuous
100
AcDbCircle
 10
228.1042639999999
 20
117.743011
 30
0.0
 40
5.0
100
AcDbArc
 50
90.0
 51
106.1579999999999
  0
ARC
  5
9795
330
9627
100
AcDbEntity
  8
1
  6
Continuous
100
AcDbCircle
 10
228.604264
 20
117.243011
 30
0.0
 40
4.4
100
AcDbArc
 50
72.10160000000001
 51
107.898
  0
ARC
  5
9796
330
9627
100
AcDbEntity
  8
1
  6
Continuous
100
AcDbCircle
 10
228.604264
 20
117.243011
 30
0.0
 40
3.6
100
AcDbArc
 50
73.8724
 51
106.128
  0
ARC
  5
9797
330
9627
100
AcDbEntity
  8
1
  6
Continuous
100
AcDbCircle
 10
231.5542639999999
 20
122.093011
 30
0.0
 40
1.149999999999999
100
AcDbArc
 50
334.202
 51
154.2019999999999
  0
ARC
  5
9798
330
9627
100
AcDbEntity
  8
1
  6
Continuous
100
AcDbCircle
 10
225.654264
 20
122.093011
 30
0.0
 40
1.149999999999999
100
AcDbArc
 50
25.79779999999999
 51
205.798
  0
ARC
  5
9799
330
9627
100
AcDbEntity
  8
1
  6
Continuous
100
AcDbCircle
 10
228.604264
 20
117.243011
 30
0.0
 40
3.6
100
AcDbArc
 50
143.8909999999999
 51
198.3179999999999
  0
ARC
  5
979A
330
9627
100
AcDbEntity
  8
1
  6
Continuous
100
AcDbCircle
 10
228.604264
 20
117.243011
 30
0.0
 40
3.6
100
AcDbArc
 50
341.6819999999999
 51
36.1087
  0
ARC
  5
979B
330
9627
100
AcDbEntity
  8
1
  6
Continuous
100
AcDbCircle
 10
231.754264
 20
111.893011
 30
0.0
 40
1.149999999999999
100
AcDbArc
 50
192.1579999999999
 51
12.1576
  0
ARC
  5
979C
330
9627
100
AcDbEntity
  8
1
  6
Continuous
100
AcDbCircle
 10
225.4542639999999
 20
111.893011
 30
0.0
 40
1.149999999999999
100
AcDbArc
 50
167.842
 51
347.8419999999999
  0
ARC
  5
979D
330
9627
100
AcDbEntity
  8
1
  6
Continuous
100
AcDbCircle
 10
228.604264
 20
117.243011
 30
0.0
 40
4.4
100
AcDbArc
 50
326.999
 51
41.5403
  0
ARC
  5
979E
330
9627
100
AcDbEntity
  8
1
  6
Continuous
100
AcDbCircle
 10
228.604264
 20
117.243011
 30
0.0
 40
4.4
100
AcDbArc
 50
247.332
 51
292.668
  0
ARC
  5
979F
330
9627
100
AcDbEntity
  8
1
  6
Continuous
100
AcDbCircle
 10
228.604264
 20
117.243011
 30
0.0
 40
4.4
100
AcDbArc
 50
138.46
 51
213.0009999999999
  0
ARC
  5
97A0
330
9627
100
AcDbEntity
  8
1
  6
Continuous
100
AcDbCircle
 10
228.1042639999999
 20
117.743011
 30
0.0
 40
5.0
100
AcDbArc
 50
132.8079999999999
 51
180.0
  0
ARC
  5
97A1
330
9627
100
AcDbEntity
  8
5
  6
PHANTOM
100
AcDbCircle
 10
129.6652639999998
 20
192.743011
 30
0.0
 40
2.9
100
AcDbArc
 50
305.86
 51
0.0
  0
ARC
  5
97A2
330
9627
100
AcDbEntity
  8
5
  6
PHANTOM
100
AcDbCircle
 10
130.465264
 20
189.743011
 30
0.0
 40
2.9
100
AcDbArc
 50
125.86
 51
180.0
  0
ARC
  5
97A3
330
9627
100
AcDbEntity
  8
5
  6
PHANTOM
100
AcDbCircle
 10
128.1652639999998
 20
193.510011
 30
0.0
 40
1.5
100
AcDbArc
 50
305.86
 51
0.0
  0
ARC
  5
97A4
330
9627
100
AcDbEntity
  8
5
  6
PHANTOM
100
AcDbCircle
 10
131.9652639999999
 20
188.977011
 30
0.0
 40
1.5
100
AcDbArc
 50
125.86
 51
180.0
  0
ARC
  5
97A5
330
9627
100
AcDbEntity
  8
1
  6
Continuous
100
AcDbCircle
 10
137.6652639999998
 20
192.743011
 30
0.0
 40
2.9
100
AcDbArc
 50
305.86
 51
0.0
  0
ARC
  5
97A6
330
9627
100
AcDbEntity
  8
1
  6
Continuous
100
AcDbCircle
 10
139.965264
 20
188.977011
 30
0.0
 40
1.5
100
AcDbArc
 50
125.86
 51
180.0
  0
ARC
  5
97A7
330
9627
100
AcDbEntity
  8
1
  6
Continuous
100
AcDbCircle
 10
136.1652639999997
 20
193.510011
 30
0.0
 40
1.5
100
AcDbArc
 50
305.86
 51
0.0
  0
ARC
  5
97A8
330
9627
100
AcDbEntity
  8
1
  6
Continuous
100
AcDbCircle
 10
138.4652639999999
 20
189.743011
 30
0.0
 40
2.9
100
AcDbArc
 50
125.86
 51
180.0
  0
ARC
  5
97A9
330
9627
100
AcDbEntity
  8
1
  6
Continuous
100
AcDbCircle
 10
137.4152639999998
 20
200.093011
 30
0.0
 40
0.25
100
AcDbArc
 50
0.0
 51
180.0
  0
ARC
  5
97AA
330
9627
100
AcDbEntity
  8
1
  6
Continuous
100
AcDbCircle
 10
137.4152639999998
 20
194.393011
 30
0.0
 40
0.25
100
AcDbArc
 50
190.039
 51
0.0
  0
ARC
  5
97AB
330
9627
100
AcDbEntity
  8
1
  6
Continuous
100
AcDbCircle
 10
126.3152639999999
 20
194.393011
 30
0.0
 40
0.25
100
AcDbArc
 50
180.0
 51
0.00001
  0
ARC
  5
97AC
330
9627
100
AcDbEntity
  8
1
  6
Continuous
100
AcDbCircle
 10
126.3152639999999
 20
200.093011
 30
0.0
 40
0.25
100
AcDbArc
 50
0.0
 51
180.0
  0
ARC
  5
97AD
330
9627
100
AcDbEntity
  8
1
  6
Continuous
100
AcDbCircle
 10
129.3422639999998
 20
114.393011
 30
0.0
 40
0.25
100
AcDbArc
 50
190.039
 51
349.961
  0
ARC
  5
97AE
330
9627
100
AcDbEntity
  8
1
  6
Continuous
100
AcDbCircle
 10
131.3612639999998
 20
114.393011
 30
0.0
 40
0.25
100
AcDbArc
 50
190.039
 51
349.961
  0
ARC
  5
97AF
330
9627
100
AcDbEntity
  8
1
  6
Continuous
100
AcDbCircle
 10
133.3792639999997
 20
114.393011
 30
0.0
 40
0.25
100
AcDbArc
 50
190.039
 51
349.961
  0
ARC
  5
97B0
330
9627
100
AcDbEntity
  8
1
  6
Continuous
100
AcDbCircle
 10
135.3972639999998
 20
114.393011
 30
0.0
 40
0.25
100
AcDbArc
 50
190.039
 51
312.278
  0
ARC
  5
97B1
330
9627
100
AcDbEntity
  8
1
  6
Continuous
100
AcDbCircle
 10
136.4062639999999
 20
200.093011
 30
0.0
 40
0.25
100
AcDbArc
 50
10.0393
 51
169.9609999999998
  0
ARC
  5
97B2
330
9627
100
AcDbEntity
  8
1
  6
Continuous
100
AcDbCircle
 10
134.3882639999999
 20
120.093011
 30
0.0
 40
0.25
100
AcDbArc
 50
10.0393
 51
169.9609999999998
  0
ARC
  5
97B3
330
9627
100
AcDbEntity
  8
1
  6
Continuous
100
AcDbCircle
 10
132.370264
 20
120.093011
 30
0.0
 40
0.25
100
AcDbArc
 50
10.0393
 51
169.9609999999998
  0
ARC
  5
97B4
330
9627
100
AcDbEntity
  8
1
  6
Continuous
100
AcDbCircle
 10
130.3512639999999
 20
120.093011
 30
0.0
 40
0.25
100
AcDbArc
 50
10.0393
 51
169.9609999999998
  0
ARC
  5
97B5
330
9627
100
AcDbEntity
  8
1
  6
Continuous
100
AcDbCircle
 10
128.3332639999999
 20
120.093011
 30
0.0
 40
0.25
100
AcDbArc
 50
10.0393
 51
169.9609999999998
  0
ARC
  5
97B6
330
9627
100
AcDbEntity
  8
1
  6
Continuous
100
AcDbCircle
 10
135.3972639999998
 20
194.393011
 30
0.0
 40
0.25
100
AcDbArc
 50
190.039
 51
349.961
  0
ARC
  5
97B7
330
9627
100
AcDbEntity
  8
1
  6
Continuous
100
AcDbCircle
 10
133.3792639999997
 20
194.393011
 30
0.0
 40
0.25
100
AcDbArc
 50
190.039
 51
349.961
  0
ARC
  5
97B8
330
9627
100
AcDbEntity
  8
1
  6
Continuous
100
AcDbCircle
 10
134.3882639999999
 20
200.093011
 30
0.0
 40
0.25
100
AcDbArc
 50
10.0393
 51
169.9609999999998
  0
ARC
  5
97B9
330
9627
100
AcDbEntity
  8
1
  6
Continuous
100
AcDbCircle
 10
132.370264
 20
200.093011
 30
0.0
 40
0.25
100
AcDbArc
 50
10.0393
 51
169.9609999999998
  0
ARC
  5
97BA
330
9627
100
AcDbEntity
  8
1
  6
Continuous
100
AcDbCircle
 10
131.3612639999998
 20
194.393011
 30
0.0
 40
0.25
100
AcDbArc
 50
190.039
 51
349.961
  0
ARC
  5
97BB
330
9627
100
AcDbEntity
  8
1
  6
Continuous
100
AcDbCircle
 10
129.3422639999998
 20
194.393011
 30
0.0
 40
0.25
100
AcDbArc
 50
190.039
 51
349.961
  0
ARC
  5
97BC
330
9627
100
AcDbEntity
  8
1
  6
Continuous
100
AcDbCircle
 10
130.3512639999999
 20
200.093011
 30
0.0
 40
0.25
100
AcDbArc
 50
10.0393
 51
169.9609999999998
  0
ARC
  5
97BD
330
9627
100
AcDbEntity
  8
1
  6
Continuous
100
AcDbCircle
 10
128.3332639999999
 20
200.093011
 30
0.0
 40
0.25
100
AcDbArc
 50
10.0393
 51
169.9609999999998
  0
ARC
  5
97BE
330
9627
100
AcDbEntity
  8
1
  6
Continuous
100
AcDbCircle
 10
127.3242639999998
 20
194.393011
 30
0.0
 40
0.25
100
AcDbArc
 50
190.039
 51
349.961
  0
ARC
  5
97BF
330
9627
100
AcDbEntity
  8
1
  6
Continuous
100
AcDbCircle
 10
141.5652639999999
 20
31.243411
 30
0.0
 40
1.0
100
AcDbArc
 50
270.0
 51
0.0
  0
ARC
  5
97C0
330
9627
100
AcDbEntity
  8
1
  6
Continuous
100
AcDbCircle
 10
125.5652639999998
 20
31.243411
 30
0.0
 40
1.0
100
AcDbArc
 50
180.0
 51
270.0
  0
ARC
  5
97C1
330
9627
100
AcDbEntity
  8
1
  6
Continuous
100
AcDbCircle
 10
125.5652639999998
 20
43.243411
 30
0.0
 40
1.0
100
AcDbArc
 50
90.0
 51
180.0
  0
ARC
  5
97C2
330
9627
100
AcDbEntity
  8
1
  6
Continuous
100
AcDbCircle
 10
137.6652639999998
 20
41.743411
 30
0.0
 40
2.9
100
AcDbArc
 50
20.17129999999999
 51
54.1401
  0
ARC
  5
97C3
330
9627
100
AcDbEntity
  8
1
  6
Continuous
100
AcDbCircle
 10
139.965264
 20
45.51001099999999
 30
0.0
 40
1.5
100
AcDbArc
 50
180.0
 51
234.1399999999999
  0
ARC
  5
97C4
330
9627
100
AcDbEntity
  8
1
  6
Continuous
100
AcDbCircle
 10
138.4652639999999
 20
44.743411
 30
0.0
 40
2.9
100
AcDbArc
 50
180.0
 51
223.6029999999999
  0
ARC
  5
97C5
330
9627
100
AcDbEntity
  8
1
  6
Continuous
100
AcDbCircle
 10
315.6432639999998
 20
111.243011
 30
0.0
 40
1.0
100
AcDbArc
 50
180.0
 51
270.0
  0
CIRCLE
  5
97C6
330
9627
100
AcDbEntity
  8
1
  6
Continuous
100
AcDbCircle
 10
142.7652639999998
 20
33.043411
 30
0.0
 40
0.2
  0
ARC
  5
97C7
330
9627
100
AcDbEntity
  8
1
  6
Continuous
100
AcDbCircle
 10
142.7652639999998
 20
41.443411
 30
0.0
 40
0.2
100
AcDbArc
 50
6.70981
 51
186.71
  0
CIRCLE
  5
97C8
330
9627
100
AcDbEntity
  8
1
  6
Continuous
100
AcDbCircle
 10
143.5652639999998
 20
39.84341099999999
 30
0.0
 40
0.2
  0
ARC
  5
97C9
330
9627
100
AcDbEntity
  8
1
  6
Continuous
100
AcDbCircle
 10
143.5652639999998
 20
34.643411
 30
0.0
 40
0.2
100
AcDbArc
 50
186.71
 51
6.70981
  0
ARC
  5
97CA
330
9627
100
AcDbEntity
  8
1
  6
Continuous
100
AcDbCircle
 10
142.7652639999998
 20
121.443011
 30
0.0
 40
0.2
100
AcDbArc
 50
6.70981
 51
186.71
  0
CIRCLE
  5
97CB
330
9627
100
AcDbEntity
  8
1
  6
Continuous
100
AcDbCircle
 10
143.5652639999998
 20
119.843011
 30
0.0
 40
0.2
  0
ARC
  5
97CC
330
9627
100
AcDbEntity
  8
1
  6
Continuous
100
AcDbCircle
 10
143.5652639999998
 20
114.643011
 30
0.0
 40
0.2
100
AcDbArc
 50
186.71
 51
6.70981
  0
CIRCLE
  5
97CD
330
9627
100
AcDbEntity
  8
1
  6
Continuous
100
AcDbCircle
 10
142.7652639999998
 20
113.043011
 30
0.0
 40
0.2
  0
ARC
  5
97CE
330
9627
100
AcDbEntity
  8
1
  6
Continuous
100
AcDbCircle
 10
142.7652639999998
 20
201.443011
 30
0.0
 40
0.2
100
AcDbArc
 50
6.70981
 51
186.71
  0
CIRCLE
  5
97CF
330
9627
100
AcDbEntity
  8
1
  6
Continuous
100
AcDbCircle
 10
143.5652639999998
 20
199.8430109999999
 30
0.0
 40
0.2
  0
ARC
  5
97D0
330
9627
100
AcDbEntity
  8
1
  6
Continuous
100
AcDbCircle
 10
143.5652639999998
 20
194.643011
 30
0.0
 40
0.2
100
AcDbArc
 50
186.71
 51
6.70981
  0
CIRCLE
  5
97D1
330
9627
100
AcDbEntity
  8
1
  6
Continuous
100
AcDbCircle
 10
142.7652639999998
 20
193.0430109999998
 30
0.0
 40
0.2
  0
ARC
  5
97D2
330
9627
100
AcDbEntity
  8
1
  6
Continuous
100
AcDbCircle
 10
314.443264
 20
121.443011
 30
0.0
 40
0.2
100
AcDbArc
 50
353.29
 51
173.2899999999999
  0
CIRCLE
  5
97D3
330
9627
100
AcDbEntity
  8
1
  6
Continuous
100
AcDbCircle
 10
313.6432639999998
 20
119.843011
 30
0.0
 40
0.2
  0
ARC
  5
97D4
330
9627
100
AcDbEntity
  8
1
  6
Continuous
100
AcDbCircle
 10
313.6432639999998
 20
114.643011
 30
0.0
 40
0.2
100
AcDbArc
 50
173.2899999999999
 51
353.29
  0
CIRCLE
  5
97D5
330
9627
100
AcDbEntity
  8
1
  6
Continuous
100
AcDbCircle
 10
314.443264
 20
113.043011
 30
0.0
 40
0.2
  0
LINE
  5
97D6
330
9627
100
AcDbEntity
  8
4
  6
CENTER
100
AcDbLine
 10
21.578325
 20
132.422641
 30
0.0
 11
29.705104
 21
107.491756
 31
0.0
  0
ARC
  5
97D7
330
9627
100
AcDbEntity
  8
5
  6
PHANTOM
100
AcDbCircle
 10
25.018845
 20
128.321237
 30
0.0
 40
2.0
100
AcDbArc
 50
18.054537
 51
108.054537
  0
ARC
  5
97D8
330
9627
100
AcDbEntity
  8
5
  6
PHANTOM
100
AcDbCircle
 10
21.21579699999999
 20
127.0815479999999
 30
0.0
 40
2.0
100
AcDbArc
 50
108.054537
 51
198.054537
  0
LINE
  5
97D9
330
9627
100
AcDbEntity
  8
5
  6
PHANTOM
100
AcDbLine
 10
26.920369
 20
128.9410809999999
 30
0.0
 11
30.329512
 21
118.4826989999999
 31
0.0
  0
LINE
  5
97DA
330
9627
100
AcDbEntity
  8
5
  6
PHANTOM
100
AcDbLine
 10
20.595953
 20
128.9830719999999
 30
0.0
 11
24.399001
 21
130.2227599999999
 31
0.0
  0
LINE
  5
97DB
330
9627
100
AcDbEntity
  8
5
  6
PHANTOM
100
AcDbLine
 10
19.314273
 20
126.461704
 30
0.0
 11
22.723417
 21
116.003322
 31
0.0
  0
LINE
  5
97DC
330
9627
100
AcDbEntity
  8
4
  6
CENTER
100
AcDbLine
 10
41.572765
 20
112.338333
 30
0.0
 11
17.28664399999998
 21
120.254937
 31
0.0
  0
LINE
  5
97DD
330
9627
100
AcDbEntity
  8
5
  6
PHANTOM
100
AcDbLine
 10
35.745157
 20
110.0308199999999
 30
0.0
 11
25.28677599999999
 21
113.4399629999999
 31
0.0
  0
LINE
  5
97DE
330
9627
100
AcDbEntity
  8
5
  6
PHANTOM
100
AcDbLine
 10
38.224534
 20
117.6369149999999
 30
0.0
 11
27.766153
 21
121.046059
 31
0.0
  0
LINE
  5
97DF
330
9627
100
AcDbEntity
  8
5
  6
PHANTOM
100
AcDbLine
 10
39.506214
 20
115.1155469999999
 30
0.0
 11
38.266525
 21
111.3124989999999
 31
0.0
  0
ARC
  5
97E0
330
9627
100
AcDbEntity
  8
5
  6
PHANTOM
100
AcDbCircle
 10
37.60469
 20
115.7353909999998
 30
0.0
 40
2.0
100
AcDbArc
 50
341.9454629999999
 51
71.945463
  0
ARC
  5
97E1
330
9627
100
AcDbEntity
  8
5
  6
PHANTOM
100
AcDbCircle
 10
36.36500199999999
 20
111.932344
 30
0.0
 40
2.0
100
AcDbArc
 50
251.945463
 51
341.9454629999999
  0
LINE
  5
97E2
330
9627
100
AcDbEntity
  8
1
  6
Continuous
100
AcDbLine
 10
222.604264
 20
113.243011
 30
0.0
 11
222.604264
 21
103.2430109999999
 31
0.0
  0
LINE
  5
97E3
330
9627
100
AcDbEntity
  8
1
  6
Continuous
100
AcDbLine
 10
221.6042639999999
 20
113.243011
 30
0.0
 11
221.6042639999999
 21
103.2430109999999
 31
0.0
  0
LINE
  5
97E4
330
9627
100
AcDbEntity
  8
1
  6
Continuous
100
AcDbLine
 10
320.754268
 20
120.061857
 30
0.0
 11
320.754268
 21
118.145548
 31
0.0
  0
LINE
  5
97E5
330
9627
100
AcDbEntity
  8
1
  6
Continuous
100
AcDbLine
 10
321.1981589999999
 20
118.022847
 30
0.0
 11
321.1981589999999
 21
119.662175
 31
0.0
  0
LINE
  5
97E6
330
9627
100
AcDbEntity
  8
1
  6
Continuous
100
AcDbLine
 10
321.6429519999999
 20
119.939156
 30
0.0
 11
321.6429519999999
 21
117.7467679999999
 31
0.0
  0
LINE
  5
97E7
330
9627
100
AcDbEntity
  8
1
  6
Continuous
100
AcDbLine
 10
322.5316349999999
 20
119.3761719999999
 30
0.0
 11
322.5316349999999
 21
120.224256
 31
0.0
  0
LINE
  5
97E8
330
9627
100
AcDbEntity
  8
1
  6
Continuous
100
AcDbLine
 10
323.420319
 20
118.842962
 30
0.0
 11
322.9764279999999
 21
118.842962
 31
0.0
  0
ARC
  5
97E9
330
9627
100
AcDbEntity
  8
1
  6
Continuous
100
AcDbCircle
 10
320.9762129999999
 20
118.842962
 30
0.0
 40
1.145318999999998
100
AcDbArc
 50
125.5376999999999
 51
166.5373999999999
  0
ARC
  5
97EA
330
9627
100
AcDbEntity
  8
1
  6
Continuous
100
AcDbCircle
 10
320.9762129999999
 20
118.842962
 30
0.0
 40
1.145318999999998
100
AcDbArc
 50
180.0
 51
234.4619999999999
  0
ARC
  5
97EB
330
9627
100
AcDbEntity
  8
1
  6
Continuous
100
AcDbCircle
 10
321.4210059999999
 20
119.662175
 30
0.0
 40
0.222261
100
AcDbArc
 50
116.0144
 51
180.0
  0
ARC
  5
97EC
330
9627
100
AcDbEntity
  8
1
  6
Continuous
100
AcDbCircle
 10
323.642264
 20
115.1095879999999
 30
0.0
 40
5.288524999999999
100
AcDbArc
 50
112.9439999999999
 51
116.0144
  0
ARC
  5
97ED
330
9627
100
AcDbEntity
  8
1
  6
Continuous
100
AcDbCircle
 10
321.598743
 20
119.939156
 30
0.0
 40
0.044452
100
AcDbArc
 50
0.0
 51
112.9439999999999
  0
ARC
  5
97EE
330
9627
100
AcDbEntity
  8
1
  6
Continuous
100
AcDbCircle
 10
321.4210059999999
 20
118.022847
 30
0.0
 40
0.222261
100
AcDbArc
 50
180.0
 51
243.9859999999999
  0
ARC
  5
97EF
330
9627
100
AcDbEntity
  8
1
  6
Continuous
100
AcDbCircle
 10
322.487427
 20
120.224256
 30
0.0
 40
0.044452
100
AcDbArc
 50
0.0
 51
102.7288999999999
  0
ARC
  5
97F0
330
9627
100
AcDbEntity
  8
1
  6
Continuous
100
AcDbCircle
 10
323.642264
 20
115.1095879999999
 30
0.0
 40
5.288524999999999
100
AcDbArc
 50
102.7288999999999
 51
103.2680999999999
  0
ARC
  5
97F1
330
9627
100
AcDbEntity
  8
1
  6
Continuous
100
AcDbCircle
 10
323.642264
 20
115.1095879999999
 30
0.0
 40
5.288524999999999
100
AcDbArc
 50
103.2680999999999
 51
105.2575
  0
ARC
  5
97F2
330
9627
100
AcDbEntity
  8
1
  6
Continuous
100
AcDbCircle
 10
322.3096899999998
 20
119.9968979999999
 30
0.0
 40
0.222261
100
AcDbArc
 50
105.2575
 51
180.0
  0
ARC
  5
97F3
330
9627
100
AcDbEntity
  8
1
  6
Continuous
100
AcDbCircle
 10
322.3096899999998
 20
117.6881239999999
 30
0.0
 40
0.222261
100
AcDbArc
 50
180.0
 51
254.742
  0
ARC
  5
97F4
330
9627
100
AcDbEntity
  8
1
  6
Continuous
100
AcDbCircle
 10
323.642264
 20
122.5754339999999
 30
0.0
 40
5.288524999999999
100
AcDbArc
 50
254.742
 51
254.794
  0
ARC
  5
97F5
330
9627
100
AcDbEntity
  8
1
  6
Continuous
100
AcDbCircle
 10
323.642264
 20
122.5754339999999
 30
0.0
 40
5.288524999999999
100
AcDbArc
 50
254.794
 51
257.2709999999998
  0
ARC
  5
97F6
330
9627
100
AcDbEntity
  8
1
  6
Continuous
100
AcDbCircle
 10
322.487427
 20
117.4607659999998
 30
0.0
 40
0.044452
100
AcDbArc
 50
257.2709999999998
 51
0.0
  0
LINE
  5
97F7
330
9627
100
AcDbEntity
  8
1
  6
Continuous
100
AcDbLine
 10
322.0868419999998
 20
119.9968979999999
 30
0.0
 11
322.0868419999998
 21
117.6881239999999
 31
0.0
  0
LINE
  5
97F8
330
9627
100
AcDbEntity
  8
1
  6
Continuous
100
AcDbLine
 10
322.5316349999999
 20
117.4607659999998
 30
0.0
 11
322.5316349999999
 21
118.309752
 31
0.0
  0
LINE
  5
97F9
330
9627
100
AcDbEntity
  8
1
  6
Continuous
100
AcDbLine
 10
322.9764279999999
 20
120.35598
 30
0.0
 11
322.9764279999999
 21
117.3290419999998
 31
0.0
  0
LINE
  5
97FA
330
9627
100
AcDbEntity
  8
1
  6
Continuous
100
AcDbLine
 10
323.420319
 20
120.392971
 30
0.0
 11
323.420319
 21
117.2920509999999
 31
0.0
  0
ARC
  5
97FB
330
9627
100
AcDbEntity
  8
1
  6
Continuous
100
AcDbCircle
 10
321.598743
 20
117.7467679999999
 30
0.0
 40
0.044452
100
AcDbArc
 50
247.0559999999999
 51
0.0
  0
ARC
  5
97FC
330
9627
100
AcDbEntity
  8
1
  6
Continuous
100
AcDbCircle
 10
323.642264
 20
122.5754339999999
 30
0.0
 40
5.288524999999999
100
AcDbArc
 50
243.9859999999999
 51
247.0559999999999
  0
LINE
  5
97FD
330
9627
100
AcDbEntity
  8
1
  6
Continuous
100
AcDbLine
 10
324.753796
 20
118.842962
 30
0.0
 11
324.53185
 21
118.842962
 31
0.0
  0
ARC
  5
97FE
330
9627
100
AcDbEntity
  8
1
  6
Continuous
100
AcDbCircle
 10
324.53185
 20
120.097044
 30
0.0
 40
0.222261
100
AcDbArc
 50
0.0
 51
79.896
  0
ARC
  5
97FF
330
9627
100
AcDbEntity
  8
1
  6
Continuous
100
AcDbCircle
 10
324.53185
 20
117.587978
 30
0.0
 40
0.222261
100
AcDbArc
 50
280.104
 51
0.0
  0
ARC
  5
9800
330
9627
100
AcDbEntity
  8
1
  6
Continuous
100
AcDbCircle
 10
323.642264
 20
115.1095879999999
 30
0.0
 40
5.288524999999999
100
AcDbArc
 50
79.896
 51
82.20699999999999
  0
ARC
  5
9801
330
9627
100
AcDbEntity
  8
1
  6
Continuous
100
AcDbCircle
 10
324.354114
 20
120.3054559999998
 30
0.0
 40
0.044452
100
AcDbArc
 50
82.20699999999999
 51
180.0
  0
ARC
  5
9802
330
9627
100
AcDbEntity
  8
1
  6
Continuous
100
AcDbCircle
 10
324.354114
 20
117.3795659999999
 30
0.0
 40
0.044452
100
AcDbArc
 50
180.0
 51
277.793
  0
ARC
  5
9803
330
9627
100
AcDbEntity
  8
1
  6
Continuous
100
AcDbCircle
 10
323.642264
 20
122.5754339999999
 30
0.0
 40
5.288524999999999
100
AcDbArc
 50
277.793
 51
280.104
  0
LINE
  5
9804
330
9627
100
AcDbEntity
  8
1
  6
Continuous
100
AcDbLine
 10
323.865112
 20
120.392971
 30
0.0
 11
323.865112
 21
117.2920509999999
 31
0.0
  0
LINE
  5
9805
330
9627
100
AcDbEntity
  8
1
  6
Continuous
100
AcDbLine
 10
324.3090029999998
 20
120.3054559999998
 30
0.0
 11
324.3090029999998
 21
117.3795659999999
 31
0.0
  0
LINE
  5
9806
330
9627
100
AcDbEntity
  8
1
  6
Continuous
100
AcDbLine
 10
324.753796
 20
119.3761719999999
 30
0.0
 11
324.753796
 21
120.097044
 31
0.0
  0
LINE
  5
9807
330
9627
100
AcDbEntity
  8
1
  6
Continuous
100
AcDbLine
 10
325.642479
 20
120.094337
 30
0.0
 11
325.642479
 21
119.064907
 31
0.0
  0
LINE
  5
9808
330
9627
100
AcDbEntity
  8
1
  6
Continuous
100
AcDbLine
 10
326.087272
 20
119.064907
 30
0.0
 11
326.087272
 21
120.0140399999998
 31
0.0
  0
LINE
  5
9809
330
9627
100
AcDbEntity
  8
1
  6
Continuous
100
AcDbLine
 10
325.8644249999999
 20
118.842962
 30
0.0
 11
325.8644249999999
 21
117.7765419999999
 31
0.0
  0
LINE
  5
980A
330
9627
100
AcDbEntity
  8
1
  6
Continuous
100
AcDbLine
 10
326.3128270000001
 20
118.0111179999999
 30
0.0
 11
326.815362
 21
119.8841199999999
 31
0.0
  0
LINE
  5
980B
330
9627
100
AcDbEntity
  8
1
  6
Continuous
100
AcDbLine
 10
327.454131
 20
118.842962
 30
0.0
 11
326.5356739999999
 21
118.842962
 31
0.0
  0
ARC
  5
980C
330
9627
100
AcDbEntity
  8
1
  6
Continuous
100
AcDbCircle
 10
325.8644249999999
 20
119.064907
 30
0.0
 40
0.222261
100
AcDbArc
 50
180.0
 51
0.0
  0
ARC
  5
980D
330
9627
100
AcDbEntity
  8
1
  6
Continuous
100
AcDbCircle
 10
326.3092180000001
 20
118.842962
 30
0.0
 40
1.145318999999998
100
AcDbArc
 50
332.25
 51
54.46200000000001
  0
ARC
  5
980E
330
9627
100
AcDbEntity
  8
1
  6
Continuous
100
AcDbCircle
 10
326.3092180000001
 20
118.842962
 30
0.0
 40
1.145318999999998
100
AcDbArc
 50
305.5379999999999
 51
315.699
  0
LINE
  5
980F
330
9627
100
AcDbEntity
  8
1
  6
Continuous
100
AcDbLine
 10
324.753796
 20
117.587978
 30
0.0
 11
324.753796
 21
118.842962
 31
0.0
  0
LINE
  5
9810
330
9627
100
AcDbEntity
  8
1
  6
Continuous
100
AcDbLine
 10
325.197687
 20
120.303651
 30
0.0
 11
325.197687
 21
117.5212139999999
 31
0.0
  0
ARC
  5
9811
330
9627
100
AcDbEntity
  8
1
  6
Continuous
100
AcDbCircle
 10
323.642264
 20
122.5754339999999
 30
0.0
 40
5.732929999999998
100
AcDbArc
 50
234.4619999999999
 51
305.5379999999999
  0
ARC
  5
9812
330
9627
100
AcDbEntity
  8
1
  6
Continuous
100
AcDbCircle
 10
323.642264
 20
115.1095879999999
 30
0.0
 40
5.732929999999998
100
AcDbArc
 50
54.46200000000001
 51
125.5376999999999
  0
ENDSEC
  0
SECTION
  2
OBJECTS
  0
DICTIONARY
  5
9615
330
0
100
AcDbDictionary
281
     1
  3
ACAD_CIP_PREVIOUS_PRODUCT_INFO
350
9876
  3
ACAD_COLOR
350
9858
  3
ACAD_DETAILVIEWSTYLE
350
9871
  3
ACAD_GROUP
350
9616
  3
ACAD_LAYOUT
350
9622
  3
ACAD_MATERIAL
350
9826
  3
ACAD_MLEADERSTYLE
350
986D
  3
ACAD_MLINESTYLE
350
961F
  3
ACAD_PLOTSETTINGS
350
9621
  3
ACAD_PLOTSTYLENAME
350
9824
  3
ACAD_SCALELIST
350
985B
  3
ACAD_SECTIONVIEWSTYLE
350
986F
  3
ACAD_TABLESTYLE
350
9859
  3
ACAD_VISUALSTYLE
350
983F
  3
ACDB_RECOMPOSE_DATA
350
9894
  3
AcDbVariableDictionary
350
9887
  3
DWGPROPS
350
9895
  0
DICTIONARY
  5
9877
330
9619
100
AcDbDictionary
280
     1
281
     1
  3
ADSK_XREC_LAYER_RECONCILED
360
9878
  0
DICTIONARY
  5
9879
330
962F
100
AcDbDictionary
280
     1
281
     1
  3
ADSK_XREC_LAYER_RECONCILED
360
987A
  0
DICTIONARY
  5
987B
330
9630
100
AcDbDictionary
280
     1
281
     1
  3
ADSK_XREC_LAYER_RECONCILED
360
987C
  0
DICTIONARY
  5
987D
330
9631
100
AcDbDictionary
280
     1
281
     1
  3
ADSK_XREC_LAYER_RECONCILED
360
987E
  0
DICTIONARY
  5
987F
330
9632
100
AcDbDictionary
280
     1
281
     1
  3
ADSK_XREC_LAYER_RECONCILED
360
9880
  0
DICTIONARY
  5
9881
330
9633
100
AcDbDictionary
280
     1
281
     1
  3
ADSK_XREC_LAYER_RECONCILED
360
9882
  0
DICTIONARY
  5
9883
330
9634
100
AcDbDictionary
280
     1
281
     1
  3
ADSK_XREC_LAYER_RECONCILED
360
9884
  0
DICTIONARY
  5
9885
330
9635
100
AcDbDictionary
280
     1
281
     1
  3
ADSK_XREC_LAYER_RECONCILED
360
9886
  0
DICTIONARY
  5
981F
330
9627
100
AcDbDictionary
281
     1
  3
ACAD_LAYOUTSELFREF
350
9820
  0
DICTIONARY
  5
981D
330
9623
100
AcDbDictionary
281
     1
  3
ACAD_LAYOUTSELFREF
350
981E
  0
XRECORD
  5
9876
102
{ACAD_REACTORS
330
9615
102
}
330
9615
100
AcDbXrecord
280
     1
300
ACDLT
300
2014
300
ACDLT_F_S
  0
DICTIONARY
  5
9858
102
{ACAD_REACTORS
330
9615
102
}
330
9615
100
AcDbDictionary
281
     1
  0
DICTIONARY
  5
9871
102
{ACAD_REACTORS
330
9615
102
}
330
9615
100
AcDbDictionary
281
     1
  3
Imperial24
350
9872
  0
DICTIONARY
  5
9616
102
{ACAD_REACTORS
330
9615
102
}
330
9615
100
AcDbDictionary
281
     1
  0
DICTIONARY
  5
9622
102
{ACAD_REACTORS
330
9615
102
}
330
9615
100
AcDbDictionary
281
     1
  3
Model
350
9873
  3
レイアウト1
350
9874
  0
DICTIONARY
  5
9826
102
{ACAD_REACTORS
330
9615
102
}
330
9615
100
AcDbDictionary
281
     1
  3
ByBlock
350
982F
  3
ByLayer
350
9827
  3
Global
350
9837
  0
DICTIONARY
  5
986D
102
{ACAD_REACTORS
330
9615
102
}
330
9615
100
AcDbDictionary
281
     1
  3
Standard
350
986E
  0
DICTIONARY
  5
961F
102
{ACAD_REACTORS
330
9615
102
}
330
9615
100
AcDbDictionary
281
     1
  3
STANDARD
350
9620
  0
DICTIONARY
  5
9621
102
{ACAD_REACTORS
330
9615
102
}
330
9615
100
AcDbDictionary
281
     1
  0
ACDBDICTIONARYWDFLT
  5
9824
102
{ACAD_REACTORS
330
9615
102
}
330
9615
100
AcDbDictionary
281
     1
  3
Normal
350
9825
100
AcDbDictionaryWithDefault
340
9825
  0
DICTIONARY
  5
985B
102
{ACAD_REACTORS
330
9615
102
}
330
9615
100
AcDbDictionary
281
     1
  3
A0
350
985C
  3
A1
350
985D
  3
A2
350
985E
  3
A3
350
985F
  3
A4
350
9860
  3
A5
350
9861
  3
A6
350
9862
  3
A7
350
9863
  3
A8
350
9864
  3
A9
350
9865
  3
B0
350
9866
  3
B1
350
9867
  3
B2
350
9868
  3
B3
350
9869
  3
B4
350
986A
  3
B5
350
986B
  3
B6
350
986C
  0
DICTIONARY
  5
986F
102
{ACAD_REACTORS
330
9615
102
}
330
9615
100
AcDbDictionary
281
     1
  3
Imperial24
350
9870
  0
DICTIONARY
  5
9859
102
{ACAD_REACTORS
330
9615
102
}
330
9615
100
AcDbDictionary
281
     1
  3
Standard
350
985A
  0
DICTIONARY
  5
983F
102
{ACAD_REACTORS
330
9615
102
}
330
9615
100
AcDbDictionary
281
     1
  3
2dWireframe
350
9845
  3
Basic
350
9844
  3
Brighten
350
984B
  3
ColorChange
350
984F
  3
Conceptual
350
9848
  3
Dim
350
984A
  3
EdgeColorOff
350
9857
  3
Facepattern
350
984E
  3
Flat
350
9840
  3
FlatWithEdges
350
9841
  3
Gouraud
350
9842
  3
GouraudWithEdges
350
9843
  3
Hidden
350
9847
  3
JitterOff
350
9855
  3
Linepattern
350
984D
  3
OverhangOff
350
9856
  3
Realistic
350
9849
  3
Shaded
350
9854
  3
Shaded with edges
350
9853
  3
Shades of Gray
350
9850
  3
Sketchy
350
9851
  3
Thicken
350
984C
  3
Wireframe
350
9846
  3
X-Ray
350
9852
  0
XRECORD
  5
9894
102
{ACAD_REACTORS
330
9615
102
}
330
9615
100
AcDbXrecord
280
     1
 90
        1
330
985A
  0
DICTIONARY
  5
9887
102
{ACAD_REACTORS
330
9615
102
}
330
9615
100
AcDbDictionary
281
     1
  3
CANNOSCALE
350
988C
  3
CMLEADERSTYLE
350
9889
  3
CTABLESTYLE
350
9888
  3
CVIEWDETAILSTYLE
350
988A
  3
CVIEWSECTIONSTYLE
350
988B
  3
DIMASSOC
350
988F
  3
INDEXCTL
350
988E
  3
SORTENTS
350
988D
  3
XCLIPFRAME
350
9890
  0
XRECORD
  5
9895
102
{ACAD_REACTORS
330
9615
102
}
330
9615
100
AcDbXrecord
280
     1
  1
DWGPROPS COOKIE
  2

  3

  4

  6

  7

  8
Yoshitsune
  9

300
=
301
=
302
=
303
=
304
=
305
=
306
=
307
=
308
=
309
=
 40
0.0000133680555556
 41
2451066.696056019
 42
2457192.603462975
  1

 90
        0
  0
XRECORD
  5
9878
102
{ACAD_REACTORS
330
9877
102
}
330
9877
100
AcDbXrecord
280
     1
290
     1
  0
XRECORD
  5
987A
102
{ACAD_REACTORS
330
9879
102
}
330
9879
100
AcDbXrecord
280
     1
290
     1
  0
XRECORD
  5
987C
102
{ACAD_REACTORS
330
987B
102
}
330
987B
100
AcDbXrecord
280
     1
290
     1
  0
XRECORD
  5
987E
102
{ACAD_REACTORS
330
987D
102
}
330
987D
100
AcDbXrecord
280
     1
290
     1
  0
XRECORD
  5
9880
102
{ACAD_REACTORS
330
987F
102
}
330
987F
100
AcDbXrecord
280
     1
290
     1
  0
XRECORD
  5
9882
102
{ACAD_REACTORS
330
9881
102
}
330
9881
100
AcDbXrecord
280
     1
290
     1
  0
XRECORD
  5
9884
102
{ACAD_REACTORS
330
9883
102
}
330
9883
100
AcDbXrecord
280
     1
290
     1
  0
XRECORD
  5
9886
102
{ACAD_REACTORS
330
9885
102
}
330
9885
100
AcDbXrecord
280
     1
290
     1
  0
XRECORD
  5
9820
102
{ACAD_REACTORS
330
981F
102
}
330
981F
100
AcDbXrecord
280
     1
340
9627
  0
XRECORD
  5
981E
102
{ACAD_REACTORS
330
981D
102
}
330
981D
100
AcDbXrecord
280
     1
340
9623
  0
ACDBDETAILVIEWSTYLE
  5
9872
102
{ACAD_XDICTIONARY
360
98CD
102
}
102
{ACAD_REACTORS
330
9871
102
}
330
9871
100
AcDbModelDocViewStyle
 70
     0
  3
Imperial24
290
     0
100
AcDbDetailViewStyle
 70
     0
 71
     0
 90
        3
 71
     1
340
961A
 40
0.24
340
0
 40
0.24
300

 40
0.36
280
     3
 71
     2
340
961E
 90
       25
 71
     3
340
961A
 40
0.24
 90
        1
 40
0.75
 90
        1
300
%<\AcVar ViewType \f "%tc1">% %<\AcVar ViewDetailId>%\PSCALE %<\AcVar ViewScale \f "%sn">%
 71
     4
340
961E
 90
       25
340
961E
 90
       25
280
     0
  0
LAYOUT
  5
9873
102
{ACAD_XDICTIONARY
360
98CF
102
}
102
{ACAD_REACTORS
330
9622
102
}
330
9622
100
AcDbPlotSettings
  1

  2
Canon LBP9100C
  4

  6

 40
0.0
 41
0.0
 42
0.0
 43
0.0
 44
0.0
 45
0.0
 46
0.0
 47
0.0
 48
0.0
 49
0.0
140
0.0
141
0.0
142
1.0
143
1.0
 70
  1712
 72
     0
 73
     0
 74
     0
  7

 75
     0
147
1.0
148
0.0
149
0.0
100
AcDbLayout
  1
Model
 70
     1
 71
     0
 10
0.0
 20
0.0
 11
12.0
 21
9.0
 12
0.0
 22
0.0
 32
0.0
 14
0.0
 24
0.0
 34
0.0
 15
0.0
 25
0.0
 35
0.0
146
0.0
 13
0.0
 23
0.0
 33
0.0
 16
1.0
 26
0.0
 36
0.0
 17
0.0
 27
1.0
 37
0.0
 76
     0
330
9627
331
981C
  0
LAYOUT
  5
9874
102
{ACAD_XDICTIONARY
360
98D1
102
}
102
{ACAD_REACTORS
330
9622
102
}
330
9622
100
AcDbPlotSettings
  1

  2
Canon LBP9100C
  4

  6

 40
0.0
 41
0.0
 42
0.0
 43
0.0
 44
0.0
 45
0.0
 46
0.0
 47
0.0
 48
0.0
 49
0.0
140
0.0
141
0.0
142
1.0
143
1.0
 70
   688
 72
     0
 73
     0
 74
     5
  7

 75
    16
147
1.0
148
0.0
149
0.0
100
AcDbLayout
  1
レイアウト1
 70
     0
 71
     1
 10
0.0
 20
0.0
 11
420.0
 21
297.0
 12
0.0
 22
0.0
 32
0.0
 14
1.000000000000000E+20
 24
1.000000000000000E+20
 34
1.000000000000000E+20
 15
-1.000000000000000E+20
 25
-1.000000000000000E+20
 35
-1.000000000000000E+20
146
0.0
 13
0.0
 23
0.0
 33
0.0
 16
1.0
 26
0.0
 36
0.0
 17
0.0
 27
1.0
 37
0.0
 76
     0
330
9623
  0
MATERIAL
  5
982F
102
{ACAD_XDICTIONARY
360
9830
102
}
102
{ACAD_REACTORS
330
9826
102
}
330
9826
100
AcDbMaterial
  1
ByBlock
 72
     0
 43
0.0208333333333333
 43
0.0
 43
0.0
 43
0.0
 43
0.0
 43
0.0208333333333333
 43
0.0
 43
0.0
 43
0.0
 43
0.0
 43
1.0
 43
0.0
 43
0.0
 43
0.0
 43
0.0
 43
1.0
 77
     0
 47
0.0208333333333333
 47
0.0
 47
0.0
 47
0.0
 47
0.0
 47
0.0208333333333333
 47
0.0
 47
0.0
 47
0.0
 47
0.0
 47
1.0
 47
0.0
 47
0.0
 47
0.0
 47
0.0
 47
1.0
171
     0
 49
0.0208333333333333
 49
0.0
 49
0.0
 49
0.0
 49
0.0
 49
0.0208333333333333
 49
0.0
 49
0.0
 49
0.0
 49
0.0
 49
1.0
 49
0.0
 49
0.0
 49
0.0
 49
0.0
 49
1.0
175
     0
142
0.0208333333333333
142
0.0
142
0.0
142
0.0
142
0.0
142
0.0208333333333333
142
0.0
142
0.0
142
0.0
142
0.0
142
1.0
142
0.0
142
0.0
142
0.0
142
0.0
142
1.0
179
     0
144
0.0208333333333333
144
0.0
144
0.0
144
0.0
144
0.0
144
0.0208333333333333
144
0.0
144
0.0
144
0.0
144
0.0
144
1.0
144
0.0
144
0.0
144
0.0
144
0.0
144
1.0
147
0.0208333333333333
147
0.0
147
0.0
147
0.0
147
0.0
147
0.0208333333333333
147
0.0
147
0.0
147
0.0
147
0.0
147
1.0
147
0.0
147
0.0
147
0.0
147
0.0
147
1.0
  0
MATERIAL
  5
9827
102
{ACAD_XDICTIONARY
360
9828
102
}
102
{ACAD_REACTORS
330
9826
102
}
330
9826
100
AcDbMaterial
  1
ByLayer
 72
     0
 43
0.0208333333333333
 43
0.0
 43
0.0
 43
0.0
 43
0.0
 43
0.0208333333333333
 43
0.0
 43
0.0
 43
0.0
 43
0.0
 43
1.0
 43
0.0
 43
0.0
 43
0.0
 43
0.0
 43
1.0
 77
     0
 47
0.0208333333333333
 47
0.0
 47
0.0
 47
0.0
 47
0.0
 47
0.0208333333333333
 47
0.0
 47
0.0
 47
0.0
 47
0.0
 47
1.0
 47
0.0
 47
0.0
 47
0.0
 47
0.0
 47
1.0
171
     0
 49
0.0208333333333333
 49
0.0
 49
0.0
 49
0.0
 49
0.0
 49
0.0208333333333333
 49
0.0
 49
0.0
 49
0.0
 49
0.0
 49
1.0
 49
0.0
 49
0.0
 49
0.0
 49
0.0
 49
1.0
175
     0
142
0.0208333333333333
142
0.0
142
0.0
142
0.0
142
0.0
142
0.0208333333333333
142
0.0
142
0.0
142
0.0
142
0.0
142
1.0
142
0.0
142
0.0
142
0.0
142
0.0
142
1.0
179
     0
144
0.0208333333333333
144
0.0
144
0.0
144
0.0
144
0.0
144
0.0208333333333333
144
0.0
144
0.0
144
0.0
144
0.0
144
1.0
144
0.0
144
0.0
144
0.0
144
0.0
144
1.0
147
0.0208333333333333
147
0.0
147
0.0
147
0.0
147
0.0
147
0.0208333333333333
147
0.0
147
0.0
147
0.0
147
0.0
147
1.0
147
0.0
147
0.0
147
0.0
147
0.0
147
1.0
  0
MATERIAL
  5
9837
102
{ACAD_XDICTIONARY
360
9838
102
}
102
{ACAD_REACTORS
330
9826
102
}
330
9826
100
AcDbMaterial
  1
Global
 72
     0
 43
0.0208333333333333
 43
0.0
 43
0.0
 43
0.0
 43
0.0
 43
0.0208333333333333
 43
0.0
 43
0.0
 43
0.0
 43
0.0
 43
1.0
 43
0.0
 43
0.0
 43
0.0
 43
0.0
 43
1.0
 77
     0
 47
0.0208333333333333
 47
0.0
 47
0.0
 47
0.0
 47
0.0
 47
0.0208333333333333
 47
0.0
 47
0.0
 47
0.0
 47
0.0
 47
1.0
 47
0.0
 47
0.0
 47
0.0
 47
0.0
 47
1.0
171
     0
 49
0.0208333333333333
 49
0.0
 49
0.0
 49
0.0
 49
0.0
 49
0.0208333333333333
 49
0.0
 49
0.0
 49
0.0
 49
0.0
 49
1.0
 49
0.0
 49
0.0
 49
0.0
 49
0.0
 49
1.0
175
     0
142
0.0208333333333333
142
0.0
142
0.0
142
0.0
142
0.0
142
0.0208333333333333
142
0.0
142
0.0
142
0.0
142
0.0
142
1.0
142
0.0
142
0.0
142
0.0
142
0.0
142
1.0
179
     0
144
0.0208333333333333
144
0.0
144
0.0
144
0.0
144
0.0
144
0.0208333333333333
144
0.0
144
0.0
144
0.0
144
0.0
144
1.0
144
0.0
144
0.0
144
0.0
144
0.0
144
1.0
147
0.0208333333333333
147
0.0
147
0.0
147
0.0
147
0.0
147
0.0208333333333333
147
0.0
147
0.0
147
0.0
147
0.0
147
1.0
147
0.0
147
0.0
147
0.0
147
0.0
147
1.0
  0
MLEADERSTYLE
  5
986E
102
{ACAD_REACTORS
330
986D
102
}
330
986D
100
AcDbMLeaderStyle
170
     2
171
     1
172
     0
 90
        2
 40
0.0
 41
0.0
173
     1
 91
-1056964608
340
961C
 92
       -2
290
     1
 42
0.09
291
     1
 43
0.36
  3
Standard
 44
0.18
300

342
961A
174
     1
178
     6
175
     1
176
     0
 93
-1056964608
 45
0.18
292
     0
297
     0
 46
0.18
 94
-1056964608
 47
1.0
 49
1.0
140
1.0
293
     1
141
0.0
294
     1
177
     0
142
1.0
295
     0
296
     0
143
0.125
1001
ACAD_MLEADERVER
1070
     2
  0
MLINESTYLE
  5
9620
102
{ACAD_REACTORS
330
961F
102
}
330
961F
100
AcDbMlineStyle
  2
STANDARD
 70
     0
  3

 62
   256
 51
90.0
 52
90.0
 71
     2
 49
0.5
 62
   256
  6
BYLAYER
 49
-0.5
 62
   256
  6
BYLAYER
  0
ACDBPLACEHOLDER
  5
9825
102
{ACAD_REACTORS
330
9824
102
}
330
9824
  0
SCALE
  5
985C
102
{ACAD_REACTORS
330
985B
102
}
330
985B
100
AcDbScale
 70
     0
300
1:1
140
1.0
141
1.0
290
     1
  0
SCALE
  5
985D
102
{ACAD_REACTORS
330
985B
102
}
330
985B
100
AcDbScale
 70
     0
300
1/128" = 1'-0"
140
0.0078125
141
12.0
290
     0
  0
SCALE
  5
985E
102
{ACAD_REACTORS
330
985B
102
}
330
985B
100
AcDbScale
 70
     0
300
1/64" = 1'-0"
140
0.015625
141
12.0
290
     0
  0
SCALE
  5
985F
102
{ACAD_REACTORS
330
985B
102
}
330
985B
100
AcDbScale
 70
     0
300
1/32" = 1'-0"
140
0.03125
141
12.0
290
     0
  0
SCALE
  5
9860
102
{ACAD_REACTORS
330
985B
102
}
330
985B
100
AcDbScale
 70
     0
300
1/16" = 1'-0"
140
0.0625
141
12.0
290
     0
  0
SCALE
  5
9861
102
{ACAD_REACTORS
330
985B
102
}
330
985B
100
AcDbScale
 70
     0
300
3/32" = 1'-0"
140
0.09375
141
12.0
290
     0
  0
SCALE
  5
9862
102
{ACAD_REACTORS
330
985B
102
}
330
985B
100
AcDbScale
 70
     0
300
1/8" = 1'-0"
140
0.125
141
12.0
290
     0
  0
SCALE
  5
9863
102
{ACAD_REACTORS
330
985B
102
}
330
985B
100
AcDbScale
 70
     0
300
3/16" = 1'-0"
140
0.1875
141
12.0
290
     0
  0
SCALE
  5
9864
102
{ACAD_REACTORS
330
985B
102
}
330
985B
100
AcDbScale
 70
     0
300
1/4" = 1'-0"
140
0.25
141
12.0
290
     0
  0
SCALE
  5
9865
102
{ACAD_REACTORS
330
985B
102
}
330
985B
100
AcDbScale
 70
     0
300
3/8" = 1'-0"
140
0.375
141
12.0
290
     0
  0
SCALE
  5
9866
102
{ACAD_REACTORS
330
985B
102
}
330
985B
100
AcDbScale
 70
     0
300
1/2" = 1'-0"
140
0.5
141
12.0
290
     0
  0
SCALE
  5
9867
102
{ACAD_REACTORS
330
985B
102
}
330
985B
100
AcDbScale
 70
     0
300
3/4" = 1'-0"
140
0.75
141
12.0
290
     0
  0
SCALE
  5
9868
102
{ACAD_REACTORS
330
985B
102
}
330
985B
100
AcDbScale
 70
     0
300
1" = 1'-0"
140
1.0
141
12.0
290
     0
  0
SCALE
  5
9869
102
{ACAD_REACTORS
330
985B
102
}
330
985B
100
AcDbScale
 70
     0
300
1-1/2" = 1'-0"
140
1.5
141
12.0
290
     0
  0
SCALE
  5
986A
102
{ACAD_REACTORS
330
985B
102
}
330
985B
100
AcDbScale
 70
     0
300
3" = 1'-0"
140
3.0
141
12.0
290
     0
  0
SCALE
  5
986B
102
{ACAD_REACTORS
330
985B
102
}
330
985B
100
AcDbScale
 70
     0
300
6" = 1'-0"
140
6.0
141
12.0
290
     0
  0
SCALE
  5
986C
102
{ACAD_REACTORS
330
985B
102
}
330
985B
100
AcDbScale
 70
     0
300
1'-0" = 1'-0"
140
12.0
141
12.0
290
     0
  0
ACDBSECTIONVIEWSTYLE
  5
9870
102
{ACAD_XDICTIONARY
360
98CB
102
}
102
{ACAD_REACTORS
330
986F
102
}
330
986F
100
AcDbModelDocViewStyle
 70
     0
  3
Imperial24
290
     0
100
AcDbSectionViewStyle
 70
     0
 71
     0
 90
       78
 71
     1
340
961A
 40
0.24
340
0
340
0
 40
0.24
300
I, O, Q, S, X, Z
 40
0.48
 90
        3
 40
0.18
 90
        1
 71
     2
340
961E
 90
       25
340
961E
 90
       50
 40
0.24
 40
0.0
 40
0.24
 71
     3
340
961A
 40
0.24
 90
        1
 40
0.75
 90
        1
300
%<\AcVar ViewType \f "%tc1">% %<\AcVar ViewSectionStartId>%-%<\AcVar ViewSectionEndId>%\PSCALE %<\AcVar ViewScale \f "%sn">%
 71
     4
300
ANSI31
 40
1.0
 90
        0
290
     0
290
     0
 90
        6
 40
0.0
 40
1.570796326794896
 40
0.2617993877991494
 40
1.308996938995747
 40
-0.2617993877991494
 40
1.832595714594046
  0
TABLESTYLE
  5
985A
102
{ACAD_XDICTIONARY
360
9892
102
}
102
{ACAD_REACTORS
330
9859
102
}
330
9859
100
AcDbTableStyle
  3
Standard
 70
     0
 71
     0
 40
0.06
 41
0.06
280
     0
281
     0
  7
STANDARD
140
0.18
170
     2
 62
     0
 63
     7
283
     0
274
    -2
284
     1
 64
     0
275
    -2
285
     1
 65
     0
276
    -2
286
     1
 66
     0
277
    -2
287
     1
 67
     0
278
    -2
288
     1
 68
     0
279
    -2
289
     1
 69
     0
  7
STANDARD
140
0.25
170
     5
 62
     0
 63
     7
283
     0
274
    -2
284
     1
 64
     0
275
    -2
285
     1
 65
     0
276
    -2
286
     1
 66
     0
277
    -2
287
     1
 67
     0
278
    -2
288
     1
 68
     0
279
    -2
289
     1
 69
     0
  7
STANDARD
140
0.18
170
     5
 62
     0
 63
     7
283
     0
274
    -2
284
     1
 64
     0
275
    -2
285
     1
 65
     0
276
    -2
286
     1
 66
     0
277
    -2
287
     1
 67
     0
278
    -2
288
     1
 68
     0
279
    -2
289
     1
 69
     0
  0
VISUALSTYLE
  5
9845
102
{ACAD_XDICTIONARY
360
98A3
102
}
102
{ACAD_REACTORS
330
983F
102
}
330
983F
100
AcDbVisualStyle
  2
2dWireframe
 70
     4
 71
     0
 72
     2
 73
     0
 90
        0
 40
-0.6
 41
-30.0
 62
     5
 63
     7
 74
     1
 91
        4
 64
     7
 65
   257
 75
     1
175
     1
 42
1.0
 92
        0
 66
   257
 43
1.0
 76
     1
 77
     6
 78
     2
 67
     7
 79
     5
170
     0
171
     0
290
     0
174
     0
 93
        1
 44
0.0
173
     0
291
     0
 45
0.0
1001
ACAD
1000
AcDbSavedByObjectVersion
1070
     0
  0
VISUALSTYLE
  5
9844
102
{ACAD_XDICTIONARY
360
98A1
102
}
102
{ACAD_REACTORS
330
983F
102
}
330
983F
100
AcDbVisualStyle
  2
Basic
 70
     7
 71
     1
 72
     0
 73
     1
 90
        0
 40
-0.6
 41
-30.0
 62
     5
 63
     7
 74
     0
 91
        4
 64
     7
 65
   257
 75
     1
175
     1
 42
1.0
 92
        8
 66
     7
 43
1.0
 76
     1
 77
     6
 78
     2
 67
     7
 79
     5
170
     0
171
     0
290
     0
174
     0
 93
        1
 44
0.0
173
     0
291
     1
 45
0.0
1001
ACAD
1000
AcDbSavedByObjectVersion
1070
     0
  0
VISUALSTYLE
  5
984B
102
{ACAD_XDICTIONARY
360
98AF
102
}
102
{ACAD_REACTORS
330
983F
102
}
330
983F
100
AcDbVisualStyle
  2
Brighten
 70
    12
 71
     2
 72
     2
 73
     0
 90
        0
 40
-0.6
 41
-30.0
 62
     5
 63
     7
 74
     1
 91
        4
 64
     7
 65
   257
 75
     1
175
     1
 42
1.0
 92
        8
 66
     7
 43
1.0
 76
     1
 77
     6
 78
     2
 67
     7
 79
     5
170
     0
171
     0
290
     0
174
     0
 93
        1
 44
50.0
173
     0
291
     1
 45
0.0
1001
ACAD
1000
AcDbSavedByObjectVersion
1070
     0
  0
VISUALSTYLE
  5
984F
102
{ACAD_XDICTIONARY
360
98B7
102
}
102
{ACAD_REACTORS
330
983F
102
}
330
983F
100
AcDbVisualStyle
  2
ColorChange
 70
    16
 71
     2
 72
     2
 73
     3
 90
        0
 40
-0.6
 41
-30.0
 62
     5
 63
     8
 74
     1
 91
        4
 64
     7
 65
   257
 75
     1
175
     1
 42
1.0
 92
        8
 66
     8
 43
1.0
 76
     1
 77
     6
 78
     2
 67
     7
 79
     5
170
     0
171
     0
290
     0
174
     0
 93
        1
 44
0.0
173
     0
291
     1
 45
0.0
1001
ACAD
1000
AcDbSavedByObjectVersion
1070
     0
  0
VISUALSTYLE
  5
9848
102
{ACAD_XDICTIONARY
360
98A9
102
}
102
{ACAD_REACTORS
330
983F
102
}
330
983F
100
AcDbVisualStyle
  2
Conceptual
 70
     9
 71
     3
 72
     2
 73
     0
 90
        0
 40
-0.6
 41
-30.0
 62
     5
 63
     7
 74
     2
 91
        2
 64
     7
 65
   257
 75
     1
175
     1
 42
179.0
 92
        8
 66
     7
 43
1.0
 76
     1
 77
     6
 78
     2
 67
     7
 79
     3
170
     0
171
     0
290
     0
174
     0
 93
        1
 44
0.0
173
     0
291
     0
 45
0.0
1001
ACAD
1000
AcDbSavedByObjectVersion
1070
     0
  0
VISUALSTYLE
  5
984A
102
{ACAD_XDICTIONARY
360
98AD
102
}
102
{ACAD_REACTORS
330
983F
102
}
330
983F
100
AcDbVisualStyle
  2
Dim
 70
    11
 71
     2
 72
     2
 73
     0
 90
        0
 40
-0.6
 41
-30.0
 62
     5
 63
     7
 74
     1
 91
        4
 64
     7
 65
   257
 75
     1
175
     1
 42
1.0
 92
        8
 66
     7
 43
1.0
 76
     1
 77
     6
 78
     2
 67
     7
 79
     5
170
     0
171
     0
290
     0
174
     0
 93
        1
 44
-50.0
173
     0
291
     1
 45
0.0
1001
ACAD
1000
AcDbSavedByObjectVersion
1070
     0
  0
VISUALSTYLE
  5
9857
102
{ACAD_XDICTIONARY
360
98C7
102
}
102
{ACAD_REACTORS
330
983F
102
}
330
983F
100
AcDbVisualStyle
  2
EdgeColorOff
 70
    22
 71
     2
 72
     2
 73
     0
 90
        0
 40
-0.6
 41
-30.0
 62
     5
 63
     7
 74
     1
 91
        4
 64
     7
 65
   257
 75
     1
175
     1
 42
1.0
 92
        8
 66
     7
 43
1.0
 76
     1
 77
     6
 78
     2
 67
     7
 79
     5
170
     0
171
     0
290
     0
174
     0
 93
        1
 44
0.0
173
     0
291
     1
 45
0.0
1001
ACAD
1000
AcDbSavedByObjectVersion
1070
     0
  0
VISUALSTYLE
  5
984E
102
{ACAD_XDICTIONARY
360
98B5
102
}
102
{ACAD_REACTORS
330
983F
102
}
330
983F
100
AcDbVisualStyle
  2
Facepattern
 70
    15
 71
     2
 72
     2
 73
     0
 90
        0
 40
-0.6
 41
-30.0
 62
     5
 63
     7
 74
     1
 91
        4
 64
     7
 65
   257
 75
     1
175
     1
 42
1.0
 92
        8
 66
     7
 43
1.0
 76
     1
 77
     6
 78
     2
 67
     7
 79
     5
170
     0
171
     0
290
     0
174
     0
 93
        1
 44
0.0
173
     0
291
     1
 45
0.0
1001
ACAD
1000
AcDbSavedByObjectVersion
1070
     0
  0
VISUALSTYLE
  5
9840
102
{ACAD_XDICTIONARY
360
9899
102
}
102
{ACAD_REACTORS
330
983F
102
}
330
983F
100
AcDbVisualStyle
  2
Flat
 70
     0
 71
     2
 72
     1
 73
     1
 90
        2
 40
-0.6
 41
30.0
 62
     5
 63
     7
 74
     0
 91
        0
 64
     7
 65
   257
 75
     1
175
     1
 42
1.0
 92
        8
 66
     7
 43
1.0
 76
     1
 77
     6
 78
     2
 67
     7
 79
     5
170
     0
171
     0
290
     0
174
     0
 93
       13
 44
0.0
173
     0
291
     1
 45
0.0
1001
ACAD
1000
AcDbSavedByObjectVersion
1070
     0
  0
VISUALSTYLE
  5
9841
102
{ACAD_XDICTIONARY
360
989B
102
}
102
{ACAD_REACTORS
330
983F
102
}
330
983F
100
AcDbVisualStyle
  2
FlatWithEdges
 70
     1
 71
     2
 72
     1
 73
     1
 90
        2
 40
-0.6
 41
30.0
 62
     5
 63
     7
 74
     1
 91
        0
 64
     7
 65
   257
 75
     1
175
     1
 42
1.0
 92
        0
 66
   257
 43
1.0
 76
     1
 77
     6
 78
     2
 67
     7
 79
     5
170
     0
171
     0
290
     0
174
     0
 93
       13
 44
0.0
173
     0
291
     1
 45
0.0
1001
ACAD
1000
AcDbSavedByObjectVersion
1070
     0
  0
VISUALSTYLE
  5
9842
102
{ACAD_XDICTIONARY
360
989D
102
}
102
{ACAD_REACTORS
330
983F
102
}
330
983F
100
AcDbVisualStyle
  2
Gouraud
 70
     2
 71
     2
 72
     2
 73
     1
 90
        2
 40
-0.6
 41
30.0
 62
     5
 63
     7
 74
     0
 91
        0
 64
     7
 65
   257
 75
     1
175
     1
 42
1.0
 92
        0
 66
     7
 43
1.0
 76
     1
 77
     6
 78
     2
 67
     7
 79
     5
170
     0
171
     0
290
     0
174
     0
 93
       13
 44
0.0
173
     0
291
     1
 45
0.0
1001
ACAD
1000
AcDbSavedByObjectVersion
1070
     0
  0
VISUALSTYLE
  5
9843
102
{ACAD_XDICTIONARY
360
989F
102
}
102
{ACAD_REACTORS
330
983F
102
}
330
983F
100
AcDbVisualStyle
  2
GouraudWithEdges
 70
     3
 71
     2
 72
     2
 73
     1
 90
        2
 40
-0.6
 41
30.0
 62
     5
 63
     7
 74
     1
 91
        0
 64
     7
 65
   257
 75
     1
175
     1
 42
1.0
 92
        0
 66
   257
 43
1.0
 76
     1
 77
     6
 78
     2
 67
     7
 79
     5
170
     0
171
     0
290
     0
174
     0
 93
       13
 44
0.0
173
     0
291
     1
 45
0.0
1001
ACAD
1000
AcDbSavedByObjectVersion
1070
     0
  0
VISUALSTYLE
  5
9847
102
{ACAD_XDICTIONARY
360
98A7
102
}
102
{ACAD_REACTORS
330
983F
102
}
330
983F
100
AcDbVisualStyle
  2
Hidden
 70
     6
 71
     1
 72
     2
 73
     2
 90
        0
 40
-0.6
 41
-30.0
 62
     5
 63
     7
 74
     2
 91
        2
 64
     7
 65
   257
 75
     2
175
     1
 42
40.0
 92
        0
 66
   257
 43
1.0
 76
     1
 77
     6
 78
     2
 67
     7
 79
     3
170
     0
171
     0
290
     0
174
     0
 93
        1
 44
0.0
173
     0
291
     0
 45
0.0
1001
ACAD
1000
AcDbSavedByObjectVersion
1070
     0
  0
VISUALSTYLE
  5
9855
102
{ACAD_XDICTIONARY
360
98C3
102
}
102
{ACAD_REACTORS
330
983F
102
}
330
983F
100
AcDbVisualStyle
  2
JitterOff
 70
    20
 71
     2
 72
     2
 73
     0
 90
        0
 40
-0.6
 41
-30.0
 62
     5
 63
     7
 74
     1
 91
        4
 64
     7
 65
   257
 75
     1
175
     1
 42
1.0
 92
       10
 66
     7
 43
1.0
 76
     1
 77
     6
 78
     2
 67
     7
 79
     5
170
     0
171
     0
290
     0
174
     0
 93
        1
 44
0.0
173
     0
291
     1
 45
0.0
1001
ACAD
1000
AcDbSavedByObjectVersion
1070
     0
  0
VISUALSTYLE
  5
984D
102
{ACAD_XDICTIONARY
360
98B3
102
}
102
{ACAD_REACTORS
330
983F
102
}
330
983F
100
AcDbVisualStyle
  2
Linepattern
 70
    14
 71
     2
 72
     2
 73
     0
 90
        0
 40
-0.6
 41
-30.0
 62
     5
 63
     7
 74
     1
 91
        4
 64
     7
 65
   257
 75
     7
175
     7
 42
1.0
 92
        8
 66
     7
 43
1.0
 76
     1
 77
     6
 78
     2
 67
     7
 79
     5
170
     0
171
     0
290
     0
174
     0
 93
        1
 44
0.0
173
     0
291
     1
 45
0.0
1001
ACAD
1000
AcDbSavedByObjectVersion
1070
     0
  0
VISUALSTYLE
  5
9856
102
{ACAD_XDICTIONARY
360
98C5
102
}
102
{ACAD_REACTORS
330
983F
102
}
330
983F
100
AcDbVisualStyle
  2
OverhangOff
 70
    21
 71
     2
 72
     2
 73
     0
 90
        0
 40
-0.6
 41
-30.0
 62
     5
 63
     7
 74
     1
 91
        4
 64
     7
 65
   257
 75
     1
175
     1
 42
1.0
 92
        9
 66
     7
 43
1.0
 76
     1
 77
     6
 78
     2
 67
     7
 79
     5
170
     0
171
     0
290
     0
174
     0
 93
        1
 44
0.0
173
     0
291
     1
 45
0.0
1001
ACAD
1000
AcDbSavedByObjectVersion
1070
     0
  0
VISUALSTYLE
  5
9849
102
{ACAD_XDICTIONARY
360
98AB
102
}
102
{ACAD_REACTORS
330
983F
102
}
330
983F
100
AcDbVisualStyle
  2
Realistic
 70
     8
 71
     2
 72
     3
 73
     0
 90
        2
 40
-0.6
 41
30.0
 62
     5
 63
     7
 74
     0
 91
        0
 64
     7
 65
   257
 75
     1
175
     1
 42
1.0
 92
        8
 66
   257
 43
1.0
 76
     1
 77
     6
 78
     2
 67
     7
 79
     3
170
     0
171
     0
290
     0
174
     0
 93
       13
 44
0.0
173
     0
291
     0
 45
0.0
1001
ACAD
1000
AcDbSavedByObjectVersion
1070
     0
  0
VISUALSTYLE
  5
9854
102
{ACAD_XDICTIONARY
360
98C1
102
}
102
{ACAD_REACTORS
330
983F
102
}
330
983F
100
AcDbVisualStyle
  2
Shaded
 70
    27
 71
     2
 72
     2
 73
     1
 90
        2
 40
-0.6
 41
30.0
 62
     5
 63
     7
 74
     0
 91
        4
 64
     7
 65
   257
 75
     1
175
     1
 42
1.0
 92
        8
 66
   257
 43
1.0
 76
     1
 77
     6
 78
     2
 67
     8
 79
     3
170
     0
171
     0
290
     0
174
     0
 93
        5
 44
0.0
173
     0
291
     0
 45
0.0
1001
ACAD
1000
AcDbSavedByObjectVersion
1070
     0
  0
VISUALSTYLE
  5
9853
102
{ACAD_XDICTIONARY
360
98BF
102
}
102
{ACAD_REACTORS
330
983F
102
}
330
983F
100
AcDbVisualStyle
  2
Shaded with edges
 70
    26
 71
     2
 72
     2
 73
     1
 90
        2
 40
-0.6
 41
30.0
 62
     5
 63
     7
 74
     1
 91
       10
 64
     7
 65
   257
 75
     2
175
     1
 42
1.0
 92
        8
 66
   257
 43
1.0
 76
     1
 77
     6
 78
     2
 67
     7
 79
     3
170
     0
171
     0
290
     0
174
     0
 93
        5
 44
0.0
173
     0
291
     0
 45
0.0
1001
ACAD
1000
AcDbSavedByObjectVersion
1070
     0
  0
VISUALSTYLE
  5
9850
102
{ACAD_XDICTIONARY
360
98B9
102
}
102
{ACAD_REACTORS
330
983F
102
}
330
983F
100
AcDbVisualStyle
  2
Shades of Gray
 70
    23
 71
     2
 72
     2
 73
     3
 90
        0
 40
-0.6
 41
-30.0
 62
     5
 63
     7
 74
     2
 91
        2
 64
     7
 65
     7
 75
     1
175
     1
 42
40.0
 92
        8
 66
     7
 43
1.0
 76
     1
 77
     6
 78
     2
 67
     7
 79
     3
170
     0
171
     0
290
     0
174
     0
 93
        1
 44
0.0
173
     0
291
     0
 45
0.0
1001
ACAD
1000
AcDbSavedByObjectVersion
1070
     0
  0
VISUALSTYLE
  5
9851
102
{ACAD_XDICTIONARY
360
98BB
102
}
102
{ACAD_REACTORS
330
983F
102
}
330
983F
100
AcDbVisualStyle
  2
Sketchy
 70
    24
 71
     1
 72
     2
 73
     2
 90
        0
 40
-0.6
 41
-30.0
 62
     5
 63
     7
 74
     2
 91
        2
 64
     7
 65
     7
 75
     1
175
     1
 42
40.0
 92
       11
 66
     7
 43
1.0
 76
     1
 77
     6
 78
     2
 67
     7
 79
     6
170
     0
171
     0
290
     0
174
     0
 93
        1
 44
0.0
173
     0
291
     0
 45
0.0
1001
ACAD
1000
AcDbSavedByObjectVersion
1070
     0
  0
VISUALSTYLE
  5
984C
102
{ACAD_XDICTIONARY
360
98B1
102
}
102
{ACAD_REACTORS
330
983F
102
}
330
983F
100
AcDbVisualStyle
  2
Thicken
 70
    13
 71
     2
 72
     2
 73
     0
 90
        0
 40
-0.6
 41
-30.0
 62
     5
 63
     7
 74
     1
 91
        4
 64
     7
 65
   257
 75
     1
175
     1
 42
1.0
 92
       12
 66
     7
 43
1.0
 76
     1
 77
     6
 78
     2
 67
     7
 79
     5
170
     0
171
     0
290
     0
174
     0
 93
        1
 44
0.0
173
     0
291
     1
 45
0.0
1001
ACAD
1000
AcDbSavedByObjectVersion
1070
     0
  0
VISUALSTYLE
  5
9846
102
{ACAD_XDICTIONARY
360
98A5
102
}
102
{ACAD_REACTORS
330
983F
102
}
330
983F
100
AcDbVisualStyle
  2
Wireframe
 70
     5
 71
     0
 72
     2
 73
     0
 90
        0
 40
-0.6
 41
-30.0
 62
     5
 63
     7
 74
     1
 91
        4
 64
     7
 65
   257
 75
     1
175
     1
 42
1.0
 92
        0
 66
   257
 43
1.0
 76
     1
 77
     6
 78
     2
 67
     7
 79
     3
170
     0
171
     0
290
     0
174
     0
 93
        1
 44
0.0
173
     0
291
     0
 45
0.0
1001
ACAD
1000
AcDbSavedByObjectVersion
1070
     0
  0
VISUALSTYLE
  5
9852
102
{ACAD_XDICTIONARY
360
98BD
102
}
102
{ACAD_REACTORS
330
983F
102
}
330
983F
100
AcDbVisualStyle
  2
X-Ray
 70
    25
 71
     2
 72
     2
 73
     1
 90
        1
 40
0.5
 41
-30.0
 62
     5
 63
     7
 74
     1
 91
        0
 64
     7
 65
   257
 75
     1
175
     1
 42
1.0
 92
        8
 66
     7
 43
1.0
 76
     1
 77
     6
 78
     2
 67
     7
 79
     3
170
     0
171
     0
290
     0
174
     0
 93
       13
 44
0.0
173
     0
291
     0
 45
0.0
1001
ACAD
1000
AcDbSavedByObjectVersion
1070
     0
  0
DICTIONARYVAR
  5
988C
102
{ACAD_REACTORS
330
9887
102
}
330
9887
100
DictionaryVariables
280
     0
  1
1:1
  0
DICTIONARYVAR
  5
9889
102
{ACAD_REACTORS
330
9887
102
}
330
9887
100
DictionaryVariables
280
     0
  1
STANDARD
  0
DICTIONARYVAR
  5
9888
102
{ACAD_REACTORS
330
9887
102
}
330
9887
100
DictionaryVariables
280
     0
  1
STANDARD
  0
DICTIONARYVAR
  5
988A
102
{ACAD_REACTORS
330
9887
102
}
330
9887
100
DictionaryVariables
280
     0
  1
Imperial24
  0
DICTIONARYVAR
  5
988B
102
{ACAD_REACTORS
330
9887
102
}
330
9887
100
DictionaryVariables
280
     0
  1
Imperial24
  0
DICTIONARYVAR
  5
988F
102
{ACAD_REACTORS
330
9887
102
}
330
9887
100
DictionaryVariables
280
     0
  1
1
  0
DICTIONARYVAR
  5
988E
102
{ACAD_REACTORS
330
9887
102
}
330
9887
100
DictionaryVariables
280
     0
  1
0
  0
DICTIONARYVAR
  5
988D
102
{ACAD_REACTORS
330
9887
102
}
330
9887
100
DictionaryVariables
280
     0
  1
127
  0
DICTIONARYVAR
  5
9890
102
{ACAD_REACTORS
330
9887
102
}
330
9887
100
DictionaryVariables
280
     0
  1
2
  0
DICTIONARY
  5
98CD
330
9872
100
AcDbDictionary
280
     1
281
     1
  3
ACAD_XREC_ROUNDTRIP
360
98CE
  0
DICTIONARY
  5
98CF
330
9873
100
AcDbDictionary
280
     1
281
     1
  3
ACAD_XREC_ROUNDTRIP
360
98D0
  0
DICTIONARY
  5
98D1
330
9874
100
AcDbDictionary
280
     1
281
     1
  3
ACAD_XREC_ROUNDTRIP
360
98D2
  0
DICTIONARY
  5
9830
330
982F
100
AcDbDictionary
280
     1
281
     1
  3
ACAD_XREC_ROUNDTRIP
360
9897
  3
BUMPTILE
360
9832
  3
DIFFUSETILE
360
9831
  3
OPACITYTILE
360
9835
  3
REFLECTIONTILE
360
9834
  3
REFRACTIONTILE
360
9836
  3
SPECULARTILE
360
9833
  0
DICTIONARY
  5
9828
330
9827
100
AcDbDictionary
280
     1
281
     1
  3
ACAD_XREC_ROUNDTRIP
360
9896
  3
BUMPTILE
360
982A
  3
DIFFUSETILE
360
9829
  3
OPACITYTILE
360
982D
  3
REFLECTIONTILE
360
982C
  3
REFRACTIONTILE
360
982E
  3
SPECULARTILE
360
982B
  0
DICTIONARY
  5
9838
330
9837
100
AcDbDictionary
280
     1
281
     1
  3
ACAD_XREC_ROUNDTRIP
360
9898
  3
BUMPTILE
360
983A
  3
DIFFUSETILE
360
9839
  3
OPACITYTILE
360
983D
  3
REFLECTIONTILE
360
983C
  3
REFRACTIONTILE
360
983E
  3
SPECULARTILE
360
983B
  0
DICTIONARY
  5
98CB
330
9870
100
AcDbDictionary
280
     1
281
     1
  3
ACAD_XREC_ROUNDTRIP
360
98CC
  0
DICTIONARY
  5
9892
330
985A
100
AcDbDictionary
280
     1
281
     1
  3
ACAD_ROUNDTRIP_2008_TABLESTYLE_CELLSTYLEMAP
360
9893
  3
ACAD_XREC_ROUNDTRIP
360
98C9
  0
DICTIONARY
  5
98A3
330
9845
100
AcDbDictionary
280
     1
281
     1
  3
ACAD_XREC_ROUNDTRIP
360
98A4
  0
DICTIONARY
  5
98A1
330
9844
100
AcDbDictionary
280
     1
281
     1
  3
ACAD_XREC_ROUNDTRIP
360
98A2
  0
DICTIONARY
  5
98AF
330
984B
100
AcDbDictionary
280
     1
281
     1
  3
ACAD_XREC_ROUNDTRIP
360
98B0
  0
DICTIONARY
  5
98B7
330
984F
100
AcDbDictionary
280
     1
281
     1
  3
ACAD_XREC_ROUNDTRIP
360
98B8
  0
DICTIONARY
  5
98A9
330
9848
100
AcDbDictionary
280
     1
281
     1
  3
ACAD_XREC_ROUNDTRIP
360
98AA
  0
DICTIONARY
  5
98AD
330
984A
100
AcDbDictionary
280
     1
281
     1
  3
ACAD_XREC_ROUNDTRIP
360
98AE
  0
DICTIONARY
  5
98C7
330
9857
100
AcDbDictionary
280
     1
281
     1
  3
ACAD_XREC_ROUNDTRIP
360
98C8
  0
DICTIONARY
  5
98B5
330
984E
100
AcDbDictionary
280
     1
281
     1
  3
ACAD_XREC_ROUNDTRIP
360
98B6
  0
DICTIONARY
  5
9899
330
9840
100
AcDbDictionary
280
     1
281
     1
  3
ACAD_XREC_ROUNDTRIP
360
989A
  0
DICTIONARY
  5
989B
330
9841
100
AcDbDictionary
280
     1
281
     1
  3
ACAD_XREC_ROUNDTRIP
360
989C
  0
DICTIONARY
  5
989D
330
9842
100
AcDbDictionary
280
     1
281
     1
  3
ACAD_XREC_ROUNDTRIP
360
989E
  0
DICTIONARY
  5
989F
330
9843
100
AcDbDictionary
280
     1
281
     1
  3
ACAD_XREC_ROUNDTRIP
360
98A0
  0
DICTIONARY
  5
98A7
330
9847
100
AcDbDictionary
280
     1
281
     1
  3
ACAD_XREC_ROUNDTRIP
360
98A8
  0
DICTIONARY
  5
98C3
330
9855
100
AcDbDictionary
280
     1
281
     1
  3
ACAD_XREC_ROUNDTRIP
360
98C4
  0
DICTIONARY
  5
98B3
330
984D
100
AcDbDictionary
280
     1
281
     1
  3
ACAD_XREC_ROUNDTRIP
360
98B4
  0
DICTIONARY
  5
98C5
330
9856
100
AcDbDictionary
280
     1
281
     1
  3
ACAD_XREC_ROUNDTRIP
360
98C6
  0
DICTIONARY
  5
98AB
330
9849
100
AcDbDictionary
280
     1
281
     1
  3
ACAD_XREC_ROUNDTRIP
360
98AC
  0
DICTIONARY
  5
98C1
330
9854
100
AcDbDictionary
280
     1
281
     1
  3
ACAD_XREC_ROUNDTRIP
360
98C2
  0
DICTIONARY
  5
98BF
330
9853
100
AcDbDictionary
280
     1
281
     1
  3
ACAD_XREC_ROUNDTRIP
360
98C0
  0
DICTIONARY
  5
98B9
330
9850
100
AcDbDictionary
280
     1
281
     1
  3
ACAD_XREC_ROUNDTRIP
360
98BA
  0
DICTIONARY
  5
98BB
330
9851
100
AcDbDictionary
280
     1
281
     1
  3
ACAD_XREC_ROUNDTRIP
360
98BC
  0
DICTIONARY
  5
98B1
330
984C
100
AcDbDictionary
280
     1
281
     1
  3
ACAD_XREC_ROUNDTRIP
360
98B2
  0
DICTIONARY
  5
98A5
330
9846
100
AcDbDictionary
280
     1
281
     1
  3
ACAD_XREC_ROUNDTRIP
360
98A6
  0
DICTIONARY
  5
98BD
330
9852
100
AcDbDictionary
280
     1
281
     1
  3
ACAD_XREC_ROUNDTRIP
360
98BE
  0
XRECORD
  5
98CE
102
{ACAD_REACTORS
330
98CD
102
}
330
98CD
100
AcDbXrecord
280
     1
102
DISPLAYNAME
  1
Imperial24
102
FLAGS
 90
        0
  0
XRECORD
  5
98D0
102
{ACAD_REACTORS
330
98CF
102
}
330
98CF
100
AcDbXrecord
280
     1
102
SHADEPLOT
 70
     0
102
SHADEPLOTRESLEVEL
 70
     2
102
SHADEPLOTCUSTOMDPI
 70
   300
  0
XRECORD
  5
98D2
102
{ACAD_REACTORS
330
98D1
102
}
330
98D1
100
AcDbXrecord
280
     1
102
SHADEPLOT
 70
     0
102
SHADEPLOTRESLEVEL
 70
     2
102
SHADEPLOTCUSTOMDPI
 70
   300
  0
XRECORD
  5
9897
102
{ACAD_REACTORS
330
9830
102
}
330
9830
100
AcDbXrecord
280
     1
102
MATERIAL
148
0.0
149
0.0
149
0.0
 93
        0
 94
      127
282
     0
 72
     0
 77
     0
171
     0
175
     0
179
     0
273
     0
  0
XRECORD
  5
9832
102
{ACAD_REACTORS
330
9830
102
}
330
9830
100
AcDbXrecord
280
     1
270
     1
271
     1
  0
XRECORD
  5
9831
102
{ACAD_REACTORS
330
9830
102
}
330
9830
100
AcDbXrecord
280
     1
270
     1
271
     1
  0
XRECORD
  5
9835
102
{ACAD_REACTORS
330
9830
102
}
330
9830
100
AcDbXrecord
280
     1
270
     1
271
     1
  0
XRECORD
  5
9834
102
{ACAD_REACTORS
330
9830
102
}
330
9830
100
AcDbXrecord
280
     1
270
     1
271
     1
  0
XRECORD
  5
9836
102
{ACAD_REACTORS
330
9830
102
}
330
9830
100
AcDbXrecord
280
     1
270
     1
271
     1
  0
XRECORD
  5
9833
102
{ACAD_REACTORS
330
9830
102
}
330
9830
100
AcDbXrecord
280
     1
270
     1
271
     1
  0
XRECORD
  5
9896
102
{ACAD_REACTORS
330
9828
102
}
330
9828
100
AcDbXrecord
280
     1
102
MATERIAL
148
0.0
149
0.0
149
0.0
 93
        0
 94
      127
282
     0
 72
     0
 77
     0
171
     0
175
     0
179
     0
273
     0
  0
XRECORD
  5
982A
102
{ACAD_REACTORS
330
9828
102
}
330
9828
100
AcDbXrecord
280
     1
270
     1
271
     1
  0
XRECORD
  5
9829
102
{ACAD_REACTORS
330
9828
102
}
330
9828
100
AcDbXrecord
280
     1
270
     1
271
     1
  0
XRECORD
  5
982D
102
{ACAD_REACTORS
330
9828
102
}
330
9828
100
AcDbXrecord
280
     1
270
     1
271
     1
  0
XRECORD
  5
982C
102
{ACAD_REACTORS
330
9828
102
}
330
9828
100
AcDbXrecord
280
     1
270
     1
271
     1
  0
XRECORD
  5
982E
102
{ACAD_REACTORS
330
9828
102
}
330
9828
100
AcDbXrecord
280
     1
270
     1
271
     1
  0
XRECORD
  5
982B
102
{ACAD_REACTORS
330
9828
102
}
330
9828
100
AcDbXrecord
280
     1
270
     1
271
     1
  0
XRECORD
  5
9898
102
{ACAD_REACTORS
330
9838
102
}
330
9838
100
AcDbXrecord
280
     1
102
MATERIAL
148
0.0
149
0.0
149
0.0
 93
        0
 94
      127
282
     0
 72
     0
 77
     0
171
     0
175
     0
179
     0
273
     0
  0
XRECORD
  5
983A
102
{ACAD_REACTORS
330
9838
102
}
330
9838
100
AcDbXrecord
280
     1
270
     1
271
     1
  0
XRECORD
  5
9839
102
{ACAD_REACTORS
330
9838
102
}
330
9838
100
AcDbXrecord
280
     1
270
     1
271
     1
  0
XRECORD
  5
983D
102
{ACAD_REACTORS
330
9838
102
}
330
9838
100
AcDbXrecord
280
     1
270
     1
271
     1
  0
XRECORD
  5
983C
102
{ACAD_REACTORS
330
9838
102
}
330
9838
100
AcDbXrecord
280
     1
270
     1
271
     1
  0
XRECORD
  5
983E
102
{ACAD_REACTORS
330
9838
102
}
330
9838
100
AcDbXrecord
280
     1
270
     1
271
     1
  0
XRECORD
  5
983B
102
{ACAD_REACTORS
330
9838
102
}
330
9838
100
AcDbXrecord
280
     1
270
     1
271
     1
  0
XRECORD
  5
98CC
102
{ACAD_REACTORS
330
98CB
102
}
330
98CB
100
AcDbXrecord
280
     1
102
DISPLAYNAME
  1
Imperial24
102
FLAGS
 90
        0
  0
CELLSTYLEMAP
  5
9893
102
{ACAD_REACTORS
330
9892
102
}
330
9892
100
AcDbCellStyleMap
 90
        3
300
CELLSTYLE
  1
TABLEFORMAT_BEGIN
 90
        5
170
     1
 91
        0
 92
    32768
 62
   257
 93
        1
300
CONTENTFORMAT
  1
CONTENTFORMAT_BEGIN
 90
        0
 91
        0
 92
      512
 93
        0
300

 40
0.0
140
1.0
 94
        5
 62
     0
340
961A
144
0.25
309
CONTENTFORMAT_END
171
     0
 94
        0
309
TABLEFORMAT_END
  1
CELLSTYLE_BEGIN
 90
        1
 91
        1
300
_TITLE
309
CELLSTYLE_END
300
CELLSTYLE
  1
TABLEFORMAT_BEGIN
 90
        5
170
     1
 91
        0
 92
        0
 62
   257
 93
        1
300
CONTENTFORMAT
  1
CONTENTFORMAT_BEGIN
 90
        0
 91
        0
 92
      512
 93
        0
300

 40
0.0
140
1.0
 94
        5
 62
     0
340
961A
144
0.18
309
CONTENTFORMAT_END
171
     0
 94
        0
309
TABLEFORMAT_END
  1
CELLSTYLE_BEGIN
 90
        2
 91
        1
300
_HEADER
309
CELLSTYLE_END
300
CELLSTYLE
  1
TABLEFORMAT_BEGIN
 90
        5
170
     1
 91
        0
 92
        0
 62
   257
 93
        1
300
CONTENTFORMAT
  1
CONTENTFORMAT_BEGIN
 90
        0
 91
        0
 92
      512
 93
        0
300

 40
0.0
140
1.0
 94
        2
 62
     0
340
961A
144
0.18
309
CONTENTFORMAT_END
171
     0
 94
        0
309
TABLEFORMAT_END
  1
CELLSTYLE_BEGIN
 90
        3
 91
        2
300
_DATA
309
CELLSTYLE_END
  0
XRECORD
  5
98C9
102
{ACAD_REACTORS
330
9892
102
}
330
9892
100
AcDbXrecord
280
     1
102
ACAD_ROUNDTRIP_PRE2007_TABLESTYLE
 90
      512
 91
        0
  1

 92
      512
 93
        0
  2

 94
      512
 95
        0
  3

  0
XRECORD
  5
98A4
102
{ACAD_REACTORS
330
98A3
102
}
330
98A3
100
AcDbXrecord
280
     1
102
RTVSPost2010Prop28
280
     1
102
RTVSPost2010PropOp28
 70
     1
102
RTVSPost2010Prop29
280
     1
102
RTVSPost2010PropOp29
 70
     1
102
RTVSPost2010Prop30
280
     0
102
RTVSPost2010PropOp30
 70
     1
102
RTVSPost2010Prop31
280
     0
102
RTVSPost2010PropOp31
 70
     1
102
RTVSPost2010Prop32
280
     0
102
RTVSPost2010PropOp32
 70
     1
102
RTVSPost2010Prop33
280
     0
102
RTVSPost2010PropOp33
 70
     1
102
RTVSPost2010Prop34
280
     0
102
RTVSPost2010PropOp34
 70
     1
102
RTVSPost2010Prop35
280
     0
102
RTVSPost2010PropOp35
 70
     1
102
RTVSPost2010Prop36
280
     0
102
RTVSPost2010PropOp36
 70
     1
102
RTVSPost2010Prop37
 90
       50
102
RTVSPost2010PropOp37
 70
     1
102
RTVSPost2010Prop38
140
0.0
102
RTVSPost2010PropOp38
 70
     1
102
RTVSPost2010Prop39
140
1.0
102
RTVSPost2010PropOp39
 70
     1
102
RTVSPost2010Prop40
 90
        0
102
RTVSPost2010PropOp40
 70
     1
102
RTVSPost2010Prop41ColorIndex
 90
       18
102
RTVSPost2010Prop41ColorRGB
 90
        0
102
RTVSPost2010PropOp41
 70
     1
102
RTVSPost2010Prop42
 90
       50
102
RTVSPost2010PropOp42
 70
     1
102
RTVSPost2010Prop43
 90
        3
102
RTVSPost2010PropOp43
 70
     1
102
RTVSPost2010Prop44ColorIndex
 90
        5
102
RTVSPost2010Prop44ColorRGB
 90
      255
102
RTVSPost2010PropOp44
 70
     1
102
RTVSPost2010Prop45
280
     0
102
RTVSPost2010PropOp45
 70
     1
102
RTVSPost2010Prop46
 90
       50
102
RTVSPost2010PropOp46
 70
     1
102
RTVSPost2010Prop47
 90
       50
102
RTVSPost2010PropOp47
 70
     1
102
RTVSPost2010Prop48
 90
       50
102
RTVSPost2010PropOp48
 70
     1
102
RTVSPost2010Prop49
280
     0
102
RTVSPost2010PropOp49
 70
     1
102
RTVSPost2010Prop50
 90
       50
102
RTVSPost2010PropOp50
 70
     1
102
RTVSPost2010Prop51ColorIndex
 90
      256
102
RTVSPost2010Prop51ColorRGB
 90
-16777216
102
RTVSPost2010PropOp51
 70
     0
102
RTVSPost2010Prop52
140
1.0
102
RTVSPost2010PropOp52
 70
     0
102
RTVSPost2010Prop53
 90
        2
102
RTVSPost2010PropOp53
 70
     1
102
RTVSPost2010Prop54
  1
strokes_ogs.tif
102
RTVSPost2010PropOp54
 70
     1
102
RTVSPost2010Prop55
280
     0
102
RTVSPost2010PropOp55
 70
     1
102
RTVSPost2010Prop56
140
1.0
102
RTVSPost2010PropOp56
 70
     1
102
RTVSPost2010Prop57
140
1.0
102
RTVSPost2010PropOp57
 70
     1
102
RTVSPropertyOp0
 70
     1
102
RTVSPropertyOp1
 70
     1
102
RTVSPropertyOp2
 70
     1
102
RTVSPropertyOp3
 70
     1
102
RTVSPropertyOp4
 70
     1
102
RTVSPropertyOp5
 70
     1
102
RTVSPropertyOp6
 70
     1
102
RTVSPropertyOp7
 70
     1
102
RTVSPropertyOp8
 70
     1
102
RTVSPropertyOp9
 70
     1
102
RTVSPropertyOp10
 70
     1
102
RTVSPropertyOp11
 70
     1
102
RTVSPropertyOp12
 70
     1
102
RTVSPropertyOp13
 70
     1
102
RTVSPropertyOp14
 70
     1
102
RTVSPropertyOp15
 70
     1
102
RTVSPropertyOp16
 70
     1
102
RTVSPropertyOp17
 70
     1
102
RTVSPropertyOp18
 70
     1
102
RTVSPropertyOp19
 70
     1
102
RTVSPropertyOp20
 70
     1
102
RTVSPropertyOp21
 70
     1
102
RTVSPropertyOp22
 70
     1
102
RTVSPropertyOp23
 70
     1
102
RTVSPropertyOp24
 70
     1
102
RTVSPropertyOp25
 70
     1
102
RTVSPropertyOp26
 70
     1
102
RTVSPropertyOp27
 70
     1
102
RTVSPropertyOp28
 70
     1
102
RTVSPropertyOp29
 70
     1
102
RTVSPropertyOp30
 70
     1
102
RTVSPropertyOp31
 70
     1
102
RTVSPropertyOp32
 70
     1
102
RTVSPropertyOp33
 70
     1
102
RTVSPropertyOp34
 70
     1
102
RTVSPropertyOp35
 70
     1
102
RTVSPropertyOp36
 70
     1
102
RTVSPropertyOp37
 70
     1
102
RTVSPropertyOp38
 70
     1
102
RTVSPropertyOp39
 70
     1
102
RTVSPropertyOp40
 70
     1
102
RTVSPropertyOp41
 70
     1
102
RTVSPropertyOp42
 70
     1
102
RTVSPropertyOp43
 70
     1
102
RTVSPropertyOp44
 70
     1
102
RTVSPropertyOp45
 70
     1
102
RTVSPropertyOp46
 70
     1
102
RTVSPropertyOp47
 70
     1
102
RTVSPropertyOp48
 70
     1
102
RTVSPropertyOp49
 70
     1
102
RTVSPropertyOp50
 70
     1
102
RTVSPropertyOp51
 70
     0
102
RTVSPropertyOp52
 70
     0
102
RTVSPropertyOp53
 70
     1
102
RTVSPropertyOp54
 70
     1
102
RTVSPropertyOp55
 70
     1
102
RTVSPropertyOp56
 70
     1
102
RTVSPropertyOp57
 70
     1
102
RTVSPropertyOp58
 70
     1
102
RTVSPropertyOp59
 70
     1
102
RTVSPropertyOp60
 70
     1
102
RTVSPropertyOp61
 70
     1
102
RTVSPropertyOp62
 70
     1
  0
XRECORD
  5
98A2
102
{ACAD_REACTORS
330
98A1
102
}
330
98A1
100
AcDbXrecord
280
     1
102
RTVSPost2010Prop28
280
     0
102
RTVSPost2010PropOp28
 70
     1
102
RTVSPost2010Prop29
280
     1
102
RTVSPost2010PropOp29
 70
     1
102
RTVSPost2010Prop30
280
     1
102
RTVSPost2010PropOp30
 70
     1
102
RTVSPost2010Prop31
280
     0
102
RTVSPost2010PropOp31
 70
     1
102
RTVSPost2010Prop32
280
     0
102
RTVSPost2010PropOp32
 70
     1
102
RTVSPost2010Prop33
280
     0
102
RTVSPost2010PropOp33
 70
     1
102
RTVSPost2010Prop34
280
     0
102
RTVSPost2010PropOp34
 70
     1
102
RTVSPost2010Prop35
280
     0
102
RTVSPost2010PropOp35
 70
     1
102
RTVSPost2010Prop36
280
     0
102
RTVSPost2010PropOp36
 70
     1
102
RTVSPost2010Prop37
 90
       50
102
RTVSPost2010PropOp37
 70
     1
102
RTVSPost2010Prop38
140
0.0
102
RTVSPost2010PropOp38
 70
     1
102
RTVSPost2010Prop39
140
1.0
102
RTVSPost2010PropOp39
 70
     1
102
RTVSPost2010Prop40
 90
        0
102
RTVSPost2010PropOp40
 70
     1
102
RTVSPost2010Prop41ColorIndex
 90
       18
102
RTVSPost2010Prop41ColorRGB
 90
        0
102
RTVSPost2010PropOp41
 70
     1
102
RTVSPost2010Prop42
 90
       50
102
RTVSPost2010PropOp42
 70
     1
102
RTVSPost2010Prop43
 90
        3
102
RTVSPost2010PropOp43
 70
     1
102
RTVSPost2010Prop44ColorIndex
 90
        5
102
RTVSPost2010Prop44ColorRGB
 90
      255
102
RTVSPost2010PropOp44
 70
     1
102
RTVSPost2010Prop45
280
     0
102
RTVSPost2010PropOp45
 70
     1
102
RTVSPost2010Prop46
 90
       50
102
RTVSPost2010PropOp46
 70
     1
102
RTVSPost2010Prop47
 90
       50
102
RTVSPost2010PropOp47
 70
     1
102
RTVSPost2010Prop48
 90
       50
102
RTVSPost2010PropOp48
 70
     1
102
RTVSPost2010Prop49
280
     0
102
RTVSPost2010PropOp49
 70
     1
102
RTVSPost2010Prop50
 90
       50
102
RTVSPost2010PropOp50
 70
     1
102
RTVSPost2010Prop51ColorIndex
 90
      256
102
RTVSPost2010Prop51ColorRGB
 90
-16777216
102
RTVSPost2010PropOp51
 70
     0
102
RTVSPost2010Prop52
140
1.0
102
RTVSPost2010PropOp52
 70
     0
102
RTVSPost2010Prop53
 90
        2
102
RTVSPost2010PropOp53
 70
     1
102
RTVSPost2010Prop54
  1
strokes_ogs.tif
102
RTVSPost2010PropOp54
 70
     1
102
RTVSPost2010Prop55
280
     0
102
RTVSPost2010PropOp55
 70
     1
102
RTVSPost2010Prop56
140
1.0
102
RTVSPost2010PropOp56
 70
     1
102
RTVSPost2010Prop57
140
1.0
102
RTVSPost2010PropOp57
 70
     1
102
RTVSPropertyOp0
 70
     1
102
RTVSPropertyOp1
 70
     1
102
RTVSPropertyOp2
 70
     1
102
RTVSPropertyOp3
 70
     1
102
RTVSPropertyOp4
 70
     1
102
RTVSPropertyOp5
 70
     1
102
RTVSPropertyOp6
 70
     1
102
RTVSPropertyOp7
 70
     1
102
RTVSPropertyOp8
 70
     1
102
RTVSPropertyOp9
 70
     1
102
RTVSPropertyOp10
 70
     1
102
RTVSPropertyOp11
 70
     1
102
RTVSPropertyOp12
 70
     1
102
RTVSPropertyOp13
 70
     1
102
RTVSPropertyOp14
 70
     1
102
RTVSPropertyOp15
 70
     1
102
RTVSPropertyOp16
 70
     1
102
RTVSPropertyOp17
 70
     1
102
RTVSPropertyOp18
 70
     1
102
RTVSPropertyOp19
 70
     1
102
RTVSPropertyOp20
 70
     1
102
RTVSPropertyOp21
 70
     1
102
RTVSPropertyOp22
 70
     1
102
RTVSPropertyOp23
 70
     1
102
RTVSPropertyOp24
 70
     1
102
RTVSPropertyOp25
 70
     1
102
RTVSPropertyOp26
 70
     1
102
RTVSPropertyOp27
 70
     1
102
RTVSPropertyOp28
 70
     1
102
RTVSPropertyOp29
 70
     1
102
RTVSPropertyOp30
 70
     1
102
RTVSPropertyOp31
 70
     1
102
RTVSPropertyOp32
 70
     1
102
RTVSPropertyOp33
 70
     1
102
RTVSPropertyOp34
 70
     1
102
RTVSPropertyOp35
 70
     1
102
RTVSPropertyOp36
 70
     1
102
RTVSPropertyOp37
 70
     1
102
RTVSPropertyOp38
 70
     1
102
RTVSPropertyOp39
 70
     1
102
RTVSPropertyOp40
 70
     1
102
RTVSPropertyOp41
 70
     1
102
RTVSPropertyOp42
 70
     1
102
RTVSPropertyOp43
 70
     1
102
RTVSPropertyOp44
 70
     1
102
RTVSPropertyOp45
 70
     1
102
RTVSPropertyOp46
 70
     1
102
RTVSPropertyOp47
 70
     1
102
RTVSPropertyOp48
 70
     1
102
RTVSPropertyOp49
 70
     1
102
RTVSPropertyOp50
 70
     1
102
RTVSPropertyOp51
 70
     0
102
RTVSPropertyOp52
 70
     0
102
RTVSPropertyOp53
 70
     1
102
RTVSPropertyOp54
 70
     1
102
RTVSPropertyOp55
 70
     1
102
RTVSPropertyOp56
 70
     1
102
RTVSPropertyOp57
 70
     1
102
RTVSPropertyOp58
 70
     1
102
RTVSPropertyOp59
 70
     1
102
RTVSPropertyOp60
 70
     1
102
RTVSPropertyOp61
 70
     1
102
RTVSPropertyOp62
 70
     1
  0
XRECORD
  5
98B0
102
{ACAD_REACTORS
330
98AF
102
}
330
98AF
100
AcDbXrecord
280
     1
102
RTVSPost2010Prop28
280
     0
102
RTVSPost2010PropOp28
 70
     1
102
RTVSPost2010Prop29
280
     1
102
RTVSPost2010PropOp29
 70
     1
102
RTVSPost2010Prop30
280
     1
102
RTVSPost2010PropOp30
 70
     1
102
RTVSPost2010Prop31
280
     0
102
RTVSPost2010PropOp31
 70
     1
102
RTVSPost2010Prop32
280
     0
102
RTVSPost2010PropOp32
 70
     1
102
RTVSPost2010Prop33
280
     0
102
RTVSPost2010PropOp33
 70
     1
102
RTVSPost2010Prop34
280
     0
102
RTVSPost2010PropOp34
 70
     1
102
RTVSPost2010Prop35
280
     0
102
RTVSPost2010PropOp35
 70
     1
102
RTVSPost2010Prop36
280
     0
102
RTVSPost2010PropOp36
 70
     1
102
RTVSPost2010Prop37
 90
       50
102
RTVSPost2010PropOp37
 70
     1
102
RTVSPost2010Prop38
140
0.0
102
RTVSPost2010PropOp38
 70
     1
102
RTVSPost2010Prop39
140
1.0
102
RTVSPost2010PropOp39
 70
     1
102
RTVSPost2010Prop40
 90
        0
102
RTVSPost2010PropOp40
 70
     1
102
RTVSPost2010Prop41ColorIndex
 90
       18
102
RTVSPost2010Prop41ColorRGB
 90
        0
102
RTVSPost2010PropOp41
 70
     1
102
RTVSPost2010Prop42
 90
       50
102
RTVSPost2010PropOp42
 70
     1
102
RTVSPost2010Prop43
 90
        3
102
RTVSPost2010PropOp43
 70
     1
102
RTVSPost2010Prop44ColorIndex
 90
        5
102
RTVSPost2010Prop44ColorRGB
 90
      255
102
RTVSPost2010PropOp44
 70
     1
102
RTVSPost2010Prop45
280
     0
102
RTVSPost2010PropOp45
 70
     1
102
RTVSPost2010Prop46
 90
       50
102
RTVSPost2010PropOp46
 70
     1
102
RTVSPost2010Prop47
 90
       50
102
RTVSPost2010PropOp47
 70
     1
102
RTVSPost2010Prop48
 90
       50
102
RTVSPost2010PropOp48
 70
     1
102
RTVSPost2010Prop49
280
     0
102
RTVSPost2010PropOp49
 70
     1
102
RTVSPost2010Prop50
 90
       50
102
RTVSPost2010PropOp50
 70
     1
102
RTVSPost2010Prop51ColorIndex
 90
      256
102
RTVSPost2010Prop51ColorRGB
 90
-16777216
102
RTVSPost2010PropOp51
 70
     0
102
RTVSPost2010Prop52
140
1.0
102
RTVSPost2010PropOp52
 70
     0
102
RTVSPost2010Prop53
 90
        2
102
RTVSPost2010PropOp53
 70
     1
102
RTVSPost2010Prop54
  1
strokes_ogs.tif
102
RTVSPost2010PropOp54
 70
     1
102
RTVSPost2010Prop55
280
     0
102
RTVSPost2010PropOp55
 70
     1
102
RTVSPost2010Prop56
140
1.0
102
RTVSPost2010PropOp56
 70
     1
102
RTVSPost2010Prop57
140
1.0
102
RTVSPost2010PropOp57
 70
     1
102
RTVSPropertyOp0
 70
     1
102
RTVSPropertyOp1
 70
     1
102
RTVSPropertyOp2
 70
     1
102
RTVSPropertyOp3
 70
     1
102
RTVSPropertyOp4
 70
     1
102
RTVSPropertyOp5
 70
     1
102
RTVSPropertyOp6
 70
     1
102
RTVSPropertyOp7
 70
     1
102
RTVSPropertyOp8
 70
     1
102
RTVSPropertyOp9
 70
     1
102
RTVSPropertyOp10
 70
     1
102
RTVSPropertyOp11
 70
     1
102
RTVSPropertyOp12
 70
     1
102
RTVSPropertyOp13
 70
     1
102
RTVSPropertyOp14
 70
     1
102
RTVSPropertyOp15
 70
     1
102
RTVSPropertyOp16
 70
     1
102
RTVSPropertyOp17
 70
     1
102
RTVSPropertyOp18
 70
     1
102
RTVSPropertyOp19
 70
     1
102
RTVSPropertyOp20
 70
     1
102
RTVSPropertyOp21
 70
     1
102
RTVSPropertyOp22
 70
     1
102
RTVSPropertyOp23
 70
     1
102
RTVSPropertyOp24
 70
     1
102
RTVSPropertyOp25
 70
     1
102
RTVSPropertyOp26
 70
     1
102
RTVSPropertyOp27
 70
     1
102
RTVSPropertyOp28
 70
     1
102
RTVSPropertyOp29
 70
     1
102
RTVSPropertyOp30
 70
     1
102
RTVSPropertyOp31
 70
     1
102
RTVSPropertyOp32
 70
     1
102
RTVSPropertyOp33
 70
     1
102
RTVSPropertyOp34
 70
     1
102
RTVSPropertyOp35
 70
     1
102
RTVSPropertyOp36
 70
     1
102
RTVSPropertyOp37
 70
     1
102
RTVSPropertyOp38
 70
     1
102
RTVSPropertyOp39
 70
     1
102
RTVSPropertyOp40
 70
     1
102
RTVSPropertyOp41
 70
     1
102
RTVSPropertyOp42
 70
     1
102
RTVSPropertyOp43
 70
     1
102
RTVSPropertyOp44
 70
     1
102
RTVSPropertyOp45
 70
     1
102
RTVSPropertyOp46
 70
     1
102
RTVSPropertyOp47
 70
     1
102
RTVSPropertyOp48
 70
     1
102
RTVSPropertyOp49
 70
     1
102
RTVSPropertyOp50
 70
     1
102
RTVSPropertyOp51
 70
     0
102
RTVSPropertyOp52
 70
     0
102
RTVSPropertyOp53
 70
     1
102
RTVSPropertyOp54
 70
     1
102
RTVSPropertyOp55
 70
     1
102
RTVSPropertyOp56
 70
     1
102
RTVSPropertyOp57
 70
     1
102
RTVSPropertyOp58
 70
     1
102
RTVSPropertyOp59
 70
     1
102
RTVSPropertyOp60
 70
     1
102
RTVSPropertyOp61
 70
     1
102
RTVSPropertyOp62
 70
     1
  0
XRECORD
  5
98B8
102
{ACAD_REACTORS
330
98B7
102
}
330
98B7
100
AcDbXrecord
280
     1
102
RTVSPost2010Prop28
280
     0
102
RTVSPost2010PropOp28
 70
     1
102
RTVSPost2010Prop29
280
     1
102
RTVSPost2010PropOp29
 70
     1
102
RTVSPost2010Prop30
280
     1
102
RTVSPost2010PropOp30
 70
     1
102
RTVSPost2010Prop31
280
     0
102
RTVSPost2010PropOp31
 70
     1
102
RTVSPost2010Prop32
280
     0
102
RTVSPost2010PropOp32
 70
     1
102
RTVSPost2010Prop33
280
     0
102
RTVSPost2010PropOp33
 70
     1
102
RTVSPost2010Prop34
280
     0
102
RTVSPost2010PropOp34
 70
     1
102
RTVSPost2010Prop35
280
     0
102
RTVSPost2010PropOp35
 70
     1
102
RTVSPost2010Prop36
280
     0
102
RTVSPost2010PropOp36
 70
     1
102
RTVSPost2010Prop37
 90
       50
102
RTVSPost2010PropOp37
 70
     1
102
RTVSPost2010Prop38
140
0.0
102
RTVSPost2010PropOp38
 70
     1
102
RTVSPost2010Prop39
140
1.0
102
RTVSPost2010PropOp39
 70
     1
102
RTVSPost2010Prop40
 90
        0
102
RTVSPost2010PropOp40
 70
     1
102
RTVSPost2010Prop41ColorIndex
 90
       18
102
RTVSPost2010Prop41ColorRGB
 90
        0
102
RTVSPost2010PropOp41
 70
     1
102
RTVSPost2010Prop42
 90
       50
102
RTVSPost2010PropOp42
 70
     1
102
RTVSPost2010Prop43
 90
        3
102
RTVSPost2010PropOp43
 70
     1
102
RTVSPost2010Prop44ColorIndex
 90
        5
102
RTVSPost2010Prop44ColorRGB
 90
      255
102
RTVSPost2010PropOp44
 70
     1
102
RTVSPost2010Prop45
280
     0
102
RTVSPost2010PropOp45
 70
     1
102
RTVSPost2010Prop46
 90
       50
102
RTVSPost2010PropOp46
 70
     1
102
RTVSPost2010Prop47
 90
       50
102
RTVSPost2010PropOp47
 70
     1
102
RTVSPost2010Prop48
 90
       50
102
RTVSPost2010PropOp48
 70
     1
102
RTVSPost2010Prop49
280
     0
102
RTVSPost2010PropOp49
 70
     1
102
RTVSPost2010Prop50
 90
       50
102
RTVSPost2010PropOp50
 70
     1
102
RTVSPost2010Prop51ColorIndex
 90
      256
102
RTVSPost2010Prop51ColorRGB
 90
-16777216
102
RTVSPost2010PropOp51
 70
     0
102
RTVSPost2010Prop52
140
1.0
102
RTVSPost2010PropOp52
 70
     0
102
RTVSPost2010Prop53
 90
        2
102
RTVSPost2010PropOp53
 70
     1
102
RTVSPost2010Prop54
  1
strokes_ogs.tif
102
RTVSPost2010PropOp54
 70
     1
102
RTVSPost2010Prop55
280
     0
102
RTVSPost2010PropOp55
 70
     1
102
RTVSPost2010Prop56
140
1.0
102
RTVSPost2010PropOp56
 70
     1
102
RTVSPost2010Prop57
140
1.0
102
RTVSPost2010PropOp57
 70
     1
102
RTVSPropertyOp0
 70
     1
102
RTVSPropertyOp1
 70
     1
102
RTVSPropertyOp2
 70
     1
102
RTVSPropertyOp3
 70
     1
102
RTVSPropertyOp4
 70
     1
102
RTVSPropertyOp5
 70
     1
102
RTVSPropertyOp6
 70
     1
102
RTVSPropertyOp7
 70
     1
102
RTVSPropertyOp8
 70
     1
102
RTVSPropertyOp9
 70
     1
102
RTVSPropertyOp10
 70
     1
102
RTVSPropertyOp11
 70
     1
102
RTVSPropertyOp12
 70
     1
102
RTVSPropertyOp13
 70
     1
102
RTVSPropertyOp14
 70
     1
102
RTVSPropertyOp15
 70
     1
102
RTVSPropertyOp16
 70
     1
102
RTVSPropertyOp17
 70
     1
102
RTVSPropertyOp18
 70
     1
102
RTVSPropertyOp19
 70
     1
102
RTVSPropertyOp20
 70
     1
102
RTVSPropertyOp21
 70
     1
102
RTVSPropertyOp22
 70
     1
102
RTVSPropertyOp23
 70
     1
102
RTVSPropertyOp24
 70
     1
102
RTVSPropertyOp25
 70
     1
102
RTVSPropertyOp26
 70
     1
102
RTVSPropertyOp27
 70
     1
102
RTVSPropertyOp28
 70
     1
102
RTVSPropertyOp29
 70
     1
102
RTVSPropertyOp30
 70
     1
102
RTVSPropertyOp31
 70
     1
102
RTVSPropertyOp32
 70
     1
102
RTVSPropertyOp33
 70
     1
102
RTVSPropertyOp34
 70
     1
102
RTVSPropertyOp35
 70
     1
102
RTVSPropertyOp36
 70
     1
102
RTVSPropertyOp37
 70
     1
102
RTVSPropertyOp38
 70
     1
102
RTVSPropertyOp39
 70
     1
102
RTVSPropertyOp40
 70
     1
102
RTVSPropertyOp41
 70
     1
102
RTVSPropertyOp42
 70
     1
102
RTVSPropertyOp43
 70
     1
102
RTVSPropertyOp44
 70
     1
102
RTVSPropertyOp45
 70
     1
102
RTVSPropertyOp46
 70
     1
102
RTVSPropertyOp47
 70
     1
102
RTVSPropertyOp48
 70
     1
102
RTVSPropertyOp49
 70
     1
102
RTVSPropertyOp50
 70
     1
102
RTVSPropertyOp51
 70
     0
102
RTVSPropertyOp52
 70
     0
102
RTVSPropertyOp53
 70
     1
102
RTVSPropertyOp54
 70
     1
102
RTVSPropertyOp55
 70
     1
102
RTVSPropertyOp56
 70
     1
102
RTVSPropertyOp57
 70
     1
102
RTVSPropertyOp58
 70
     1
102
RTVSPropertyOp59
 70
     1
102
RTVSPropertyOp60
 70
     1
102
RTVSPropertyOp61
 70
     1
102
RTVSPropertyOp62
 70
     1
  0
XRECORD
  5
98AA
102
{ACAD_REACTORS
330
98A9
102
}
330
98A9
100
AcDbXrecord
280
     1
102
RTVSPost2010Prop28
280
     0
102
RTVSPost2010PropOp28
 70
     1
102
RTVSPost2010Prop29
280
     1
102
RTVSPost2010PropOp29
 70
     1
102
RTVSPost2010Prop30
280
     1
102
RTVSPost2010PropOp30
 70
     1
102
RTVSPost2010Prop31
280
     0
102
RTVSPost2010PropOp31
 70
     1
102
RTVSPost2010Prop32
280
     0
102
RTVSPost2010PropOp32
 70
     1
102
RTVSPost2010Prop33
280
     0
102
RTVSPost2010PropOp33
 70
     1
102
RTVSPost2010Prop34
280
     0
102
RTVSPost2010PropOp34
 70
     1
102
RTVSPost2010Prop35
280
     0
102
RTVSPost2010PropOp35
 70
     1
102
RTVSPost2010Prop36
280
     0
102
RTVSPost2010PropOp36
 70
     1
102
RTVSPost2010Prop37
 90
       50
102
RTVSPost2010PropOp37
 70
     1
102
RTVSPost2010Prop38
140
0.0
102
RTVSPost2010PropOp38
 70
     1
102
RTVSPost2010Prop39
140
1.0
102
RTVSPost2010PropOp39
 70
     1
102
RTVSPost2010Prop40
 90
        0
102
RTVSPost2010PropOp40
 70
     1
102
RTVSPost2010Prop41ColorIndex
 90
       18
102
RTVSPost2010Prop41ColorRGB
 90
        0
102
RTVSPost2010PropOp41
 70
     1
102
RTVSPost2010Prop42
 90
       50
102
RTVSPost2010PropOp42
 70
     1
102
RTVSPost2010Prop43
 90
        3
102
RTVSPost2010PropOp43
 70
     1
102
RTVSPost2010Prop44ColorIndex
 90
        5
102
RTVSPost2010Prop44ColorRGB
 90
      255
102
RTVSPost2010PropOp44
 70
     1
102
RTVSPost2010Prop45
280
     0
102
RTVSPost2010PropOp45
 70
     1
102
RTVSPost2010Prop46
 90
       50
102
RTVSPost2010PropOp46
 70
     1
102
RTVSPost2010Prop47
 90
       50
102
RTVSPost2010PropOp47
 70
     1
102
RTVSPost2010Prop48
 90
       50
102
RTVSPost2010PropOp48
 70
     1
102
RTVSPost2010Prop49
280
     0
102
RTVSPost2010PropOp49
 70
     1
102
RTVSPost2010Prop50
 90
       50
102
RTVSPost2010PropOp50
 70
     1
102
RTVSPost2010Prop51ColorIndex
 90
      256
102
RTVSPost2010Prop51ColorRGB
 90
-16777216
102
RTVSPost2010PropOp51
 70
     0
102
RTVSPost2010Prop52
140
1.0
102
RTVSPost2010PropOp52
 70
     0
102
RTVSPost2010Prop53
 90
        2
102
RTVSPost2010PropOp53
 70
     1
102
RTVSPost2010Prop54
  1
strokes_ogs.tif
102
RTVSPost2010PropOp54
 70
     1
102
RTVSPost2010Prop55
280
     0
102
RTVSPost2010PropOp55
 70
     1
102
RTVSPost2010Prop56
140
1.0
102
RTVSPost2010PropOp56
 70
     1
102
RTVSPost2010Prop57
140
1.0
102
RTVSPost2010PropOp57
 70
     1
102
RTVSPropertyOp0
 70
     1
102
RTVSPropertyOp1
 70
     1
102
RTVSPropertyOp2
 70
     1
102
RTVSPropertyOp3
 70
     1
102
RTVSPropertyOp4
 70
     1
102
RTVSPropertyOp5
 70
     1
102
RTVSPropertyOp6
 70
     1
102
RTVSPropertyOp7
 70
     1
102
RTVSPropertyOp8
 70
     1
102
RTVSPropertyOp9
 70
     1
102
RTVSPropertyOp10
 70
     1
102
RTVSPropertyOp11
 70
     1
102
RTVSPropertyOp12
 70
     1
102
RTVSPropertyOp13
 70
     1
102
RTVSPropertyOp14
 70
     1
102
RTVSPropertyOp15
 70
     1
102
RTVSPropertyOp16
 70
     1
102
RTVSPropertyOp17
 70
     1
102
RTVSPropertyOp18
 70
     1
102
RTVSPropertyOp19
 70
     1
102
RTVSPropertyOp20
 70
     1
102
RTVSPropertyOp21
 70
     1
102
RTVSPropertyOp22
 70
     1
102
RTVSPropertyOp23
 70
     1
102
RTVSPropertyOp24
 70
     1
102
RTVSPropertyOp25
 70
     1
102
RTVSPropertyOp26
 70
     1
102
RTVSPropertyOp27
 70
     1
102
RTVSPropertyOp28
 70
     1
102
RTVSPropertyOp29
 70
     1
102
RTVSPropertyOp30
 70
     1
102
RTVSPropertyOp31
 70
     1
102
RTVSPropertyOp32
 70
     1
102
RTVSPropertyOp33
 70
     1
102
RTVSPropertyOp34
 70
     1
102
RTVSPropertyOp35
 70
     1
102
RTVSPropertyOp36
 70
     1
102
RTVSPropertyOp37
 70
     1
102
RTVSPropertyOp38
 70
     1
102
RTVSPropertyOp39
 70
     1
102
RTVSPropertyOp40
 70
     1
102
RTVSPropertyOp41
 70
     1
102
RTVSPropertyOp42
 70
     1
102
RTVSPropertyOp43
 70
     1
102
RTVSPropertyOp44
 70
     1
102
RTVSPropertyOp45
 70
     1
102
RTVSPropertyOp46
 70
     1
102
RTVSPropertyOp47
 70
     1
102
RTVSPropertyOp48
 70
     1
102
RTVSPropertyOp49
 70
     1
102
RTVSPropertyOp50
 70
     1
102
RTVSPropertyOp51
 70
     0
102
RTVSPropertyOp52
 70
     0
102
RTVSPropertyOp53
 70
     1
102
RTVSPropertyOp54
 70
     1
102
RTVSPropertyOp55
 70
     1
102
RTVSPropertyOp56
 70
     1
102
RTVSPropertyOp57
 70
     1
102
RTVSPropertyOp58
 70
     1
102
RTVSPropertyOp59
 70
     1
102
RTVSPropertyOp60
 70
     1
102
RTVSPropertyOp61
 70
     1
102
RTVSPropertyOp62
 70
     1
  0
XRECORD
  5
98AE
102
{ACAD_REACTORS
330
98AD
102
}
330
98AD
100
AcDbXrecord
280
     1
102
RTVSPost2010Prop28
280
     0
102
RTVSPost2010PropOp28
 70
     1
102
RTVSPost2010Prop29
280
     1
102
RTVSPost2010PropOp29
 70
     1
102
RTVSPost2010Prop30
280
     1
102
RTVSPost2010PropOp30
 70
     1
102
RTVSPost2010Prop31
280
     0
102
RTVSPost2010PropOp31
 70
     1
102
RTVSPost2010Prop32
280
     0
102
RTVSPost2010PropOp32
 70
     1
102
RTVSPost2010Prop33
280
     0
102
RTVSPost2010PropOp33
 70
     1
102
RTVSPost2010Prop34
280
     0
102
RTVSPost2010PropOp34
 70
     1
102
RTVSPost2010Prop35
280
     0
102
RTVSPost2010PropOp35
 70
     1
102
RTVSPost2010Prop36
280
     0
102
RTVSPost2010PropOp36
 70
     1
102
RTVSPost2010Prop37
 90
       50
102
RTVSPost2010PropOp37
 70
     1
102
RTVSPost2010Prop38
140
0.0
102
RTVSPost2010PropOp38
 70
     1
102
RTVSPost2010Prop39
140
1.0
102
RTVSPost2010PropOp39
 70
     1
102
RTVSPost2010Prop40
 90
        0
102
RTVSPost2010PropOp40
 70
     1
102
RTVSPost2010Prop41ColorIndex
 90
       18
102
RTVSPost2010Prop41ColorRGB
 90
        0
102
RTVSPost2010PropOp41
 70
     1
102
RTVSPost2010Prop42
 90
       50
102
RTVSPost2010PropOp42
 70
     1
102
RTVSPost2010Prop43
 90
        3
102
RTVSPost2010PropOp43
 70
     1
102
RTVSPost2010Prop44ColorIndex
 90
        5
102
RTVSPost2010Prop44ColorRGB
 90
      255
102
RTVSPost2010PropOp44
 70
     1
102
RTVSPost2010Prop45
280
     0
102
RTVSPost2010PropOp45
 70
     1
102
RTVSPost2010Prop46
 90
       50
102
RTVSPost2010PropOp46
 70
     1
102
RTVSPost2010Prop47
 90
       50
102
RTVSPost2010PropOp47
 70
     1
102
RTVSPost2010Prop48
 90
       50
102
RTVSPost2010PropOp48
 70
     1
102
RTVSPost2010Prop49
280
     0
102
RTVSPost2010PropOp49
 70
     1
102
RTVSPost2010Prop50
 90
       50
102
RTVSPost2010PropOp50
 70
     1
102
RTVSPost2010Prop51ColorIndex
 90
      256
102
RTVSPost2010Prop51ColorRGB
 90
-16777216
102
RTVSPost2010PropOp51
 70
     0
102
RTVSPost2010Prop52
140
1.0
102
RTVSPost2010PropOp52
 70
     0
102
RTVSPost2010Prop53
 90
        2
102
RTVSPost2010PropOp53
 70
     1
102
RTVSPost2010Prop54
  1
strokes_ogs.tif
102
RTVSPost2010PropOp54
 70
     1
102
RTVSPost2010Prop55
280
     0
102
RTVSPost2010PropOp55
 70
     1
102
RTVSPost2010Prop56
140
1.0
102
RTVSPost2010PropOp56
 70
     1
102
RTVSPost2010Prop57
140
1.0
102
RTVSPost2010PropOp57
 70
     1
102
RTVSPropertyOp0
 70
     1
102
RTVSPropertyOp1
 70
     1
102
RTVSPropertyOp2
 70
     1
102
RTVSPropertyOp3
 70
     1
102
RTVSPropertyOp4
 70
     1
102
RTVSPropertyOp5
 70
     1
102
RTVSPropertyOp6
 70
     1
102
RTVSPropertyOp7
 70
     1
102
RTVSPropertyOp8
 70
     1
102
RTVSPropertyOp9
 70
     1
102
RTVSPropertyOp10
 70
     1
102
RTVSPropertyOp11
 70
     1
102
RTVSPropertyOp12
 70
     1
102
RTVSPropertyOp13
 70
     1
102
RTVSPropertyOp14
 70
     1
102
RTVSPropertyOp15
 70
     1
102
RTVSPropertyOp16
 70
     1
102
RTVSPropertyOp17
 70
     1
102
RTVSPropertyOp18
 70
     1
102
RTVSPropertyOp19
 70
     1
102
RTVSPropertyOp20
 70
     1
102
RTVSPropertyOp21
 70
     1
102
RTVSPropertyOp22
 70
     1
102
RTVSPropertyOp23
 70
     1
102
RTVSPropertyOp24
 70
     1
102
RTVSPropertyOp25
 70
     1
102
RTVSPropertyOp26
 70
     1
102
RTVSPropertyOp27
 70
     1
102
RTVSPropertyOp28
 70
     1
102
RTVSPropertyOp29
 70
     1
102
RTVSPropertyOp30
 70
     1
102
RTVSPropertyOp31
 70
     1
102
RTVSPropertyOp32
 70
     1
102
RTVSPropertyOp33
 70
     1
102
RTVSPropertyOp34
 70
     1
102
RTVSPropertyOp35
 70
     1
102
RTVSPropertyOp36
 70
     1
102
RTVSPropertyOp37
 70
     1
102
RTVSPropertyOp38
 70
     1
102
RTVSPropertyOp39
 70
     1
102
RTVSPropertyOp40
 70
     1
102
RTVSPropertyOp41
 70
     1
102
RTVSPropertyOp42
 70
     1
102
RTVSPropertyOp43
 70
     1
102
RTVSPropertyOp44
 70
     1
102
RTVSPropertyOp45
 70
     1
102
RTVSPropertyOp46
 70
     1
102
RTVSPropertyOp47
 70
     1
102
RTVSPropertyOp48
 70
     1
102
RTVSPropertyOp49
 70
     1
102
RTVSPropertyOp50
 70
     1
102
RTVSPropertyOp51
 70
     0
102
RTVSPropertyOp52
 70
     0
102
RTVSPropertyOp53
 70
     1
102
RTVSPropertyOp54
 70
     1
102
RTVSPropertyOp55
 70
     1
102
RTVSPropertyOp56
 70
     1
102
RTVSPropertyOp57
 70
     1
102
RTVSPropertyOp58
 70
     1
102
RTVSPropertyOp59
 70
     1
102
RTVSPropertyOp60
 70
     1
102
RTVSPropertyOp61
 70
     1
102
RTVSPropertyOp62
 70
     1
  0
XRECORD
  5
98C8
102
{ACAD_REACTORS
330
98C7
102
}
330
98C7
100
AcDbXrecord
280
     1
102
RTVSPost2010Prop28
280
     0
102
RTVSPost2010PropOp28
 70
     1
102
RTVSPost2010Prop29
280
     1
102
RTVSPost2010PropOp29
 70
     1
102
RTVSPost2010Prop30
280
     1
102
RTVSPost2010PropOp30
 70
     1
102
RTVSPost2010Prop31
280
     0
102
RTVSPost2010PropOp31
 70
     1
102
RTVSPost2010Prop32
280
     0
102
RTVSPost2010PropOp32
 70
     1
102
RTVSPost2010Prop33
280
     0
102
RTVSPost2010PropOp33
 70
     1
102
RTVSPost2010Prop34
280
     0
102
RTVSPost2010PropOp34
 70
     1
102
RTVSPost2010Prop35
280
     0
102
RTVSPost2010PropOp35
 70
     1
102
RTVSPost2010Prop36
280
     0
102
RTVSPost2010PropOp36
 70
     1
102
RTVSPost2010Prop37
 90
       50
102
RTVSPost2010PropOp37
 70
     0
102
RTVSPost2010Prop38
140
0.0
102
RTVSPost2010PropOp38
 70
     0
102
RTVSPost2010Prop39
140
1.0
102
RTVSPost2010PropOp39
 70
     0
102
RTVSPost2010Prop40
 90
        0
102
RTVSPost2010PropOp40
 70
     0
102
RTVSPost2010Prop41ColorIndex
 90
       18
102
RTVSPost2010Prop41ColorRGB
 90
        0
102
RTVSPost2010PropOp41
 70
     0
102
RTVSPost2010Prop42
 90
       50
102
RTVSPost2010PropOp42
 70
     0
102
RTVSPost2010Prop43
 90
        3
102
RTVSPost2010PropOp43
 70
     0
102
RTVSPost2010Prop44ColorIndex
 90
        5
102
RTVSPost2010Prop44ColorRGB
 90
      255
102
RTVSPost2010PropOp44
 70
     0
102
RTVSPost2010Prop45
280
     0
102
RTVSPost2010PropOp45
 70
     1
102
RTVSPost2010Prop46
 90
       50
102
RTVSPost2010PropOp46
 70
     0
102
RTVSPost2010Prop47
 90
       50
102
RTVSPost2010PropOp47
 70
     0
102
RTVSPost2010Prop48
 90
       50
102
RTVSPost2010PropOp48
 70
     0
102
RTVSPost2010Prop49
280
     0
102
RTVSPost2010PropOp49
 70
     1
102
RTVSPost2010Prop50
 90
       50
102
RTVSPost2010PropOp50
 70
     0
102
RTVSPost2010Prop51ColorIndex
 90
      256
102
RTVSPost2010Prop51ColorRGB
 90
-16777216
102
RTVSPost2010PropOp51
 70
     0
102
RTVSPost2010Prop52
140
1.0
102
RTVSPost2010PropOp52
 70
     0
102
RTVSPost2010Prop53
 90
        2
102
RTVSPost2010PropOp53
 70
     0
102
RTVSPost2010Prop54
  1
strokes_ogs.tif
102
RTVSPost2010PropOp54
 70
     0
102
RTVSPost2010Prop55
280
     0
102
RTVSPost2010PropOp55
 70
     1
102
RTVSPost2010Prop56
140
1.0
102
RTVSPost2010PropOp56
 70
     0
102
RTVSPost2010Prop57
140
1.0
102
RTVSPost2010PropOp57
 70
     0
102
RTVSPropertyOp0
 70
     0
102
RTVSPropertyOp1
 70
     0
102
RTVSPropertyOp2
 70
     0
102
RTVSPropertyOp3
 70
     0
102
RTVSPropertyOp4
 70
     0
102
RTVSPropertyOp5
 70
     0
102
RTVSPropertyOp6
 70
     0
102
RTVSPropertyOp7
 70
     0
102
RTVSPropertyOp8
 70
     0
102
RTVSPropertyOp9
 70
     0
102
RTVSPropertyOp10
 70
     0
102
RTVSPropertyOp11
 70
     0
102
RTVSPropertyOp12
 70
     0
102
RTVSPropertyOp13
 70
     0
102
RTVSPropertyOp14
 70
     2
102
RTVSPropertyOp15
 70
     0
102
RTVSPropertyOp16
 70
     0
102
RTVSPropertyOp17
 70
     0
102
RTVSPropertyOp18
 70
     0
102
RTVSPropertyOp19
 70
     0
102
RTVSPropertyOp20
 70
     0
102
RTVSPropertyOp21
 70
     0
102
RTVSPropertyOp22
 70
     0
102
RTVSPropertyOp23
 70
     0
102
RTVSPropertyOp24
 70
     0
102
RTVSPropertyOp25
 70
     0
102
RTVSPropertyOp26
 70
     0
102
RTVSPropertyOp27
 70
     0
102
RTVSPropertyOp28
 70
     1
102
RTVSPropertyOp29
 70
     1
102
RTVSPropertyOp30
 70
     1
102
RTVSPropertyOp31
 70
     1
102
RTVSPropertyOp32
 70
     1
102
RTVSPropertyOp33
 70
     1
102
RTVSPropertyOp34
 70
     1
102
RTVSPropertyOp35
 70
     1
102
RTVSPropertyOp36
 70
     1
102
RTVSPropertyOp37
 70
     0
102
RTVSPropertyOp38
 70
     0
102
RTVSPropertyOp39
 70
     0
102
RTVSPropertyOp40
 70
     0
102
RTVSPropertyOp41
 70
     0
102
RTVSPropertyOp42
 70
     0
102
RTVSPropertyOp43
 70
     0
102
RTVSPropertyOp44
 70
     0
102
RTVSPropertyOp45
 70
     1
102
RTVSPropertyOp46
 70
     0
102
RTVSPropertyOp47
 70
     0
102
RTVSPropertyOp48
 70
     0
102
RTVSPropertyOp49
 70
     1
102
RTVSPropertyOp50
 70
     0
102
RTVSPropertyOp51
 70
     0
102
RTVSPropertyOp52
 70
     0
102
RTVSPropertyOp53
 70
     0
102
RTVSPropertyOp54
 70
     0
102
RTVSPropertyOp55
 70
     1
102
RTVSPropertyOp56
 70
     0
102
RTVSPropertyOp57
 70
     0
102
RTVSPropertyOp58
 70
     0
102
RTVSPropertyOp59
 70
     0
102
RTVSPropertyOp60
 70
     0
102
RTVSPropertyOp61
 70
     0
102
RTVSPropertyOp62
 70
     0
  0
XRECORD
  5
98B6
102
{ACAD_REACTORS
330
98B5
102
}
330
98B5
100
AcDbXrecord
280
     1
102
RTVSPost2010Prop28
280
     0
102
RTVSPost2010PropOp28
 70
     1
102
RTVSPost2010Prop29
280
     1
102
RTVSPost2010PropOp29
 70
     1
102
RTVSPost2010Prop30
280
     1
102
RTVSPost2010PropOp30
 70
     1
102
RTVSPost2010Prop31
280
     0
102
RTVSPost2010PropOp31
 70
     1
102
RTVSPost2010Prop32
280
     0
102
RTVSPost2010PropOp32
 70
     1
102
RTVSPost2010Prop33
280
     0
102
RTVSPost2010PropOp33
 70
     1
102
RTVSPost2010Prop34
280
     0
102
RTVSPost2010PropOp34
 70
     1
102
RTVSPost2010Prop35
280
     0
102
RTVSPost2010PropOp35
 70
     1
102
RTVSPost2010Prop36
280
     0
102
RTVSPost2010PropOp36
 70
     1
102
RTVSPost2010Prop37
 90
       50
102
RTVSPost2010PropOp37
 70
     1
102
RTVSPost2010Prop38
140
0.0
102
RTVSPost2010PropOp38
 70
     1
102
RTVSPost2010Prop39
140
1.0
102
RTVSPost2010PropOp39
 70
     1
102
RTVSPost2010Prop40
 90
        0
102
RTVSPost2010PropOp40
 70
     1
102
RTVSPost2010Prop41ColorIndex
 90
       18
102
RTVSPost2010Prop41ColorRGB
 90
        0
102
RTVSPost2010PropOp41
 70
     1
102
RTVSPost2010Prop42
 90
       50
102
RTVSPost2010PropOp42
 70
     1
102
RTVSPost2010Prop43
 90
        3
102
RTVSPost2010PropOp43
 70
     1
102
RTVSPost2010Prop44ColorIndex
 90
        5
102
RTVSPost2010Prop44ColorRGB
 90
      255
102
RTVSPost2010PropOp44
 70
     1
102
RTVSPost2010Prop45
280
     0
102
RTVSPost2010PropOp45
 70
     1
102
RTVSPost2010Prop46
 90
       50
102
RTVSPost2010PropOp46
 70
     1
102
RTVSPost2010Prop47
 90
       50
102
RTVSPost2010PropOp47
 70
     1
102
RTVSPost2010Prop48
 90
       50
102
RTVSPost2010PropOp48
 70
     1
102
RTVSPost2010Prop49
280
     0
102
RTVSPost2010PropOp49
 70
     1
102
RTVSPost2010Prop50
 90
       50
102
RTVSPost2010PropOp50
 70
     1
102
RTVSPost2010Prop51ColorIndex
 90
      256
102
RTVSPost2010Prop51ColorRGB
 90
-16777216
102
RTVSPost2010PropOp51
 70
     0
102
RTVSPost2010Prop52
140
1.0
102
RTVSPost2010PropOp52
 70
     0
102
RTVSPost2010Prop53
 90
        2
102
RTVSPost2010PropOp53
 70
     1
102
RTVSPost2010Prop54
  1
strokes_ogs.tif
102
RTVSPost2010PropOp54
 70
     1
102
RTVSPost2010Prop55
280
     0
102
RTVSPost2010PropOp55
 70
     1
102
RTVSPost2010Prop56
140
1.0
102
RTVSPost2010PropOp56
 70
     1
102
RTVSPost2010Prop57
140
1.0
102
RTVSPost2010PropOp57
 70
     1
102
RTVSPropertyOp0
 70
     1
102
RTVSPropertyOp1
 70
     1
102
RTVSPropertyOp2
 70
     1
102
RTVSPropertyOp3
 70
     1
102
RTVSPropertyOp4
 70
     1
102
RTVSPropertyOp5
 70
     1
102
RTVSPropertyOp6
 70
     1
102
RTVSPropertyOp7
 70
     1
102
RTVSPropertyOp8
 70
     1
102
RTVSPropertyOp9
 70
     1
102
RTVSPropertyOp10
 70
     1
102
RTVSPropertyOp11
 70
     1
102
RTVSPropertyOp12
 70
     1
102
RTVSPropertyOp13
 70
     1
102
RTVSPropertyOp14
 70
     1
102
RTVSPropertyOp15
 70
     1
102
RTVSPropertyOp16
 70
     1
102
RTVSPropertyOp17
 70
     1
102
RTVSPropertyOp18
 70
     1
102
RTVSPropertyOp19
 70
     1
102
RTVSPropertyOp20
 70
     1
102
RTVSPropertyOp21
 70
     1
102
RTVSPropertyOp22
 70
     1
102
RTVSPropertyOp23
 70
     1
102
RTVSPropertyOp24
 70
     1
102
RTVSPropertyOp25
 70
     1
102
RTVSPropertyOp26
 70
     1
102
RTVSPropertyOp27
 70
     1
102
RTVSPropertyOp28
 70
     1
102
RTVSPropertyOp29
 70
     1
102
RTVSPropertyOp30
 70
     1
102
RTVSPropertyOp31
 70
     1
102
RTVSPropertyOp32
 70
     1
102
RTVSPropertyOp33
 70
     1
102
RTVSPropertyOp34
 70
     1
102
RTVSPropertyOp35
 70
     1
102
RTVSPropertyOp36
 70
     1
102
RTVSPropertyOp37
 70
     1
102
RTVSPropertyOp38
 70
     1
102
RTVSPropertyOp39
 70
     1
102
RTVSPropertyOp40
 70
     1
102
RTVSPropertyOp41
 70
     1
102
RTVSPropertyOp42
 70
     1
102
RTVSPropertyOp43
 70
     1
102
RTVSPropertyOp44
 70
     1
102
RTVSPropertyOp45
 70
     1
102
RTVSPropertyOp46
 70
     1
102
RTVSPropertyOp47
 70
     1
102
RTVSPropertyOp48
 70
     1
102
RTVSPropertyOp49
 70
     1
102
RTVSPropertyOp50
 70
     1
102
RTVSPropertyOp51
 70
     0
102
RTVSPropertyOp52
 70
     0
102
RTVSPropertyOp53
 70
     1
102
RTVSPropertyOp54
 70
     1
102
RTVSPropertyOp55
 70
     1
102
RTVSPropertyOp56
 70
     1
102
RTVSPropertyOp57
 70
     1
102
RTVSPropertyOp58
 70
     1
102
RTVSPropertyOp59
 70
     1
102
RTVSPropertyOp60
 70
     1
102
RTVSPropertyOp61
 70
     1
102
RTVSPropertyOp62
 70
     1
  0
XRECORD
  5
989A
102
{ACAD_REACTORS
330
9899
102
}
330
9899
100
AcDbXrecord
280
     1
102
RTVSPost2010Prop28
280
     0
102
RTVSPost2010PropOp28
 70
     1
102
RTVSPost2010Prop29
280
     1
102
RTVSPost2010PropOp29
 70
     1
102
RTVSPost2010Prop30
280
     1
102
RTVSPost2010PropOp30
 70
     1
102
RTVSPost2010Prop31
280
     0
102
RTVSPost2010PropOp31
 70
     1
102
RTVSPost2010Prop32
280
     0
102
RTVSPost2010PropOp32
 70
     1
102
RTVSPost2010Prop33
280
     0
102
RTVSPost2010PropOp33
 70
     1
102
RTVSPost2010Prop34
280
     0
102
RTVSPost2010PropOp34
 70
     1
102
RTVSPost2010Prop35
280
     0
102
RTVSPost2010PropOp35
 70
     1
102
RTVSPost2010Prop36
280
     0
102
RTVSPost2010PropOp36
 70
     1
102
RTVSPost2010Prop37
 90
       50
102
RTVSPost2010PropOp37
 70
     1
102
RTVSPost2010Prop38
140
0.0
102
RTVSPost2010PropOp38
 70
     1
102
RTVSPost2010Prop39
140
1.0
102
RTVSPost2010PropOp39
 70
     1
102
RTVSPost2010Prop40
 90
        0
102
RTVSPost2010PropOp40
 70
     1
102
RTVSPost2010Prop41ColorIndex
 90
       18
102
RTVSPost2010Prop41ColorRGB
 90
        0
102
RTVSPost2010PropOp41
 70
     1
102
RTVSPost2010Prop42
 90
       50
102
RTVSPost2010PropOp42
 70
     1
102
RTVSPost2010Prop43
 90
        3
102
RTVSPost2010PropOp43
 70
     1
102
RTVSPost2010Prop44ColorIndex
 90
        5
102
RTVSPost2010Prop44ColorRGB
 90
      255
102
RTVSPost2010PropOp44
 70
     1
102
RTVSPost2010Prop45
280
     0
102
RTVSPost2010PropOp45
 70
     1
102
RTVSPost2010Prop46
 90
       50
102
RTVSPost2010PropOp46
 70
     1
102
RTVSPost2010Prop47
 90
       50
102
RTVSPost2010PropOp47
 70
     1
102
RTVSPost2010Prop48
 90
       50
102
RTVSPost2010PropOp48
 70
     1
102
RTVSPost2010Prop49
280
     0
102
RTVSPost2010PropOp49
 70
     1
102
RTVSPost2010Prop50
 90
       50
102
RTVSPost2010PropOp50
 70
     1
102
RTVSPost2010Prop51ColorIndex
 90
      256
102
RTVSPost2010Prop51ColorRGB
 90
-16777216
102
RTVSPost2010PropOp51
 70
     0
102
RTVSPost2010Prop52
140
1.0
102
RTVSPost2010PropOp52
 70
     0
102
RTVSPost2010Prop53
 90
        2
102
RTVSPost2010PropOp53
 70
     1
102
RTVSPost2010Prop54
  1
strokes_ogs.tif
102
RTVSPost2010PropOp54
 70
     1
102
RTVSPost2010Prop55
280
     0
102
RTVSPost2010PropOp55
 70
     1
102
RTVSPost2010Prop56
140
1.0
102
RTVSPost2010PropOp56
 70
     1
102
RTVSPost2010Prop57
140
1.0
102
RTVSPost2010PropOp57
 70
     1
102
RTVSPropertyOp0
 70
     1
102
RTVSPropertyOp1
 70
     1
102
RTVSPropertyOp2
 70
     1
102
RTVSPropertyOp3
 70
     1
102
RTVSPropertyOp4
 70
     1
102
RTVSPropertyOp5
 70
     1
102
RTVSPropertyOp6
 70
     1
102
RTVSPropertyOp7
 70
     1
102
RTVSPropertyOp8
 70
     1
102
RTVSPropertyOp9
 70
     1
102
RTVSPropertyOp10
 70
     1
102
RTVSPropertyOp11
 70
     1
102
RTVSPropertyOp12
 70
     1
102
RTVSPropertyOp13
 70
     1
102
RTVSPropertyOp14
 70
     1
102
RTVSPropertyOp15
 70
     1
102
RTVSPropertyOp16
 70
     1
102
RTVSPropertyOp17
 70
     1
102
RTVSPropertyOp18
 70
     1
102
RTVSPropertyOp19
 70
     1
102
RTVSPropertyOp20
 70
     1
102
RTVSPropertyOp21
 70
     1
102
RTVSPropertyOp22
 70
     1
102
RTVSPropertyOp23
 70
     1
102
RTVSPropertyOp24
 70
     1
102
RTVSPropertyOp25
 70
     1
102
RTVSPropertyOp26
 70
     1
102
RTVSPropertyOp27
 70
     1
102
RTVSPropertyOp28
 70
     1
102
RTVSPropertyOp29
 70
     1
102
RTVSPropertyOp30
 70
     1
102
RTVSPropertyOp31
 70
     1
102
RTVSPropertyOp32
 70
     1
102
RTVSPropertyOp33
 70
     1
102
RTVSPropertyOp34
 70
     1
102
RTVSPropertyOp35
 70
     1
102
RTVSPropertyOp36
 70
     1
102
RTVSPropertyOp37
 70
     1
102
RTVSPropertyOp38
 70
     1
102
RTVSPropertyOp39
 70
     1
102
RTVSPropertyOp40
 70
     1
102
RTVSPropertyOp41
 70
     1
102
RTVSPropertyOp42
 70
     1
102
RTVSPropertyOp43
 70
     1
102
RTVSPropertyOp44
 70
     1
102
RTVSPropertyOp45
 70
     1
102
RTVSPropertyOp46
 70
     1
102
RTVSPropertyOp47
 70
     1
102
RTVSPropertyOp48
 70
     1
102
RTVSPropertyOp49
 70
     1
102
RTVSPropertyOp50
 70
     1
102
RTVSPropertyOp51
 70
     0
102
RTVSPropertyOp52
 70
     0
102
RTVSPropertyOp53
 70
     1
102
RTVSPropertyOp54
 70
     1
102
RTVSPropertyOp55
 70
     1
102
RTVSPropertyOp56
 70
     1
102
RTVSPropertyOp57
 70
     1
102
RTVSPropertyOp58
 70
     1
102
RTVSPropertyOp59
 70
     1
102
RTVSPropertyOp60
 70
     1
102
RTVSPropertyOp61
 70
     1
102
RTVSPropertyOp62
 70
     1
  0
XRECORD
  5
989C
102
{ACAD_REACTORS
330
989B
102
}
330
989B
100
AcDbXrecord
280
     1
102
RTVSPost2010Prop28
280
     0
102
RTVSPost2010PropOp28
 70
     1
102
RTVSPost2010Prop29
280
     1
102
RTVSPost2010PropOp29
 70
     1
102
RTVSPost2010Prop30
280
     1
102
RTVSPost2010PropOp30
 70
     1
102
RTVSPost2010Prop31
280
     0
102
RTVSPost2010PropOp31
 70
     1
102
RTVSPost2010Prop32
280
     0
102
RTVSPost2010PropOp32
 70
     1
102
RTVSPost2010Prop33
280
     0
102
RTVSPost2010PropOp33
 70
     1
102
RTVSPost2010Prop34
280
     0
102
RTVSPost2010PropOp34
 70
     1
102
RTVSPost2010Prop35
280
     0
102
RTVSPost2010PropOp35
 70
     1
102
RTVSPost2010Prop36
280
     0
102
RTVSPost2010PropOp36
 70
     1
102
RTVSPost2010Prop37
 90
       50
102
RTVSPost2010PropOp37
 70
     1
102
RTVSPost2010Prop38
140
0.0
102
RTVSPost2010PropOp38
 70
     1
102
RTVSPost2010Prop39
140
1.0
102
RTVSPost2010PropOp39
 70
     1
102
RTVSPost2010Prop40
 90
        0
102
RTVSPost2010PropOp40
 70
     1
102
RTVSPost2010Prop41ColorIndex
 90
       18
102
RTVSPost2010Prop41ColorRGB
 90
        0
102
RTVSPost2010PropOp41
 70
     1
102
RTVSPost2010Prop42
 90
       50
102
RTVSPost2010PropOp42
 70
     1
102
RTVSPost2010Prop43
 90
        3
102
RTVSPost2010PropOp43
 70
     1
102
RTVSPost2010Prop44ColorIndex
 90
        5
102
RTVSPost2010Prop44ColorRGB
 90
      255
102
RTVSPost2010PropOp44
 70
     1
102
RTVSPost2010Prop45
280
     0
102
RTVSPost2010PropOp45
 70
     1
102
RTVSPost2010Prop46
 90
       50
102
RTVSPost2010PropOp46
 70
     1
102
RTVSPost2010Prop47
 90
       50
102
RTVSPost2010PropOp47
 70
     1
102
RTVSPost2010Prop48
 90
       50
102
RTVSPost2010PropOp48
 70
     1
102
RTVSPost2010Prop49
280
     0
102
RTVSPost2010PropOp49
 70
     1
102
RTVSPost2010Prop50
 90
       50
102
RTVSPost2010PropOp50
 70
     1
102
RTVSPost2010Prop51ColorIndex
 90
      256
102
RTVSPost2010Prop51ColorRGB
 90
-16777216
102
RTVSPost2010PropOp51
 70
     0
102
RTVSPost2010Prop52
140
1.0
102
RTVSPost2010PropOp52
 70
     0
102
RTVSPost2010Prop53
 90
        2
102
RTVSPost2010PropOp53
 70
     1
102
RTVSPost2010Prop54
  1
strokes_ogs.tif
102
RTVSPost2010PropOp54
 70
     1
102
RTVSPost2010Prop55
280
     0
102
RTVSPost2010PropOp55
 70
     1
102
RTVSPost2010Prop56
140
1.0
102
RTVSPost2010PropOp56
 70
     1
102
RTVSPost2010Prop57
140
1.0
102
RTVSPost2010PropOp57
 70
     1
102
RTVSPropertyOp0
 70
     1
102
RTVSPropertyOp1
 70
     1
102
RTVSPropertyOp2
 70
     1
102
RTVSPropertyOp3
 70
     1
102
RTVSPropertyOp4
 70
     1
102
RTVSPropertyOp5
 70
     1
102
RTVSPropertyOp6
 70
     1
102
RTVSPropertyOp7
 70
     1
102
RTVSPropertyOp8
 70
     1
102
RTVSPropertyOp9
 70
     1
102
RTVSPropertyOp10
 70
     1
102
RTVSPropertyOp11
 70
     1
102
RTVSPropertyOp12
 70
     1
102
RTVSPropertyOp13
 70
     1
102
RTVSPropertyOp14
 70
     1
102
RTVSPropertyOp15
 70
     1
102
RTVSPropertyOp16
 70
     1
102
RTVSPropertyOp17
 70
     1
102
RTVSPropertyOp18
 70
     1
102
RTVSPropertyOp19
 70
     1
102
RTVSPropertyOp20
 70
     1
102
RTVSPropertyOp21
 70
     1
102
RTVSPropertyOp22
 70
     1
102
RTVSPropertyOp23
 70
     1
102
RTVSPropertyOp24
 70
     1
102
RTVSPropertyOp25
 70
     1
102
RTVSPropertyOp26
 70
     1
102
RTVSPropertyOp27
 70
     1
102
RTVSPropertyOp28
 70
     1
102
RTVSPropertyOp29
 70
     1
102
RTVSPropertyOp30
 70
     1
102
RTVSPropertyOp31
 70
     1
102
RTVSPropertyOp32
 70
     1
102
RTVSPropertyOp33
 70
     1
102
RTVSPropertyOp34
 70
     1
102
RTVSPropertyOp35
 70
     1
102
RTVSPropertyOp36
 70
     1
102
RTVSPropertyOp37
 70
     1
102
RTVSPropertyOp38
 70
     1
102
RTVSPropertyOp39
 70
     1
102
RTVSPropertyOp40
 70
     1
102
RTVSPropertyOp41
 70
     1
102
RTVSPropertyOp42
 70
     1
102
RTVSPropertyOp43
 70
     1
102
RTVSPropertyOp44
 70
     1
102
RTVSPropertyOp45
 70
     1
102
RTVSPropertyOp46
 70
     1
102
RTVSPropertyOp47
 70
     1
102
RTVSPropertyOp48
 70
     1
102
RTVSPropertyOp49
 70
     1
102
RTVSPropertyOp50
 70
     1
102
RTVSPropertyOp51
 70
     0
102
RTVSPropertyOp52
 70
     0
102
RTVSPropertyOp53
 70
     1
102
RTVSPropertyOp54
 70
     1
102
RTVSPropertyOp55
 70
     1
102
RTVSPropertyOp56
 70
     1
102
RTVSPropertyOp57
 70
     1
102
RTVSPropertyOp58
 70
     1
102
RTVSPropertyOp59
 70
     1
102
RTVSPropertyOp60
 70
     1
102
RTVSPropertyOp61
 70
     1
102
RTVSPropertyOp62
 70
     1
  0
XRECORD
  5
989E
102
{ACAD_REACTORS
330
989D
102
}
330
989D
100
AcDbXrecord
280
     1
102
RTVSPost2010Prop28
280
     0
102
RTVSPost2010PropOp28
 70
     1
102
RTVSPost2010Prop29
280
     1
102
RTVSPost2010PropOp29
 70
     1
102
RTVSPost2010Prop30
280
     1
102
RTVSPost2010PropOp30
 70
     1
102
RTVSPost2010Prop31
280
     0
102
RTVSPost2010PropOp31
 70
     1
102
RTVSPost2010Prop32
280
     0
102
RTVSPost2010PropOp32
 70
     1
102
RTVSPost2010Prop33
280
     0
102
RTVSPost2010PropOp33
 70
     1
102
RTVSPost2010Prop34
280
     0
102
RTVSPost2010PropOp34
 70
     1
102
RTVSPost2010Prop35
280
     0
102
RTVSPost2010PropOp35
 70
     1
102
RTVSPost2010Prop36
280
     0
102
RTVSPost2010PropOp36
 70
     1
102
RTVSPost2010Prop37
 90
       50
102
RTVSPost2010PropOp37
 70
     1
102
RTVSPost2010Prop38
140
0.0
102
RTVSPost2010PropOp38
 70
     1
102
RTVSPost2010Prop39
140
1.0
102
RTVSPost2010PropOp39
 70
     1
102
RTVSPost2010Prop40
 90
        0
102
RTVSPost2010PropOp40
 70
     1
102
RTVSPost2010Prop41ColorIndex
 90
       18
102
RTVSPost2010Prop41ColorRGB
 90
        0
102
RTVSPost2010PropOp41
 70
     1
102
RTVSPost2010Prop42
 90
       50
102
RTVSPost2010PropOp42
 70
     1
102
RTVSPost2010Prop43
 90
        3
102
RTVSPost2010PropOp43
 70
     1
102
RTVSPost2010Prop44ColorIndex
 90
        5
102
RTVSPost2010Prop44ColorRGB
 90
      255
102
RTVSPost2010PropOp44
 70
     1
102
RTVSPost2010Prop45
280
     0
102
RTVSPost2010PropOp45
 70
     1
102
RTVSPost2010Prop46
 90
       50
102
RTVSPost2010PropOp46
 70
     1
102
RTVSPost2010Prop47
 90
       50
102
RTVSPost2010PropOp47
 70
     1
102
RTVSPost2010Prop48
 90
       50
102
RTVSPost2010PropOp48
 70
     1
102
RTVSPost2010Prop49
280
     0
102
RTVSPost2010PropOp49
 70
     1
102
RTVSPost2010Prop50
 90
       50
102
RTVSPost2010PropOp50
 70
     1
102
RTVSPost2010Prop51ColorIndex
 90
      256
102
RTVSPost2010Prop51ColorRGB
 90
-16777216
102
RTVSPost2010PropOp51
 70
     0
102
RTVSPost2010Prop52
140
1.0
102
RTVSPost2010PropOp52
 70
     0
102
RTVSPost2010Prop53
 90
        2
102
RTVSPost2010PropOp53
 70
     1
102
RTVSPost2010Prop54
  1
strokes_ogs.tif
102
RTVSPost2010PropOp54
 70
     1
102
RTVSPost2010Prop55
280
     0
102
RTVSPost2010PropOp55
 70
     1
102
RTVSPost2010Prop56
140
1.0
102
RTVSPost2010PropOp56
 70
     1
102
RTVSPost2010Prop57
140
1.0
102
RTVSPost2010PropOp57
 70
     1
102
RTVSPropertyOp0
 70
     1
102
RTVSPropertyOp1
 70
     1
102
RTVSPropertyOp2
 70
     1
102
RTVSPropertyOp3
 70
     1
102
RTVSPropertyOp4
 70
     1
102
RTVSPropertyOp5
 70
     1
102
RTVSPropertyOp6
 70
     1
102
RTVSPropertyOp7
 70
     1
102
RTVSPropertyOp8
 70
     1
102
RTVSPropertyOp9
 70
     1
102
RTVSPropertyOp10
 70
     1
102
RTVSPropertyOp11
 70
     1
102
RTVSPropertyOp12
 70
     1
102
RTVSPropertyOp13
 70
     1
102
RTVSPropertyOp14
 70
     1
102
RTVSPropertyOp15
 70
     1
102
RTVSPropertyOp16
 70
     1
102
RTVSPropertyOp17
 70
     1
102
RTVSPropertyOp18
 70
     1
102
RTVSPropertyOp19
 70
     1
102
RTVSPropertyOp20
 70
     1
102
RTVSPropertyOp21
 70
     1
102
RTVSPropertyOp22
 70
     1
102
RTVSPropertyOp23
 70
     1
102
RTVSPropertyOp24
 70
     1
102
RTVSPropertyOp25
 70
     1
102
RTVSPropertyOp26
 70
     1
102
RTVSPropertyOp27
 70
     1
102
RTVSPropertyOp28
 70
     1
102
RTVSPropertyOp29
 70
     1
102
RTVSPropertyOp30
 70
     1
102
RTVSPropertyOp31
 70
     1
102
RTVSPropertyOp32
 70
     1
102
RTVSPropertyOp33
 70
     1
102
RTVSPropertyOp34
 70
     1
102
RTVSPropertyOp35
 70
     1
102
RTVSPropertyOp36
 70
     1
102
RTVSPropertyOp37
 70
     1
102
RTVSPropertyOp38
 70
     1
102
RTVSPropertyOp39
 70
     1
102
RTVSPropertyOp40
 70
     1
102
RTVSPropertyOp41
 70
     1
102
RTVSPropertyOp42
 70
     1
102
RTVSPropertyOp43
 70
     1
102
RTVSPropertyOp44
 70
     1
102
RTVSPropertyOp45
 70
     1
102
RTVSPropertyOp46
 70
     1
102
RTVSPropertyOp47
 70
     1
102
RTVSPropertyOp48
 70
     1
102
RTVSPropertyOp49
 70
     1
102
RTVSPropertyOp50
 70
     1
102
RTVSPropertyOp51
 70
     0
102
RTVSPropertyOp52
 70
     0
102
RTVSPropertyOp53
 70
     1
102
RTVSPropertyOp54
 70
     1
102
RTVSPropertyOp55
 70
     1
102
RTVSPropertyOp56
 70
     1
102
RTVSPropertyOp57
 70
     1
102
RTVSPropertyOp58
 70
     1
102
RTVSPropertyOp59
 70
     1
102
RTVSPropertyOp60
 70
     1
102
RTVSPropertyOp61
 70
     1
102
RTVSPropertyOp62
 70
     1
  0
XRECORD
  5
98A0
102
{ACAD_REACTORS
330
989F
102
}
330
989F
100
AcDbXrecord
280
     1
102
RTVSPost2010Prop28
280
     0
102
RTVSPost2010PropOp28
 70
     1
102
RTVSPost2010Prop29
280
     1
102
RTVSPost2010PropOp29
 70
     1
102
RTVSPost2010Prop30
280
     1
102
RTVSPost2010PropOp30
 70
     1
102
RTVSPost2010Prop31
280
     0
102
RTVSPost2010PropOp31
 70
     1
102
RTVSPost2010Prop32
280
     0
102
RTVSPost2010PropOp32
 70
     1
102
RTVSPost2010Prop33
280
     0
102
RTVSPost2010PropOp33
 70
     1
102
RTVSPost2010Prop34
280
     0
102
RTVSPost2010PropOp34
 70
     1
102
RTVSPost2010Prop35
280
     0
102
RTVSPost2010PropOp35
 70
     1
102
RTVSPost2010Prop36
280
     0
102
RTVSPost2010PropOp36
 70
     1
102
RTVSPost2010Prop37
 90
       50
102
RTVSPost2010PropOp37
 70
     1
102
RTVSPost2010Prop38
140
0.0
102
RTVSPost2010PropOp38
 70
     1
102
RTVSPost2010Prop39
140
1.0
102
RTVSPost2010PropOp39
 70
     1
102
RTVSPost2010Prop40
 90
        0
102
RTVSPost2010PropOp40
 70
     1
102
RTVSPost2010Prop41ColorIndex
 90
       18
102
RTVSPost2010Prop41ColorRGB
 90
        0
102
RTVSPost2010PropOp41
 70
     1
102
RTVSPost2010Prop42
 90
       50
102
RTVSPost2010PropOp42
 70
     1
102
RTVSPost2010Prop43
 90
        3
102
RTVSPost2010PropOp43
 70
     1
102
RTVSPost2010Prop44ColorIndex
 90
        5
102
RTVSPost2010Prop44ColorRGB
 90
      255
102
RTVSPost2010PropOp44
 70
     1
102
RTVSPost2010Prop45
280
     0
102
RTVSPost2010PropOp45
 70
     1
102
RTVSPost2010Prop46
 90
       50
102
RTVSPost2010PropOp46
 70
     1
102
RTVSPost2010Prop47
 90
       50
102
RTVSPost2010PropOp47
 70
     1
102
RTVSPost2010Prop48
 90
       50
102
RTVSPost2010PropOp48
 70
     1
102
RTVSPost2010Prop49
280
     0
102
RTVSPost2010PropOp49
 70
     1
102
RTVSPost2010Prop50
 90
       50
102
RTVSPost2010PropOp50
 70
     1
102
RTVSPost2010Prop51ColorIndex
 90
      256
102
RTVSPost2010Prop51ColorRGB
 90
-16777216
102
RTVSPost2010PropOp51
 70
     0
102
RTVSPost2010Prop52
140
1.0
102
RTVSPost2010PropOp52
 70
     0
102
RTVSPost2010Prop53
 90
        2
102
RTVSPost2010PropOp53
 70
     1
102
RTVSPost2010Prop54
  1
strokes_ogs.tif
102
RTVSPost2010PropOp54
 70
     1
102
RTVSPost2010Prop55
280
     0
102
RTVSPost2010PropOp55
 70
     1
102
RTVSPost2010Prop56
140
1.0
102
RTVSPost2010PropOp56
 70
     1
102
RTVSPost2010Prop57
140
1.0
102
RTVSPost2010PropOp57
 70
     1
102
RTVSPropertyOp0
 70
     1
102
RTVSPropertyOp1
 70
     1
102
RTVSPropertyOp2
 70
     1
102
RTVSPropertyOp3
 70
     1
102
RTVSPropertyOp4
 70
     1
102
RTVSPropertyOp5
 70
     1
102
RTVSPropertyOp6
 70
     1
102
RTVSPropertyOp7
 70
     1
102
RTVSPropertyOp8
 70
     1
102
RTVSPropertyOp9
 70
     1
102
RTVSPropertyOp10
 70
     1
102
RTVSPropertyOp11
 70
     1
102
RTVSPropertyOp12
 70
     1
102
RTVSPropertyOp13
 70
     1
102
RTVSPropertyOp14
 70
     1
102
RTVSPropertyOp15
 70
     1
102
RTVSPropertyOp16
 70
     1
102
RTVSPropertyOp17
 70
     1
102
RTVSPropertyOp18
 70
     1
102
RTVSPropertyOp19
 70
     1
102
RTVSPropertyOp20
 70
     1
102
RTVSPropertyOp21
 70
     1
102
RTVSPropertyOp22
 70
     1
102
RTVSPropertyOp23
 70
     1
102
RTVSPropertyOp24
 70
     1
102
RTVSPropertyOp25
 70
     1
102
RTVSPropertyOp26
 70
     1
102
RTVSPropertyOp27
 70
     1
102
RTVSPropertyOp28
 70
     1
102
RTVSPropertyOp29
 70
     1
102
RTVSPropertyOp30
 70
     1
102
RTVSPropertyOp31
 70
     1
102
RTVSPropertyOp32
 70
     1
102
RTVSPropertyOp33
 70
     1
102
RTVSPropertyOp34
 70
     1
102
RTVSPropertyOp35
 70
     1
102
RTVSPropertyOp36
 70
     1
102
RTVSPropertyOp37
 70
     1
102
RTVSPropertyOp38
 70
     1
102
RTVSPropertyOp39
 70
     1
102
RTVSPropertyOp40
 70
     1
102
RTVSPropertyOp41
 70
     1
102
RTVSPropertyOp42
 70
     1
102
RTVSPropertyOp43
 70
     1
102
RTVSPropertyOp44
 70
     1
102
RTVSPropertyOp45
 70
     1
102
RTVSPropertyOp46
 70
     1
102
RTVSPropertyOp47
 70
     1
102
RTVSPropertyOp48
 70
     1
102
RTVSPropertyOp49
 70
     1
102
RTVSPropertyOp50
 70
     1
102
RTVSPropertyOp51
 70
     0
102
RTVSPropertyOp52
 70
     0
102
RTVSPropertyOp53
 70
     1
102
RTVSPropertyOp54
 70
     1
102
RTVSPropertyOp55
 70
     1
102
RTVSPropertyOp56
 70
     1
102
RTVSPropertyOp57
 70
     1
102
RTVSPropertyOp58
 70
     1
102
RTVSPropertyOp59
 70
     1
102
RTVSPropertyOp60
 70
     1
102
RTVSPropertyOp61
 70
     1
102
RTVSPropertyOp62
 70
     1
  0
XRECORD
  5
98A8
102
{ACAD_REACTORS
330
98A7
102
}
330
98A7
100
AcDbXrecord
280
     1
102
RTVSPost2010Prop28
280
     0
102
RTVSPost2010PropOp28
 70
     1
102
RTVSPost2010Prop29
280
     1
102
RTVSPost2010PropOp29
 70
     1
102
RTVSPost2010Prop30
280
     1
102
RTVSPost2010PropOp30
 70
     1
102
RTVSPost2010Prop31
280
     0
102
RTVSPost2010PropOp31
 70
     1
102
RTVSPost2010Prop32
280
     0
102
RTVSPost2010PropOp32
 70
     1
102
RTVSPost2010Prop33
280
     0
102
RTVSPost2010PropOp33
 70
     1
102
RTVSPost2010Prop34
280
     0
102
RTVSPost2010PropOp34
 70
     1
102
RTVSPost2010Prop35
280
     0
102
RTVSPost2010PropOp35
 70
     1
102
RTVSPost2010Prop36
280
     0
102
RTVSPost2010PropOp36
 70
     1
102
RTVSPost2010Prop37
 90
       50
102
RTVSPost2010PropOp37
 70
     1
102
RTVSPost2010Prop38
140
0.0
102
RTVSPost2010PropOp38
 70
     1
102
RTVSPost2010Prop39
140
1.0
102
RTVSPost2010PropOp39
 70
     1
102
RTVSPost2010Prop40
 90
        0
102
RTVSPost2010PropOp40
 70
     1
102
RTVSPost2010Prop41ColorIndex
 90
       18
102
RTVSPost2010Prop41ColorRGB
 90
        0
102
RTVSPost2010PropOp41
 70
     1
102
RTVSPost2010Prop42
 90
       50
102
RTVSPost2010PropOp42
 70
     1
102
RTVSPost2010Prop43
 90
        3
102
RTVSPost2010PropOp43
 70
     1
102
RTVSPost2010Prop44ColorIndex
 90
        5
102
RTVSPost2010Prop44ColorRGB
 90
      255
102
RTVSPost2010PropOp44
 70
     1
102
RTVSPost2010Prop45
280
     0
102
RTVSPost2010PropOp45
 70
     1
102
RTVSPost2010Prop46
 90
       50
102
RTVSPost2010PropOp46
 70
     1
102
RTVSPost2010Prop47
 90
       50
102
RTVSPost2010PropOp47
 70
     1
102
RTVSPost2010Prop48
 90
       50
102
RTVSPost2010PropOp48
 70
     1
102
RTVSPost2010Prop49
280
     0
102
RTVSPost2010PropOp49
 70
     1
102
RTVSPost2010Prop50
 90
       50
102
RTVSPost2010PropOp50
 70
     1
102
RTVSPost2010Prop51ColorIndex
 90
      256
102
RTVSPost2010Prop51ColorRGB
 90
-16777216
102
RTVSPost2010PropOp51
 70
     0
102
RTVSPost2010Prop52
140
1.0
102
RTVSPost2010PropOp52
 70
     0
102
RTVSPost2010Prop53
 90
        2
102
RTVSPost2010PropOp53
 70
     1
102
RTVSPost2010Prop54
  1
strokes_ogs.tif
102
RTVSPost2010PropOp54
 70
     1
102
RTVSPost2010Prop55
280
     0
102
RTVSPost2010PropOp55
 70
     1
102
RTVSPost2010Prop56
140
1.0
102
RTVSPost2010PropOp56
 70
     1
102
RTVSPost2010Prop57
140
1.0
102
RTVSPost2010PropOp57
 70
     1
102
RTVSPropertyOp0
 70
     1
102
RTVSPropertyOp1
 70
     1
102
RTVSPropertyOp2
 70
     1
102
RTVSPropertyOp3
 70
     1
102
RTVSPropertyOp4
 70
     1
102
RTVSPropertyOp5
 70
     1
102
RTVSPropertyOp6
 70
     1
102
RTVSPropertyOp7
 70
     1
102
RTVSPropertyOp8
 70
     1
102
RTVSPropertyOp9
 70
     1
102
RTVSPropertyOp10
 70
     1
102
RTVSPropertyOp11
 70
     1
102
RTVSPropertyOp12
 70
     1
102
RTVSPropertyOp13
 70
     1
102
RTVSPropertyOp14
 70
     1
102
RTVSPropertyOp15
 70
     1
102
RTVSPropertyOp16
 70
     1
102
RTVSPropertyOp17
 70
     1
102
RTVSPropertyOp18
 70
     1
102
RTVSPropertyOp19
 70
     1
102
RTVSPropertyOp20
 70
     1
102
RTVSPropertyOp21
 70
     1
102
RTVSPropertyOp22
 70
     1
102
RTVSPropertyOp23
 70
     1
102
RTVSPropertyOp24
 70
     1
102
RTVSPropertyOp25
 70
     1
102
RTVSPropertyOp26
 70
     1
102
RTVSPropertyOp27
 70
     1
102
RTVSPropertyOp28
 70
     1
102
RTVSPropertyOp29
 70
     1
102
RTVSPropertyOp30
 70
     1
102
RTVSPropertyOp31
 70
     1
102
RTVSPropertyOp32
 70
     1
102
RTVSPropertyOp33
 70
     1
102
RTVSPropertyOp34
 70
     1
102
RTVSPropertyOp35
 70
     1
102
RTVSPropertyOp36
 70
     1
102
RTVSPropertyOp37
 70
     1
102
RTVSPropertyOp38
 70
     1
102
RTVSPropertyOp39
 70
     1
102
RTVSPropertyOp40
 70
     1
102
RTVSPropertyOp41
 70
     1
102
RTVSPropertyOp42
 70
     1
102
RTVSPropertyOp43
 70
     1
102
RTVSPropertyOp44
 70
     1
102
RTVSPropertyOp45
 70
     1
102
RTVSPropertyOp46
 70
     1
102
RTVSPropertyOp47
 70
     1
102
RTVSPropertyOp48
 70
     1
102
RTVSPropertyOp49
 70
     1
102
RTVSPropertyOp50
 70
     1
102
RTVSPropertyOp51
 70
     0
102
RTVSPropertyOp52
 70
     0
102
RTVSPropertyOp53
 70
     1
102
RTVSPropertyOp54
 70
     1
102
RTVSPropertyOp55
 70
     1
102
RTVSPropertyOp56
 70
     1
102
RTVSPropertyOp57
 70
     1
102
RTVSPropertyOp58
 70
     1
102
RTVSPropertyOp59
 70
     1
102
RTVSPropertyOp60
 70
     1
102
RTVSPropertyOp61
 70
     1
102
RTVSPropertyOp62
 70
     1
  0
XRECORD
  5
98C4
102
{ACAD_REACTORS
330
98C3
102
}
330
98C3
100
AcDbXrecord
280
     1
102
RTVSPost2010Prop28
280
     0
102
RTVSPost2010PropOp28
 70
     1
102
RTVSPost2010Prop29
280
     1
102
RTVSPost2010PropOp29
 70
     1
102
RTVSPost2010Prop30
280
     1
102
RTVSPost2010PropOp30
 70
     1
102
RTVSPost2010Prop31
280
     0
102
RTVSPost2010PropOp31
 70
     1
102
RTVSPost2010Prop32
280
     0
102
RTVSPost2010PropOp32
 70
     1
102
RTVSPost2010Prop33
280
     0
102
RTVSPost2010PropOp33
 70
     1
102
RTVSPost2010Prop34
280
     0
102
RTVSPost2010PropOp34
 70
     1
102
RTVSPost2010Prop35
280
     0
102
RTVSPost2010PropOp35
 70
     1
102
RTVSPost2010Prop36
280
     0
102
RTVSPost2010PropOp36
 70
     1
102
RTVSPost2010Prop37
 90
       50
102
RTVSPost2010PropOp37
 70
     0
102
RTVSPost2010Prop38
140
0.0
102
RTVSPost2010PropOp38
 70
     0
102
RTVSPost2010Prop39
140
1.0
102
RTVSPost2010PropOp39
 70
     0
102
RTVSPost2010Prop40
 90
        0
102
RTVSPost2010PropOp40
 70
     0
102
RTVSPost2010Prop41ColorIndex
 90
       18
102
RTVSPost2010Prop41ColorRGB
 90
        0
102
RTVSPost2010PropOp41
 70
     0
102
RTVSPost2010Prop42
 90
       50
102
RTVSPost2010PropOp42
 70
     0
102
RTVSPost2010Prop43
 90
        3
102
RTVSPost2010PropOp43
 70
     0
102
RTVSPost2010Prop44ColorIndex
 90
        5
102
RTVSPost2010Prop44ColorRGB
 90
      255
102
RTVSPost2010PropOp44
 70
     0
102
RTVSPost2010Prop45
280
     0
102
RTVSPost2010PropOp45
 70
     1
102
RTVSPost2010Prop46
 90
       50
102
RTVSPost2010PropOp46
 70
     0
102
RTVSPost2010Prop47
 90
       50
102
RTVSPost2010PropOp47
 70
     0
102
RTVSPost2010Prop48
 90
       50
102
RTVSPost2010PropOp48
 70
     0
102
RTVSPost2010Prop49
280
     0
102
RTVSPost2010PropOp49
 70
     1
102
RTVSPost2010Prop50
 90
       50
102
RTVSPost2010PropOp50
 70
     0
102
RTVSPost2010Prop51ColorIndex
 90
      256
102
RTVSPost2010Prop51ColorRGB
 90
-16777216
102
RTVSPost2010PropOp51
 70
     0
102
RTVSPost2010Prop52
140
1.0
102
RTVSPost2010PropOp52
 70
     0
102
RTVSPost2010Prop53
 90
        2
102
RTVSPost2010PropOp53
 70
     0
102
RTVSPost2010Prop54
  1
strokes_ogs.tif
102
RTVSPost2010PropOp54
 70
     0
102
RTVSPost2010Prop55
280
     0
102
RTVSPost2010PropOp55
 70
     1
102
RTVSPost2010Prop56
140
1.0
102
RTVSPost2010PropOp56
 70
     0
102
RTVSPost2010Prop57
140
1.0
102
RTVSPost2010PropOp57
 70
     0
102
RTVSPropertyOp0
 70
     0
102
RTVSPropertyOp1
 70
     0
102
RTVSPropertyOp2
 70
     0
102
RTVSPropertyOp3
 70
     0
102
RTVSPropertyOp4
 70
     0
102
RTVSPropertyOp5
 70
     0
102
RTVSPropertyOp6
 70
     0
102
RTVSPropertyOp7
 70
     0
102
RTVSPropertyOp8
 70
     0
102
RTVSPropertyOp9
 70
     0
102
RTVSPropertyOp10
 70
     0
102
RTVSPropertyOp11
 70
     0
102
RTVSPropertyOp12
 70
     0
102
RTVSPropertyOp13
 70
     0
102
RTVSPropertyOp14
 70
     2
102
RTVSPropertyOp15
 70
     0
102
RTVSPropertyOp16
 70
     0
102
RTVSPropertyOp17
 70
     0
102
RTVSPropertyOp18
 70
     0
102
RTVSPropertyOp19
 70
     0
102
RTVSPropertyOp20
 70
     0
102
RTVSPropertyOp21
 70
     0
102
RTVSPropertyOp22
 70
     0
102
RTVSPropertyOp23
 70
     0
102
RTVSPropertyOp24
 70
     0
102
RTVSPropertyOp25
 70
     0
102
RTVSPropertyOp26
 70
     0
102
RTVSPropertyOp27
 70
     0
102
RTVSPropertyOp28
 70
     1
102
RTVSPropertyOp29
 70
     1
102
RTVSPropertyOp30
 70
     1
102
RTVSPropertyOp31
 70
     1
102
RTVSPropertyOp32
 70
     1
102
RTVSPropertyOp33
 70
     1
102
RTVSPropertyOp34
 70
     1
102
RTVSPropertyOp35
 70
     1
102
RTVSPropertyOp36
 70
     1
102
RTVSPropertyOp37
 70
     0
102
RTVSPropertyOp38
 70
     0
102
RTVSPropertyOp39
 70
     0
102
RTVSPropertyOp40
 70
     0
102
RTVSPropertyOp41
 70
     0
102
RTVSPropertyOp42
 70
     0
102
RTVSPropertyOp43
 70
     0
102
RTVSPropertyOp44
 70
     0
102
RTVSPropertyOp45
 70
     1
102
RTVSPropertyOp46
 70
     0
102
RTVSPropertyOp47
 70
     0
102
RTVSPropertyOp48
 70
     0
102
RTVSPropertyOp49
 70
     1
102
RTVSPropertyOp50
 70
     0
102
RTVSPropertyOp51
 70
     0
102
RTVSPropertyOp52
 70
     0
102
RTVSPropertyOp53
 70
     0
102
RTVSPropertyOp54
 70
     0
102
RTVSPropertyOp55
 70
     1
102
RTVSPropertyOp56
 70
     0
102
RTVSPropertyOp57
 70
     0
102
RTVSPropertyOp58
 70
     0
102
RTVSPropertyOp59
 70
     0
102
RTVSPropertyOp60
 70
     0
102
RTVSPropertyOp61
 70
     0
102
RTVSPropertyOp62
 70
     0
  0
XRECORD
  5
98B4
102
{ACAD_REACTORS
330
98B3
102
}
330
98B3
100
AcDbXrecord
280
     1
102
RTVSPost2010Prop28
280
     0
102
RTVSPost2010PropOp28
 70
     1
102
RTVSPost2010Prop29
280
     1
102
RTVSPost2010PropOp29
 70
     1
102
RTVSPost2010Prop30
280
     1
102
RTVSPost2010PropOp30
 70
     1
102
RTVSPost2010Prop31
280
     0
102
RTVSPost2010PropOp31
 70
     1
102
RTVSPost2010Prop32
280
     0
102
RTVSPost2010PropOp32
 70
     1
102
RTVSPost2010Prop33
280
     0
102
RTVSPost2010PropOp33
 70
     1
102
RTVSPost2010Prop34
280
     0
102
RTVSPost2010PropOp34
 70
     1
102
RTVSPost2010Prop35
280
     0
102
RTVSPost2010PropOp35
 70
     1
102
RTVSPost2010Prop36
280
     0
102
RTVSPost2010PropOp36
 70
     1
102
RTVSPost2010Prop37
 90
       50
102
RTVSPost2010PropOp37
 70
     1
102
RTVSPost2010Prop38
140
0.0
102
RTVSPost2010PropOp38
 70
     1
102
RTVSPost2010Prop39
140
1.0
102
RTVSPost2010PropOp39
 70
     1
102
RTVSPost2010Prop40
 90
        0
102
RTVSPost2010PropOp40
 70
     1
102
RTVSPost2010Prop41ColorIndex
 90
       18
102
RTVSPost2010Prop41ColorRGB
 90
        0
102
RTVSPost2010PropOp41
 70
     1
102
RTVSPost2010Prop42
 90
       50
102
RTVSPost2010PropOp42
 70
     1
102
RTVSPost2010Prop43
 90
        3
102
RTVSPost2010PropOp43
 70
     1
102
RTVSPost2010Prop44ColorIndex
 90
        5
102
RTVSPost2010Prop44ColorRGB
 90
      255
102
RTVSPost2010PropOp44
 70
     1
102
RTVSPost2010Prop45
280
     0
102
RTVSPost2010PropOp45
 70
     1
102
RTVSPost2010Prop46
 90
       50
102
RTVSPost2010PropOp46
 70
     1
102
RTVSPost2010Prop47
 90
       50
102
RTVSPost2010PropOp47
 70
     1
102
RTVSPost2010Prop48
 90
       50
102
RTVSPost2010PropOp48
 70
     1
102
RTVSPost2010Prop49
280
     0
102
RTVSPost2010PropOp49
 70
     1
102
RTVSPost2010Prop50
 90
       50
102
RTVSPost2010PropOp50
 70
     1
102
RTVSPost2010Prop51ColorIndex
 90
      256
102
RTVSPost2010Prop51ColorRGB
 90
-16777216
102
RTVSPost2010PropOp51
 70
     0
102
RTVSPost2010Prop52
140
1.0
102
RTVSPost2010PropOp52
 70
     0
102
RTVSPost2010Prop53
 90
        2
102
RTVSPost2010PropOp53
 70
     1
102
RTVSPost2010Prop54
  1
strokes_ogs.tif
102
RTVSPost2010PropOp54
 70
     1
102
RTVSPost2010Prop55
280
     0
102
RTVSPost2010PropOp55
 70
     1
102
RTVSPost2010Prop56
140
1.0
102
RTVSPost2010PropOp56
 70
     1
102
RTVSPost2010Prop57
140
1.0
102
RTVSPost2010PropOp57
 70
     1
102
RTVSPropertyOp0
 70
     1
102
RTVSPropertyOp1
 70
     1
102
RTVSPropertyOp2
 70
     1
102
RTVSPropertyOp3
 70
     1
102
RTVSPropertyOp4
 70
     1
102
RTVSPropertyOp5
 70
     1
102
RTVSPropertyOp6
 70
     1
102
RTVSPropertyOp7
 70
     1
102
RTVSPropertyOp8
 70
     1
102
RTVSPropertyOp9
 70
     1
102
RTVSPropertyOp10
 70
     1
102
RTVSPropertyOp11
 70
     1
102
RTVSPropertyOp12
 70
     1
102
RTVSPropertyOp13
 70
     1
102
RTVSPropertyOp14
 70
     1
102
RTVSPropertyOp15
 70
     1
102
RTVSPropertyOp16
 70
     1
102
RTVSPropertyOp17
 70
     1
102
RTVSPropertyOp18
 70
     1
102
RTVSPropertyOp19
 70
     1
102
RTVSPropertyOp20
 70
     1
102
RTVSPropertyOp21
 70
     1
102
RTVSPropertyOp22
 70
     1
102
RTVSPropertyOp23
 70
     1
102
RTVSPropertyOp24
 70
     1
102
RTVSPropertyOp25
 70
     1
102
RTVSPropertyOp26
 70
     1
102
RTVSPropertyOp27
 70
     1
102
RTVSPropertyOp28
 70
     1
102
RTVSPropertyOp29
 70
     1
102
RTVSPropertyOp30
 70
     1
102
RTVSPropertyOp31
 70
     1
102
RTVSPropertyOp32
 70
     1
102
RTVSPropertyOp33
 70
     1
102
RTVSPropertyOp34
 70
     1
102
RTVSPropertyOp35
 70
     1
102
RTVSPropertyOp36
 70
     1
102
RTVSPropertyOp37
 70
     1
102
RTVSPropertyOp38
 70
     1
102
RTVSPropertyOp39
 70
     1
102
RTVSPropertyOp40
 70
     1
102
RTVSPropertyOp41
 70
     1
102
RTVSPropertyOp42
 70
     1
102
RTVSPropertyOp43
 70
     1
102
RTVSPropertyOp44
 70
     1
102
RTVSPropertyOp45
 70
     1
102
RTVSPropertyOp46
 70
     1
102
RTVSPropertyOp47
 70
     1
102
RTVSPropertyOp48
 70
     1
102
RTVSPropertyOp49
 70
     1
102
RTVSPropertyOp50
 70
     1
102
RTVSPropertyOp51
 70
     0
102
RTVSPropertyOp52
 70
     0
102
RTVSPropertyOp53
 70
     1
102
RTVSPropertyOp54
 70
     1
102
RTVSPropertyOp55
 70
     1
102
RTVSPropertyOp56
 70
     1
102
RTVSPropertyOp57
 70
     1
102
RTVSPropertyOp58
 70
     1
102
RTVSPropertyOp59
 70
     1
102
RTVSPropertyOp60
 70
     1
102
RTVSPropertyOp61
 70
     1
102
RTVSPropertyOp62
 70
     1
  0
XRECORD
  5
98C6
102
{ACAD_REACTORS
330
98C5
102
}
330
98C5
100
AcDbXrecord
280
     1
102
RTVSPost2010Prop28
280
     0
102
RTVSPost2010PropOp28
 70
     1
102
RTVSPost2010Prop29
280
     1
102
RTVSPost2010PropOp29
 70
     1
102
RTVSPost2010Prop30
280
     1
102
RTVSPost2010PropOp30
 70
     1
102
RTVSPost2010Prop31
280
     0
102
RTVSPost2010PropOp31
 70
     1
102
RTVSPost2010Prop32
280
     0
102
RTVSPost2010PropOp32
 70
     1
102
RTVSPost2010Prop33
280
     0
102
RTVSPost2010PropOp33
 70
     1
102
RTVSPost2010Prop34
280
     0
102
RTVSPost2010PropOp34
 70
     1
102
RTVSPost2010Prop35
280
     0
102
RTVSPost2010PropOp35
 70
     1
102
RTVSPost2010Prop36
280
     0
102
RTVSPost2010PropOp36
 70
     1
102
RTVSPost2010Prop37
 90
       50
102
RTVSPost2010PropOp37
 70
     0
102
RTVSPost2010Prop38
140
0.0
102
RTVSPost2010PropOp38
 70
     0
102
RTVSPost2010Prop39
140
1.0
102
RTVSPost2010PropOp39
 70
     0
102
RTVSPost2010Prop40
 90
        0
102
RTVSPost2010PropOp40
 70
     0
102
RTVSPost2010Prop41ColorIndex
 90
       18
102
RTVSPost2010Prop41ColorRGB
 90
        0
102
RTVSPost2010PropOp41
 70
     0
102
RTVSPost2010Prop42
 90
       50
102
RTVSPost2010PropOp42
 70
     0
102
RTVSPost2010Prop43
 90
        3
102
RTVSPost2010PropOp43
 70
     0
102
RTVSPost2010Prop44ColorIndex
 90
        5
102
RTVSPost2010Prop44ColorRGB
 90
      255
102
RTVSPost2010PropOp44
 70
     0
102
RTVSPost2010Prop45
280
     0
102
RTVSPost2010PropOp45
 70
     1
102
RTVSPost2010Prop46
 90
       50
102
RTVSPost2010PropOp46
 70
     0
102
RTVSPost2010Prop47
 90
       50
102
RTVSPost2010PropOp47
 70
     0
102
RTVSPost2010Prop48
 90
       50
102
RTVSPost2010PropOp48
 70
     0
102
RTVSPost2010Prop49
280
     0
102
RTVSPost2010PropOp49
 70
     1
102
RTVSPost2010Prop50
 90
       50
102
RTVSPost2010PropOp50
 70
     0
102
RTVSPost2010Prop51ColorIndex
 90
      256
102
RTVSPost2010Prop51ColorRGB
 90
-16777216
102
RTVSPost2010PropOp51
 70
     0
102
RTVSPost2010Prop52
140
1.0
102
RTVSPost2010PropOp52
 70
     0
102
RTVSPost2010Prop53
 90
        2
102
RTVSPost2010PropOp53
 70
     0
102
RTVSPost2010Prop54
  1
strokes_ogs.tif
102
RTVSPost2010PropOp54
 70
     0
102
RTVSPost2010Prop55
280
     0
102
RTVSPost2010PropOp55
 70
     1
102
RTVSPost2010Prop56
140
1.0
102
RTVSPost2010PropOp56
 70
     0
102
RTVSPost2010Prop57
140
1.0
102
RTVSPost2010PropOp57
 70
     0
102
RTVSPropertyOp0
 70
     0
102
RTVSPropertyOp1
 70
     0
102
RTVSPropertyOp2
 70
     0
102
RTVSPropertyOp3
 70
     0
102
RTVSPropertyOp4
 70
     0
102
RTVSPropertyOp5
 70
     0
102
RTVSPropertyOp6
 70
     0
102
RTVSPropertyOp7
 70
     0
102
RTVSPropertyOp8
 70
     0
102
RTVSPropertyOp9
 70
     0
102
RTVSPropertyOp10
 70
     0
102
RTVSPropertyOp11
 70
     0
102
RTVSPropertyOp12
 70
     0
102
RTVSPropertyOp13
 70
     0
102
RTVSPropertyOp14
 70
     2
102
RTVSPropertyOp15
 70
     0
102
RTVSPropertyOp16
 70
     0
102
RTVSPropertyOp17
 70
     0
102
RTVSPropertyOp18
 70
     0
102
RTVSPropertyOp19
 70
     0
102
RTVSPropertyOp20
 70
     0
102
RTVSPropertyOp21
 70
     0
102
RTVSPropertyOp22
 70
     0
102
RTVSPropertyOp23
 70
     0
102
RTVSPropertyOp24
 70
     0
102
RTVSPropertyOp25
 70
     0
102
RTVSPropertyOp26
 70
     0
102
RTVSPropertyOp27
 70
     0
102
RTVSPropertyOp28
 70
     1
102
RTVSPropertyOp29
 70
     1
102
RTVSPropertyOp30
 70
     1
102
RTVSPropertyOp31
 70
     1
102
RTVSPropertyOp32
 70
     1
102
RTVSPropertyOp33
 70
     1
102
RTVSPropertyOp34
 70
     1
102
RTVSPropertyOp35
 70
     1
102
RTVSPropertyOp36
 70
     1
102
RTVSPropertyOp37
 70
     0
102
RTVSPropertyOp38
 70
     0
102
RTVSPropertyOp39
 70
     0
102
RTVSPropertyOp40
 70
     0
102
RTVSPropertyOp41
 70
     0
102
RTVSPropertyOp42
 70
     0
102
RTVSPropertyOp43
 70
     0
102
RTVSPropertyOp44
 70
     0
102
RTVSPropertyOp45
 70
     1
102
RTVSPropertyOp46
 70
     0
102
RTVSPropertyOp47
 70
     0
102
RTVSPropertyOp48
 70
     0
102
RTVSPropertyOp49
 70
     1
102
RTVSPropertyOp50
 70
     0
102
RTVSPropertyOp51
 70
     0
102
RTVSPropertyOp52
 70
     0
102
RTVSPropertyOp53
 70
     0
102
RTVSPropertyOp54
 70
     0
102
RTVSPropertyOp55
 70
     1
102
RTVSPropertyOp56
 70
     0
102
RTVSPropertyOp57
 70
     0
102
RTVSPropertyOp58
 70
     0
102
RTVSPropertyOp59
 70
     0
102
RTVSPropertyOp60
 70
     0
102
RTVSPropertyOp61
 70
     0
102
RTVSPropertyOp62
 70
     0
  0
XRECORD
  5
98AC
102
{ACAD_REACTORS
330
98AB
102
}
330
98AB
100
AcDbXrecord
280
     1
102
RTVSPost2010Prop28
280
     0
102
RTVSPost2010PropOp28
 70
     1
102
RTVSPost2010Prop29
280
     1
102
RTVSPost2010PropOp29
 70
     1
102
RTVSPost2010Prop30
280
     1
102
RTVSPost2010PropOp30
 70
     1
102
RTVSPost2010Prop31
280
     0
102
RTVSPost2010PropOp31
 70
     1
102
RTVSPost2010Prop32
280
     0
102
RTVSPost2010PropOp32
 70
     1
102
RTVSPost2010Prop33
280
     0
102
RTVSPost2010PropOp33
 70
     1
102
RTVSPost2010Prop34
280
     0
102
RTVSPost2010PropOp34
 70
     1
102
RTVSPost2010Prop35
280
     0
102
RTVSPost2010PropOp35
 70
     1
102
RTVSPost2010Prop36
280
     0
102
RTVSPost2010PropOp36
 70
     1
102
RTVSPost2010Prop37
 90
       50
102
RTVSPost2010PropOp37
 70
     1
102
RTVSPost2010Prop38
140
0.0
102
RTVSPost2010PropOp38
 70
     1
102
RTVSPost2010Prop39
140
1.0
102
RTVSPost2010PropOp39
 70
     1
102
RTVSPost2010Prop40
 90
        0
102
RTVSPost2010PropOp40
 70
     1
102
RTVSPost2010Prop41ColorIndex
 90
       18
102
RTVSPost2010Prop41ColorRGB
 90
        0
102
RTVSPost2010PropOp41
 70
     1
102
RTVSPost2010Prop42
 90
       50
102
RTVSPost2010PropOp42
 70
     1
102
RTVSPost2010Prop43
 90
        3
102
RTVSPost2010PropOp43
 70
     1
102
RTVSPost2010Prop44ColorIndex
 90
        5
102
RTVSPost2010Prop44ColorRGB
 90
      255
102
RTVSPost2010PropOp44
 70
     1
102
RTVSPost2010Prop45
280
     0
102
RTVSPost2010PropOp45
 70
     1
102
RTVSPost2010Prop46
 90
       50
102
RTVSPost2010PropOp46
 70
     1
102
RTVSPost2010Prop47
 90
       50
102
RTVSPost2010PropOp47
 70
     1
102
RTVSPost2010Prop48
 90
       50
102
RTVSPost2010PropOp48
 70
     1
102
RTVSPost2010Prop49
280
     0
102
RTVSPost2010PropOp49
 70
     1
102
RTVSPost2010Prop50
 90
       50
102
RTVSPost2010PropOp50
 70
     1
102
RTVSPost2010Prop51ColorIndex
 90
      256
102
RTVSPost2010Prop51ColorRGB
 90
-16777216
102
RTVSPost2010PropOp51
 70
     0
102
RTVSPost2010Prop52
140
1.0
102
RTVSPost2010PropOp52
 70
     0
102
RTVSPost2010Prop53
 90
        2
102
RTVSPost2010PropOp53
 70
     1
102
RTVSPost2010Prop54
  1
strokes_ogs.tif
102
RTVSPost2010PropOp54
 70
     1
102
RTVSPost2010Prop55
280
     0
102
RTVSPost2010PropOp55
 70
     1
102
RTVSPost2010Prop56
140
1.0
102
RTVSPost2010PropOp56
 70
     1
102
RTVSPost2010Prop57
140
1.0
102
RTVSPost2010PropOp57
 70
     1
102
RTVSPropertyOp0
 70
     1
102
RTVSPropertyOp1
 70
     1
102
RTVSPropertyOp2
 70
     1
102
RTVSPropertyOp3
 70
     1
102
RTVSPropertyOp4
 70
     1
102
RTVSPropertyOp5
 70
     1
102
RTVSPropertyOp6
 70
     1
102
RTVSPropertyOp7
 70
     1
102
RTVSPropertyOp8
 70
     1
102
RTVSPropertyOp9
 70
     1
102
RTVSPropertyOp10
 70
     1
102
RTVSPropertyOp11
 70
     1
102
RTVSPropertyOp12
 70
     1
102
RTVSPropertyOp13
 70
     1
102
RTVSPropertyOp14
 70
     1
102
RTVSPropertyOp15
 70
     1
102
RTVSPropertyOp16
 70
     1
102
RTVSPropertyOp17
 70
     1
102
RTVSPropertyOp18
 70
     1
102
RTVSPropertyOp19
 70
     1
102
RTVSPropertyOp20
 70
     1
102
RTVSPropertyOp21
 70
     1
102
RTVSPropertyOp22
 70
     1
102
RTVSPropertyOp23
 70
     1
102
RTVSPropertyOp24
 70
     1
102
RTVSPropertyOp25
 70
     1
102
RTVSPropertyOp26
 70
     1
102
RTVSPropertyOp27
 70
     1
102
RTVSPropertyOp28
 70
     1
102
RTVSPropertyOp29
 70
     1
102
RTVSPropertyOp30
 70
     1
102
RTVSPropertyOp31
 70
     1
102
RTVSPropertyOp32
 70
     1
102
RTVSPropertyOp33
 70
     1
102
RTVSPropertyOp34
 70
     1
102
RTVSPropertyOp35
 70
     1
102
RTVSPropertyOp36
 70
     1
102
RTVSPropertyOp37
 70
     1
102
RTVSPropertyOp38
 70
     1
102
RTVSPropertyOp39
 70
     1
102
RTVSPropertyOp40
 70
     1
102
RTVSPropertyOp41
 70
     1
102
RTVSPropertyOp42
 70
     1
102
RTVSPropertyOp43
 70
     1
102
RTVSPropertyOp44
 70
     1
102
RTVSPropertyOp45
 70
     1
102
RTVSPropertyOp46
 70
     1
102
RTVSPropertyOp47
 70
     1
102
RTVSPropertyOp48
 70
     1
102
RTVSPropertyOp49
 70
     1
102
RTVSPropertyOp50
 70
     1
102
RTVSPropertyOp51
 70
     0
102
RTVSPropertyOp52
 70
     0
102
RTVSPropertyOp53
 70
     1
102
RTVSPropertyOp54
 70
     1
102
RTVSPropertyOp55
 70
     1
102
RTVSPropertyOp56
 70
     1
102
RTVSPropertyOp57
 70
     1
102
RTVSPropertyOp58
 70
     1
102
RTVSPropertyOp59
 70
     1
102
RTVSPropertyOp60
 70
     1
102
RTVSPropertyOp61
 70
     1
102
RTVSPropertyOp62
 70
     1
  0
XRECORD
  5
98C2
102
{ACAD_REACTORS
330
98C1
102
}
330
98C1
100
AcDbXrecord
280
     1
102
RTVSPost2010Prop28
280
     0
102
RTVSPost2010PropOp28
 70
     1
102
RTVSPost2010Prop29
280
     1
102
RTVSPost2010PropOp29
 70
     1
102
RTVSPost2010Prop30
280
     1
102
RTVSPost2010PropOp30
 70
     1
102
RTVSPost2010Prop31
280
     0
102
RTVSPost2010PropOp31
 70
     1
102
RTVSPost2010Prop32
280
     0
102
RTVSPost2010PropOp32
 70
     1
102
RTVSPost2010Prop33
280
     0
102
RTVSPost2010PropOp33
 70
     1
102
RTVSPost2010Prop34
280
     0
102
RTVSPost2010PropOp34
 70
     1
102
RTVSPost2010Prop35
280
     0
102
RTVSPost2010PropOp35
 70
     1
102
RTVSPost2010Prop36
280
     0
102
RTVSPost2010PropOp36
 70
     1
102
RTVSPost2010Prop37
 90
       50
102
RTVSPost2010PropOp37
 70
     1
102
RTVSPost2010Prop38
140
0.0
102
RTVSPost2010PropOp38
 70
     1
102
RTVSPost2010Prop39
140
1.0
102
RTVSPost2010PropOp39
 70
     1
102
RTVSPost2010Prop40
 90
        0
102
RTVSPost2010PropOp40
 70
     1
102
RTVSPost2010Prop41ColorIndex
 90
       18
102
RTVSPost2010Prop41ColorRGB
 90
        0
102
RTVSPost2010PropOp41
 70
     1
102
RTVSPost2010Prop42
 90
       50
102
RTVSPost2010PropOp42
 70
     1
102
RTVSPost2010Prop43
 90
        3
102
RTVSPost2010PropOp43
 70
     1
102
RTVSPost2010Prop44ColorIndex
 90
        5
102
RTVSPost2010Prop44ColorRGB
 90
      255
102
RTVSPost2010PropOp44
 70
     1
102
RTVSPost2010Prop45
280
     0
102
RTVSPost2010PropOp45
 70
     1
102
RTVSPost2010Prop46
 90
       50
102
RTVSPost2010PropOp46
 70
     1
102
RTVSPost2010Prop47
 90
       50
102
RTVSPost2010PropOp47
 70
     1
102
RTVSPost2010Prop48
 90
       50
102
RTVSPost2010PropOp48
 70
     1
102
RTVSPost2010Prop49
280
     0
102
RTVSPost2010PropOp49
 70
     1
102
RTVSPost2010Prop50
 90
       50
102
RTVSPost2010PropOp50
 70
     1
102
RTVSPost2010Prop51ColorIndex
 90
      256
102
RTVSPost2010Prop51ColorRGB
 90
-16777216
102
RTVSPost2010PropOp51
 70
     0
102
RTVSPost2010Prop52
140
1.0
102
RTVSPost2010PropOp52
 70
     0
102
RTVSPost2010Prop53
 90
        2
102
RTVSPost2010PropOp53
 70
     1
102
RTVSPost2010Prop54
  1
strokes_ogs.tif
102
RTVSPost2010PropOp54
 70
     1
102
RTVSPost2010Prop55
280
     0
102
RTVSPost2010PropOp55
 70
     1
102
RTVSPost2010Prop56
140
1.0
102
RTVSPost2010PropOp56
 70
     1
102
RTVSPost2010Prop57
140
1.0
102
RTVSPost2010PropOp57
 70
     1
102
RTVSPropertyOp0
 70
     1
102
RTVSPropertyOp1
 70
     1
102
RTVSPropertyOp2
 70
     1
102
RTVSPropertyOp3
 70
     1
102
RTVSPropertyOp4
 70
     1
102
RTVSPropertyOp5
 70
     1
102
RTVSPropertyOp6
 70
     1
102
RTVSPropertyOp7
 70
     1
102
RTVSPropertyOp8
 70
     1
102
RTVSPropertyOp9
 70
     1
102
RTVSPropertyOp10
 70
     1
102
RTVSPropertyOp11
 70
     1
102
RTVSPropertyOp12
 70
     1
102
RTVSPropertyOp13
 70
     1
102
RTVSPropertyOp14
 70
     1
102
RTVSPropertyOp15
 70
     1
102
RTVSPropertyOp16
 70
     1
102
RTVSPropertyOp17
 70
     1
102
RTVSPropertyOp18
 70
     1
102
RTVSPropertyOp19
 70
     1
102
RTVSPropertyOp20
 70
     1
102
RTVSPropertyOp21
 70
     1
102
RTVSPropertyOp22
 70
     1
102
RTVSPropertyOp23
 70
     1
102
RTVSPropertyOp24
 70
     1
102
RTVSPropertyOp25
 70
     1
102
RTVSPropertyOp26
 70
     1
102
RTVSPropertyOp27
 70
     1
102
RTVSPropertyOp28
 70
     1
102
RTVSPropertyOp29
 70
     1
102
RTVSPropertyOp30
 70
     1
102
RTVSPropertyOp31
 70
     1
102
RTVSPropertyOp32
 70
     1
102
RTVSPropertyOp33
 70
     1
102
RTVSPropertyOp34
 70
     1
102
RTVSPropertyOp35
 70
     1
102
RTVSPropertyOp36
 70
     1
102
RTVSPropertyOp37
 70
     1
102
RTVSPropertyOp38
 70
     1
102
RTVSPropertyOp39
 70
     1
102
RTVSPropertyOp40
 70
     1
102
RTVSPropertyOp41
 70
     1
102
RTVSPropertyOp42
 70
     1
102
RTVSPropertyOp43
 70
     1
102
RTVSPropertyOp44
 70
     1
102
RTVSPropertyOp45
 70
     1
102
RTVSPropertyOp46
 70
     1
102
RTVSPropertyOp47
 70
     1
102
RTVSPropertyOp48
 70
     1
102
RTVSPropertyOp49
 70
     1
102
RTVSPropertyOp50
 70
     1
102
RTVSPropertyOp51
 70
     0
102
RTVSPropertyOp52
 70
     0
102
RTVSPropertyOp53
 70
     1
102
RTVSPropertyOp54
 70
     1
102
RTVSPropertyOp55
 70
     1
102
RTVSPropertyOp56
 70
     1
102
RTVSPropertyOp57
 70
     1
102
RTVSPropertyOp58
 70
     1
102
RTVSPropertyOp59
 70
     1
102
RTVSPropertyOp60
 70
     1
102
RTVSPropertyOp61
 70
     1
102
RTVSPropertyOp62
 70
     1
  0
XRECORD
  5
98C0
102
{ACAD_REACTORS
330
98BF
102
}
330
98BF
100
AcDbXrecord
280
     1
102
RTVSPost2010Prop28
280
     0
102
RTVSPost2010PropOp28
 70
     1
102
RTVSPost2010Prop29
280
     1
102
RTVSPost2010PropOp29
 70
     1
102
RTVSPost2010Prop30
280
     1
102
RTVSPost2010PropOp30
 70
     1
102
RTVSPost2010Prop31
280
     0
102
RTVSPost2010PropOp31
 70
     1
102
RTVSPost2010Prop32
280
     0
102
RTVSPost2010PropOp32
 70
     1
102
RTVSPost2010Prop33
280
     0
102
RTVSPost2010PropOp33
 70
     1
102
RTVSPost2010Prop34
280
     0
102
RTVSPost2010PropOp34
 70
     1
102
RTVSPost2010Prop35
280
     0
102
RTVSPost2010PropOp35
 70
     1
102
RTVSPost2010Prop36
280
     0
102
RTVSPost2010PropOp36
 70
     1
102
RTVSPost2010Prop37
 90
       50
102
RTVSPost2010PropOp37
 70
     1
102
RTVSPost2010Prop38
140
0.0
102
RTVSPost2010PropOp38
 70
     1
102
RTVSPost2010Prop39
140
1.0
102
RTVSPost2010PropOp39
 70
     1
102
RTVSPost2010Prop40
 90
        0
102
RTVSPost2010PropOp40
 70
     1
102
RTVSPost2010Prop41ColorIndex
 90
       18
102
RTVSPost2010Prop41ColorRGB
 90
        0
102
RTVSPost2010PropOp41
 70
     1
102
RTVSPost2010Prop42
 90
       50
102
RTVSPost2010PropOp42
 70
     1
102
RTVSPost2010Prop43
 90
        3
102
RTVSPost2010PropOp43
 70
     1
102
RTVSPost2010Prop44ColorIndex
 90
        5
102
RTVSPost2010Prop44ColorRGB
 90
      255
102
RTVSPost2010PropOp44
 70
     1
102
RTVSPost2010Prop45
280
     0
102
RTVSPost2010PropOp45
 70
     1
102
RTVSPost2010Prop46
 90
       50
102
RTVSPost2010PropOp46
 70
     1
102
RTVSPost2010Prop47
 90
       50
102
RTVSPost2010PropOp47
 70
     1
102
RTVSPost2010Prop48
 90
       50
102
RTVSPost2010PropOp48
 70
     1
102
RTVSPost2010Prop49
280
     0
102
RTVSPost2010PropOp49
 70
     1
102
RTVSPost2010Prop50
 90
       50
102
RTVSPost2010PropOp50
 70
     1
102
RTVSPost2010Prop51ColorIndex
 90
      256
102
RTVSPost2010Prop51ColorRGB
 90
-16777216
102
RTVSPost2010PropOp51
 70
     0
102
RTVSPost2010Prop52
140
1.0
102
RTVSPost2010PropOp52
 70
     0
102
RTVSPost2010Prop53
 90
        2
102
RTVSPost2010PropOp53
 70
     1
102
RTVSPost2010Prop54
  1
strokes_ogs.tif
102
RTVSPost2010PropOp54
 70
     1
102
RTVSPost2010Prop55
280
     0
102
RTVSPost2010PropOp55
 70
     1
102
RTVSPost2010Prop56
140
1.0
102
RTVSPost2010PropOp56
 70
     1
102
RTVSPost2010Prop57
140
1.0
102
RTVSPost2010PropOp57
 70
     1
102
RTVSPropertyOp0
 70
     1
102
RTVSPropertyOp1
 70
     1
102
RTVSPropertyOp2
 70
     1
102
RTVSPropertyOp3
 70
     1
102
RTVSPropertyOp4
 70
     1
102
RTVSPropertyOp5
 70
     1
102
RTVSPropertyOp6
 70
     1
102
RTVSPropertyOp7
 70
     1
102
RTVSPropertyOp8
 70
     1
102
RTVSPropertyOp9
 70
     1
102
RTVSPropertyOp10
 70
     1
102
RTVSPropertyOp11
 70
     1
102
RTVSPropertyOp12
 70
     1
102
RTVSPropertyOp13
 70
     1
102
RTVSPropertyOp14
 70
     1
102
RTVSPropertyOp15
 70
     1
102
RTVSPropertyOp16
 70
     1
102
RTVSPropertyOp17
 70
     1
102
RTVSPropertyOp18
 70
     1
102
RTVSPropertyOp19
 70
     1
102
RTVSPropertyOp20
 70
     1
102
RTVSPropertyOp21
 70
     1
102
RTVSPropertyOp22
 70
     1
102
RTVSPropertyOp23
 70
     1
102
RTVSPropertyOp24
 70
     1
102
RTVSPropertyOp25
 70
     1
102
RTVSPropertyOp26
 70
     1
102
RTVSPropertyOp27
 70
     1
102
RTVSPropertyOp28
 70
     1
102
RTVSPropertyOp29
 70
     1
102
RTVSPropertyOp30
 70
     1
102
RTVSPropertyOp31
 70
     1
102
RTVSPropertyOp32
 70
     1
102
RTVSPropertyOp33
 70
     1
102
RTVSPropertyOp34
 70
     1
102
RTVSPropertyOp35
 70
     1
102
RTVSPropertyOp36
 70
     1
102
RTVSPropertyOp37
 70
     1
102
RTVSPropertyOp38
 70
     1
102
RTVSPropertyOp39
 70
     1
102
RTVSPropertyOp40
 70
     1
102
RTVSPropertyOp41
 70
     1
102
RTVSPropertyOp42
 70
     1
102
RTVSPropertyOp43
 70
     1
102
RTVSPropertyOp44
 70
     1
102
RTVSPropertyOp45
 70
     1
102
RTVSPropertyOp46
 70
     1
102
RTVSPropertyOp47
 70
     1
102
RTVSPropertyOp48
 70
     1
102
RTVSPropertyOp49
 70
     1
102
RTVSPropertyOp50
 70
     1
102
RTVSPropertyOp51
 70
     0
102
RTVSPropertyOp52
 70
     0
102
RTVSPropertyOp53
 70
     1
102
RTVSPropertyOp54
 70
     1
102
RTVSPropertyOp55
 70
     1
102
RTVSPropertyOp56
 70
     1
102
RTVSPropertyOp57
 70
     1
102
RTVSPropertyOp58
 70
     1
102
RTVSPropertyOp59
 70
     1
102
RTVSPropertyOp60
 70
     1
102
RTVSPropertyOp61
 70
     1
102
RTVSPropertyOp62
 70
     1
  0
XRECORD
  5
98BA
102
{ACAD_REACTORS
330
98B9
102
}
330
98B9
100
AcDbXrecord
280
     1
102
RTVSPost2010Prop28
280
     0
102
RTVSPost2010PropOp28
 70
     1
102
RTVSPost2010Prop29
280
     1
102
RTVSPost2010PropOp29
 70
     1
102
RTVSPost2010Prop30
280
     1
102
RTVSPost2010PropOp30
 70
     1
102
RTVSPost2010Prop31
280
     0
102
RTVSPost2010PropOp31
 70
     1
102
RTVSPost2010Prop32
280
     0
102
RTVSPost2010PropOp32
 70
     1
102
RTVSPost2010Prop33
280
     0
102
RTVSPost2010PropOp33
 70
     1
102
RTVSPost2010Prop34
280
     0
102
RTVSPost2010PropOp34
 70
     1
102
RTVSPost2010Prop35
280
     0
102
RTVSPost2010PropOp35
 70
     1
102
RTVSPost2010Prop36
280
     0
102
RTVSPost2010PropOp36
 70
     1
102
RTVSPost2010Prop37
 90
       50
102
RTVSPost2010PropOp37
 70
     1
102
RTVSPost2010Prop38
140
0.0
102
RTVSPost2010PropOp38
 70
     1
102
RTVSPost2010Prop39
140
1.0
102
RTVSPost2010PropOp39
 70
     1
102
RTVSPost2010Prop40
 90
        0
102
RTVSPost2010PropOp40
 70
     1
102
RTVSPost2010Prop41ColorIndex
 90
       18
102
RTVSPost2010Prop41ColorRGB
 90
        0
102
RTVSPost2010PropOp41
 70
     1
102
RTVSPost2010Prop42
 90
       50
102
RTVSPost2010PropOp42
 70
     1
102
RTVSPost2010Prop43
 90
        3
102
RTVSPost2010PropOp43
 70
     1
102
RTVSPost2010Prop44ColorIndex
 90
        5
102
RTVSPost2010Prop44ColorRGB
 90
      255
102
RTVSPost2010PropOp44
 70
     1
102
RTVSPost2010Prop45
280
     0
102
RTVSPost2010PropOp45
 70
     1
102
RTVSPost2010Prop46
 90
       50
102
RTVSPost2010PropOp46
 70
     1
102
RTVSPost2010Prop47
 90
       50
102
RTVSPost2010PropOp47
 70
     1
102
RTVSPost2010Prop48
 90
       50
102
RTVSPost2010PropOp48
 70
     1
102
RTVSPost2010Prop49
280
     0
102
RTVSPost2010PropOp49
 70
     1
102
RTVSPost2010Prop50
 90
       50
102
RTVSPost2010PropOp50
 70
     1
102
RTVSPost2010Prop51ColorIndex
 90
      256
102
RTVSPost2010Prop51ColorRGB
 90
-16777216
102
RTVSPost2010PropOp51
 70
     0
102
RTVSPost2010Prop52
140
1.0
102
RTVSPost2010PropOp52
 70
     0
102
RTVSPost2010Prop53
 90
        2
102
RTVSPost2010PropOp53
 70
     1
102
RTVSPost2010Prop54
  1
strokes_ogs.tif
102
RTVSPost2010PropOp54
 70
     1
102
RTVSPost2010Prop55
280
     0
102
RTVSPost2010PropOp55
 70
     1
102
RTVSPost2010Prop56
140
1.0
102
RTVSPost2010PropOp56
 70
     1
102
RTVSPost2010Prop57
140
1.0
102
RTVSPost2010PropOp57
 70
     1
102
RTVSPropertyOp0
 70
     1
102
RTVSPropertyOp1
 70
     1
102
RTVSPropertyOp2
 70
     1
102
RTVSPropertyOp3
 70
     1
102
RTVSPropertyOp4
 70
     1
102
RTVSPropertyOp5
 70
     1
102
RTVSPropertyOp6
 70
     1
102
RTVSPropertyOp7
 70
     1
102
RTVSPropertyOp8
 70
     1
102
RTVSPropertyOp9
 70
     1
102
RTVSPropertyOp10
 70
     1
102
RTVSPropertyOp11
 70
     1
102
RTVSPropertyOp12
 70
     1
102
RTVSPropertyOp13
 70
     1
102
RTVSPropertyOp14
 70
     1
102
RTVSPropertyOp15
 70
     1
102
RTVSPropertyOp16
 70
     1
102
RTVSPropertyOp17
 70
     1
102
RTVSPropertyOp18
 70
     1
102
RTVSPropertyOp19
 70
     1
102
RTVSPropertyOp20
 70
     1
102
RTVSPropertyOp21
 70
     1
102
RTVSPropertyOp22
 70
     1
102
RTVSPropertyOp23
 70
     1
102
RTVSPropertyOp24
 70
     1
102
RTVSPropertyOp25
 70
     1
102
RTVSPropertyOp26
 70
     1
102
RTVSPropertyOp27
 70
     1
102
RTVSPropertyOp28
 70
     1
102
RTVSPropertyOp29
 70
     1
102
RTVSPropertyOp30
 70
     1
102
RTVSPropertyOp31
 70
     1
102
RTVSPropertyOp32
 70
     1
102
RTVSPropertyOp33
 70
     1
102
RTVSPropertyOp34
 70
     1
102
RTVSPropertyOp35
 70
     1
102
RTVSPropertyOp36
 70
     1
102
RTVSPropertyOp37
 70
     1
102
RTVSPropertyOp38
 70
     1
102
RTVSPropertyOp39
 70
     1
102
RTVSPropertyOp40
 70
     1
102
RTVSPropertyOp41
 70
     1
102
RTVSPropertyOp42
 70
     1
102
RTVSPropertyOp43
 70
     1
102
RTVSPropertyOp44
 70
     1
102
RTVSPropertyOp45
 70
     1
102
RTVSPropertyOp46
 70
     1
102
RTVSPropertyOp47
 70
     1
102
RTVSPropertyOp48
 70
     1
102
RTVSPropertyOp49
 70
     1
102
RTVSPropertyOp50
 70
     1
102
RTVSPropertyOp51
 70
     0
102
RTVSPropertyOp52
 70
     0
102
RTVSPropertyOp53
 70
     1
102
RTVSPropertyOp54
 70
     1
102
RTVSPropertyOp55
 70
     1
102
RTVSPropertyOp56
 70
     1
102
RTVSPropertyOp57
 70
     1
102
RTVSPropertyOp58
 70
     1
102
RTVSPropertyOp59
 70
     1
102
RTVSPropertyOp60
 70
     1
102
RTVSPropertyOp61
 70
     1
102
RTVSPropertyOp62
 70
     1
  0
XRECORD
  5
98BC
102
{ACAD_REACTORS
330
98BB
102
}
330
98BB
100
AcDbXrecord
280
     1
102
RTVSPost2010Prop28
280
     0
102
RTVSPost2010PropOp28
 70
     1
102
RTVSPost2010Prop29
280
     1
102
RTVSPost2010PropOp29
 70
     1
102
RTVSPost2010Prop30
280
     1
102
RTVSPost2010PropOp30
 70
     1
102
RTVSPost2010Prop31
280
     0
102
RTVSPost2010PropOp31
 70
     1
102
RTVSPost2010Prop32
280
     0
102
RTVSPost2010PropOp32
 70
     1
102
RTVSPost2010Prop33
280
     0
102
RTVSPost2010PropOp33
 70
     1
102
RTVSPost2010Prop34
280
     0
102
RTVSPost2010PropOp34
 70
     1
102
RTVSPost2010Prop35
280
     0
102
RTVSPost2010PropOp35
 70
     1
102
RTVSPost2010Prop36
280
     0
102
RTVSPost2010PropOp36
 70
     1
102
RTVSPost2010Prop37
 90
       50
102
RTVSPost2010PropOp37
 70
     1
102
RTVSPost2010Prop38
140
0.0
102
RTVSPost2010PropOp38
 70
     1
102
RTVSPost2010Prop39
140
1.0
102
RTVSPost2010PropOp39
 70
     1
102
RTVSPost2010Prop40
 90
        0
102
RTVSPost2010PropOp40
 70
     1
102
RTVSPost2010Prop41ColorIndex
 90
       18
102
RTVSPost2010Prop41ColorRGB
 90
        0
102
RTVSPost2010PropOp41
 70
     1
102
RTVSPost2010Prop42
 90
       50
102
RTVSPost2010PropOp42
 70
     1
102
RTVSPost2010Prop43
 90
        3
102
RTVSPost2010PropOp43
 70
     1
102
RTVSPost2010Prop44ColorIndex
 90
        5
102
RTVSPost2010Prop44ColorRGB
 90
      255
102
RTVSPost2010PropOp44
 70
     1
102
RTVSPost2010Prop45
280
     0
102
RTVSPost2010PropOp45
 70
     1
102
RTVSPost2010Prop46
 90
       50
102
RTVSPost2010PropOp46
 70
     1
102
RTVSPost2010Prop47
 90
       50
102
RTVSPost2010PropOp47
 70
     1
102
RTVSPost2010Prop48
 90
       50
102
RTVSPost2010PropOp48
 70
     1
102
RTVSPost2010Prop49
280
     0
102
RTVSPost2010PropOp49
 70
     1
102
RTVSPost2010Prop50
 90
       50
102
RTVSPost2010PropOp50
 70
     1
102
RTVSPost2010Prop51ColorIndex
 90
      256
102
RTVSPost2010Prop51ColorRGB
 90
-16777216
102
RTVSPost2010PropOp51
 70
     0
102
RTVSPost2010Prop52
140
1.0
102
RTVSPost2010PropOp52
 70
     0
102
RTVSPost2010Prop53
 90
        2
102
RTVSPost2010PropOp53
 70
     1
102
RTVSPost2010Prop54
  1
strokes_ogs.tif
102
RTVSPost2010PropOp54
 70
     1
102
RTVSPost2010Prop55
280
     0
102
RTVSPost2010PropOp55
 70
     1
102
RTVSPost2010Prop56
140
1.0
102
RTVSPost2010PropOp56
 70
     1
102
RTVSPost2010Prop57
140
1.0
102
RTVSPost2010PropOp57
 70
     1
102
RTVSPropertyOp0
 70
     1
102
RTVSPropertyOp1
 70
     1
102
RTVSPropertyOp2
 70
     1
102
RTVSPropertyOp3
 70
     1
102
RTVSPropertyOp4
 70
     1
102
RTVSPropertyOp5
 70
     1
102
RTVSPropertyOp6
 70
     1
102
RTVSPropertyOp7
 70
     1
102
RTVSPropertyOp8
 70
     1
102
RTVSPropertyOp9
 70
     1
102
RTVSPropertyOp10
 70
     1
102
RTVSPropertyOp11
 70
     1
102
RTVSPropertyOp12
 70
     1
102
RTVSPropertyOp13
 70
     1
102
RTVSPropertyOp14
 70
     1
102
RTVSPropertyOp15
 70
     1
102
RTVSPropertyOp16
 70
     1
102
RTVSPropertyOp17
 70
     1
102
RTVSPropertyOp18
 70
     1
102
RTVSPropertyOp19
 70
     1
102
RTVSPropertyOp20
 70
     1
102
RTVSPropertyOp21
 70
     1
102
RTVSPropertyOp22
 70
     1
102
RTVSPropertyOp23
 70
     1
102
RTVSPropertyOp24
 70
     1
102
RTVSPropertyOp25
 70
     1
102
RTVSPropertyOp26
 70
     1
102
RTVSPropertyOp27
 70
     1
102
RTVSPropertyOp28
 70
     1
102
RTVSPropertyOp29
 70
     1
102
RTVSPropertyOp30
 70
     1
102
RTVSPropertyOp31
 70
     1
102
RTVSPropertyOp32
 70
     1
102
RTVSPropertyOp33
 70
     1
102
RTVSPropertyOp34
 70
     1
102
RTVSPropertyOp35
 70
     1
102
RTVSPropertyOp36
 70
     1
102
RTVSPropertyOp37
 70
     1
102
RTVSPropertyOp38
 70
     1
102
RTVSPropertyOp39
 70
     1
102
RTVSPropertyOp40
 70
     1
102
RTVSPropertyOp41
 70
     1
102
RTVSPropertyOp42
 70
     1
102
RTVSPropertyOp43
 70
     1
102
RTVSPropertyOp44
 70
     1
102
RTVSPropertyOp45
 70
     1
102
RTVSPropertyOp46
 70
     1
102
RTVSPropertyOp47
 70
     1
102
RTVSPropertyOp48
 70
     1
102
RTVSPropertyOp49
 70
     1
102
RTVSPropertyOp50
 70
     1
102
RTVSPropertyOp51
 70
     0
102
RTVSPropertyOp52
 70
     0
102
RTVSPropertyOp53
 70
     1
102
RTVSPropertyOp54
 70
     1
102
RTVSPropertyOp55
 70
     1
102
RTVSPropertyOp56
 70
     1
102
RTVSPropertyOp57
 70
     1
102
RTVSPropertyOp58
 70
     1
102
RTVSPropertyOp59
 70
     1
102
RTVSPropertyOp60
 70
     1
102
RTVSPropertyOp61
 70
     1
102
RTVSPropertyOp62
 70
     1
  0
XRECORD
  5
98B2
102
{ACAD_REACTORS
330
98B1
102
}
330
98B1
100
AcDbXrecord
280
     1
102
RTVSPost2010Prop28
280
     0
102
RTVSPost2010PropOp28
 70
     1
102
RTVSPost2010Prop29
280
     1
102
RTVSPost2010PropOp29
 70
     1
102
RTVSPost2010Prop30
280
     1
102
RTVSPost2010PropOp30
 70
     1
102
RTVSPost2010Prop31
280
     0
102
RTVSPost2010PropOp31
 70
     1
102
RTVSPost2010Prop32
280
     0
102
RTVSPost2010PropOp32
 70
     1
102
RTVSPost2010Prop33
280
     0
102
RTVSPost2010PropOp33
 70
     1
102
RTVSPost2010Prop34
280
     0
102
RTVSPost2010PropOp34
 70
     1
102
RTVSPost2010Prop35
280
     0
102
RTVSPost2010PropOp35
 70
     1
102
RTVSPost2010Prop36
280
     0
102
RTVSPost2010PropOp36
 70
     1
102
RTVSPost2010Prop37
 90
       50
102
RTVSPost2010PropOp37
 70
     1
102
RTVSPost2010Prop38
140
0.0
102
RTVSPost2010PropOp38
 70
     1
102
RTVSPost2010Prop39
140
1.0
102
RTVSPost2010PropOp39
 70
     1
102
RTVSPost2010Prop40
 90
        0
102
RTVSPost2010PropOp40
 70
     1
102
RTVSPost2010Prop41ColorIndex
 90
       18
102
RTVSPost2010Prop41ColorRGB
 90
        0
102
RTVSPost2010PropOp41
 70
     1
102
RTVSPost2010Prop42
 90
       50
102
RTVSPost2010PropOp42
 70
     1
102
RTVSPost2010Prop43
 90
        3
102
RTVSPost2010PropOp43
 70
     1
102
RTVSPost2010Prop44ColorIndex
 90
        5
102
RTVSPost2010Prop44ColorRGB
 90
      255
102
RTVSPost2010PropOp44
 70
     1
102
RTVSPost2010Prop45
280
     0
102
RTVSPost2010PropOp45
 70
     1
102
RTVSPost2010Prop46
 90
       50
102
RTVSPost2010PropOp46
 70
     1
102
RTVSPost2010Prop47
 90
       50
102
RTVSPost2010PropOp47
 70
     1
102
RTVSPost2010Prop48
 90
       50
102
RTVSPost2010PropOp48
 70
     1
102
RTVSPost2010Prop49
280
     0
102
RTVSPost2010PropOp49
 70
     1
102
RTVSPost2010Prop50
 90
       50
102
RTVSPost2010PropOp50
 70
     1
102
RTVSPost2010Prop51ColorIndex
 90
      256
102
RTVSPost2010Prop51ColorRGB
 90
-16777216
102
RTVSPost2010PropOp51
 70
     0
102
RTVSPost2010Prop52
140
1.0
102
RTVSPost2010PropOp52
 70
     0
102
RTVSPost2010Prop53
 90
        2
102
RTVSPost2010PropOp53
 70
     1
102
RTVSPost2010Prop54
  1
strokes_ogs.tif
102
RTVSPost2010PropOp54
 70
     1
102
RTVSPost2010Prop55
280
     0
102
RTVSPost2010PropOp55
 70
     1
102
RTVSPost2010Prop56
140
1.0
102
RTVSPost2010PropOp56
 70
     1
102
RTVSPost2010Prop57
140
1.0
102
RTVSPost2010PropOp57
 70
     1
102
RTVSPropertyOp0
 70
     1
102
RTVSPropertyOp1
 70
     1
102
RTVSPropertyOp2
 70
     1
102
RTVSPropertyOp3
 70
     1
102
RTVSPropertyOp4
 70
     1
102
RTVSPropertyOp5
 70
     1
102
RTVSPropertyOp6
 70
     1
102
RTVSPropertyOp7
 70
     1
102
RTVSPropertyOp8
 70
     1
102
RTVSPropertyOp9
 70
     1
102
RTVSPropertyOp10
 70
     1
102
RTVSPropertyOp11
 70
     1
102
RTVSPropertyOp12
 70
     1
102
RTVSPropertyOp13
 70
     1
102
RTVSPropertyOp14
 70
     1
102
RTVSPropertyOp15
 70
     1
102
RTVSPropertyOp16
 70
     1
102
RTVSPropertyOp17
 70
     1
102
RTVSPropertyOp18
 70
     1
102
RTVSPropertyOp19
 70
     1
102
RTVSPropertyOp20
 70
     1
102
RTVSPropertyOp21
 70
     1
102
RTVSPropertyOp22
 70
     1
102
RTVSPropertyOp23
 70
     1
102
RTVSPropertyOp24
 70
     1
102
RTVSPropertyOp25
 70
     1
102
RTVSPropertyOp26
 70
     1
102
RTVSPropertyOp27
 70
     1
102
RTVSPropertyOp28
 70
     1
102
RTVSPropertyOp29
 70
     1
102
RTVSPropertyOp30
 70
     1
102
RTVSPropertyOp31
 70
     1
102
RTVSPropertyOp32
 70
     1
102
RTVSPropertyOp33
 70
     1
102
RTVSPropertyOp34
 70
     1
102
RTVSPropertyOp35
 70
     1
102
RTVSPropertyOp36
 70
     1
102
RTVSPropertyOp37
 70
     1
102
RTVSPropertyOp38
 70
     1
102
RTVSPropertyOp39
 70
     1
102
RTVSPropertyOp40
 70
     1
102
RTVSPropertyOp41
 70
     1
102
RTVSPropertyOp42
 70
     1
102
RTVSPropertyOp43
 70
     1
102
RTVSPropertyOp44
 70
     1
102
RTVSPropertyOp45
 70
     1
102
RTVSPropertyOp46
 70
     1
102
RTVSPropertyOp47
 70
     1
102
RTVSPropertyOp48
 70
     1
102
RTVSPropertyOp49
 70
     1
102
RTVSPropertyOp50
 70
     1
102
RTVSPropertyOp51
 70
     0
102
RTVSPropertyOp52
 70
     0
102
RTVSPropertyOp53
 70
     1
102
RTVSPropertyOp54
 70
     1
102
RTVSPropertyOp55
 70
     1
102
RTVSPropertyOp56
 70
     1
102
RTVSPropertyOp57
 70
     1
102
RTVSPropertyOp58
 70
     1
102
RTVSPropertyOp59
 70
     1
102
RTVSPropertyOp60
 70
     1
102
RTVSPropertyOp61
 70
     1
102
RTVSPropertyOp62
 70
     1
  0
XRECORD
  5
98A6
102
{ACAD_REACTORS
330
98A5
102
}
330
98A5
100
AcDbXrecord
280
     1
102
RTVSPost2010Prop28
280
     0
102
RTVSPost2010PropOp28
 70
     1
102
RTVSPost2010Prop29
280
     1
102
RTVSPost2010PropOp29
 70
     1
102
RTVSPost2010Prop30
280
     1
102
RTVSPost2010PropOp30
 70
     1
102
RTVSPost2010Prop31
280
     0
102
RTVSPost2010PropOp31
 70
     1
102
RTVSPost2010Prop32
280
     0
102
RTVSPost2010PropOp32
 70
     1
102
RTVSPost2010Prop33
280
     0
102
RTVSPost2010PropOp33
 70
     1
102
RTVSPost2010Prop34
280
     0
102
RTVSPost2010PropOp34
 70
     1
102
RTVSPost2010Prop35
280
     0
102
RTVSPost2010PropOp35
 70
     1
102
RTVSPost2010Prop36
280
     0
102
RTVSPost2010PropOp36
 70
     1
102
RTVSPost2010Prop37
 90
       50
102
RTVSPost2010PropOp37
 70
     1
102
RTVSPost2010Prop38
140
0.0
102
RTVSPost2010PropOp38
 70
     1
102
RTVSPost2010Prop39
140
1.0
102
RTVSPost2010PropOp39
 70
     1
102
RTVSPost2010Prop40
 90
        0
102
RTVSPost2010PropOp40
 70
     1
102
RTVSPost2010Prop41ColorIndex
 90
       18
102
RTVSPost2010Prop41ColorRGB
 90
        0
102
RTVSPost2010PropOp41
 70
     1
102
RTVSPost2010Prop42
 90
       50
102
RTVSPost2010PropOp42
 70
     1
102
RTVSPost2010Prop43
 90
        3
102
RTVSPost2010PropOp43
 70
     1
102
RTVSPost2010Prop44ColorIndex
 90
        5
102
RTVSPost2010Prop44ColorRGB
 90
      255
102
RTVSPost2010PropOp44
 70
     1
102
RTVSPost2010Prop45
280
     0
102
RTVSPost2010PropOp45
 70
     1
102
RTVSPost2010Prop46
 90
       50
102
RTVSPost2010PropOp46
 70
     1
102
RTVSPost2010Prop47
 90
       50
102
RTVSPost2010PropOp47
 70
     1
102
RTVSPost2010Prop48
 90
       50
102
RTVSPost2010PropOp48
 70
     1
102
RTVSPost2010Prop49
280
     0
102
RTVSPost2010PropOp49
 70
     1
102
RTVSPost2010Prop50
 90
       50
102
RTVSPost2010PropOp50
 70
     1
102
RTVSPost2010Prop51ColorIndex
 90
      256
102
RTVSPost2010Prop51ColorRGB
 90
-16777216
102
RTVSPost2010PropOp51
 70
     0
102
RTVSPost2010Prop52
140
1.0
102
RTVSPost2010PropOp52
 70
     0
102
RTVSPost2010Prop53
 90
        2
102
RTVSPost2010PropOp53
 70
     1
102
RTVSPost2010Prop54
  1
strokes_ogs.tif
102
RTVSPost2010PropOp54
 70
     1
102
RTVSPost2010Prop55
280
     0
102
RTVSPost2010PropOp55
 70
     1
102
RTVSPost2010Prop56
140
1.0
102
RTVSPost2010PropOp56
 70
     1
102
RTVSPost2010Prop57
140
1.0
102
RTVSPost2010PropOp57
 70
     1
102
RTVSPropertyOp0
 70
     1
102
RTVSPropertyOp1
 70
     1
102
RTVSPropertyOp2
 70
     1
102
RTVSPropertyOp3
 70
     1
102
RTVSPropertyOp4
 70
     1
102
RTVSPropertyOp5
 70
     1
102
RTVSPropertyOp6
 70
     1
102
RTVSPropertyOp7
 70
     1
102
RTVSPropertyOp8
 70
     1
102
RTVSPropertyOp9
 70
     1
102
RTVSPropertyOp10
 70
     1
102
RTVSPropertyOp11
 70
     1
102
RTVSPropertyOp12
 70
     1
102
RTVSPropertyOp13
 70
     1
102
RTVSPropertyOp14
 70
     1
102
RTVSPropertyOp15
 70
     1
102
RTVSPropertyOp16
 70
     1
102
RTVSPropertyOp17
 70
     1
102
RTVSPropertyOp18
 70
     1
102
RTVSPropertyOp19
 70
     1
102
RTVSPropertyOp20
 70
     1
102
RTVSPropertyOp21
 70
     1
102
RTVSPropertyOp22
 70
     1
102
RTVSPropertyOp23
 70
     1
102
RTVSPropertyOp24
 70
     1
102
RTVSPropertyOp25
 70
     1
102
RTVSPropertyOp26
 70
     1
102
RTVSPropertyOp27
 70
     1
102
RTVSPropertyOp28
 70
     1
102
RTVSPropertyOp29
 70
     1
102
RTVSPropertyOp30
 70
     1
102
RTVSPropertyOp31
 70
     1
102
RTVSPropertyOp32
 70
     1
102
RTVSPropertyOp33
 70
     1
102
RTVSPropertyOp34
 70
     1
102
RTVSPropertyOp35
 70
     1
102
RTVSPropertyOp36
 70
     1
102
RTVSPropertyOp37
 70
     1
102
RTVSPropertyOp38
 70
     1
102
RTVSPropertyOp39
 70
     1
102
RTVSPropertyOp40
 70
     1
102
RTVSPropertyOp41
 70
     1
102
RTVSPropertyOp42
 70
     1
102
RTVSPropertyOp43
 70
     1
102
RTVSPropertyOp44
 70
     1
102
RTVSPropertyOp45
 70
     1
102
RTVSPropertyOp46
 70
     1
102
RTVSPropertyOp47
 70
     1
102
RTVSPropertyOp48
 70
     1
102
RTVSPropertyOp49
 70
     1
102
RTVSPropertyOp50
 70
     1
102
RTVSPropertyOp51
 70
     0
102
RTVSPropertyOp52
 70
     0
102
RTVSPropertyOp53
 70
     1
102
RTVSPropertyOp54
 70
     1
102
RTVSPropertyOp55
 70
     1
102
RTVSPropertyOp56
 70
     1
102
RTVSPropertyOp57
 70
     1
102
RTVSPropertyOp58
 70
     1
102
RTVSPropertyOp59
 70
     1
102
RTVSPropertyOp60
 70
     1
102
RTVSPropertyOp61
 70
     1
102
RTVSPropertyOp62
 70
     1
  0
XRECORD
  5
98BE
102
{ACAD_REACTORS
330
98BD
102
}
330
98BD
100
AcDbXrecord
280
     1
102
RTVSPost2010Prop28
280
     0
102
RTVSPost2010PropOp28
 70
     1
102
RTVSPost2010Prop29
280
     1
102
RTVSPost2010PropOp29
 70
     1
102
RTVSPost2010Prop30
280
     1
102
RTVSPost2010PropOp30
 70
     1
102
RTVSPost2010Prop31
280
     0
102
RTVSPost2010PropOp31
 70
     1
102
RTVSPost2010Prop32
280
     0
102
RTVSPost2010PropOp32
 70
     1
102
RTVSPost2010Prop33
280
     0
102
RTVSPost2010PropOp33
 70
     1
102
RTVSPost2010Prop34
280
     0
102
RTVSPost2010PropOp34
 70
     1
102
RTVSPost2010Prop35
280
     0
102
RTVSPost2010PropOp35
 70
     1
102
RTVSPost2010Prop36
280
     0
102
RTVSPost2010PropOp36
 70
     1
102
RTVSPost2010Prop37
 90
       50
102
RTVSPost2010PropOp37
 70
     1
102
RTVSPost2010Prop38
140
0.0
102
RTVSPost2010PropOp38
 70
     1
102
RTVSPost2010Prop39
140
1.0
102
RTVSPost2010PropOp39
 70
     1
102
RTVSPost2010Prop40
 90
        0
102
RTVSPost2010PropOp40
 70
     1
102
RTVSPost2010Prop41ColorIndex
 90
       18
102
RTVSPost2010Prop41ColorRGB
 90
        0
102
RTVSPost2010PropOp41
 70
     1
102
RTVSPost2010Prop42
 90
       50
102
RTVSPost2010PropOp42
 70
     1
102
RTVSPost2010Prop43
 90
        3
102
RTVSPost2010PropOp43
 70
     1
102
RTVSPost2010Prop44ColorIndex
 90
        5
102
RTVSPost2010Prop44ColorRGB
 90
      255
102
RTVSPost2010PropOp44
 70
     1
102
RTVSPost2010Prop45
280
     0
102
RTVSPost2010PropOp45
 70
     1
102
RTVSPost2010Prop46
 90
       50
102
RTVSPost2010PropOp46
 70
     1
102
RTVSPost2010Prop47
 90
       50
102
RTVSPost2010PropOp47
 70
     1
102
RTVSPost2010Prop48
 90
       50
102
RTVSPost2010PropOp48
 70
     1
102
RTVSPost2010Prop49
280
     0
102
RTVSPost2010PropOp49
 70
     1
102
RTVSPost2010Prop50
 90
       50
102
RTVSPost2010PropOp50
 70
     1
102
RTVSPost2010Prop51ColorIndex
 90
      256
102
RTVSPost2010Prop51ColorRGB
 90
-16777216
102
RTVSPost2010PropOp51
 70
     0
102
RTVSPost2010Prop52
140
1.0
102
RTVSPost2010PropOp52
 70
     0
102
RTVSPost2010Prop53
 90
        2
102
RTVSPost2010PropOp53
 70
     1
102
RTVSPost2010Prop54
  1
strokes_ogs.tif
102
RTVSPost2010PropOp54
 70
     1
102
RTVSPost2010Prop55
280
     0
102
RTVSPost2010PropOp55
 70
     1
102
RTVSPost2010Prop56
140
1.0
102
RTVSPost2010PropOp56
 70
     1
102
RTVSPost2010Prop57
140
1.0
102
RTVSPost2010PropOp57
 70
     1
102
RTVSPropertyOp0
 70
     1
102
RTVSPropertyOp1
 70
     1
102
RTVSPropertyOp2
 70
     1
102
RTVSPropertyOp3
 70
     1
102
RTVSPropertyOp4
 70
     1
102
RTVSPropertyOp5
 70
     1
102
RTVSPropertyOp6
 70
     1
102
RTVSPropertyOp7
 70
     1
102
RTVSPropertyOp8
 70
     1
102
RTVSPropertyOp9
 70
     1
102
RTVSPropertyOp10
 70
     1
102
RTVSPropertyOp11
 70
     1
102
RTVSPropertyOp12
 70
     1
102
RTVSPropertyOp13
 70
     1
102
RTVSPropertyOp14
 70
     1
102
RTVSPropertyOp15
 70
     1
102
RTVSPropertyOp16
 70
     1
102
RTVSPropertyOp17
 70
     1
102
RTVSPropertyOp18
 70
     1
102
RTVSPropertyOp19
 70
     1
102
RTVSPropertyOp20
 70
     1
102
RTVSPropertyOp21
 70
     1
102
RTVSPropertyOp22
 70
     1
102
RTVSPropertyOp23
 70
     1
102
RTVSPropertyOp24
 70
     1
102
RTVSPropertyOp25
 70
     1
102
RTVSPropertyOp26
 70
     1
102
RTVSPropertyOp27
 70
     1
102
RTVSPropertyOp28
 70
     1
102
RTVSPropertyOp29
 70
     1
102
RTVSPropertyOp30
 70
     1
102
RTVSPropertyOp31
 70
     1
102
RTVSPropertyOp32
 70
     1
102
RTVSPropertyOp33
 70
     1
102
RTVSPropertyOp34
 70
     1
102
RTVSPropertyOp35
 70
     1
102
RTVSPropertyOp36
 70
     1
102
RTVSPropertyOp37
 70
     1
102
RTVSPropertyOp38
 70
     1
102
RTVSPropertyOp39
 70
     1
102
RTVSPropertyOp40
 70
     1
102
RTVSPropertyOp41
 70
     1
102
RTVSPropertyOp42
 70
     1
102
RTVSPropertyOp43
 70
     1
102
RTVSPropertyOp44
 70
     1
102
RTVSPropertyOp45
 70
     1
102
RTVSPropertyOp46
 70
     1
102
RTVSPropertyOp47
 70
     1
102
RTVSPropertyOp48
 70
     1
102
RTVSPropertyOp49
 70
     1
102
RTVSPropertyOp50
 70
     1
102
RTVSPropertyOp51
 70
     0
102
RTVSPropertyOp52
 70
     0
102
RTVSPropertyOp53
 70
     1
102
RTVSPropertyOp54
 70
     1
102
RTVSPropertyOp55
 70
     1
102
RTVSPropertyOp56
 70
     1
102
RTVSPropertyOp57
 70
     1
102
RTVSPropertyOp58
 70
     1
102
RTVSPropertyOp59
 70
     1
102
RTVSPropertyOp60
 70
     1
102
RTVSPropertyOp61
 70
     1
102
RTVSPropertyOp62
 70
     1
  0
ENDSEC
  0
EOF
