  0
SECTION
  2
HEADER
  9
$ACADVER
  1
AC1015
  9
$ACADMAINTVER
 70
    20
  9
$DWGCODEPAGE
  3
ANSI_932
  9
$INSBASE
 10
0.0
 20
0.0
 30
0.0
  9
$EXTMIN
 10
10.0
 20
9.999999999999998
 30
0.0
  9
$EXTMAX
 10
609.6714679999998
 20
242.543867
 30
0.0
  9
$LIMMIN
 10
0.0
 20
0.0
  9
$LIMMAX
 10
633.6
 20
436.8
  9
$ORTHOMODE
 70
     1
  9
$REGENMODE
 70
     1
  9
$FILLMODE
 70
     1
  9
$QTEXTMODE
 70
     0
  9
$MIRRTEXT
 70
     1
  9
$LTSCALE
 40
20.0
  9
$ATTMODE
 70
     1
  9
$TEXTSIZE
 40
5.0
  9
$TRACEWID
 40
1.0
  9
$TEXTSTYLE
  7
STANDARD
  9
$CLAYER
  8
0
  9
$CELTYPE
  6
BYLAYER
  9
$CECOLOR
 62
   256
  9
$CELTSCALE
 40
1.0
  9
$DISPSILH
 70
     0
  9
$DIMSCALE
 40
1.0
  9
$DIMASZ
 40
3.0
  9
$DIMEXO
 40
1.0
  9
$DIMDLI
 40
10.0
  9
$DIMRND
 40
0.0
  9
$DIMDLE
 40
0.0
  9
$DIMEXE
 40
1.0
  9
$DIMTP
 40
0.0
  9
$DIMTM
 40
0.0
  9
$DIMTXT
 40
3.2
  9
$DIMCEN
 40
0.0
  9
$DIMTSZ
 40
0.0
  9
$DIMTOL
 70
     0
  9
$DIMLIM
 70
     0
  9
$DIMTIH
 70
     0
  9
$DIMTOH
 70
     0
  9
$DIMSE1
 70
     0
  9
$DIMSE2
 70
     0
  9
$DIMTAD
 70
     3
  9
$DIMZIN
 70
     8
  9
$DIMBLK
  1

  9
$DIMASO
 70
     1
  9
$DIMSHO
 70
     1
  9
$DIMPOST
  1

  9
$DIMAPOST
  1

  9
$DIMALT
 70
     0
  9
$DIMALTD
 70
     2
  9
$DIMALTF
 40
25.4
  9
$DIMLFAC
 40
1.0
  9
$DIMTOFL
 70
     1
  9
$DIMTVP
 40
0.0
  9
$DIMTIX
 70
     0
  9
$DIMSOXD
 70
     0
  9
$DIMSAH
 70
     1
  9
$DIMBLK1
  1
OPEN
  9
$DIMBLK2
  1
OPEN
  9
$DIMSTYLE
  2
STANDARD
  9
$DIMCLRD
 70
     0
  9
$DIMCLRE
 70
     0
  9
$DIMCLRT
 70
     0
  9
$DIMTFAC
 40
1.0
  9
$DIMGAP
 40
1.0
  9
$DIMJUST
 70
     0
  9
$DIMSD1
 70
     0
  9
$DIMSD2
 70
     0
  9
$DIMTOLJ
 70
     1
  9
$DIMTZIN
 70
     0
  9
$DIMALTZ
 70
     0
  9
$DIMALTTZ
 70
     0
  9
$DIMUPT
 70
     0
  9
$DIMDEC
 70
     4
  9
$DIMTDEC
 70
     4
  9
$DIMALTU
 70
     2
  9
$DIMALTTD
 70
     2
  9
$DIMTXSTY
  7
STANDARD
  9
$DIMAUNIT
 70
     0
  9
$DIMADEC
 70
     0
  9
$DIMALTRND
 40
0.0
  9
$DIMAZIN
 70
     0
  9
$DIMDSEP
 70
    46
  9
$DIMATFIT
 70
     3
  9
$DIMFRAC
 70
     0
  9
$DIMLDRBLK
  1
OPEN
  9
$DIMLUNIT
 70
     2
  9
$DIMLWD
 70
    -2
  9
$DIMLWE
 70
    -2
  9
$DIMTMOVE
 70
     0
  9
$LUNITS
 70
     2
  9
$LUPREC
 70
     4
  9
$SKETCHINC
 40
1.0
  9
$FILLETRAD
 40
0.8
  9
$AUNITS
 70
     0
  9
$AUPREC
 70
     2
  9
$MENU
  1
.
  9
$ELEVATION
 40
0.0
  9
$PELEVATION
 40
0.0
  9
$THICKNESS
 40
0.0
  9
$LIMCHECK
 70
     0
  9
$CHAMFERA
 40
10.0
  9
$CHAMFERB
 40
10.0
  9
$CHAMFERC
 40
0.0
  9
$CHAMFERD
 40
0.0
  9
$SKPOLY
 70
     0
  9
$TDCREATE
 40
2451298.568015972
  9
$TDUCREATE
 40
2451298.193015972
  9
$TDUPDATE
 40
2457192.603676308
  9
$TDUUPDATE
 40
2457192.228676308
  9
$TDINDWG
 40
0.0000143287
  9
$TDUSRTIMER
 40
0.0000136574
  9
$USRTIMER
 70
     1
  9
$ANGBASE
 50
0.0
  9
$ANGDIR
 70
     0
  9
$PDMODE
 70
     0
  9
$PDSIZE
 40
0.0
  9
$PLINEWID
 40
0.0
  9
$SPLFRAME
 70
     0
  9
$SPLINETYPE
 70
     6
  9
$SPLINESEGS
 70
     8
  9
$HANDSEED
  5
973C
  9
$SURFTAB1
 70
     6
  9
$SURFTAB2
 70
     6
  9
$SURFTYPE
 70
     6
  9
$SURFU
 70
     6
  9
$SURFV
 70
     6
  9
$UCSBASE
  2

  9
$UCSNAME
  2

  9
$UCSORG
 10
0.0
 20
0.0
 30
0.0
  9
$UCSXDIR
 10
1.0
 20
0.0
 30
0.0
  9
$UCSYDIR
 10
0.0
 20
1.0
 30
0.0
  9
$UCSORTHOREF
  2

  9
$UCSORTHOVIEW
 70
     0
  9
$UCSORGTOP
 10
0.0
 20
0.0
 30
0.0
  9
$UCSORGBOTTOM
 10
0.0
 20
0.0
 30
0.0
  9
$UCSORGLEFT
 10
0.0
 20
0.0
 30
0.0
  9
$UCSORGRIGHT
 10
0.0
 20
0.0
 30
0.0
  9
$UCSORGFRONT
 10
0.0
 20
0.0
 30
0.0
  9
$UCSORGBACK
 10
0.0
 20
0.0
 30
0.0
  9
$PUCSBASE
  2

  9
$PUCSNAME
  2

  9
$PUCSORG
 10
0.0
 20
0.0
 30
0.0
  9
$PUCSXDIR
 10
1.0
 20
0.0
 30
0.0
  9
$PUCSYDIR
 10
0.0
 20
1.0
 30
0.0
  9
$PUCSORTHOREF
  2

  9
$PUCSORTHOVIEW
 70
     0
  9
$PUCSORGTOP
 10
0.0
 20
0.0
 30
0.0
  9
$PUCSORGBOTTOM
 10
0.0
 20
0.0
 30
0.0
  9
$PUCSORGLEFT
 10
0.0
 20
0.0
 30
0.0
  9
$PUCSORGRIGHT
 10
0.0
 20
0.0
 30
0.0
  9
$PUCSORGFRONT
 10
0.0
 20
0.0
 30
0.0
  9
$PUCSORGBACK
 10
0.0
 20
0.0
 30
0.0
  9
$USERI1
 70
     0
  9
$USERI2
 70
     0
  9
$USERI3
 70
     0
  9
$USERI4
 70
     0
  9
$USERI5
 70
     0
  9
$USERR1
 40
0.0
  9
$USERR2
 40
0.0
  9
$USERR3
 40
0.0
  9
$USERR4
 40
0.0
  9
$USERR5
 40
0.0
  9
$WORLDVIEW
 70
     1
  9
$SHADEDGE
 70
     3
  9
$SHADEDIF
 70
    70
  9
$TILEMODE
 70
     1
  9
$MAXACTVP
 70
    16
  9
$PINSBASE
 10
0.0
 20
0.0
 30
0.0
  9
$PLIMCHECK
 70
     0
  9
$PEXTMIN
 10
1.000000000000000E+20
 20
1.000000000000000E+20
 30
1.000000000000000E+20
  9
$PEXTMAX
 10
-1.000000000000000E+20
 20
-1.000000000000000E+20
 30
-1.000000000000000E+20
  9
$PLIMMIN
 10
0.0
 20
0.0
  9
$PLIMMAX
 10
420.0
 20
297.0
  9
$UNITMODE
 70
     0
  9
$VISRETAIN
 70
     0
  9
$PLINEGEN
 70
     0
  9
$PSLTSCALE
 70
     0
  9
$TREEDEPTH
 70
  3020
  9
$CMLSTYLE
  2
STANDARD
  9
$CMLJUST
 70
     0
  9
$CMLSCALE
 40
1.0
  9
$PROXYGRAPHICS
 70
     1
  9
$MEASUREMENT
 70
     0
  9
$CELWEIGHT
370
    -1
  9
$ENDCAPS
280
     0
  9
$JOINSTYLE
280
     0
  9
$LWDISPLAY
290
     0
  9
$INSUNITS
 70
     0
  9
$HYPERLINKBASE
  1

  9
$STYLESHEET
  1

  9
$XEDIT
290
     1
  9
$CEPSNTYPE
380
     0
  9
$PSTYLEMODE
290
     1
  9
$FINGERPRINTGUID
  2
{7B4CC587-CC40-43EB-8931-25147161AB51}
  9
$VERSIONGUID
  2
{1807AD45-BC5A-4DF0-AC84-B6C08C19B74C}
  9
$EXTNAMES
290
     1
  9
$PSVPSCALE
 40
0.0
  9
$OLESTARTUP
290
     0
  0
ENDSEC
  0
SECTION
  2
CLASSES
  0
CLASS
  1
ACDBDICTIONARYWDFLT
  2
AcDbDictionaryWithDefault
  3
ObjectDBX Classes
 90
        0
280
     0
281
     0
  0
CLASS
  1
ACDBPLACEHOLDER
  2
AcDbPlaceHolder
  3
ObjectDBX Classes
 90
        0
280
     0
281
     0
  0
CLASS
  1
LAYOUT
  2
AcDbLayout
  3
ObjectDBX Classes
 90
        0
280
     0
281
     0
  0
CLASS
  1
DICTIONARYVAR
  2
AcDbDictionaryVar
  3
ObjectDBX Classes
 90
        0
280
     0
281
     0
  0
CLASS
  1
MATERIAL
  2
AcDbMaterial
  3
ObjectDBX Classes
 90
     1153
280
     0
281
     0
  0
CLASS
  1
VISUALSTYLE
  2
AcDbVisualStyle
  3
ObjectDBX Classes
 90
     4095
280
     0
281
     0
  0
CLASS
  1
TABLESTYLE
  2
AcDbTableStyle
  3
ObjectDBX Classes
 90
     4095
280
     0
281
     0
  0
CLASS
  1
SCALE
  2
AcDbScale
  3
ObjectDBX Classes
 90
     1153
280
     0
281
     0
  0
CLASS
  1
MLEADERSTYLE
  2
AcDbMLeaderStyle
  3
ACDB_MLEADERSTYLE_CLASS
 90
     4095
280
     0
281
     0
  0
CLASS
  1
ACDBSECTIONVIEWSTYLE
  2
AcDbSectionViewStyle
  3
ObjectDBX Classes
 90
     1025
280
     0
281
     0
  0
CLASS
  1
ACDBDETAILVIEWSTYLE
  2
AcDbDetailViewStyle
  3
ObjectDBX Classes
 90
     1025
280
     0
281
     0
  0
CLASS
  1
CELLSTYLEMAP
  2
AcDbCellStyleMap
  3
ObjectDBX Classes
 90
     1152
280
     0
281
     0
  0
ENDSEC
  0
SECTION
  2
TABLES
  0
TABLE
  2
VPORT
  5
9470
330
0
100
AcDbSymbolTable
 70
     1
  0
VPORT
  5
9685
330
9470
100
AcDbSymbolTableRecord
100
AcDbViewportTableRecord
  2
*ACTIVE
 70
     0
 10
0.0
 20
0.0
 11
1.0
 21
1.0
 12
413.0921673014108
 22
126.2724984683474
 13
0.0
 23
0.0
 14
10.0
 24
10.0
 15
10.0
 25
10.0
 16
0.0
 26
0.0
 36
1.0
 17
0.0
 27
0.0
 37
0.0
 40
344.7149200239821
 41
1.899603698811096
 42
50.0
 43
0.0
 44
0.0
 50
0.0
 51
0.0
 71
     0
 72
   100
 73
     1
 74
     0
 75
     0
 76
     0
 77
     0
 78
     0
281
     0
 65
     1
110
0.0
120
0.0
130
0.0
111
1.0
121
0.0
131
0.0
112
0.0
122
1.0
132
0.0
 79
     0
146
0.0
1001
ACAD_NAV_VCDISPLAY
1070
     3
  0
ENDTAB
  0
TABLE
  2
LTYPE
  5
946D
330
0
100
AcDbSymbolTable
 70
     4
  0
LTYPE
  5
947B
330
946D
100
AcDbSymbolTableRecord
100
AcDbLinetypeTableRecord
  2
BYBLOCK
 70
     0
  3

 72
    65
 73
     0
 40
0.0
  0
LTYPE
  5
947C
330
946D
100
AcDbSymbolTableRecord
100
AcDbLinetypeTableRecord
  2
BYLAYER
 70
     0
  3

 72
    65
 73
     0
 40
0.0
  0
LTYPE
  5
947D
330
946D
100
AcDbSymbolTableRecord
100
AcDbLinetypeTableRecord
  2
CONTINUOUS
 70
     0
  3
Solid line
 72
    65
 73
     0
 40
0.0
  0
LTYPE
  5
948B
330
946D
100
AcDbSymbolTableRecord
100
AcDbLinetypeTableRecord
  2
DASHED
 70
     0
  3
__ __ __ __ __ __ __ __ __ __ __ __ __ __ __ __
 72
    65
 73
     2
 40
0.75
 49
0.5
 74
     0
 49
-0.25
 74
     0
  0
LTYPE
  5
948C
330
946D
100
AcDbSymbolTableRecord
100
AcDbLinetypeTableRecord
  2
CENTER
 70
     0
  3
____ _ ____ _ ____ _ ____ _ ____ _ ____ _ ____ 
 72
    65
 73
     4
 40
2.0
 49
1.25
 74
     0
 49
-0.25
 74
     0
 49
0.25
 74
     0
 49
-0.25
 74
     0
  0
LTYPE
  5
948D
330
946D
100
AcDbSymbolTableRecord
100
AcDbLinetypeTableRecord
  2
PHANTOM
 70
     0
  3
______  __  __  ______  __  __  ______  __  __ 
 72
    65
 73
     6
 40
2.5
 49
1.25
 74
     0
 49
-0.25
 74
     0
 49
0.25
 74
     0
 49
-0.25
 74
     0
 49
0.25
 74
     0
 49
-0.25
 74
     0
  0
ENDTAB
  0
TABLE
  2
LAYER
  5
946A
330
0
100
AcDbSymbolTable
 70
     8
  0
LAYER
  5
9478
102
{ACAD_XDICTIONARY
360
96E0
102
}
330
946A
100
AcDbSymbolTableRecord
100
AcDbLayerTableRecord
  2
0
 70
     0
 62
     7
  6
CONTINUOUS
370
    -3
390
968E
  0
LAYER
  5
948E
102
{ACAD_XDICTIONARY
360
96E2
102
}
330
946A
100
AcDbSymbolTableRecord
100
AcDbLayerTableRecord
  2
4
 70
     0
 62
     1
  6
CENTER
370
    -3
390
968E
  0
LAYER
  5
948F
102
{ACAD_XDICTIONARY
360
96E4
102
}
330
946A
100
AcDbSymbolTableRecord
100
AcDbLayerTableRecord
  2
5
 70
     0
 62
     6
  6
PHANTOM
370
    -3
390
968E
  0
LAYER
  5
9490
102
{ACAD_XDICTIONARY
360
96E6
102
}
330
946A
100
AcDbSymbolTableRecord
100
AcDbLayerTableRecord
  2
1
 70
     0
 62
     7
  6
CONTINUOUS
370
    -3
390
968E
  0
LAYER
  5
9491
102
{ACAD_XDICTIONARY
360
96E8
102
}
330
946A
100
AcDbSymbolTableRecord
100
AcDbLayerTableRecord
  2
2
 70
     0
 62
     4
  6
CONTINUOUS
370
    -3
390
968E
  0
LAYER
  5
9492
102
{ACAD_XDICTIONARY
360
96EA
102
}
330
946A
100
AcDbSymbolTableRecord
100
AcDbLayerTableRecord
  2
3
 70
     0
 62
     2
  6
DASHED
370
    -3
390
968E
  0
LAYER
  5
9493
102
{ACAD_XDICTIONARY
360
96EC
102
}
330
946A
100
AcDbSymbolTableRecord
100
AcDbLayerTableRecord
  2
6
 70
     0
 62
     5
  6
CONTINUOUS
370
    -3
390
968E
  0
LAYER
  5
9494
102
{ACAD_XDICTIONARY
360
96EE
102
}
330
946A
100
AcDbSymbolTableRecord
100
AcDbLayerTableRecord
  2
7
 70
     0
 62
     3
  6
CONTINUOUS
370
    -3
390
968E
  0
ENDTAB
  0
TABLE
  2
STYLE
  5
946B
330
0
100
AcDbSymbolTable
 70
     1
  0
STYLE
  5
9479
330
946B
100
AcDbSymbolTableRecord
100
AcDbTextStyleTableRecord
  2
STANDARD
 70
     0
 40
0.0
 41
1.0
 50
0.0
 71
     0
 42
5.0
  3
txt
  4

  0
ENDTAB
  0
TABLE
  2
VIEW
  5
946E
330
0
100
AcDbSymbolTable
 70
     0
  0
ENDTAB
  0
TABLE
  2
UCS
  5
946F
330
0
100
AcDbSymbolTable
 70
     0
  0
ENDTAB
  0
TABLE
  2
APPID
  5
9471
330
0
100
AcDbSymbolTable
 70
     3
  0
APPID
  5
947A
330
9471
100
AcDbSymbolTableRecord
100
AcDbRegAppTableRecord
  2
ACAD
 70
     0
  0
APPID
  5
96FA
330
9471
100
AcDbSymbolTableRecord
100
AcDbRegAppTableRecord
  2
ACAD_NAV_VCDISPLAY
 70
     0
  0
APPID
  5
9733
330
9471
100
AcDbSymbolTableRecord
100
AcDbRegAppTableRecord
  2
ACAD_MLEADERVER
 70
     0
  0
ENDTAB
  0
TABLE
  2
DIMSTYLE
  5
9472
330
0
100
AcDbSymbolTable
 70
     1
100
AcDbDimStyleTable
 71
     0
  0
DIMSTYLE
105
9496
330
9472
100
AcDbSymbolTableRecord
100
AcDbDimStyleTableRecord
  2
STANDARD
 70
     0
 41
3.0
 42
1.0
 43
10.0
 44
1.0
 73
     0
 74
     0
 77
     3
 78
     8
140
3.2
141
0.0
147
1.0
172
     1
173
     1
284
     8
285
     8
286
     8
340
9479
  0
ENDTAB
  0
TABLE
  2
BLOCK_RECORD
  5
9469
330
0
100
AcDbSymbolTable
 70
     1
  0
BLOCK_RECORD
  5
9486
102
{ACAD_XDICTIONARY
360
9688
102
}
330
9469
100
AcDbSymbolTableRecord
100
AcDbBlockTableRecord
  2
*MODEL_SPACE
340
96DC
  0
BLOCK_RECORD
  5
9482
102
{ACAD_XDICTIONARY
360
9686
102
}
330
9469
100
AcDbSymbolTableRecord
100
AcDbBlockTableRecord
  2
*PAPER_SPACE
340
96DD
  0
BLOCK_RECORD
  5
949E
330
9469
100
AcDbSymbolTableRecord
100
AcDbBlockTableRecord
  2
_OPEN
340
0
  0
ENDTAB
  0
ENDSEC
  0
SECTION
  2
BLOCKS
  0
BLOCK
  5
9487
330
9486
100
AcDbEntity
  8
0
100
AcDbBlockBegin
  2
*MODEL_SPACE
 70
     0
 10
0.0
 20
0.0
 30
0.0
  3
*MODEL_SPACE
  1

  0
ENDBLK
  5
9488
330
9486
100
AcDbEntity
  8
0
100
AcDbBlockEnd
  0
BLOCK
  5
9483
330
9482
100
AcDbEntity
 67
     1
  8
0
100
AcDbBlockBegin
  2
*PAPER_SPACE
 70
     0
 10
0.0
 20
0.0
 30
0.0
  3
*PAPER_SPACE
  1

  0
ENDBLK
  5
9484
330
9482
100
AcDbEntity
 67
     1
  8
0
100
AcDbBlockEnd
  0
BLOCK
  5
949F
330
949E
100
AcDbEntity
  8
0
100
AcDbBlockBegin
  2
_OPEN
 70
     0
 10
0.0
 20
0.0
 30
0.0
  3
_OPEN
  1

  0
LINE
  5
94A0
330
949E
100
AcDbEntity
  8
0
  6
ByBlock
 62
     0
100
AcDbLine
 10
-1.0
 20
0.166667
 30
0.0
 11
0.0
 21
0.0
 31
0.0
  0
LINE
  5
94A1
330
949E
100
AcDbEntity
  8
0
  6
ByBlock
 62
     0
100
AcDbLine
 10
0.0
 20
0.0
 30
0.0
 11
-1.0
 21
-0.166667
 31
0.0
  0
LINE
  5
94A2
330
949E
100
AcDbEntity
  8
0
  6
ByBlock
 62
     0
100
AcDbLine
 10
0.0
 20
0.0
 30
0.0
 11
-1.0
 21
0.0
 31
0.0
  0
ENDBLK
  5
94A3
330
949E
100
AcDbEntity
  8
0
100
AcDbBlockEnd
  0
ENDSEC
  0
SECTION
  2
ENTITIES
  0
TEXT
  5
94A4
330
9486
100
AcDbEntity
  8
7
  6
Continuous
100
AcDbText
 10
10.0
 20
18.0
 30
0.0
 40
3.0
  1
TYPE No.TL-95
100
AcDbText
  0
TEXT
  5
94A5
330
9486
100
AcDbEntity
  8
7
  6
Continuous
100
AcDbText
 10
10.0
 20
26.0
 30
0.0
 40
3.0
  1
CODE No.1068
100
AcDbText
  0
TEXT
  5
94A6
330
9486
100
AcDbEntity
  8
1
  6
Continuous
100
AcDbText
 10
10.0
 20
10.0
 30
0.0
 40
1.399999999999999
  1
LAYER
100
AcDbText
  0
TEXT
  5
94A7
330
9486
100
AcDbEntity
  8
1
  6
Continuous
100
AcDbText
 10
17.97951099999998
 20
10.04873699999998
 30
0.0
 40
1.399999999999999
  1
1
100
AcDbText
  0
TEXT
  5
94A8
330
9486
100
AcDbEntity
  8
7
  6
Continuous
100
AcDbText
 10
29.97951099999999
 20
10.04873699999998
 30
0.0
 40
1.399999999999999
  1
7
100
AcDbText
  0
TEXT
  5
94A9
330
9486
100
AcDbEntity
  8
4
  6
CENTER
100
AcDbText
 10
23.97951099999999
 20
10.04873699999998
 30
0.0
 40
1.399999999999999
  1
4
100
AcDbText
  0
TEXT
  5
94AA
330
9486
100
AcDbEntity
  8
3
  6
DASHED
100
AcDbText
 10
21.979511
 20
10.04873699999998
 30
0.0
 40
1.399999999999999
  1
3
100
AcDbText
  0
TEXT
  5
94AB
330
9486
100
AcDbEntity
  8
2
  6
Continuous
100
AcDbText
 10
19.97951099999999
 20
10.04873699999998
 30
0.0
 40
1.399999999999999
  1
2
100
AcDbText
  0
TEXT
  5
94AC
330
9486
100
AcDbEntity
  8
6
  6
Continuous
100
AcDbText
 10
27.979511
 20
10.04873699999998
 30
0.0
 40
1.399999999999999
  1
6
100
AcDbText
  0
TEXT
  5
94AD
330
9486
100
AcDbEntity
  8
5
  6
PHANTOM
100
AcDbText
 10
25.97951099999999
 20
10.04873699999998
 30
0.0
 40
1.399999999999999
  1
5
100
AcDbText
  0
LINE
  5
94AE
330
9486
100
AcDbEntity
  8
1
  6
Continuous
100
AcDbLine
 10
82.977185
 20
134.5438609999999
 30
0.0
 11
89.97718499999995
 21
134.5438609999999
 31
0.0
  0
LINE
  5
94AF
330
9486
100
AcDbEntity
  8
1
  6
Continuous
100
AcDbLine
 10
92.777185
 20
147.5438609999999
 30
0.0
 11
121.6771849999999
 21
147.5438609999999
 31
0.0
  0
LINE
  5
94B0
330
9486
100
AcDbEntity
  8
4
  6
CENTER
100
AcDbLine
 10
107.227185
 20
242.543867
 30
0.0
 11
107.227185
 21
217.043867
 31
0.0
  0
LINE
  5
94B1
330
9486
100
AcDbEntity
  8
1
  6
Continuous
100
AcDbLine
 10
122.4771849999999
 20
146.743861
 30
0.0
 11
122.4771849999999
 21
137.443861
 31
0.0
  0
LINE
  5
94B2
330
9486
100
AcDbEntity
  8
1
  6
Continuous
100
AcDbLine
 10
91.97718499999997
 20
146.743861
 30
0.0
 11
91.97718499999997
 21
137.443861
 31
0.0
  0
LINE
  5
94B3
330
9486
100
AcDbEntity
  8
1
  6
Continuous
100
AcDbLine
 10
82.977185
 20
135.343864
 30
0.0
 11
89.97718499999995
 21
135.343864
 31
0.0
  0
LINE
  5
94B4
330
9486
100
AcDbEntity
  8
1
  6
Continuous
100
AcDbLine
 10
82.977185
 20
135.343864
 30
0.0
 11
82.977185
 21
134.5438609999999
 31
0.0
  0
LINE
  5
94B5
330
9486
100
AcDbEntity
  8
1
  6
Continuous
100
AcDbLine
 10
131.4771849999999
 20
135.343864
 30
0.0
 11
131.4771849999999
 21
134.5438609999999
 31
0.0
  0
LINE
  5
94B6
330
9486
100
AcDbEntity
  8
1
  6
Continuous
100
AcDbLine
 10
124.477185
 20
134.5438609999999
 30
0.0
 11
131.4771849999999
 21
134.5438609999999
 31
0.0
  0
LINE
  5
94B7
330
9486
100
AcDbEntity
  8
1
  6
Continuous
100
AcDbLine
 10
91.97718499999997
 20
137.443861
 30
0.0
 11
122.4771849999999
 21
137.443861
 31
0.0
  0
LINE
  5
94B8
330
9486
100
AcDbEntity
  8
1
  6
Continuous
100
AcDbLine
 10
124.477185
 20
135.343864
 30
0.0
 11
131.4771849999999
 21
135.343864
 31
0.0
  0
LINE
  5
94B9
330
9486
100
AcDbEntity
  8
1
  6
Continuous
100
AcDbLine
 10
91.97718499999997
 20
136.643858
 30
0.0
 11
122.4771849999999
 21
136.643858
 31
0.0
  0
LINE
  5
94BA
330
9486
100
AcDbEntity
  8
1
  6
Continuous
100
AcDbLine
 10
89.97718499999995
 20
235.0438669999999
 30
0.0
 11
89.97718499999995
 21
223.043867
 31
0.0
  0
LINE
  5
94BB
330
9486
100
AcDbEntity
  8
1
  6
Continuous
100
AcDbLine
 10
124.477185
 20
235.0438669999999
 30
0.0
 11
124.477185
 21
223.043867
 31
0.0
  0
LINE
  5
94BC
330
9486
100
AcDbEntity
  8
1
  6
Continuous
100
AcDbLine
 10
89.97718499999995
 20
135.343864
 30
0.0
 11
91.32897699999999
 21
137.1127299999999
 31
0.0
  0
LINE
  5
94BD
330
9486
100
AcDbEntity
  8
1
  6
Continuous
100
AcDbLine
 10
91.97718499999997
 20
136.643858
 30
0.0
 11
90.625379
 21
134.8749919999999
 31
0.0
  0
LINE
  5
94BE
330
9486
100
AcDbEntity
  8
1
  6
Continuous
100
AcDbLine
 10
122.4771849999999
 20
136.643858
 30
0.0
 11
123.8289769999999
 21
134.8749919999999
 31
0.0
  0
LINE
  5
94BF
330
9486
100
AcDbEntity
  8
1
  6
Continuous
100
AcDbLine
 10
124.47717
 20
135.343849
 30
0.0
 11
123.125379
 21
137.1127149999997
 31
0.0
  0
LINE
  5
94C0
330
9486
100
AcDbEntity
  8
1
  6
Continuous
100
AcDbLine
 10
92.77718900000001
 20
135.843855
 30
0.0
 11
95.97718499999999
 21
135.843855
 31
0.0
  0
LINE
  5
94C1
330
9486
100
AcDbEntity
  8
1
  6
Continuous
100
AcDbLine
 10
95.97718499999999
 20
136.643858
 30
0.0
 11
95.97718499999999
 21
135.843855
 31
0.0
  0
LINE
  5
94C2
330
9486
100
AcDbEntity
  8
1
  6
Continuous
100
AcDbLine
 10
118.477185
 20
136.643858
 30
0.0
 11
118.477185
 21
135.843855
 31
0.0
  0
LINE
  5
94C3
330
9486
100
AcDbEntity
  8
1
  6
Continuous
100
AcDbLine
 10
118.477185
 20
135.843855
 30
0.0
 11
121.6771819999999
 21
135.843855
 31
0.0
  0
LINE
  5
94C4
330
9486
100
AcDbEntity
  8
1
  6
Continuous
100
AcDbLine
 10
92.77718900000001
 20
146.7438579999999
 30
0.0
 11
121.6771819999999
 21
146.7438579999999
 31
0.0
  0
LINE
  5
94C5
330
9486
100
AcDbEntity
  8
1
  6
Continuous
100
AcDbLine
 10
92.77718900000001
 20
146.7438579999999
 30
0.0
 11
92.77718900000001
 21
137.443861
 31
0.0
  0
LINE
  5
94C6
330
9486
100
AcDbEntity
  8
1
  6
Continuous
100
AcDbLine
 10
121.6771819999999
 20
146.7438579999999
 30
0.0
 11
121.6771819999999
 21
137.443861
 31
0.0
  0
LINE
  5
94C7
330
9486
100
AcDbEntity
  8
4
  6
CENTER
100
AcDbLine
 10
95.627179
 20
151.043867
 30
0.0
 11
95.627179
 21
133.843855
 31
0.0
  0
LINE
  5
94C8
330
9486
100
AcDbEntity
  8
4
  6
CENTER
100
AcDbLine
 10
187.0271729999998
 20
151.043867
 30
0.0
 11
187.0271729999998
 21
133.943855
 31
0.0
  0
LINE
  5
94C9
330
9486
100
AcDbEntity
  8
1
  6
Continuous
100
AcDbLine
 10
98.72718500000001
 20
146.343855
 30
0.0
 11
98.72718500000001
 21
142.543867
 31
0.0
  0
LINE
  5
94CA
330
9486
100
AcDbEntity
  8
1
  6
Continuous
100
AcDbLine
 10
115.727185
 20
146.343855
 30
0.0
 11
115.727185
 21
142.543867
 31
0.0
  0
LINE
  5
94CB
330
9486
100
AcDbEntity
  8
4
  6
CENTER
100
AcDbLine
 10
86.97718499999997
 20
142.043867
 30
0.0
 11
127.477185
 21
142.043867
 31
0.0
  0
LINE
  5
94CC
330
9486
100
AcDbEntity
  8
1
  6
Continuous
100
AcDbLine
 10
98.72718500000001
 20
146.343855
 30
0.0
 11
115.727185
 21
146.343855
 31
0.0
  0
LINE
  5
94CD
330
9486
100
AcDbEntity
  8
1
  6
Continuous
100
AcDbLine
 10
98.72718500000001
 20
137.743864
 30
0.0
 11
115.727185
 21
137.743864
 31
0.0
  0
LINE
  5
94CE
330
9486
100
AcDbEntity
  8
1
  6
Continuous
100
AcDbLine
 10
98.72718500000001
 20
142.543867
 30
0.0
 11
115.727185
 21
142.543867
 31
0.0
  0
LINE
  5
94CF
330
9486
100
AcDbEntity
  8
1
  6
Continuous
100
AcDbLine
 10
98.72718500000001
 20
141.543867
 30
0.0
 11
115.727185
 21
141.543867
 31
0.0
  0
LINE
  5
94D0
330
9486
100
AcDbEntity
  8
1
  6
Continuous
100
AcDbLine
 10
107.227185
 20
146.343855
 30
0.0
 11
107.227185
 21
142.543867
 31
0.0
  0
LINE
  5
94D1
330
9486
100
AcDbEntity
  8
1
  6
Continuous
100
AcDbLine
 10
98.72718500000001
 20
141.543867
 30
0.0
 11
98.72718500000001
 21
137.743864
 31
0.0
  0
LINE
  5
94D2
330
9486
100
AcDbEntity
  8
1
  6
Continuous
100
AcDbLine
 10
115.727185
 20
141.543867
 30
0.0
 11
115.727185
 21
137.743864
 31
0.0
  0
LINE
  5
94D3
330
9486
100
AcDbEntity
  8
4
  6
CENTER
100
AcDbLine
 10
111.477185
 20
151.443861
 30
0.0
 11
111.477185
 21
132.643858
 31
0.0
  0
LINE
  5
94D4
330
9486
100
AcDbEntity
  8
4
  6
CENTER
100
AcDbLine
 10
102.9771849999999
 20
151.443861
 30
0.0
 11
102.9771849999999
 21
132.643858
 31
0.0
  0
LINE
  5
94D5
330
9486
100
AcDbEntity
  8
1
  6
Continuous
100
AcDbLine
 10
108.427182
 20
142.543867
 30
0.0
 11
108.427182
 21
141.543867
 31
0.0
  0
LINE
  5
94D6
330
9486
100
AcDbEntity
  8
1
  6
Continuous
100
AcDbLine
 10
106.0271889999998
 20
142.543867
 30
0.0
 11
106.0271889999998
 21
141.543867
 31
0.0
  0
LINE
  5
94D7
330
9486
100
AcDbEntity
  8
1
  6
Continuous
100
AcDbLine
 10
101.377179
 20
149.5438609999999
 30
0.0
 11
104.577192
 21
149.5438609999999
 31
0.0
  0
LINE
  5
94D8
330
9486
100
AcDbEntity
  8
1
  6
Continuous
100
AcDbLine
 10
104.577192
 20
149.5438609999999
 30
0.0
 11
104.577192
 21
147.5438609999999
 31
0.0
  0
LINE
  5
94D9
330
9486
100
AcDbEntity
  8
1
  6
Continuous
100
AcDbLine
 10
101.377179
 20
149.5438609999999
 30
0.0
 11
101.377179
 21
147.5438609999999
 31
0.0
  0
LINE
  5
94DA
330
9486
100
AcDbEntity
  8
1
  6
Continuous
100
AcDbLine
 10
178.877179
 20
149.5438609999999
 30
0.0
 11
178.877179
 21
147.5438609999999
 31
0.0
  0
LINE
  5
94DB
330
9486
100
AcDbEntity
  8
1
  6
Continuous
100
AcDbLine
 10
182.077192
 20
149.5438609999999
 30
0.0
 11
182.077192
 21
147.5438609999999
 31
0.0
  0
LINE
  5
94DC
330
9486
100
AcDbEntity
  8
1
  6
Continuous
100
AcDbLine
 10
178.877179
 20
149.5438609999999
 30
0.0
 11
182.077192
 21
149.5438609999999
 31
0.0
  0
LINE
  5
94DD
330
9486
100
AcDbEntity
  8
1
  6
Continuous
100
AcDbLine
 10
101.377179
 20
134.643858
 30
0.0
 11
101.377179
 21
136.643858
 31
0.0
  0
LINE
  5
94DE
330
9486
100
AcDbEntity
  8
1
  6
Continuous
100
AcDbLine
 10
101.377179
 20
134.643858
 30
0.0
 11
104.577192
 21
134.643858
 31
0.0
  0
LINE
  5
94DF
330
9486
100
AcDbEntity
  8
1
  6
Continuous
100
AcDbLine
 10
104.577192
 20
134.643858
 30
0.0
 11
104.577192
 21
136.643858
 31
0.0
  0
LINE
  5
94E0
330
9486
100
AcDbEntity
  8
1
  6
Continuous
100
AcDbLine
 10
109.877179
 20
134.643858
 30
0.0
 11
109.877179
 21
136.643858
 31
0.0
  0
LINE
  5
94E1
330
9486
100
AcDbEntity
  8
1
  6
Continuous
100
AcDbLine
 10
109.877179
 20
134.643858
 30
0.0
 11
113.0771919999999
 21
134.643858
 31
0.0
  0
LINE
  5
94E2
330
9486
100
AcDbEntity
  8
1
  6
Continuous
100
AcDbLine
 10
113.0771919999999
 20
134.643858
 30
0.0
 11
113.0771919999999
 21
136.643858
 31
0.0
  0
LINE
  5
94E3
330
9486
100
AcDbEntity
  8
1
  6
Continuous
100
AcDbLine
 10
101.377179
 20
146.7438579999999
 30
0.0
 11
101.377179
 21
146.343855
 31
0.0
  0
LINE
  5
94E4
330
9486
100
AcDbEntity
  8
1
  6
Continuous
100
AcDbLine
 10
104.577192
 20
146.7438579999999
 30
0.0
 11
104.577192
 21
146.343855
 31
0.0
  0
LINE
  5
94E5
330
9486
100
AcDbEntity
  8
1
  6
Continuous
100
AcDbLine
 10
109.877179
 20
146.7438579999999
 30
0.0
 11
109.877179
 21
146.343855
 31
0.0
  0
LINE
  5
94E6
330
9486
100
AcDbEntity
  8
1
  6
Continuous
100
AcDbLine
 10
113.0771919999999
 20
146.7438579999999
 30
0.0
 11
113.0771919999999
 21
146.343855
 31
0.0
  0
LINE
  5
94E7
330
9486
100
AcDbEntity
  8
1
  6
Continuous
100
AcDbLine
 10
101.377179
 20
137.743864
 30
0.0
 11
101.377179
 21
137.443861
 31
0.0
  0
LINE
  5
94E8
330
9486
100
AcDbEntity
  8
1
  6
Continuous
100
AcDbLine
 10
104.577192
 20
137.743864
 30
0.0
 11
104.577192
 21
137.443861
 31
0.0
  0
LINE
  5
94E9
330
9486
100
AcDbEntity
  8
1
  6
Continuous
100
AcDbLine
 10
109.877179
 20
137.743864
 30
0.0
 11
109.877179
 21
137.443861
 31
0.0
  0
LINE
  5
94EA
330
9486
100
AcDbEntity
  8
1
  6
Continuous
100
AcDbLine
 10
113.0771919999999
 20
137.743864
 30
0.0
 11
113.0771919999999
 21
137.443861
 31
0.0
  0
LINE
  5
94EB
330
9486
100
AcDbEntity
  8
1
  6
Continuous
100
AcDbLine
 10
82.977185
 20
236.543867
 30
0.0
 11
82.977185
 21
222.043867
 31
0.0
  0
LINE
  5
94EC
330
9486
100
AcDbEntity
  8
1
  6
Continuous
100
AcDbLine
 10
131.4771849999999
 20
236.543867
 30
0.0
 11
131.4771849999999
 21
222.043867
 31
0.0
  0
LINE
  5
94ED
330
9486
100
AcDbEntity
  8
1
  6
Continuous
100
AcDbLine
 10
82.977185
 20
222.043867
 30
0.0
 11
131.4771849999999
 21
222.043867
 31
0.0
  0
LINE
  5
94EE
330
9486
100
AcDbEntity
  8
1
  6
Continuous
100
AcDbLine
 10
91.97718499999997
 20
237.543867
 30
0.0
 11
122.4771849999999
 21
237.543867
 31
0.0
  0
LINE
  5
94EF
330
9486
100
AcDbEntity
  8
1
  6
Continuous
100
AcDbLine
 10
91.97718499999997
 20
237.543867
 30
0.0
 11
91.97718499999997
 21
222.043867
 31
0.0
  0
LINE
  5
94F0
330
9486
100
AcDbEntity
  8
1
  6
Continuous
100
AcDbLine
 10
122.4771849999999
 20
237.543867
 30
0.0
 11
122.4771849999999
 21
222.043867
 31
0.0
  0
LINE
  5
94F1
330
9486
100
AcDbEntity
  8
1
  6
Continuous
100
AcDbLine
 10
92.977185
 20
237.543867
 30
0.0
 11
92.977185
 21
236.543867
 31
0.0
  0
LINE
  5
94F2
330
9486
100
AcDbEntity
  8
1
  6
Continuous
100
AcDbLine
 10
121.4771849999999
 20
237.543867
 30
0.0
 11
121.4771849999999
 21
236.543867
 31
0.0
  0
LINE
  5
94F3
330
9486
100
AcDbEntity
  8
4
  6
CENTER
100
AcDbLine
 10
127.7271849999999
 20
235.543867
 30
0.0
 11
127.7271849999999
 21
221.543867
 31
0.0
  0
LINE
  5
94F4
330
9486
100
AcDbEntity
  8
4
  6
CENTER
100
AcDbLine
 10
86.727185
 20
235.543867
 30
0.0
 11
86.727185
 21
221.543867
 31
0.0
  0
LINE
  5
94F5
330
9486
100
AcDbEntity
  8
1
  6
Continuous
100
AcDbLine
 10
126.127179
 20
231.943861
 30
0.0
 11
126.127179
 21
225.1438579999999
 31
0.0
  0
LINE
  5
94F6
330
9486
100
AcDbEntity
  8
1
  6
Continuous
100
AcDbLine
 10
129.327192
 20
231.943861
 30
0.0
 11
129.327192
 21
225.1438579999999
 31
0.0
  0
LINE
  5
94F7
330
9486
100
AcDbEntity
  8
1
  6
Continuous
100
AcDbLine
 10
85.127179
 20
231.943861
 30
0.0
 11
85.127179
 21
225.1438579999999
 31
0.0
  0
LINE
  5
94F8
330
9486
100
AcDbEntity
  8
1
  6
Continuous
100
AcDbLine
 10
88.32719200000004
 20
231.943861
 30
0.0
 11
88.32719200000004
 21
225.1438579999999
 31
0.0
  0
LINE
  5
94F9
330
9486
100
AcDbEntity
  8
1
  6
Continuous
100
AcDbLine
 10
122.977185
 20
227.043867
 30
0.0
 11
122.977185
 21
224.043867
 31
0.0
  0
LINE
  5
94FA
330
9486
100
AcDbEntity
  8
1
  6
Continuous
100
AcDbLine
 10
91.47718500000001
 20
227.043867
 30
0.0
 11
91.47718500000001
 21
224.043867
 31
0.0
  0
LINE
  5
94FB
330
9486
100
AcDbEntity
  8
1
  6
Continuous
100
AcDbLine
 10
91.47718500000001
 20
224.043867
 30
0.0
 11
91.97718499999997
 21
224.043867
 31
0.0
  0
LINE
  5
94FC
330
9486
100
AcDbEntity
  8
1
  6
Continuous
100
AcDbLine
 10
91.47718500000001
 20
227.043867
 30
0.0
 11
91.97718499999997
 21
227.043867
 31
0.0
  0
LINE
  5
94FD
330
9486
100
AcDbEntity
  8
1
  6
Continuous
100
AcDbLine
 10
122.4771849999999
 20
227.043867
 30
0.0
 11
122.977185
 21
227.043867
 31
0.0
  0
LINE
  5
94FE
330
9486
100
AcDbEntity
  8
1
  6
Continuous
100
AcDbLine
 10
122.4771849999999
 20
224.043867
 30
0.0
 11
122.977185
 21
224.043867
 31
0.0
  0
LINE
  5
94FF
330
9486
100
AcDbEntity
  8
4
  6
CENTER
100
AcDbLine
 10
95.42718200000001
 20
225.293867
 30
0.0
 11
119.0271889999998
 21
225.293867
 31
0.0
  0
LINE
  5
9500
330
9486
100
AcDbEntity
  8
1
  6
Continuous
100
AcDbLine
 10
110.977185
 20
227.043867
 30
0.0
 11
115.2771889999998
 21
227.043867
 31
0.0
  0
LINE
  5
9501
330
9486
100
AcDbEntity
  8
1
  6
Continuous
100
AcDbLine
 10
110.977185
 20
223.543867
 30
0.0
 11
115.2771889999998
 21
223.543867
 31
0.0
  0
LINE
  5
9502
330
9486
100
AcDbEntity
  8
1
  6
Continuous
100
AcDbLine
 10
99.17718200000001
 20
227.043867
 30
0.0
 11
103.4771849999999
 21
227.043867
 31
0.0
  0
LINE
  5
9503
330
9486
100
AcDbEntity
  8
1
  6
Continuous
100
AcDbLine
 10
99.17718200000001
 20
223.543867
 30
0.0
 11
103.4771849999999
 21
223.543867
 31
0.0
  0
LINE
  5
9504
330
9486
100
AcDbEntity
  8
1
  6
Continuous
100
AcDbLine
 10
82.977185
 20
236.543867
 30
0.0
 11
92.977185
 21
236.543867
 31
0.0
  0
LINE
  5
9505
330
9486
100
AcDbEntity
  8
1
  6
Continuous
100
AcDbLine
 10
121.4771849999999
 20
236.543867
 30
0.0
 11
131.4771849999999
 21
236.543867
 31
0.0
  0
LINE
  5
9506
330
9486
100
AcDbEntity
  8
4
  6
CENTER
100
AcDbLine
 10
122.727185
 20
231.84387
 30
0.0
 11
114.927182
 21
231.84387
 31
0.0
  0
LINE
  5
9507
330
9486
100
AcDbEntity
  8
4
  6
CENTER
100
AcDbLine
 10
118.827192
 20
235.743849
 30
0.0
 11
118.827192
 21
227.943861
 31
0.0
  0
LINE
  5
9508
330
9486
100
AcDbEntity
  8
4
  6
CENTER
100
AcDbLine
 10
111.477185
 20
228.8938579999999
 30
0.0
 11
111.477185
 21
221.693861
 31
0.0
  0
LINE
  5
9509
330
9486
100
AcDbEntity
  8
4
  6
CENTER
100
AcDbLine
 10
102.9771849999999
 20
228.8938579999999
 30
0.0
 11
102.9771849999999
 21
221.693861
 31
0.0
  0
LINE
  5
950A
330
9486
100
AcDbEntity
  8
4
  6
CENTER
100
AcDbLine
 10
83.127179
 20
231.943861
 30
0.0
 11
90.327192
 21
231.943861
 31
0.0
  0
LINE
  5
950B
330
9486
100
AcDbEntity
  8
4
  6
CENTER
100
AcDbLine
 10
83.127179
 20
225.1438579999999
 30
0.0
 11
90.327192
 21
225.1438579999999
 31
0.0
  0
LINE
  5
950C
330
9486
100
AcDbEntity
  8
4
  6
CENTER
100
AcDbLine
 10
124.127179
 20
231.943861
 30
0.0
 11
131.327192
 21
231.943861
 31
0.0
  0
LINE
  5
950D
330
9486
100
AcDbEntity
  8
4
  6
CENTER
100
AcDbLine
 10
124.127179
 20
225.1438579999999
 30
0.0
 11
131.327192
 21
225.1438579999999
 31
0.0
  0
LINE
  5
950E
330
9486
100
AcDbEntity
  8
4
  6
CENTER
100
AcDbLine
 10
99.17718200000001
 20
229.0438669999999
 30
0.0
 11
99.17718200000001
 21
221.543867
 31
0.0
  0
LINE
  5
950F
330
9486
100
AcDbEntity
  8
4
  6
CENTER
100
AcDbLine
 10
115.2771889999998
 20
229.0438669999999
 30
0.0
 11
115.2771889999998
 21
221.543867
 31
0.0
  0
LINE
  5
9510
330
9486
100
AcDbEntity
  8
4
  6
CENTER
100
AcDbLine
 10
95.627179
 20
235.743849
 30
0.0
 11
95.627179
 21
227.943861
 31
0.0
  0
LINE
  5
9511
330
9486
100
AcDbEntity
  8
4
  6
CENTER
100
AcDbLine
 10
91.727185
 20
231.84387
 30
0.0
 11
99.527189
 21
231.84387
 31
0.0
  0
LINE
  5
9512
330
9486
100
AcDbEntity
  8
4
  6
CENTER
100
AcDbLine
 10
107.227185
 20
152.4438609999999
 30
0.0
 11
107.227185
 21
131.643858
 31
0.0
  0
LINE
  5
9513
330
9486
100
AcDbEntity
  8
4
  6
CENTER
100
AcDbLine
 10
86.727185
 20
137.243864
 30
0.0
 11
86.727185
 21
132.5438609999999
 31
0.0
  0
LINE
  5
9514
330
9486
100
AcDbEntity
  8
4
  6
CENTER
100
AcDbLine
 10
127.7271849999999
 20
137.243864
 30
0.0
 11
127.7271849999999
 21
132.5438609999999
 31
0.0
  0
LINE
  5
9515
330
9486
100
AcDbEntity
  8
1
  6
Continuous
100
AcDbLine
 10
177.2271849999999
 20
147.5438609999999
 30
0.0
 11
191.927185
 21
147.5438609999999
 31
0.0
  0
LINE
  5
9516
330
9486
100
AcDbEntity
  8
1
  6
Continuous
100
AcDbLine
 10
177.2271849999999
 20
134.5438609999999
 30
0.0
 11
191.7271849999999
 21
134.5438609999999
 31
0.0
  0
LINE
  5
9517
330
9486
100
AcDbEntity
  8
1
  6
Continuous
100
AcDbLine
 10
177.2271849999999
 20
147.5438609999999
 30
0.0
 11
177.2271849999999
 21
134.5438609999999
 31
0.0
  0
LINE
  5
9518
330
9486
100
AcDbEntity
  8
1
  6
Continuous
100
AcDbLine
 10
192.7271849999999
 20
146.743861
 30
0.0
 11
192.7271849999999
 21
137.443858
 31
0.0
  0
LINE
  5
9519
330
9486
100
AcDbEntity
  8
1
  6
Continuous
100
AcDbLine
 10
191.7271849999999
 20
147.5438609999999
 30
0.0
 11
191.7271849999999
 21
134.5438609999999
 31
0.0
  0
LINE
  5
951A
330
9486
100
AcDbEntity
  8
1
  6
Continuous
100
AcDbLine
 10
191.7271849999999
 20
136.643858
 30
0.0
 11
191.927185
 21
136.643858
 31
0.0
  0
LINE
  5
951B
330
9486
100
AcDbEntity
  8
1
  6
Continuous
100
AcDbLine
 10
177.2271849999999
 20
135.343864
 30
0.0
 11
191.7271849999999
 21
135.343864
 31
0.0
  0
LINE
  5
951C
330
9486
100
AcDbEntity
  8
1
  6
Continuous
100
AcDbLine
 10
177.2271849999999
 20
137.443861
 30
0.0
 11
191.7271849999999
 21
137.443861
 31
0.0
  0
LINE
  5
951D
330
9486
100
AcDbEntity
  8
1
  6
Continuous
100
AcDbLine
 10
179.2271849999999
 20
137.443861
 30
0.0
 11
179.2271849999999
 21
137.268355
 31
0.0
  0
LINE
  5
951E
330
9486
100
AcDbEntity
  8
1
  6
Continuous
100
AcDbLine
 10
182.2271849999999
 20
137.443861
 30
0.0
 11
182.2271849999999
 21
137.268355
 31
0.0
  0
LINE
  5
951F
330
9486
100
AcDbEntity
  8
1
  6
Continuous
100
AcDbLine
 10
179.2271849999999
 20
137.268355
 30
0.0
 11
182.2271849999999
 21
137.268355
 31
0.0
  0
LINE
  5
9520
330
9486
100
AcDbEntity
  8
1
  6
Continuous
100
AcDbLine
 10
82.977185
 20
52.04385999999999
 30
0.0
 11
82.977185
 21
37.54385999999998
 31
0.0
  0
LINE
  5
9521
330
9486
100
AcDbEntity
  8
1
  6
Continuous
100
AcDbLine
 10
131.4771849999999
 20
52.04385999999999
 30
0.0
 11
131.4771849999999
 21
37.54385999999998
 31
0.0
  0
LINE
  5
9522
330
9486
100
AcDbEntity
  8
1
  6
Continuous
100
AcDbLine
 10
82.977185
 20
37.54385999999998
 30
0.0
 11
91.97718499999997
 21
37.54385999999998
 31
0.0
  0
LINE
  5
9523
330
9486
100
AcDbEntity
  8
1
  6
Continuous
100
AcDbLine
 10
82.977185
 20
52.04385999999999
 30
0.0
 11
131.4771849999999
 21
52.04385999999999
 31
0.0
  0
LINE
  5
9524
330
9486
100
AcDbEntity
  8
1
  6
Continuous
100
AcDbLine
 10
91.97718499999997
 20
36.54385999999997
 30
0.0
 11
122.4771849999999
 21
36.54385999999997
 31
0.0
  0
LINE
  5
9525
330
9486
100
AcDbEntity
  8
1
  6
Continuous
100
AcDbLine
 10
91.97718499999997
 20
47.04385999999998
 30
0.0
 11
91.97718499999997
 21
36.54385999999997
 31
0.0
  0
LINE
  5
9526
330
9486
100
AcDbEntity
  8
1
  6
Continuous
100
AcDbLine
 10
122.4771849999999
 20
47.04385999999998
 30
0.0
 11
122.4771849999999
 21
36.54385999999997
 31
0.0
  0
LINE
  5
9527
330
9486
100
AcDbEntity
  8
1
  6
Continuous
100
AcDbLine
 10
122.977185
 20
50.04386
 30
0.0
 11
122.977185
 21
47.04385999999998
 31
0.0
  0
LINE
  5
9528
330
9486
100
AcDbEntity
  8
1
  6
Continuous
100
AcDbLine
 10
91.47718500000001
 20
50.04386
 30
0.0
 11
91.47718500000001
 21
47.04385999999998
 31
0.0
  0
LINE
  5
9529
330
9486
100
AcDbEntity
  8
1
  6
Continuous
100
AcDbLine
 10
91.47718500000001
 20
50.04386
 30
0.0
 11
95.97718499999999
 21
48.54385999999998
 31
0.0
  0
LINE
  5
952A
330
9486
100
AcDbEntity
  8
1
  6
Continuous
100
AcDbLine
 10
118.477185
 20
48.54385999999998
 30
0.0
 11
122.977185
 21
50.04386
 31
0.0
  0
LINE
  5
952B
330
9486
100
AcDbEntity
  8
1
  6
Continuous
100
AcDbLine
 10
118.477185
 20
47.04385999999998
 30
0.0
 11
122.977185
 21
47.04385999999998
 31
0.0
  0
LINE
  5
952C
330
9486
100
AcDbEntity
  8
1
  6
Continuous
100
AcDbLine
 10
91.47718500000001
 20
47.04385999999998
 30
0.0
 11
95.97718499999999
 21
47.04385999999998
 31
0.0
  0
LINE
  5
952D
330
9486
100
AcDbEntity
  8
1
  6
Continuous
100
AcDbLine
 10
95.97718499999999
 20
48.54385999999998
 30
0.0
 11
95.97718499999999
 21
47.04385999999998
 31
0.0
  0
LINE
  5
952E
330
9486
100
AcDbEntity
  8
1
  6
Continuous
100
AcDbLine
 10
118.477185
 20
48.54385999999998
 30
0.0
 11
118.477185
 21
47.04385999999998
 31
0.0
  0
LINE
  5
952F
330
9486
100
AcDbEntity
  8
1
  6
Continuous
100
AcDbLine
 10
91.97718499999997
 20
52.04385999999999
 30
0.0
 11
91.97718499999997
 21
50.04386
 31
0.0
  0
LINE
  5
9530
330
9486
100
AcDbEntity
  8
1
  6
Continuous
100
AcDbLine
 10
122.4771849999999
 20
52.04385999999999
 30
0.0
 11
122.4771849999999
 21
50.04386
 31
0.0
  0
LINE
  5
9531
330
9486
100
AcDbEntity
  8
1
  6
Continuous
100
AcDbLine
 10
90.777189
 20
51.04385999999998
 30
0.0
 11
90.777189
 21
38.54385999999998
 31
0.0
  0
LINE
  5
9532
330
9486
100
AcDbEntity
  8
1
  6
Continuous
100
AcDbLine
 10
123.6771819999999
 20
51.04385999999998
 30
0.0
 11
123.6771819999999
 21
38.54385999999998
 31
0.0
  0
LINE
  5
9533
330
9486
100
AcDbEntity
  8
4
  6
CENTER
100
AcDbLine
 10
107.227185
 20
57.04385999999999
 30
0.0
 11
107.227185
 21
31.54386
 31
0.0
  0
LINE
  5
9534
330
9486
100
AcDbEntity
  8
4
  6
CENTER
100
AcDbLine
 10
86.727185
 20
52.54386
 30
0.0
 11
86.727185
 21
38.54385999999998
 31
0.0
  0
LINE
  5
9535
330
9486
100
AcDbEntity
  8
4
  6
CENTER
100
AcDbLine
 10
127.7271849999999
 20
52.54386
 30
0.0
 11
127.7271849999999
 21
38.54385999999998
 31
0.0
  0
LINE
  5
9536
330
9486
100
AcDbEntity
  8
1
  6
Continuous
100
AcDbLine
 10
126.127179
 20
48.943861
 30
0.0
 11
126.127179
 21
42.143858
 31
0.0
  0
LINE
  5
9537
330
9486
100
AcDbEntity
  8
1
  6
Continuous
100
AcDbLine
 10
129.327192
 20
48.943861
 30
0.0
 11
129.327192
 21
42.143858
 31
0.0
  0
LINE
  5
9538
330
9486
100
AcDbEntity
  8
1
  6
Continuous
100
AcDbLine
 10
85.127179
 20
48.943861
 30
0.0
 11
85.127179
 21
42.143858
 31
0.0
  0
LINE
  5
9539
330
9486
100
AcDbEntity
  8
1
  6
Continuous
100
AcDbLine
 10
88.32719200000004
 20
48.943861
 30
0.0
 11
88.32719200000004
 21
42.143858
 31
0.0
  0
LINE
  5
953A
330
9486
100
AcDbEntity
  8
1
  6
Continuous
100
AcDbLine
 10
276.477185
 20
134.5438609999999
 30
0.0
 11
269.477185
 21
134.5438609999999
 31
0.0
  0
LINE
  5
953B
330
9486
100
AcDbEntity
  8
1
  6
Continuous
100
AcDbLine
 10
266.6771849999999
 20
147.5438609999999
 30
0.0
 11
237.777185
 21
147.5438609999999
 31
0.0
  0
LINE
  5
953C
330
9486
100
AcDbEntity
  8
1
  6
Continuous
100
AcDbLine
 10
236.9771849999999
 20
146.743861
 30
0.0
 11
236.9771849999999
 21
136.643858
 31
0.0
  0
LINE
  5
953D
330
9486
100
AcDbEntity
  8
1
  6
Continuous
100
AcDbLine
 10
267.477185
 20
146.743861
 30
0.0
 11
267.477185
 21
136.643858
 31
0.0
  0
LINE
  5
953E
330
9486
100
AcDbEntity
  8
1
  6
Continuous
100
AcDbLine
 10
276.477185
 20
135.343864
 30
0.0
 11
269.477185
 21
135.343864
 31
0.0
  0
LINE
  5
953F
330
9486
100
AcDbEntity
  8
1
  6
Continuous
100
AcDbLine
 10
276.477185
 20
135.343864
 30
0.0
 11
276.477185
 21
134.5438609999999
 31
0.0
  0
LINE
  5
9540
330
9486
100
AcDbEntity
  8
1
  6
Continuous
100
AcDbLine
 10
227.9771849999999
 20
135.343864
 30
0.0
 11
227.9771849999999
 21
134.5438609999999
 31
0.0
  0
LINE
  5
9541
330
9486
100
AcDbEntity
  8
1
  6
Continuous
100
AcDbLine
 10
234.9771849999999
 20
134.5438609999999
 30
0.0
 11
227.9771849999999
 21
134.5438609999999
 31
0.0
  0
LINE
  5
9542
330
9486
100
AcDbEntity
  8
1
  6
Continuous
100
AcDbLine
 10
234.9771849999999
 20
135.343864
 30
0.0
 11
227.9771849999999
 21
135.343864
 31
0.0
  0
LINE
  5
9543
330
9486
100
AcDbEntity
  8
1
  6
Continuous
100
AcDbLine
 10
267.477185
 20
136.643858
 30
0.0
 11
236.9771849999999
 21
136.643858
 31
0.0
  0
LINE
  5
9544
330
9486
100
AcDbEntity
  8
1
  6
Continuous
100
AcDbLine
 10
269.477185
 20
135.343864
 30
0.0
 11
268.1253789999999
 21
137.1127149999997
 31
0.0
  0
LINE
  5
9545
330
9486
100
AcDbEntity
  8
1
  6
Continuous
100
AcDbLine
 10
267.477185
 20
136.643858
 30
0.0
 11
268.8289919999999
 21
134.875007
 31
0.0
  0
LINE
  5
9546
330
9486
100
AcDbEntity
  8
1
  6
Continuous
100
AcDbLine
 10
236.9771549999999
 20
136.643828
 30
0.0
 11
235.625379
 21
134.874962
 31
0.0
  0
LINE
  5
9547
330
9486
100
AcDbEntity
  8
1
  6
Continuous
100
AcDbLine
 10
234.9771549999999
 20
135.3438179999999
 30
0.0
 11
236.3289619999999
 21
137.112684
 31
0.0
  0
LINE
  5
9548
330
9486
100
AcDbEntity
  8
1
  6
Continuous
100
AcDbLine
 10
266.6771979999999
 20
135.843855
 30
0.0
 11
263.477185
 21
135.843855
 31
0.0
  0
LINE
  5
9549
330
9486
100
AcDbEntity
  8
1
  6
Continuous
100
AcDbLine
 10
263.477185
 20
136.643858
 30
0.0
 11
263.477185
 21
135.843855
 31
0.0
  0
LINE
  5
954A
330
9486
100
AcDbEntity
  8
1
  6
Continuous
100
AcDbLine
 10
240.9771849999999
 20
136.643858
 30
0.0
 11
240.9771849999999
 21
135.843855
 31
0.0
  0
LINE
  5
954B
330
9486
100
AcDbEntity
  8
1
  6
Continuous
100
AcDbLine
 10
240.9771849999999
 20
135.843855
 30
0.0
 11
237.777173
 21
135.843855
 31
0.0
  0
LINE
  5
954C
330
9486
100
AcDbEntity
  8
4
  6
CENTER
100
AcDbLine
 10
263.8271919999999
 20
151.043867
 30
0.0
 11
263.8271919999999
 21
133.843855
 31
0.0
  0
LINE
  5
954D
330
9486
100
AcDbEntity
  8
4
  6
CENTER
100
AcDbLine
 10
240.627179
 20
151.043867
 30
0.0
 11
240.627179
 21
133.843855
 31
0.0
  0
LINE
  5
954E
330
9486
100
AcDbEntity
  8
4
  6
CENTER
100
AcDbLine
 10
272.477185
 20
142.043867
 30
0.0
 11
231.9771849999999
 21
142.043867
 31
0.0
  0
LINE
  5
954F
330
9486
100
AcDbEntity
  8
4
  6
CENTER
100
AcDbLine
 10
247.977185
 20
151.443861
 30
0.0
 11
247.977185
 21
132.643858
 31
0.0
  0
LINE
  5
9550
330
9486
100
AcDbEntity
  8
4
  6
CENTER
100
AcDbLine
 10
256.477185
 20
151.443861
 30
0.0
 11
256.477185
 21
132.643858
 31
0.0
  0
LINE
  5
9551
330
9486
100
AcDbEntity
  8
1
  6
Continuous
100
AcDbLine
 10
258.0771919999999
 20
149.5438609999999
 30
0.0
 11
254.8771789999999
 21
149.5438609999999
 31
0.0
  0
LINE
  5
9552
330
9486
100
AcDbEntity
  8
1
  6
Continuous
100
AcDbLine
 10
254.8771789999999
 20
149.5438609999999
 30
0.0
 11
254.8771789999999
 21
147.5438609999999
 31
0.0
  0
LINE
  5
9553
330
9486
100
AcDbEntity
  8
1
  6
Continuous
100
AcDbLine
 10
258.0771919999999
 20
149.5438609999999
 30
0.0
 11
258.0771919999999
 21
147.5438609999999
 31
0.0
  0
LINE
  5
9554
330
9486
100
AcDbEntity
  8
1
  6
Continuous
100
AcDbLine
 10
249.577192
 20
149.5438609999999
 30
0.0
 11
249.577192
 21
147.5438609999999
 31
0.0
  0
LINE
  5
9555
330
9486
100
AcDbEntity
  8
1
  6
Continuous
100
AcDbLine
 10
246.377179
 20
149.5438609999999
 30
0.0
 11
246.377179
 21
147.5438609999999
 31
0.0
  0
LINE
  5
9556
330
9486
100
AcDbEntity
  8
1
  6
Continuous
100
AcDbLine
 10
249.577192
 20
149.5438609999999
 30
0.0
 11
246.377179
 21
149.5438609999999
 31
0.0
  0
LINE
  5
9557
330
9486
100
AcDbEntity
  8
1
  6
Continuous
100
AcDbLine
 10
258.0771919999999
 20
134.643858
 30
0.0
 11
258.0771919999999
 21
136.643858
 31
0.0
  0
LINE
  5
9558
330
9486
100
AcDbEntity
  8
1
  6
Continuous
100
AcDbLine
 10
258.0771919999999
 20
134.643858
 30
0.0
 11
254.8771789999999
 21
134.643858
 31
0.0
  0
LINE
  5
9559
330
9486
100
AcDbEntity
  8
1
  6
Continuous
100
AcDbLine
 10
254.8771789999999
 20
134.643858
 30
0.0
 11
254.8771789999999
 21
136.643858
 31
0.0
  0
LINE
  5
955A
330
9486
100
AcDbEntity
  8
1
  6
Continuous
100
AcDbLine
 10
249.577192
 20
134.643858
 30
0.0
 11
249.577192
 21
136.643858
 31
0.0
  0
LINE
  5
955B
330
9486
100
AcDbEntity
  8
1
  6
Continuous
100
AcDbLine
 10
249.577192
 20
134.643858
 30
0.0
 11
246.377179
 21
134.643858
 31
0.0
  0
LINE
  5
955C
330
9486
100
AcDbEntity
  8
1
  6
Continuous
100
AcDbLine
 10
246.377179
 20
134.643858
 30
0.0
 11
246.377179
 21
136.643858
 31
0.0
  0
LINE
  5
955D
330
9486
100
AcDbEntity
  8
4
  6
CENTER
100
AcDbLine
 10
272.727185
 20
137.243864
 30
0.0
 11
272.727185
 21
132.5438609999999
 31
0.0
  0
LINE
  5
955E
330
9486
100
AcDbEntity
  8
4
  6
CENTER
100
AcDbLine
 10
231.727185
 20
137.243864
 30
0.0
 11
231.727185
 21
132.5438609999999
 31
0.0
  0
LINE
  5
955F
330
9486
100
AcDbEntity
  8
4
  6
CENTER
100
AcDbLine
 10
252.227185
 20
152.4438609999999
 30
0.0
 11
252.227185
 21
131.643858
 31
0.0
  0
LINE
  5
9560
330
9486
100
AcDbEntity
  8
4
  6
CENTER
100
AcDbLine
 10
124.127179
 20
48.943861
 30
0.0
 11
131.327192
 21
48.943861
 31
0.0
  0
LINE
  5
9561
330
9486
100
AcDbEntity
  8
4
  6
CENTER
100
AcDbLine
 10
124.127179
 20
42.143858
 30
0.0
 11
131.327192
 21
42.143858
 31
0.0
  0
LINE
  5
9562
330
9486
100
AcDbEntity
  8
4
  6
CENTER
100
AcDbLine
 10
83.127179
 20
48.943861
 30
0.0
 11
90.327192
 21
48.943861
 31
0.0
  0
LINE
  5
9563
330
9486
100
AcDbEntity
  8
4
  6
CENTER
100
AcDbLine
 10
83.127179
 20
42.143858
 30
0.0
 11
90.327192
 21
42.143858
 31
0.0
  0
LINE
  5
9564
330
9486
100
AcDbEntity
  8
4
  6
CENTER
100
AcDbLine
 10
172.227185
 20
142.043867
 30
0.0
 11
197.7271849999999
 21
142.043867
 31
0.0
  0
LINE
  5
9565
330
9486
100
AcDbEntity
  8
4
  6
CENTER
100
AcDbLine
 10
180.4771849999999
 20
151.443861
 30
0.0
 11
180.4771849999999
 21
132.7438579999999
 31
0.0
  0
LINE
  5
9566
330
9486
100
AcDbEntity
  8
1
  6
Continuous
100
AcDbLine
 10
109.877179
 20
149.5438609999999
 30
0.0
 11
109.877179
 21
147.5438609999999
 31
0.0
  0
LINE
  5
9567
330
9486
100
AcDbEntity
  8
1
  6
Continuous
100
AcDbLine
 10
109.877179
 20
149.5438609999999
 30
0.0
 11
113.0771919999999
 21
149.5438609999999
 31
0.0
  0
LINE
  5
9568
330
9486
100
AcDbEntity
  8
1
  6
Continuous
100
AcDbLine
 10
113.0771919999999
 20
149.5438609999999
 30
0.0
 11
113.0771919999999
 21
147.5438609999999
 31
0.0
  0
LINE
  5
9569
330
9486
100
AcDbEntity
  8
4
  6
CENTER
100
AcDbLine
 10
118.827192
 20
151.043867
 30
0.0
 11
118.827192
 21
133.843855
 31
0.0
  0
LINE
  5
956A
330
9486
100
AcDbEntity
  8
4
  6
CENTER
100
AcDbLine
 10
180.327192
 20
137.243864
 30
0.0
 11
180.327192
 21
132.5438609999999
 31
0.0
  0
LINE
  5
956B
330
9486
100
AcDbEntity
  8
4
  6
CENTER
100
AcDbLine
 10
187.127179
 20
137.243864
 30
0.0
 11
187.127179
 21
132.5438609999999
 31
0.0
  0
LINE
  5
956C
330
9486
100
AcDbEntity
  8
4
  6
CENTER
100
AcDbLine
 10
27.427182
 20
151.043867
 30
0.0
 11
27.427182
 21
133.943855
 31
0.0
  0
LINE
  5
956D
330
9486
100
AcDbEntity
  8
1
  6
Continuous
100
AcDbLine
 10
35.57719199999999
 20
149.5438609999999
 30
0.0
 11
35.57719199999999
 21
147.5438609999999
 31
0.0
  0
LINE
  5
956E
330
9486
100
AcDbEntity
  8
1
  6
Continuous
100
AcDbLine
 10
32.37717899999999
 20
149.5438609999999
 30
0.0
 11
32.37717899999999
 21
147.5438609999999
 31
0.0
  0
LINE
  5
956F
330
9486
100
AcDbEntity
  8
1
  6
Continuous
100
AcDbLine
 10
35.57719199999999
 20
149.5438609999999
 30
0.0
 11
32.37717899999999
 21
149.5438609999999
 31
0.0
  0
LINE
  5
9570
330
9486
100
AcDbEntity
  8
1
  6
Continuous
100
AcDbLine
 10
37.227185
 20
147.5438609999999
 30
0.0
 11
22.52718499999998
 21
147.5438609999999
 31
0.0
  0
LINE
  5
9571
330
9486
100
AcDbEntity
  8
1
  6
Continuous
100
AcDbLine
 10
37.227185
 20
134.5438609999999
 30
0.0
 11
22.72718499999999
 21
134.5438609999999
 31
0.0
  0
LINE
  5
9572
330
9486
100
AcDbEntity
  8
1
  6
Continuous
100
AcDbLine
 10
37.227185
 20
147.5438609999999
 30
0.0
 11
37.227185
 21
134.5438609999999
 31
0.0
  0
LINE
  5
9573
330
9486
100
AcDbEntity
  8
1
  6
Continuous
100
AcDbLine
 10
21.72718499999999
 20
146.743861
 30
0.0
 11
21.72718499999999
 21
137.443858
 31
0.0
  0
LINE
  5
9574
330
9486
100
AcDbEntity
  8
1
  6
Continuous
100
AcDbLine
 10
22.72718499999999
 20
147.5438609999999
 30
0.0
 11
22.72718499999999
 21
134.5438609999999
 31
0.0
  0
LINE
  5
9575
330
9486
100
AcDbEntity
  8
1
  6
Continuous
100
AcDbLine
 10
22.72718499999999
 20
136.643858
 30
0.0
 11
22.52718499999998
 21
136.643858
 31
0.0
  0
LINE
  5
9576
330
9486
100
AcDbEntity
  8
1
  6
Continuous
100
AcDbLine
 10
37.227185
 20
135.343864
 30
0.0
 11
22.72718499999999
 21
135.343864
 31
0.0
  0
LINE
  5
9577
330
9486
100
AcDbEntity
  8
1
  6
Continuous
100
AcDbLine
 10
37.227185
 20
137.443861
 30
0.0
 11
22.72718499999999
 21
137.443861
 31
0.0
  0
LINE
  5
9578
330
9486
100
AcDbEntity
  8
1
  6
Continuous
100
AcDbLine
 10
35.22718499999999
 20
137.443861
 30
0.0
 11
35.22718499999999
 21
137.268355
 31
0.0
  0
LINE
  5
9579
330
9486
100
AcDbEntity
  8
1
  6
Continuous
100
AcDbLine
 10
32.227185
 20
137.443861
 30
0.0
 11
32.227185
 21
137.268355
 31
0.0
  0
LINE
  5
957A
330
9486
100
AcDbEntity
  8
1
  6
Continuous
100
AcDbLine
 10
35.22718499999999
 20
137.268355
 30
0.0
 11
32.227185
 21
137.268355
 31
0.0
  0
LINE
  5
957B
330
9486
100
AcDbEntity
  8
4
  6
CENTER
100
AcDbLine
 10
42.227185
 20
142.043867
 30
0.0
 11
16.727185
 21
142.043867
 31
0.0
  0
LINE
  5
957C
330
9486
100
AcDbEntity
  8
4
  6
CENTER
100
AcDbLine
 10
33.97718499999999
 20
151.443861
 30
0.0
 11
33.97718499999999
 21
132.7438579999999
 31
0.0
  0
LINE
  5
957D
330
9486
100
AcDbEntity
  8
4
  6
CENTER
100
AcDbLine
 10
34.127179
 20
137.243864
 30
0.0
 11
34.127179
 21
132.5438609999999
 31
0.0
  0
LINE
  5
957E
330
9486
100
AcDbEntity
  8
4
  6
CENTER
100
AcDbLine
 10
27.327192
 20
137.243864
 30
0.0
 11
27.327192
 21
132.5438609999999
 31
0.0
  0
ARC
  5
957F
330
9486
100
AcDbEntity
  8
1
  6
Continuous
100
AcDbCircle
 10
91.97718499999997
 20
136.643858
 30
0.0
 40
0.8
100
AcDbArc
 50
90.00000300000001
 51
144.1208159999999
  0
ARC
  5
9580
330
9486
100
AcDbEntity
  8
1
  6
Continuous
100
AcDbCircle
 10
89.97718499999995
 20
135.343864
 30
0.0
 40
0.8
100
AcDbArc
 50
269.9999969999999
 51
324.120808
  0
ARC
  5
9581
330
9486
100
AcDbEntity
  8
1
  6
Continuous
100
AcDbCircle
 10
122.4771849999999
 20
136.643858
 30
0.0
 40
0.8
100
AcDbArc
 50
35.879185
 51
90.00000300000001
  0
ARC
  5
9582
330
9486
100
AcDbEntity
  8
1
  6
Continuous
100
AcDbCircle
 10
124.477185
 20
135.343864
 30
0.0
 40
0.8
100
AcDbArc
 50
215.8791839999999
 51
269.9999969999999
  0
ARC
  5
9583
330
9486
100
AcDbEntity
  8
1
  6
Continuous
100
AcDbCircle
 10
92.77718900000001
 20
136.643858
 30
0.0
 40
0.8
100
AcDbArc
 50
179.9999909999999
 51
270.000001
  0
ARC
  5
9584
330
9486
100
AcDbEntity
  8
1
  6
Continuous
100
AcDbCircle
 10
121.6771819999999
 20
136.643858
 30
0.0
 40
0.8
100
AcDbArc
 50
269.9999969999999
 51
0.0
  0
ARC
  5
9585
330
9486
100
AcDbEntity
  8
1
  6
Continuous
100
AcDbCircle
 10
95.627179
 20
147.2157359999999
 30
0.0
 40
1.928125
100
AcDbArc
 50
9.798185
 51
170.2018119999999
  0
ARC
  5
9586
330
9486
100
AcDbEntity
  8
1
  6
Continuous
100
AcDbCircle
 10
187.0271729999998
 20
147.2157359999999
 30
0.0
 40
1.928125
100
AcDbArc
 50
9.798185
 51
170.2018119999999
  0
ARC
  5
9587
330
9486
100
AcDbEntity
  8
1
  6
Continuous
100
AcDbCircle
 10
86.727185
 20
231.943861
 30
0.0
 40
1.6
100
AcDbArc
 50
0.0
 51
180.000005
  0
ARC
  5
9588
330
9486
100
AcDbEntity
  8
1
  6
Continuous
100
AcDbCircle
 10
86.727185
 20
225.1438579999999
 30
0.0
 40
1.6
100
AcDbArc
 50
180.000009
 51
0.0
  0
ARC
  5
9589
330
9486
100
AcDbEntity
  8
1
  6
Continuous
100
AcDbCircle
 10
127.7271849999999
 20
231.943861
 30
0.0
 40
1.6
100
AcDbArc
 50
0.0
 51
180.000005
  0
ARC
  5
958A
330
9486
100
AcDbEntity
  8
1
  6
Continuous
100
AcDbCircle
 10
127.7271849999999
 20
225.1438579999999
 30
0.0
 40
1.6
100
AcDbArc
 50
180.000009
 51
0.0
  0
ARC
  5
958B
330
9486
100
AcDbEntity
  8
1
  6
Continuous
100
AcDbCircle
 10
99.17718200000001
 20
225.293867
 30
0.0
 40
1.75
100
AcDbArc
 50
90.00000300000001
 51
270.000001
  0
ARC
  5
958C
330
9486
100
AcDbEntity
  8
1
  6
Continuous
100
AcDbCircle
 10
103.4771849999999
 20
225.293867
 30
0.0
 40
1.75
100
AcDbArc
 50
269.9999969999999
 51
89.99998900000001
  0
ARC
  5
958D
330
9486
100
AcDbEntity
  8
1
  6
Continuous
100
AcDbCircle
 10
110.977185
 20
225.293867
 30
0.0
 40
1.75
100
AcDbArc
 50
90.00000300000001
 51
270.000001
  0
ARC
  5
958E
330
9486
100
AcDbEntity
  8
1
  6
Continuous
100
AcDbCircle
 10
115.2771889999998
 20
225.293867
 30
0.0
 40
1.75
100
AcDbArc
 50
269.9999969999999
 51
89.99998900000001
  0
CIRCLE
  5
958F
330
9486
100
AcDbEntity
  8
1
  6
Continuous
100
AcDbCircle
 10
111.477185
 20
225.293867
 30
0.0
 40
1.6
  0
CIRCLE
  5
9590
330
9486
100
AcDbEntity
  8
1
  6
Continuous
100
AcDbCircle
 10
102.9771849999999
 20
225.293867
 30
0.0
 40
1.6
  0
ARC
  5
9591
330
9486
100
AcDbEntity
  8
1
  6
Continuous
100
AcDbCircle
 10
102.9771849999999
 20
225.293867
 30
0.0
 40
2.6
100
AcDbArc
 50
137.6950149999998
 51
222.304995
  0
ARC
  5
9592
330
9486
100
AcDbEntity
  8
1
  6
Continuous
100
AcDbCircle
 10
111.477185
 20
225.293867
 30
0.0
 40
2.6
100
AcDbArc
 50
317.69501
 51
42.30499
  0
CIRCLE
  5
9593
330
9486
100
AcDbEntity
  8
1
  6
Continuous
100
AcDbCircle
 10
95.627179
 20
231.84387
 30
0.0
 40
1.9
  0
CIRCLE
  5
9594
330
9486
100
AcDbEntity
  8
1
  6
Continuous
100
AcDbCircle
 10
118.827192
 20
231.84387
 30
0.0
 40
1.9
  0
ARC
  5
9595
330
9486
100
AcDbEntity
  8
1
  6
Continuous
100
AcDbCircle
 10
86.727185
 20
48.943861
 30
0.0
 40
1.6
100
AcDbArc
 50
0.0
 51
180.000005
  0
ARC
  5
9596
330
9486
100
AcDbEntity
  8
1
  6
Continuous
100
AcDbCircle
 10
86.727185
 20
42.143858
 30
0.0
 40
1.6
100
AcDbArc
 50
180.000009
 51
0.0
  0
ARC
  5
9597
330
9486
100
AcDbEntity
  8
1
  6
Continuous
100
AcDbCircle
 10
127.7271849999999
 20
48.943861
 30
0.0
 40
1.6
100
AcDbArc
 50
0.0
 51
180.000005
  0
ARC
  5
9598
330
9486
100
AcDbEntity
  8
1
  6
Continuous
100
AcDbCircle
 10
127.7271849999999
 20
42.143858
 30
0.0
 40
1.6
100
AcDbArc
 50
180.000009
 51
0.0
  0
ARC
  5
9599
330
9486
100
AcDbEntity
  8
1
  6
Continuous
100
AcDbCircle
 10
267.477185
 20
136.643858
 30
0.0
 40
0.8
100
AcDbArc
 50
35.879185
 51
89.99999599999998
  0
ARC
  5
959A
330
9486
100
AcDbEntity
  8
1
  6
Continuous
100
AcDbCircle
 10
269.477185
 20
135.343864
 30
0.0
 40
0.8
100
AcDbArc
 50
215.879197
 51
269.9999969999999
  0
ARC
  5
959B
330
9486
100
AcDbEntity
  8
1
  6
Continuous
100
AcDbCircle
 10
236.9771849999999
 20
136.643858
 30
0.0
 40
0.8
100
AcDbArc
 50
89.99999599999998
 51
144.1208159999999
  0
ARC
  5
959C
330
9486
100
AcDbEntity
  8
1
  6
Continuous
100
AcDbCircle
 10
234.9771849999999
 20
135.343864
 30
0.0
 40
0.8
100
AcDbArc
 50
269.9999969999999
 51
324.1208219999998
  0
ARC
  5
959D
330
9486
100
AcDbEntity
  8
1
  6
Continuous
100
AcDbCircle
 10
266.6771979999999
 20
136.643858
 30
0.0
 40
0.8
100
AcDbArc
 50
270.0000039999998
 51
0.000005
  0
ARC
  5
959E
330
9486
100
AcDbEntity
  8
1
  6
Continuous
100
AcDbCircle
 10
237.777173
 20
136.643858
 30
0.0
 40
0.8
100
AcDbArc
 50
180.000009
 51
269.9999969999999
  0
ARC
  5
959F
330
9486
100
AcDbEntity
  8
1
  6
Continuous
100
AcDbCircle
 10
263.8271919999999
 20
147.2157359999999
 30
0.0
 40
1.928125
100
AcDbArc
 50
9.798187999999999
 51
170.2018119999999
  0
ARC
  5
95A0
330
9486
100
AcDbEntity
  8
1
  6
Continuous
100
AcDbCircle
 10
240.627179
 20
147.2157359999999
 30
0.0
 40
1.928125
100
AcDbArc
 50
9.798187999999999
 51
170.2018119999999
  0
ARC
  5
95A1
330
9486
100
AcDbEntity
  8
1
  6
Continuous
100
AcDbCircle
 10
118.827192
 20
147.2157359999999
 30
0.0
 40
1.928125
100
AcDbArc
 50
9.798185
 51
170.2018119999999
  0
ARC
  5
95A2
330
9486
100
AcDbEntity
  8
1
  6
Continuous
100
AcDbCircle
 10
27.427182
 20
147.2157359999999
 30
0.0
 40
1.928125
100
AcDbArc
 50
9.798187999999999
 51
170.2018119999999
  0
LINE
  5
95A3
330
9486
100
AcDbEntity
  8
4
  6
CENTER
100
AcDbLine
 10
609.6714679999998
 20
142.043867
 30
0.0
 11
573.671468
 21
142.043867
 31
0.0
  0
LINE
  5
95A4
330
9486
100
AcDbEntity
  8
1
  6
Continuous
100
AcDbLine
 10
606.671468
 20
145.543867
 30
0.0
 11
576.6714679999997
 21
145.543867
 31
0.0
  0
LINE
  5
95A5
330
9486
100
AcDbEntity
  8
1
  6
Continuous
100
AcDbLine
 10
606.671468
 20
138.543867
 30
0.0
 11
576.6714679999997
 21
138.543867
 31
0.0
  0
LINE
  5
95A6
330
9486
100
AcDbEntity
  8
4
  6
CENTER
100
AcDbLine
 10
604.171468
 20
138.543867
 30
0.0
 11
604.171468
 21
145.543867
 31
0.0
  0
LINE
  5
95A7
330
9486
100
AcDbEntity
  8
1
  6
Continuous
100
AcDbLine
 10
607.671468
 20
139.543867
 30
0.0
 11
607.671468
 21
144.543867
 31
0.0
  0
ARC
  5
95A8
330
9486
100
AcDbEntity
  8
1
  6
Continuous
100
AcDbCircle
 10
606.671468
 20
139.543867
 30
0.0
 40
1.0
100
AcDbArc
 50
270.0000049999998
 51
0.000001
  0
ARC
  5
95A9
330
9486
100
AcDbEntity
  8
1
  6
Continuous
100
AcDbCircle
 10
606.671468
 20
144.543867
 30
0.0
 40
1.0
100
AcDbArc
 50
359.999997
 51
90.0
  0
CIRCLE
  5
95AA
330
9486
100
AcDbEntity
  8
1
  6
Continuous
100
AcDbCircle
 10
604.171468
 20
142.043867
 30
0.0
 40
1.55
  0
LINE
  5
95AB
330
9486
100
AcDbEntity
  8
4
  6
CENTER
100
AcDbLine
 10
591.671468
 20
147.543867
 30
0.0
 11
591.671468
 21
136.543867
 31
0.0
  0
LINE
  5
95AC
330
9486
100
AcDbEntity
  8
4
  6
CENTER
100
AcDbLine
 10
579.171468
 20
138.543867
 30
0.0
 11
579.171468
 21
145.543867
 31
0.0
  0
LINE
  5
95AD
330
9486
100
AcDbEntity
  8
1
  6
Continuous
100
AcDbLine
 10
594.671468
 20
138.543867
 30
0.0
 11
594.671468
 21
145.543867
 31
0.0
  0
LINE
  5
95AE
330
9486
100
AcDbEntity
  8
1
  6
Continuous
100
AcDbLine
 10
588.6714679999998
 20
138.543867
 30
0.0
 11
588.6714679999998
 21
145.543867
 31
0.0
  0
LINE
  5
95AF
330
9486
100
AcDbEntity
  8
1
  6
Continuous
100
AcDbLine
 10
575.6714679999999
 20
139.543867
 30
0.0
 11
575.6714679999999
 21
144.543867
 31
0.0
  0
ARC
  5
95B0
330
9486
100
AcDbEntity
  8
1
  6
Continuous
100
AcDbCircle
 10
576.6714679999997
 20
139.543867
 30
0.0
 40
1.0
100
AcDbArc
 50
180.0000029999999
 51
270.0000049999998
  0
LINE
  5
95B1
330
9486
100
AcDbEntity
  8
1
  6
Continuous
100
AcDbLine
 10
591.671438
 20
139.4438759999999
 30
0.0
 11
594.671468
 21
138.543867
 31
0.0
  0
LINE
  5
95B2
330
9486
100
AcDbEntity
  8
1
  6
Continuous
100
AcDbLine
 10
588.6714679999998
 20
138.543867
 30
0.0
 11
591.671468
 21
139.4438609999999
 31
0.0
  0
ARC
  5
95B3
330
9486
100
AcDbEntity
  8
1
  6
Continuous
100
AcDbCircle
 10
576.6714679999997
 20
144.543867
 30
0.0
 40
1.0
100
AcDbArc
 50
90.0
 51
180.0000029999999
  0
CIRCLE
  5
95B4
330
9486
100
AcDbEntity
  8
1
  6
Continuous
100
AcDbCircle
 10
579.171468
 20
142.043867
 30
0.0
 40
1.55
  0
LINE
  5
95B5
330
9486
100
AcDbEntity
  8
1
  6
Continuous
100
AcDbLine
 10
591.671468
 20
144.6438729999998
 30
0.0
 11
588.6714379999999
 21
145.543883
 31
0.0
  0
LINE
  5
95B6
330
9486
100
AcDbEntity
  8
1
  6
Continuous
100
AcDbLine
 10
594.671468
 20
145.543867
 30
0.0
 11
591.671438
 21
144.6438579999998
 31
0.0
  0
LINE
  5
95B7
330
9486
100
AcDbEntity
  8
4
  6
CENTER
100
AcDbLine
 10
343.2658809999999
 20
142.043867
 30
0.0
 11
362.2658809999999
 21
142.043867
 31
0.0
  0
LINE
  5
95B8
330
9486
100
AcDbEntity
  8
1
  6
Continuous
100
AcDbLine
 10
349.235721
 20
145.543867
 30
0.0
 11
360.2658809999998
 21
145.543867
 31
0.0
  0
LINE
  5
95B9
330
9486
100
AcDbEntity
  8
1
  6
Continuous
100
AcDbLine
 10
349.2357819999999
 20
138.543867
 30
0.0
 11
360.2658809999998
 21
138.543867
 31
0.0
  0
LINE
  5
95BA
330
9486
100
AcDbEntity
  8
1
  6
Continuous
100
AcDbLine
 10
353.4127459999999
 20
144.543867
 30
0.0
 11
353.4127459999999
 21
139.543867
 31
0.0
  0
LINE
  5
95BB
330
9486
100
AcDbEntity
  8
1
  6
Continuous
100
AcDbLine
 10
349.235775
 20
144.543867
 30
0.0
 11
349.235775
 21
139.543867
 31
0.0
  0
LINE
  5
95BC
330
9486
100
AcDbEntity
  8
1
  6
Continuous
100
AcDbLine
 10
359.2658809999999
 20
138.543867
 30
0.0
 11
359.2658809999999
 21
145.543867
 31
0.0
  0
LINE
  5
95BD
330
9486
100
AcDbEntity
  8
1
  6
Continuous
100
AcDbLine
 10
345.2658809999999
 20
139.4438609999999
 30
0.0
 11
345.2658809999999
 21
144.6438729999998
 31
0.0
  0
LINE
  5
95BE
330
9486
100
AcDbEntity
  8
1
  6
Continuous
100
AcDbLine
 10
345.2658809999999
 20
139.443892
 30
0.0
 11
349.2357819999999
 21
138.543867
 31
0.0
  0
LINE
  5
95BF
330
9486
100
AcDbEntity
  8
1
  6
Continuous
100
AcDbLine
 10
345.2658809999999
 20
144.6438729999998
 30
0.0
 11
349.235721
 21
145.543867
 31
0.0
  0
LINE
  5
95C0
330
9486
100
AcDbEntity
  8
1
  6
Continuous
100
AcDbLine
 10
360.2658809999998
 20
138.543867
 30
0.0
 11
360.2658809999998
 21
145.543867
 31
0.0
  0
LINE
  5
95C1
330
9486
100
AcDbEntity
  8
1
  6
Continuous
100
AcDbLine
 10
446.6627919999998
 20
225.440779
 30
0.0
 11
434.1627919999998
 21
225.440779
 31
0.0
  0
LINE
  5
95C2
330
9486
100
AcDbEntity
  8
1
  6
Continuous
100
AcDbLine
 10
446.6627919999998
 20
224.4407789999999
 30
0.0
 11
434.1627919999998
 21
224.4407789999999
 31
0.0
  0
LINE
  5
95C3
330
9486
100
AcDbEntity
  8
1
  6
Continuous
100
AcDbLine
 10
445.6627919999998
 20
138.543867
 30
0.0
 11
415.662792
 21
138.543867
 31
0.0
  0
LINE
  5
95C4
330
9486
100
AcDbEntity
  8
1
  6
Continuous
100
AcDbLine
 10
445.6627919999998
 20
145.543867
 30
0.0
 11
415.662792
 21
145.543867
 31
0.0
  0
LINE
  5
95C5
330
9486
100
AcDbEntity
  8
4
  6
CENTER
100
AcDbLine
 10
448.662792
 20
142.043867
 30
0.0
 11
412.6627919999998
 21
142.043867
 31
0.0
  0
ARC
  5
95C6
330
9486
100
AcDbEntity
  8
1
  6
Continuous
100
AcDbCircle
 10
445.6627919999998
 20
139.543867
 30
0.0
 40
1.0
100
AcDbArc
 50
270.0000049999998
 51
0.000001
  0
ARC
  5
95C7
330
9486
100
AcDbEntity
  8
1
  6
Continuous
100
AcDbCircle
 10
445.6627919999998
 20
144.543867
 30
0.0
 40
1.0
100
AcDbArc
 50
359.999997
 51
90.0
  0
CIRCLE
  5
95C8
330
9486
100
AcDbEntity
  8
1
  6
Continuous
100
AcDbCircle
 10
443.1627919999998
 20
142.043867
 30
0.0
 40
1.55
  0
LINE
  5
95C9
330
9486
100
AcDbEntity
  8
1
  6
Continuous
100
AcDbLine
 10
446.6627919999998
 20
144.543867
 30
0.0
 11
446.6627919999998
 21
139.543867
 31
0.0
  0
LINE
  5
95CA
330
9486
100
AcDbEntity
  8
4
  6
CENTER
100
AcDbLine
 10
443.1627919999998
 20
145.543867
 30
0.0
 11
443.1627919999998
 21
138.543867
 31
0.0
  0
LINE
  5
95CB
330
9486
100
AcDbEntity
  8
4
  6
CENTER
100
AcDbLine
 10
443.1627919999998
 20
227.440779
 30
0.0
 11
443.1627919999998
 21
222.4407789999999
 31
0.0
  0
LINE
  5
95CC
330
9486
100
AcDbEntity
  8
1
  6
Continuous
100
AcDbLine
 10
446.6627919999998
 20
225.440779
 30
0.0
 11
446.6627919999998
 21
224.4407789999999
 31
0.0
  0
LINE
  5
95CD
330
9486
100
AcDbEntity
  8
1
  6
Continuous
100
AcDbLine
 10
430.6627919999998
 20
138.543867
 30
0.0
 11
430.6627919999998
 21
145.543867
 31
0.0
  0
CIRCLE
  5
95CE
330
9486
100
AcDbEntity
  8
1
  6
Continuous
100
AcDbCircle
 10
418.1627919999998
 20
142.043867
 30
0.0
 40
1.55
  0
ARC
  5
95CF
330
9486
100
AcDbEntity
  8
1
  6
Continuous
100
AcDbCircle
 10
415.662792
 20
139.543867
 30
0.0
 40
1.0
100
AcDbArc
 50
180.0000029999999
 51
270.0000049999998
  0
ARC
  5
95D0
330
9486
100
AcDbEntity
  8
1
  6
Continuous
100
AcDbCircle
 10
415.662792
 20
144.543867
 30
0.0
 40
1.0
100
AcDbArc
 50
90.0
 51
180.0000029999999
  0
LINE
  5
95D1
330
9486
100
AcDbEntity
  8
1
  6
Continuous
100
AcDbLine
 10
414.6627919999998
 20
144.543867
 30
0.0
 11
414.6627919999998
 21
139.543867
 31
0.0
  0
LINE
  5
95D2
330
9486
100
AcDbEntity
  8
4
  6
CENTER
100
AcDbLine
 10
430.6627919999998
 20
147.543867
 30
0.0
 11
430.6627919999998
 21
136.543867
 31
0.0
  0
LINE
  5
95D3
330
9486
100
AcDbEntity
  8
4
  6
CENTER
100
AcDbLine
 10
418.1627919999998
 20
145.543867
 30
0.0
 11
418.1627919999998
 21
138.543867
 31
0.0
  0
ARC
  5
95D4
330
9486
100
AcDbEntity
  8
1
  6
Continuous
100
AcDbCircle
 10
427.1627919999998
 20
227.940779
 30
0.0
 40
3.5
100
AcDbArc
 50
269.999991
 51
0.000001
  0
ARC
  5
95D5
330
9486
100
AcDbEntity
  8
1
  6
Continuous
100
AcDbCircle
 10
427.1627919999998
 20
227.940779
 30
0.0
 40
2.5
100
AcDbArc
 50
269.999991
 51
0.000001
  0
ARC
  5
95D6
330
9486
100
AcDbEntity
  8
1
  6
Continuous
100
AcDbCircle
 10
434.1627919999998
 20
227.940779
 30
0.0
 40
2.5
100
AcDbArc
 50
180.0000029999999
 51
270.0000049999998
  0
ARC
  5
95D7
330
9486
100
AcDbEntity
  8
1
  6
Continuous
100
AcDbCircle
 10
434.1627919999998
 20
227.940779
 30
0.0
 40
3.5
100
AcDbArc
 50
180.0000029999999
 51
270.0000049999998
  0
LINE
  5
95D8
330
9486
100
AcDbEntity
  8
4
  6
CENTER
100
AcDbLine
 10
418.1627919999998
 20
227.440779
 30
0.0
 11
418.1627919999998
 21
222.4407789999999
 31
0.0
  0
LINE
  5
95D9
330
9486
100
AcDbEntity
  8
4
  6
CENTER
100
AcDbLine
 10
430.6627919999998
 20
241.4407789999999
 30
0.0
 11
430.6627919999998
 21
222.4407789999999
 31
0.0
  0
LINE
  5
95DA
330
9486
100
AcDbEntity
  8
1
  6
Continuous
100
AcDbLine
 10
427.1627919999998
 20
224.4407789999999
 30
0.0
 11
414.6627919999998
 21
224.4407789999999
 31
0.0
  0
LINE
  5
95DB
330
9486
100
AcDbEntity
  8
1
  6
Continuous
100
AcDbLine
 10
427.1627919999998
 20
225.440779
 30
0.0
 11
414.6627919999998
 21
225.440779
 31
0.0
  0
LINE
  5
95DC
330
9486
100
AcDbEntity
  8
1
  6
Continuous
100
AcDbLine
 10
414.6627919999998
 20
225.440779
 30
0.0
 11
414.6627919999998
 21
224.4407789999999
 31
0.0
  0
LINE
  5
95DD
330
9486
100
AcDbEntity
  8
1
  6
Continuous
100
AcDbLine
 10
430.6627919999998
 20
227.940779
 30
0.0
 11
430.6627919999998
 21
230.665755
 31
0.0
  0
ARC
  5
95DE
330
9486
100
AcDbEntity
  8
1
  6
Continuous
100
AcDbCircle
 10
429.1627919999998
 20
235.4407789999999
 30
0.0
 40
0.5
100
AcDbArc
 50
149.0362409999999
 51
208.970462
  0
ARC
  5
95DF
330
9486
100
AcDbEntity
  8
1
  6
Continuous
100
AcDbCircle
 10
430.6627919999998
 20
237.940779
 30
0.0
 40
1.5
100
AcDbArc
 50
30.96375900000001
 51
149.0362409999999
  0
ARC
  5
95E0
330
9486
100
AcDbEntity
  8
1
  6
Continuous
100
AcDbCircle
 10
432.162792
 20
235.4407789999999
 30
0.0
 40
1.5
100
AcDbArc
 50
331.0295379999999
 51
30.96375900000001
  0
ARC
  5
95E1
330
9486
100
AcDbEntity
  8
1
  6
Continuous
100
AcDbCircle
 10
434.6627919999998
 20
230.665755
 30
0.0
 40
3.0
100
AcDbArc
 50
151.029537
 51
180.0000029999999
  0
ARC
  5
95E2
330
9486
100
AcDbEntity
  8
1
  6
Continuous
100
AcDbCircle
 10
426.6627919999998
 20
230.665755
 30
0.0
 40
3.0
100
AcDbArc
 50
359.999997
 51
28.97046299999999
  0
ARC
  5
95E3
330
9486
100
AcDbEntity
  8
1
  6
Continuous
100
AcDbCircle
 10
429.1627919999998
 20
235.4407789999999
 30
0.0
 40
1.5
100
AcDbArc
 50
149.0362409999999
 51
208.970462
  0
ARC
  5
95E4
330
9486
100
AcDbEntity
  8
1
  6
Continuous
100
AcDbCircle
 10
434.6627919999998
 20
230.665755
 30
0.0
 40
4.0
100
AcDbArc
 50
151.029537
 51
180.0000029999999
  0
ARC
  5
95E5
330
9486
100
AcDbEntity
  8
1
  6
Continuous
100
AcDbCircle
 10
426.6627919999998
 20
230.665755
 30
0.0
 40
4.0
100
AcDbArc
 50
359.999997
 51
28.97046299999999
  0
ARC
  5
95E6
330
9486
100
AcDbEntity
  8
1
  6
Continuous
100
AcDbCircle
 10
432.162792
 20
235.4407789999999
 30
0.0
 40
0.5
100
AcDbArc
 50
331.0295379999999
 51
30.96375900000001
  0
ARC
  5
95E7
330
9486
100
AcDbEntity
  8
1
  6
Continuous
100
AcDbCircle
 10
430.6627919999998
 20
237.940779
 30
0.0
 40
0.5
100
AcDbArc
 50
30.96375900000001
 51
149.0362409999999
  0
LINE
  5
95E8
330
9486
100
AcDbEntity
  8
1
  6
Continuous
100
AcDbLine
 10
429.6627919999998
 20
230.665755
 30
0.0
 11
429.6627919999998
 21
227.940779
 31
0.0
  0
LINE
  5
95E9
330
9486
100
AcDbEntity
  8
1
  6
Continuous
100
AcDbLine
 10
431.662792
 20
230.665755
 30
0.0
 11
431.662792
 21
227.940779
 31
0.0
  0
LINE
  5
95EA
330
9486
100
AcDbEntity
  8
1
  6
Continuous
100
AcDbLine
 10
431.9490169999999
 20
238.712538
 30
0.0
 11
433.4490169999998
 21
236.212568
 31
0.0
  0
LINE
  5
95EB
330
9486
100
AcDbEntity
  8
1
  6
Continuous
100
AcDbLine
 10
432.038158
 20
232.118849
 30
0.0
 11
433.475079
 21
234.714247
 31
0.0
  0
LINE
  5
95EC
330
9486
100
AcDbEntity
  8
1
  6
Continuous
100
AcDbLine
 10
429.376537
 20
238.7125069999999
 30
0.0
 11
427.876537
 21
236.212538
 31
0.0
  0
LINE
  5
95ED
330
9486
100
AcDbEntity
  8
1
  6
Continuous
100
AcDbLine
 10
429.287396
 20
232.118818
 30
0.0
 11
427.850475
 21
234.714277
 31
0.0
  0
LINE
  5
95EE
330
9486
100
AcDbEntity
  8
1
  6
Continuous
100
AcDbLine
 10
431.163311
 20
232.603193
 30
0.0
 11
432.6002009999998
 21
235.198622
 31
0.0
  0
LINE
  5
95EF
330
9486
100
AcDbEntity
  8
1
  6
Continuous
100
AcDbLine
 10
430.162273
 20
232.603163
 30
0.0
 11
428.725353
 21
235.198622
 31
0.0
  0
LINE
  5
95F0
330
9486
100
AcDbEntity
  8
1
  6
Continuous
100
AcDbLine
 10
430.2340199999998
 20
238.198012
 30
0.0
 11
428.73402
 21
235.6980419999999
 31
0.0
  0
LINE
  5
95F1
330
9486
100
AcDbEntity
  8
1
  6
Continuous
100
AcDbLine
 10
431.091534
 20
238.198042
 30
0.0
 11
432.5915339999998
 21
235.698073
 31
0.0
  0
LINE
  5
95F2
330
9486
100
AcDbEntity
  8
1
  6
Continuous
100
AcDbLine
 10
517.089803
 20
138.543867
 30
0.0
 11
506.059704
 21
138.543867
 31
0.0
  0
LINE
  5
95F3
330
9486
100
AcDbEntity
  8
4
  6
CENTER
100
AcDbLine
 10
523.059704
 20
142.043867
 30
0.0
 11
504.059704
 21
142.043867
 31
0.0
  0
LINE
  5
95F4
330
9486
100
AcDbEntity
  8
1
  6
Continuous
100
AcDbLine
 10
517.089863
 20
145.543867
 30
0.0
 11
506.059704
 21
145.543867
 31
0.0
  0
LINE
  5
95F5
330
9486
100
AcDbEntity
  8
1
  6
Continuous
100
AcDbLine
 10
521.059704
 20
139.443892
 30
0.0
 11
517.089803
 21
138.543867
 31
0.0
  0
LINE
  5
95F6
330
9486
100
AcDbEntity
  8
1
  6
Continuous
100
AcDbLine
 10
512.912838
 20
144.543867
 30
0.0
 11
512.912838
 21
139.543867
 31
0.0
  0
LINE
  5
95F7
330
9486
100
AcDbEntity
  8
1
  6
Continuous
100
AcDbLine
 10
517.0898089999998
 20
144.543867
 30
0.0
 11
517.0898089999998
 21
139.543867
 31
0.0
  0
LINE
  5
95F8
330
9486
100
AcDbEntity
  8
1
  6
Continuous
100
AcDbLine
 10
521.059704
 20
139.4438609999999
 30
0.0
 11
521.059704
 21
144.6438729999998
 31
0.0
  0
LINE
  5
95F9
330
9486
100
AcDbEntity
  8
1
  6
Continuous
100
AcDbLine
 10
521.059704
 20
144.6438729999998
 30
0.0
 11
517.089863
 21
145.543867
 31
0.0
  0
LINE
  5
95FA
330
9486
100
AcDbEntity
  8
1
  6
Continuous
100
AcDbLine
 10
507.0597039999998
 20
138.543867
 30
0.0
 11
507.0597039999998
 21
145.543867
 31
0.0
  0
LINE
  5
95FB
330
9486
100
AcDbEntity
  8
1
  6
Continuous
100
AcDbLine
 10
506.059704
 20
138.543867
 30
0.0
 11
506.059704
 21
145.543867
 31
0.0
  0
LINE
  5
95FC
330
9486
100
AcDbEntity
  8
1
  6
Continuous
100
AcDbLine
 10
427.1627919999998
 20
58.64695600000001
 30
0.0
 11
414.6627919999998
 21
58.64695600000001
 31
0.0
  0
LINE
  5
95FD
330
9486
100
AcDbEntity
  8
1
  6
Continuous
100
AcDbLine
 10
427.1627919999998
 20
59.646956
 30
0.0
 11
414.6627919999998
 21
59.646956
 31
0.0
  0
LINE
  5
95FE
330
9486
100
AcDbEntity
  8
1
  6
Continuous
100
AcDbLine
 10
414.6627919999998
 20
58.64695600000001
 30
0.0
 11
414.6627919999998
 21
59.646956
 31
0.0
  0
ARC
  5
95FF
330
9486
100
AcDbEntity
  8
1
  6
Continuous
100
AcDbCircle
 10
430.6627919999998
 20
46.146956
 30
0.0
 40
0.5
100
AcDbArc
 50
210.9637589999999
 51
329.036241
  0
ARC
  5
9600
330
9486
100
AcDbEntity
  8
1
  6
Continuous
100
AcDbCircle
 10
434.6627919999998
 20
53.42197999999999
 30
0.0
 40
4.0
100
AcDbArc
 50
179.999997
 51
208.9704629999999
  0
ARC
  5
9601
330
9486
100
AcDbEntity
  8
1
  6
Continuous
100
AcDbCircle
 10
430.6627919999998
 20
46.146956
 30
0.0
 40
1.5
100
AcDbArc
 50
210.9637589999999
 51
329.036241
  0
ARC
  5
9602
330
9486
100
AcDbEntity
  8
1
  6
Continuous
100
AcDbCircle
 10
434.1627919999998
 20
56.14695600000001
 30
0.0
 40
3.5
100
AcDbArc
 50
89.99999499999999
 51
179.999997
  0
ARC
  5
9603
330
9486
100
AcDbEntity
  8
1
  6
Continuous
100
AcDbCircle
 10
427.1627919999998
 20
56.14695600000001
 30
0.0
 40
3.5
100
AcDbArc
 50
359.999999
 51
90.00000900000001
  0
LINE
  5
9604
330
9486
100
AcDbEntity
  8
1
  6
Continuous
100
AcDbLine
 10
430.2340199999998
 20
45.889723
 30
0.0
 11
428.73402
 21
48.389693
 31
0.0
  0
LINE
  5
9605
330
9486
100
AcDbEntity
  8
1
  6
Continuous
100
AcDbLine
 10
430.162273
 20
51.484572
 30
0.0
 11
428.725353
 21
48.889113
 31
0.0
  0
LINE
  5
9606
330
9486
100
AcDbEntity
  8
1
  6
Continuous
100
AcDbLine
 10
429.287396
 20
51.968916
 30
0.0
 11
427.850475
 21
49.373457
 31
0.0
  0
LINE
  5
9607
330
9486
100
AcDbEntity
  8
1
  6
Continuous
100
AcDbLine
 10
429.376537
 20
45.375227
 30
0.0
 11
427.876537
 21
47.87519699999999
 31
0.0
  0
LINE
  5
9608
330
9486
100
AcDbEntity
  8
1
  6
Continuous
100
AcDbLine
 10
429.6627919999998
 20
53.42197999999999
 30
0.0
 11
429.6627919999998
 21
56.14695600000001
 31
0.0
  0
ARC
  5
9609
330
9486
100
AcDbEntity
  8
1
  6
Continuous
100
AcDbCircle
 10
426.6627919999998
 20
53.42197999999999
 30
0.0
 40
4.0
100
AcDbArc
 50
331.0295369999999
 51
0.000003
  0
ARC
  5
960A
330
9486
100
AcDbEntity
  8
1
  6
Continuous
100
AcDbCircle
 10
429.1627919999998
 20
48.64695600000001
 30
0.0
 40
1.5
100
AcDbArc
 50
151.029538
 51
210.9637589999999
  0
ARC
  5
960B
330
9486
100
AcDbEntity
  8
1
  6
Continuous
100
AcDbCircle
 10
426.6627919999998
 20
53.42197999999999
 30
0.0
 40
3.0
100
AcDbArc
 50
331.0295369999999
 51
0.000003
  0
ARC
  5
960C
330
9486
100
AcDbEntity
  8
1
  6
Continuous
100
AcDbCircle
 10
429.1627919999998
 20
48.64695600000001
 30
0.0
 40
0.5
100
AcDbArc
 50
151.029538
 51
210.9637589999999
  0
LINE
  5
960D
330
9486
100
AcDbEntity
  8
1
  6
Continuous
100
AcDbLine
 10
430.6627919999998
 20
56.14695600000001
 30
0.0
 11
430.6627919999998
 21
53.42197999999999
 31
0.0
  0
LINE
  5
960E
330
9486
100
AcDbEntity
  8
4
  6
CENTER
100
AcDbLine
 10
430.6627919999998
 20
42.646956
 30
0.0
 11
430.6627919999998
 21
61.646956
 31
0.0
  0
LINE
  5
960F
330
9486
100
AcDbEntity
  8
4
  6
CENTER
100
AcDbLine
 10
418.1627919999998
 20
56.646956
 30
0.0
 11
418.1627919999998
 21
61.646956
 31
0.0
  0
ARC
  5
9610
330
9486
100
AcDbEntity
  8
1
  6
Continuous
100
AcDbCircle
 10
427.1627919999998
 20
56.14695600000001
 30
0.0
 40
2.5
100
AcDbArc
 50
359.999999
 51
90.00000900000001
  0
LINE
  5
9611
330
9486
100
AcDbEntity
  8
1
  6
Continuous
100
AcDbLine
 10
431.091534
 20
45.889693
 30
0.0
 11
432.5915339999998
 21
48.389662
 31
0.0
  0
LINE
  5
9612
330
9486
100
AcDbEntity
  8
1
  6
Continuous
100
AcDbLine
 10
431.163311
 20
51.484541
 30
0.0
 11
432.6002009999998
 21
48.889113
 31
0.0
  0
LINE
  5
9613
330
9486
100
AcDbEntity
  8
1
  6
Continuous
100
AcDbLine
 10
432.038158
 20
51.968886
 30
0.0
 11
433.475079
 21
49.373488
 31
0.0
  0
LINE
  5
9614
330
9486
100
AcDbEntity
  8
1
  6
Continuous
100
AcDbLine
 10
431.9490169999999
 20
45.37519699999999
 30
0.0
 11
433.4490169999998
 21
47.875166
 31
0.0
  0
LINE
  5
9615
330
9486
100
AcDbEntity
  8
1
  6
Continuous
100
AcDbLine
 10
431.662792
 20
53.42197999999999
 30
0.0
 11
431.662792
 21
56.14695600000001
 31
0.0
  0
ARC
  5
9616
330
9486
100
AcDbEntity
  8
1
  6
Continuous
100
AcDbCircle
 10
432.162792
 20
48.64695600000001
 30
0.0
 40
0.5
100
AcDbArc
 50
329.036241
 51
28.970462
  0
ARC
  5
9617
330
9486
100
AcDbEntity
  8
1
  6
Continuous
100
AcDbCircle
 10
434.6627919999998
 20
53.42197999999999
 30
0.0
 40
3.0
100
AcDbArc
 50
179.999997
 51
208.9704629999999
  0
ARC
  5
9618
330
9486
100
AcDbEntity
  8
1
  6
Continuous
100
AcDbCircle
 10
432.162792
 20
48.64695600000001
 30
0.0
 40
1.5
100
AcDbArc
 50
329.036241
 51
28.970462
  0
ARC
  5
9619
330
9486
100
AcDbEntity
  8
1
  6
Continuous
100
AcDbCircle
 10
434.1627919999998
 20
56.14695600000001
 30
0.0
 40
2.5
100
AcDbArc
 50
89.99999499999999
 51
179.999997
  0
LINE
  5
961A
330
9486
100
AcDbEntity
  8
1
  6
Continuous
100
AcDbLine
 10
446.6627919999998
 20
58.64695600000001
 30
0.0
 11
446.6627919999998
 21
59.646956
 31
0.0
  0
LINE
  5
961B
330
9486
100
AcDbEntity
  8
4
  6
CENTER
100
AcDbLine
 10
443.1627919999998
 20
56.646956
 30
0.0
 11
443.1627919999998
 21
61.646956
 31
0.0
  0
LINE
  5
961C
330
9486
100
AcDbEntity
  8
1
  6
Continuous
100
AcDbLine
 10
446.6627919999998
 20
59.646956
 30
0.0
 11
434.1627919999998
 21
59.646956
 31
0.0
  0
LINE
  5
961D
330
9486
100
AcDbEntity
  8
1
  6
Continuous
100
AcDbLine
 10
446.6627919999998
 20
58.64695600000001
 30
0.0
 11
434.1627919999998
 21
58.64695600000001
 31
0.0
  0
ARC
  5
961E
330
9486
100
AcDbEntity
  8
1
  6
Continuous
100
AcDbCircle
 10
191.927185
 20
146.743861
 30
0.0
 40
0.8
100
AcDbArc
 50
0.0
 51
90.0
  0
ARC
  5
961F
330
9486
100
AcDbEntity
  8
1
  6
Continuous
100
AcDbCircle
 10
191.927185
 20
137.443858
 30
0.0
 40
0.8
100
AcDbArc
 50
270.0
 51
0.0
  0
ARC
  5
9620
330
9486
100
AcDbEntity
  8
1
  6
Continuous
100
AcDbCircle
 10
22.52718499999998
 20
146.743861
 30
0.0
 40
0.8
100
AcDbArc
 50
90.0
 51
180.0
  0
ARC
  5
9621
330
9486
100
AcDbEntity
  8
1
  6
Continuous
100
AcDbCircle
 10
22.52718499999998
 20
137.443858
 30
0.0
 40
0.8
100
AcDbArc
 50
180.0
 51
270.0
  0
LINE
  5
9622
330
9486
100
AcDbEntity
  8
4
  6
CENTER
100
AcDbLine
 10
95.42718200000001
 20
48.79386
 30
0.0
 11
119.0271889999998
 21
48.79386
 31
0.0
  0
LINE
  5
9623
330
9486
100
AcDbEntity
  8
1
  6
Continuous
100
AcDbLine
 10
110.977185
 20
50.54386
 30
0.0
 11
115.2771889999998
 21
50.54386
 31
0.0
  0
CIRCLE
  5
9624
330
9486
100
AcDbEntity
  8
1
  6
Continuous
100
AcDbCircle
 10
111.477185
 20
48.79386
 30
0.0
 40
1.6
  0
LINE
  5
9625
330
9486
100
AcDbEntity
  8
4
  6
CENTER
100
AcDbLine
 10
111.477185
 20
45.19386899999999
 30
0.0
 11
111.477185
 21
52.39386599999999
 31
0.0
  0
ARC
  5
9626
330
9486
100
AcDbEntity
  8
1
  6
Continuous
100
AcDbCircle
 10
110.977185
 20
48.79386
 30
0.0
 40
1.75
100
AcDbArc
 50
89.999999
 51
269.9999969999999
  0
LINE
  5
9627
330
9486
100
AcDbEntity
  8
4
  6
CENTER
100
AcDbLine
 10
115.2771889999998
 20
45.04385999999999
 30
0.0
 11
115.2771889999998
 21
52.54386
 31
0.0
  0
ARC
  5
9628
330
9486
100
AcDbEntity
  8
1
  6
Continuous
100
AcDbCircle
 10
115.2771889999998
 20
48.79386
 30
0.0
 40
1.75
100
AcDbArc
 50
270.0000109999999
 51
90.00000300000001
  0
ARC
  5
9629
330
9486
100
AcDbEntity
  8
1
  6
Continuous
100
AcDbCircle
 10
111.477185
 20
48.79386
 30
0.0
 40
2.6
100
AcDbArc
 50
317.69501
 51
42.30499
  0
LINE
  5
962A
330
9486
100
AcDbEntity
  8
1
  6
Continuous
100
AcDbLine
 10
110.977185
 20
47.04385999999998
 30
0.0
 11
115.2771889999998
 21
47.04385999999998
 31
0.0
  0
LINE
  5
962B
330
9486
100
AcDbEntity
  8
1
  6
Continuous
100
AcDbLine
 10
99.17718200000001
 20
47.04385999999998
 30
0.0
 11
103.4771849999999
 21
47.04385999999998
 31
0.0
  0
LINE
  5
962C
330
9486
100
AcDbEntity
  8
1
  6
Continuous
100
AcDbLine
 10
99.17718200000001
 20
50.54386
 30
0.0
 11
103.4771849999999
 21
50.54386
 31
0.0
  0
LINE
  5
962D
330
9486
100
AcDbEntity
  8
4
  6
CENTER
100
AcDbLine
 10
102.9771849999999
 20
45.19386899999999
 30
0.0
 11
102.9771849999999
 21
52.39386599999999
 31
0.0
  0
LINE
  5
962E
330
9486
100
AcDbEntity
  8
4
  6
CENTER
100
AcDbLine
 10
99.17718200000001
 20
45.04385999999999
 30
0.0
 11
99.17718200000001
 21
52.54386
 31
0.0
  0
ARC
  5
962F
330
9486
100
AcDbEntity
  8
1
  6
Continuous
100
AcDbCircle
 10
99.17718200000001
 20
48.79386
 30
0.0
 40
1.75
100
AcDbArc
 50
89.999999
 51
269.9999969999999
  0
ARC
  5
9630
330
9486
100
AcDbEntity
  8
1
  6
Continuous
100
AcDbCircle
 10
103.4771849999999
 20
48.79386
 30
0.0
 40
1.75
100
AcDbArc
 50
270.0000109999999
 51
90.00000300000001
  0
CIRCLE
  5
9631
330
9486
100
AcDbEntity
  8
1
  6
Continuous
100
AcDbCircle
 10
102.9771849999999
 20
48.79386
 30
0.0
 40
1.6
  0
ARC
  5
9632
330
9486
100
AcDbEntity
  8
1
  6
Continuous
100
AcDbCircle
 10
102.9771849999999
 20
48.79386
 30
0.0
 40
2.6
100
AcDbArc
 50
137.695005
 51
222.3049849999999
  0
LINE
  5
9633
330
9486
100
AcDbEntity
  8
4
  6
CENTER
100
AcDbLine
 10
122.727185
 20
42.243857
 30
0.0
 11
114.927182
 21
42.243857
 31
0.0
  0
LINE
  5
9634
330
9486
100
AcDbEntity
  8
4
  6
CENTER
100
AcDbLine
 10
118.827192
 20
38.343878
 30
0.0
 11
118.827192
 21
46.14386599999998
 31
0.0
  0
LINE
  5
9635
330
9486
100
AcDbEntity
  8
4
  6
CENTER
100
AcDbLine
 10
91.727185
 20
42.243857
 30
0.0
 11
99.527189
 21
42.243857
 31
0.0
  0
LINE
  5
9636
330
9486
100
AcDbEntity
  8
4
  6
CENTER
100
AcDbLine
 10
95.627179
 20
38.343878
 30
0.0
 11
95.627179
 21
46.14386599999998
 31
0.0
  0
CIRCLE
  5
9637
330
9486
100
AcDbEntity
  8
1
  6
Continuous
100
AcDbCircle
 10
95.627179
 20
42.243857
 30
0.0
 40
1.199999999999999
  0
CIRCLE
  5
9638
330
9486
100
AcDbEntity
  8
1
  6
Continuous
100
AcDbCircle
 10
118.827192
 20
42.243857
 30
0.0
 40
1.199999999999999
  0
LINE
  5
9639
330
9486
100
AcDbEntity
  8
1
  6
Continuous
100
AcDbLine
 10
122.4771849999999
 20
37.54385999999998
 30
0.0
 11
131.4771849999999
 21
37.54385999999998
 31
0.0
  0
LINE
  5
963A
330
9486
100
AcDbEntity
  8
1
  6
Continuous
100
AcDbLine
 10
94.42718199999999
 20
146.7438579999999
 30
0.0
 11
94.42718199999999
 21
145.5895379999998
 31
0.0
  0
LINE
  5
963B
330
9486
100
AcDbEntity
  8
1
  6
Continuous
100
AcDbLine
 10
99.927182
 20
142.543867
 30
0.0
 11
99.927182
 21
142.3438669999999
 31
0.0
  0
LINE
  5
963C
330
9486
100
AcDbEntity
  8
1
  6
Continuous
100
AcDbLine
 10
96.82719200000001
 20
146.7438579999999
 30
0.0
 11
96.82719200000001
 21
145.801297
 31
0.0
  0
LINE
  5
963D
330
9486
100
AcDbEntity
  8
1
  6
Continuous
100
AcDbLine
 10
114.5271889999998
 20
142.543867
 30
0.0
 11
114.5271889999998
 21
142.3438669999999
 31
0.0
  0
LINE
  5
963E
330
9486
100
AcDbEntity
  8
1
  6
Continuous
100
AcDbLine
 10
117.6271789999999
 20
146.7438579999999
 30
0.0
 11
117.6271789999999
 21
145.801297
 31
0.0
  0
LINE
  5
963F
330
9486
100
AcDbEntity
  8
1
  6
Continuous
100
AcDbLine
 10
120.027189
 20
146.7438579999999
 30
0.0
 11
120.027189
 21
145.5895379999998
 31
0.0
  0
CIRCLE
  5
9640
330
9486
100
AcDbEntity
  8
1
  6
Continuous
100
AcDbCircle
 10
93.177189
 20
146.2438579999999
 30
0.0
 40
0.4
  0
CIRCLE
  5
9641
330
9486
100
AcDbEntity
  8
1
  6
Continuous
100
AcDbCircle
 10
99.927182
 20
141.9438669999999
 30
0.0
 40
0.4
  0
ARC
  5
9642
330
9486
100
AcDbEntity
  8
1
  6
Continuous
100
AcDbCircle
 10
97.327179
 20
145.443858
 30
0.0
 40
0.4
100
AcDbArc
 50
275.042298
 51
95.04229800000002
  0
ARC
  5
9643
330
9486
100
AcDbEntity
  8
1
  6
Continuous
100
AcDbCircle
 10
93.92717899999999
 20
145.1438669999998
 30
0.0
 40
0.4
100
AcDbArc
 50
95.04229800000002
 51
275.042298
  0
LINE
  5
9644
330
9486
100
AcDbEntity
  8
1
  6
Continuous
100
AcDbLine
 10
97.292023
 20
145.84231
 30
0.0
 11
93.89202299999999
 21
145.5423189999999
 31
0.0
  0
LINE
  5
9645
330
9486
100
AcDbEntity
  8
1
  6
Continuous
100
AcDbLine
 10
93.89202299999999
 20
144.739211
 30
0.0
 11
97.36233600000002
 21
145.045406
 31
0.0
  0
ARC
  5
9646
330
9486
100
AcDbEntity
  8
1
  6
Continuous
100
AcDbCircle
 10
97.327179
 20
144.64075
 30
0.0
 40
0.4
100
AcDbArc
 50
275.042298
 51
95.04229800000002
  0
LINE
  5
9647
330
9486
100
AcDbEntity
  8
1
  6
Continuous
100
AcDbLine
 10
93.89202299999999
 20
143.936103
 30
0.0
 11
97.36233600000002
 21
144.242298
 31
0.0
  0
ARC
  5
9648
330
9486
100
AcDbEntity
  8
1
  6
Continuous
100
AcDbCircle
 10
93.92717899999999
 20
144.3407589999999
 30
0.0
 40
0.4
100
AcDbArc
 50
95.04229800000002
 51
275.042298
  0
ARC
  5
9649
330
9486
100
AcDbEntity
  8
1
  6
Continuous
100
AcDbCircle
 10
97.327179
 20
143.8376419999999
 30
0.0
 40
0.4
100
AcDbArc
 50
275.042298
 51
95.04229800000002
  0
LINE
  5
964A
330
9486
100
AcDbEntity
  8
1
  6
Continuous
100
AcDbLine
 10
93.89202299999999
 20
143.132995
 30
0.0
 11
97.36233600000002
 21
143.43919
 31
0.0
  0
ARC
  5
964B
330
9486
100
AcDbEntity
  8
1
  6
Continuous
100
AcDbCircle
 10
93.92717899999999
 20
143.537651
 30
0.0
 40
0.4
100
AcDbArc
 50
95.04229800000002
 51
275.042298
  0
ARC
  5
964C
330
9486
100
AcDbEntity
  8
1
  6
Continuous
100
AcDbCircle
 10
97.327179
 20
143.034534
 30
0.0
 40
0.4
100
AcDbArc
 50
275.042298
 51
95.04229800000002
  0
LINE
  5
964D
330
9486
100
AcDbEntity
  8
1
  6
Continuous
100
AcDbLine
 10
93.962336
 20
142.3360909999999
 30
0.0
 11
97.36233600000002
 21
142.636082
 31
0.0
  0
ARC
  5
964E
330
9486
100
AcDbEntity
  8
1
  6
Continuous
100
AcDbCircle
 10
93.92717899999999
 20
142.734543
 30
0.0
 40
0.4
100
AcDbArc
 50
95.04229800000002
 51
275.042298
  0
LINE
  5
964F
330
9486
100
AcDbEntity
  8
1
  6
Continuous
100
AcDbLine
 10
93.252903
 20
146.6366269999998
 30
0.0
 11
94.42718199999999
 21
146.4102589999999
 31
0.0
  0
LINE
  5
9650
330
9486
100
AcDbEntity
  8
1
  6
Continuous
100
AcDbLine
 10
93.10147399999999
 20
145.851089
 30
0.0
 11
94.42718199999999
 21
145.595531
 31
0.0
  0
LINE
  5
9651
330
9486
100
AcDbEntity
  8
1
  6
Continuous
100
AcDbLine
 10
97.48882399999999
 20
142.668651
 30
0.0
 11
99.979442
 21
142.3404389999998
 31
0.0
  0
LINE
  5
9652
330
9486
100
AcDbEntity
  8
1
  6
Continuous
100
AcDbLine
 10
99.87492299999999
 20
141.5472959999999
 30
0.0
 11
96.82719200000001
 21
141.948924
 31
0.0
  0
LINE
  5
9653
330
9486
100
AcDbEntity
  8
1
  6
Continuous
100
AcDbLine
 10
96.82719200000001
 20
145.947606
 30
0.0
 11
97.40289400000001
 21
145.8366269999999
 31
0.0
  0
LINE
  5
9654
330
9486
100
AcDbEntity
  8
1
  6
Continuous
100
AcDbLine
 10
96.82719200000001
 20
142.588865
 30
0.0
 11
96.82719200000001
 21
137.443861
 31
0.0
  0
LINE
  5
9655
330
9486
100
AcDbEntity
  8
1
  6
Continuous
100
AcDbLine
 10
94.42718199999999
 20
142.3771059999999
 30
0.0
 11
94.42718199999999
 21
137.443861
 31
0.0
  0
LINE
  5
9656
330
9486
100
AcDbEntity
  8
1
  6
Continuous
100
AcDbLine
 10
94.42718199999999
 20
142.265195
 30
0.0
 11
93.87491899999997
 21
142.3379719999998
 31
0.0
  0
LINE
  5
9657
330
9486
100
AcDbEntity
  8
1
  6
Continuous
100
AcDbLine
 10
117.6271789999999
 20
145.947606
 30
0.0
 11
117.051477
 21
145.8366269999999
 31
0.0
  0
ARC
  5
9658
330
9486
100
AcDbEntity
  8
1
  6
Continuous
100
AcDbCircle
 10
117.1271919999998
 20
145.443858
 30
0.0
 40
0.4
100
AcDbArc
 50
84.957702
 51
264.9577019999999
  0
ARC
  5
9659
330
9486
100
AcDbEntity
  8
1
  6
Continuous
100
AcDbCircle
 10
117.1271919999998
 20
143.034534
 30
0.0
 40
0.4
100
AcDbArc
 50
84.957702
 51
264.9577019999999
  0
ARC
  5
965A
330
9486
100
AcDbEntity
  8
1
  6
Continuous
100
AcDbCircle
 10
117.1271919999998
 20
143.8376419999999
 30
0.0
 40
0.4
100
AcDbArc
 50
84.957702
 51
264.9577019999999
  0
ARC
  5
965B
330
9486
100
AcDbEntity
  8
1
  6
Continuous
100
AcDbCircle
 10
117.1271919999998
 20
144.64075
 30
0.0
 40
0.4
100
AcDbArc
 50
84.957702
 51
264.9577019999999
  0
LINE
  5
965C
330
9486
100
AcDbEntity
  8
1
  6
Continuous
100
AcDbLine
 10
116.965547
 20
142.668651
 30
0.0
 11
114.474929
 21
142.3404389999998
 31
0.0
  0
LINE
  5
965D
330
9486
100
AcDbEntity
  8
1
  6
Continuous
100
AcDbLine
 10
114.5794479999999
 20
141.5472959999999
 30
0.0
 11
117.6271789999999
 21
141.948924
 31
0.0
  0
CIRCLE
  5
965E
330
9486
100
AcDbEntity
  8
1
  6
Continuous
100
AcDbCircle
 10
114.5271889999998
 20
141.9438669999999
 30
0.0
 40
0.4
  0
LINE
  5
965F
330
9486
100
AcDbEntity
  8
1
  6
Continuous
100
AcDbLine
 10
120.562348
 20
144.739211
 30
0.0
 11
117.092035
 21
145.045406
 31
0.0
  0
LINE
  5
9660
330
9486
100
AcDbEntity
  8
1
  6
Continuous
100
AcDbLine
 10
120.562348
 20
143.936103
 30
0.0
 11
117.092035
 21
144.242298
 31
0.0
  0
LINE
  5
9661
330
9486
100
AcDbEntity
  8
1
  6
Continuous
100
AcDbLine
 10
120.562348
 20
143.132995
 30
0.0
 11
117.092035
 21
143.43919
 31
0.0
  0
LINE
  5
9662
330
9486
100
AcDbEntity
  8
1
  6
Continuous
100
AcDbLine
 10
120.492035
 20
142.3360909999999
 30
0.0
 11
117.092035
 21
142.636082
 31
0.0
  0
LINE
  5
9663
330
9486
100
AcDbEntity
  8
1
  6
Continuous
100
AcDbLine
 10
117.162348
 20
145.84231
 30
0.0
 11
120.562348
 21
145.5423189999999
 31
0.0
  0
LINE
  5
9664
330
9486
100
AcDbEntity
  8
1
  6
Continuous
100
AcDbLine
 10
120.027189
 20
142.265195
 30
0.0
 11
120.5794519999999
 21
142.3379719999998
 31
0.0
  0
ARC
  5
9665
330
9486
100
AcDbEntity
  8
1
  6
Continuous
100
AcDbCircle
 10
120.5271919999999
 20
142.734543
 30
0.0
 40
0.4
100
AcDbArc
 50
264.9577019999999
 51
84.957702
  0
ARC
  5
9666
330
9486
100
AcDbEntity
  8
1
  6
Continuous
100
AcDbCircle
 10
120.5271919999999
 20
143.537651
 30
0.0
 40
0.4
100
AcDbArc
 50
264.9577019999999
 51
84.957702
  0
ARC
  5
9667
330
9486
100
AcDbEntity
  8
1
  6
Continuous
100
AcDbCircle
 10
120.5271919999999
 20
144.3407589999999
 30
0.0
 40
0.4
100
AcDbArc
 50
264.9577019999999
 51
84.957702
  0
ARC
  5
9668
330
9486
100
AcDbEntity
  8
1
  6
Continuous
100
AcDbCircle
 10
120.5271919999999
 20
145.1438669999998
 30
0.0
 40
0.4
100
AcDbArc
 50
264.9577019999999
 51
84.957702
  0
LINE
  5
9669
330
9486
100
AcDbEntity
  8
1
  6
Continuous
100
AcDbLine
 10
121.352897
 20
145.851089
 30
0.0
 11
120.027189
 21
145.595531
 31
0.0
  0
LINE
  5
966A
330
9486
100
AcDbEntity
  8
1
  6
Continuous
100
AcDbLine
 10
121.201468
 20
146.6366269999998
 30
0.0
 11
120.027189
 21
146.4102589999999
 31
0.0
  0
CIRCLE
  5
966B
330
9486
100
AcDbEntity
  8
1
  6
Continuous
100
AcDbCircle
 10
121.277182
 20
146.2438579999999
 30
0.0
 40
0.4
  0
LINE
  5
966C
330
9486
100
AcDbEntity
  8
1
  6
Continuous
100
AcDbLine
 10
120.027189
 20
142.3771059999999
 30
0.0
 11
120.027189
 21
137.443861
 31
0.0
  0
LINE
  5
966D
330
9486
100
AcDbEntity
  8
1
  6
Continuous
100
AcDbLine
 10
117.6271789999999
 20
142.588865
 30
0.0
 11
117.6271789999999
 21
137.443861
 31
0.0
  0
LINE
  5
966E
330
9486
100
AcDbEntity
  8
1
  6
Continuous
100
AcDbLine
 10
118.827192
 20
145.6954169999999
 30
0.0
 11
118.827192
 21
145.6954169999999
 31
0.0
  0
ARC
  5
966F
330
9486
100
AcDbEntity
  8
1
  6
Continuous
100
AcDbCircle
 10
92.777185
 20
146.743861
 30
0.0
 40
0.8
100
AcDbArc
 50
90.0
 51
180.0
  0
ARC
  5
9670
330
9486
100
AcDbEntity
  8
1
  6
Continuous
100
AcDbCircle
 10
121.6771849999999
 20
146.743861
 30
0.0
 40
0.8
100
AcDbArc
 50
0.0
 51
90.0
  0
LINE
  5
9671
330
9486
100
AcDbEntity
  8
1
  6
Continuous
100
AcDbLine
 10
107.227185
 20
141.543867
 30
0.0
 11
107.227185
 21
137.743864
 31
0.0
  0
ARC
  5
9672
330
9486
100
AcDbEntity
  8
1
  6
Continuous
100
AcDbCircle
 10
237.777185
 20
146.743861
 30
0.0
 40
0.8
100
AcDbArc
 50
90.0
 51
180.0
  0
ARC
  5
9673
330
9486
100
AcDbEntity
  8
1
  6
Continuous
100
AcDbCircle
 10
266.6771849999999
 20
146.743861
 30
0.0
 40
0.8
100
AcDbArc
 50
0.0
 51
90.0
  0
ARC
  5
9674
330
9486
100
AcDbEntity
  8
1
  6
Continuous
100
AcDbCircle
 10
111.477185
 20
225.293867
 30
0.0
 40
4.25
100
AcDbArc
 50
335.7072149999999
 51
24.29278500000001
  0
ARC
  5
9675
330
9486
100
AcDbEntity
  8
1
  6
Continuous
100
AcDbCircle
 10
111.477185
 20
225.293867
 30
0.0
 40
4.25
100
AcDbArc
 50
229.880833
 51
310.1191669999999
  0
ARC
  5
9676
330
9486
100
AcDbEntity
  8
1
  6
Continuous
100
AcDbCircle
 10
102.9771849999999
 20
225.293867
 30
0.0
 40
4.25
100
AcDbArc
 50
155.7072149999999
 51
204.2927849999999
  0
ARC
  5
9677
330
9486
100
AcDbEntity
  8
1
  6
Continuous
100
AcDbCircle
 10
102.9771849999999
 20
225.293867
 30
0.0
 40
4.25
100
AcDbArc
 50
229.880833
 51
310.1191669999999
  0
ARC
  5
9678
330
9486
100
AcDbEntity
  8
1
  6
Continuous
100
AcDbCircle
 10
111.477185
 20
48.79386
 30
0.0
 40
4.25
100
AcDbArc
 50
49.880833
 51
130.119167
  0
ARC
  5
9679
330
9486
100
AcDbEntity
  8
1
  6
Continuous
100
AcDbCircle
 10
102.9771849999999
 20
48.79386
 30
0.0
 40
4.25
100
AcDbArc
 50
49.880833
 51
130.119167
  0
ARC
  5
967A
330
9486
100
AcDbEntity
  8
1
  6
Continuous
100
AcDbCircle
 10
102.9771849999999
 20
48.79386
 30
0.0
 40
4.25
100
AcDbArc
 50
155.7072149999999
 51
204.2927849999999
  0
ARC
  5
967B
330
9486
100
AcDbEntity
  8
1
  6
Continuous
100
AcDbCircle
 10
111.477185
 20
48.79386
 30
0.0
 40
4.25
100
AcDbArc
 50
335.7072149999999
 51
24.29278500000001
  0
ENDSEC
  0
SECTION
  2
OBJECTS
  0
DICTIONARY
  5
9474
330
0
100
AcDbDictionary
281
     1
  3
ACAD_CIP_PREVIOUS_PRODUCT_INFO
350
96DF
  3
ACAD_COLOR
350
96C1
  3
ACAD_DETAILVIEWSTYLE
350
96DA
  3
ACAD_GROUP
350
9475
  3
ACAD_LAYOUT
350
9481
  3
ACAD_MATERIAL
350
968F
  3
ACAD_MLEADERSTYLE
350
96D6
  3
ACAD_MLINESTYLE
350
947E
  3
ACAD_PLOTSETTINGS
350
9480
  3
ACAD_PLOTSTYLENAME
350
968D
  3
ACAD_SCALELIST
350
96C4
  3
ACAD_SECTIONVIEWSTYLE
350
96D8
  3
ACAD_TABLESTYLE
350
96C2
  3
ACAD_VISUALSTYLE
350
96A8
  3
ACDB_RECOMPOSE_DATA
350
96FD
  3
AcDbVariableDictionary
350
96F0
  3
DWGPROPS
350
96FE
  0
DICTIONARY
  5
96E0
330
9478
100
AcDbDictionary
280
     1
281
     1
  3
ADSK_XREC_LAYER_RECONCILED
360
96E1
  0
DICTIONARY
  5
96E2
330
948E
100
AcDbDictionary
280
     1
281
     1
  3
ADSK_XREC_LAYER_RECONCILED
360
96E3
  0
DICTIONARY
  5
96E4
330
948F
100
AcDbDictionary
280
     1
281
     1
  3
ADSK_XREC_LAYER_RECONCILED
360
96E5
  0
DICTIONARY
  5
96E6
330
9490
100
AcDbDictionary
280
     1
281
     1
  3
ADSK_XREC_LAYER_RECONCILED
360
96E7
  0
DICTIONARY
  5
96E8
330
9491
100
AcDbDictionary
280
     1
281
     1
  3
ADSK_XREC_LAYER_RECONCILED
360
96E9
  0
DICTIONARY
  5
96EA
330
9492
100
AcDbDictionary
280
     1
281
     1
  3
ADSK_XREC_LAYER_RECONCILED
360
96EB
  0
DICTIONARY
  5
96EC
330
9493
100
AcDbDictionary
280
     1
281
     1
  3
ADSK_XREC_LAYER_RECONCILED
360
96ED
  0
DICTIONARY
  5
96EE
330
9494
100
AcDbDictionary
280
     1
281
     1
  3
ADSK_XREC_LAYER_RECONCILED
360
96EF
  0
DICTIONARY
  5
9688
330
9486
100
AcDbDictionary
281
     1
  3
ACAD_LAYOUTSELFREF
350
9689
  0
DICTIONARY
  5
9686
330
9482
100
AcDbDictionary
281
     1
  3
ACAD_LAYOUTSELFREF
350
9687
  0
XRECORD
  5
96DF
102
{ACAD_REACTORS
330
9474
102
}
330
9474
100
AcDbXrecord
280
     1
300
ACDLT
300
2014
300
ACDLT_F_S
  0
DICTIONARY
  5
96C1
102
{ACAD_REACTORS
330
9474
102
}
330
9474
100
AcDbDictionary
281
     1
  0
DICTIONARY
  5
96DA
102
{ACAD_REACTORS
330
9474
102
}
330
9474
100
AcDbDictionary
281
     1
  3
Imperial24
350
96DB
  0
DICTIONARY
  5
9475
102
{ACAD_REACTORS
330
9474
102
}
330
9474
100
AcDbDictionary
281
     1
  0
DICTIONARY
  5
9481
102
{ACAD_REACTORS
330
9474
102
}
330
9474
100
AcDbDictionary
281
     1
  3
Model
350
96DC
  3
レイアウト1
350
96DD
  0
DICTIONARY
  5
968F
102
{ACAD_REACTORS
330
9474
102
}
330
9474
100
AcDbDictionary
281
     1
  3
ByBlock
350
9698
  3
ByLayer
350
9690
  3
Global
350
96A0
  0
DICTIONARY
  5
96D6
102
{ACAD_REACTORS
330
9474
102
}
330
9474
100
AcDbDictionary
281
     1
  3
Standard
350
96D7
  0
DICTIONARY
  5
947E
102
{ACAD_REACTORS
330
9474
102
}
330
9474
100
AcDbDictionary
281
     1
  3
STANDARD
350
947F
  0
DICTIONARY
  5
9480
102
{ACAD_REACTORS
330
9474
102
}
330
9474
100
AcDbDictionary
281
     1
  0
ACDBDICTIONARYWDFLT
  5
968D
102
{ACAD_REACTORS
330
9474
102
}
330
9474
100
AcDbDictionary
281
     1
  3
Normal
350
968E
100
AcDbDictionaryWithDefault
340
968E
  0
DICTIONARY
  5
96C4
102
{ACAD_REACTORS
330
9474
102
}
330
9474
100
AcDbDictionary
281
     1
  3
A0
350
96C5
  3
A1
350
96C6
  3
A2
350
96C7
  3
A3
350
96C8
  3
A4
350
96C9
  3
A5
350
96CA
  3
A6
350
96CB
  3
A7
350
96CC
  3
A8
350
96CD
  3
A9
350
96CE
  3
B0
350
96CF
  3
B1
350
96D0
  3
B2
350
96D1
  3
B3
350
96D2
  3
B4
350
96D3
  3
B5
350
96D4
  3
B6
350
96D5
  0
DICTIONARY
  5
96D8
102
{ACAD_REACTORS
330
9474
102
}
330
9474
100
AcDbDictionary
281
     1
  3
Imperial24
350
96D9
  0
DICTIONARY
  5
96C2
102
{ACAD_REACTORS
330
9474
102
}
330
9474
100
AcDbDictionary
281
     1
  3
Standard
350
96C3
  0
DICTIONARY
  5
96A8
102
{ACAD_REACTORS
330
9474
102
}
330
9474
100
AcDbDictionary
281
     1
  3
2dWireframe
350
96AE
  3
Basic
350
96AD
  3
Brighten
350
96B4
  3
ColorChange
350
96B8
  3
Conceptual
350
96B1
  3
Dim
350
96B3
  3
EdgeColorOff
350
96C0
  3
Facepattern
350
96B7
  3
Flat
350
96A9
  3
FlatWithEdges
350
96AA
  3
Gouraud
350
96AB
  3
GouraudWithEdges
350
96AC
  3
Hidden
350
96B0
  3
JitterOff
350
96BE
  3
Linepattern
350
96B6
  3
OverhangOff
350
96BF
  3
Realistic
350
96B2
  3
Shaded
350
96BD
  3
Shaded with edges
350
96BC
  3
Shades of Gray
350
96B9
  3
Sketchy
350
96BA
  3
Thicken
350
96B5
  3
Wireframe
350
96AF
  3
X-Ray
350
96BB
  0
XRECORD
  5
96FD
102
{ACAD_REACTORS
330
9474
102
}
330
9474
100
AcDbXrecord
280
     1
 90
        1
330
96C3
  0
DICTIONARY
  5
96F0
102
{ACAD_REACTORS
330
9474
102
}
330
9474
100
AcDbDictionary
281
     1
  3
CANNOSCALE
350
96F5
  3
CMLEADERSTYLE
350
96F2
  3
CTABLESTYLE
350
96F1
  3
CVIEWDETAILSTYLE
350
96F3
  3
CVIEWSECTIONSTYLE
350
96F4
  3
DIMASSOC
350
96F8
  3
INDEXCTL
350
96F7
  3
SORTENTS
350
96F6
  3
XCLIPFRAME
350
96F9
  0
XRECORD
  5
96FE
102
{ACAD_REACTORS
330
9474
102
}
330
9474
100
AcDbXrecord
280
     1
  1
DWGPROPS COOKIE
  2

  3

  4

  6

  7

  8
Yoshitsune
  9

300
=
301
=
302
=
303
=
304
=
305
=
306
=
307
=
308
=
309
=
 40
0.0000136111111111
 41
2451298.568015972
 42
2457192.603676308
  1

 90
        0
  0
XRECORD
  5
96E1
102
{ACAD_REACTORS
330
96E0
102
}
330
96E0
100
AcDbXrecord
280
     1
290
     1
  0
XRECORD
  5
96E3
102
{ACAD_REACTORS
330
96E2
102
}
330
96E2
100
AcDbXrecord
280
     1
290
     1
  0
XRECORD
  5
96E5
102
{ACAD_REACTORS
330
96E4
102
}
330
96E4
100
AcDbXrecord
280
     1
290
     1
  0
XRECORD
  5
96E7
102
{ACAD_REACTORS
330
96E6
102
}
330
96E6
100
AcDbXrecord
280
     1
290
     1
  0
XRECORD
  5
96E9
102
{ACAD_REACTORS
330
96E8
102
}
330
96E8
100
AcDbXrecord
280
     1
290
     1
  0
XRECORD
  5
96EB
102
{ACAD_REACTORS
330
96EA
102
}
330
96EA
100
AcDbXrecord
280
     1
290
     1
  0
XRECORD
  5
96ED
102
{ACAD_REACTORS
330
96EC
102
}
330
96EC
100
AcDbXrecord
280
     1
290
     1
  0
XRECORD
  5
96EF
102
{ACAD_REACTORS
330
96EE
102
}
330
96EE
100
AcDbXrecord
280
     1
290
     1
  0
XRECORD
  5
9689
102
{ACAD_REACTORS
330
9688
102
}
330
9688
100
AcDbXrecord
280
     1
340
9486
  0
XRECORD
  5
9687
102
{ACAD_REACTORS
330
9686
102
}
330
9686
100
AcDbXrecord
280
     1
340
9482
  0
ACDBDETAILVIEWSTYLE
  5
96DB
102
{ACAD_XDICTIONARY
360
9736
102
}
102
{ACAD_REACTORS
330
96DA
102
}
330
96DA
100
AcDbModelDocViewStyle
 70
     0
  3
Imperial24
290
     0
100
AcDbDetailViewStyle
 70
     0
 71
     0
 90
        3
 71
     1
340
9479
 40
0.24
340
0
 40
0.24
300

 40
0.36
280
     3
 71
     2
340
947D
 90
       25
 71
     3
340
9479
 40
0.24
 90
        1
 40
0.75
 90
        1
300
%<\AcVar ViewType \f "%tc1">% %<\AcVar ViewDetailId>%\PSCALE %<\AcVar ViewScale \f "%sn">%
 71
     4
340
947D
 90
       25
340
947D
 90
       25
280
     0
  0
LAYOUT
  5
96DC
102
{ACAD_XDICTIONARY
360
9738
102
}
102
{ACAD_REACTORS
330
9481
102
}
330
9481
100
AcDbPlotSettings
  1

  2
Canon LBP9100C
  4

  6

 40
0.0
 41
0.0
 42
0.0
 43
0.0
 44
0.0
 45
0.0
 46
0.0
 47
0.0
 48
0.0
 49
0.0
140
0.0
141
0.0
142
1.0
143
1.0
 70
  1712
 72
     0
 73
     0
 74
     0
  7

 75
     0
147
1.0
148
0.0
149
0.0
100
AcDbLayout
  1
Model
 70
     1
 71
     0
 10
0.0
 20
0.0
 11
12.0
 21
9.0
 12
0.0
 22
0.0
 32
0.0
 14
0.0
 24
0.0
 34
0.0
 15
0.0
 25
0.0
 35
0.0
146
0.0
 13
0.0
 23
0.0
 33
0.0
 16
1.0
 26
0.0
 36
0.0
 17
0.0
 27
1.0
 37
0.0
 76
     0
330
9486
331
9685
  0
LAYOUT
  5
96DD
102
{ACAD_XDICTIONARY
360
973A
102
}
102
{ACAD_REACTORS
330
9481
102
}
330
9481
100
AcDbPlotSettings
  1

  2
Canon LBP9100C
  4

  6

 40
0.0
 41
0.0
 42
0.0
 43
0.0
 44
0.0
 45
0.0
 46
0.0
 47
0.0
 48
0.0
 49
0.0
140
0.0
141
0.0
142
1.0
143
1.0
 70
   688
 72
     0
 73
     0
 74
     5
  7

 75
    16
147
1.0
148
0.0
149
0.0
100
AcDbLayout
  1
レイアウト1
 70
     0
 71
     1
 10
0.0
 20
0.0
 11
420.0
 21
297.0
 12
0.0
 22
0.0
 32
0.0
 14
1.000000000000000E+20
 24
1.000000000000000E+20
 34
1.000000000000000E+20
 15
-1.000000000000000E+20
 25
-1.000000000000000E+20
 35
-1.000000000000000E+20
146
0.0
 13
0.0
 23
0.0
 33
0.0
 16
1.0
 26
0.0
 36
0.0
 17
0.0
 27
1.0
 37
0.0
 76
     0
330
9482
  0
MATERIAL
  5
9698
102
{ACAD_XDICTIONARY
360
9699
102
}
102
{ACAD_REACTORS
330
968F
102
}
330
968F
100
AcDbMaterial
  1
ByBlock
 72
     0
 43
0.0208333333333333
 43
0.0
 43
0.0
 43
0.0
 43
0.0
 43
0.0208333333333333
 43
0.0
 43
0.0
 43
0.0
 43
0.0
 43
1.0
 43
0.0
 43
0.0
 43
0.0
 43
0.0
 43
1.0
 77
     0
 47
0.0208333333333333
 47
0.0
 47
0.0
 47
0.0
 47
0.0
 47
0.0208333333333333
 47
0.0
 47
0.0
 47
0.0
 47
0.0
 47
1.0
 47
0.0
 47
0.0
 47
0.0
 47
0.0
 47
1.0
171
     0
 49
0.0208333333333333
 49
0.0
 49
0.0
 49
0.0
 49
0.0
 49
0.0208333333333333
 49
0.0
 49
0.0
 49
0.0
 49
0.0
 49
1.0
 49
0.0
 49
0.0
 49
0.0
 49
0.0
 49
1.0
175
     0
142
0.0208333333333333
142
0.0
142
0.0
142
0.0
142
0.0
142
0.0208333333333333
142
0.0
142
0.0
142
0.0
142
0.0
142
1.0
142
0.0
142
0.0
142
0.0
142
0.0
142
1.0
179
     0
144
0.0208333333333333
144
0.0
144
0.0
144
0.0
144
0.0
144
0.0208333333333333
144
0.0
144
0.0
144
0.0
144
0.0
144
1.0
144
0.0
144
0.0
144
0.0
144
0.0
144
1.0
147
0.0208333333333333
147
0.0
147
0.0
147
0.0
147
0.0
147
0.0208333333333333
147
0.0
147
0.0
147
0.0
147
0.0
147
1.0
147
0.0
147
0.0
147
0.0
147
0.0
147
1.0
  0
MATERIAL
  5
9690
102
{ACAD_XDICTIONARY
360
9691
102
}
102
{ACAD_REACTORS
330
968F
102
}
330
968F
100
AcDbMaterial
  1
ByLayer
 72
     0
 43
0.0208333333333333
 43
0.0
 43
0.0
 43
0.0
 43
0.0
 43
0.0208333333333333
 43
0.0
 43
0.0
 43
0.0
 43
0.0
 43
1.0
 43
0.0
 43
0.0
 43
0.0
 43
0.0
 43
1.0
 77
     0
 47
0.0208333333333333
 47
0.0
 47
0.0
 47
0.0
 47
0.0
 47
0.0208333333333333
 47
0.0
 47
0.0
 47
0.0
 47
0.0
 47
1.0
 47
0.0
 47
0.0
 47
0.0
 47
0.0
 47
1.0
171
     0
 49
0.0208333333333333
 49
0.0
 49
0.0
 49
0.0
 49
0.0
 49
0.0208333333333333
 49
0.0
 49
0.0
 49
0.0
 49
0.0
 49
1.0
 49
0.0
 49
0.0
 49
0.0
 49
0.0
 49
1.0
175
     0
142
0.0208333333333333
142
0.0
142
0.0
142
0.0
142
0.0
142
0.0208333333333333
142
0.0
142
0.0
142
0.0
142
0.0
142
1.0
142
0.0
142
0.0
142
0.0
142
0.0
142
1.0
179
     0
144
0.0208333333333333
144
0.0
144
0.0
144
0.0
144
0.0
144
0.0208333333333333
144
0.0
144
0.0
144
0.0
144
0.0
144
1.0
144
0.0
144
0.0
144
0.0
144
0.0
144
1.0
147
0.0208333333333333
147
0.0
147
0.0
147
0.0
147
0.0
147
0.0208333333333333
147
0.0
147
0.0
147
0.0
147
0.0
147
1.0
147
0.0
147
0.0
147
0.0
147
0.0
147
1.0
  0
MATERIAL
  5
96A0
102
{ACAD_XDICTIONARY
360
96A1
102
}
102
{ACAD_REACTORS
330
968F
102
}
330
968F
100
AcDbMaterial
  1
Global
 72
     0
 43
0.0208333333333333
 43
0.0
 43
0.0
 43
0.0
 43
0.0
 43
0.0208333333333333
 43
0.0
 43
0.0
 43
0.0
 43
0.0
 43
1.0
 43
0.0
 43
0.0
 43
0.0
 43
0.0
 43
1.0
 77
     0
 47
0.0208333333333333
 47
0.0
 47
0.0
 47
0.0
 47
0.0
 47
0.0208333333333333
 47
0.0
 47
0.0
 47
0.0
 47
0.0
 47
1.0
 47
0.0
 47
0.0
 47
0.0
 47
0.0
 47
1.0
171
     0
 49
0.0208333333333333
 49
0.0
 49
0.0
 49
0.0
 49
0.0
 49
0.0208333333333333
 49
0.0
 49
0.0
 49
0.0
 49
0.0
 49
1.0
 49
0.0
 49
0.0
 49
0.0
 49
0.0
 49
1.0
175
     0
142
0.0208333333333333
142
0.0
142
0.0
142
0.0
142
0.0
142
0.0208333333333333
142
0.0
142
0.0
142
0.0
142
0.0
142
1.0
142
0.0
142
0.0
142
0.0
142
0.0
142
1.0
179
     0
144
0.0208333333333333
144
0.0
144
0.0
144
0.0
144
0.0
144
0.0208333333333333
144
0.0
144
0.0
144
0.0
144
0.0
144
1.0
144
0.0
144
0.0
144
0.0
144
0.0
144
1.0
147
0.0208333333333333
147
0.0
147
0.0
147
0.0
147
0.0
147
0.0208333333333333
147
0.0
147
0.0
147
0.0
147
0.0
147
1.0
147
0.0
147
0.0
147
0.0
147
0.0
147
1.0
  0
MLEADERSTYLE
  5
96D7
102
{ACAD_REACTORS
330
96D6
102
}
330
96D6
100
AcDbMLeaderStyle
170
     2
171
     1
172
     0
 90
        2
 40
0.0
 41
0.0
173
     1
 91
-1056964608
340
947B
 92
       -2
290
     1
 42
0.09
291
     1
 43
0.36
  3
Standard
 44
0.18
300

342
9479
174
     1
178
     6
175
     1
176
     0
 93
-1056964608
 45
0.18
292
     0
297
     0
 46
0.18
 94
-1056964608
 47
1.0
 49
1.0
140
1.0
293
     1
141
0.0
294
     1
177
     0
142
1.0
295
     0
296
     0
143
0.125
1001
ACAD_MLEADERVER
1070
     2
  0
MLINESTYLE
  5
947F
102
{ACAD_REACTORS
330
947E
102
}
330
947E
100
AcDbMlineStyle
  2
STANDARD
 70
     0
  3

 62
   256
 51
90.0
 52
90.0
 71
     2
 49
0.5
 62
   256
  6
BYLAYER
 49
-0.5
 62
   256
  6
BYLAYER
  0
ACDBPLACEHOLDER
  5
968E
102
{ACAD_REACTORS
330
968D
102
}
330
968D
  0
SCALE
  5
96C5
102
{ACAD_REACTORS
330
96C4
102
}
330
96C4
100
AcDbScale
 70
     0
300
1:1
140
1.0
141
1.0
290
     1
  0
SCALE
  5
96C6
102
{ACAD_REACTORS
330
96C4
102
}
330
96C4
100
AcDbScale
 70
     0
300
1/128" = 1'-0"
140
0.0078125
141
12.0
290
     0
  0
SCALE
  5
96C7
102
{ACAD_REACTORS
330
96C4
102
}
330
96C4
100
AcDbScale
 70
     0
300
1/64" = 1'-0"
140
0.015625
141
12.0
290
     0
  0
SCALE
  5
96C8
102
{ACAD_REACTORS
330
96C4
102
}
330
96C4
100
AcDbScale
 70
     0
300
1/32" = 1'-0"
140
0.03125
141
12.0
290
     0
  0
SCALE
  5
96C9
102
{ACAD_REACTORS
330
96C4
102
}
330
96C4
100
AcDbScale
 70
     0
300
1/16" = 1'-0"
140
0.0625
141
12.0
290
     0
  0
SCALE
  5
96CA
102
{ACAD_REACTORS
330
96C4
102
}
330
96C4
100
AcDbScale
 70
     0
300
3/32" = 1'-0"
140
0.09375
141
12.0
290
     0
  0
SCALE
  5
96CB
102
{ACAD_REACTORS
330
96C4
102
}
330
96C4
100
AcDbScale
 70
     0
300
1/8" = 1'-0"
140
0.125
141
12.0
290
     0
  0
SCALE
  5
96CC
102
{ACAD_REACTORS
330
96C4
102
}
330
96C4
100
AcDbScale
 70
     0
300
3/16" = 1'-0"
140
0.1875
141
12.0
290
     0
  0
SCALE
  5
96CD
102
{ACAD_REACTORS
330
96C4
102
}
330
96C4
100
AcDbScale
 70
     0
300
1/4" = 1'-0"
140
0.25
141
12.0
290
     0
  0
SCALE
  5
96CE
102
{ACAD_REACTORS
330
96C4
102
}
330
96C4
100
AcDbScale
 70
     0
300
3/8" = 1'-0"
140
0.375
141
12.0
290
     0
  0
SCALE
  5
96CF
102
{ACAD_REACTORS
330
96C4
102
}
330
96C4
100
AcDbScale
 70
     0
300
1/2" = 1'-0"
140
0.5
141
12.0
290
     0
  0
SCALE
  5
96D0
102
{ACAD_REACTORS
330
96C4
102
}
330
96C4
100
AcDbScale
 70
     0
300
3/4" = 1'-0"
140
0.75
141
12.0
290
     0
  0
SCALE
  5
96D1
102
{ACAD_REACTORS
330
96C4
102
}
330
96C4
100
AcDbScale
 70
     0
300
1" = 1'-0"
140
1.0
141
12.0
290
     0
  0
SCALE
  5
96D2
102
{ACAD_REACTORS
330
96C4
102
}
330
96C4
100
AcDbScale
 70
     0
300
1-1/2" = 1'-0"
140
1.5
141
12.0
290
     0
  0
SCALE
  5
96D3
102
{ACAD_REACTORS
330
96C4
102
}
330
96C4
100
AcDbScale
 70
     0
300
3" = 1'-0"
140
3.0
141
12.0
290
     0
  0
SCALE
  5
96D4
102
{ACAD_REACTORS
330
96C4
102
}
330
96C4
100
AcDbScale
 70
     0
300
6" = 1'-0"
140
6.0
141
12.0
290
     0
  0
SCALE
  5
96D5
102
{ACAD_REACTORS
330
96C4
102
}
330
96C4
100
AcDbScale
 70
     0
300
1'-0" = 1'-0"
140
12.0
141
12.0
290
     0
  0
ACDBSECTIONVIEWSTYLE
  5
96D9
102
{ACAD_XDICTIONARY
360
9734
102
}
102
{ACAD_REACTORS
330
96D8
102
}
330
96D8
100
AcDbModelDocViewStyle
 70
     0
  3
Imperial24
290
     0
100
AcDbSectionViewStyle
 70
     0
 71
     0
 90
       78
 71
     1
340
9479
 40
0.24
340
0
340
0
 40
0.24
300
I, O, Q, S, X, Z
 40
0.48
 90
        3
 40
0.18
 90
        1
 71
     2
340
947D
 90
       25
340
947D
 90
       50
 40
0.24
 40
0.0
 40
0.24
 71
     3
340
9479
 40
0.24
 90
        1
 40
0.75
 90
        1
300
%<\AcVar ViewType \f "%tc1">% %<\AcVar ViewSectionStartId>%-%<\AcVar ViewSectionEndId>%\PSCALE %<\AcVar ViewScale \f "%sn">%
 71
     4
300
ANSI31
 40
1.0
 90
        0
290
     0
290
     0
 90
        6
 40
0.0
 40
1.570796326794896
 40
0.2617993877991494
 40
1.308996938995747
 40
-0.2617993877991494
 40
1.832595714594046
  0
TABLESTYLE
  5
96C3
102
{ACAD_XDICTIONARY
360
96FB
102
}
102
{ACAD_REACTORS
330
96C2
102
}
330
96C2
100
AcDbTableStyle
  3
Standard
 70
     0
 71
     0
 40
0.06
 41
0.06
280
     0
281
     0
  7
STANDARD
140
0.18
170
     2
 62
     0
 63
     7
283
     0
274
    -2
284
     1
 64
     0
275
    -2
285
     1
 65
     0
276
    -2
286
     1
 66
     0
277
    -2
287
     1
 67
     0
278
    -2
288
     1
 68
     0
279
    -2
289
     1
 69
     0
  7
STANDARD
140
0.25
170
     5
 62
     0
 63
     7
283
     0
274
    -2
284
     1
 64
     0
275
    -2
285
     1
 65
     0
276
    -2
286
     1
 66
     0
277
    -2
287
     1
 67
     0
278
    -2
288
     1
 68
     0
279
    -2
289
     1
 69
     0
  7
STANDARD
140
0.18
170
     5
 62
     0
 63
     7
283
     0
274
    -2
284
     1
 64
     0
275
    -2
285
     1
 65
     0
276
    -2
286
     1
 66
     0
277
    -2
287
     1
 67
     0
278
    -2
288
     1
 68
     0
279
    -2
289
     1
 69
     0
  0
VISUALSTYLE
  5
96AE
102
{ACAD_XDICTIONARY
360
970C
102
}
102
{ACAD_REACTORS
330
96A8
102
}
330
96A8
100
AcDbVisualStyle
  2
2dWireframe
 70
     4
 71
     0
 72
     2
 73
     0
 90
        0
 40
-0.6
 41
-30.0
 62
     5
 63
     7
 74
     1
 91
        4
 64
     7
 65
   257
 75
     1
175
     1
 42
1.0
 92
        0
 66
   257
 43
1.0
 76
     1
 77
     6
 78
     2
 67
     7
 79
     5
170
     0
171
     0
290
     0
174
     0
 93
        1
 44
0.0
173
     0
291
     0
 45
0.0
1001
ACAD
1000
AcDbSavedByObjectVersion
1070
     0
  0
VISUALSTYLE
  5
96AD
102
{ACAD_XDICTIONARY
360
970A
102
}
102
{ACAD_REACTORS
330
96A8
102
}
330
96A8
100
AcDbVisualStyle
  2
Basic
 70
     7
 71
     1
 72
     0
 73
     1
 90
        0
 40
-0.6
 41
-30.0
 62
     5
 63
     7
 74
     0
 91
        4
 64
     7
 65
   257
 75
     1
175
     1
 42
1.0
 92
        8
 66
     7
 43
1.0
 76
     1
 77
     6
 78
     2
 67
     7
 79
     5
170
     0
171
     0
290
     0
174
     0
 93
        1
 44
0.0
173
     0
291
     1
 45
0.0
1001
ACAD
1000
AcDbSavedByObjectVersion
1070
     0
  0
VISUALSTYLE
  5
96B4
102
{ACAD_XDICTIONARY
360
9718
102
}
102
{ACAD_REACTORS
330
96A8
102
}
330
96A8
100
AcDbVisualStyle
  2
Brighten
 70
    12
 71
     2
 72
     2
 73
     0
 90
        0
 40
-0.6
 41
-30.0
 62
     5
 63
     7
 74
     1
 91
        4
 64
     7
 65
   257
 75
     1
175
     1
 42
1.0
 92
        8
 66
     7
 43
1.0
 76
     1
 77
     6
 78
     2
 67
     7
 79
     5
170
     0
171
     0
290
     0
174
     0
 93
        1
 44
50.0
173
     0
291
     1
 45
0.0
1001
ACAD
1000
AcDbSavedByObjectVersion
1070
     0
  0
VISUALSTYLE
  5
96B8
102
{ACAD_XDICTIONARY
360
9720
102
}
102
{ACAD_REACTORS
330
96A8
102
}
330
96A8
100
AcDbVisualStyle
  2
ColorChange
 70
    16
 71
     2
 72
     2
 73
     3
 90
        0
 40
-0.6
 41
-30.0
 62
     5
 63
     8
 74
     1
 91
        4
 64
     7
 65
   257
 75
     1
175
     1
 42
1.0
 92
        8
 66
     8
 43
1.0
 76
     1
 77
     6
 78
     2
 67
     7
 79
     5
170
     0
171
     0
290
     0
174
     0
 93
        1
 44
0.0
173
     0
291
     1
 45
0.0
1001
ACAD
1000
AcDbSavedByObjectVersion
1070
     0
  0
VISUALSTYLE
  5
96B1
102
{ACAD_XDICTIONARY
360
9712
102
}
102
{ACAD_REACTORS
330
96A8
102
}
330
96A8
100
AcDbVisualStyle
  2
Conceptual
 70
     9
 71
     3
 72
     2
 73
     0
 90
        0
 40
-0.6
 41
-30.0
 62
     5
 63
     7
 74
     2
 91
        2
 64
     7
 65
   257
 75
     1
175
     1
 42
179.0
 92
        8
 66
     7
 43
1.0
 76
     1
 77
     6
 78
     2
 67
     7
 79
     3
170
     0
171
     0
290
     0
174
     0
 93
        1
 44
0.0
173
     0
291
     0
 45
0.0
1001
ACAD
1000
AcDbSavedByObjectVersion
1070
     0
  0
VISUALSTYLE
  5
96B3
102
{ACAD_XDICTIONARY
360
9716
102
}
102
{ACAD_REACTORS
330
96A8
102
}
330
96A8
100
AcDbVisualStyle
  2
Dim
 70
    11
 71
     2
 72
     2
 73
     0
 90
        0
 40
-0.6
 41
-30.0
 62
     5
 63
     7
 74
     1
 91
        4
 64
     7
 65
   257
 75
     1
175
     1
 42
1.0
 92
        8
 66
     7
 43
1.0
 76
     1
 77
     6
 78
     2
 67
     7
 79
     5
170
     0
171
     0
290
     0
174
     0
 93
        1
 44
-50.0
173
     0
291
     1
 45
0.0
1001
ACAD
1000
AcDbSavedByObjectVersion
1070
     0
  0
VISUALSTYLE
  5
96C0
102
{ACAD_XDICTIONARY
360
9730
102
}
102
{ACAD_REACTORS
330
96A8
102
}
330
96A8
100
AcDbVisualStyle
  2
EdgeColorOff
 70
    22
 71
     2
 72
     2
 73
     0
 90
        0
 40
-0.6
 41
-30.0
 62
     5
 63
     7
 74
     1
 91
        4
 64
     7
 65
   257
 75
     1
175
     1
 42
1.0
 92
        8
 66
     7
 43
1.0
 76
     1
 77
     6
 78
     2
 67
     7
 79
     5
170
     0
171
     0
290
     0
174
     0
 93
        1
 44
0.0
173
     0
291
     1
 45
0.0
1001
ACAD
1000
AcDbSavedByObjectVersion
1070
     0
  0
VISUALSTYLE
  5
96B7
102
{ACAD_XDICTIONARY
360
971E
102
}
102
{ACAD_REACTORS
330
96A8
102
}
330
96A8
100
AcDbVisualStyle
  2
Facepattern
 70
    15
 71
     2
 72
     2
 73
     0
 90
        0
 40
-0.6
 41
-30.0
 62
     5
 63
     7
 74
     1
 91
        4
 64
     7
 65
   257
 75
     1
175
     1
 42
1.0
 92
        8
 66
     7
 43
1.0
 76
     1
 77
     6
 78
     2
 67
     7
 79
     5
170
     0
171
     0
290
     0
174
     0
 93
        1
 44
0.0
173
     0
291
     1
 45
0.0
1001
ACAD
1000
AcDbSavedByObjectVersion
1070
     0
  0
VISUALSTYLE
  5
96A9
102
{ACAD_XDICTIONARY
360
9702
102
}
102
{ACAD_REACTORS
330
96A8
102
}
330
96A8
100
AcDbVisualStyle
  2
Flat
 70
     0
 71
     2
 72
     1
 73
     1
 90
        2
 40
-0.6
 41
30.0
 62
     5
 63
     7
 74
     0
 91
        0
 64
     7
 65
   257
 75
     1
175
     1
 42
1.0
 92
        8
 66
     7
 43
1.0
 76
     1
 77
     6
 78
     2
 67
     7
 79
     5
170
     0
171
     0
290
     0
174
     0
 93
       13
 44
0.0
173
     0
291
     1
 45
0.0
1001
ACAD
1000
AcDbSavedByObjectVersion
1070
     0
  0
VISUALSTYLE
  5
96AA
102
{ACAD_XDICTIONARY
360
9704
102
}
102
{ACAD_REACTORS
330
96A8
102
}
330
96A8
100
AcDbVisualStyle
  2
FlatWithEdges
 70
     1
 71
     2
 72
     1
 73
     1
 90
        2
 40
-0.6
 41
30.0
 62
     5
 63
     7
 74
     1
 91
        0
 64
     7
 65
   257
 75
     1
175
     1
 42
1.0
 92
        0
 66
   257
 43
1.0
 76
     1
 77
     6
 78
     2
 67
     7
 79
     5
170
     0
171
     0
290
     0
174
     0
 93
       13
 44
0.0
173
     0
291
     1
 45
0.0
1001
ACAD
1000
AcDbSavedByObjectVersion
1070
     0
  0
VISUALSTYLE
  5
96AB
102
{ACAD_XDICTIONARY
360
9706
102
}
102
{ACAD_REACTORS
330
96A8
102
}
330
96A8
100
AcDbVisualStyle
  2
Gouraud
 70
     2
 71
     2
 72
     2
 73
     1
 90
        2
 40
-0.6
 41
30.0
 62
     5
 63
     7
 74
     0
 91
        0
 64
     7
 65
   257
 75
     1
175
     1
 42
1.0
 92
        0
 66
     7
 43
1.0
 76
     1
 77
     6
 78
     2
 67
     7
 79
     5
170
     0
171
     0
290
     0
174
     0
 93
       13
 44
0.0
173
     0
291
     1
 45
0.0
1001
ACAD
1000
AcDbSavedByObjectVersion
1070
     0
  0
VISUALSTYLE
  5
96AC
102
{ACAD_XDICTIONARY
360
9708
102
}
102
{ACAD_REACTORS
330
96A8
102
}
330
96A8
100
AcDbVisualStyle
  2
GouraudWithEdges
 70
     3
 71
     2
 72
     2
 73
     1
 90
        2
 40
-0.6
 41
30.0
 62
     5
 63
     7
 74
     1
 91
        0
 64
     7
 65
   257
 75
     1
175
     1
 42
1.0
 92
        0
 66
   257
 43
1.0
 76
     1
 77
     6
 78
     2
 67
     7
 79
     5
170
     0
171
     0
290
     0
174
     0
 93
       13
 44
0.0
173
     0
291
     1
 45
0.0
1001
ACAD
1000
AcDbSavedByObjectVersion
1070
     0
  0
VISUALSTYLE
  5
96B0
102
{ACAD_XDICTIONARY
360
9710
102
}
102
{ACAD_REACTORS
330
96A8
102
}
330
96A8
100
AcDbVisualStyle
  2
Hidden
 70
     6
 71
     1
 72
     2
 73
     2
 90
        0
 40
-0.6
 41
-30.0
 62
     5
 63
     7
 74
     2
 91
        2
 64
     7
 65
   257
 75
     2
175
     1
 42
40.0
 92
        0
 66
   257
 43
1.0
 76
     1
 77
     6
 78
     2
 67
     7
 79
     3
170
     0
171
     0
290
     0
174
     0
 93
        1
 44
0.0
173
     0
291
     0
 45
0.0
1001
ACAD
1000
AcDbSavedByObjectVersion
1070
     0
  0
VISUALSTYLE
  5
96BE
102
{ACAD_XDICTIONARY
360
972C
102
}
102
{ACAD_REACTORS
330
96A8
102
}
330
96A8
100
AcDbVisualStyle
  2
JitterOff
 70
    20
 71
     2
 72
     2
 73
     0
 90
        0
 40
-0.6
 41
-30.0
 62
     5
 63
     7
 74
     1
 91
        4
 64
     7
 65
   257
 75
     1
175
     1
 42
1.0
 92
       10
 66
     7
 43
1.0
 76
     1
 77
     6
 78
     2
 67
     7
 79
     5
170
     0
171
     0
290
     0
174
     0
 93
        1
 44
0.0
173
     0
291
     1
 45
0.0
1001
ACAD
1000
AcDbSavedByObjectVersion
1070
     0
  0
VISUALSTYLE
  5
96B6
102
{ACAD_XDICTIONARY
360
971C
102
}
102
{ACAD_REACTORS
330
96A8
102
}
330
96A8
100
AcDbVisualStyle
  2
Linepattern
 70
    14
 71
     2
 72
     2
 73
     0
 90
        0
 40
-0.6
 41
-30.0
 62
     5
 63
     7
 74
     1
 91
        4
 64
     7
 65
   257
 75
     7
175
     7
 42
1.0
 92
        8
 66
     7
 43
1.0
 76
     1
 77
     6
 78
     2
 67
     7
 79
     5
170
     0
171
     0
290
     0
174
     0
 93
        1
 44
0.0
173
     0
291
     1
 45
0.0
1001
ACAD
1000
AcDbSavedByObjectVersion
1070
     0
  0
VISUALSTYLE
  5
96BF
102
{ACAD_XDICTIONARY
360
972E
102
}
102
{ACAD_REACTORS
330
96A8
102
}
330
96A8
100
AcDbVisualStyle
  2
OverhangOff
 70
    21
 71
     2
 72
     2
 73
     0
 90
        0
 40
-0.6
 41
-30.0
 62
     5
 63
     7
 74
     1
 91
        4
 64
     7
 65
   257
 75
     1
175
     1
 42
1.0
 92
        9
 66
     7
 43
1.0
 76
     1
 77
     6
 78
     2
 67
     7
 79
     5
170
     0
171
     0
290
     0
174
     0
 93
        1
 44
0.0
173
     0
291
     1
 45
0.0
1001
ACAD
1000
AcDbSavedByObjectVersion
1070
     0
  0
VISUALSTYLE
  5
96B2
102
{ACAD_XDICTIONARY
360
9714
102
}
102
{ACAD_REACTORS
330
96A8
102
}
330
96A8
100
AcDbVisualStyle
  2
Realistic
 70
     8
 71
     2
 72
     3
 73
     0
 90
        2
 40
-0.6
 41
30.0
 62
     5
 63
     7
 74
     0
 91
        0
 64
     7
 65
   257
 75
     1
175
     1
 42
1.0
 92
        8
 66
   257
 43
1.0
 76
     1
 77
     6
 78
     2
 67
     7
 79
     3
170
     0
171
     0
290
     0
174
     0
 93
       13
 44
0.0
173
     0
291
     0
 45
0.0
1001
ACAD
1000
AcDbSavedByObjectVersion
1070
     0
  0
VISUALSTYLE
  5
96BD
102
{ACAD_XDICTIONARY
360
972A
102
}
102
{ACAD_REACTORS
330
96A8
102
}
330
96A8
100
AcDbVisualStyle
  2
Shaded
 70
    27
 71
     2
 72
     2
 73
     1
 90
        2
 40
-0.6
 41
30.0
 62
     5
 63
     7
 74
     0
 91
        4
 64
     7
 65
   257
 75
     1
175
     1
 42
1.0
 92
        8
 66
   257
 43
1.0
 76
     1
 77
     6
 78
     2
 67
     8
 79
     3
170
     0
171
     0
290
     0
174
     0
 93
        5
 44
0.0
173
     0
291
     0
 45
0.0
1001
ACAD
1000
AcDbSavedByObjectVersion
1070
     0
  0
VISUALSTYLE
  5
96BC
102
{ACAD_XDICTIONARY
360
9728
102
}
102
{ACAD_REACTORS
330
96A8
102
}
330
96A8
100
AcDbVisualStyle
  2
Shaded with edges
 70
    26
 71
     2
 72
     2
 73
     1
 90
        2
 40
-0.6
 41
30.0
 62
     5
 63
     7
 74
     1
 91
       10
 64
     7
 65
   257
 75
     2
175
     1
 42
1.0
 92
        8
 66
   257
 43
1.0
 76
     1
 77
     6
 78
     2
 67
     7
 79
     3
170
     0
171
     0
290
     0
174
     0
 93
        5
 44
0.0
173
     0
291
     0
 45
0.0
1001
ACAD
1000
AcDbSavedByObjectVersion
1070
     0
  0
VISUALSTYLE
  5
96B9
102
{ACAD_XDICTIONARY
360
9722
102
}
102
{ACAD_REACTORS
330
96A8
102
}
330
96A8
100
AcDbVisualStyle
  2
Shades of Gray
 70
    23
 71
     2
 72
     2
 73
     3
 90
        0
 40
-0.6
 41
-30.0
 62
     5
 63
     7
 74
     2
 91
        2
 64
     7
 65
     7
 75
     1
175
     1
 42
40.0
 92
        8
 66
     7
 43
1.0
 76
     1
 77
     6
 78
     2
 67
     7
 79
     3
170
     0
171
     0
290
     0
174
     0
 93
        1
 44
0.0
173
     0
291
     0
 45
0.0
1001
ACAD
1000
AcDbSavedByObjectVersion
1070
     0
  0
VISUALSTYLE
  5
96BA
102
{ACAD_XDICTIONARY
360
9724
102
}
102
{ACAD_REACTORS
330
96A8
102
}
330
96A8
100
AcDbVisualStyle
  2
Sketchy
 70
    24
 71
     1
 72
     2
 73
     2
 90
        0
 40
-0.6
 41
-30.0
 62
     5
 63
     7
 74
     2
 91
        2
 64
     7
 65
     7
 75
     1
175
     1
 42
40.0
 92
       11
 66
     7
 43
1.0
 76
     1
 77
     6
 78
     2
 67
     7
 79
     6
170
     0
171
     0
290
     0
174
     0
 93
        1
 44
0.0
173
     0
291
     0
 45
0.0
1001
ACAD
1000
AcDbSavedByObjectVersion
1070
     0
  0
VISUALSTYLE
  5
96B5
102
{ACAD_XDICTIONARY
360
971A
102
}
102
{ACAD_REACTORS
330
96A8
102
}
330
96A8
100
AcDbVisualStyle
  2
Thicken
 70
    13
 71
     2
 72
     2
 73
     0
 90
        0
 40
-0.6
 41
-30.0
 62
     5
 63
     7
 74
     1
 91
        4
 64
     7
 65
   257
 75
     1
175
     1
 42
1.0
 92
       12
 66
     7
 43
1.0
 76
     1
 77
     6
 78
     2
 67
     7
 79
     5
170
     0
171
     0
290
     0
174
     0
 93
        1
 44
0.0
173
     0
291
     1
 45
0.0
1001
ACAD
1000
AcDbSavedByObjectVersion
1070
     0
  0
VISUALSTYLE
  5
96AF
102
{ACAD_XDICTIONARY
360
970E
102
}
102
{ACAD_REACTORS
330
96A8
102
}
330
96A8
100
AcDbVisualStyle
  2
Wireframe
 70
     5
 71
     0
 72
     2
 73
     0
 90
        0
 40
-0.6
 41
-30.0
 62
     5
 63
     7
 74
     1
 91
        4
 64
     7
 65
   257
 75
     1
175
     1
 42
1.0
 92
        0
 66
   257
 43
1.0
 76
     1
 77
     6
 78
     2
 67
     7
 79
     3
170
     0
171
     0
290
     0
174
     0
 93
        1
 44
0.0
173
     0
291
     0
 45
0.0
1001
ACAD
1000
AcDbSavedByObjectVersion
1070
     0
  0
VISUALSTYLE
  5
96BB
102
{ACAD_XDICTIONARY
360
9726
102
}
102
{ACAD_REACTORS
330
96A8
102
}
330
96A8
100
AcDbVisualStyle
  2
X-Ray
 70
    25
 71
     2
 72
     2
 73
     1
 90
        1
 40
0.5
 41
-30.0
 62
     5
 63
     7
 74
     1
 91
        0
 64
     7
 65
   257
 75
     1
175
     1
 42
1.0
 92
        8
 66
     7
 43
1.0
 76
     1
 77
     6
 78
     2
 67
     7
 79
     3
170
     0
171
     0
290
     0
174
     0
 93
       13
 44
0.0
173
     0
291
     0
 45
0.0
1001
ACAD
1000
AcDbSavedByObjectVersion
1070
     0
  0
DICTIONARYVAR
  5
96F5
102
{ACAD_REACTORS
330
96F0
102
}
330
96F0
100
DictionaryVariables
280
     0
  1
1:1
  0
DICTIONARYVAR
  5
96F2
102
{ACAD_REACTORS
330
96F0
102
}
330
96F0
100
DictionaryVariables
280
     0
  1
STANDARD
  0
DICTIONARYVAR
  5
96F1
102
{ACAD_REACTORS
330
96F0
102
}
330
96F0
100
DictionaryVariables
280
     0
  1
STANDARD
  0
DICTIONARYVAR
  5
96F3
102
{ACAD_REACTORS
330
96F0
102
}
330
96F0
100
DictionaryVariables
280
     0
  1
Imperial24
  0
DICTIONARYVAR
  5
96F4
102
{ACAD_REACTORS
330
96F0
102
}
330
96F0
100
DictionaryVariables
280
     0
  1
Imperial24
  0
DICTIONARYVAR
  5
96F8
102
{ACAD_REACTORS
330
96F0
102
}
330
96F0
100
DictionaryVariables
280
     0
  1
1
  0
DICTIONARYVAR
  5
96F7
102
{ACAD_REACTORS
330
96F0
102
}
330
96F0
100
DictionaryVariables
280
     0
  1
0
  0
DICTIONARYVAR
  5
96F6
102
{ACAD_REACTORS
330
96F0
102
}
330
96F0
100
DictionaryVariables
280
     0
  1
127
  0
DICTIONARYVAR
  5
96F9
102
{ACAD_REACTORS
330
96F0
102
}
330
96F0
100
DictionaryVariables
280
     0
  1
2
  0
DICTIONARY
  5
9736
330
96DB
100
AcDbDictionary
280
     1
281
     1
  3
ACAD_XREC_ROUNDTRIP
360
9737
  0
DICTIONARY
  5
9738
330
96DC
100
AcDbDictionary
280
     1
281
     1
  3
ACAD_XREC_ROUNDTRIP
360
9739
  0
DICTIONARY
  5
973A
330
96DD
100
AcDbDictionary
280
     1
281
     1
  3
ACAD_XREC_ROUNDTRIP
360
973B
  0
DICTIONARY
  5
9699
330
9698
100
AcDbDictionary
280
     1
281
     1
  3
ACAD_XREC_ROUNDTRIP
360
9700
  3
BUMPTILE
360
969B
  3
DIFFUSETILE
360
969A
  3
OPACITYTILE
360
969E
  3
REFLECTIONTILE
360
969D
  3
REFRACTIONTILE
360
969F
  3
SPECULARTILE
360
969C
  0
DICTIONARY
  5
9691
330
9690
100
AcDbDictionary
280
     1
281
     1
  3
ACAD_XREC_ROUNDTRIP
360
96FF
  3
BUMPTILE
360
9693
  3
DIFFUSETILE
360
9692
  3
OPACITYTILE
360
9696
  3
REFLECTIONTILE
360
9695
  3
REFRACTIONTILE
360
9697
  3
SPECULARTILE
360
9694
  0
DICTIONARY
  5
96A1
330
96A0
100
AcDbDictionary
280
     1
281
     1
  3
ACAD_XREC_ROUNDTRIP
360
9701
  3
BUMPTILE
360
96A3
  3
DIFFUSETILE
360
96A2
  3
OPACITYTILE
360
96A6
  3
REFLECTIONTILE
360
96A5
  3
REFRACTIONTILE
360
96A7
  3
SPECULARTILE
360
96A4
  0
DICTIONARY
  5
9734
330
96D9
100
AcDbDictionary
280
     1
281
     1
  3
ACAD_XREC_ROUNDTRIP
360
9735
  0
DICTIONARY
  5
96FB
330
96C3
100
AcDbDictionary
280
     1
281
     1
  3
ACAD_ROUNDTRIP_2008_TABLESTYLE_CELLSTYLEMAP
360
96FC
  3
ACAD_XREC_ROUNDTRIP
360
9732
  0
DICTIONARY
  5
970C
330
96AE
100
AcDbDictionary
280
     1
281
     1
  3
ACAD_XREC_ROUNDTRIP
360
970D
  0
DICTIONARY
  5
970A
330
96AD
100
AcDbDictionary
280
     1
281
     1
  3
ACAD_XREC_ROUNDTRIP
360
970B
  0
DICTIONARY
  5
9718
330
96B4
100
AcDbDictionary
280
     1
281
     1
  3
ACAD_XREC_ROUNDTRIP
360
9719
  0
DICTIONARY
  5
9720
330
96B8
100
AcDbDictionary
280
     1
281
     1
  3
ACAD_XREC_ROUNDTRIP
360
9721
  0
DICTIONARY
  5
9712
330
96B1
100
AcDbDictionary
280
     1
281
     1
  3
ACAD_XREC_ROUNDTRIP
360
9713
  0
DICTIONARY
  5
9716
330
96B3
100
AcDbDictionary
280
     1
281
     1
  3
ACAD_XREC_ROUNDTRIP
360
9717
  0
DICTIONARY
  5
9730
330
96C0
100
AcDbDictionary
280
     1
281
     1
  3
ACAD_XREC_ROUNDTRIP
360
9731
  0
DICTIONARY
  5
971E
330
96B7
100
AcDbDictionary
280
     1
281
     1
  3
ACAD_XREC_ROUNDTRIP
360
971F
  0
DICTIONARY
  5
9702
330
96A9
100
AcDbDictionary
280
     1
281
     1
  3
ACAD_XREC_ROUNDTRIP
360
9703
  0
DICTIONARY
  5
9704
330
96AA
100
AcDbDictionary
280
     1
281
     1
  3
ACAD_XREC_ROUNDTRIP
360
9705
  0
DICTIONARY
  5
9706
330
96AB
100
AcDbDictionary
280
     1
281
     1
  3
ACAD_XREC_ROUNDTRIP
360
9707
  0
DICTIONARY
  5
9708
330
96AC
100
AcDbDictionary
280
     1
281
     1
  3
ACAD_XREC_ROUNDTRIP
360
9709
  0
DICTIONARY
  5
9710
330
96B0
100
AcDbDictionary
280
     1
281
     1
  3
ACAD_XREC_ROUNDTRIP
360
9711
  0
DICTIONARY
  5
972C
330
96BE
100
AcDbDictionary
280
     1
281
     1
  3
ACAD_XREC_ROUNDTRIP
360
972D
  0
DICTIONARY
  5
971C
330
96B6
100
AcDbDictionary
280
     1
281
     1
  3
ACAD_XREC_ROUNDTRIP
360
971D
  0
DICTIONARY
  5
972E
330
96BF
100
AcDbDictionary
280
     1
281
     1
  3
ACAD_XREC_ROUNDTRIP
360
972F
  0
DICTIONARY
  5
9714
330
96B2
100
AcDbDictionary
280
     1
281
     1
  3
ACAD_XREC_ROUNDTRIP
360
9715
  0
DICTIONARY
  5
972A
330
96BD
100
AcDbDictionary
280
     1
281
     1
  3
ACAD_XREC_ROUNDTRIP
360
972B
  0
DICTIONARY
  5
9728
330
96BC
100
AcDbDictionary
280
     1
281
     1
  3
ACAD_XREC_ROUNDTRIP
360
9729
  0
DICTIONARY
  5
9722
330
96B9
100
AcDbDictionary
280
     1
281
     1
  3
ACAD_XREC_ROUNDTRIP
360
9723
  0
DICTIONARY
  5
9724
330
96BA
100
AcDbDictionary
280
     1
281
     1
  3
ACAD_XREC_ROUNDTRIP
360
9725
  0
DICTIONARY
  5
971A
330
96B5
100
AcDbDictionary
280
     1
281
     1
  3
ACAD_XREC_ROUNDTRIP
360
971B
  0
DICTIONARY
  5
970E
330
96AF
100
AcDbDictionary
280
     1
281
     1
  3
ACAD_XREC_ROUNDTRIP
360
970F
  0
DICTIONARY
  5
9726
330
96BB
100
AcDbDictionary
280
     1
281
     1
  3
ACAD_XREC_ROUNDTRIP
360
9727
  0
XRECORD
  5
9737
102
{ACAD_REACTORS
330
9736
102
}
330
9736
100
AcDbXrecord
280
     1
102
DISPLAYNAME
  1
Imperial24
102
FLAGS
 90
        0
  0
XRECORD
  5
9739
102
{ACAD_REACTORS
330
9738
102
}
330
9738
100
AcDbXrecord
280
     1
102
SHADEPLOT
 70
     0
102
SHADEPLOTRESLEVEL
 70
     2
102
SHADEPLOTCUSTOMDPI
 70
   300
  0
XRECORD
  5
973B
102
{ACAD_REACTORS
330
973A
102
}
330
973A
100
AcDbXrecord
280
     1
102
SHADEPLOT
 70
     0
102
SHADEPLOTRESLEVEL
 70
     2
102
SHADEPLOTCUSTOMDPI
 70
   300
  0
XRECORD
  5
9700
102
{ACAD_REACTORS
330
9699
102
}
330
9699
100
AcDbXrecord
280
     1
102
MATERIAL
148
0.0
149
0.0
149
0.0
 93
        0
 94
      127
282
     0
 72
     0
 77
     0
171
     0
175
     0
179
     0
273
     0
  0
XRECORD
  5
969B
102
{ACAD_REACTORS
330
9699
102
}
330
9699
100
AcDbXrecord
280
     1
270
     1
271
     1
  0
XRECORD
  5
969A
102
{ACAD_REACTORS
330
9699
102
}
330
9699
100
AcDbXrecord
280
     1
270
     1
271
     1
  0
XRECORD
  5
969E
102
{ACAD_REACTORS
330
9699
102
}
330
9699
100
AcDbXrecord
280
     1
270
     1
271
     1
  0
XRECORD
  5
969D
102
{ACAD_REACTORS
330
9699
102
}
330
9699
100
AcDbXrecord
280
     1
270
     1
271
     1
  0
XRECORD
  5
969F
102
{ACAD_REACTORS
330
9699
102
}
330
9699
100
AcDbXrecord
280
     1
270
     1
271
     1
  0
XRECORD
  5
969C
102
{ACAD_REACTORS
330
9699
102
}
330
9699
100
AcDbXrecord
280
     1
270
     1
271
     1
  0
XRECORD
  5
96FF
102
{ACAD_REACTORS
330
9691
102
}
330
9691
100
AcDbXrecord
280
     1
102
MATERIAL
148
0.0
149
0.0
149
0.0
 93
        0
 94
      127
282
     0
 72
     0
 77
     0
171
     0
175
     0
179
     0
273
     0
  0
XRECORD
  5
9693
102
{ACAD_REACTORS
330
9691
102
}
330
9691
100
AcDbXrecord
280
     1
270
     1
271
     1
  0
XRECORD
  5
9692
102
{ACAD_REACTORS
330
9691
102
}
330
9691
100
AcDbXrecord
280
     1
270
     1
271
     1
  0
XRECORD
  5
9696
102
{ACAD_REACTORS
330
9691
102
}
330
9691
100
AcDbXrecord
280
     1
270
     1
271
     1
  0
XRECORD
  5
9695
102
{ACAD_REACTORS
330
9691
102
}
330
9691
100
AcDbXrecord
280
     1
270
     1
271
     1
  0
XRECORD
  5
9697
102
{ACAD_REACTORS
330
9691
102
}
330
9691
100
AcDbXrecord
280
     1
270
     1
271
     1
  0
XRECORD
  5
9694
102
{ACAD_REACTORS
330
9691
102
}
330
9691
100
AcDbXrecord
280
     1
270
     1
271
     1
  0
XRECORD
  5
9701
102
{ACAD_REACTORS
330
96A1
102
}
330
96A1
100
AcDbXrecord
280
     1
102
MATERIAL
148
0.0
149
0.0
149
0.0
 93
        0
 94
      127
282
     0
 72
     0
 77
     0
171
     0
175
     0
179
     0
273
     0
  0
XRECORD
  5
96A3
102
{ACAD_REACTORS
330
96A1
102
}
330
96A1
100
AcDbXrecord
280
     1
270
     1
271
     1
  0
XRECORD
  5
96A2
102
{ACAD_REACTORS
330
96A1
102
}
330
96A1
100
AcDbXrecord
280
     1
270
     1
271
     1
  0
XRECORD
  5
96A6
102
{ACAD_REACTORS
330
96A1
102
}
330
96A1
100
AcDbXrecord
280
     1
270
     1
271
     1
  0
XRECORD
  5
96A5
102
{ACAD_REACTORS
330
96A1
102
}
330
96A1
100
AcDbXrecord
280
     1
270
     1
271
     1
  0
XRECORD
  5
96A7
102
{ACAD_REACTORS
330
96A1
102
}
330
96A1
100
AcDbXrecord
280
     1
270
     1
271
     1
  0
XRECORD
  5
96A4
102
{ACAD_REACTORS
330
96A1
102
}
330
96A1
100
AcDbXrecord
280
     1
270
     1
271
     1
  0
XRECORD
  5
9735
102
{ACAD_REACTORS
330
9734
102
}
330
9734
100
AcDbXrecord
280
     1
102
DISPLAYNAME
  1
Imperial24
102
FLAGS
 90
        0
  0
CELLSTYLEMAP
  5
96FC
102
{ACAD_REACTORS
330
96FB
102
}
330
96FB
100
AcDbCellStyleMap
 90
        3
300
CELLSTYLE
  1
TABLEFORMAT_BEGIN
 90
        5
170
     1
 91
        0
 92
    32768
 62
   257
 93
        1
300
CONTENTFORMAT
  1
CONTENTFORMAT_BEGIN
 90
        0
 91
        0
 92
      512
 93
        0
300

 40
0.0
140
1.0
 94
        5
 62
     0
340
9479
144
0.25
309
CONTENTFORMAT_END
171
     0
 94
        0
309
TABLEFORMAT_END
  1
CELLSTYLE_BEGIN
 90
        1
 91
        1
300
_TITLE
309
CELLSTYLE_END
300
CELLSTYLE
  1
TABLEFORMAT_BEGIN
 90
        5
170
     1
 91
        0
 92
        0
 62
   257
 93
        1
300
CONTENTFORMAT
  1
CONTENTFORMAT_BEGIN
 90
        0
 91
        0
 92
      512
 93
        0
300

 40
0.0
140
1.0
 94
        5
 62
     0
340
9479
144
0.18
309
CONTENTFORMAT_END
171
     0
 94
        0
309
TABLEFORMAT_END
  1
CELLSTYLE_BEGIN
 90
        2
 91
        1
300
_HEADER
309
CELLSTYLE_END
300
CELLSTYLE
  1
TABLEFORMAT_BEGIN
 90
        5
170
     1
 91
        0
 92
        0
 62
   257
 93
        1
300
CONTENTFORMAT
  1
CONTENTFORMAT_BEGIN
 90
        0
 91
        0
 92
      512
 93
        0
300

 40
0.0
140
1.0
 94
        2
 62
     0
340
9479
144
0.18
309
CONTENTFORMAT_END
171
     0
 94
        0
309
TABLEFORMAT_END
  1
CELLSTYLE_BEGIN
 90
        3
 91
        2
300
_DATA
309
CELLSTYLE_END
  0
XRECORD
  5
9732
102
{ACAD_REACTORS
330
96FB
102
}
330
96FB
100
AcDbXrecord
280
     1
102
ACAD_ROUNDTRIP_PRE2007_TABLESTYLE
 90
      512
 91
        0
  1

 92
      512
 93
        0
  2

 94
      512
 95
        0
  3

  0
XRECORD
  5
970D
102
{ACAD_REACTORS
330
970C
102
}
330
970C
100
AcDbXrecord
280
     1
102
RTVSPost2010Prop28
280
     1
102
RTVSPost2010PropOp28
 70
     1
102
RTVSPost2010Prop29
280
     1
102
RTVSPost2010PropOp29
 70
     1
102
RTVSPost2010Prop30
280
     0
102
RTVSPost2010PropOp30
 70
     1
102
RTVSPost2010Prop31
280
     0
102
RTVSPost2010PropOp31
 70
     1
102
RTVSPost2010Prop32
280
     0
102
RTVSPost2010PropOp32
 70
     1
102
RTVSPost2010Prop33
280
     0
102
RTVSPost2010PropOp33
 70
     1
102
RTVSPost2010Prop34
280
     0
102
RTVSPost2010PropOp34
 70
     1
102
RTVSPost2010Prop35
280
     0
102
RTVSPost2010PropOp35
 70
     1
102
RTVSPost2010Prop36
280
     0
102
RTVSPost2010PropOp36
 70
     1
102
RTVSPost2010Prop37
 90
       50
102
RTVSPost2010PropOp37
 70
     1
102
RTVSPost2010Prop38
140
0.0
102
RTVSPost2010PropOp38
 70
     1
102
RTVSPost2010Prop39
140
1.0
102
RTVSPost2010PropOp39
 70
     1
102
RTVSPost2010Prop40
 90
        0
102
RTVSPost2010PropOp40
 70
     1
102
RTVSPost2010Prop41ColorIndex
 90
       18
102
RTVSPost2010Prop41ColorRGB
 90
        0
102
RTVSPost2010PropOp41
 70
     1
102
RTVSPost2010Prop42
 90
       50
102
RTVSPost2010PropOp42
 70
     1
102
RTVSPost2010Prop43
 90
        3
102
RTVSPost2010PropOp43
 70
     1
102
RTVSPost2010Prop44ColorIndex
 90
        5
102
RTVSPost2010Prop44ColorRGB
 90
      255
102
RTVSPost2010PropOp44
 70
     1
102
RTVSPost2010Prop45
280
     0
102
RTVSPost2010PropOp45
 70
     1
102
RTVSPost2010Prop46
 90
       50
102
RTVSPost2010PropOp46
 70
     1
102
RTVSPost2010Prop47
 90
       50
102
RTVSPost2010PropOp47
 70
     1
102
RTVSPost2010Prop48
 90
       50
102
RTVSPost2010PropOp48
 70
     1
102
RTVSPost2010Prop49
280
     0
102
RTVSPost2010PropOp49
 70
     1
102
RTVSPost2010Prop50
 90
       50
102
RTVSPost2010PropOp50
 70
     1
102
RTVSPost2010Prop51ColorIndex
 90
      256
102
RTVSPost2010Prop51ColorRGB
 90
-16777216
102
RTVSPost2010PropOp51
 70
     0
102
RTVSPost2010Prop52
140
1.0
102
RTVSPost2010PropOp52
 70
     0
102
RTVSPost2010Prop53
 90
        2
102
RTVSPost2010PropOp53
 70
     1
102
RTVSPost2010Prop54
  1
strokes_ogs.tif
102
RTVSPost2010PropOp54
 70
     1
102
RTVSPost2010Prop55
280
     0
102
RTVSPost2010PropOp55
 70
     1
102
RTVSPost2010Prop56
140
1.0
102
RTVSPost2010PropOp56
 70
     1
102
RTVSPost2010Prop57
140
1.0
102
RTVSPost2010PropOp57
 70
     1
102
RTVSPropertyOp0
 70
     1
102
RTVSPropertyOp1
 70
     1
102
RTVSPropertyOp2
 70
     1
102
RTVSPropertyOp3
 70
     1
102
RTVSPropertyOp4
 70
     1
102
RTVSPropertyOp5
 70
     1
102
RTVSPropertyOp6
 70
     1
102
RTVSPropertyOp7
 70
     1
102
RTVSPropertyOp8
 70
     1
102
RTVSPropertyOp9
 70
     1
102
RTVSPropertyOp10
 70
     1
102
RTVSPropertyOp11
 70
     1
102
RTVSPropertyOp12
 70
     1
102
RTVSPropertyOp13
 70
     1
102
RTVSPropertyOp14
 70
     1
102
RTVSPropertyOp15
 70
     1
102
RTVSPropertyOp16
 70
     1
102
RTVSPropertyOp17
 70
     1
102
RTVSPropertyOp18
 70
     1
102
RTVSPropertyOp19
 70
     1
102
RTVSPropertyOp20
 70
     1
102
RTVSPropertyOp21
 70
     1
102
RTVSPropertyOp22
 70
     1
102
RTVSPropertyOp23
 70
     1
102
RTVSPropertyOp24
 70
     1
102
RTVSPropertyOp25
 70
     1
102
RTVSPropertyOp26
 70
     1
102
RTVSPropertyOp27
 70
     1
102
RTVSPropertyOp28
 70
     1
102
RTVSPropertyOp29
 70
     1
102
RTVSPropertyOp30
 70
     1
102
RTVSPropertyOp31
 70
     1
102
RTVSPropertyOp32
 70
     1
102
RTVSPropertyOp33
 70
     1
102
RTVSPropertyOp34
 70
     1
102
RTVSPropertyOp35
 70
     1
102
RTVSPropertyOp36
 70
     1
102
RTVSPropertyOp37
 70
     1
102
RTVSPropertyOp38
 70
     1
102
RTVSPropertyOp39
 70
     1
102
RTVSPropertyOp40
 70
     1
102
RTVSPropertyOp41
 70
     1
102
RTVSPropertyOp42
 70
     1
102
RTVSPropertyOp43
 70
     1
102
RTVSPropertyOp44
 70
     1
102
RTVSPropertyOp45
 70
     1
102
RTVSPropertyOp46
 70
     1
102
RTVSPropertyOp47
 70
     1
102
RTVSPropertyOp48
 70
     1
102
RTVSPropertyOp49
 70
     1
102
RTVSPropertyOp50
 70
     1
102
RTVSPropertyOp51
 70
     0
102
RTVSPropertyOp52
 70
     0
102
RTVSPropertyOp53
 70
     1
102
RTVSPropertyOp54
 70
     1
102
RTVSPropertyOp55
 70
     1
102
RTVSPropertyOp56
 70
     1
102
RTVSPropertyOp57
 70
     1
102
RTVSPropertyOp58
 70
     1
102
RTVSPropertyOp59
 70
     1
102
RTVSPropertyOp60
 70
     1
102
RTVSPropertyOp61
 70
     1
102
RTVSPropertyOp62
 70
     1
  0
XRECORD
  5
970B
102
{ACAD_REACTORS
330
970A
102
}
330
970A
100
AcDbXrecord
280
     1
102
RTVSPost2010Prop28
280
     0
102
RTVSPost2010PropOp28
 70
     1
102
RTVSPost2010Prop29
280
     1
102
RTVSPost2010PropOp29
 70
     1
102
RTVSPost2010Prop30
280
     1
102
RTVSPost2010PropOp30
 70
     1
102
RTVSPost2010Prop31
280
     0
102
RTVSPost2010PropOp31
 70
     1
102
RTVSPost2010Prop32
280
     0
102
RTVSPost2010PropOp32
 70
     1
102
RTVSPost2010Prop33
280
     0
102
RTVSPost2010PropOp33
 70
     1
102
RTVSPost2010Prop34
280
     0
102
RTVSPost2010PropOp34
 70
     1
102
RTVSPost2010Prop35
280
     0
102
RTVSPost2010PropOp35
 70
     1
102
RTVSPost2010Prop36
280
     0
102
RTVSPost2010PropOp36
 70
     1
102
RTVSPost2010Prop37
 90
       50
102
RTVSPost2010PropOp37
 70
     1
102
RTVSPost2010Prop38
140
0.0
102
RTVSPost2010PropOp38
 70
     1
102
RTVSPost2010Prop39
140
1.0
102
RTVSPost2010PropOp39
 70
     1
102
RTVSPost2010Prop40
 90
        0
102
RTVSPost2010PropOp40
 70
     1
102
RTVSPost2010Prop41ColorIndex
 90
       18
102
RTVSPost2010Prop41ColorRGB
 90
        0
102
RTVSPost2010PropOp41
 70
     1
102
RTVSPost2010Prop42
 90
       50
102
RTVSPost2010PropOp42
 70
     1
102
RTVSPost2010Prop43
 90
        3
102
RTVSPost2010PropOp43
 70
     1
102
RTVSPost2010Prop44ColorIndex
 90
        5
102
RTVSPost2010Prop44ColorRGB
 90
      255
102
RTVSPost2010PropOp44
 70
     1
102
RTVSPost2010Prop45
280
     0
102
RTVSPost2010PropOp45
 70
     1
102
RTVSPost2010Prop46
 90
       50
102
RTVSPost2010PropOp46
 70
     1
102
RTVSPost2010Prop47
 90
       50
102
RTVSPost2010PropOp47
 70
     1
102
RTVSPost2010Prop48
 90
       50
102
RTVSPost2010PropOp48
 70
     1
102
RTVSPost2010Prop49
280
     0
102
RTVSPost2010PropOp49
 70
     1
102
RTVSPost2010Prop50
 90
       50
102
RTVSPost2010PropOp50
 70
     1
102
RTVSPost2010Prop51ColorIndex
 90
      256
102
RTVSPost2010Prop51ColorRGB
 90
-16777216
102
RTVSPost2010PropOp51
 70
     0
102
RTVSPost2010Prop52
140
1.0
102
RTVSPost2010PropOp52
 70
     0
102
RTVSPost2010Prop53
 90
        2
102
RTVSPost2010PropOp53
 70
     1
102
RTVSPost2010Prop54
  1
strokes_ogs.tif
102
RTVSPost2010PropOp54
 70
     1
102
RTVSPost2010Prop55
280
     0
102
RTVSPost2010PropOp55
 70
     1
102
RTVSPost2010Prop56
140
1.0
102
RTVSPost2010PropOp56
 70
     1
102
RTVSPost2010Prop57
140
1.0
102
RTVSPost2010PropOp57
 70
     1
102
RTVSPropertyOp0
 70
     1
102
RTVSPropertyOp1
 70
     1
102
RTVSPropertyOp2
 70
     1
102
RTVSPropertyOp3
 70
     1
102
RTVSPropertyOp4
 70
     1
102
RTVSPropertyOp5
 70
     1
102
RTVSPropertyOp6
 70
     1
102
RTVSPropertyOp7
 70
     1
102
RTVSPropertyOp8
 70
     1
102
RTVSPropertyOp9
 70
     1
102
RTVSPropertyOp10
 70
     1
102
RTVSPropertyOp11
 70
     1
102
RTVSPropertyOp12
 70
     1
102
RTVSPropertyOp13
 70
     1
102
RTVSPropertyOp14
 70
     1
102
RTVSPropertyOp15
 70
     1
102
RTVSPropertyOp16
 70
     1
102
RTVSPropertyOp17
 70
     1
102
RTVSPropertyOp18
 70
     1
102
RTVSPropertyOp19
 70
     1
102
RTVSPropertyOp20
 70
     1
102
RTVSPropertyOp21
 70
     1
102
RTVSPropertyOp22
 70
     1
102
RTVSPropertyOp23
 70
     1
102
RTVSPropertyOp24
 70
     1
102
RTVSPropertyOp25
 70
     1
102
RTVSPropertyOp26
 70
     1
102
RTVSPropertyOp27
 70
     1
102
RTVSPropertyOp28
 70
     1
102
RTVSPropertyOp29
 70
     1
102
RTVSPropertyOp30
 70
     1
102
RTVSPropertyOp31
 70
     1
102
RTVSPropertyOp32
 70
     1
102
RTVSPropertyOp33
 70
     1
102
RTVSPropertyOp34
 70
     1
102
RTVSPropertyOp35
 70
     1
102
RTVSPropertyOp36
 70
     1
102
RTVSPropertyOp37
 70
     1
102
RTVSPropertyOp38
 70
     1
102
RTVSPropertyOp39
 70
     1
102
RTVSPropertyOp40
 70
     1
102
RTVSPropertyOp41
 70
     1
102
RTVSPropertyOp42
 70
     1
102
RTVSPropertyOp43
 70
     1
102
RTVSPropertyOp44
 70
     1
102
RTVSPropertyOp45
 70
     1
102
RTVSPropertyOp46
 70
     1
102
RTVSPropertyOp47
 70
     1
102
RTVSPropertyOp48
 70
     1
102
RTVSPropertyOp49
 70
     1
102
RTVSPropertyOp50
 70
     1
102
RTVSPropertyOp51
 70
     0
102
RTVSPropertyOp52
 70
     0
102
RTVSPropertyOp53
 70
     1
102
RTVSPropertyOp54
 70
     1
102
RTVSPropertyOp55
 70
     1
102
RTVSPropertyOp56
 70
     1
102
RTVSPropertyOp57
 70
     1
102
RTVSPropertyOp58
 70
     1
102
RTVSPropertyOp59
 70
     1
102
RTVSPropertyOp60
 70
     1
102
RTVSPropertyOp61
 70
     1
102
RTVSPropertyOp62
 70
     1
  0
XRECORD
  5
9719
102
{ACAD_REACTORS
330
9718
102
}
330
9718
100
AcDbXrecord
280
     1
102
RTVSPost2010Prop28
280
     0
102
RTVSPost2010PropOp28
 70
     1
102
RTVSPost2010Prop29
280
     1
102
RTVSPost2010PropOp29
 70
     1
102
RTVSPost2010Prop30
280
     1
102
RTVSPost2010PropOp30
 70
     1
102
RTVSPost2010Prop31
280
     0
102
RTVSPost2010PropOp31
 70
     1
102
RTVSPost2010Prop32
280
     0
102
RTVSPost2010PropOp32
 70
     1
102
RTVSPost2010Prop33
280
     0
102
RTVSPost2010PropOp33
 70
     1
102
RTVSPost2010Prop34
280
     0
102
RTVSPost2010PropOp34
 70
     1
102
RTVSPost2010Prop35
280
     0
102
RTVSPost2010PropOp35
 70
     1
102
RTVSPost2010Prop36
280
     0
102
RTVSPost2010PropOp36
 70
     1
102
RTVSPost2010Prop37
 90
       50
102
RTVSPost2010PropOp37
 70
     1
102
RTVSPost2010Prop38
140
0.0
102
RTVSPost2010PropOp38
 70
     1
102
RTVSPost2010Prop39
140
1.0
102
RTVSPost2010PropOp39
 70
     1
102
RTVSPost2010Prop40
 90
        0
102
RTVSPost2010PropOp40
 70
     1
102
RTVSPost2010Prop41ColorIndex
 90
       18
102
RTVSPost2010Prop41ColorRGB
 90
        0
102
RTVSPost2010PropOp41
 70
     1
102
RTVSPost2010Prop42
 90
       50
102
RTVSPost2010PropOp42
 70
     1
102
RTVSPost2010Prop43
 90
        3
102
RTVSPost2010PropOp43
 70
     1
102
RTVSPost2010Prop44ColorIndex
 90
        5
102
RTVSPost2010Prop44ColorRGB
 90
      255
102
RTVSPost2010PropOp44
 70
     1
102
RTVSPost2010Prop45
280
     0
102
RTVSPost2010PropOp45
 70
     1
102
RTVSPost2010Prop46
 90
       50
102
RTVSPost2010PropOp46
 70
     1
102
RTVSPost2010Prop47
 90
       50
102
RTVSPost2010PropOp47
 70
     1
102
RTVSPost2010Prop48
 90
       50
102
RTVSPost2010PropOp48
 70
     1
102
RTVSPost2010Prop49
280
     0
102
RTVSPost2010PropOp49
 70
     1
102
RTVSPost2010Prop50
 90
       50
102
RTVSPost2010PropOp50
 70
     1
102
RTVSPost2010Prop51ColorIndex
 90
      256
102
RTVSPost2010Prop51ColorRGB
 90
-16777216
102
RTVSPost2010PropOp51
 70
     0
102
RTVSPost2010Prop52
140
1.0
102
RTVSPost2010PropOp52
 70
     0
102
RTVSPost2010Prop53
 90
        2
102
RTVSPost2010PropOp53
 70
     1
102
RTVSPost2010Prop54
  1
strokes_ogs.tif
102
RTVSPost2010PropOp54
 70
     1
102
RTVSPost2010Prop55
280
     0
102
RTVSPost2010PropOp55
 70
     1
102
RTVSPost2010Prop56
140
1.0
102
RTVSPost2010PropOp56
 70
     1
102
RTVSPost2010Prop57
140
1.0
102
RTVSPost2010PropOp57
 70
     1
102
RTVSPropertyOp0
 70
     1
102
RTVSPropertyOp1
 70
     1
102
RTVSPropertyOp2
 70
     1
102
RTVSPropertyOp3
 70
     1
102
RTVSPropertyOp4
 70
     1
102
RTVSPropertyOp5
 70
     1
102
RTVSPropertyOp6
 70
     1
102
RTVSPropertyOp7
 70
     1
102
RTVSPropertyOp8
 70
     1
102
RTVSPropertyOp9
 70
     1
102
RTVSPropertyOp10
 70
     1
102
RTVSPropertyOp11
 70
     1
102
RTVSPropertyOp12
 70
     1
102
RTVSPropertyOp13
 70
     1
102
RTVSPropertyOp14
 70
     1
102
RTVSPropertyOp15
 70
     1
102
RTVSPropertyOp16
 70
     1
102
RTVSPropertyOp17
 70
     1
102
RTVSPropertyOp18
 70
     1
102
RTVSPropertyOp19
 70
     1
102
RTVSPropertyOp20
 70
     1
102
RTVSPropertyOp21
 70
     1
102
RTVSPropertyOp22
 70
     1
102
RTVSPropertyOp23
 70
     1
102
RTVSPropertyOp24
 70
     1
102
RTVSPropertyOp25
 70
     1
102
RTVSPropertyOp26
 70
     1
102
RTVSPropertyOp27
 70
     1
102
RTVSPropertyOp28
 70
     1
102
RTVSPropertyOp29
 70
     1
102
RTVSPropertyOp30
 70
     1
102
RTVSPropertyOp31
 70
     1
102
RTVSPropertyOp32
 70
     1
102
RTVSPropertyOp33
 70
     1
102
RTVSPropertyOp34
 70
     1
102
RTVSPropertyOp35
 70
     1
102
RTVSPropertyOp36
 70
     1
102
RTVSPropertyOp37
 70
     1
102
RTVSPropertyOp38
 70
     1
102
RTVSPropertyOp39
 70
     1
102
RTVSPropertyOp40
 70
     1
102
RTVSPropertyOp41
 70
     1
102
RTVSPropertyOp42
 70
     1
102
RTVSPropertyOp43
 70
     1
102
RTVSPropertyOp44
 70
     1
102
RTVSPropertyOp45
 70
     1
102
RTVSPropertyOp46
 70
     1
102
RTVSPropertyOp47
 70
     1
102
RTVSPropertyOp48
 70
     1
102
RTVSPropertyOp49
 70
     1
102
RTVSPropertyOp50
 70
     1
102
RTVSPropertyOp51
 70
     0
102
RTVSPropertyOp52
 70
     0
102
RTVSPropertyOp53
 70
     1
102
RTVSPropertyOp54
 70
     1
102
RTVSPropertyOp55
 70
     1
102
RTVSPropertyOp56
 70
     1
102
RTVSPropertyOp57
 70
     1
102
RTVSPropertyOp58
 70
     1
102
RTVSPropertyOp59
 70
     1
102
RTVSPropertyOp60
 70
     1
102
RTVSPropertyOp61
 70
     1
102
RTVSPropertyOp62
 70
     1
  0
XRECORD
  5
9721
102
{ACAD_REACTORS
330
9720
102
}
330
9720
100
AcDbXrecord
280
     1
102
RTVSPost2010Prop28
280
     0
102
RTVSPost2010PropOp28
 70
     1
102
RTVSPost2010Prop29
280
     1
102
RTVSPost2010PropOp29
 70
     1
102
RTVSPost2010Prop30
280
     1
102
RTVSPost2010PropOp30
 70
     1
102
RTVSPost2010Prop31
280
     0
102
RTVSPost2010PropOp31
 70
     1
102
RTVSPost2010Prop32
280
     0
102
RTVSPost2010PropOp32
 70
     1
102
RTVSPost2010Prop33
280
     0
102
RTVSPost2010PropOp33
 70
     1
102
RTVSPost2010Prop34
280
     0
102
RTVSPost2010PropOp34
 70
     1
102
RTVSPost2010Prop35
280
     0
102
RTVSPost2010PropOp35
 70
     1
102
RTVSPost2010Prop36
280
     0
102
RTVSPost2010PropOp36
 70
     1
102
RTVSPost2010Prop37
 90
       50
102
RTVSPost2010PropOp37
 70
     1
102
RTVSPost2010Prop38
140
0.0
102
RTVSPost2010PropOp38
 70
     1
102
RTVSPost2010Prop39
140
1.0
102
RTVSPost2010PropOp39
 70
     1
102
RTVSPost2010Prop40
 90
        0
102
RTVSPost2010PropOp40
 70
     1
102
RTVSPost2010Prop41ColorIndex
 90
       18
102
RTVSPost2010Prop41ColorRGB
 90
        0
102
RTVSPost2010PropOp41
 70
     1
102
RTVSPost2010Prop42
 90
       50
102
RTVSPost2010PropOp42
 70
     1
102
RTVSPost2010Prop43
 90
        3
102
RTVSPost2010PropOp43
 70
     1
102
RTVSPost2010Prop44ColorIndex
 90
        5
102
RTVSPost2010Prop44ColorRGB
 90
      255
102
RTVSPost2010PropOp44
 70
     1
102
RTVSPost2010Prop45
280
     0
102
RTVSPost2010PropOp45
 70
     1
102
RTVSPost2010Prop46
 90
       50
102
RTVSPost2010PropOp46
 70
     1
102
RTVSPost2010Prop47
 90
       50
102
RTVSPost2010PropOp47
 70
     1
102
RTVSPost2010Prop48
 90
       50
102
RTVSPost2010PropOp48
 70
     1
102
RTVSPost2010Prop49
280
     0
102
RTVSPost2010PropOp49
 70
     1
102
RTVSPost2010Prop50
 90
       50
102
RTVSPost2010PropOp50
 70
     1
102
RTVSPost2010Prop51ColorIndex
 90
      256
102
RTVSPost2010Prop51ColorRGB
 90
-16777216
102
RTVSPost2010PropOp51
 70
     0
102
RTVSPost2010Prop52
140
1.0
102
RTVSPost2010PropOp52
 70
     0
102
RTVSPost2010Prop53
 90
        2
102
RTVSPost2010PropOp53
 70
     1
102
RTVSPost2010Prop54
  1
strokes_ogs.tif
102
RTVSPost2010PropOp54
 70
     1
102
RTVSPost2010Prop55
280
     0
102
RTVSPost2010PropOp55
 70
     1
102
RTVSPost2010Prop56
140
1.0
102
RTVSPost2010PropOp56
 70
     1
102
RTVSPost2010Prop57
140
1.0
102
RTVSPost2010PropOp57
 70
     1
102
RTVSPropertyOp0
 70
     1
102
RTVSPropertyOp1
 70
     1
102
RTVSPropertyOp2
 70
     1
102
RTVSPropertyOp3
 70
     1
102
RTVSPropertyOp4
 70
     1
102
RTVSPropertyOp5
 70
     1
102
RTVSPropertyOp6
 70
     1
102
RTVSPropertyOp7
 70
     1
102
RTVSPropertyOp8
 70
     1
102
RTVSPropertyOp9
 70
     1
102
RTVSPropertyOp10
 70
     1
102
RTVSPropertyOp11
 70
     1
102
RTVSPropertyOp12
 70
     1
102
RTVSPropertyOp13
 70
     1
102
RTVSPropertyOp14
 70
     1
102
RTVSPropertyOp15
 70
     1
102
RTVSPropertyOp16
 70
     1
102
RTVSPropertyOp17
 70
     1
102
RTVSPropertyOp18
 70
     1
102
RTVSPropertyOp19
 70
     1
102
RTVSPropertyOp20
 70
     1
102
RTVSPropertyOp21
 70
     1
102
RTVSPropertyOp22
 70
     1
102
RTVSPropertyOp23
 70
     1
102
RTVSPropertyOp24
 70
     1
102
RTVSPropertyOp25
 70
     1
102
RTVSPropertyOp26
 70
     1
102
RTVSPropertyOp27
 70
     1
102
RTVSPropertyOp28
 70
     1
102
RTVSPropertyOp29
 70
     1
102
RTVSPropertyOp30
 70
     1
102
RTVSPropertyOp31
 70
     1
102
RTVSPropertyOp32
 70
     1
102
RTVSPropertyOp33
 70
     1
102
RTVSPropertyOp34
 70
     1
102
RTVSPropertyOp35
 70
     1
102
RTVSPropertyOp36
 70
     1
102
RTVSPropertyOp37
 70
     1
102
RTVSPropertyOp38
 70
     1
102
RTVSPropertyOp39
 70
     1
102
RTVSPropertyOp40
 70
     1
102
RTVSPropertyOp41
 70
     1
102
RTVSPropertyOp42
 70
     1
102
RTVSPropertyOp43
 70
     1
102
RTVSPropertyOp44
 70
     1
102
RTVSPropertyOp45
 70
     1
102
RTVSPropertyOp46
 70
     1
102
RTVSPropertyOp47
 70
     1
102
RTVSPropertyOp48
 70
     1
102
RTVSPropertyOp49
 70
     1
102
RTVSPropertyOp50
 70
     1
102
RTVSPropertyOp51
 70
     0
102
RTVSPropertyOp52
 70
     0
102
RTVSPropertyOp53
 70
     1
102
RTVSPropertyOp54
 70
     1
102
RTVSPropertyOp55
 70
     1
102
RTVSPropertyOp56
 70
     1
102
RTVSPropertyOp57
 70
     1
102
RTVSPropertyOp58
 70
     1
102
RTVSPropertyOp59
 70
     1
102
RTVSPropertyOp60
 70
     1
102
RTVSPropertyOp61
 70
     1
102
RTVSPropertyOp62
 70
     1
  0
XRECORD
  5
9713
102
{ACAD_REACTORS
330
9712
102
}
330
9712
100
AcDbXrecord
280
     1
102
RTVSPost2010Prop28
280
     0
102
RTVSPost2010PropOp28
 70
     1
102
RTVSPost2010Prop29
280
     1
102
RTVSPost2010PropOp29
 70
     1
102
RTVSPost2010Prop30
280
     1
102
RTVSPost2010PropOp30
 70
     1
102
RTVSPost2010Prop31
280
     0
102
RTVSPost2010PropOp31
 70
     1
102
RTVSPost2010Prop32
280
     0
102
RTVSPost2010PropOp32
 70
     1
102
RTVSPost2010Prop33
280
     0
102
RTVSPost2010PropOp33
 70
     1
102
RTVSPost2010Prop34
280
     0
102
RTVSPost2010PropOp34
 70
     1
102
RTVSPost2010Prop35
280
     0
102
RTVSPost2010PropOp35
 70
     1
102
RTVSPost2010Prop36
280
     0
102
RTVSPost2010PropOp36
 70
     1
102
RTVSPost2010Prop37
 90
       50
102
RTVSPost2010PropOp37
 70
     1
102
RTVSPost2010Prop38
140
0.0
102
RTVSPost2010PropOp38
 70
     1
102
RTVSPost2010Prop39
140
1.0
102
RTVSPost2010PropOp39
 70
     1
102
RTVSPost2010Prop40
 90
        0
102
RTVSPost2010PropOp40
 70
     1
102
RTVSPost2010Prop41ColorIndex
 90
       18
102
RTVSPost2010Prop41ColorRGB
 90
        0
102
RTVSPost2010PropOp41
 70
     1
102
RTVSPost2010Prop42
 90
       50
102
RTVSPost2010PropOp42
 70
     1
102
RTVSPost2010Prop43
 90
        3
102
RTVSPost2010PropOp43
 70
     1
102
RTVSPost2010Prop44ColorIndex
 90
        5
102
RTVSPost2010Prop44ColorRGB
 90
      255
102
RTVSPost2010PropOp44
 70
     1
102
RTVSPost2010Prop45
280
     0
102
RTVSPost2010PropOp45
 70
     1
102
RTVSPost2010Prop46
 90
       50
102
RTVSPost2010PropOp46
 70
     1
102
RTVSPost2010Prop47
 90
       50
102
RTVSPost2010PropOp47
 70
     1
102
RTVSPost2010Prop48
 90
       50
102
RTVSPost2010PropOp48
 70
     1
102
RTVSPost2010Prop49
280
     0
102
RTVSPost2010PropOp49
 70
     1
102
RTVSPost2010Prop50
 90
       50
102
RTVSPost2010PropOp50
 70
     1
102
RTVSPost2010Prop51ColorIndex
 90
      256
102
RTVSPost2010Prop51ColorRGB
 90
-16777216
102
RTVSPost2010PropOp51
 70
     0
102
RTVSPost2010Prop52
140
1.0
102
RTVSPost2010PropOp52
 70
     0
102
RTVSPost2010Prop53
 90
        2
102
RTVSPost2010PropOp53
 70
     1
102
RTVSPost2010Prop54
  1
strokes_ogs.tif
102
RTVSPost2010PropOp54
 70
     1
102
RTVSPost2010Prop55
280
     0
102
RTVSPost2010PropOp55
 70
     1
102
RTVSPost2010Prop56
140
1.0
102
RTVSPost2010PropOp56
 70
     1
102
RTVSPost2010Prop57
140
1.0
102
RTVSPost2010PropOp57
 70
     1
102
RTVSPropertyOp0
 70
     1
102
RTVSPropertyOp1
 70
     1
102
RTVSPropertyOp2
 70
     1
102
RTVSPropertyOp3
 70
     1
102
RTVSPropertyOp4
 70
     1
102
RTVSPropertyOp5
 70
     1
102
RTVSPropertyOp6
 70
     1
102
RTVSPropertyOp7
 70
     1
102
RTVSPropertyOp8
 70
     1
102
RTVSPropertyOp9
 70
     1
102
RTVSPropertyOp10
 70
     1
102
RTVSPropertyOp11
 70
     1
102
RTVSPropertyOp12
 70
     1
102
RTVSPropertyOp13
 70
     1
102
RTVSPropertyOp14
 70
     1
102
RTVSPropertyOp15
 70
     1
102
RTVSPropertyOp16
 70
     1
102
RTVSPropertyOp17
 70
     1
102
RTVSPropertyOp18
 70
     1
102
RTVSPropertyOp19
 70
     1
102
RTVSPropertyOp20
 70
     1
102
RTVSPropertyOp21
 70
     1
102
RTVSPropertyOp22
 70
     1
102
RTVSPropertyOp23
 70
     1
102
RTVSPropertyOp24
 70
     1
102
RTVSPropertyOp25
 70
     1
102
RTVSPropertyOp26
 70
     1
102
RTVSPropertyOp27
 70
     1
102
RTVSPropertyOp28
 70
     1
102
RTVSPropertyOp29
 70
     1
102
RTVSPropertyOp30
 70
     1
102
RTVSPropertyOp31
 70
     1
102
RTVSPropertyOp32
 70
     1
102
RTVSPropertyOp33
 70
     1
102
RTVSPropertyOp34
 70
     1
102
RTVSPropertyOp35
 70
     1
102
RTVSPropertyOp36
 70
     1
102
RTVSPropertyOp37
 70
     1
102
RTVSPropertyOp38
 70
     1
102
RTVSPropertyOp39
 70
     1
102
RTVSPropertyOp40
 70
     1
102
RTVSPropertyOp41
 70
     1
102
RTVSPropertyOp42
 70
     1
102
RTVSPropertyOp43
 70
     1
102
RTVSPropertyOp44
 70
     1
102
RTVSPropertyOp45
 70
     1
102
RTVSPropertyOp46
 70
     1
102
RTVSPropertyOp47
 70
     1
102
RTVSPropertyOp48
 70
     1
102
RTVSPropertyOp49
 70
     1
102
RTVSPropertyOp50
 70
     1
102
RTVSPropertyOp51
 70
     0
102
RTVSPropertyOp52
 70
     0
102
RTVSPropertyOp53
 70
     1
102
RTVSPropertyOp54
 70
     1
102
RTVSPropertyOp55
 70
     1
102
RTVSPropertyOp56
 70
     1
102
RTVSPropertyOp57
 70
     1
102
RTVSPropertyOp58
 70
     1
102
RTVSPropertyOp59
 70
     1
102
RTVSPropertyOp60
 70
     1
102
RTVSPropertyOp61
 70
     1
102
RTVSPropertyOp62
 70
     1
  0
XRECORD
  5
9717
102
{ACAD_REACTORS
330
9716
102
}
330
9716
100
AcDbXrecord
280
     1
102
RTVSPost2010Prop28
280
     0
102
RTVSPost2010PropOp28
 70
     1
102
RTVSPost2010Prop29
280
     1
102
RTVSPost2010PropOp29
 70
     1
102
RTVSPost2010Prop30
280
     1
102
RTVSPost2010PropOp30
 70
     1
102
RTVSPost2010Prop31
280
     0
102
RTVSPost2010PropOp31
 70
     1
102
RTVSPost2010Prop32
280
     0
102
RTVSPost2010PropOp32
 70
     1
102
RTVSPost2010Prop33
280
     0
102
RTVSPost2010PropOp33
 70
     1
102
RTVSPost2010Prop34
280
     0
102
RTVSPost2010PropOp34
 70
     1
102
RTVSPost2010Prop35
280
     0
102
RTVSPost2010PropOp35
 70
     1
102
RTVSPost2010Prop36
280
     0
102
RTVSPost2010PropOp36
 70
     1
102
RTVSPost2010Prop37
 90
       50
102
RTVSPost2010PropOp37
 70
     1
102
RTVSPost2010Prop38
140
0.0
102
RTVSPost2010PropOp38
 70
     1
102
RTVSPost2010Prop39
140
1.0
102
RTVSPost2010PropOp39
 70
     1
102
RTVSPost2010Prop40
 90
        0
102
RTVSPost2010PropOp40
 70
     1
102
RTVSPost2010Prop41ColorIndex
 90
       18
102
RTVSPost2010Prop41ColorRGB
 90
        0
102
RTVSPost2010PropOp41
 70
     1
102
RTVSPost2010Prop42
 90
       50
102
RTVSPost2010PropOp42
 70
     1
102
RTVSPost2010Prop43
 90
        3
102
RTVSPost2010PropOp43
 70
     1
102
RTVSPost2010Prop44ColorIndex
 90
        5
102
RTVSPost2010Prop44ColorRGB
 90
      255
102
RTVSPost2010PropOp44
 70
     1
102
RTVSPost2010Prop45
280
     0
102
RTVSPost2010PropOp45
 70
     1
102
RTVSPost2010Prop46
 90
       50
102
RTVSPost2010PropOp46
 70
     1
102
RTVSPost2010Prop47
 90
       50
102
RTVSPost2010PropOp47
 70
     1
102
RTVSPost2010Prop48
 90
       50
102
RTVSPost2010PropOp48
 70
     1
102
RTVSPost2010Prop49
280
     0
102
RTVSPost2010PropOp49
 70
     1
102
RTVSPost2010Prop50
 90
       50
102
RTVSPost2010PropOp50
 70
     1
102
RTVSPost2010Prop51ColorIndex
 90
      256
102
RTVSPost2010Prop51ColorRGB
 90
-16777216
102
RTVSPost2010PropOp51
 70
     0
102
RTVSPost2010Prop52
140
1.0
102
RTVSPost2010PropOp52
 70
     0
102
RTVSPost2010Prop53
 90
        2
102
RTVSPost2010PropOp53
 70
     1
102
RTVSPost2010Prop54
  1
strokes_ogs.tif
102
RTVSPost2010PropOp54
 70
     1
102
RTVSPost2010Prop55
280
     0
102
RTVSPost2010PropOp55
 70
     1
102
RTVSPost2010Prop56
140
1.0
102
RTVSPost2010PropOp56
 70
     1
102
RTVSPost2010Prop57
140
1.0
102
RTVSPost2010PropOp57
 70
     1
102
RTVSPropertyOp0
 70
     1
102
RTVSPropertyOp1
 70
     1
102
RTVSPropertyOp2
 70
     1
102
RTVSPropertyOp3
 70
     1
102
RTVSPropertyOp4
 70
     1
102
RTVSPropertyOp5
 70
     1
102
RTVSPropertyOp6
 70
     1
102
RTVSPropertyOp7
 70
     1
102
RTVSPropertyOp8
 70
     1
102
RTVSPropertyOp9
 70
     1
102
RTVSPropertyOp10
 70
     1
102
RTVSPropertyOp11
 70
     1
102
RTVSPropertyOp12
 70
     1
102
RTVSPropertyOp13
 70
     1
102
RTVSPropertyOp14
 70
     1
102
RTVSPropertyOp15
 70
     1
102
RTVSPropertyOp16
 70
     1
102
RTVSPropertyOp17
 70
     1
102
RTVSPropertyOp18
 70
     1
102
RTVSPropertyOp19
 70
     1
102
RTVSPropertyOp20
 70
     1
102
RTVSPropertyOp21
 70
     1
102
RTVSPropertyOp22
 70
     1
102
RTVSPropertyOp23
 70
     1
102
RTVSPropertyOp24
 70
     1
102
RTVSPropertyOp25
 70
     1
102
RTVSPropertyOp26
 70
     1
102
RTVSPropertyOp27
 70
     1
102
RTVSPropertyOp28
 70
     1
102
RTVSPropertyOp29
 70
     1
102
RTVSPropertyOp30
 70
     1
102
RTVSPropertyOp31
 70
     1
102
RTVSPropertyOp32
 70
     1
102
RTVSPropertyOp33
 70
     1
102
RTVSPropertyOp34
 70
     1
102
RTVSPropertyOp35
 70
     1
102
RTVSPropertyOp36
 70
     1
102
RTVSPropertyOp37
 70
     1
102
RTVSPropertyOp38
 70
     1
102
RTVSPropertyOp39
 70
     1
102
RTVSPropertyOp40
 70
     1
102
RTVSPropertyOp41
 70
     1
102
RTVSPropertyOp42
 70
     1
102
RTVSPropertyOp43
 70
     1
102
RTVSPropertyOp44
 70
     1
102
RTVSPropertyOp45
 70
     1
102
RTVSPropertyOp46
 70
     1
102
RTVSPropertyOp47
 70
     1
102
RTVSPropertyOp48
 70
     1
102
RTVSPropertyOp49
 70
     1
102
RTVSPropertyOp50
 70
     1
102
RTVSPropertyOp51
 70
     0
102
RTVSPropertyOp52
 70
     0
102
RTVSPropertyOp53
 70
     1
102
RTVSPropertyOp54
 70
     1
102
RTVSPropertyOp55
 70
     1
102
RTVSPropertyOp56
 70
     1
102
RTVSPropertyOp57
 70
     1
102
RTVSPropertyOp58
 70
     1
102
RTVSPropertyOp59
 70
     1
102
RTVSPropertyOp60
 70
     1
102
RTVSPropertyOp61
 70
     1
102
RTVSPropertyOp62
 70
     1
  0
XRECORD
  5
9731
102
{ACAD_REACTORS
330
9730
102
}
330
9730
100
AcDbXrecord
280
     1
102
RTVSPost2010Prop28
280
     0
102
RTVSPost2010PropOp28
 70
     1
102
RTVSPost2010Prop29
280
     1
102
RTVSPost2010PropOp29
 70
     1
102
RTVSPost2010Prop30
280
     1
102
RTVSPost2010PropOp30
 70
     1
102
RTVSPost2010Prop31
280
     0
102
RTVSPost2010PropOp31
 70
     1
102
RTVSPost2010Prop32
280
     0
102
RTVSPost2010PropOp32
 70
     1
102
RTVSPost2010Prop33
280
     0
102
RTVSPost2010PropOp33
 70
     1
102
RTVSPost2010Prop34
280
     0
102
RTVSPost2010PropOp34
 70
     1
102
RTVSPost2010Prop35
280
     0
102
RTVSPost2010PropOp35
 70
     1
102
RTVSPost2010Prop36
280
     0
102
RTVSPost2010PropOp36
 70
     1
102
RTVSPost2010Prop37
 90
       50
102
RTVSPost2010PropOp37
 70
     0
102
RTVSPost2010Prop38
140
0.0
102
RTVSPost2010PropOp38
 70
     0
102
RTVSPost2010Prop39
140
1.0
102
RTVSPost2010PropOp39
 70
     0
102
RTVSPost2010Prop40
 90
        0
102
RTVSPost2010PropOp40
 70
     0
102
RTVSPost2010Prop41ColorIndex
 90
       18
102
RTVSPost2010Prop41ColorRGB
 90
        0
102
RTVSPost2010PropOp41
 70
     0
102
RTVSPost2010Prop42
 90
       50
102
RTVSPost2010PropOp42
 70
     0
102
RTVSPost2010Prop43
 90
        3
102
RTVSPost2010PropOp43
 70
     0
102
RTVSPost2010Prop44ColorIndex
 90
        5
102
RTVSPost2010Prop44ColorRGB
 90
      255
102
RTVSPost2010PropOp44
 70
     0
102
RTVSPost2010Prop45
280
     0
102
RTVSPost2010PropOp45
 70
     1
102
RTVSPost2010Prop46
 90
       50
102
RTVSPost2010PropOp46
 70
     0
102
RTVSPost2010Prop47
 90
       50
102
RTVSPost2010PropOp47
 70
     0
102
RTVSPost2010Prop48
 90
       50
102
RTVSPost2010PropOp48
 70
     0
102
RTVSPost2010Prop49
280
     0
102
RTVSPost2010PropOp49
 70
     1
102
RTVSPost2010Prop50
 90
       50
102
RTVSPost2010PropOp50
 70
     0
102
RTVSPost2010Prop51ColorIndex
 90
      256
102
RTVSPost2010Prop51ColorRGB
 90
-16777216
102
RTVSPost2010PropOp51
 70
     0
102
RTVSPost2010Prop52
140
1.0
102
RTVSPost2010PropOp52
 70
     0
102
RTVSPost2010Prop53
 90
        2
102
RTVSPost2010PropOp53
 70
     0
102
RTVSPost2010Prop54
  1
strokes_ogs.tif
102
RTVSPost2010PropOp54
 70
     0
102
RTVSPost2010Prop55
280
     0
102
RTVSPost2010PropOp55
 70
     1
102
RTVSPost2010Prop56
140
1.0
102
RTVSPost2010PropOp56
 70
     0
102
RTVSPost2010Prop57
140
1.0
102
RTVSPost2010PropOp57
 70
     0
102
RTVSPropertyOp0
 70
     0
102
RTVSPropertyOp1
 70
     0
102
RTVSPropertyOp2
 70
     0
102
RTVSPropertyOp3
 70
     0
102
RTVSPropertyOp4
 70
     0
102
RTVSPropertyOp5
 70
     0
102
RTVSPropertyOp6
 70
     0
102
RTVSPropertyOp7
 70
     0
102
RTVSPropertyOp8
 70
     0
102
RTVSPropertyOp9
 70
     0
102
RTVSPropertyOp10
 70
     0
102
RTVSPropertyOp11
 70
     0
102
RTVSPropertyOp12
 70
     0
102
RTVSPropertyOp13
 70
     0
102
RTVSPropertyOp14
 70
     2
102
RTVSPropertyOp15
 70
     0
102
RTVSPropertyOp16
 70
     0
102
RTVSPropertyOp17
 70
     0
102
RTVSPropertyOp18
 70
     0
102
RTVSPropertyOp19
 70
     0
102
RTVSPropertyOp20
 70
     0
102
RTVSPropertyOp21
 70
     0
102
RTVSPropertyOp22
 70
     0
102
RTVSPropertyOp23
 70
     0
102
RTVSPropertyOp24
 70
     0
102
RTVSPropertyOp25
 70
     0
102
RTVSPropertyOp26
 70
     0
102
RTVSPropertyOp27
 70
     0
102
RTVSPropertyOp28
 70
     1
102
RTVSPropertyOp29
 70
     1
102
RTVSPropertyOp30
 70
     1
102
RTVSPropertyOp31
 70
     1
102
RTVSPropertyOp32
 70
     1
102
RTVSPropertyOp33
 70
     1
102
RTVSPropertyOp34
 70
     1
102
RTVSPropertyOp35
 70
     1
102
RTVSPropertyOp36
 70
     1
102
RTVSPropertyOp37
 70
     0
102
RTVSPropertyOp38
 70
     0
102
RTVSPropertyOp39
 70
     0
102
RTVSPropertyOp40
 70
     0
102
RTVSPropertyOp41
 70
     0
102
RTVSPropertyOp42
 70
     0
102
RTVSPropertyOp43
 70
     0
102
RTVSPropertyOp44
 70
     0
102
RTVSPropertyOp45
 70
     1
102
RTVSPropertyOp46
 70
     0
102
RTVSPropertyOp47
 70
     0
102
RTVSPropertyOp48
 70
     0
102
RTVSPropertyOp49
 70
     1
102
RTVSPropertyOp50
 70
     0
102
RTVSPropertyOp51
 70
     0
102
RTVSPropertyOp52
 70
     0
102
RTVSPropertyOp53
 70
     0
102
RTVSPropertyOp54
 70
     0
102
RTVSPropertyOp55
 70
     1
102
RTVSPropertyOp56
 70
     0
102
RTVSPropertyOp57
 70
     0
102
RTVSPropertyOp58
 70
     0
102
RTVSPropertyOp59
 70
     0
102
RTVSPropertyOp60
 70
     0
102
RTVSPropertyOp61
 70
     0
102
RTVSPropertyOp62
 70
     0
  0
XRECORD
  5
971F
102
{ACAD_REACTORS
330
971E
102
}
330
971E
100
AcDbXrecord
280
     1
102
RTVSPost2010Prop28
280
     0
102
RTVSPost2010PropOp28
 70
     1
102
RTVSPost2010Prop29
280
     1
102
RTVSPost2010PropOp29
 70
     1
102
RTVSPost2010Prop30
280
     1
102
RTVSPost2010PropOp30
 70
     1
102
RTVSPost2010Prop31
280
     0
102
RTVSPost2010PropOp31
 70
     1
102
RTVSPost2010Prop32
280
     0
102
RTVSPost2010PropOp32
 70
     1
102
RTVSPost2010Prop33
280
     0
102
RTVSPost2010PropOp33
 70
     1
102
RTVSPost2010Prop34
280
     0
102
RTVSPost2010PropOp34
 70
     1
102
RTVSPost2010Prop35
280
     0
102
RTVSPost2010PropOp35
 70
     1
102
RTVSPost2010Prop36
280
     0
102
RTVSPost2010PropOp36
 70
     1
102
RTVSPost2010Prop37
 90
       50
102
RTVSPost2010PropOp37
 70
     1
102
RTVSPost2010Prop38
140
0.0
102
RTVSPost2010PropOp38
 70
     1
102
RTVSPost2010Prop39
140
1.0
102
RTVSPost2010PropOp39
 70
     1
102
RTVSPost2010Prop40
 90
        0
102
RTVSPost2010PropOp40
 70
     1
102
RTVSPost2010Prop41ColorIndex
 90
       18
102
RTVSPost2010Prop41ColorRGB
 90
        0
102
RTVSPost2010PropOp41
 70
     1
102
RTVSPost2010Prop42
 90
       50
102
RTVSPost2010PropOp42
 70
     1
102
RTVSPost2010Prop43
 90
        3
102
RTVSPost2010PropOp43
 70
     1
102
RTVSPost2010Prop44ColorIndex
 90
        5
102
RTVSPost2010Prop44ColorRGB
 90
      255
102
RTVSPost2010PropOp44
 70
     1
102
RTVSPost2010Prop45
280
     0
102
RTVSPost2010PropOp45
 70
     1
102
RTVSPost2010Prop46
 90
       50
102
RTVSPost2010PropOp46
 70
     1
102
RTVSPost2010Prop47
 90
       50
102
RTVSPost2010PropOp47
 70
     1
102
RTVSPost2010Prop48
 90
       50
102
RTVSPost2010PropOp48
 70
     1
102
RTVSPost2010Prop49
280
     0
102
RTVSPost2010PropOp49
 70
     1
102
RTVSPost2010Prop50
 90
       50
102
RTVSPost2010PropOp50
 70
     1
102
RTVSPost2010Prop51ColorIndex
 90
      256
102
RTVSPost2010Prop51ColorRGB
 90
-16777216
102
RTVSPost2010PropOp51
 70
     0
102
RTVSPost2010Prop52
140
1.0
102
RTVSPost2010PropOp52
 70
     0
102
RTVSPost2010Prop53
 90
        2
102
RTVSPost2010PropOp53
 70
     1
102
RTVSPost2010Prop54
  1
strokes_ogs.tif
102
RTVSPost2010PropOp54
 70
     1
102
RTVSPost2010Prop55
280
     0
102
RTVSPost2010PropOp55
 70
     1
102
RTVSPost2010Prop56
140
1.0
102
RTVSPost2010PropOp56
 70
     1
102
RTVSPost2010Prop57
140
1.0
102
RTVSPost2010PropOp57
 70
     1
102
RTVSPropertyOp0
 70
     1
102
RTVSPropertyOp1
 70
     1
102
RTVSPropertyOp2
 70
     1
102
RTVSPropertyOp3
 70
     1
102
RTVSPropertyOp4
 70
     1
102
RTVSPropertyOp5
 70
     1
102
RTVSPropertyOp6
 70
     1
102
RTVSPropertyOp7
 70
     1
102
RTVSPropertyOp8
 70
     1
102
RTVSPropertyOp9
 70
     1
102
RTVSPropertyOp10
 70
     1
102
RTVSPropertyOp11
 70
     1
102
RTVSPropertyOp12
 70
     1
102
RTVSPropertyOp13
 70
     1
102
RTVSPropertyOp14
 70
     1
102
RTVSPropertyOp15
 70
     1
102
RTVSPropertyOp16
 70
     1
102
RTVSPropertyOp17
 70
     1
102
RTVSPropertyOp18
 70
     1
102
RTVSPropertyOp19
 70
     1
102
RTVSPropertyOp20
 70
     1
102
RTVSPropertyOp21
 70
     1
102
RTVSPropertyOp22
 70
     1
102
RTVSPropertyOp23
 70
     1
102
RTVSPropertyOp24
 70
     1
102
RTVSPropertyOp25
 70
     1
102
RTVSPropertyOp26
 70
     1
102
RTVSPropertyOp27
 70
     1
102
RTVSPropertyOp28
 70
     1
102
RTVSPropertyOp29
 70
     1
102
RTVSPropertyOp30
 70
     1
102
RTVSPropertyOp31
 70
     1
102
RTVSPropertyOp32
 70
     1
102
RTVSPropertyOp33
 70
     1
102
RTVSPropertyOp34
 70
     1
102
RTVSPropertyOp35
 70
     1
102
RTVSPropertyOp36
 70
     1
102
RTVSPropertyOp37
 70
     1
102
RTVSPropertyOp38
 70
     1
102
RTVSPropertyOp39
 70
     1
102
RTVSPropertyOp40
 70
     1
102
RTVSPropertyOp41
 70
     1
102
RTVSPropertyOp42
 70
     1
102
RTVSPropertyOp43
 70
     1
102
RTVSPropertyOp44
 70
     1
102
RTVSPropertyOp45
 70
     1
102
RTVSPropertyOp46
 70
     1
102
RTVSPropertyOp47
 70
     1
102
RTVSPropertyOp48
 70
     1
102
RTVSPropertyOp49
 70
     1
102
RTVSPropertyOp50
 70
     1
102
RTVSPropertyOp51
 70
     0
102
RTVSPropertyOp52
 70
     0
102
RTVSPropertyOp53
 70
     1
102
RTVSPropertyOp54
 70
     1
102
RTVSPropertyOp55
 70
     1
102
RTVSPropertyOp56
 70
     1
102
RTVSPropertyOp57
 70
     1
102
RTVSPropertyOp58
 70
     1
102
RTVSPropertyOp59
 70
     1
102
RTVSPropertyOp60
 70
     1
102
RTVSPropertyOp61
 70
     1
102
RTVSPropertyOp62
 70
     1
  0
XRECORD
  5
9703
102
{ACAD_REACTORS
330
9702
102
}
330
9702
100
AcDbXrecord
280
     1
102
RTVSPost2010Prop28
280
     0
102
RTVSPost2010PropOp28
 70
     1
102
RTVSPost2010Prop29
280
     1
102
RTVSPost2010PropOp29
 70
     1
102
RTVSPost2010Prop30
280
     1
102
RTVSPost2010PropOp30
 70
     1
102
RTVSPost2010Prop31
280
     0
102
RTVSPost2010PropOp31
 70
     1
102
RTVSPost2010Prop32
280
     0
102
RTVSPost2010PropOp32
 70
     1
102
RTVSPost2010Prop33
280
     0
102
RTVSPost2010PropOp33
 70
     1
102
RTVSPost2010Prop34
280
     0
102
RTVSPost2010PropOp34
 70
     1
102
RTVSPost2010Prop35
280
     0
102
RTVSPost2010PropOp35
 70
     1
102
RTVSPost2010Prop36
280
     0
102
RTVSPost2010PropOp36
 70
     1
102
RTVSPost2010Prop37
 90
       50
102
RTVSPost2010PropOp37
 70
     1
102
RTVSPost2010Prop38
140
0.0
102
RTVSPost2010PropOp38
 70
     1
102
RTVSPost2010Prop39
140
1.0
102
RTVSPost2010PropOp39
 70
     1
102
RTVSPost2010Prop40
 90
        0
102
RTVSPost2010PropOp40
 70
     1
102
RTVSPost2010Prop41ColorIndex
 90
       18
102
RTVSPost2010Prop41ColorRGB
 90
        0
102
RTVSPost2010PropOp41
 70
     1
102
RTVSPost2010Prop42
 90
       50
102
RTVSPost2010PropOp42
 70
     1
102
RTVSPost2010Prop43
 90
        3
102
RTVSPost2010PropOp43
 70
     1
102
RTVSPost2010Prop44ColorIndex
 90
        5
102
RTVSPost2010Prop44ColorRGB
 90
      255
102
RTVSPost2010PropOp44
 70
     1
102
RTVSPost2010Prop45
280
     0
102
RTVSPost2010PropOp45
 70
     1
102
RTVSPost2010Prop46
 90
       50
102
RTVSPost2010PropOp46
 70
     1
102
RTVSPost2010Prop47
 90
       50
102
RTVSPost2010PropOp47
 70
     1
102
RTVSPost2010Prop48
 90
       50
102
RTVSPost2010PropOp48
 70
     1
102
RTVSPost2010Prop49
280
     0
102
RTVSPost2010PropOp49
 70
     1
102
RTVSPost2010Prop50
 90
       50
102
RTVSPost2010PropOp50
 70
     1
102
RTVSPost2010Prop51ColorIndex
 90
      256
102
RTVSPost2010Prop51ColorRGB
 90
-16777216
102
RTVSPost2010PropOp51
 70
     0
102
RTVSPost2010Prop52
140
1.0
102
RTVSPost2010PropOp52
 70
     0
102
RTVSPost2010Prop53
 90
        2
102
RTVSPost2010PropOp53
 70
     1
102
RTVSPost2010Prop54
  1
strokes_ogs.tif
102
RTVSPost2010PropOp54
 70
     1
102
RTVSPost2010Prop55
280
     0
102
RTVSPost2010PropOp55
 70
     1
102
RTVSPost2010Prop56
140
1.0
102
RTVSPost2010PropOp56
 70
     1
102
RTVSPost2010Prop57
140
1.0
102
RTVSPost2010PropOp57
 70
     1
102
RTVSPropertyOp0
 70
     1
102
RTVSPropertyOp1
 70
     1
102
RTVSPropertyOp2
 70
     1
102
RTVSPropertyOp3
 70
     1
102
RTVSPropertyOp4
 70
     1
102
RTVSPropertyOp5
 70
     1
102
RTVSPropertyOp6
 70
     1
102
RTVSPropertyOp7
 70
     1
102
RTVSPropertyOp8
 70
     1
102
RTVSPropertyOp9
 70
     1
102
RTVSPropertyOp10
 70
     1
102
RTVSPropertyOp11
 70
     1
102
RTVSPropertyOp12
 70
     1
102
RTVSPropertyOp13
 70
     1
102
RTVSPropertyOp14
 70
     1
102
RTVSPropertyOp15
 70
     1
102
RTVSPropertyOp16
 70
     1
102
RTVSPropertyOp17
 70
     1
102
RTVSPropertyOp18
 70
     1
102
RTVSPropertyOp19
 70
     1
102
RTVSPropertyOp20
 70
     1
102
RTVSPropertyOp21
 70
     1
102
RTVSPropertyOp22
 70
     1
102
RTVSPropertyOp23
 70
     1
102
RTVSPropertyOp24
 70
     1
102
RTVSPropertyOp25
 70
     1
102
RTVSPropertyOp26
 70
     1
102
RTVSPropertyOp27
 70
     1
102
RTVSPropertyOp28
 70
     1
102
RTVSPropertyOp29
 70
     1
102
RTVSPropertyOp30
 70
     1
102
RTVSPropertyOp31
 70
     1
102
RTVSPropertyOp32
 70
     1
102
RTVSPropertyOp33
 70
     1
102
RTVSPropertyOp34
 70
     1
102
RTVSPropertyOp35
 70
     1
102
RTVSPropertyOp36
 70
     1
102
RTVSPropertyOp37
 70
     1
102
RTVSPropertyOp38
 70
     1
102
RTVSPropertyOp39
 70
     1
102
RTVSPropertyOp40
 70
     1
102
RTVSPropertyOp41
 70
     1
102
RTVSPropertyOp42
 70
     1
102
RTVSPropertyOp43
 70
     1
102
RTVSPropertyOp44
 70
     1
102
RTVSPropertyOp45
 70
     1
102
RTVSPropertyOp46
 70
     1
102
RTVSPropertyOp47
 70
     1
102
RTVSPropertyOp48
 70
     1
102
RTVSPropertyOp49
 70
     1
102
RTVSPropertyOp50
 70
     1
102
RTVSPropertyOp51
 70
     0
102
RTVSPropertyOp52
 70
     0
102
RTVSPropertyOp53
 70
     1
102
RTVSPropertyOp54
 70
     1
102
RTVSPropertyOp55
 70
     1
102
RTVSPropertyOp56
 70
     1
102
RTVSPropertyOp57
 70
     1
102
RTVSPropertyOp58
 70
     1
102
RTVSPropertyOp59
 70
     1
102
RTVSPropertyOp60
 70
     1
102
RTVSPropertyOp61
 70
     1
102
RTVSPropertyOp62
 70
     1
  0
XRECORD
  5
9705
102
{ACAD_REACTORS
330
9704
102
}
330
9704
100
AcDbXrecord
280
     1
102
RTVSPost2010Prop28
280
     0
102
RTVSPost2010PropOp28
 70
     1
102
RTVSPost2010Prop29
280
     1
102
RTVSPost2010PropOp29
 70
     1
102
RTVSPost2010Prop30
280
     1
102
RTVSPost2010PropOp30
 70
     1
102
RTVSPost2010Prop31
280
     0
102
RTVSPost2010PropOp31
 70
     1
102
RTVSPost2010Prop32
280
     0
102
RTVSPost2010PropOp32
 70
     1
102
RTVSPost2010Prop33
280
     0
102
RTVSPost2010PropOp33
 70
     1
102
RTVSPost2010Prop34
280
     0
102
RTVSPost2010PropOp34
 70
     1
102
RTVSPost2010Prop35
280
     0
102
RTVSPost2010PropOp35
 70
     1
102
RTVSPost2010Prop36
280
     0
102
RTVSPost2010PropOp36
 70
     1
102
RTVSPost2010Prop37
 90
       50
102
RTVSPost2010PropOp37
 70
     1
102
RTVSPost2010Prop38
140
0.0
102
RTVSPost2010PropOp38
 70
     1
102
RTVSPost2010Prop39
140
1.0
102
RTVSPost2010PropOp39
 70
     1
102
RTVSPost2010Prop40
 90
        0
102
RTVSPost2010PropOp40
 70
     1
102
RTVSPost2010Prop41ColorIndex
 90
       18
102
RTVSPost2010Prop41ColorRGB
 90
        0
102
RTVSPost2010PropOp41
 70
     1
102
RTVSPost2010Prop42
 90
       50
102
RTVSPost2010PropOp42
 70
     1
102
RTVSPost2010Prop43
 90
        3
102
RTVSPost2010PropOp43
 70
     1
102
RTVSPost2010Prop44ColorIndex
 90
        5
102
RTVSPost2010Prop44ColorRGB
 90
      255
102
RTVSPost2010PropOp44
 70
     1
102
RTVSPost2010Prop45
280
     0
102
RTVSPost2010PropOp45
 70
     1
102
RTVSPost2010Prop46
 90
       50
102
RTVSPost2010PropOp46
 70
     1
102
RTVSPost2010Prop47
 90
       50
102
RTVSPost2010PropOp47
 70
     1
102
RTVSPost2010Prop48
 90
       50
102
RTVSPost2010PropOp48
 70
     1
102
RTVSPost2010Prop49
280
     0
102
RTVSPost2010PropOp49
 70
     1
102
RTVSPost2010Prop50
 90
       50
102
RTVSPost2010PropOp50
 70
     1
102
RTVSPost2010Prop51ColorIndex
 90
      256
102
RTVSPost2010Prop51ColorRGB
 90
-16777216
102
RTVSPost2010PropOp51
 70
     0
102
RTVSPost2010Prop52
140
1.0
102
RTVSPost2010PropOp52
 70
     0
102
RTVSPost2010Prop53
 90
        2
102
RTVSPost2010PropOp53
 70
     1
102
RTVSPost2010Prop54
  1
strokes_ogs.tif
102
RTVSPost2010PropOp54
 70
     1
102
RTVSPost2010Prop55
280
     0
102
RTVSPost2010PropOp55
 70
     1
102
RTVSPost2010Prop56
140
1.0
102
RTVSPost2010PropOp56
 70
     1
102
RTVSPost2010Prop57
140
1.0
102
RTVSPost2010PropOp57
 70
     1
102
RTVSPropertyOp0
 70
     1
102
RTVSPropertyOp1
 70
     1
102
RTVSPropertyOp2
 70
     1
102
RTVSPropertyOp3
 70
     1
102
RTVSPropertyOp4
 70
     1
102
RTVSPropertyOp5
 70
     1
102
RTVSPropertyOp6
 70
     1
102
RTVSPropertyOp7
 70
     1
102
RTVSPropertyOp8
 70
     1
102
RTVSPropertyOp9
 70
     1
102
RTVSPropertyOp10
 70
     1
102
RTVSPropertyOp11
 70
     1
102
RTVSPropertyOp12
 70
     1
102
RTVSPropertyOp13
 70
     1
102
RTVSPropertyOp14
 70
     1
102
RTVSPropertyOp15
 70
     1
102
RTVSPropertyOp16
 70
     1
102
RTVSPropertyOp17
 70
     1
102
RTVSPropertyOp18
 70
     1
102
RTVSPropertyOp19
 70
     1
102
RTVSPropertyOp20
 70
     1
102
RTVSPropertyOp21
 70
     1
102
RTVSPropertyOp22
 70
     1
102
RTVSPropertyOp23
 70
     1
102
RTVSPropertyOp24
 70
     1
102
RTVSPropertyOp25
 70
     1
102
RTVSPropertyOp26
 70
     1
102
RTVSPropertyOp27
 70
     1
102
RTVSPropertyOp28
 70
     1
102
RTVSPropertyOp29
 70
     1
102
RTVSPropertyOp30
 70
     1
102
RTVSPropertyOp31
 70
     1
102
RTVSPropertyOp32
 70
     1
102
RTVSPropertyOp33
 70
     1
102
RTVSPropertyOp34
 70
     1
102
RTVSPropertyOp35
 70
     1
102
RTVSPropertyOp36
 70
     1
102
RTVSPropertyOp37
 70
     1
102
RTVSPropertyOp38
 70
     1
102
RTVSPropertyOp39
 70
     1
102
RTVSPropertyOp40
 70
     1
102
RTVSPropertyOp41
 70
     1
102
RTVSPropertyOp42
 70
     1
102
RTVSPropertyOp43
 70
     1
102
RTVSPropertyOp44
 70
     1
102
RTVSPropertyOp45
 70
     1
102
RTVSPropertyOp46
 70
     1
102
RTVSPropertyOp47
 70
     1
102
RTVSPropertyOp48
 70
     1
102
RTVSPropertyOp49
 70
     1
102
RTVSPropertyOp50
 70
     1
102
RTVSPropertyOp51
 70
     0
102
RTVSPropertyOp52
 70
     0
102
RTVSPropertyOp53
 70
     1
102
RTVSPropertyOp54
 70
     1
102
RTVSPropertyOp55
 70
     1
102
RTVSPropertyOp56
 70
     1
102
RTVSPropertyOp57
 70
     1
102
RTVSPropertyOp58
 70
     1
102
RTVSPropertyOp59
 70
     1
102
RTVSPropertyOp60
 70
     1
102
RTVSPropertyOp61
 70
     1
102
RTVSPropertyOp62
 70
     1
  0
XRECORD
  5
9707
102
{ACAD_REACTORS
330
9706
102
}
330
9706
100
AcDbXrecord
280
     1
102
RTVSPost2010Prop28
280
     0
102
RTVSPost2010PropOp28
 70
     1
102
RTVSPost2010Prop29
280
     1
102
RTVSPost2010PropOp29
 70
     1
102
RTVSPost2010Prop30
280
     1
102
RTVSPost2010PropOp30
 70
     1
102
RTVSPost2010Prop31
280
     0
102
RTVSPost2010PropOp31
 70
     1
102
RTVSPost2010Prop32
280
     0
102
RTVSPost2010PropOp32
 70
     1
102
RTVSPost2010Prop33
280
     0
102
RTVSPost2010PropOp33
 70
     1
102
RTVSPost2010Prop34
280
     0
102
RTVSPost2010PropOp34
 70
     1
102
RTVSPost2010Prop35
280
     0
102
RTVSPost2010PropOp35
 70
     1
102
RTVSPost2010Prop36
280
     0
102
RTVSPost2010PropOp36
 70
     1
102
RTVSPost2010Prop37
 90
       50
102
RTVSPost2010PropOp37
 70
     1
102
RTVSPost2010Prop38
140
0.0
102
RTVSPost2010PropOp38
 70
     1
102
RTVSPost2010Prop39
140
1.0
102
RTVSPost2010PropOp39
 70
     1
102
RTVSPost2010Prop40
 90
        0
102
RTVSPost2010PropOp40
 70
     1
102
RTVSPost2010Prop41ColorIndex
 90
       18
102
RTVSPost2010Prop41ColorRGB
 90
        0
102
RTVSPost2010PropOp41
 70
     1
102
RTVSPost2010Prop42
 90
       50
102
RTVSPost2010PropOp42
 70
     1
102
RTVSPost2010Prop43
 90
        3
102
RTVSPost2010PropOp43
 70
     1
102
RTVSPost2010Prop44ColorIndex
 90
        5
102
RTVSPost2010Prop44ColorRGB
 90
      255
102
RTVSPost2010PropOp44
 70
     1
102
RTVSPost2010Prop45
280
     0
102
RTVSPost2010PropOp45
 70
     1
102
RTVSPost2010Prop46
 90
       50
102
RTVSPost2010PropOp46
 70
     1
102
RTVSPost2010Prop47
 90
       50
102
RTVSPost2010PropOp47
 70
     1
102
RTVSPost2010Prop48
 90
       50
102
RTVSPost2010PropOp48
 70
     1
102
RTVSPost2010Prop49
280
     0
102
RTVSPost2010PropOp49
 70
     1
102
RTVSPost2010Prop50
 90
       50
102
RTVSPost2010PropOp50
 70
     1
102
RTVSPost2010Prop51ColorIndex
 90
      256
102
RTVSPost2010Prop51ColorRGB
 90
-16777216
102
RTVSPost2010PropOp51
 70
     0
102
RTVSPost2010Prop52
140
1.0
102
RTVSPost2010PropOp52
 70
     0
102
RTVSPost2010Prop53
 90
        2
102
RTVSPost2010PropOp53
 70
     1
102
RTVSPost2010Prop54
  1
strokes_ogs.tif
102
RTVSPost2010PropOp54
 70
     1
102
RTVSPost2010Prop55
280
     0
102
RTVSPost2010PropOp55
 70
     1
102
RTVSPost2010Prop56
140
1.0
102
RTVSPost2010PropOp56
 70
     1
102
RTVSPost2010Prop57
140
1.0
102
RTVSPost2010PropOp57
 70
     1
102
RTVSPropertyOp0
 70
     1
102
RTVSPropertyOp1
 70
     1
102
RTVSPropertyOp2
 70
     1
102
RTVSPropertyOp3
 70
     1
102
RTVSPropertyOp4
 70
     1
102
RTVSPropertyOp5
 70
     1
102
RTVSPropertyOp6
 70
     1
102
RTVSPropertyOp7
 70
     1
102
RTVSPropertyOp8
 70
     1
102
RTVSPropertyOp9
 70
     1
102
RTVSPropertyOp10
 70
     1
102
RTVSPropertyOp11
 70
     1
102
RTVSPropertyOp12
 70
     1
102
RTVSPropertyOp13
 70
     1
102
RTVSPropertyOp14
 70
     1
102
RTVSPropertyOp15
 70
     1
102
RTVSPropertyOp16
 70
     1
102
RTVSPropertyOp17
 70
     1
102
RTVSPropertyOp18
 70
     1
102
RTVSPropertyOp19
 70
     1
102
RTVSPropertyOp20
 70
     1
102
RTVSPropertyOp21
 70
     1
102
RTVSPropertyOp22
 70
     1
102
RTVSPropertyOp23
 70
     1
102
RTVSPropertyOp24
 70
     1
102
RTVSPropertyOp25
 70
     1
102
RTVSPropertyOp26
 70
     1
102
RTVSPropertyOp27
 70
     1
102
RTVSPropertyOp28
 70
     1
102
RTVSPropertyOp29
 70
     1
102
RTVSPropertyOp30
 70
     1
102
RTVSPropertyOp31
 70
     1
102
RTVSPropertyOp32
 70
     1
102
RTVSPropertyOp33
 70
     1
102
RTVSPropertyOp34
 70
     1
102
RTVSPropertyOp35
 70
     1
102
RTVSPropertyOp36
 70
     1
102
RTVSPropertyOp37
 70
     1
102
RTVSPropertyOp38
 70
     1
102
RTVSPropertyOp39
 70
     1
102
RTVSPropertyOp40
 70
     1
102
RTVSPropertyOp41
 70
     1
102
RTVSPropertyOp42
 70
     1
102
RTVSPropertyOp43
 70
     1
102
RTVSPropertyOp44
 70
     1
102
RTVSPropertyOp45
 70
     1
102
RTVSPropertyOp46
 70
     1
102
RTVSPropertyOp47
 70
     1
102
RTVSPropertyOp48
 70
     1
102
RTVSPropertyOp49
 70
     1
102
RTVSPropertyOp50
 70
     1
102
RTVSPropertyOp51
 70
     0
102
RTVSPropertyOp52
 70
     0
102
RTVSPropertyOp53
 70
     1
102
RTVSPropertyOp54
 70
     1
102
RTVSPropertyOp55
 70
     1
102
RTVSPropertyOp56
 70
     1
102
RTVSPropertyOp57
 70
     1
102
RTVSPropertyOp58
 70
     1
102
RTVSPropertyOp59
 70
     1
102
RTVSPropertyOp60
 70
     1
102
RTVSPropertyOp61
 70
     1
102
RTVSPropertyOp62
 70
     1
  0
XRECORD
  5
9709
102
{ACAD_REACTORS
330
9708
102
}
330
9708
100
AcDbXrecord
280
     1
102
RTVSPost2010Prop28
280
     0
102
RTVSPost2010PropOp28
 70
     1
102
RTVSPost2010Prop29
280
     1
102
RTVSPost2010PropOp29
 70
     1
102
RTVSPost2010Prop30
280
     1
102
RTVSPost2010PropOp30
 70
     1
102
RTVSPost2010Prop31
280
     0
102
RTVSPost2010PropOp31
 70
     1
102
RTVSPost2010Prop32
280
     0
102
RTVSPost2010PropOp32
 70
     1
102
RTVSPost2010Prop33
280
     0
102
RTVSPost2010PropOp33
 70
     1
102
RTVSPost2010Prop34
280
     0
102
RTVSPost2010PropOp34
 70
     1
102
RTVSPost2010Prop35
280
     0
102
RTVSPost2010PropOp35
 70
     1
102
RTVSPost2010Prop36
280
     0
102
RTVSPost2010PropOp36
 70
     1
102
RTVSPost2010Prop37
 90
       50
102
RTVSPost2010PropOp37
 70
     1
102
RTVSPost2010Prop38
140
0.0
102
RTVSPost2010PropOp38
 70
     1
102
RTVSPost2010Prop39
140
1.0
102
RTVSPost2010PropOp39
 70
     1
102
RTVSPost2010Prop40
 90
        0
102
RTVSPost2010PropOp40
 70
     1
102
RTVSPost2010Prop41ColorIndex
 90
       18
102
RTVSPost2010Prop41ColorRGB
 90
        0
102
RTVSPost2010PropOp41
 70
     1
102
RTVSPost2010Prop42
 90
       50
102
RTVSPost2010PropOp42
 70
     1
102
RTVSPost2010Prop43
 90
        3
102
RTVSPost2010PropOp43
 70
     1
102
RTVSPost2010Prop44ColorIndex
 90
        5
102
RTVSPost2010Prop44ColorRGB
 90
      255
102
RTVSPost2010PropOp44
 70
     1
102
RTVSPost2010Prop45
280
     0
102
RTVSPost2010PropOp45
 70
     1
102
RTVSPost2010Prop46
 90
       50
102
RTVSPost2010PropOp46
 70
     1
102
RTVSPost2010Prop47
 90
       50
102
RTVSPost2010PropOp47
 70
     1
102
RTVSPost2010Prop48
 90
       50
102
RTVSPost2010PropOp48
 70
     1
102
RTVSPost2010Prop49
280
     0
102
RTVSPost2010PropOp49
 70
     1
102
RTVSPost2010Prop50
 90
       50
102
RTVSPost2010PropOp50
 70
     1
102
RTVSPost2010Prop51ColorIndex
 90
      256
102
RTVSPost2010Prop51ColorRGB
 90
-16777216
102
RTVSPost2010PropOp51
 70
     0
102
RTVSPost2010Prop52
140
1.0
102
RTVSPost2010PropOp52
 70
     0
102
RTVSPost2010Prop53
 90
        2
102
RTVSPost2010PropOp53
 70
     1
102
RTVSPost2010Prop54
  1
strokes_ogs.tif
102
RTVSPost2010PropOp54
 70
     1
102
RTVSPost2010Prop55
280
     0
102
RTVSPost2010PropOp55
 70
     1
102
RTVSPost2010Prop56
140
1.0
102
RTVSPost2010PropOp56
 70
     1
102
RTVSPost2010Prop57
140
1.0
102
RTVSPost2010PropOp57
 70
     1
102
RTVSPropertyOp0
 70
     1
102
RTVSPropertyOp1
 70
     1
102
RTVSPropertyOp2
 70
     1
102
RTVSPropertyOp3
 70
     1
102
RTVSPropertyOp4
 70
     1
102
RTVSPropertyOp5
 70
     1
102
RTVSPropertyOp6
 70
     1
102
RTVSPropertyOp7
 70
     1
102
RTVSPropertyOp8
 70
     1
102
RTVSPropertyOp9
 70
     1
102
RTVSPropertyOp10
 70
     1
102
RTVSPropertyOp11
 70
     1
102
RTVSPropertyOp12
 70
     1
102
RTVSPropertyOp13
 70
     1
102
RTVSPropertyOp14
 70
     1
102
RTVSPropertyOp15
 70
     1
102
RTVSPropertyOp16
 70
     1
102
RTVSPropertyOp17
 70
     1
102
RTVSPropertyOp18
 70
     1
102
RTVSPropertyOp19
 70
     1
102
RTVSPropertyOp20
 70
     1
102
RTVSPropertyOp21
 70
     1
102
RTVSPropertyOp22
 70
     1
102
RTVSPropertyOp23
 70
     1
102
RTVSPropertyOp24
 70
     1
102
RTVSPropertyOp25
 70
     1
102
RTVSPropertyOp26
 70
     1
102
RTVSPropertyOp27
 70
     1
102
RTVSPropertyOp28
 70
     1
102
RTVSPropertyOp29
 70
     1
102
RTVSPropertyOp30
 70
     1
102
RTVSPropertyOp31
 70
     1
102
RTVSPropertyOp32
 70
     1
102
RTVSPropertyOp33
 70
     1
102
RTVSPropertyOp34
 70
     1
102
RTVSPropertyOp35
 70
     1
102
RTVSPropertyOp36
 70
     1
102
RTVSPropertyOp37
 70
     1
102
RTVSPropertyOp38
 70
     1
102
RTVSPropertyOp39
 70
     1
102
RTVSPropertyOp40
 70
     1
102
RTVSPropertyOp41
 70
     1
102
RTVSPropertyOp42
 70
     1
102
RTVSPropertyOp43
 70
     1
102
RTVSPropertyOp44
 70
     1
102
RTVSPropertyOp45
 70
     1
102
RTVSPropertyOp46
 70
     1
102
RTVSPropertyOp47
 70
     1
102
RTVSPropertyOp48
 70
     1
102
RTVSPropertyOp49
 70
     1
102
RTVSPropertyOp50
 70
     1
102
RTVSPropertyOp51
 70
     0
102
RTVSPropertyOp52
 70
     0
102
RTVSPropertyOp53
 70
     1
102
RTVSPropertyOp54
 70
     1
102
RTVSPropertyOp55
 70
     1
102
RTVSPropertyOp56
 70
     1
102
RTVSPropertyOp57
 70
     1
102
RTVSPropertyOp58
 70
     1
102
RTVSPropertyOp59
 70
     1
102
RTVSPropertyOp60
 70
     1
102
RTVSPropertyOp61
 70
     1
102
RTVSPropertyOp62
 70
     1
  0
XRECORD
  5
9711
102
{ACAD_REACTORS
330
9710
102
}
330
9710
100
AcDbXrecord
280
     1
102
RTVSPost2010Prop28
280
     0
102
RTVSPost2010PropOp28
 70
     1
102
RTVSPost2010Prop29
280
     1
102
RTVSPost2010PropOp29
 70
     1
102
RTVSPost2010Prop30
280
     1
102
RTVSPost2010PropOp30
 70
     1
102
RTVSPost2010Prop31
280
     0
102
RTVSPost2010PropOp31
 70
     1
102
RTVSPost2010Prop32
280
     0
102
RTVSPost2010PropOp32
 70
     1
102
RTVSPost2010Prop33
280
     0
102
RTVSPost2010PropOp33
 70
     1
102
RTVSPost2010Prop34
280
     0
102
RTVSPost2010PropOp34
 70
     1
102
RTVSPost2010Prop35
280
     0
102
RTVSPost2010PropOp35
 70
     1
102
RTVSPost2010Prop36
280
     0
102
RTVSPost2010PropOp36
 70
     1
102
RTVSPost2010Prop37
 90
       50
102
RTVSPost2010PropOp37
 70
     1
102
RTVSPost2010Prop38
140
0.0
102
RTVSPost2010PropOp38
 70
     1
102
RTVSPost2010Prop39
140
1.0
102
RTVSPost2010PropOp39
 70
     1
102
RTVSPost2010Prop40
 90
        0
102
RTVSPost2010PropOp40
 70
     1
102
RTVSPost2010Prop41ColorIndex
 90
       18
102
RTVSPost2010Prop41ColorRGB
 90
        0
102
RTVSPost2010PropOp41
 70
     1
102
RTVSPost2010Prop42
 90
       50
102
RTVSPost2010PropOp42
 70
     1
102
RTVSPost2010Prop43
 90
        3
102
RTVSPost2010PropOp43
 70
     1
102
RTVSPost2010Prop44ColorIndex
 90
        5
102
RTVSPost2010Prop44ColorRGB
 90
      255
102
RTVSPost2010PropOp44
 70
     1
102
RTVSPost2010Prop45
280
     0
102
RTVSPost2010PropOp45
 70
     1
102
RTVSPost2010Prop46
 90
       50
102
RTVSPost2010PropOp46
 70
     1
102
RTVSPost2010Prop47
 90
       50
102
RTVSPost2010PropOp47
 70
     1
102
RTVSPost2010Prop48
 90
       50
102
RTVSPost2010PropOp48
 70
     1
102
RTVSPost2010Prop49
280
     0
102
RTVSPost2010PropOp49
 70
     1
102
RTVSPost2010Prop50
 90
       50
102
RTVSPost2010PropOp50
 70
     1
102
RTVSPost2010Prop51ColorIndex
 90
      256
102
RTVSPost2010Prop51ColorRGB
 90
-16777216
102
RTVSPost2010PropOp51
 70
     0
102
RTVSPost2010Prop52
140
1.0
102
RTVSPost2010PropOp52
 70
     0
102
RTVSPost2010Prop53
 90
        2
102
RTVSPost2010PropOp53
 70
     1
102
RTVSPost2010Prop54
  1
strokes_ogs.tif
102
RTVSPost2010PropOp54
 70
     1
102
RTVSPost2010Prop55
280
     0
102
RTVSPost2010PropOp55
 70
     1
102
RTVSPost2010Prop56
140
1.0
102
RTVSPost2010PropOp56
 70
     1
102
RTVSPost2010Prop57
140
1.0
102
RTVSPost2010PropOp57
 70
     1
102
RTVSPropertyOp0
 70
     1
102
RTVSPropertyOp1
 70
     1
102
RTVSPropertyOp2
 70
     1
102
RTVSPropertyOp3
 70
     1
102
RTVSPropertyOp4
 70
     1
102
RTVSPropertyOp5
 70
     1
102
RTVSPropertyOp6
 70
     1
102
RTVSPropertyOp7
 70
     1
102
RTVSPropertyOp8
 70
     1
102
RTVSPropertyOp9
 70
     1
102
RTVSPropertyOp10
 70
     1
102
RTVSPropertyOp11
 70
     1
102
RTVSPropertyOp12
 70
     1
102
RTVSPropertyOp13
 70
     1
102
RTVSPropertyOp14
 70
     1
102
RTVSPropertyOp15
 70
     1
102
RTVSPropertyOp16
 70
     1
102
RTVSPropertyOp17
 70
     1
102
RTVSPropertyOp18
 70
     1
102
RTVSPropertyOp19
 70
     1
102
RTVSPropertyOp20
 70
     1
102
RTVSPropertyOp21
 70
     1
102
RTVSPropertyOp22
 70
     1
102
RTVSPropertyOp23
 70
     1
102
RTVSPropertyOp24
 70
     1
102
RTVSPropertyOp25
 70
     1
102
RTVSPropertyOp26
 70
     1
102
RTVSPropertyOp27
 70
     1
102
RTVSPropertyOp28
 70
     1
102
RTVSPropertyOp29
 70
     1
102
RTVSPropertyOp30
 70
     1
102
RTVSPropertyOp31
 70
     1
102
RTVSPropertyOp32
 70
     1
102
RTVSPropertyOp33
 70
     1
102
RTVSPropertyOp34
 70
     1
102
RTVSPropertyOp35
 70
     1
102
RTVSPropertyOp36
 70
     1
102
RTVSPropertyOp37
 70
     1
102
RTVSPropertyOp38
 70
     1
102
RTVSPropertyOp39
 70
     1
102
RTVSPropertyOp40
 70
     1
102
RTVSPropertyOp41
 70
     1
102
RTVSPropertyOp42
 70
     1
102
RTVSPropertyOp43
 70
     1
102
RTVSPropertyOp44
 70
     1
102
RTVSPropertyOp45
 70
     1
102
RTVSPropertyOp46
 70
     1
102
RTVSPropertyOp47
 70
     1
102
RTVSPropertyOp48
 70
     1
102
RTVSPropertyOp49
 70
     1
102
RTVSPropertyOp50
 70
     1
102
RTVSPropertyOp51
 70
     0
102
RTVSPropertyOp52
 70
     0
102
RTVSPropertyOp53
 70
     1
102
RTVSPropertyOp54
 70
     1
102
RTVSPropertyOp55
 70
     1
102
RTVSPropertyOp56
 70
     1
102
RTVSPropertyOp57
 70
     1
102
RTVSPropertyOp58
 70
     1
102
RTVSPropertyOp59
 70
     1
102
RTVSPropertyOp60
 70
     1
102
RTVSPropertyOp61
 70
     1
102
RTVSPropertyOp62
 70
     1
  0
XRECORD
  5
972D
102
{ACAD_REACTORS
330
972C
102
}
330
972C
100
AcDbXrecord
280
     1
102
RTVSPost2010Prop28
280
     0
102
RTVSPost2010PropOp28
 70
     1
102
RTVSPost2010Prop29
280
     1
102
RTVSPost2010PropOp29
 70
     1
102
RTVSPost2010Prop30
280
     1
102
RTVSPost2010PropOp30
 70
     1
102
RTVSPost2010Prop31
280
     0
102
RTVSPost2010PropOp31
 70
     1
102
RTVSPost2010Prop32
280
     0
102
RTVSPost2010PropOp32
 70
     1
102
RTVSPost2010Prop33
280
     0
102
RTVSPost2010PropOp33
 70
     1
102
RTVSPost2010Prop34
280
     0
102
RTVSPost2010PropOp34
 70
     1
102
RTVSPost2010Prop35
280
     0
102
RTVSPost2010PropOp35
 70
     1
102
RTVSPost2010Prop36
280
     0
102
RTVSPost2010PropOp36
 70
     1
102
RTVSPost2010Prop37
 90
       50
102
RTVSPost2010PropOp37
 70
     0
102
RTVSPost2010Prop38
140
0.0
102
RTVSPost2010PropOp38
 70
     0
102
RTVSPost2010Prop39
140
1.0
102
RTVSPost2010PropOp39
 70
     0
102
RTVSPost2010Prop40
 90
        0
102
RTVSPost2010PropOp40
 70
     0
102
RTVSPost2010Prop41ColorIndex
 90
       18
102
RTVSPost2010Prop41ColorRGB
 90
        0
102
RTVSPost2010PropOp41
 70
     0
102
RTVSPost2010Prop42
 90
       50
102
RTVSPost2010PropOp42
 70
     0
102
RTVSPost2010Prop43
 90
        3
102
RTVSPost2010PropOp43
 70
     0
102
RTVSPost2010Prop44ColorIndex
 90
        5
102
RTVSPost2010Prop44ColorRGB
 90
      255
102
RTVSPost2010PropOp44
 70
     0
102
RTVSPost2010Prop45
280
     0
102
RTVSPost2010PropOp45
 70
     1
102
RTVSPost2010Prop46
 90
       50
102
RTVSPost2010PropOp46
 70
     0
102
RTVSPost2010Prop47
 90
       50
102
RTVSPost2010PropOp47
 70
     0
102
RTVSPost2010Prop48
 90
       50
102
RTVSPost2010PropOp48
 70
     0
102
RTVSPost2010Prop49
280
     0
102
RTVSPost2010PropOp49
 70
     1
102
RTVSPost2010Prop50
 90
       50
102
RTVSPost2010PropOp50
 70
     0
102
RTVSPost2010Prop51ColorIndex
 90
      256
102
RTVSPost2010Prop51ColorRGB
 90
-16777216
102
RTVSPost2010PropOp51
 70
     0
102
RTVSPost2010Prop52
140
1.0
102
RTVSPost2010PropOp52
 70
     0
102
RTVSPost2010Prop53
 90
        2
102
RTVSPost2010PropOp53
 70
     0
102
RTVSPost2010Prop54
  1
strokes_ogs.tif
102
RTVSPost2010PropOp54
 70
     0
102
RTVSPost2010Prop55
280
     0
102
RTVSPost2010PropOp55
 70
     1
102
RTVSPost2010Prop56
140
1.0
102
RTVSPost2010PropOp56
 70
     0
102
RTVSPost2010Prop57
140
1.0
102
RTVSPost2010PropOp57
 70
     0
102
RTVSPropertyOp0
 70
     0
102
RTVSPropertyOp1
 70
     0
102
RTVSPropertyOp2
 70
     0
102
RTVSPropertyOp3
 70
     0
102
RTVSPropertyOp4
 70
     0
102
RTVSPropertyOp5
 70
     0
102
RTVSPropertyOp6
 70
     0
102
RTVSPropertyOp7
 70
     0
102
RTVSPropertyOp8
 70
     0
102
RTVSPropertyOp9
 70
     0
102
RTVSPropertyOp10
 70
     0
102
RTVSPropertyOp11
 70
     0
102
RTVSPropertyOp12
 70
     0
102
RTVSPropertyOp13
 70
     0
102
RTVSPropertyOp14
 70
     2
102
RTVSPropertyOp15
 70
     0
102
RTVSPropertyOp16
 70
     0
102
RTVSPropertyOp17
 70
     0
102
RTVSPropertyOp18
 70
     0
102
RTVSPropertyOp19
 70
     0
102
RTVSPropertyOp20
 70
     0
102
RTVSPropertyOp21
 70
     0
102
RTVSPropertyOp22
 70
     0
102
RTVSPropertyOp23
 70
     0
102
RTVSPropertyOp24
 70
     0
102
RTVSPropertyOp25
 70
     0
102
RTVSPropertyOp26
 70
     0
102
RTVSPropertyOp27
 70
     0
102
RTVSPropertyOp28
 70
     1
102
RTVSPropertyOp29
 70
     1
102
RTVSPropertyOp30
 70
     1
102
RTVSPropertyOp31
 70
     1
102
RTVSPropertyOp32
 70
     1
102
RTVSPropertyOp33
 70
     1
102
RTVSPropertyOp34
 70
     1
102
RTVSPropertyOp35
 70
     1
102
RTVSPropertyOp36
 70
     1
102
RTVSPropertyOp37
 70
     0
102
RTVSPropertyOp38
 70
     0
102
RTVSPropertyOp39
 70
     0
102
RTVSPropertyOp40
 70
     0
102
RTVSPropertyOp41
 70
     0
102
RTVSPropertyOp42
 70
     0
102
RTVSPropertyOp43
 70
     0
102
RTVSPropertyOp44
 70
     0
102
RTVSPropertyOp45
 70
     1
102
RTVSPropertyOp46
 70
     0
102
RTVSPropertyOp47
 70
     0
102
RTVSPropertyOp48
 70
     0
102
RTVSPropertyOp49
 70
     1
102
RTVSPropertyOp50
 70
     0
102
RTVSPropertyOp51
 70
     0
102
RTVSPropertyOp52
 70
     0
102
RTVSPropertyOp53
 70
     0
102
RTVSPropertyOp54
 70
     0
102
RTVSPropertyOp55
 70
     1
102
RTVSPropertyOp56
 70
     0
102
RTVSPropertyOp57
 70
     0
102
RTVSPropertyOp58
 70
     0
102
RTVSPropertyOp59
 70
     0
102
RTVSPropertyOp60
 70
     0
102
RTVSPropertyOp61
 70
     0
102
RTVSPropertyOp62
 70
     0
  0
XRECORD
  5
971D
102
{ACAD_REACTORS
330
971C
102
}
330
971C
100
AcDbXrecord
280
     1
102
RTVSPost2010Prop28
280
     0
102
RTVSPost2010PropOp28
 70
     1
102
RTVSPost2010Prop29
280
     1
102
RTVSPost2010PropOp29
 70
     1
102
RTVSPost2010Prop30
280
     1
102
RTVSPost2010PropOp30
 70
     1
102
RTVSPost2010Prop31
280
     0
102
RTVSPost2010PropOp31
 70
     1
102
RTVSPost2010Prop32
280
     0
102
RTVSPost2010PropOp32
 70
     1
102
RTVSPost2010Prop33
280
     0
102
RTVSPost2010PropOp33
 70
     1
102
RTVSPost2010Prop34
280
     0
102
RTVSPost2010PropOp34
 70
     1
102
RTVSPost2010Prop35
280
     0
102
RTVSPost2010PropOp35
 70
     1
102
RTVSPost2010Prop36
280
     0
102
RTVSPost2010PropOp36
 70
     1
102
RTVSPost2010Prop37
 90
       50
102
RTVSPost2010PropOp37
 70
     1
102
RTVSPost2010Prop38
140
0.0
102
RTVSPost2010PropOp38
 70
     1
102
RTVSPost2010Prop39
140
1.0
102
RTVSPost2010PropOp39
 70
     1
102
RTVSPost2010Prop40
 90
        0
102
RTVSPost2010PropOp40
 70
     1
102
RTVSPost2010Prop41ColorIndex
 90
       18
102
RTVSPost2010Prop41ColorRGB
 90
        0
102
RTVSPost2010PropOp41
 70
     1
102
RTVSPost2010Prop42
 90
       50
102
RTVSPost2010PropOp42
 70
     1
102
RTVSPost2010Prop43
 90
        3
102
RTVSPost2010PropOp43
 70
     1
102
RTVSPost2010Prop44ColorIndex
 90
        5
102
RTVSPost2010Prop44ColorRGB
 90
      255
102
RTVSPost2010PropOp44
 70
     1
102
RTVSPost2010Prop45
280
     0
102
RTVSPost2010PropOp45
 70
     1
102
RTVSPost2010Prop46
 90
       50
102
RTVSPost2010PropOp46
 70
     1
102
RTVSPost2010Prop47
 90
       50
102
RTVSPost2010PropOp47
 70
     1
102
RTVSPost2010Prop48
 90
       50
102
RTVSPost2010PropOp48
 70
     1
102
RTVSPost2010Prop49
280
     0
102
RTVSPost2010PropOp49
 70
     1
102
RTVSPost2010Prop50
 90
       50
102
RTVSPost2010PropOp50
 70
     1
102
RTVSPost2010Prop51ColorIndex
 90
      256
102
RTVSPost2010Prop51ColorRGB
 90
-16777216
102
RTVSPost2010PropOp51
 70
     0
102
RTVSPost2010Prop52
140
1.0
102
RTVSPost2010PropOp52
 70
     0
102
RTVSPost2010Prop53
 90
        2
102
RTVSPost2010PropOp53
 70
     1
102
RTVSPost2010Prop54
  1
strokes_ogs.tif
102
RTVSPost2010PropOp54
 70
     1
102
RTVSPost2010Prop55
280
     0
102
RTVSPost2010PropOp55
 70
     1
102
RTVSPost2010Prop56
140
1.0
102
RTVSPost2010PropOp56
 70
     1
102
RTVSPost2010Prop57
140
1.0
102
RTVSPost2010PropOp57
 70
     1
102
RTVSPropertyOp0
 70
     1
102
RTVSPropertyOp1
 70
     1
102
RTVSPropertyOp2
 70
     1
102
RTVSPropertyOp3
 70
     1
102
RTVSPropertyOp4
 70
     1
102
RTVSPropertyOp5
 70
     1
102
RTVSPropertyOp6
 70
     1
102
RTVSPropertyOp7
 70
     1
102
RTVSPropertyOp8
 70
     1
102
RTVSPropertyOp9
 70
     1
102
RTVSPropertyOp10
 70
     1
102
RTVSPropertyOp11
 70
     1
102
RTVSPropertyOp12
 70
     1
102
RTVSPropertyOp13
 70
     1
102
RTVSPropertyOp14
 70
     1
102
RTVSPropertyOp15
 70
     1
102
RTVSPropertyOp16
 70
     1
102
RTVSPropertyOp17
 70
     1
102
RTVSPropertyOp18
 70
     1
102
RTVSPropertyOp19
 70
     1
102
RTVSPropertyOp20
 70
     1
102
RTVSPropertyOp21
 70
     1
102
RTVSPropertyOp22
 70
     1
102
RTVSPropertyOp23
 70
     1
102
RTVSPropertyOp24
 70
     1
102
RTVSPropertyOp25
 70
     1
102
RTVSPropertyOp26
 70
     1
102
RTVSPropertyOp27
 70
     1
102
RTVSPropertyOp28
 70
     1
102
RTVSPropertyOp29
 70
     1
102
RTVSPropertyOp30
 70
     1
102
RTVSPropertyOp31
 70
     1
102
RTVSPropertyOp32
 70
     1
102
RTVSPropertyOp33
 70
     1
102
RTVSPropertyOp34
 70
     1
102
RTVSPropertyOp35
 70
     1
102
RTVSPropertyOp36
 70
     1
102
RTVSPropertyOp37
 70
     1
102
RTVSPropertyOp38
 70
     1
102
RTVSPropertyOp39
 70
     1
102
RTVSPropertyOp40
 70
     1
102
RTVSPropertyOp41
 70
     1
102
RTVSPropertyOp42
 70
     1
102
RTVSPropertyOp43
 70
     1
102
RTVSPropertyOp44
 70
     1
102
RTVSPropertyOp45
 70
     1
102
RTVSPropertyOp46
 70
     1
102
RTVSPropertyOp47
 70
     1
102
RTVSPropertyOp48
 70
     1
102
RTVSPropertyOp49
 70
     1
102
RTVSPropertyOp50
 70
     1
102
RTVSPropertyOp51
 70
     0
102
RTVSPropertyOp52
 70
     0
102
RTVSPropertyOp53
 70
     1
102
RTVSPropertyOp54
 70
     1
102
RTVSPropertyOp55
 70
     1
102
RTVSPropertyOp56
 70
     1
102
RTVSPropertyOp57
 70
     1
102
RTVSPropertyOp58
 70
     1
102
RTVSPropertyOp59
 70
     1
102
RTVSPropertyOp60
 70
     1
102
RTVSPropertyOp61
 70
     1
102
RTVSPropertyOp62
 70
     1
  0
XRECORD
  5
972F
102
{ACAD_REACTORS
330
972E
102
}
330
972E
100
AcDbXrecord
280
     1
102
RTVSPost2010Prop28
280
     0
102
RTVSPost2010PropOp28
 70
     1
102
RTVSPost2010Prop29
280
     1
102
RTVSPost2010PropOp29
 70
     1
102
RTVSPost2010Prop30
280
     1
102
RTVSPost2010PropOp30
 70
     1
102
RTVSPost2010Prop31
280
     0
102
RTVSPost2010PropOp31
 70
     1
102
RTVSPost2010Prop32
280
     0
102
RTVSPost2010PropOp32
 70
     1
102
RTVSPost2010Prop33
280
     0
102
RTVSPost2010PropOp33
 70
     1
102
RTVSPost2010Prop34
280
     0
102
RTVSPost2010PropOp34
 70
     1
102
RTVSPost2010Prop35
280
     0
102
RTVSPost2010PropOp35
 70
     1
102
RTVSPost2010Prop36
280
     0
102
RTVSPost2010PropOp36
 70
     1
102
RTVSPost2010Prop37
 90
       50
102
RTVSPost2010PropOp37
 70
     0
102
RTVSPost2010Prop38
140
0.0
102
RTVSPost2010PropOp38
 70
     0
102
RTVSPost2010Prop39
140
1.0
102
RTVSPost2010PropOp39
 70
     0
102
RTVSPost2010Prop40
 90
        0
102
RTVSPost2010PropOp40
 70
     0
102
RTVSPost2010Prop41ColorIndex
 90
       18
102
RTVSPost2010Prop41ColorRGB
 90
        0
102
RTVSPost2010PropOp41
 70
     0
102
RTVSPost2010Prop42
 90
       50
102
RTVSPost2010PropOp42
 70
     0
102
RTVSPost2010Prop43
 90
        3
102
RTVSPost2010PropOp43
 70
     0
102
RTVSPost2010Prop44ColorIndex
 90
        5
102
RTVSPost2010Prop44ColorRGB
 90
      255
102
RTVSPost2010PropOp44
 70
     0
102
RTVSPost2010Prop45
280
     0
102
RTVSPost2010PropOp45
 70
     1
102
RTVSPost2010Prop46
 90
       50
102
RTVSPost2010PropOp46
 70
     0
102
RTVSPost2010Prop47
 90
       50
102
RTVSPost2010PropOp47
 70
     0
102
RTVSPost2010Prop48
 90
       50
102
RTVSPost2010PropOp48
 70
     0
102
RTVSPost2010Prop49
280
     0
102
RTVSPost2010PropOp49
 70
     1
102
RTVSPost2010Prop50
 90
       50
102
RTVSPost2010PropOp50
 70
     0
102
RTVSPost2010Prop51ColorIndex
 90
      256
102
RTVSPost2010Prop51ColorRGB
 90
-16777216
102
RTVSPost2010PropOp51
 70
     0
102
RTVSPost2010Prop52
140
1.0
102
RTVSPost2010PropOp52
 70
     0
102
RTVSPost2010Prop53
 90
        2
102
RTVSPost2010PropOp53
 70
     0
102
RTVSPost2010Prop54
  1
strokes_ogs.tif
102
RTVSPost2010PropOp54
 70
     0
102
RTVSPost2010Prop55
280
     0
102
RTVSPost2010PropOp55
 70
     1
102
RTVSPost2010Prop56
140
1.0
102
RTVSPost2010PropOp56
 70
     0
102
RTVSPost2010Prop57
140
1.0
102
RTVSPost2010PropOp57
 70
     0
102
RTVSPropertyOp0
 70
     0
102
RTVSPropertyOp1
 70
     0
102
RTVSPropertyOp2
 70
     0
102
RTVSPropertyOp3
 70
     0
102
RTVSPropertyOp4
 70
     0
102
RTVSPropertyOp5
 70
     0
102
RTVSPropertyOp6
 70
     0
102
RTVSPropertyOp7
 70
     0
102
RTVSPropertyOp8
 70
     0
102
RTVSPropertyOp9
 70
     0
102
RTVSPropertyOp10
 70
     0
102
RTVSPropertyOp11
 70
     0
102
RTVSPropertyOp12
 70
     0
102
RTVSPropertyOp13
 70
     0
102
RTVSPropertyOp14
 70
     2
102
RTVSPropertyOp15
 70
     0
102
RTVSPropertyOp16
 70
     0
102
RTVSPropertyOp17
 70
     0
102
RTVSPropertyOp18
 70
     0
102
RTVSPropertyOp19
 70
     0
102
RTVSPropertyOp20
 70
     0
102
RTVSPropertyOp21
 70
     0
102
RTVSPropertyOp22
 70
     0
102
RTVSPropertyOp23
 70
     0
102
RTVSPropertyOp24
 70
     0
102
RTVSPropertyOp25
 70
     0
102
RTVSPropertyOp26
 70
     0
102
RTVSPropertyOp27
 70
     0
102
RTVSPropertyOp28
 70
     1
102
RTVSPropertyOp29
 70
     1
102
RTVSPropertyOp30
 70
     1
102
RTVSPropertyOp31
 70
     1
102
RTVSPropertyOp32
 70
     1
102
RTVSPropertyOp33
 70
     1
102
RTVSPropertyOp34
 70
     1
102
RTVSPropertyOp35
 70
     1
102
RTVSPropertyOp36
 70
     1
102
RTVSPropertyOp37
 70
     0
102
RTVSPropertyOp38
 70
     0
102
RTVSPropertyOp39
 70
     0
102
RTVSPropertyOp40
 70
     0
102
RTVSPropertyOp41
 70
     0
102
RTVSPropertyOp42
 70
     0
102
RTVSPropertyOp43
 70
     0
102
RTVSPropertyOp44
 70
     0
102
RTVSPropertyOp45
 70
     1
102
RTVSPropertyOp46
 70
     0
102
RTVSPropertyOp47
 70
     0
102
RTVSPropertyOp48
 70
     0
102
RTVSPropertyOp49
 70
     1
102
RTVSPropertyOp50
 70
     0
102
RTVSPropertyOp51
 70
     0
102
RTVSPropertyOp52
 70
     0
102
RTVSPropertyOp53
 70
     0
102
RTVSPropertyOp54
 70
     0
102
RTVSPropertyOp55
 70
     1
102
RTVSPropertyOp56
 70
     0
102
RTVSPropertyOp57
 70
     0
102
RTVSPropertyOp58
 70
     0
102
RTVSPropertyOp59
 70
     0
102
RTVSPropertyOp60
 70
     0
102
RTVSPropertyOp61
 70
     0
102
RTVSPropertyOp62
 70
     0
  0
XRECORD
  5
9715
102
{ACAD_REACTORS
330
9714
102
}
330
9714
100
AcDbXrecord
280
     1
102
RTVSPost2010Prop28
280
     0
102
RTVSPost2010PropOp28
 70
     1
102
RTVSPost2010Prop29
280
     1
102
RTVSPost2010PropOp29
 70
     1
102
RTVSPost2010Prop30
280
     1
102
RTVSPost2010PropOp30
 70
     1
102
RTVSPost2010Prop31
280
     0
102
RTVSPost2010PropOp31
 70
     1
102
RTVSPost2010Prop32
280
     0
102
RTVSPost2010PropOp32
 70
     1
102
RTVSPost2010Prop33
280
     0
102
RTVSPost2010PropOp33
 70
     1
102
RTVSPost2010Prop34
280
     0
102
RTVSPost2010PropOp34
 70
     1
102
RTVSPost2010Prop35
280
     0
102
RTVSPost2010PropOp35
 70
     1
102
RTVSPost2010Prop36
280
     0
102
RTVSPost2010PropOp36
 70
     1
102
RTVSPost2010Prop37
 90
       50
102
RTVSPost2010PropOp37
 70
     1
102
RTVSPost2010Prop38
140
0.0
102
RTVSPost2010PropOp38
 70
     1
102
RTVSPost2010Prop39
140
1.0
102
RTVSPost2010PropOp39
 70
     1
102
RTVSPost2010Prop40
 90
        0
102
RTVSPost2010PropOp40
 70
     1
102
RTVSPost2010Prop41ColorIndex
 90
       18
102
RTVSPost2010Prop41ColorRGB
 90
        0
102
RTVSPost2010PropOp41
 70
     1
102
RTVSPost2010Prop42
 90
       50
102
RTVSPost2010PropOp42
 70
     1
102
RTVSPost2010Prop43
 90
        3
102
RTVSPost2010PropOp43
 70
     1
102
RTVSPost2010Prop44ColorIndex
 90
        5
102
RTVSPost2010Prop44ColorRGB
 90
      255
102
RTVSPost2010PropOp44
 70
     1
102
RTVSPost2010Prop45
280
     0
102
RTVSPost2010PropOp45
 70
     1
102
RTVSPost2010Prop46
 90
       50
102
RTVSPost2010PropOp46
 70
     1
102
RTVSPost2010Prop47
 90
       50
102
RTVSPost2010PropOp47
 70
     1
102
RTVSPost2010Prop48
 90
       50
102
RTVSPost2010PropOp48
 70
     1
102
RTVSPost2010Prop49
280
     0
102
RTVSPost2010PropOp49
 70
     1
102
RTVSPost2010Prop50
 90
       50
102
RTVSPost2010PropOp50
 70
     1
102
RTVSPost2010Prop51ColorIndex
 90
      256
102
RTVSPost2010Prop51ColorRGB
 90
-16777216
102
RTVSPost2010PropOp51
 70
     0
102
RTVSPost2010Prop52
140
1.0
102
RTVSPost2010PropOp52
 70
     0
102
RTVSPost2010Prop53
 90
        2
102
RTVSPost2010PropOp53
 70
     1
102
RTVSPost2010Prop54
  1
strokes_ogs.tif
102
RTVSPost2010PropOp54
 70
     1
102
RTVSPost2010Prop55
280
     0
102
RTVSPost2010PropOp55
 70
     1
102
RTVSPost2010Prop56
140
1.0
102
RTVSPost2010PropOp56
 70
     1
102
RTVSPost2010Prop57
140
1.0
102
RTVSPost2010PropOp57
 70
     1
102
RTVSPropertyOp0
 70
     1
102
RTVSPropertyOp1
 70
     1
102
RTVSPropertyOp2
 70
     1
102
RTVSPropertyOp3
 70
     1
102
RTVSPropertyOp4
 70
     1
102
RTVSPropertyOp5
 70
     1
102
RTVSPropertyOp6
 70
     1
102
RTVSPropertyOp7
 70
     1
102
RTVSPropertyOp8
 70
     1
102
RTVSPropertyOp9
 70
     1
102
RTVSPropertyOp10
 70
     1
102
RTVSPropertyOp11
 70
     1
102
RTVSPropertyOp12
 70
     1
102
RTVSPropertyOp13
 70
     1
102
RTVSPropertyOp14
 70
     1
102
RTVSPropertyOp15
 70
     1
102
RTVSPropertyOp16
 70
     1
102
RTVSPropertyOp17
 70
     1
102
RTVSPropertyOp18
 70
     1
102
RTVSPropertyOp19
 70
     1
102
RTVSPropertyOp20
 70
     1
102
RTVSPropertyOp21
 70
     1
102
RTVSPropertyOp22
 70
     1
102
RTVSPropertyOp23
 70
     1
102
RTVSPropertyOp24
 70
     1
102
RTVSPropertyOp25
 70
     1
102
RTVSPropertyOp26
 70
     1
102
RTVSPropertyOp27
 70
     1
102
RTVSPropertyOp28
 70
     1
102
RTVSPropertyOp29
 70
     1
102
RTVSPropertyOp30
 70
     1
102
RTVSPropertyOp31
 70
     1
102
RTVSPropertyOp32
 70
     1
102
RTVSPropertyOp33
 70
     1
102
RTVSPropertyOp34
 70
     1
102
RTVSPropertyOp35
 70
     1
102
RTVSPropertyOp36
 70
     1
102
RTVSPropertyOp37
 70
     1
102
RTVSPropertyOp38
 70
     1
102
RTVSPropertyOp39
 70
     1
102
RTVSPropertyOp40
 70
     1
102
RTVSPropertyOp41
 70
     1
102
RTVSPropertyOp42
 70
     1
102
RTVSPropertyOp43
 70
     1
102
RTVSPropertyOp44
 70
     1
102
RTVSPropertyOp45
 70
     1
102
RTVSPropertyOp46
 70
     1
102
RTVSPropertyOp47
 70
     1
102
RTVSPropertyOp48
 70
     1
102
RTVSPropertyOp49
 70
     1
102
RTVSPropertyOp50
 70
     1
102
RTVSPropertyOp51
 70
     0
102
RTVSPropertyOp52
 70
     0
102
RTVSPropertyOp53
 70
     1
102
RTVSPropertyOp54
 70
     1
102
RTVSPropertyOp55
 70
     1
102
RTVSPropertyOp56
 70
     1
102
RTVSPropertyOp57
 70
     1
102
RTVSPropertyOp58
 70
     1
102
RTVSPropertyOp59
 70
     1
102
RTVSPropertyOp60
 70
     1
102
RTVSPropertyOp61
 70
     1
102
RTVSPropertyOp62
 70
     1
  0
XRECORD
  5
972B
102
{ACAD_REACTORS
330
972A
102
}
330
972A
100
AcDbXrecord
280
     1
102
RTVSPost2010Prop28
280
     0
102
RTVSPost2010PropOp28
 70
     1
102
RTVSPost2010Prop29
280
     1
102
RTVSPost2010PropOp29
 70
     1
102
RTVSPost2010Prop30
280
     1
102
RTVSPost2010PropOp30
 70
     1
102
RTVSPost2010Prop31
280
     0
102
RTVSPost2010PropOp31
 70
     1
102
RTVSPost2010Prop32
280
     0
102
RTVSPost2010PropOp32
 70
     1
102
RTVSPost2010Prop33
280
     0
102
RTVSPost2010PropOp33
 70
     1
102
RTVSPost2010Prop34
280
     0
102
RTVSPost2010PropOp34
 70
     1
102
RTVSPost2010Prop35
280
     0
102
RTVSPost2010PropOp35
 70
     1
102
RTVSPost2010Prop36
280
     0
102
RTVSPost2010PropOp36
 70
     1
102
RTVSPost2010Prop37
 90
       50
102
RTVSPost2010PropOp37
 70
     1
102
RTVSPost2010Prop38
140
0.0
102
RTVSPost2010PropOp38
 70
     1
102
RTVSPost2010Prop39
140
1.0
102
RTVSPost2010PropOp39
 70
     1
102
RTVSPost2010Prop40
 90
        0
102
RTVSPost2010PropOp40
 70
     1
102
RTVSPost2010Prop41ColorIndex
 90
       18
102
RTVSPost2010Prop41ColorRGB
 90
        0
102
RTVSPost2010PropOp41
 70
     1
102
RTVSPost2010Prop42
 90
       50
102
RTVSPost2010PropOp42
 70
     1
102
RTVSPost2010Prop43
 90
        3
102
RTVSPost2010PropOp43
 70
     1
102
RTVSPost2010Prop44ColorIndex
 90
        5
102
RTVSPost2010Prop44ColorRGB
 90
      255
102
RTVSPost2010PropOp44
 70
     1
102
RTVSPost2010Prop45
280
     0
102
RTVSPost2010PropOp45
 70
     1
102
RTVSPost2010Prop46
 90
       50
102
RTVSPost2010PropOp46
 70
     1
102
RTVSPost2010Prop47
 90
       50
102
RTVSPost2010PropOp47
 70
     1
102
RTVSPost2010Prop48
 90
       50
102
RTVSPost2010PropOp48
 70
     1
102
RTVSPost2010Prop49
280
     0
102
RTVSPost2010PropOp49
 70
     1
102
RTVSPost2010Prop50
 90
       50
102
RTVSPost2010PropOp50
 70
     1
102
RTVSPost2010Prop51ColorIndex
 90
      256
102
RTVSPost2010Prop51ColorRGB
 90
-16777216
102
RTVSPost2010PropOp51
 70
     0
102
RTVSPost2010Prop52
140
1.0
102
RTVSPost2010PropOp52
 70
     0
102
RTVSPost2010Prop53
 90
        2
102
RTVSPost2010PropOp53
 70
     1
102
RTVSPost2010Prop54
  1
strokes_ogs.tif
102
RTVSPost2010PropOp54
 70
     1
102
RTVSPost2010Prop55
280
     0
102
RTVSPost2010PropOp55
 70
     1
102
RTVSPost2010Prop56
140
1.0
102
RTVSPost2010PropOp56
 70
     1
102
RTVSPost2010Prop57
140
1.0
102
RTVSPost2010PropOp57
 70
     1
102
RTVSPropertyOp0
 70
     1
102
RTVSPropertyOp1
 70
     1
102
RTVSPropertyOp2
 70
     1
102
RTVSPropertyOp3
 70
     1
102
RTVSPropertyOp4
 70
     1
102
RTVSPropertyOp5
 70
     1
102
RTVSPropertyOp6
 70
     1
102
RTVSPropertyOp7
 70
     1
102
RTVSPropertyOp8
 70
     1
102
RTVSPropertyOp9
 70
     1
102
RTVSPropertyOp10
 70
     1
102
RTVSPropertyOp11
 70
     1
102
RTVSPropertyOp12
 70
     1
102
RTVSPropertyOp13
 70
     1
102
RTVSPropertyOp14
 70
     1
102
RTVSPropertyOp15
 70
     1
102
RTVSPropertyOp16
 70
     1
102
RTVSPropertyOp17
 70
     1
102
RTVSPropertyOp18
 70
     1
102
RTVSPropertyOp19
 70
     1
102
RTVSPropertyOp20
 70
     1
102
RTVSPropertyOp21
 70
     1
102
RTVSPropertyOp22
 70
     1
102
RTVSPropertyOp23
 70
     1
102
RTVSPropertyOp24
 70
     1
102
RTVSPropertyOp25
 70
     1
102
RTVSPropertyOp26
 70
     1
102
RTVSPropertyOp27
 70
     1
102
RTVSPropertyOp28
 70
     1
102
RTVSPropertyOp29
 70
     1
102
RTVSPropertyOp30
 70
     1
102
RTVSPropertyOp31
 70
     1
102
RTVSPropertyOp32
 70
     1
102
RTVSPropertyOp33
 70
     1
102
RTVSPropertyOp34
 70
     1
102
RTVSPropertyOp35
 70
     1
102
RTVSPropertyOp36
 70
     1
102
RTVSPropertyOp37
 70
     1
102
RTVSPropertyOp38
 70
     1
102
RTVSPropertyOp39
 70
     1
102
RTVSPropertyOp40
 70
     1
102
RTVSPropertyOp41
 70
     1
102
RTVSPropertyOp42
 70
     1
102
RTVSPropertyOp43
 70
     1
102
RTVSPropertyOp44
 70
     1
102
RTVSPropertyOp45
 70
     1
102
RTVSPropertyOp46
 70
     1
102
RTVSPropertyOp47
 70
     1
102
RTVSPropertyOp48
 70
     1
102
RTVSPropertyOp49
 70
     1
102
RTVSPropertyOp50
 70
     1
102
RTVSPropertyOp51
 70
     0
102
RTVSPropertyOp52
 70
     0
102
RTVSPropertyOp53
 70
     1
102
RTVSPropertyOp54
 70
     1
102
RTVSPropertyOp55
 70
     1
102
RTVSPropertyOp56
 70
     1
102
RTVSPropertyOp57
 70
     1
102
RTVSPropertyOp58
 70
     1
102
RTVSPropertyOp59
 70
     1
102
RTVSPropertyOp60
 70
     1
102
RTVSPropertyOp61
 70
     1
102
RTVSPropertyOp62
 70
     1
  0
XRECORD
  5
9729
102
{ACAD_REACTORS
330
9728
102
}
330
9728
100
AcDbXrecord
280
     1
102
RTVSPost2010Prop28
280
     0
102
RTVSPost2010PropOp28
 70
     1
102
RTVSPost2010Prop29
280
     1
102
RTVSPost2010PropOp29
 70
     1
102
RTVSPost2010Prop30
280
     1
102
RTVSPost2010PropOp30
 70
     1
102
RTVSPost2010Prop31
280
     0
102
RTVSPost2010PropOp31
 70
     1
102
RTVSPost2010Prop32
280
     0
102
RTVSPost2010PropOp32
 70
     1
102
RTVSPost2010Prop33
280
     0
102
RTVSPost2010PropOp33
 70
     1
102
RTVSPost2010Prop34
280
     0
102
RTVSPost2010PropOp34
 70
     1
102
RTVSPost2010Prop35
280
     0
102
RTVSPost2010PropOp35
 70
     1
102
RTVSPost2010Prop36
280
     0
102
RTVSPost2010PropOp36
 70
     1
102
RTVSPost2010Prop37
 90
       50
102
RTVSPost2010PropOp37
 70
     1
102
RTVSPost2010Prop38
140
0.0
102
RTVSPost2010PropOp38
 70
     1
102
RTVSPost2010Prop39
140
1.0
102
RTVSPost2010PropOp39
 70
     1
102
RTVSPost2010Prop40
 90
        0
102
RTVSPost2010PropOp40
 70
     1
102
RTVSPost2010Prop41ColorIndex
 90
       18
102
RTVSPost2010Prop41ColorRGB
 90
        0
102
RTVSPost2010PropOp41
 70
     1
102
RTVSPost2010Prop42
 90
       50
102
RTVSPost2010PropOp42
 70
     1
102
RTVSPost2010Prop43
 90
        3
102
RTVSPost2010PropOp43
 70
     1
102
RTVSPost2010Prop44ColorIndex
 90
        5
102
RTVSPost2010Prop44ColorRGB
 90
      255
102
RTVSPost2010PropOp44
 70
     1
102
RTVSPost2010Prop45
280
     0
102
RTVSPost2010PropOp45
 70
     1
102
RTVSPost2010Prop46
 90
       50
102
RTVSPost2010PropOp46
 70
     1
102
RTVSPost2010Prop47
 90
       50
102
RTVSPost2010PropOp47
 70
     1
102
RTVSPost2010Prop48
 90
       50
102
RTVSPost2010PropOp48
 70
     1
102
RTVSPost2010Prop49
280
     0
102
RTVSPost2010PropOp49
 70
     1
102
RTVSPost2010Prop50
 90
       50
102
RTVSPost2010PropOp50
 70
     1
102
RTVSPost2010Prop51ColorIndex
 90
      256
102
RTVSPost2010Prop51ColorRGB
 90
-16777216
102
RTVSPost2010PropOp51
 70
     0
102
RTVSPost2010Prop52
140
1.0
102
RTVSPost2010PropOp52
 70
     0
102
RTVSPost2010Prop53
 90
        2
102
RTVSPost2010PropOp53
 70
     1
102
RTVSPost2010Prop54
  1
strokes_ogs.tif
102
RTVSPost2010PropOp54
 70
     1
102
RTVSPost2010Prop55
280
     0
102
RTVSPost2010PropOp55
 70
     1
102
RTVSPost2010Prop56
140
1.0
102
RTVSPost2010PropOp56
 70
     1
102
RTVSPost2010Prop57
140
1.0
102
RTVSPost2010PropOp57
 70
     1
102
RTVSPropertyOp0
 70
     1
102
RTVSPropertyOp1
 70
     1
102
RTVSPropertyOp2
 70
     1
102
RTVSPropertyOp3
 70
     1
102
RTVSPropertyOp4
 70
     1
102
RTVSPropertyOp5
 70
     1
102
RTVSPropertyOp6
 70
     1
102
RTVSPropertyOp7
 70
     1
102
RTVSPropertyOp8
 70
     1
102
RTVSPropertyOp9
 70
     1
102
RTVSPropertyOp10
 70
     1
102
RTVSPropertyOp11
 70
     1
102
RTVSPropertyOp12
 70
     1
102
RTVSPropertyOp13
 70
     1
102
RTVSPropertyOp14
 70
     1
102
RTVSPropertyOp15
 70
     1
102
RTVSPropertyOp16
 70
     1
102
RTVSPropertyOp17
 70
     1
102
RTVSPropertyOp18
 70
     1
102
RTVSPropertyOp19
 70
     1
102
RTVSPropertyOp20
 70
     1
102
RTVSPropertyOp21
 70
     1
102
RTVSPropertyOp22
 70
     1
102
RTVSPropertyOp23
 70
     1
102
RTVSPropertyOp24
 70
     1
102
RTVSPropertyOp25
 70
     1
102
RTVSPropertyOp26
 70
     1
102
RTVSPropertyOp27
 70
     1
102
RTVSPropertyOp28
 70
     1
102
RTVSPropertyOp29
 70
     1
102
RTVSPropertyOp30
 70
     1
102
RTVSPropertyOp31
 70
     1
102
RTVSPropertyOp32
 70
     1
102
RTVSPropertyOp33
 70
     1
102
RTVSPropertyOp34
 70
     1
102
RTVSPropertyOp35
 70
     1
102
RTVSPropertyOp36
 70
     1
102
RTVSPropertyOp37
 70
     1
102
RTVSPropertyOp38
 70
     1
102
RTVSPropertyOp39
 70
     1
102
RTVSPropertyOp40
 70
     1
102
RTVSPropertyOp41
 70
     1
102
RTVSPropertyOp42
 70
     1
102
RTVSPropertyOp43
 70
     1
102
RTVSPropertyOp44
 70
     1
102
RTVSPropertyOp45
 70
     1
102
RTVSPropertyOp46
 70
     1
102
RTVSPropertyOp47
 70
     1
102
RTVSPropertyOp48
 70
     1
102
RTVSPropertyOp49
 70
     1
102
RTVSPropertyOp50
 70
     1
102
RTVSPropertyOp51
 70
     0
102
RTVSPropertyOp52
 70
     0
102
RTVSPropertyOp53
 70
     1
102
RTVSPropertyOp54
 70
     1
102
RTVSPropertyOp55
 70
     1
102
RTVSPropertyOp56
 70
     1
102
RTVSPropertyOp57
 70
     1
102
RTVSPropertyOp58
 70
     1
102
RTVSPropertyOp59
 70
     1
102
RTVSPropertyOp60
 70
     1
102
RTVSPropertyOp61
 70
     1
102
RTVSPropertyOp62
 70
     1
  0
XRECORD
  5
9723
102
{ACAD_REACTORS
330
9722
102
}
330
9722
100
AcDbXrecord
280
     1
102
RTVSPost2010Prop28
280
     0
102
RTVSPost2010PropOp28
 70
     1
102
RTVSPost2010Prop29
280
     1
102
RTVSPost2010PropOp29
 70
     1
102
RTVSPost2010Prop30
280
     1
102
RTVSPost2010PropOp30
 70
     1
102
RTVSPost2010Prop31
280
     0
102
RTVSPost2010PropOp31
 70
     1
102
RTVSPost2010Prop32
280
     0
102
RTVSPost2010PropOp32
 70
     1
102
RTVSPost2010Prop33
280
     0
102
RTVSPost2010PropOp33
 70
     1
102
RTVSPost2010Prop34
280
     0
102
RTVSPost2010PropOp34
 70
     1
102
RTVSPost2010Prop35
280
     0
102
RTVSPost2010PropOp35
 70
     1
102
RTVSPost2010Prop36
280
     0
102
RTVSPost2010PropOp36
 70
     1
102
RTVSPost2010Prop37
 90
       50
102
RTVSPost2010PropOp37
 70
     1
102
RTVSPost2010Prop38
140
0.0
102
RTVSPost2010PropOp38
 70
     1
102
RTVSPost2010Prop39
140
1.0
102
RTVSPost2010PropOp39
 70
     1
102
RTVSPost2010Prop40
 90
        0
102
RTVSPost2010PropOp40
 70
     1
102
RTVSPost2010Prop41ColorIndex
 90
       18
102
RTVSPost2010Prop41ColorRGB
 90
        0
102
RTVSPost2010PropOp41
 70
     1
102
RTVSPost2010Prop42
 90
       50
102
RTVSPost2010PropOp42
 70
     1
102
RTVSPost2010Prop43
 90
        3
102
RTVSPost2010PropOp43
 70
     1
102
RTVSPost2010Prop44ColorIndex
 90
        5
102
RTVSPost2010Prop44ColorRGB
 90
      255
102
RTVSPost2010PropOp44
 70
     1
102
RTVSPost2010Prop45
280
     0
102
RTVSPost2010PropOp45
 70
     1
102
RTVSPost2010Prop46
 90
       50
102
RTVSPost2010PropOp46
 70
     1
102
RTVSPost2010Prop47
 90
       50
102
RTVSPost2010PropOp47
 70
     1
102
RTVSPost2010Prop48
 90
       50
102
RTVSPost2010PropOp48
 70
     1
102
RTVSPost2010Prop49
280
     0
102
RTVSPost2010PropOp49
 70
     1
102
RTVSPost2010Prop50
 90
       50
102
RTVSPost2010PropOp50
 70
     1
102
RTVSPost2010Prop51ColorIndex
 90
      256
102
RTVSPost2010Prop51ColorRGB
 90
-16777216
102
RTVSPost2010PropOp51
 70
     0
102
RTVSPost2010Prop52
140
1.0
102
RTVSPost2010PropOp52
 70
     0
102
RTVSPost2010Prop53
 90
        2
102
RTVSPost2010PropOp53
 70
     1
102
RTVSPost2010Prop54
  1
strokes_ogs.tif
102
RTVSPost2010PropOp54
 70
     1
102
RTVSPost2010Prop55
280
     0
102
RTVSPost2010PropOp55
 70
     1
102
RTVSPost2010Prop56
140
1.0
102
RTVSPost2010PropOp56
 70
     1
102
RTVSPost2010Prop57
140
1.0
102
RTVSPost2010PropOp57
 70
     1
102
RTVSPropertyOp0
 70
     1
102
RTVSPropertyOp1
 70
     1
102
RTVSPropertyOp2
 70
     1
102
RTVSPropertyOp3
 70
     1
102
RTVSPropertyOp4
 70
     1
102
RTVSPropertyOp5
 70
     1
102
RTVSPropertyOp6
 70
     1
102
RTVSPropertyOp7
 70
     1
102
RTVSPropertyOp8
 70
     1
102
RTVSPropertyOp9
 70
     1
102
RTVSPropertyOp10
 70
     1
102
RTVSPropertyOp11
 70
     1
102
RTVSPropertyOp12
 70
     1
102
RTVSPropertyOp13
 70
     1
102
RTVSPropertyOp14
 70
     1
102
RTVSPropertyOp15
 70
     1
102
RTVSPropertyOp16
 70
     1
102
RTVSPropertyOp17
 70
     1
102
RTVSPropertyOp18
 70
     1
102
RTVSPropertyOp19
 70
     1
102
RTVSPropertyOp20
 70
     1
102
RTVSPropertyOp21
 70
     1
102
RTVSPropertyOp22
 70
     1
102
RTVSPropertyOp23
 70
     1
102
RTVSPropertyOp24
 70
     1
102
RTVSPropertyOp25
 70
     1
102
RTVSPropertyOp26
 70
     1
102
RTVSPropertyOp27
 70
     1
102
RTVSPropertyOp28
 70
     1
102
RTVSPropertyOp29
 70
     1
102
RTVSPropertyOp30
 70
     1
102
RTVSPropertyOp31
 70
     1
102
RTVSPropertyOp32
 70
     1
102
RTVSPropertyOp33
 70
     1
102
RTVSPropertyOp34
 70
     1
102
RTVSPropertyOp35
 70
     1
102
RTVSPropertyOp36
 70
     1
102
RTVSPropertyOp37
 70
     1
102
RTVSPropertyOp38
 70
     1
102
RTVSPropertyOp39
 70
     1
102
RTVSPropertyOp40
 70
     1
102
RTVSPropertyOp41
 70
     1
102
RTVSPropertyOp42
 70
     1
102
RTVSPropertyOp43
 70
     1
102
RTVSPropertyOp44
 70
     1
102
RTVSPropertyOp45
 70
     1
102
RTVSPropertyOp46
 70
     1
102
RTVSPropertyOp47
 70
     1
102
RTVSPropertyOp48
 70
     1
102
RTVSPropertyOp49
 70
     1
102
RTVSPropertyOp50
 70
     1
102
RTVSPropertyOp51
 70
     0
102
RTVSPropertyOp52
 70
     0
102
RTVSPropertyOp53
 70
     1
102
RTVSPropertyOp54
 70
     1
102
RTVSPropertyOp55
 70
     1
102
RTVSPropertyOp56
 70
     1
102
RTVSPropertyOp57
 70
     1
102
RTVSPropertyOp58
 70
     1
102
RTVSPropertyOp59
 70
     1
102
RTVSPropertyOp60
 70
     1
102
RTVSPropertyOp61
 70
     1
102
RTVSPropertyOp62
 70
     1
  0
XRECORD
  5
9725
102
{ACAD_REACTORS
330
9724
102
}
330
9724
100
AcDbXrecord
280
     1
102
RTVSPost2010Prop28
280
     0
102
RTVSPost2010PropOp28
 70
     1
102
RTVSPost2010Prop29
280
     1
102
RTVSPost2010PropOp29
 70
     1
102
RTVSPost2010Prop30
280
     1
102
RTVSPost2010PropOp30
 70
     1
102
RTVSPost2010Prop31
280
     0
102
RTVSPost2010PropOp31
 70
     1
102
RTVSPost2010Prop32
280
     0
102
RTVSPost2010PropOp32
 70
     1
102
RTVSPost2010Prop33
280
     0
102
RTVSPost2010PropOp33
 70
     1
102
RTVSPost2010Prop34
280
     0
102
RTVSPost2010PropOp34
 70
     1
102
RTVSPost2010Prop35
280
     0
102
RTVSPost2010PropOp35
 70
     1
102
RTVSPost2010Prop36
280
     0
102
RTVSPost2010PropOp36
 70
     1
102
RTVSPost2010Prop37
 90
       50
102
RTVSPost2010PropOp37
 70
     1
102
RTVSPost2010Prop38
140
0.0
102
RTVSPost2010PropOp38
 70
     1
102
RTVSPost2010Prop39
140
1.0
102
RTVSPost2010PropOp39
 70
     1
102
RTVSPost2010Prop40
 90
        0
102
RTVSPost2010PropOp40
 70
     1
102
RTVSPost2010Prop41ColorIndex
 90
       18
102
RTVSPost2010Prop41ColorRGB
 90
        0
102
RTVSPost2010PropOp41
 70
     1
102
RTVSPost2010Prop42
 90
       50
102
RTVSPost2010PropOp42
 70
     1
102
RTVSPost2010Prop43
 90
        3
102
RTVSPost2010PropOp43
 70
     1
102
RTVSPost2010Prop44ColorIndex
 90
        5
102
RTVSPost2010Prop44ColorRGB
 90
      255
102
RTVSPost2010PropOp44
 70
     1
102
RTVSPost2010Prop45
280
     0
102
RTVSPost2010PropOp45
 70
     1
102
RTVSPost2010Prop46
 90
       50
102
RTVSPost2010PropOp46
 70
     1
102
RTVSPost2010Prop47
 90
       50
102
RTVSPost2010PropOp47
 70
     1
102
RTVSPost2010Prop48
 90
       50
102
RTVSPost2010PropOp48
 70
     1
102
RTVSPost2010Prop49
280
     0
102
RTVSPost2010PropOp49
 70
     1
102
RTVSPost2010Prop50
 90
       50
102
RTVSPost2010PropOp50
 70
     1
102
RTVSPost2010Prop51ColorIndex
 90
      256
102
RTVSPost2010Prop51ColorRGB
 90
-16777216
102
RTVSPost2010PropOp51
 70
     0
102
RTVSPost2010Prop52
140
1.0
102
RTVSPost2010PropOp52
 70
     0
102
RTVSPost2010Prop53
 90
        2
102
RTVSPost2010PropOp53
 70
     1
102
RTVSPost2010Prop54
  1
strokes_ogs.tif
102
RTVSPost2010PropOp54
 70
     1
102
RTVSPost2010Prop55
280
     0
102
RTVSPost2010PropOp55
 70
     1
102
RTVSPost2010Prop56
140
1.0
102
RTVSPost2010PropOp56
 70
     1
102
RTVSPost2010Prop57
140
1.0
102
RTVSPost2010PropOp57
 70
     1
102
RTVSPropertyOp0
 70
     1
102
RTVSPropertyOp1
 70
     1
102
RTVSPropertyOp2
 70
     1
102
RTVSPropertyOp3
 70
     1
102
RTVSPropertyOp4
 70
     1
102
RTVSPropertyOp5
 70
     1
102
RTVSPropertyOp6
 70
     1
102
RTVSPropertyOp7
 70
     1
102
RTVSPropertyOp8
 70
     1
102
RTVSPropertyOp9
 70
     1
102
RTVSPropertyOp10
 70
     1
102
RTVSPropertyOp11
 70
     1
102
RTVSPropertyOp12
 70
     1
102
RTVSPropertyOp13
 70
     1
102
RTVSPropertyOp14
 70
     1
102
RTVSPropertyOp15
 70
     1
102
RTVSPropertyOp16
 70
     1
102
RTVSPropertyOp17
 70
     1
102
RTVSPropertyOp18
 70
     1
102
RTVSPropertyOp19
 70
     1
102
RTVSPropertyOp20
 70
     1
102
RTVSPropertyOp21
 70
     1
102
RTVSPropertyOp22
 70
     1
102
RTVSPropertyOp23
 70
     1
102
RTVSPropertyOp24
 70
     1
102
RTVSPropertyOp25
 70
     1
102
RTVSPropertyOp26
 70
     1
102
RTVSPropertyOp27
 70
     1
102
RTVSPropertyOp28
 70
     1
102
RTVSPropertyOp29
 70
     1
102
RTVSPropertyOp30
 70
     1
102
RTVSPropertyOp31
 70
     1
102
RTVSPropertyOp32
 70
     1
102
RTVSPropertyOp33
 70
     1
102
RTVSPropertyOp34
 70
     1
102
RTVSPropertyOp35
 70
     1
102
RTVSPropertyOp36
 70
     1
102
RTVSPropertyOp37
 70
     1
102
RTVSPropertyOp38
 70
     1
102
RTVSPropertyOp39
 70
     1
102
RTVSPropertyOp40
 70
     1
102
RTVSPropertyOp41
 70
     1
102
RTVSPropertyOp42
 70
     1
102
RTVSPropertyOp43
 70
     1
102
RTVSPropertyOp44
 70
     1
102
RTVSPropertyOp45
 70
     1
102
RTVSPropertyOp46
 70
     1
102
RTVSPropertyOp47
 70
     1
102
RTVSPropertyOp48
 70
     1
102
RTVSPropertyOp49
 70
     1
102
RTVSPropertyOp50
 70
     1
102
RTVSPropertyOp51
 70
     0
102
RTVSPropertyOp52
 70
     0
102
RTVSPropertyOp53
 70
     1
102
RTVSPropertyOp54
 70
     1
102
RTVSPropertyOp55
 70
     1
102
RTVSPropertyOp56
 70
     1
102
RTVSPropertyOp57
 70
     1
102
RTVSPropertyOp58
 70
     1
102
RTVSPropertyOp59
 70
     1
102
RTVSPropertyOp60
 70
     1
102
RTVSPropertyOp61
 70
     1
102
RTVSPropertyOp62
 70
     1
  0
XRECORD
  5
971B
102
{ACAD_REACTORS
330
971A
102
}
330
971A
100
AcDbXrecord
280
     1
102
RTVSPost2010Prop28
280
     0
102
RTVSPost2010PropOp28
 70
     1
102
RTVSPost2010Prop29
280
     1
102
RTVSPost2010PropOp29
 70
     1
102
RTVSPost2010Prop30
280
     1
102
RTVSPost2010PropOp30
 70
     1
102
RTVSPost2010Prop31
280
     0
102
RTVSPost2010PropOp31
 70
     1
102
RTVSPost2010Prop32
280
     0
102
RTVSPost2010PropOp32
 70
     1
102
RTVSPost2010Prop33
280
     0
102
RTVSPost2010PropOp33
 70
     1
102
RTVSPost2010Prop34
280
     0
102
RTVSPost2010PropOp34
 70
     1
102
RTVSPost2010Prop35
280
     0
102
RTVSPost2010PropOp35
 70
     1
102
RTVSPost2010Prop36
280
     0
102
RTVSPost2010PropOp36
 70
     1
102
RTVSPost2010Prop37
 90
       50
102
RTVSPost2010PropOp37
 70
     1
102
RTVSPost2010Prop38
140
0.0
102
RTVSPost2010PropOp38
 70
     1
102
RTVSPost2010Prop39
140
1.0
102
RTVSPost2010PropOp39
 70
     1
102
RTVSPost2010Prop40
 90
        0
102
RTVSPost2010PropOp40
 70
     1
102
RTVSPost2010Prop41ColorIndex
 90
       18
102
RTVSPost2010Prop41ColorRGB
 90
        0
102
RTVSPost2010PropOp41
 70
     1
102
RTVSPost2010Prop42
 90
       50
102
RTVSPost2010PropOp42
 70
     1
102
RTVSPost2010Prop43
 90
        3
102
RTVSPost2010PropOp43
 70
     1
102
RTVSPost2010Prop44ColorIndex
 90
        5
102
RTVSPost2010Prop44ColorRGB
 90
      255
102
RTVSPost2010PropOp44
 70
     1
102
RTVSPost2010Prop45
280
     0
102
RTVSPost2010PropOp45
 70
     1
102
RTVSPost2010Prop46
 90
       50
102
RTVSPost2010PropOp46
 70
     1
102
RTVSPost2010Prop47
 90
       50
102
RTVSPost2010PropOp47
 70
     1
102
RTVSPost2010Prop48
 90
       50
102
RTVSPost2010PropOp48
 70
     1
102
RTVSPost2010Prop49
280
     0
102
RTVSPost2010PropOp49
 70
     1
102
RTVSPost2010Prop50
 90
       50
102
RTVSPost2010PropOp50
 70
     1
102
RTVSPost2010Prop51ColorIndex
 90
      256
102
RTVSPost2010Prop51ColorRGB
 90
-16777216
102
RTVSPost2010PropOp51
 70
     0
102
RTVSPost2010Prop52
140
1.0
102
RTVSPost2010PropOp52
 70
     0
102
RTVSPost2010Prop53
 90
        2
102
RTVSPost2010PropOp53
 70
     1
102
RTVSPost2010Prop54
  1
strokes_ogs.tif
102
RTVSPost2010PropOp54
 70
     1
102
RTVSPost2010Prop55
280
     0
102
RTVSPost2010PropOp55
 70
     1
102
RTVSPost2010Prop56
140
1.0
102
RTVSPost2010PropOp56
 70
     1
102
RTVSPost2010Prop57
140
1.0
102
RTVSPost2010PropOp57
 70
     1
102
RTVSPropertyOp0
 70
     1
102
RTVSPropertyOp1
 70
     1
102
RTVSPropertyOp2
 70
     1
102
RTVSPropertyOp3
 70
     1
102
RTVSPropertyOp4
 70
     1
102
RTVSPropertyOp5
 70
     1
102
RTVSPropertyOp6
 70
     1
102
RTVSPropertyOp7
 70
     1
102
RTVSPropertyOp8
 70
     1
102
RTVSPropertyOp9
 70
     1
102
RTVSPropertyOp10
 70
     1
102
RTVSPropertyOp11
 70
     1
102
RTVSPropertyOp12
 70
     1
102
RTVSPropertyOp13
 70
     1
102
RTVSPropertyOp14
 70
     1
102
RTVSPropertyOp15
 70
     1
102
RTVSPropertyOp16
 70
     1
102
RTVSPropertyOp17
 70
     1
102
RTVSPropertyOp18
 70
     1
102
RTVSPropertyOp19
 70
     1
102
RTVSPropertyOp20
 70
     1
102
RTVSPropertyOp21
 70
     1
102
RTVSPropertyOp22
 70
     1
102
RTVSPropertyOp23
 70
     1
102
RTVSPropertyOp24
 70
     1
102
RTVSPropertyOp25
 70
     1
102
RTVSPropertyOp26
 70
     1
102
RTVSPropertyOp27
 70
     1
102
RTVSPropertyOp28
 70
     1
102
RTVSPropertyOp29
 70
     1
102
RTVSPropertyOp30
 70
     1
102
RTVSPropertyOp31
 70
     1
102
RTVSPropertyOp32
 70
     1
102
RTVSPropertyOp33
 70
     1
102
RTVSPropertyOp34
 70
     1
102
RTVSPropertyOp35
 70
     1
102
RTVSPropertyOp36
 70
     1
102
RTVSPropertyOp37
 70
     1
102
RTVSPropertyOp38
 70
     1
102
RTVSPropertyOp39
 70
     1
102
RTVSPropertyOp40
 70
     1
102
RTVSPropertyOp41
 70
     1
102
RTVSPropertyOp42
 70
     1
102
RTVSPropertyOp43
 70
     1
102
RTVSPropertyOp44
 70
     1
102
RTVSPropertyOp45
 70
     1
102
RTVSPropertyOp46
 70
     1
102
RTVSPropertyOp47
 70
     1
102
RTVSPropertyOp48
 70
     1
102
RTVSPropertyOp49
 70
     1
102
RTVSPropertyOp50
 70
     1
102
RTVSPropertyOp51
 70
     0
102
RTVSPropertyOp52
 70
     0
102
RTVSPropertyOp53
 70
     1
102
RTVSPropertyOp54
 70
     1
102
RTVSPropertyOp55
 70
     1
102
RTVSPropertyOp56
 70
     1
102
RTVSPropertyOp57
 70
     1
102
RTVSPropertyOp58
 70
     1
102
RTVSPropertyOp59
 70
     1
102
RTVSPropertyOp60
 70
     1
102
RTVSPropertyOp61
 70
     1
102
RTVSPropertyOp62
 70
     1
  0
XRECORD
  5
970F
102
{ACAD_REACTORS
330
970E
102
}
330
970E
100
AcDbXrecord
280
     1
102
RTVSPost2010Prop28
280
     0
102
RTVSPost2010PropOp28
 70
     1
102
RTVSPost2010Prop29
280
     1
102
RTVSPost2010PropOp29
 70
     1
102
RTVSPost2010Prop30
280
     1
102
RTVSPost2010PropOp30
 70
     1
102
RTVSPost2010Prop31
280
     0
102
RTVSPost2010PropOp31
 70
     1
102
RTVSPost2010Prop32
280
     0
102
RTVSPost2010PropOp32
 70
     1
102
RTVSPost2010Prop33
280
     0
102
RTVSPost2010PropOp33
 70
     1
102
RTVSPost2010Prop34
280
     0
102
RTVSPost2010PropOp34
 70
     1
102
RTVSPost2010Prop35
280
     0
102
RTVSPost2010PropOp35
 70
     1
102
RTVSPost2010Prop36
280
     0
102
RTVSPost2010PropOp36
 70
     1
102
RTVSPost2010Prop37
 90
       50
102
RTVSPost2010PropOp37
 70
     1
102
RTVSPost2010Prop38
140
0.0
102
RTVSPost2010PropOp38
 70
     1
102
RTVSPost2010Prop39
140
1.0
102
RTVSPost2010PropOp39
 70
     1
102
RTVSPost2010Prop40
 90
        0
102
RTVSPost2010PropOp40
 70
     1
102
RTVSPost2010Prop41ColorIndex
 90
       18
102
RTVSPost2010Prop41ColorRGB
 90
        0
102
RTVSPost2010PropOp41
 70
     1
102
RTVSPost2010Prop42
 90
       50
102
RTVSPost2010PropOp42
 70
     1
102
RTVSPost2010Prop43
 90
        3
102
RTVSPost2010PropOp43
 70
     1
102
RTVSPost2010Prop44ColorIndex
 90
        5
102
RTVSPost2010Prop44ColorRGB
 90
      255
102
RTVSPost2010PropOp44
 70
     1
102
RTVSPost2010Prop45
280
     0
102
RTVSPost2010PropOp45
 70
     1
102
RTVSPost2010Prop46
 90
       50
102
RTVSPost2010PropOp46
 70
     1
102
RTVSPost2010Prop47
 90
       50
102
RTVSPost2010PropOp47
 70
     1
102
RTVSPost2010Prop48
 90
       50
102
RTVSPost2010PropOp48
 70
     1
102
RTVSPost2010Prop49
280
     0
102
RTVSPost2010PropOp49
 70
     1
102
RTVSPost2010Prop50
 90
       50
102
RTVSPost2010PropOp50
 70
     1
102
RTVSPost2010Prop51ColorIndex
 90
      256
102
RTVSPost2010Prop51ColorRGB
 90
-16777216
102
RTVSPost2010PropOp51
 70
     0
102
RTVSPost2010Prop52
140
1.0
102
RTVSPost2010PropOp52
 70
     0
102
RTVSPost2010Prop53
 90
        2
102
RTVSPost2010PropOp53
 70
     1
102
RTVSPost2010Prop54
  1
strokes_ogs.tif
102
RTVSPost2010PropOp54
 70
     1
102
RTVSPost2010Prop55
280
     0
102
RTVSPost2010PropOp55
 70
     1
102
RTVSPost2010Prop56
140
1.0
102
RTVSPost2010PropOp56
 70
     1
102
RTVSPost2010Prop57
140
1.0
102
RTVSPost2010PropOp57
 70
     1
102
RTVSPropertyOp0
 70
     1
102
RTVSPropertyOp1
 70
     1
102
RTVSPropertyOp2
 70
     1
102
RTVSPropertyOp3
 70
     1
102
RTVSPropertyOp4
 70
     1
102
RTVSPropertyOp5
 70
     1
102
RTVSPropertyOp6
 70
     1
102
RTVSPropertyOp7
 70
     1
102
RTVSPropertyOp8
 70
     1
102
RTVSPropertyOp9
 70
     1
102
RTVSPropertyOp10
 70
     1
102
RTVSPropertyOp11
 70
     1
102
RTVSPropertyOp12
 70
     1
102
RTVSPropertyOp13
 70
     1
102
RTVSPropertyOp14
 70
     1
102
RTVSPropertyOp15
 70
     1
102
RTVSPropertyOp16
 70
     1
102
RTVSPropertyOp17
 70
     1
102
RTVSPropertyOp18
 70
     1
102
RTVSPropertyOp19
 70
     1
102
RTVSPropertyOp20
 70
     1
102
RTVSPropertyOp21
 70
     1
102
RTVSPropertyOp22
 70
     1
102
RTVSPropertyOp23
 70
     1
102
RTVSPropertyOp24
 70
     1
102
RTVSPropertyOp25
 70
     1
102
RTVSPropertyOp26
 70
     1
102
RTVSPropertyOp27
 70
     1
102
RTVSPropertyOp28
 70
     1
102
RTVSPropertyOp29
 70
     1
102
RTVSPropertyOp30
 70
     1
102
RTVSPropertyOp31
 70
     1
102
RTVSPropertyOp32
 70
     1
102
RTVSPropertyOp33
 70
     1
102
RTVSPropertyOp34
 70
     1
102
RTVSPropertyOp35
 70
     1
102
RTVSPropertyOp36
 70
     1
102
RTVSPropertyOp37
 70
     1
102
RTVSPropertyOp38
 70
     1
102
RTVSPropertyOp39
 70
     1
102
RTVSPropertyOp40
 70
     1
102
RTVSPropertyOp41
 70
     1
102
RTVSPropertyOp42
 70
     1
102
RTVSPropertyOp43
 70
     1
102
RTVSPropertyOp44
 70
     1
102
RTVSPropertyOp45
 70
     1
102
RTVSPropertyOp46
 70
     1
102
RTVSPropertyOp47
 70
     1
102
RTVSPropertyOp48
 70
     1
102
RTVSPropertyOp49
 70
     1
102
RTVSPropertyOp50
 70
     1
102
RTVSPropertyOp51
 70
     0
102
RTVSPropertyOp52
 70
     0
102
RTVSPropertyOp53
 70
     1
102
RTVSPropertyOp54
 70
     1
102
RTVSPropertyOp55
 70
     1
102
RTVSPropertyOp56
 70
     1
102
RTVSPropertyOp57
 70
     1
102
RTVSPropertyOp58
 70
     1
102
RTVSPropertyOp59
 70
     1
102
RTVSPropertyOp60
 70
     1
102
RTVSPropertyOp61
 70
     1
102
RTVSPropertyOp62
 70
     1
  0
XRECORD
  5
9727
102
{ACAD_REACTORS
330
9726
102
}
330
9726
100
AcDbXrecord
280
     1
102
RTVSPost2010Prop28
280
     0
102
RTVSPost2010PropOp28
 70
     1
102
RTVSPost2010Prop29
280
     1
102
RTVSPost2010PropOp29
 70
     1
102
RTVSPost2010Prop30
280
     1
102
RTVSPost2010PropOp30
 70
     1
102
RTVSPost2010Prop31
280
     0
102
RTVSPost2010PropOp31
 70
     1
102
RTVSPost2010Prop32
280
     0
102
RTVSPost2010PropOp32
 70
     1
102
RTVSPost2010Prop33
280
     0
102
RTVSPost2010PropOp33
 70
     1
102
RTVSPost2010Prop34
280
     0
102
RTVSPost2010PropOp34
 70
     1
102
RTVSPost2010Prop35
280
     0
102
RTVSPost2010PropOp35
 70
     1
102
RTVSPost2010Prop36
280
     0
102
RTVSPost2010PropOp36
 70
     1
102
RTVSPost2010Prop37
 90
       50
102
RTVSPost2010PropOp37
 70
     1
102
RTVSPost2010Prop38
140
0.0
102
RTVSPost2010PropOp38
 70
     1
102
RTVSPost2010Prop39
140
1.0
102
RTVSPost2010PropOp39
 70
     1
102
RTVSPost2010Prop40
 90
        0
102
RTVSPost2010PropOp40
 70
     1
102
RTVSPost2010Prop41ColorIndex
 90
       18
102
RTVSPost2010Prop41ColorRGB
 90
        0
102
RTVSPost2010PropOp41
 70
     1
102
RTVSPost2010Prop42
 90
       50
102
RTVSPost2010PropOp42
 70
     1
102
RTVSPost2010Prop43
 90
        3
102
RTVSPost2010PropOp43
 70
     1
102
RTVSPost2010Prop44ColorIndex
 90
        5
102
RTVSPost2010Prop44ColorRGB
 90
      255
102
RTVSPost2010PropOp44
 70
     1
102
RTVSPost2010Prop45
280
     0
102
RTVSPost2010PropOp45
 70
     1
102
RTVSPost2010Prop46
 90
       50
102
RTVSPost2010PropOp46
 70
     1
102
RTVSPost2010Prop47
 90
       50
102
RTVSPost2010PropOp47
 70
     1
102
RTVSPost2010Prop48
 90
       50
102
RTVSPost2010PropOp48
 70
     1
102
RTVSPost2010Prop49
280
     0
102
RTVSPost2010PropOp49
 70
     1
102
RTVSPost2010Prop50
 90
       50
102
RTVSPost2010PropOp50
 70
     1
102
RTVSPost2010Prop51ColorIndex
 90
      256
102
RTVSPost2010Prop51ColorRGB
 90
-16777216
102
RTVSPost2010PropOp51
 70
     0
102
RTVSPost2010Prop52
140
1.0
102
RTVSPost2010PropOp52
 70
     0
102
RTVSPost2010Prop53
 90
        2
102
RTVSPost2010PropOp53
 70
     1
102
RTVSPost2010Prop54
  1
strokes_ogs.tif
102
RTVSPost2010PropOp54
 70
     1
102
RTVSPost2010Prop55
280
     0
102
RTVSPost2010PropOp55
 70
     1
102
RTVSPost2010Prop56
140
1.0
102
RTVSPost2010PropOp56
 70
     1
102
RTVSPost2010Prop57
140
1.0
102
RTVSPost2010PropOp57
 70
     1
102
RTVSPropertyOp0
 70
     1
102
RTVSPropertyOp1
 70
     1
102
RTVSPropertyOp2
 70
     1
102
RTVSPropertyOp3
 70
     1
102
RTVSPropertyOp4
 70
     1
102
RTVSPropertyOp5
 70
     1
102
RTVSPropertyOp6
 70
     1
102
RTVSPropertyOp7
 70
     1
102
RTVSPropertyOp8
 70
     1
102
RTVSPropertyOp9
 70
     1
102
RTVSPropertyOp10
 70
     1
102
RTVSPropertyOp11
 70
     1
102
RTVSPropertyOp12
 70
     1
102
RTVSPropertyOp13
 70
     1
102
RTVSPropertyOp14
 70
     1
102
RTVSPropertyOp15
 70
     1
102
RTVSPropertyOp16
 70
     1
102
RTVSPropertyOp17
 70
     1
102
RTVSPropertyOp18
 70
     1
102
RTVSPropertyOp19
 70
     1
102
RTVSPropertyOp20
 70
     1
102
RTVSPropertyOp21
 70
     1
102
RTVSPropertyOp22
 70
     1
102
RTVSPropertyOp23
 70
     1
102
RTVSPropertyOp24
 70
     1
102
RTVSPropertyOp25
 70
     1
102
RTVSPropertyOp26
 70
     1
102
RTVSPropertyOp27
 70
     1
102
RTVSPropertyOp28
 70
     1
102
RTVSPropertyOp29
 70
     1
102
RTVSPropertyOp30
 70
     1
102
RTVSPropertyOp31
 70
     1
102
RTVSPropertyOp32
 70
     1
102
RTVSPropertyOp33
 70
     1
102
RTVSPropertyOp34
 70
     1
102
RTVSPropertyOp35
 70
     1
102
RTVSPropertyOp36
 70
     1
102
RTVSPropertyOp37
 70
     1
102
RTVSPropertyOp38
 70
     1
102
RTVSPropertyOp39
 70
     1
102
RTVSPropertyOp40
 70
     1
102
RTVSPropertyOp41
 70
     1
102
RTVSPropertyOp42
 70
     1
102
RTVSPropertyOp43
 70
     1
102
RTVSPropertyOp44
 70
     1
102
RTVSPropertyOp45
 70
     1
102
RTVSPropertyOp46
 70
     1
102
RTVSPropertyOp47
 70
     1
102
RTVSPropertyOp48
 70
     1
102
RTVSPropertyOp49
 70
     1
102
RTVSPropertyOp50
 70
     1
102
RTVSPropertyOp51
 70
     0
102
RTVSPropertyOp52
 70
     0
102
RTVSPropertyOp53
 70
     1
102
RTVSPropertyOp54
 70
     1
102
RTVSPropertyOp55
 70
     1
102
RTVSPropertyOp56
 70
     1
102
RTVSPropertyOp57
 70
     1
102
RTVSPropertyOp58
 70
     1
102
RTVSPropertyOp59
 70
     1
102
RTVSPropertyOp60
 70
     1
102
RTVSPropertyOp61
 70
     1
102
RTVSPropertyOp62
 70
     1
  0
ENDSEC
  0
EOF
