ISO-10303-21;
HEADER;
/****************************************************************
 * Generated by software with PDE/Lib inside                    *
 * PDElib Version 4.4.1-0003, patched  Thursday August 19 11:58 *
 * International Technegroup Inc. (www.iti-oh.com)              *
 ****************************************************************/
FILE_DESCRIPTION((''),'2;1');
FILE_NAME('','2005-07-15T17:37:50',(''),(''),'','CADfix','');
FILE_SCHEMA(('AUTOMOTIVE_DESIGN'));
ENDSEC;
DATA;
#5=APPLICATION_CONTEXT('automotive design');
#6=APPLICATION_PROTOCOL_DEFINITION('Draft International Standard','automotive_design',1998,#5);
#7=PRODUCT_CONTEXT('None',#5,'mechanical');
#8=PRODUCT('cam','','None',(#7));
#9=PRODUCT_RELATED_PRODUCT_CATEGORY('part','description',(#8));
#10=PRODUCT_DEFINITION_FORMATION('None','None',#8);
#11=PRODUCT_DEFINITION_CONTEXT('part definition',#5,'design');
#12=PRODUCT_DEFINITION('None','None',#10,#11);
#18=(NAMED_UNIT(*)PLANE_ANGLE_UNIT()SI_UNIT($,.RADIAN.));
#19=DIMENSIONAL_EXPONENTS(0.0,0.0,0.0,0.0,0.0,0.0,0.0);
#20=PLANE_ANGLE_MEASURE_WITH_UNIT(PLANE_ANGLE_MEASURE(0.017453292500000),#18);
#24=(CONVERSION_BASED_UNIT('DEGREE',#20)NAMED_UNIT(#19)PLANE_ANGLE_UNIT());
#28=(NAMED_UNIT(*)SI_UNIT($,.STERADIAN.)SOLID_ANGLE_UNIT());
#32=(LENGTH_UNIT()NAMED_UNIT(*)SI_UNIT(.MILLI.,.METRE.));
#34=UNCERTAINTY_MEASURE_WITH_UNIT(LENGTH_MEASURE(0.001000000000000),#32,'DISTANCE_ACCURACY_VALUE','');
#36=(GEOMETRIC_REPRESENTATION_CONTEXT(3)GLOBAL_UNCERTAINTY_ASSIGNED_CONTEXT((#34))GLOBAL_UNIT_ASSIGNED_CONTEXT((#24,#28,#32))REPRESENTATION_CONTEXT('None','None'));
#37=AXIS2_PLACEMENT_3D('',#38,#39,#40);
#38=CARTESIAN_POINT('',(0.0,0.0,0.0));
#39=DIRECTION('',(0.0,0.0,1.0));
#40=DIRECTION('',(1.0,0.0,0.0));
#41=ADVANCED_BREP_SHAPE_REPRESENTATION('',(#37,#421),#36);
#42=PRODUCT_DEFINITION_SHAPE('','',#12);
#43=SHAPE_DEFINITION_REPRESENTATION(#42,#41);
#44=CARTESIAN_POINT('',(-36.622874917626753,0.0,10.449049963174311));
#45=CARTESIAN_POINT('',(10.122876057565581,0.0,10.449049963174311));
#46=CARTESIAN_POINT('',(-36.622874917626753,0.0,-10.449050472794029));
#47=CARTESIAN_POINT('',(10.122876057565581,0.0,-10.449050472794029));
#48=B_SPLINE_SURFACE_WITH_KNOTS('',1,1,((#44,#46),(#45,#47)),.UNSPECIFIED.,.F.,.F.,.U.,(2,2),(2,2),(0.0,46.745750975192337),(0.0,20.898100435968342),.UNSPECIFIED.);
#49=CARTESIAN_POINT('',(-29.045268253204700,0.0,9.500000000000000));
#50=VERTEX_POINT('',#49);
#51=CARTESIAN_POINT('',(-29.045268253204700,0.0,-9.500000000000000));
#52=VERTEX_POINT('',#51);
#53=CARTESIAN_POINT('',(-29.045268253204700,0.0,9.500000000000005));
#54=CARTESIAN_POINT('',(-34.500000000000000,0.0,6.316005180499818));
#55=CARTESIAN_POINT('',(-34.500000000000000,0.0,0.0));
#56=CARTESIAN_POINT('',(-34.500000000000000,0.0,-6.316005180499817));
#57=CARTESIAN_POINT('',(-29.045268253204700,0.0,-9.500000000000004));
#65=(BOUNDED_CURVE()B_SPLINE_CURVE(2,(#53,#54,#55,#56,#57),.UNSPECIFIED.,.F.,.U.)B_SPLINE_CURVE_WITH_KNOTS((3,2,3),(0.0,0.500000000000000,1.0),.UNSPECIFIED.)CURVE()GEOMETRIC_REPRESENTATION_ITEM()RATIONAL_B_SPLINE_CURVE((1.0,0.867212573636326,1.0,0.867212573636326,1.0))REPRESENTATION_ITEM(''));
#66=EDGE_CURVE('',#50,#52,#65,.T.);
#67=ORIENTED_EDGE('',*,*,#66,.F.);
#68=CARTESIAN_POINT('',(2.545268253204705,0.0,9.500000000000000));
#69=VERTEX_POINT('',#68);
#70=CARTESIAN_POINT('',(2.545268253204705,0.0,9.500000000000000));
#71=CARTESIAN_POINT('',(-29.045268253204700,0.0,9.500000000000000));
#72=QUASI_UNIFORM_CURVE('',1,(#70,#71),.UNSPECIFIED.,.F.,.U.);
#73=EDGE_CURVE('',#69,#50,#72,.T.);
#74=ORIENTED_EDGE('',*,*,#73,.F.);
#75=CARTESIAN_POINT('',(2.545268253204715,0.0,-9.500000000000000));
#76=VERTEX_POINT('',#75);
#77=CARTESIAN_POINT('',(2.545268253204712,0.0,-9.499999999999996));
#78=CARTESIAN_POINT('',(8.0,0.0,-6.316005180499807));
#79=CARTESIAN_POINT('',(8.0,0.0,0.0));
#80=CARTESIAN_POINT('',(8.0,0.0,6.316005180499810));
#81=CARTESIAN_POINT('',(2.545268253204710,0.0,9.499999999999998));
#89=(BOUNDED_CURVE()B_SPLINE_CURVE(2,(#77,#78,#79,#80,#81),.UNSPECIFIED.,.F.,.U.)B_SPLINE_CURVE_WITH_KNOTS((3,2,3),(0.0,0.500000000000000,1.0),.UNSPECIFIED.)CURVE()GEOMETRIC_REPRESENTATION_ITEM()RATIONAL_B_SPLINE_CURVE((1.0,0.867212573636327,1.0,0.867212573636327,1.0))REPRESENTATION_ITEM(''));
#90=EDGE_CURVE('',#76,#69,#89,.T.);
#91=ORIENTED_EDGE('',*,*,#90,.F.);
#92=CARTESIAN_POINT('',(-29.045268253204700,0.0,-9.500000000000000));
#93=CARTESIAN_POINT('',(2.545268253204715,0.0,-9.500000000000000));
#94=QUASI_UNIFORM_CURVE('',1,(#92,#93),.UNSPECIFIED.,.F.,.U.);
#95=EDGE_CURVE('',#52,#76,#94,.T.);
#96=ORIENTED_EDGE('',*,*,#95,.F.);
#97=EDGE_LOOP('',(#67,#74,#91,#96));
#98=FACE_OUTER_BOUND('',#97,.T.);
#99=CARTESIAN_POINT('',(2.750000000000000,0.0,-2.323252031097800));
#100=VERTEX_POINT('',#99);
#101=CARTESIAN_POINT('',(2.750000000000000,0.0,2.323252031097800));
#102=VERTEX_POINT('',#101);
#103=CARTESIAN_POINT('',(2.750000000000000,0.0,-2.323252031097800));
#104=CARTESIAN_POINT('',(2.750000000000000,0.0,2.323252031097800));
#105=QUASI_UNIFORM_CURVE('',1,(#103,#104),.UNSPECIFIED.,.F.,.U.);
#106=EDGE_CURVE('',#100,#102,#105,.T.);
#107=ORIENTED_EDGE('',*,*,#106,.T.);
#108=CARTESIAN_POINT('',(-2.750000000000000,0.0,2.323252031097775));
#109=VERTEX_POINT('',#108);
#110=CARTESIAN_POINT('',(2.750000000000000,0.0,2.323252031097800));
#111=CARTESIAN_POINT('',(1.671379159290163,0.0,3.600000000000000));
#112=CARTESIAN_POINT('',(0.0,0.0,3.600000000000000));
#113=CARTESIAN_POINT('',(-1.671379159290174,0.0,3.600000000000000));
#114=CARTESIAN_POINT('',(-2.750000000000006,0.0,2.323252031097781));
#122=(BOUNDED_CURVE()B_SPLINE_CURVE(2,(#110,#111,#112,#113,#114),.UNSPECIFIED.,.F.,.U.)B_SPLINE_CURVE_WITH_KNOTS((3,2,3),(0.0,0.500000000000000,1.0),.UNSPECIFIED.)CURVE()GEOMETRIC_REPRESENTATION_ITEM()RATIONAL_B_SPLINE_CURVE((1.0,0.907013722723106,1.0,0.907013722723106,1.0))REPRESENTATION_ITEM(''));
#123=EDGE_CURVE('',#102,#109,#122,.T.);
#124=ORIENTED_EDGE('',*,*,#123,.T.);
#125=CARTESIAN_POINT('',(-2.750000000000000,0.0,-2.323252031097775));
#126=VERTEX_POINT('',#125);
#127=CARTESIAN_POINT('',(-2.750000000000000,0.0,2.323252031097775));
#128=CARTESIAN_POINT('',(-2.750000000000000,0.0,-2.323252031097775));
#129=QUASI_UNIFORM_CURVE('',1,(#127,#128),.UNSPECIFIED.,.F.,.U.);
#130=EDGE_CURVE('',#109,#126,#129,.T.);
#131=ORIENTED_EDGE('',*,*,#130,.T.);
#132=CARTESIAN_POINT('',(-2.750000000000007,0.0,-2.323252031097780));
#133=CARTESIAN_POINT('',(-1.671379159290174,0.0,-3.600000000000000));
#134=CARTESIAN_POINT('',(0.0,0.0,-3.600000000000000));
#135=CARTESIAN_POINT('',(1.671379159290162,0.0,-3.600000000000000));
#136=CARTESIAN_POINT('',(2.749999999999994,0.0,-2.323252031097796));
#144=(BOUNDED_CURVE()B_SPLINE_CURVE(2,(#132,#133,#134,#135,#136),.UNSPECIFIED.,.F.,.U.)B_SPLINE_CURVE_WITH_KNOTS((3,2,3),(0.0,0.500000000000000,1.0),.UNSPECIFIED.)CURVE()GEOMETRIC_REPRESENTATION_ITEM()RATIONAL_B_SPLINE_CURVE((1.0,0.907013722723105,1.0,0.907013722723105,1.0))REPRESENTATION_ITEM(''));
#145=EDGE_CURVE('',#126,#100,#144,.T.);
#146=ORIENTED_EDGE('',*,*,#145,.T.);
#147=EDGE_LOOP('',(#107,#124,#131,#146));
#148=FACE_BOUND('',#147,.T.);
#149=ADVANCED_FACE('',(#98,#148),#48,.T.);
#150=CARTESIAN_POINT('',(-36.622874917626753,-2.300000000000095,10.449049963174311));
#151=CARTESIAN_POINT('',(10.122876057565581,-2.300000000000095,10.449049963174311));
#152=CARTESIAN_POINT('',(-36.622874917626753,-2.300000000000095,-10.449050472794029));
#153=CARTESIAN_POINT('',(10.122876057565581,-2.300000000000095,-10.449050472794029));
#154=B_SPLINE_SURFACE_WITH_KNOTS('',1,1,((#150,#152),(#151,#153)),.UNSPECIFIED.,.F.,.F.,.U.,(2,2),(2,2),(0.0,46.745750975192337),(0.0,20.898100435968342),.UNSPECIFIED.);
#155=CARTESIAN_POINT('',(-29.045268253204700,-2.300000000000080,9.500000000000000));
#156=VERTEX_POINT('',#155);
#157=CARTESIAN_POINT('',(-29.045268253204700,-2.300000000000080,-9.500000000000000));
#158=VERTEX_POINT('',#157);
#159=CARTESIAN_POINT('',(-29.045268253204700,-2.300000000000080,9.500000000000005));
#160=CARTESIAN_POINT('',(-34.500000000000000,-2.300000000000080,6.316005180499818));
#161=CARTESIAN_POINT('',(-34.500000000000000,-2.300000000000080,0.0));
#162=CARTESIAN_POINT('',(-34.500000000000000,-2.300000000000080,-6.316005180499817));
#163=CARTESIAN_POINT('',(-29.045268253204700,-2.300000000000080,-9.500000000000004));
#171=(BOUNDED_CURVE()B_SPLINE_CURVE(2,(#159,#160,#161,#162,#163),.UNSPECIFIED.,.F.,.U.)B_SPLINE_CURVE_WITH_KNOTS((3,2,3),(0.0,0.500000000000000,1.0),.UNSPECIFIED.)CURVE()GEOMETRIC_REPRESENTATION_ITEM()RATIONAL_B_SPLINE_CURVE((1.0,0.867212573636326,1.0,0.867212573636326,1.0))REPRESENTATION_ITEM(''));
#172=EDGE_CURVE('',#156,#158,#171,.T.);
#173=ORIENTED_EDGE('',*,*,#172,.T.);
#174=CARTESIAN_POINT('',(2.545268253204715,-2.300000000000080,-9.500000000000000));
#175=VERTEX_POINT('',#174);
#176=CARTESIAN_POINT('',(-29.045268253204700,-2.300000000000080,-9.500000000000000));
#177=CARTESIAN_POINT('',(2.545268253204715,-2.300000000000080,-9.500000000000000));
#178=QUASI_UNIFORM_CURVE('',1,(#176,#177),.UNSPECIFIED.,.F.,.U.);
#179=EDGE_CURVE('',#158,#175,#178,.T.);
#180=ORIENTED_EDGE('',*,*,#179,.T.);
#181=CARTESIAN_POINT('',(2.545268253204705,-2.300000000000080,9.500000000000000));
#182=VERTEX_POINT('',#181);
#183=CARTESIAN_POINT('',(2.545268253204712,-2.300000000000080,-9.499999999999996));
#184=CARTESIAN_POINT('',(8.0,-2.300000000000080,-6.316005180499807));
#185=CARTESIAN_POINT('',(8.0,-2.300000000000080,0.0));
#186=CARTESIAN_POINT('',(8.0,-2.300000000000080,6.316005180499810));
#187=CARTESIAN_POINT('',(2.545268253204710,-2.300000000000080,9.499999999999998));
#195=(BOUNDED_CURVE()B_SPLINE_CURVE(2,(#183,#184,#185,#186,#187),.UNSPECIFIED.,.F.,.U.)B_SPLINE_CURVE_WITH_KNOTS((3,2,3),(0.0,0.500000000000000,1.0),.UNSPECIFIED.)CURVE()GEOMETRIC_REPRESENTATION_ITEM()RATIONAL_B_SPLINE_CURVE((1.0,0.867212573636327,1.0,0.867212573636327,1.0))REPRESENTATION_ITEM(''));
#196=EDGE_CURVE('',#175,#182,#195,.T.);
#197=ORIENTED_EDGE('',*,*,#196,.T.);
#198=CARTESIAN_POINT('',(2.545268253204705,-2.300000000000080,9.500000000000000));
#199=CARTESIAN_POINT('',(-29.045268253204700,-2.300000000000080,9.500000000000000));
#200=QUASI_UNIFORM_CURVE('',1,(#198,#199),.UNSPECIFIED.,.F.,.U.);
#201=EDGE_CURVE('',#182,#156,#200,.T.);
#202=ORIENTED_EDGE('',*,*,#201,.T.);
#203=EDGE_LOOP('',(#173,#180,#197,#202));
#204=FACE_OUTER_BOUND('',#203,.T.);
#205=CARTESIAN_POINT('',(2.750000000000000,-2.300000000000080,-2.323252031097800));
#206=VERTEX_POINT('',#205);
#207=CARTESIAN_POINT('',(2.750000000000000,-2.300000000000080,2.323252031097800));
#208=VERTEX_POINT('',#207);
#209=CARTESIAN_POINT('',(2.750000000000000,-2.300000000000080,-2.323252031097800));
#210=CARTESIAN_POINT('',(2.750000000000000,-2.300000000000080,2.323252031097800));
#211=QUASI_UNIFORM_CURVE('',1,(#209,#210),.UNSPECIFIED.,.F.,.U.);
#212=EDGE_CURVE('',#206,#208,#211,.T.);
#213=ORIENTED_EDGE('',*,*,#212,.F.);
#214=CARTESIAN_POINT('',(-2.750000000000000,-2.300000000000080,-2.323252031097775));
#215=VERTEX_POINT('',#214);
#216=CARTESIAN_POINT('',(-2.750000000000007,-2.300000000000080,-2.323252031097780));
#217=CARTESIAN_POINT('',(-1.671379159290174,-2.300000000000079,-3.600000000000000));
#218=CARTESIAN_POINT('',(0.0,-2.300000000000080,-3.600000000000000));
#219=CARTESIAN_POINT('',(1.671379159290162,-2.300000000000079,-3.600000000000000));
#220=CARTESIAN_POINT('',(2.749999999999994,-2.300000000000080,-2.323252031097796));
#228=(BOUNDED_CURVE()B_SPLINE_CURVE(2,(#216,#217,#218,#219,#220),.UNSPECIFIED.,.F.,.U.)B_SPLINE_CURVE_WITH_KNOTS((3,2,3),(0.0,0.500000000000000,1.0),.UNSPECIFIED.)CURVE()GEOMETRIC_REPRESENTATION_ITEM()RATIONAL_B_SPLINE_CURVE((1.0,0.907013722723105,1.0,0.907013722723105,1.0))REPRESENTATION_ITEM(''));
#229=EDGE_CURVE('',#215,#206,#228,.T.);
#230=ORIENTED_EDGE('',*,*,#229,.F.);
#231=CARTESIAN_POINT('',(-2.750000000000000,-2.300000000000080,2.323252031097775));
#232=VERTEX_POINT('',#231);
#233=CARTESIAN_POINT('',(-2.750000000000000,-2.300000000000080,2.323252031097775));
#234=CARTESIAN_POINT('',(-2.750000000000000,-2.300000000000080,-2.323252031097775));
#235=QUASI_UNIFORM_CURVE('',1,(#233,#234),.UNSPECIFIED.,.F.,.U.);
#236=EDGE_CURVE('',#232,#215,#235,.T.);
#237=ORIENTED_EDGE('',*,*,#236,.F.);
#238=CARTESIAN_POINT('',(2.749999999999995,-2.300000000000080,2.323252031097795));
#239=CARTESIAN_POINT('',(1.671379159290163,-2.300000000000080,3.600000000000000));
#240=CARTESIAN_POINT('',(0.0,-2.300000000000080,3.600000000000000));
#241=CARTESIAN_POINT('',(-1.671379159290174,-2.300000000000080,3.600000000000000));
#242=CARTESIAN_POINT('',(-2.750000000000006,-2.300000000000080,2.323252031097781));
#250=(BOUNDED_CURVE()B_SPLINE_CURVE(2,(#238,#239,#240,#241,#242),.UNSPECIFIED.,.F.,.U.)B_SPLINE_CURVE_WITH_KNOTS((3,2,3),(0.0,0.500000000000000,1.0),.UNSPECIFIED.)CURVE()GEOMETRIC_REPRESENTATION_ITEM()RATIONAL_B_SPLINE_CURVE((1.0,0.907013722723106,1.0,0.907013722723106,1.0))REPRESENTATION_ITEM(''));
#251=EDGE_CURVE('',#208,#232,#250,.T.);
#252=ORIENTED_EDGE('',*,*,#251,.F.);
#253=EDGE_LOOP('',(#213,#230,#237,#252));
#254=FACE_BOUND('',#253,.T.);
#255=ADVANCED_FACE('',(#204,#254),#154,.F.);
#256=CARTESIAN_POINT('',(4.123215490471267,-2.414884952360729,9.500000000000000));
#257=CARTESIAN_POINT('',(-30.623216337795480,-2.414884952360729,9.500000000000000));
#258=CARTESIAN_POINT('',(4.123215490471267,0.114885055178661,9.500000000000000));
#259=CARTESIAN_POINT('',(-30.623216337795480,0.114885055178661,9.500000000000000));
#260=B_SPLINE_SURFACE_WITH_KNOTS('',1,1,((#256,#258),(#257,#259)),.UNSPECIFIED.,.F.,.F.,.U.,(2,2),(2,2),(0.0,34.746431828266751),(0.0,2.529770007539390),.UNSPECIFIED.);
#261=ORIENTED_EDGE('',*,*,#73,.T.);
#262=CARTESIAN_POINT('',(-29.045268253204700,-2.300000000000080,9.500000000000000));
#263=CARTESIAN_POINT('',(-29.045268253204700,0.0,9.500000000000000));
#264=QUASI_UNIFORM_CURVE('',1,(#262,#263),.UNSPECIFIED.,.F.,.U.);
#265=EDGE_CURVE('',#156,#50,#264,.T.);
#266=ORIENTED_EDGE('',*,*,#265,.F.);
#267=ORIENTED_EDGE('',*,*,#201,.F.);
#268=CARTESIAN_POINT('',(2.545268253204705,-2.300000000000080,9.500000000000000));
#269=CARTESIAN_POINT('',(2.545268253204705,0.0,9.500000000000000));
#270=QUASI_UNIFORM_CURVE('',1,(#268,#269),.UNSPECIFIED.,.F.,.U.);
#271=EDGE_CURVE('',#182,#69,#270,.T.);
#272=ORIENTED_EDGE('',*,*,#271,.T.);
#273=EDGE_LOOP('',(#261,#266,#267,#272));
#274=FACE_OUTER_BOUND('',#273,.T.);
#275=ADVANCED_FACE('',(#274),#260,.F.);
#276=CARTESIAN_POINT('',(2.770169229747507,-2.357500000000082,2.299165596158766));
#277=CARTESIAN_POINT('',(2.770169229747507,0.058937500000002,2.299165596158766));
#278=CARTESIAN_POINT('',(-0.120278068370776,-2.357500000000082,5.781745615114987));
#279=CARTESIAN_POINT('',(-0.120278068370776,0.058937500000002,5.781745615114987));
#280=CARTESIAN_POINT('',(-2.863390619823834,-2.357500000000082,2.181970246888090));
#281=CARTESIAN_POINT('',(-2.863390619823834,0.058937500000002,2.181970246888090));
#289=(BOUNDED_SURFACE()B_SPLINE_SURFACE(1,2,((#276,#278,#280),(#277,#279,#281)),.UNSPECIFIED.,.F.,.F.,.U.)B_SPLINE_SURFACE_WITH_KNOTS((2,2),(3,3),(0.0,2.416437500000084),(0.0,6.945735467773010),.UNSPECIFIED.)GEOMETRIC_REPRESENTATION_ITEM()RATIONAL_B_SPLINE_SURFACE(((1.0,0.622514636637620,1.0),(1.0,0.622514636637620,1.0)))REPRESENTATION_ITEM('')SURFACE());
#290=ORIENTED_EDGE('',*,*,#123,.F.);
#291=CARTESIAN_POINT('',(2.750000000000000,-2.300000000000080,2.323252031097800));
#292=CARTESIAN_POINT('',(2.750000000000000,0.0,2.323252031097800));
#293=QUASI_UNIFORM_CURVE('',1,(#291,#292),.UNSPECIFIED.,.F.,.U.);
#294=EDGE_CURVE('',#208,#102,#293,.T.);
#295=ORIENTED_EDGE('',*,*,#294,.F.);
#296=ORIENTED_EDGE('',*,*,#251,.T.);
#297=CARTESIAN_POINT('',(-2.750000000000000,-2.300000000000080,2.323252031097775));
#298=CARTESIAN_POINT('',(-2.750000000000000,0.0,2.323252031097775));
#299=QUASI_UNIFORM_CURVE('',1,(#297,#298),.UNSPECIFIED.,.F.,.U.);
#300=EDGE_CURVE('',#232,#109,#299,.T.);
#301=ORIENTED_EDGE('',*,*,#300,.T.);
#302=EDGE_LOOP('',(#290,#295,#296,#301));
#303=FACE_OUTER_BOUND('',#302,.T.);
#304=ADVANCED_FACE('',(#303),#289,.F.);
#305=CARTESIAN_POINT('',(-2.750000000000000,-2.414884952360729,2.555344839779985));
#306=CARTESIAN_POINT('',(-2.750000000000000,-2.414884952360729,-2.555344673608050));
#307=CARTESIAN_POINT('',(-2.750000000000000,0.114885055178661,2.555344839779985));
#308=CARTESIAN_POINT('',(-2.750000000000000,0.114885055178661,-2.555344673608050));
#309=B_SPLINE_SURFACE_WITH_KNOTS('',1,1,((#305,#307),(#306,#308)),.UNSPECIFIED.,.F.,.F.,.U.,(2,2),(2,2),(0.0,5.110689513388035),(0.0,2.529770007539390),.UNSPECIFIED.);
#310=ORIENTED_EDGE('',*,*,#130,.F.);
#311=ORIENTED_EDGE('',*,*,#300,.F.);
#312=ORIENTED_EDGE('',*,*,#236,.T.);
#313=CARTESIAN_POINT('',(-2.750000000000000,-2.300000000000080,-2.323252031097775));
#314=CARTESIAN_POINT('',(-2.750000000000000,0.0,-2.323252031097775));
#315=QUASI_UNIFORM_CURVE('',1,(#313,#314),.UNSPECIFIED.,.F.,.U.);
#316=EDGE_CURVE('',#215,#126,#315,.T.);
#317=ORIENTED_EDGE('',*,*,#316,.T.);
#318=EDGE_LOOP('',(#310,#311,#312,#317));
#319=FACE_OUTER_BOUND('',#318,.T.);
#320=ADVANCED_FACE('',(#319),#309,.T.);
#321=CARTESIAN_POINT('',(-2.824873879980542,-2.357500000000082,-2.231610979136747));
#322=CARTESIAN_POINT('',(-2.824873879980542,0.058937500000002,-2.231610979136747));
#323=CARTESIAN_POINT('',(0.128064459999334,-2.357500000000082,-5.969573582739396));
#324=CARTESIAN_POINT('',(0.128064459999334,0.058937500000002,-5.969573582739396));
#325=CARTESIAN_POINT('',(2.917979773599887,-2.357500000000080,-2.108410311315600));
#326=CARTESIAN_POINT('',(2.917979773599887,0.058937500000002,-2.108410311315600));
#334=(BOUNDED_SURFACE()B_SPLINE_SURFACE(1,2,((#321,#323,#325),(#322,#324,#326)),.UNSPECIFIED.,.F.,.F.,.U.)B_SPLINE_SURFACE_WITH_KNOTS((2,2),(3,3),(0.0,2.416437500000084),(0.0,7.167140233186153),.UNSPECIFIED.)GEOMETRIC_REPRESENTATION_ITEM()RATIONAL_B_SPLINE_SURFACE(((1.0,0.602504377753214,0.998623677677103),(1.0,0.602504377753214,0.998623677677103)))REPRESENTATION_ITEM('')SURFACE());
#335=ORIENTED_EDGE('',*,*,#145,.F.);
#336=ORIENTED_EDGE('',*,*,#316,.F.);
#337=ORIENTED_EDGE('',*,*,#229,.T.);
#338=CARTESIAN_POINT('',(2.750000000000000,-2.300000000000080,-2.323252031097800));
#339=CARTESIAN_POINT('',(2.750000000000000,0.0,-2.323252031097800));
#340=QUASI_UNIFORM_CURVE('',1,(#338,#339),.UNSPECIFIED.,.F.,.U.);
#341=EDGE_CURVE('',#206,#100,#340,.T.);
#342=ORIENTED_EDGE('',*,*,#341,.T.);
#343=EDGE_LOOP('',(#335,#336,#337,#342));
#344=FACE_OUTER_BOUND('',#343,.T.);
#345=ADVANCED_FACE('',(#344),#334,.F.);
#346=CARTESIAN_POINT('',(2.750000000000000,-2.414884952360729,-2.555344839780011));
#347=CARTESIAN_POINT('',(2.750000000000000,-2.414884952360729,2.555344673608077));
#348=CARTESIAN_POINT('',(2.750000000000000,0.114885055178661,-2.555344839780011));
#349=CARTESIAN_POINT('',(2.750000000000000,0.114885055178661,2.555344673608077));
#350=B_SPLINE_SURFACE_WITH_KNOTS('',1,1,((#346,#348),(#347,#349)),.UNSPECIFIED.,.F.,.F.,.U.,(2,2),(2,2),(0.0,5.110689513388088),(0.0,2.529770007539390),.UNSPECIFIED.);
#351=ORIENTED_EDGE('',*,*,#106,.F.);
#352=ORIENTED_EDGE('',*,*,#341,.F.);
#353=ORIENTED_EDGE('',*,*,#212,.T.);
#354=ORIENTED_EDGE('',*,*,#294,.T.);
#355=EDGE_LOOP('',(#351,#352,#353,#354));
#356=FACE_OUTER_BOUND('',#355,.T.);
#357=ADVANCED_FACE('',(#356),#350,.T.);
#358=CARTESIAN_POINT('',(2.462155019146736,-2.357500000000082,-9.548029249369213));
#359=CARTESIAN_POINT('',(2.462155019146736,0.058937500000002,-9.548029249369213));
#360=CARTESIAN_POINT('',(20.047437309630837,-2.357500000000081,0.512008839896767));
#361=CARTESIAN_POINT('',(20.047437309630837,0.058937500000002,0.512008839896767));
#362=CARTESIAN_POINT('',(2.032748274597438,-2.357500000000082,9.781178088785442));
#363=CARTESIAN_POINT('',(2.032748274597438,0.058937500000002,9.781178088785442));
#371=(BOUNDED_SURFACE()B_SPLINE_SURFACE(1,2,((#358,#360,#362),(#359,#361,#363)),.UNSPECIFIED.,.F.,.F.,.U.)B_SPLINE_SURFACE_WITH_KNOTS((2,2),(3,3),(0.0,2.416437500000084),(0.0,26.177249187711290),.UNSPECIFIED.)GEOMETRIC_REPRESENTATION_ITEM()RATIONAL_B_SPLINE_SURFACE(((1.0,0.477158760259609,1.0),(1.0,0.477158760259609,1.0)))REPRESENTATION_ITEM('')SURFACE());
#372=ORIENTED_EDGE('',*,*,#90,.T.);
#373=ORIENTED_EDGE('',*,*,#271,.F.);
#374=ORIENTED_EDGE('',*,*,#196,.F.);
#375=CARTESIAN_POINT('',(2.545268253204715,-2.300000000000080,-9.500000000000000));
#376=CARTESIAN_POINT('',(2.545268253204715,0.0,-9.500000000000000));
#377=QUASI_UNIFORM_CURVE('',1,(#375,#376),.UNSPECIFIED.,.F.,.U.);
#378=EDGE_CURVE('',#175,#76,#377,.T.);
#379=ORIENTED_EDGE('',*,*,#378,.T.);
#380=EDGE_LOOP('',(#372,#373,#374,#379));
#381=FACE_OUTER_BOUND('',#380,.T.);
#382=ADVANCED_FACE('',(#381),#371,.T.);
#383=CARTESIAN_POINT('',(-30.623216380119331,-2.414884952360728,-9.500000000000000));
#384=CARTESIAN_POINT('',(4.123216380119333,-2.414884952360728,-9.500000000000000));
#385=CARTESIAN_POINT('',(-30.623216380119331,0.114885055178661,-9.500000000000000));
#386=CARTESIAN_POINT('',(4.123216380119333,0.114885055178661,-9.500000000000000));
#387=B_SPLINE_SURFACE_WITH_KNOTS('',1,1,((#383,#385),(#384,#386)),.UNSPECIFIED.,.F.,.F.,.U.,(2,2),(2,2),(0.0,34.746432760238662),(0.0,2.529770007539389),.UNSPECIFIED.);
#388=ORIENTED_EDGE('',*,*,#95,.T.);
#389=ORIENTED_EDGE('',*,*,#378,.F.);
#390=ORIENTED_EDGE('',*,*,#179,.F.);
#391=CARTESIAN_POINT('',(-29.045268253204700,-2.300000000000080,-9.500000000000000));
#392=CARTESIAN_POINT('',(-29.045268253204700,0.0,-9.500000000000000));
#393=QUASI_UNIFORM_CURVE('',1,(#391,#392),.UNSPECIFIED.,.F.,.U.);
#394=EDGE_CURVE('',#158,#52,#393,.T.);
#395=ORIENTED_EDGE('',*,*,#394,.T.);
#396=EDGE_LOOP('',(#388,#389,#390,#395));
#397=FACE_OUTER_BOUND('',#396,.T.);
#398=ADVANCED_FACE('',(#397),#387,.F.);
#399=CARTESIAN_POINT('',(-28.794687019345680,-2.357500000000082,9.641902787685234));
#400=CARTESIAN_POINT('',(-28.794687019345680,0.058937500000002,9.641902787685234));
#401=CARTESIAN_POINT('',(-46.928468768441903,-2.357500000000083,-0.315955215323884));
#402=CARTESIAN_POINT('',(-46.928468768441903,0.058937500000002,-0.315955215323884));
#403=CARTESIAN_POINT('',(-28.532748274597470,-2.357500000000082,-9.781178088785431));
#404=CARTESIAN_POINT('',(-28.532748274597470,0.058937500000002,-9.781178088785431));
#412=(BOUNDED_SURFACE()B_SPLINE_SURFACE(1,2,((#399,#401,#403),(#400,#402,#404)),.UNSPECIFIED.,.F.,.F.,.U.)B_SPLINE_SURFACE_WITH_KNOTS((2,2),(3,3),(0.0,2.416437500000084),(0.0,26.437867237212661),.UNSPECIFIED.)GEOMETRIC_REPRESENTATION_ITEM()RATIONAL_B_SPLINE_SURFACE(((1.0,0.469471562785891,1.0),(1.0,0.469471562785891,1.0)))REPRESENTATION_ITEM('')SURFACE());
#413=ORIENTED_EDGE('',*,*,#66,.T.);
#414=ORIENTED_EDGE('',*,*,#394,.F.);
#415=ORIENTED_EDGE('',*,*,#172,.F.);
#416=ORIENTED_EDGE('',*,*,#265,.T.);
#417=EDGE_LOOP('',(#413,#414,#415,#416));
#418=FACE_OUTER_BOUND('',#417,.T.);
#419=ADVANCED_FACE('',(#418),#412,.T.);
#420=CLOSED_SHELL('',(#149,#255,#275,#304,#320,#345,#357,#382,#398,#419));
#421=MANIFOLD_SOLID_BREP('cam',#420);
#427=(NAMED_UNIT(*)PLANE_ANGLE_UNIT()SI_UNIT($,.RADIAN.));
#428=DIMENSIONAL_EXPONENTS(0.0,0.0,0.0,0.0,0.0,0.0,0.0);
#429=PLANE_ANGLE_MEASURE_WITH_UNIT(PLANE_ANGLE_MEASURE(0.017453292500000),#427);
#433=(CONVERSION_BASED_UNIT('DEGREE',#429)NAMED_UNIT(#428)PLANE_ANGLE_UNIT());
#437=(NAMED_UNIT(*)SI_UNIT($,.STERADIAN.)SOLID_ANGLE_UNIT());
#441=(LENGTH_UNIT()NAMED_UNIT(*)SI_UNIT(.MILLI.,.METRE.));
#443=UNCERTAINTY_MEASURE_WITH_UNIT(LENGTH_MEASURE(0.001000000000000),#441,'DISTANCE_ACCURACY_VALUE','');
#445=(GEOMETRIC_REPRESENTATION_CONTEXT(3)GLOBAL_UNCERTAINTY_ASSIGNED_CONTEXT((#443))GLOBAL_UNIT_ASSIGNED_CONTEXT((#433,#437,#441))REPRESENTATION_CONTEXT('','3D'));
ENDSEC;
END-ISO-10303-21;
