  0
SECTION
  2
HEADER
  9
$ACADVER
  1
AC1015
  9
$ACADMAINTVER
 70
    20
  9
$DWGCODEPAGE
  3
ANSI_932
  9
$INSBASE
 10
0.0
 20
0.0
 30
0.0
  9
$EXTMIN
 10
10.0
 20
9.999999999999998
 30
0.0
  9
$EXTMAX
 10
379.819249
 20
196.7442059999999
 30
0.0
  9
$LIMMIN
 10
0.0
 20
0.0
  9
$LIMMAX
 10
396.0
 20
273.0
  9
$ORTHOMODE
 70
     1
  9
$REGENMODE
 70
     1
  9
$FILLMODE
 70
     1
  9
$QTEXTMODE
 70
     0
  9
$MIRRTEXT
 70
     1
  9
$LTSCALE
 40
20.0
  9
$ATTMODE
 70
     1
  9
$TEXTSIZE
 40
5.0
  9
$TRACEWID
 40
1.0
  9
$TEXTSTYLE
  7
STANDARD
  9
$CLAYER
  8
0
  9
$CELTYPE
  6
BYLAYER
  9
$CECOLOR
 62
   256
  9
$CELTSCALE
 40
1.0
  9
$DISPSILH
 70
     0
  9
$DIMSCALE
 40
1.0
  9
$DIMASZ
 40
3.0
  9
$DIMEXO
 40
1.0
  9
$DIMDLI
 40
10.0
  9
$DIMRND
 40
0.0
  9
$DIMDLE
 40
0.0
  9
$DIMEXE
 40
1.0
  9
$DIMTP
 40
0.0
  9
$DIMTM
 40
0.0
  9
$DIMTXT
 40
3.2
  9
$DIMCEN
 40
0.0
  9
$DIMTSZ
 40
0.0
  9
$DIMTOL
 70
     0
  9
$DIMLIM
 70
     0
  9
$DIMTIH
 70
     0
  9
$DIMTOH
 70
     0
  9
$DIMSE1
 70
     0
  9
$DIMSE2
 70
     0
  9
$DIMTAD
 70
     3
  9
$DIMZIN
 70
     8
  9
$DIMBLK
  1

  9
$DIMASO
 70
     1
  9
$DIMSHO
 70
     1
  9
$DIMPOST
  1

  9
$DIMAPOST
  1

  9
$DIMALT
 70
     0
  9
$DIMALTD
 70
     2
  9
$DIMALTF
 40
25.4
  9
$DIMLFAC
 40
1.0
  9
$DIMTOFL
 70
     1
  9
$DIMTVP
 40
0.0
  9
$DIMTIX
 70
     0
  9
$DIMSOXD
 70
     0
  9
$DIMSAH
 70
     1
  9
$DIMBLK1
  1

  9
$DIMBLK2
  1

  9
$DIMSTYLE
  2
STANDARD
  9
$DIMCLRD
 70
     0
  9
$DIMCLRE
 70
     0
  9
$DIMCLRT
 70
     0
  9
$DIMTFAC
 40
1.0
  9
$DIMGAP
 40
1.0
  9
$DIMJUST
 70
     0
  9
$DIMSD1
 70
     0
  9
$DIMSD2
 70
     0
  9
$DIMTOLJ
 70
     1
  9
$DIMTZIN
 70
     0
  9
$DIMALTZ
 70
     0
  9
$DIMALTTZ
 70
     0
  9
$DIMUPT
 70
     0
  9
$DIMDEC
 70
     4
  9
$DIMTDEC
 70
     4
  9
$DIMALTU
 70
     2
  9
$DIMALTTD
 70
     2
  9
$DIMTXSTY
  7
STANDARD
  9
$DIMAUNIT
 70
     0
  9
$DIMADEC
 70
     0
  9
$DIMALTRND
 40
0.0
  9
$DIMAZIN
 70
     0
  9
$DIMDSEP
 70
    46
  9
$DIMATFIT
 70
     3
  9
$DIMFRAC
 70
     0
  9
$DIMLDRBLK
  1

  9
$DIMLUNIT
 70
     2
  9
$DIMLWD
 70
    -2
  9
$DIMLWE
 70
    -2
  9
$DIMTMOVE
 70
     0
  9
$LUNITS
 70
     2
  9
$LUPREC
 70
     4
  9
$SKETCHINC
 40
1.0
  9
$FILLETRAD
 40
0.0
  9
$AUNITS
 70
     0
  9
$AUPREC
 70
     2
  9
$MENU
  1
.
  9
$ELEVATION
 40
0.0
  9
$PELEVATION
 40
0.0
  9
$THICKNESS
 40
0.0
  9
$LIMCHECK
 70
     0
  9
$CHAMFERA
 40
10.0
  9
$CHAMFERB
 40
10.0
  9
$CHAMFERC
 40
0.0
  9
$CHAMFERD
 40
0.0
  9
$SKPOLY
 70
     0
  9
$TDCREATE
 40
2450950.418949190
  9
$TDUCREATE
 40
2450950.043949190
  9
$TDUPDATE
 40
2457192.603784259
  9
$TDUUPDATE
 40
2457192.228784260
  9
$TDINDWG
 40
0.0000155671
  9
$TDUSRTIMER
 40
0.0000152546
  9
$USRTIMER
 70
     1
  9
$ANGBASE
 50
0.0
  9
$ANGDIR
 70
     0
  9
$PDMODE
 70
     0
  9
$PDSIZE
 40
0.0
  9
$PLINEWID
 40
0.0
  9
$SPLFRAME
 70
     0
  9
$SPLINETYPE
 70
     6
  9
$SPLINESEGS
 70
     8
  9
$HANDSEED
  5
A17A
  9
$SURFTAB1
 70
     6
  9
$SURFTAB2
 70
     6
  9
$SURFTYPE
 70
     6
  9
$SURFU
 70
     6
  9
$SURFV
 70
     6
  9
$UCSBASE
  2

  9
$UCSNAME
  2

  9
$UCSORG
 10
0.0
 20
0.0
 30
0.0
  9
$UCSXDIR
 10
1.0
 20
0.0
 30
0.0
  9
$UCSYDIR
 10
0.0
 20
1.0
 30
0.0
  9
$UCSORTHOREF
  2

  9
$UCSORTHOVIEW
 70
     0
  9
$UCSORGTOP
 10
0.0
 20
0.0
 30
0.0
  9
$UCSORGBOTTOM
 10
0.0
 20
0.0
 30
0.0
  9
$UCSORGLEFT
 10
0.0
 20
0.0
 30
0.0
  9
$UCSORGRIGHT
 10
0.0
 20
0.0
 30
0.0
  9
$UCSORGFRONT
 10
0.0
 20
0.0
 30
0.0
  9
$UCSORGBACK
 10
0.0
 20
0.0
 30
0.0
  9
$PUCSBASE
  2

  9
$PUCSNAME
  2

  9
$PUCSORG
 10
0.0
 20
0.0
 30
0.0
  9
$PUCSXDIR
 10
1.0
 20
0.0
 30
0.0
  9
$PUCSYDIR
 10
0.0
 20
1.0
 30
0.0
  9
$PUCSORTHOREF
  2

  9
$PUCSORTHOVIEW
 70
     0
  9
$PUCSORGTOP
 10
0.0
 20
0.0
 30
0.0
  9
$PUCSORGBOTTOM
 10
0.0
 20
0.0
 30
0.0
  9
$PUCSORGLEFT
 10
0.0
 20
0.0
 30
0.0
  9
$PUCSORGRIGHT
 10
0.0
 20
0.0
 30
0.0
  9
$PUCSORGFRONT
 10
0.0
 20
0.0
 30
0.0
  9
$PUCSORGBACK
 10
0.0
 20
0.0
 30
0.0
  9
$USERI1
 70
     0
  9
$USERI2
 70
     0
  9
$USERI3
 70
     0
  9
$USERI4
 70
     0
  9
$USERI5
 70
     0
  9
$USERR1
 40
0.0
  9
$USERR2
 40
0.0
  9
$USERR3
 40
0.0
  9
$USERR4
 40
0.0
  9
$USERR5
 40
0.0
  9
$WORLDVIEW
 70
     1
  9
$SHADEDGE
 70
     3
  9
$SHADEDIF
 70
    70
  9
$TILEMODE
 70
     1
  9
$MAXACTVP
 70
    16
  9
$PINSBASE
 10
0.0
 20
0.0
 30
0.0
  9
$PLIMCHECK
 70
     0
  9
$PEXTMIN
 10
1.000000000000000E+20
 20
1.000000000000000E+20
 30
1.000000000000000E+20
  9
$PEXTMAX
 10
-1.000000000000000E+20
 20
-1.000000000000000E+20
 30
-1.000000000000000E+20
  9
$PLIMMIN
 10
0.0
 20
0.0
  9
$PLIMMAX
 10
420.0
 20
297.0
  9
$UNITMODE
 70
     0
  9
$VISRETAIN
 70
     0
  9
$PLINEGEN
 70
     0
  9
$PSLTSCALE
 70
     0
  9
$TREEDEPTH
 70
  3020
  9
$CMLSTYLE
  2
STANDARD
  9
$CMLJUST
 70
     0
  9
$CMLSCALE
 40
1.0
  9
$PROXYGRAPHICS
 70
     1
  9
$MEASUREMENT
 70
     0
  9
$CELWEIGHT
370
    -1
  9
$ENDCAPS
280
     0
  9
$JOINSTYLE
280
     0
  9
$LWDISPLAY
290
     0
  9
$INSUNITS
 70
     0
  9
$HYPERLINKBASE
  1

  9
$STYLESHEET
  1

  9
$XEDIT
290
     1
  9
$CEPSNTYPE
380
     0
  9
$PSTYLEMODE
290
     1
  9
$FINGERPRINTGUID
  2
{4AEBE128-C7FD-4516-A183-1D041357BFE0}
  9
$VERSIONGUID
  2
{503CC604-8A57-4601-B1E3-96900DB4DD98}
  9
$EXTNAMES
290
     1
  9
$PSVPSCALE
 40
0.0
  9
$OLESTARTUP
290
     0
  0
ENDSEC
  0
SECTION
  2
CLASSES
  0
CLASS
  1
ACDBDICTIONARYWDFLT
  2
AcDbDictionaryWithDefault
  3
ObjectDBX Classes
 90
        0
280
     0
281
     0
  0
CLASS
  1
ACDBPLACEHOLDER
  2
AcDbPlaceHolder
  3
ObjectDBX Classes
 90
        0
280
     0
281
     0
  0
CLASS
  1
LAYOUT
  2
AcDbLayout
  3
ObjectDBX Classes
 90
        0
280
     0
281
     0
  0
CLASS
  1
DICTIONARYVAR
  2
AcDbDictionaryVar
  3
ObjectDBX Classes
 90
        0
280
     0
281
     0
  0
CLASS
  1
MATERIAL
  2
AcDbMaterial
  3
ObjectDBX Classes
 90
     1153
280
     0
281
     0
  0
CLASS
  1
VISUALSTYLE
  2
AcDbVisualStyle
  3
ObjectDBX Classes
 90
     4095
280
     0
281
     0
  0
CLASS
  1
TABLESTYLE
  2
AcDbTableStyle
  3
ObjectDBX Classes
 90
     4095
280
     0
281
     0
  0
CLASS
  1
SCALE
  2
AcDbScale
  3
ObjectDBX Classes
 90
     1153
280
     0
281
     0
  0
CLASS
  1
MLEADERSTYLE
  2
AcDbMLeaderStyle
  3
ACDB_MLEADERSTYLE_CLASS
 90
     4095
280
     0
281
     0
  0
CLASS
  1
ACDBSECTIONVIEWSTYLE
  2
AcDbSectionViewStyle
  3
ObjectDBX Classes
 90
     1025
280
     0
281
     0
  0
CLASS
  1
ACDBDETAILVIEWSTYLE
  2
AcDbDetailViewStyle
  3
ObjectDBX Classes
 90
     1025
280
     0
281
     0
  0
CLASS
  1
CELLSTYLEMAP
  2
AcDbCellStyleMap
  3
ObjectDBX Classes
 90
     1152
280
     0
281
     0
  0
ENDSEC
  0
SECTION
  2
TABLES
  0
TABLE
  2
VPORT
  5
9DFB
330
0
100
AcDbSymbolTable
 70
     1
  0
VPORT
  5
A0C3
330
9DFB
100
AcDbSymbolTableRecord
100
AcDbViewportTableRecord
  2
*ACTIVE
 70
     0
 10
0.0
 20
0.0
 11
1.0
 21
1.0
 12
258.5984347729223
 22
103.3726736317302
 13
0.0
 23
0.0
 14
10.0
 24
10.0
 15
10.0
 25
10.0
 16
0.0
 26
0.0
 36
1.0
 17
0.0
 27
0.0
 37
0.0
 40
212.5987451064029
 41
1.899603698811096
 42
50.0
 43
0.0
 44
0.0
 50
0.0
 51
0.0
 71
     0
 72
   100
 73
     1
 74
     0
 75
     0
 76
     0
 77
     0
 78
     0
281
     0
 65
     1
110
0.0
120
0.0
130
0.0
111
1.0
121
0.0
131
0.0
112
0.0
122
1.0
132
0.0
 79
     0
146
0.0
1001
ACAD_NAV_VCDISPLAY
1070
     3
  0
ENDTAB
  0
TABLE
  2
LTYPE
  5
9DF8
330
0
100
AcDbSymbolTable
 70
     4
  0
LTYPE
  5
9E06
330
9DF8
100
AcDbSymbolTableRecord
100
AcDbLinetypeTableRecord
  2
BYBLOCK
 70
     0
  3

 72
    65
 73
     0
 40
0.0
  0
LTYPE
  5
9E07
330
9DF8
100
AcDbSymbolTableRecord
100
AcDbLinetypeTableRecord
  2
BYLAYER
 70
     0
  3

 72
    65
 73
     0
 40
0.0
  0
LTYPE
  5
9E08
330
9DF8
100
AcDbSymbolTableRecord
100
AcDbLinetypeTableRecord
  2
CONTINUOUS
 70
     0
  3
Solid line
 72
    65
 73
     0
 40
0.0
  0
LTYPE
  5
9E16
330
9DF8
100
AcDbSymbolTableRecord
100
AcDbLinetypeTableRecord
  2
DASHED
 70
     0
  3
__ __ __ __ __ __ __ __ __ __ __ __ __ __ __ __
 72
    65
 73
     2
 40
0.75
 49
0.5
 74
     0
 49
-0.25
 74
     0
  0
LTYPE
  5
9E17
330
9DF8
100
AcDbSymbolTableRecord
100
AcDbLinetypeTableRecord
  2
CENTER
 70
     0
  3
____ _ ____ _ ____ _ ____ _ ____ _ ____ _ ____ 
 72
    65
 73
     4
 40
2.0
 49
1.25
 74
     0
 49
-0.25
 74
     0
 49
0.25
 74
     0
 49
-0.25
 74
     0
  0
LTYPE
  5
9E18
330
9DF8
100
AcDbSymbolTableRecord
100
AcDbLinetypeTableRecord
  2
PHANTOM
 70
     0
  3
______  __  __  ______  __  __  ______  __  __ 
 72
    65
 73
     6
 40
2.5
 49
1.25
 74
     0
 49
-0.25
 74
     0
 49
0.25
 74
     0
 49
-0.25
 74
     0
 49
0.25
 74
     0
 49
-0.25
 74
     0
  0
ENDTAB
  0
TABLE
  2
LAYER
  5
9DF5
330
0
100
AcDbSymbolTable
 70
     8
  0
LAYER
  5
9E03
102
{ACAD_XDICTIONARY
360
A11E
102
}
330
9DF5
100
AcDbSymbolTableRecord
100
AcDbLayerTableRecord
  2
0
 70
     0
 62
     7
  6
CONTINUOUS
370
    -3
390
A0CC
  0
LAYER
  5
9E19
102
{ACAD_XDICTIONARY
360
A120
102
}
330
9DF5
100
AcDbSymbolTableRecord
100
AcDbLayerTableRecord
  2
4
 70
     0
 62
     1
  6
CENTER
370
    -3
390
A0CC
  0
LAYER
  5
9E1A
102
{ACAD_XDICTIONARY
360
A122
102
}
330
9DF5
100
AcDbSymbolTableRecord
100
AcDbLayerTableRecord
  2
5
 70
     0
 62
     6
  6
PHANTOM
370
    -3
390
A0CC
  0
LAYER
  5
9E1B
102
{ACAD_XDICTIONARY
360
A124
102
}
330
9DF5
100
AcDbSymbolTableRecord
100
AcDbLayerTableRecord
  2
1
 70
     0
 62
     7
  6
CONTINUOUS
370
    -3
390
A0CC
  0
LAYER
  5
9E1C
102
{ACAD_XDICTIONARY
360
A126
102
}
330
9DF5
100
AcDbSymbolTableRecord
100
AcDbLayerTableRecord
  2
2
 70
     0
 62
     4
  6
CONTINUOUS
370
    -3
390
A0CC
  0
LAYER
  5
9E1D
102
{ACAD_XDICTIONARY
360
A128
102
}
330
9DF5
100
AcDbSymbolTableRecord
100
AcDbLayerTableRecord
  2
3
 70
     0
 62
     2
  6
DASHED
370
    -3
390
A0CC
  0
LAYER
  5
9E1E
102
{ACAD_XDICTIONARY
360
A12A
102
}
330
9DF5
100
AcDbSymbolTableRecord
100
AcDbLayerTableRecord
  2
6
 70
     0
 62
     5
  6
CONTINUOUS
370
    -3
390
A0CC
  0
LAYER
  5
9E1F
102
{ACAD_XDICTIONARY
360
A12C
102
}
330
9DF5
100
AcDbSymbolTableRecord
100
AcDbLayerTableRecord
  2
7
 70
     0
 62
     3
  6
CONTINUOUS
370
    -3
390
A0CC
  0
ENDTAB
  0
TABLE
  2
STYLE
  5
9DF6
330
0
100
AcDbSymbolTable
 70
     1
  0
STYLE
  5
9E04
330
9DF6
100
AcDbSymbolTableRecord
100
AcDbTextStyleTableRecord
  2
STANDARD
 70
     0
 40
0.0
 41
1.0
 50
0.0
 71
     0
 42
5.0
  3
txt
  4

  0
ENDTAB
  0
TABLE
  2
VIEW
  5
9DF9
330
0
100
AcDbSymbolTable
 70
     0
  0
ENDTAB
  0
TABLE
  2
UCS
  5
9DFA
330
0
100
AcDbSymbolTable
 70
     0
  0
ENDTAB
  0
TABLE
  2
APPID
  5
9DFC
330
0
100
AcDbSymbolTable
 70
     3
  0
APPID
  5
9E05
330
9DFC
100
AcDbSymbolTableRecord
100
AcDbRegAppTableRecord
  2
ACAD
 70
     0
  0
APPID
  5
A138
330
9DFC
100
AcDbSymbolTableRecord
100
AcDbRegAppTableRecord
  2
ACAD_NAV_VCDISPLAY
 70
     0
  0
APPID
  5
A171
330
9DFC
100
AcDbSymbolTableRecord
100
AcDbRegAppTableRecord
  2
ACAD_MLEADERVER
 70
     0
  0
ENDTAB
  0
TABLE
  2
DIMSTYLE
  5
9DFD
330
0
100
AcDbSymbolTable
 70
     1
100
AcDbDimStyleTable
 71
     0
  0
DIMSTYLE
105
9E21
330
9DFD
100
AcDbSymbolTableRecord
100
AcDbDimStyleTableRecord
  2
STANDARD
 70
     0
 41
3.0
 42
1.0
 43
10.0
 44
1.0
 73
     0
 74
     0
 77
     3
 78
     8
140
3.2
141
0.0
147
1.0
172
     1
173
     1
284
     8
285
     8
286
     8
340
9E04
  0
ENDTAB
  0
TABLE
  2
BLOCK_RECORD
  5
9DF4
330
0
100
AcDbSymbolTable
 70
     0
  0
BLOCK_RECORD
  5
9E11
102
{ACAD_XDICTIONARY
360
A0C6
102
}
330
9DF4
100
AcDbSymbolTableRecord
100
AcDbBlockTableRecord
  2
*MODEL_SPACE
340
A11A
  0
BLOCK_RECORD
  5
9E0D
102
{ACAD_XDICTIONARY
360
A0C4
102
}
330
9DF4
100
AcDbSymbolTableRecord
100
AcDbBlockTableRecord
  2
*PAPER_SPACE
340
A11B
  0
ENDTAB
  0
ENDSEC
  0
SECTION
  2
BLOCKS
  0
BLOCK
  5
9E12
330
9E11
100
AcDbEntity
  8
0
100
AcDbBlockBegin
  2
*MODEL_SPACE
 70
     0
 10
0.0
 20
0.0
 30
0.0
  3
*MODEL_SPACE
  1

  0
ENDBLK
  5
9E13
330
9E11
100
AcDbEntity
  8
0
100
AcDbBlockEnd
  0
BLOCK
  5
9E0E
330
9E0D
100
AcDbEntity
 67
     1
  8
0
100
AcDbBlockBegin
  2
*PAPER_SPACE
 70
     0
 10
0.0
 20
0.0
 30
0.0
  3
*PAPER_SPACE
  1

  0
ENDBLK
  5
9E0F
330
9E0D
100
AcDbEntity
 67
     1
  8
0
100
AcDbBlockEnd
  0
ENDSEC
  0
SECTION
  2
ENTITIES
  0
TEXT
  5
9E29
330
9E11
100
AcDbEntity
  8
7
  6
Continuous
100
AcDbText
 10
10.0
 20
18.0
 30
0.0
 40
3.0
  1
TYPE No.TL-96N-2
100
AcDbText
  0
TEXT
  5
9E2A
330
9E11
100
AcDbEntity
  8
7
  6
Continuous
100
AcDbText
 10
10.0
 20
26.0
 30
0.0
 40
3.0
  1
CODE No.1836
100
AcDbText
  0
TEXT
  5
9E2B
330
9E11
100
AcDbEntity
  8
1
  6
Continuous
100
AcDbText
 10
10.0
 20
10.0
 30
0.0
 40
1.399999999999999
  1
LAYER
100
AcDbText
  0
TEXT
  5
9E2C
330
9E11
100
AcDbEntity
  8
1
  6
Continuous
100
AcDbText
 10
17.97951099999998
 20
10.04873699999998
 30
0.0
 40
1.399999999999999
  1
1
100
AcDbText
  0
TEXT
  5
9E2D
330
9E11
100
AcDbEntity
  8
7
  6
Continuous
100
AcDbText
 10
29.97951099999999
 20
10.04873699999998
 30
0.0
 40
1.399999999999999
  1
7
100
AcDbText
  0
TEXT
  5
9E2E
330
9E11
100
AcDbEntity
  8
4
  6
CENTER
100
AcDbText
 10
23.97951099999999
 20
10.04873699999998
 30
0.0
 40
1.399999999999999
  1
4
100
AcDbText
  0
TEXT
  5
9E2F
330
9E11
100
AcDbEntity
  8
3
  6
DASHED
100
AcDbText
 10
21.979511
 20
10.04873699999998
 30
0.0
 40
1.399999999999999
  1
3
100
AcDbText
  0
TEXT
  5
9E30
330
9E11
100
AcDbEntity
  8
2
  6
Continuous
100
AcDbText
 10
19.97951099999999
 20
10.04873699999998
 30
0.0
 40
1.399999999999999
  1
2
100
AcDbText
  0
TEXT
  5
9E31
330
9E11
100
AcDbEntity
  8
6
  6
Continuous
100
AcDbText
 10
27.979511
 20
10.04873699999998
 30
0.0
 40
1.399999999999999
  1
6
100
AcDbText
  0
TEXT
  5
9E32
330
9E11
100
AcDbEntity
  8
5
  6
PHANTOM
100
AcDbText
 10
25.97951099999999
 20
10.04873699999998
 30
0.0
 40
1.399999999999999
  1
5
100
AcDbText
  0
LINE
  5
9E33
330
9E11
100
AcDbEntity
  8
1
  6
Continuous
100
AcDbLine
 10
78.836949
 20
107.122304
 30
0.0
 11
78.836949
 21
124.3660019999999
 31
0.0
  0
LINE
  5
9E34
330
9E11
100
AcDbEntity
  8
1
  6
Continuous
100
AcDbLine
 10
85.13695199999999
 20
104.7441979999998
 30
0.0
 11
83.936948
 21
104.7441979999998
 31
0.0
  0
LINE
  5
9E35
330
9E11
100
AcDbEntity
  8
1
  6
Continuous
100
AcDbLine
 10
83.936948
 20
104.744191
 30
0.0
 11
78.836949
 21
107.1222879999998
 31
0.0
  0
LINE
  5
9E36
330
9E11
100
AcDbEntity
  8
1
  6
Continuous
100
AcDbLine
 10
102.236951
 20
107.5442009999999
 30
0.0
 11
102.236951
 21
109.1852999999999
 31
0.0
  0
LINE
  5
9E37
330
9E11
100
AcDbEntity
  8
1
  6
Continuous
100
AcDbLine
 10
85.13695199999999
 20
106.244205
 30
0.0
 11
93.42454999999999
 21
106.244205
 31
0.0
  0
LINE
  5
9E38
330
9E11
100
AcDbEntity
  8
1
  6
Continuous
100
AcDbLine
 10
85.13695199999999
 20
126.744206
 30
0.0
 11
85.13695199999999
 21
104.7441979999998
 31
0.0
  0
LINE
  5
9E39
330
9E11
100
AcDbEntity
  8
1
  6
Continuous
100
AcDbLine
 10
100.436948
 20
107.967305
 30
0.0
 11
100.436948
 21
124.444203
 31
0.0
  0
LINE
  5
9E3A
330
9E11
100
AcDbEntity
  8
1
  6
Continuous
100
AcDbLine
 10
101.736966
 20
107.044209
 30
0.0
 11
102.236966
 21
107.544209
 31
0.0
  0
LINE
  5
9E3B
330
9E11
100
AcDbEntity
  8
1
  6
Continuous
100
AcDbLine
 10
85.13695199999999
 20
126.744206
 30
0.0
 11
83.936948
 21
126.744206
 31
0.0
  0
LINE
  5
9E3C
330
9E11
100
AcDbEntity
  8
1
  6
Continuous
100
AcDbLine
 10
83.93694000000001
 20
126.7441909999998
 30
0.0
 11
78.83694199999998
 21
124.3660019999999
 31
0.0
  0
LINE
  5
9E3D
330
9E11
100
AcDbEntity
  8
1
  6
Continuous
100
AcDbLine
 10
85.13695199999999
 20
125.2442
 30
0.0
 11
93.416952
 21
125.2442
 31
0.0
  0
LINE
  5
9E3E
330
9E11
100
AcDbEntity
  8
4
  6
CENTER
100
AcDbLine
 10
76.088651
 20
115.7441979999999
 30
0.0
 11
114.2100499999999
 21
115.7441979999999
 31
0.0
  0
LINE
  5
9E3F
330
9E11
100
AcDbEntity
  8
1
  6
Continuous
100
AcDbLine
 10
94.636945
 20
124.4441879999999
 30
0.0
 11
93.416952
 21
125.2442
 31
0.0
  0
LINE
  5
9E40
330
9E11
100
AcDbEntity
  8
1
  6
Continuous
100
AcDbLine
 10
94.63695200000001
 20
107.044201
 30
0.0
 11
101.7369509999999
 21
107.044201
 31
0.0
  0
LINE
  5
9E41
330
9E11
100
AcDbEntity
  8
1
  6
Continuous
100
AcDbLine
 10
94.63695200000001
 20
124.444203
 30
0.0
 11
100.436948
 21
124.444203
 31
0.0
  0
LINE
  5
9E42
330
9E11
100
AcDbEntity
  8
1
  6
Continuous
100
AcDbLine
 10
112.5369539999999
 20
118.2441999999999
 30
0.0
 11
112.5369539999999
 21
113.2442049999999
 31
0.0
  0
LINE
  5
9E43
330
9E11
100
AcDbEntity
  8
1
  6
Continuous
100
AcDbLine
 10
111.5369539999999
 20
119.2441999999999
 30
0.0
 11
103.236951
 21
119.2441999999999
 31
0.0
  0
LINE
  5
9E44
330
9E11
100
AcDbEntity
  8
1
  6
Continuous
100
AcDbLine
 10
111.5369539999999
 20
112.244197
 30
0.0
 11
103.236951
 21
112.244197
 31
0.0
  0
LINE
  5
9E45
330
9E11
100
AcDbEntity
  8
1
  6
Continuous
100
AcDbLine
 10
103.236951
 20
119.319203
 30
0.0
 11
103.236951
 21
117.9713129999999
 31
0.0
  0
LINE
  5
9E46
330
9E11
100
AcDbEntity
  8
1
  6
Continuous
100
AcDbLine
 10
100.586949
 20
112.169201
 30
0.0
 11
100.936943
 21
112.169201
 31
0.0
  0
LINE
  5
9E47
330
9E11
100
AcDbEntity
  8
1
  6
Continuous
100
AcDbLine
 10
100.586949
 20
119.319203
 30
0.0
 11
100.936943
 21
119.319203
 31
0.0
  0
LINE
  5
9E48
330
9E11
100
AcDbEntity
  8
1
  6
Continuous
100
AcDbLine
 10
102.5369489999998
 20
119.319203
 30
0.0
 11
103.236951
 21
119.319203
 31
0.0
  0
LINE
  5
9E49
330
9E11
100
AcDbEntity
  8
1
  6
Continuous
100
AcDbLine
 10
102.5369489999998
 20
112.169201
 30
0.0
 11
103.236951
 21
112.169201
 31
0.0
  0
LINE
  5
9E4A
330
9E11
100
AcDbEntity
  8
2
  6
Continuous
100
AcDbLine
 10
112.47665
 20
117.9713129999999
 30
0.0
 11
102.5369489999998
 21
114.032285
 31
0.0
  0
LINE
  5
9E4B
330
9E11
100
AcDbEntity
  8
2
  6
Continuous
100
AcDbLine
 10
102.5369489999998
 20
117.4588799999999
 30
0.0
 11
112.5369539999999
 21
113.517102
 31
0.0
  0
LINE
  5
9E4C
330
9E11
100
AcDbEntity
  8
1
  6
Continuous
100
AcDbLine
 10
100.586949
 20
109.244153
 30
0.0
 11
100.586949
 21
122.244206
 31
0.0
  0
LINE
  5
9E4D
330
9E11
100
AcDbEntity
  8
1
  6
Continuous
100
AcDbLine
 10
100.4369709999999
 20
122.3942149999998
 30
0.0
 11
100.5869719999999
 21
122.244221
 31
0.0
  0
LINE
  5
9E4E
330
9E11
100
AcDbEntity
  8
1
  6
Continuous
100
AcDbLine
 10
83.936948
 20
126.744206
 30
0.0
 11
83.936948
 21
104.7441979999998
 31
0.0
  0
LINE
  5
9E4F
330
9E11
100
AcDbEntity
  8
1
  6
Continuous
100
AcDbLine
 10
100.436948
 20
107.967305
 30
0.0
 11
102.236951
 21
107.967305
 31
0.0
  0
LINE
  5
9E50
330
9E11
100
AcDbEntity
  8
1
  6
Continuous
100
AcDbLine
 10
102.236951
 20
109.1852999999999
 30
0.0
 11
100.436948
 21
109.1852999999999
 31
0.0
  0
LINE
  5
9E51
330
9E11
100
AcDbEntity
  8
1
  6
Continuous
100
AcDbLine
 10
94.63695200000001
 20
119.388385
 30
0.0
 11
93.416952
 21
121.020569
 31
0.0
  0
LINE
  5
9E52
330
9E11
100
AcDbEntity
  8
2
  6
Continuous
100
AcDbLine
 10
100.436948
 20
119.388385
 30
0.0
 11
85.13695199999999
 21
110.4678279999999
 31
0.0
  0
LINE
  5
9E53
330
9E11
100
AcDbEntity
  8
2
  6
Continuous
100
AcDbLine
 10
85.13695199999999
 20
121.020569
 30
0.0
 11
100.436948
 21
112.100012
 31
0.0
  0
LINE
  5
9E54
330
9E11
100
AcDbEntity
  8
1
  6
Continuous
100
AcDbLine
 10
100.936943
 20
123.444203
 30
0.0
 11
102.5369489999998
 21
123.444203
 31
0.0
  0
LINE
  5
9E55
330
9E11
100
AcDbEntity
  8
1
  6
Continuous
100
AcDbLine
 10
100.936943
 20
123.444203
 30
0.0
 11
100.936943
 21
109.1852999999999
 31
0.0
  0
LINE
  5
9E56
330
9E11
100
AcDbEntity
  8
1
  6
Continuous
100
AcDbLine
 10
102.5369489999998
 20
123.444203
 30
0.0
 11
102.5369489999998
 21
108.222485
 31
0.0
  0
LINE
  5
9E57
330
9E11
100
AcDbEntity
  8
4
  6
CENTER
100
AcDbLine
 10
225.453946
 20
100.8104369999998
 30
0.0
 11
225.453946
 21
131.2710159999998
 31
0.0
  0
LINE
  5
9E58
330
9E11
100
AcDbEntity
  8
1
  6
Continuous
100
AcDbLine
 10
217.553952
 20
110.4678279999999
 30
0.0
 11
217.553952
 21
121.020569
 31
0.0
  0
LINE
  5
9E59
330
9E11
100
AcDbEntity
  8
1
  6
Continuous
100
AcDbLine
 10
233.3539549999999
 20
110.46785
 30
0.0
 11
233.3539549999999
 21
121.020546
 31
0.0
  0
LINE
  5
9E5A
330
9E11
100
AcDbEntity
  8
4
  6
CENTER
100
AcDbLine
 10
211.267453
 20
115.7441979999999
 30
0.0
 11
239.5050629999999
 21
115.7441979999999
 31
0.0
  0
LINE
  5
9E5B
330
9E11
100
AcDbEntity
  8
1
  6
Continuous
100
AcDbLine
 10
222.7539529999999
 20
117.9713129999999
 30
0.0
 11
222.7539529999999
 21
113.517084
 31
0.0
  0
LINE
  5
9E5C
330
9E11
100
AcDbEntity
  8
1
  6
Continuous
100
AcDbLine
 10
228.153954
 20
117.971295
 30
0.0
 11
228.153954
 21
113.517102
 31
0.0
  0
LINE
  5
9E5D
330
9E11
100
AcDbEntity
  8
1
  6
Continuous
100
AcDbLine
 10
221.6238529999999
 20
123.4441879999999
 30
0.0
 11
229.2841459999999
 21
123.4441879999999
 31
0.0
  0
LINE
  5
9E5E
330
9E11
100
AcDbEntity
  8
1
  6
Continuous
100
AcDbLine
 10
217.932218
 20
119.9135789999999
 30
0.0
 11
219.768949
 21
118.895512
 31
0.0
  0
LINE
  5
9E5F
330
9E11
100
AcDbEntity
  8
1
  6
Continuous
100
AcDbLine
 10
229.6233339999998
 20
108.222485
 30
0.0
 11
228.605222
 21
110.059178
 31
0.0
  0
LINE
  5
9E60
330
9E11
100
AcDbEntity
  8
1
  6
Continuous
100
AcDbLine
 10
233.153943
 20
119.574284
 30
0.0
 11
233.153943
 21
111.9139979999999
 31
0.0
  0
LINE
  5
9E61
330
9E11
100
AcDbEntity
  8
1
  6
Continuous
100
AcDbLine
 10
78.836949
 20
194.366002
 30
0.0
 11
78.836949
 21
177.122304
 31
0.0
  0
LINE
  5
9E62
330
9E11
100
AcDbEntity
  8
1
  6
Continuous
100
AcDbLine
 10
85.13695199999999
 20
196.7442059999999
 30
0.0
 11
83.93695500000003
 21
196.7442059999999
 31
0.0
  0
LINE
  5
9E63
330
9E11
100
AcDbEntity
  8
1
  6
Continuous
100
AcDbLine
 10
83.93695500000003
 20
196.7441909999998
 30
0.0
 11
78.836949
 21
194.3659859999999
 31
0.0
  0
LINE
  5
9E64
330
9E11
100
AcDbEntity
  8
1
  6
Continuous
100
AcDbLine
 10
100.436955
 20
193.6442
 30
0.0
 11
100.436955
 21
177.844197
 31
0.0
  0
LINE
  5
9E65
330
9E11
100
AcDbEntity
  8
1
  6
Continuous
100
AcDbLine
 10
85.13695199999999
 20
174.744206
 30
0.0
 11
83.93695500000003
 21
174.744206
 31
0.0
  0
LINE
  5
9E66
330
9E11
100
AcDbEntity
  8
1
  6
Continuous
100
AcDbLine
 10
83.93695500000003
 20
174.744191
 30
0.0
 11
78.83694199999998
 21
177.122304
 31
0.0
  0
LINE
  5
9E67
330
9E11
100
AcDbEntity
  8
1
  6
Continuous
100
AcDbLine
 10
85.13695199999999
 20
174.744191
 30
0.0
 11
85.13695199999999
 21
196.7441909999998
 31
0.0
  0
LINE
  5
9E68
330
9E11
100
AcDbEntity
  8
1
  6
Continuous
100
AcDbLine
 10
83.93695500000003
 20
196.7441909999998
 30
0.0
 11
83.93695500000003
 21
174.744191
 31
0.0
  0
LINE
  5
9E69
330
9E11
100
AcDbEntity
  8
1
  6
Continuous
100
AcDbLine
 10
100.936943
 20
189.6442
 30
0.0
 11
100.586949
 21
189.6442
 31
0.0
  0
LINE
  5
9E6A
330
9E11
100
AcDbEntity
  8
1
  6
Continuous
100
AcDbLine
 10
100.936943
 20
188.9489939999999
 30
0.0
 11
100.586949
 21
188.9489939999999
 31
0.0
  0
LINE
  5
9E6B
330
9E11
100
AcDbEntity
  8
1
  6
Continuous
100
AcDbLine
 10
100.936943
 20
182.539403
 30
0.0
 11
100.586949
 21
182.539403
 31
0.0
  0
LINE
  5
9E6C
330
9E11
100
AcDbEntity
  8
1
  6
Continuous
100
AcDbLine
 10
100.936943
 20
181.844197
 30
0.0
 11
100.586949
 21
181.844197
 31
0.0
  0
LINE
  5
9E6D
330
9E11
100
AcDbEntity
  8
1
  6
Continuous
100
AcDbLine
 10
112.5369539999999
 20
187.444214
 30
0.0
 11
112.5369539999999
 21
184.0441979999999
 31
0.0
  0
LINE
  5
9E6E
330
9E11
100
AcDbEntity
  8
4
  6
CENTER
100
AcDbLine
 10
77.10255899999999
 20
185.7442059999999
 30
0.0
 11
114.4285399999999
 21
185.7442059999999
 31
0.0
  0
LINE
  5
9E6F
330
9E11
100
AcDbEntity
  8
1
  6
Continuous
100
AcDbLine
 10
100.586949
 20
188.4241989999999
 30
0.0
 11
100.936943
 21
188.4241989999999
 31
0.0
  0
LINE
  5
9E70
330
9E11
100
AcDbEntity
  8
1
  6
Continuous
100
AcDbLine
 10
100.586949
 20
183.064198
 30
0.0
 11
100.936943
 21
183.064198
 31
0.0
  0
LINE
  5
9E71
330
9E11
100
AcDbEntity
  8
1
  6
Continuous
100
AcDbLine
 10
100.586949
 20
179.2441909999998
 30
0.0
 11
100.586949
 21
192.244191
 31
0.0
  0
LINE
  5
9E72
330
9E11
100
AcDbEntity
  8
1
  6
Continuous
100
AcDbLine
 10
100.436955
 20
192.3942
 30
0.0
 11
100.5869569999999
 21
192.244206
 31
0.0
  0
LINE
  5
9E73
330
9E11
100
AcDbEntity
  8
1
  6
Continuous
100
AcDbLine
 10
100.586965
 20
179.2442059999999
 30
0.0
 11
100.436955
 21
179.094197
 31
0.0
  0
LINE
  5
9E74
330
9E11
100
AcDbEntity
  8
1
  6
Continuous
100
AcDbLine
 10
100.936943
 20
193.444195
 30
0.0
 11
100.936943
 21
178.2224799999999
 31
0.0
  0
LINE
  5
9E75
330
9E11
100
AcDbEntity
  8
1
  6
Continuous
100
AcDbLine
 10
102.5369489999998
 20
193.444195
 30
0.0
 11
102.5369489999998
 21
178.2224799999999
 31
0.0
  0
LINE
  5
9E76
330
9E11
100
AcDbEntity
  8
1
  6
Continuous
100
AcDbLine
 10
85.13695199999999
 20
193.6442
 30
0.0
 11
100.436955
 21
193.6442
 31
0.0
  0
LINE
  5
9E77
330
9E11
100
AcDbEntity
  8
1
  6
Continuous
100
AcDbLine
 10
85.13695199999999
 20
177.844197
 30
0.0
 11
100.436955
 21
177.844197
 31
0.0
  0
LINE
  5
9E78
330
9E11
100
AcDbEntity
  8
1
  6
Continuous
100
AcDbLine
 10
102.5369489999998
 20
183.0441979999999
 30
0.0
 11
111.5369539999999
 21
183.0441979999999
 31
0.0
  0
LINE
  5
9E79
330
9E11
100
AcDbEntity
  8
4
  6
CENTER
100
AcDbLine
 10
10.07765299999999
 20
185.7442059999999
 30
0.0
 11
51.720944
 21
185.7442059999999
 31
0.0
  0
LINE
  5
9E7A
330
9E11
100
AcDbEntity
  8
1
  6
Continuous
100
AcDbLine
 10
12.485253
 20
188.7442059999999
 30
0.0
 11
12.485253
 21
182.7442059999999
 31
0.0
  0
LINE
  5
9E7B
330
9E11
100
AcDbEntity
  8
1
  6
Continuous
100
AcDbLine
 10
18.985253
 20
176.2442059999999
 30
0.0
 11
27.985253
 21
176.2442059999999
 31
0.0
  0
LINE
  5
9E7C
330
9E11
100
AcDbEntity
  8
1
  6
Continuous
100
AcDbLine
 10
31.985253
 20
195.2442059999999
 30
0.0
 11
18.985253
 21
195.2442059999999
 31
0.0
  0
LINE
  5
9E7D
330
9E11
100
AcDbEntity
  8
1
  6
Continuous
100
AcDbLine
 10
34.485253
 20
189.6442
 30
0.0
 11
34.485253
 21
190.544194
 31
0.0
  0
LINE
  5
9E7E
330
9E11
100
AcDbEntity
  8
1
  6
Continuous
100
AcDbLine
 10
31.985261
 20
195.244191
 30
0.0
 11
41.155259
 21
193.127202
 31
0.0
  0
LINE
  5
9E7F
330
9E11
100
AcDbEntity
  8
1
  6
Continuous
100
AcDbLine
 10
34.485253
 20
190.544194
 30
0.0
 11
48.48525699999999
 21
190.544194
 31
0.0
  0
LINE
  5
9E80
330
9E11
100
AcDbEntity
  8
1
  6
Continuous
100
AcDbLine
 10
45.58524799999999
 20
191.444188
 30
0.0
 11
45.58524799999999
 21
190.544194
 31
0.0
  0
LINE
  5
9E81
330
9E11
100
AcDbEntity
  8
1
  6
Continuous
100
AcDbLine
 10
45.58524799999999
 20
191.444188
 30
0.0
 11
47.485257
 21
191.444188
 31
0.0
  0
LINE
  5
9E82
330
9E11
100
AcDbEntity
  8
1
  6
Continuous
100
AcDbLine
 10
47.085256
 20
190.544194
 30
0.0
 11
47.48524999999999
 21
190.6514019999999
 31
0.0
  0
LINE
  5
9E83
330
9E11
100
AcDbEntity
  8
1
  6
Continuous
100
AcDbLine
 10
47.485257
 20
190.6514019999999
 30
0.0
 11
47.485257
 21
191.444188
 31
0.0
  0
LINE
  5
9E84
330
9E11
100
AcDbEntity
  8
1
  6
Continuous
100
AcDbLine
 10
15.085252
 20
188.2442059999999
 30
0.0
 11
15.085252
 21
183.2442059999999
 31
0.0
  0
LINE
  5
9E85
330
9E11
100
AcDbEntity
  8
1
  6
Continuous
100
AcDbLine
 10
18.88525499999998
 20
183.2442059999999
 30
0.0
 11
18.88525499999998
 21
188.2442059999999
 31
0.0
  0
LINE
  5
9E86
330
9E11
100
AcDbEntity
  8
1
  6
Continuous
100
AcDbLine
 10
17.88525499999998
 20
189.244206
 30
0.0
 11
16.085252
 21
189.244206
 31
0.0
  0
LINE
  5
9E87
330
9E11
100
AcDbEntity
  8
1
  6
Continuous
100
AcDbLine
 10
42.08525199999999
 20
191.9578899999999
 30
0.0
 11
42.08525199999999
 21
190.544194
 31
0.0
  0
LINE
  5
9E88
330
9E11
100
AcDbEntity
  8
1
  6
Continuous
100
AcDbLine
 10
48.48525699999999
 20
180.9441879999999
 30
0.0
 11
35.68525000000001
 21
180.9441879999999
 31
0.0
  0
LINE
  5
9E89
330
9E11
100
AcDbEntity
  8
1
  6
Continuous
100
AcDbLine
 10
28.68524999999999
 20
184.0238079999998
 30
0.0
 11
28.68524999999999
 21
187.4646959999998
 31
0.0
  0
LINE
  5
9E8A
330
9E11
100
AcDbEntity
  8
1
  6
Continuous
100
AcDbLine
 10
48.685254
 20
190.344197
 30
0.0
 11
48.685254
 21
181.1442
 31
0.0
  0
LINE
  5
9E8B
330
9E11
100
AcDbEntity
  8
1
  6
Continuous
100
AcDbLine
 10
35.485253
 20
189.6442
 30
0.0
 11
35.485253
 21
181.844197
 31
0.0
  0
LINE
  5
9E8C
330
9E11
100
AcDbEntity
  8
1
  6
Continuous
100
AcDbLine
 10
32.18525
 20
189.6442
 30
0.0
 11
35.485253
 21
189.6442
 31
0.0
  0
LINE
  5
9E8D
330
9E11
100
AcDbEntity
  8
1
  6
Continuous
100
AcDbLine
 10
32.18525
 20
181.844197
 30
0.0
 11
35.485253
 21
181.844197
 31
0.0
  0
LINE
  5
9E8E
330
9E11
100
AcDbEntity
  8
1
  6
Continuous
100
AcDbLine
 10
48.48526500000001
 20
180.9442179999998
 30
0.0
 11
48.685262
 21
181.1442149999998
 31
0.0
  0
LINE
  5
9E8F
330
9E11
100
AcDbEntity
  8
1
  6
Continuous
100
AcDbLine
 10
48.48526500000001
 20
190.544209
 30
0.0
 11
48.68526899999999
 21
190.344212
 31
0.0
  0
LINE
  5
9E90
330
9E11
100
AcDbEntity
  8
1
  6
Continuous
100
AcDbLine
 10
35.48526499999999
 20
181.1442
 30
0.0
 11
35.685262
 21
180.9442029999999
 31
0.0
  0
LINE
  5
9E91
330
9E11
100
AcDbEntity
  8
1
  6
Continuous
100
AcDbLine
 10
35.48526499999999
 20
190.344212
 30
0.0
 11
35.685269
 21
190.544209
 31
0.0
  0
LINE
  5
9E92
330
9E11
100
AcDbEntity
  8
1
  6
Continuous
100
AcDbLine
 10
35.485253
 20
181.1442
 30
0.0
 11
35.485253
 21
181.844197
 31
0.0
  0
LINE
  5
9E93
330
9E11
100
AcDbEntity
  8
1
  6
Continuous
100
AcDbLine
 10
35.485253
 20
190.344197
 30
0.0
 11
35.485253
 21
189.6442
 31
0.0
  0
LINE
  5
9E94
330
9E11
100
AcDbEntity
  8
1
  6
Continuous
100
AcDbLine
 10
16.085252
 20
182.244206
 30
0.0
 11
17.88525499999998
 21
182.244206
 31
0.0
  0
LINE
  5
9E95
330
9E11
100
AcDbEntity
  8
1
  6
Continuous
100
AcDbLine
 10
94.63695200000001
 20
124.444203
 30
0.0
 11
94.63695200000001
 21
119.388385
 31
0.0
  0
LINE
  5
9E96
330
9E11
100
AcDbEntity
  8
4
  6
CENTER
100
AcDbLine
 10
140.3121159999998
 20
185.7442059999999
 30
0.0
 11
179.5081759999999
 21
185.7442059999999
 31
0.0
  0
LINE
  5
9E97
330
9E11
100
AcDbEntity
  8
1
  6
Continuous
100
AcDbLine
 10
159.998502
 20
189.39861
 30
0.0
 11
159.998502
 21
189.0134019999999
 31
0.0
  0
LINE
  5
9E98
330
9E11
100
AcDbEntity
  8
1
  6
Continuous
100
AcDbLine
 10
161.998502
 20
189.040898
 30
0.0
 11
161.998502
 21
188.655705
 31
0.0
  0
LINE
  5
9E99
330
9E11
100
AcDbEntity
  8
1
  6
Continuous
100
AcDbLine
 10
160.598508
 20
192.244206
 30
0.0
 11
160.598508
 21
179.2442059999999
 31
0.0
  0
LINE
  5
9E9A
330
9E11
100
AcDbEntity
  8
1
  6
Continuous
100
AcDbLine
 10
161.398511
 20
192.244206
 30
0.0
 11
161.398511
 21
179.2442059999999
 31
0.0
  0
LINE
  5
9E9B
330
9E11
100
AcDbEntity
  8
1
  6
Continuous
100
AcDbLine
 10
160.598508
 20
192.244206
 30
0.0
 11
161.398511
 21
192.244206
 31
0.0
  0
LINE
  5
9E9C
330
9E11
100
AcDbEntity
  8
1
  6
Continuous
100
AcDbLine
 10
160.598508
 20
179.2442059999999
 30
0.0
 11
161.398511
 21
179.2442059999999
 31
0.0
  0
LINE
  5
9E9D
330
9E11
100
AcDbEntity
  8
1
  6
Continuous
100
AcDbLine
 10
159.998502
 20
189.398594
 30
0.0
 11
160.5984929999999
 21
189.2912949999999
 31
0.0
  0
LINE
  5
9E9E
330
9E11
100
AcDbEntity
  8
1
  6
Continuous
100
AcDbLine
 10
160.397412
 20
188.261494
 30
0.0
 11
160.5984929999999
 21
188.167302
 31
0.0
  0
LINE
  5
9E9F
330
9E11
100
AcDbEntity
  8
1
  6
Continuous
100
AcDbLine
 10
160.4772309999999
 20
186.4429059999999
 30
0.0
 11
160.598508
 21
186.372716
 31
0.0
  0
LINE
  5
9EA0
330
9E11
100
AcDbEntity
  8
1
  6
Continuous
100
AcDbLine
 10
159.998517
 20
184.064427
 30
0.0
 11
160.598508
 21
183.783421
 31
0.0
  0
LINE
  5
9EA1
330
9E11
100
AcDbEntity
  8
1
  6
Continuous
100
AcDbLine
 10
159.998502
 20
182.4473919999999
 30
0.0
 11
160.5984929999999
 21
182.340092
 31
0.0
  0
LINE
  5
9EA2
330
9E11
100
AcDbEntity
  8
1
  6
Continuous
100
AcDbLine
 10
159.998502
 20
189.0134019999999
 30
0.0
 11
160.5984929999999
 21
188.9061019999998
 31
0.0
  0
LINE
  5
9EA3
330
9E11
100
AcDbEntity
  8
1
  6
Continuous
100
AcDbLine
 10
160.001508
 20
187.816304
 30
0.0
 11
160.598508
 21
187.5367019999999
 31
0.0
  0
LINE
  5
9EA4
330
9E11
100
AcDbEntity
  8
1
  6
Continuous
100
AcDbLine
 10
160.077909
 20
185.7497139999999
 30
0.0
 11
160.598508
 21
185.4483079999999
 31
0.0
  0
LINE
  5
9EA5
330
9E11
100
AcDbEntity
  8
1
  6
Continuous
100
AcDbLine
 10
159.998502
 20
183.6031079999999
 30
0.0
 11
160.598508
 21
183.3222089999999
 31
0.0
  0
LINE
  5
9EA6
330
9E11
100
AcDbEntity
  8
1
  6
Continuous
100
AcDbLine
 10
159.998502
 20
182.069401
 30
0.0
 11
160.5984929999999
 21
181.9621019999999
 31
0.0
  0
LINE
  5
9EA7
330
9E11
100
AcDbEntity
  8
1
  6
Continuous
100
AcDbLine
 10
159.998502
 20
184.064412
 30
0.0
 11
159.998502
 21
183.6031079999999
 31
0.0
  0
LINE
  5
9EA8
330
9E11
100
AcDbEntity
  8
1
  6
Continuous
100
AcDbLine
 10
159.998502
 20
182.4474069999999
 30
0.0
 11
159.998502
 21
182.069401
 31
0.0
  0
LINE
  5
9EA9
330
9E11
100
AcDbEntity
  8
1
  6
Continuous
100
AcDbLine
 10
160.013211
 20
187.8295029999999
 30
0.0
 11
160.4091159999998
 21
188.274617
 31
0.0
  0
LINE
  5
9EAA
330
9E11
100
AcDbEntity
  8
1
  6
Continuous
100
AcDbLine
 10
161.6026119999999
 20
187.066609
 30
0.0
 11
161.998532
 21
187.5117229999999
 31
0.0
  0
LINE
  5
9EAB
330
9E11
100
AcDbEntity
  8
1
  6
Continuous
100
AcDbLine
 10
160.077909
 20
185.7497139999999
 30
0.0
 11
160.477216
 21
186.4429209999999
 31
0.0
  0
LINE
  5
9EAC
330
9E11
100
AcDbEntity
  8
1
  6
Continuous
100
AcDbLine
 10
162.077909
 20
185.516408
 30
0.0
 11
161.773419
 21
184.7683299999999
 31
0.0
  0
LINE
  5
9EAD
330
9E11
100
AcDbEntity
  8
1
  6
Continuous
100
AcDbLine
 10
161.3984959999999
 20
189.148198
 30
0.0
 11
161.998502
 21
189.040898
 31
0.0
  0
LINE
  5
9EAE
330
9E11
100
AcDbEntity
  8
1
  6
Continuous
100
AcDbLine
 10
161.3984959999999
 20
188.763005
 30
0.0
 11
161.998502
 21
188.65569
 31
0.0
  0
LINE
  5
9EAF
330
9E11
100
AcDbEntity
  8
1
  6
Continuous
100
AcDbLine
 10
161.398511
 20
187.7927139999999
 30
0.0
 11
161.998502
 21
187.511708
 31
0.0
  0
LINE
  5
9EB0
330
9E11
100
AcDbEntity
  8
1
  6
Continuous
100
AcDbLine
 10
161.3984959999999
 20
187.162099
 30
0.0
 11
161.6026119999999
 21
187.066609
 31
0.0
  0
LINE
  5
9EB1
330
9E11
100
AcDbEntity
  8
1
  6
Continuous
100
AcDbLine
 10
161.398511
 20
185.9095959999999
 30
0.0
 11
162.077909
 21
185.516392
 31
0.0
  0
LINE
  5
9EB2
330
9E11
100
AcDbEntity
  8
1
  6
Continuous
100
AcDbLine
 10
161.3984959999999
 20
184.985295
 30
0.0
 11
161.773404
 21
184.7683
 31
0.0
  0
LINE
  5
9EB3
330
9E11
100
AcDbEntity
  8
1
  6
Continuous
100
AcDbLine
 10
161.398511
 20
183.408818
 30
0.0
 11
161.9985169999999
 21
183.127919
 31
0.0
  0
LINE
  5
9EB4
330
9E11
100
AcDbEntity
  8
1
  6
Continuous
100
AcDbLine
 10
161.398511
 20
182.947606
 30
0.0
 11
161.611798
 21
182.8477059999999
 31
0.0
  0
LINE
  5
9EB5
330
9E11
100
AcDbEntity
  8
1
  6
Continuous
100
AcDbLine
 10
161.3984959999999
 20
182.1969799999999
 30
0.0
 11
161.998502
 21
182.0896799999999
 31
0.0
  0
LINE
  5
9EB6
330
9E11
100
AcDbEntity
  8
1
  6
Continuous
100
AcDbLine
 10
161.398511
 20
181.818989
 30
0.0
 11
161.5894139999998
 21
181.7849009999999
 31
0.0
  0
LINE
  5
9EB7
330
9E11
100
AcDbEntity
  8
1
  6
Continuous
100
AcDbLine
 10
171.787518
 20
191.244206
 30
0.0
 11
171.787518
 21
180.2442059999999
 31
0.0
  0
LINE
  5
9EB8
330
9E11
100
AcDbEntity
  8
1
  6
Continuous
100
AcDbLine
 10
175.987515
 20
191.244206
 30
0.0
 11
175.987515
 21
180.2442059999999
 31
0.0
  0
LINE
  5
9EB9
330
9E11
100
AcDbEntity
  8
1
  6
Continuous
100
AcDbLine
 10
144.1613129999998
 20
196.7442059999999
 30
0.0
 11
144.1613129999998
 21
174.744206
 31
0.0
  0
LINE
  5
9EBA
330
9E11
100
AcDbEntity
  8
1
  6
Continuous
100
AcDbLine
 10
147.6613129999998
 20
196.7442059999999
 30
0.0
 11
147.6613129999998
 21
174.744206
 31
0.0
  0
LINE
  5
9EBB
330
9E11
100
AcDbEntity
  8
1
  6
Continuous
100
AcDbLine
 10
146.6990179999999
 20
185.7442059999999
 30
0.0
 11
144.1613129999998
 21
185.7442059999999
 31
0.0
  0
LINE
  5
9EBC
330
9E11
100
AcDbEntity
  8
1
  6
Continuous
100
AcDbLine
 10
144.1613129999998
 20
174.744206
 30
0.0
 11
147.6613129999998
 21
174.744206
 31
0.0
  0
LINE
  5
9EBD
330
9E11
100
AcDbEntity
  8
1
  6
Continuous
100
AcDbLine
 10
144.1613129999998
 20
196.7442059999999
 30
0.0
 11
147.6613129999998
 21
196.7442059999999
 31
0.0
  0
LINE
  5
9EBE
330
9E11
100
AcDbEntity
  8
1
  6
Continuous
100
AcDbLine
 10
171.787518
 20
191.244206
 30
0.0
 11
175.987515
 21
191.244206
 31
0.0
  0
LINE
  5
9EBF
330
9E11
100
AcDbEntity
  8
1
  6
Continuous
100
AcDbLine
 10
171.787518
 20
180.2442059999999
 30
0.0
 11
175.987515
 21
180.2442059999999
 31
0.0
  0
LINE
  5
9EC0
330
9E11
100
AcDbEntity
  8
1
  6
Continuous
100
AcDbLine
 10
175.496274
 20
185.7442059999999
 30
0.0
 11
172.27876
 21
185.7442059999999
 31
0.0
  0
LINE
  5
9EC1
330
9E11
100
AcDbEntity
  8
1
  6
Continuous
100
AcDbLine
 10
159.998517
 20
119.3985939999999
 30
0.0
 11
159.998517
 21
119.013402
 31
0.0
  0
LINE
  5
9EC2
330
9E11
100
AcDbEntity
  8
1
  6
Continuous
100
AcDbLine
 10
161.9985169999999
 20
119.0408979999999
 30
0.0
 11
161.9985169999999
 21
118.655705
 31
0.0
  0
LINE
  5
9EC3
330
9E11
100
AcDbEntity
  8
1
  6
Continuous
100
AcDbLine
 10
160.598508
 20
122.244206
 30
0.0
 11
160.598508
 21
109.244198
 31
0.0
  0
LINE
  5
9EC4
330
9E11
100
AcDbEntity
  8
1
  6
Continuous
100
AcDbLine
 10
161.398511
 20
122.244206
 30
0.0
 11
161.398511
 21
109.244198
 31
0.0
  0
LINE
  5
9EC5
330
9E11
100
AcDbEntity
  8
1
  6
Continuous
100
AcDbLine
 10
160.598508
 20
122.244206
 30
0.0
 11
161.398511
 21
122.244206
 31
0.0
  0
LINE
  5
9EC6
330
9E11
100
AcDbEntity
  8
1
  6
Continuous
100
AcDbLine
 10
160.598508
 20
109.244198
 30
0.0
 11
161.398511
 21
109.244198
 31
0.0
  0
LINE
  5
9EC7
330
9E11
100
AcDbEntity
  8
1
  6
Continuous
100
AcDbLine
 10
159.998517
 20
119.3985939999999
 30
0.0
 11
160.5985229999998
 21
119.2912949999999
 31
0.0
  0
LINE
  5
9EC8
330
9E11
100
AcDbEntity
  8
1
  6
Continuous
100
AcDbLine
 10
160.397321
 20
118.261494
 30
0.0
 11
160.5985229999998
 21
118.167302
 31
0.0
  0
LINE
  5
9EC9
330
9E11
100
AcDbEntity
  8
1
  6
Continuous
100
AcDbLine
 10
160.477216
 20
116.4429139999999
 30
0.0
 11
160.5985229999998
 21
116.372716
 31
0.0
  0
LINE
  5
9ECA
330
9E11
100
AcDbEntity
  8
1
  6
Continuous
100
AcDbLine
 10
159.998532
 20
114.0643889999999
 30
0.0
 11
160.5985229999998
 21
113.7834899999998
 31
0.0
  0
LINE
  5
9ECB
330
9E11
100
AcDbEntity
  8
1
  6
Continuous
100
AcDbLine
 10
159.998532
 20
112.4474909999999
 30
0.0
 11
160.5985229999998
 21
112.3400919999999
 31
0.0
  0
LINE
  5
9ECC
330
9E11
100
AcDbEntity
  8
1
  6
Continuous
100
AcDbLine
 10
159.998532
 20
119.013402
 30
0.0
 11
160.5985229999998
 21
118.906102
 31
0.0
  0
LINE
  5
9ECD
330
9E11
100
AcDbEntity
  8
1
  6
Continuous
100
AcDbLine
 10
160.0014159999998
 20
117.816304
 30
0.0
 11
160.5985229999998
 21
117.536702
 31
0.0
  0
LINE
  5
9ECE
330
9E11
100
AcDbEntity
  8
1
  6
Continuous
100
AcDbLine
 10
160.077832
 20
115.749707
 30
0.0
 11
160.5985229999998
 21
115.448308
 31
0.0
  0
LINE
  5
9ECF
330
9E11
100
AcDbEntity
  8
1
  6
Continuous
100
AcDbLine
 10
159.998517
 20
113.603085
 30
0.0
 11
160.5985229999998
 21
113.322186
 31
0.0
  0
LINE
  5
9ED0
330
9E11
100
AcDbEntity
  8
1
  6
Continuous
100
AcDbLine
 10
159.998517
 20
112.0693939999999
 30
0.0
 11
160.5985229999998
 21
111.9620939999998
 31
0.0
  0
LINE
  5
9ED1
330
9E11
100
AcDbEntity
  8
1
  6
Continuous
100
AcDbLine
 10
159.998517
 20
114.064396
 30
0.0
 11
159.998517
 21
113.6031
 31
0.0
  0
LINE
  5
9ED2
330
9E11
100
AcDbEntity
  8
1
  6
Continuous
100
AcDbLine
 10
159.998517
 20
112.4474989999998
 30
0.0
 11
159.998517
 21
112.069401
 31
0.0
  0
LINE
  5
9ED3
330
9E11
100
AcDbEntity
  8
1
  6
Continuous
100
AcDbLine
 10
160.013226
 20
117.829503
 30
0.0
 11
160.4091159999998
 21
118.2746019999999
 31
0.0
  0
LINE
  5
9ED4
330
9E11
100
AcDbEntity
  8
1
  6
Continuous
100
AcDbLine
 10
161.6026279999998
 20
117.066601
 30
0.0
 11
161.998532
 21
117.511708
 31
0.0
  0
LINE
  5
9ED5
330
9E11
100
AcDbEntity
  8
1
  6
Continuous
100
AcDbLine
 10
160.077832
 20
115.749707
 30
0.0
 11
160.4772309999999
 21
116.442906
 31
0.0
  0
LINE
  5
9ED6
330
9E11
100
AcDbEntity
  8
1
  6
Continuous
100
AcDbLine
 10
162.0778019999999
 20
115.5163919999999
 30
0.0
 11
161.773404
 21
114.7683
 31
0.0
  0
LINE
  5
9ED7
330
9E11
100
AcDbEntity
  8
1
  6
Continuous
100
AcDbLine
 10
161.3985259999998
 20
119.148198
 30
0.0
 11
161.9985169999999
 21
119.0408979999999
 31
0.0
  0
LINE
  5
9ED8
330
9E11
100
AcDbEntity
  8
1
  6
Continuous
100
AcDbLine
 10
161.3985259999998
 20
118.763005
 30
0.0
 11
161.9985169999999
 21
118.655705
 31
0.0
  0
LINE
  5
9ED9
330
9E11
100
AcDbEntity
  8
1
  6
Continuous
100
AcDbLine
 10
161.3985259999998
 20
117.7927139999999
 30
0.0
 11
161.998532
 21
117.511723
 31
0.0
  0
LINE
  5
9EDA
330
9E11
100
AcDbEntity
  8
1
  6
Continuous
100
AcDbLine
 10
161.3985259999998
 20
117.1620909999999
 30
0.0
 11
161.6026279999998
 21
117.066586
 31
0.0
  0
LINE
  5
9EDB
330
9E11
100
AcDbEntity
  8
1
  6
Continuous
100
AcDbLine
 10
161.398511
 20
115.909604
 30
0.0
 11
162.0778169999999
 21
115.5164
 31
0.0
  0
LINE
  5
9EDC
330
9E11
100
AcDbEntity
  8
1
  6
Continuous
100
AcDbLine
 10
161.398511
 20
114.985287
 30
0.0
 11
161.773419
 21
114.7682919999999
 31
0.0
  0
LINE
  5
9EDD
330
9E11
100
AcDbEntity
  8
1
  6
Continuous
100
AcDbLine
 10
161.3985259999998
 20
113.408787
 30
0.0
 11
161.998532
 21
113.1278879999999
 31
0.0
  0
LINE
  5
9EDE
330
9E11
100
AcDbEntity
  8
1
  6
Continuous
100
AcDbLine
 10
161.398511
 20
112.947598
 30
0.0
 11
161.611707
 21
112.847699
 31
0.0
  0
LINE
  5
9EDF
330
9E11
100
AcDbEntity
  8
1
  6
Continuous
100
AcDbLine
 10
161.3985259999998
 20
112.1969879999999
 30
0.0
 11
161.9985169999999
 21
112.0896879999999
 31
0.0
  0
LINE
  5
9EE0
330
9E11
100
AcDbEntity
  8
1
  6
Continuous
100
AcDbLine
 10
161.3984959999999
 20
111.818974
 30
0.0
 11
161.589292
 21
111.784878
 31
0.0
  0
LINE
  5
9EE1
330
9E11
100
AcDbEntity
  8
1
  6
Continuous
100
AcDbLine
 10
144.1613129999998
 20
128.4458969999998
 30
0.0
 11
144.1613129999998
 21
103.042492
 31
0.0
  0
LINE
  5
9EE2
330
9E11
100
AcDbEntity
  8
1
  6
Continuous
100
AcDbLine
 10
147.6613129999998
 20
126.744206
 30
0.0
 11
147.6613129999998
 21
104.7441979999998
 31
0.0
  0
LINE
  5
9EE3
330
9E11
100
AcDbEntity
  8
1
  6
Continuous
100
AcDbLine
 10
171.787518
 20
121.244206
 30
0.0
 11
171.787518
 21
110.244198
 31
0.0
  0
LINE
  5
9EE4
330
9E11
100
AcDbEntity
  8
1
  6
Continuous
100
AcDbLine
 10
175.987515
 20
121.244206
 30
0.0
 11
175.987515
 21
110.244198
 31
0.0
  0
LINE
  5
9EE5
330
9E11
100
AcDbEntity
  8
4
  6
CENTER
100
AcDbLine
 10
139.8607149999999
 20
115.7441979999999
 30
0.0
 11
179.5081759999999
 21
115.7441979999999
 31
0.0
  0
LINE
  5
9EE6
330
9E11
100
AcDbEntity
  8
1
  6
Continuous
100
AcDbLine
 10
144.1613129999998
 20
103.042492
 30
0.0
 11
146.67883
 21
103.042492
 31
0.0
  0
LINE
  5
9EE7
330
9E11
100
AcDbEntity
  8
1
  6
Continuous
100
AcDbLine
 10
144.1613129999998
 20
128.4458969999998
 30
0.0
 11
146.67883
 21
128.4458969999998
 31
0.0
  0
LINE
  5
9EE8
330
9E11
100
AcDbEntity
  8
1
  6
Continuous
100
AcDbLine
 10
144.1613129999998
 20
122.095036
 30
0.0
 11
146.67883
 21
122.095036
 31
0.0
  0
LINE
  5
9EE9
330
9E11
100
AcDbEntity
  8
1
  6
Continuous
100
AcDbLine
 10
144.1613129999998
 20
109.3933449999999
 30
0.0
 11
146.67883
 21
109.3933449999999
 31
0.0
  0
LINE
  5
9EEA
330
9E11
100
AcDbEntity
  8
1
  6
Continuous
100
AcDbLine
 10
146.67883
 20
103.042492
 30
0.0
 11
147.6613129999998
 21
104.7441829999998
 31
0.0
  0
LINE
  5
9EEB
330
9E11
100
AcDbEntity
  8
1
  6
Continuous
100
AcDbLine
 10
146.67883
 20
128.4459119999999
 30
0.0
 11
147.6613129999998
 21
126.744206
 31
0.0
  0
LINE
  5
9EEC
330
9E11
100
AcDbEntity
  8
1
  6
Continuous
100
AcDbLine
 10
172.27876
 20
122.095036
 30
0.0
 11
175.496274
 21
122.095036
 31
0.0
  0
LINE
  5
9EED
330
9E11
100
AcDbEntity
  8
1
  6
Continuous
100
AcDbLine
 10
172.27876
 20
118.9196209999999
 30
0.0
 11
175.496274
 21
118.9196209999999
 31
0.0
  0
LINE
  5
9EEE
330
9E11
100
AcDbEntity
  8
1
  6
Continuous
100
AcDbLine
 10
172.27876
 20
112.5687679999999
 30
0.0
 11
175.496274
 21
112.5687679999999
 31
0.0
  0
LINE
  5
9EEF
330
9E11
100
AcDbEntity
  8
1
  6
Continuous
100
AcDbLine
 10
172.27876
 20
109.3933379999999
 30
0.0
 11
175.496274
 21
109.3933379999999
 31
0.0
  0
LINE
  5
9EF0
330
9E11
100
AcDbEntity
  8
1
  6
Continuous
100
AcDbLine
 10
175.496274
 20
122.0950669999999
 30
0.0
 11
175.987515
 21
121.244206
 31
0.0
  0
LINE
  5
9EF1
330
9E11
100
AcDbEntity
  8
1
  6
Continuous
100
AcDbLine
 10
171.787518
 20
121.2441909999999
 30
0.0
 11
172.27876
 21
122.0950509999999
 31
0.0
  0
LINE
  5
9EF2
330
9E11
100
AcDbEntity
  8
1
  6
Continuous
100
AcDbLine
 10
171.787518
 20
110.244198
 30
0.0
 11
172.27876
 21
109.3933379999999
 31
0.0
  0
LINE
  5
9EF3
330
9E11
100
AcDbEntity
  8
1
  6
Continuous
100
AcDbLine
 10
175.496274
 20
109.3933299999999
 30
0.0
 11
175.987515
 21
110.244198
 31
0.0
  0
LINE
  5
9EF4
330
9E11
100
AcDbEntity
  8
1
  6
Continuous
100
AcDbLine
 10
112.5369389999999
 20
184.0441829999998
 30
0.0
 11
111.5369389999999
 21
183.044183
 31
0.0
  0
LINE
  5
9EF5
330
9E11
100
AcDbEntity
  8
1
  6
Continuous
100
AcDbLine
 10
111.5369539999999
 20
188.4442139999999
 30
0.0
 11
111.5369539999999
 21
183.0441979999999
 31
0.0
  0
LINE
  5
9EF6
330
9E11
100
AcDbEntity
  8
1
  6
Continuous
100
AcDbLine
 10
111.5369539999999
 20
119.2441999999999
 30
0.0
 11
112.5369539999999
 21
118.2441999999999
 31
0.0
  0
LINE
  5
9EF7
330
9E11
100
AcDbEntity
  8
1
  6
Continuous
100
AcDbLine
 10
112.5369539999999
 20
113.2442049999999
 30
0.0
 11
111.5369539999999
 21
112.244197
 31
0.0
  0
LINE
  5
9EF8
330
9E11
100
AcDbEntity
  8
1
  6
Continuous
100
AcDbLine
 10
111.5369539999999
 20
119.2441999999999
 30
0.0
 11
111.5369539999999
 21
117.9713129999999
 31
0.0
  0
LINE
  5
9EF9
330
9E11
100
AcDbEntity
  8
1
  6
Continuous
100
AcDbLine
 10
103.5647479999999
 20
119.2441999999999
 30
0.0
 11
103.5647479999999
 21
117.9713129999999
 31
0.0
  0
LINE
  5
9EFA
330
9E11
100
AcDbEntity
  8
2
  6
Continuous
100
AcDbLine
 10
103.5647479999999
 20
118.8382
 30
0.0
 11
111.942954
 21
118.8382
 31
0.0
  0
LINE
  5
9EFB
330
9E11
100
AcDbEntity
  8
2
  6
Continuous
100
AcDbLine
 10
103.5647479999999
 20
112.6501969999999
 30
0.0
 11
111.942951
 21
112.6501969999999
 31
0.0
  0
LINE
  5
9EFC
330
9E11
100
AcDbEntity
  8
2
  6
Continuous
100
AcDbLine
 10
103.236951
 20
112.460943
 30
0.0
 11
103.5647479999999
 21
112.6501969999999
 31
0.0
  0
LINE
  5
9EFD
330
9E11
100
AcDbEntity
  8
2
  6
Continuous
100
AcDbLine
 10
103.236951
 20
119.0274529999999
 30
0.0
 11
103.5647549999999
 21
118.8382
 31
0.0
  0
LINE
  5
9EFE
330
9E11
100
AcDbEntity
  8
2
  6
Continuous
100
AcDbLine
 10
85.66695199999998
 20
124.7027019999999
 30
0.0
 11
94.24271899999999
 21
124.7027019999999
 31
0.0
  0
LINE
  5
9EFF
330
9E11
100
AcDbEntity
  8
2
  6
Continuous
100
AcDbLine
 10
85.66695199999998
 20
106.7856949999999
 30
0.0
 11
94.24271899999999
 21
106.7856949999999
 31
0.0
  0
LINE
  5
9F00
330
9E11
100
AcDbEntity
  8
2
  6
Continuous
100
AcDbLine
 10
85.13695199999999
 20
106.4796929999999
 30
0.0
 11
85.66695199999998
 21
106.7856949999999
 31
0.0
  0
LINE
  5
9F01
330
9E11
100
AcDbEntity
  8
1
  6
Continuous
100
AcDbLine
 10
103.236951
 20
188.4442139999999
 30
0.0
 11
103.236951
 21
183.0441979999999
 31
0.0
  0
LINE
  5
9F02
330
9E11
100
AcDbEntity
  8
1
  6
Continuous
100
AcDbLine
 10
103.5647479999999
 20
188.4442139999999
 30
0.0
 11
103.5647479999999
 21
183.0441979999999
 31
0.0
  0
LINE
  5
9F03
330
9E11
100
AcDbEntity
  8
1
  6
Continuous
100
AcDbLine
 10
230.9539609999999
 20
112.568783
 30
0.0
 11
225.453946
 21
109.393353
 31
0.0
  0
LINE
  5
9F04
330
9E11
100
AcDbEntity
  8
1
  6
Continuous
100
AcDbLine
 10
225.453961
 20
122.0950669999999
 30
0.0
 11
219.953946
 21
118.919636
 31
0.0
  0
LINE
  5
9F05
330
9E11
100
AcDbEntity
  8
1
  6
Continuous
100
AcDbLine
 10
219.953946
 20
112.5687759999999
 30
0.0
 11
219.953946
 21
118.9196209999999
 31
0.0
  0
LINE
  5
9F06
330
9E11
100
AcDbEntity
  8
1
  6
Continuous
100
AcDbLine
 10
230.9539459999998
 20
112.5687759999999
 30
0.0
 11
230.9539459999998
 21
118.9196209999999
 31
0.0
  0
LINE
  5
9F07
330
9E11
100
AcDbEntity
  8
1
  6
Continuous
100
AcDbLine
 10
225.453946
 20
109.3933379999999
 30
0.0
 11
219.953946
 21
112.5687679999999
 31
0.0
  0
LINE
  5
9F08
330
9E11
100
AcDbEntity
  8
1
  6
Continuous
100
AcDbLine
 10
230.9539459999998
 20
118.9196209999999
 30
0.0
 11
225.453946
 21
122.0950509999999
 31
0.0
  0
LINE
  5
9F09
330
9E11
100
AcDbEntity
  8
1
  6
Continuous
100
AcDbLine
 10
236.453946
 20
109.3933449999999
 30
0.0
 11
225.453931
 21
103.0424849999999
 31
0.0
  0
LINE
  5
9F0A
330
9E11
100
AcDbEntity
  8
1
  6
Continuous
100
AcDbLine
 10
225.453946
 20
128.4459119999999
 30
0.0
 11
214.453931
 21
122.0950509999999
 31
0.0
  0
LINE
  5
9F0B
330
9E11
100
AcDbEntity
  8
1
  6
Continuous
100
AcDbLine
 10
214.453946
 20
109.3933449999999
 30
0.0
 11
214.453946
 21
122.0950509999999
 31
0.0
  0
LINE
  5
9F0C
330
9E11
100
AcDbEntity
  8
1
  6
Continuous
100
AcDbLine
 10
236.453946
 20
109.3933449999999
 30
0.0
 11
236.453946
 21
122.0950509999999
 31
0.0
  0
LINE
  5
9F0D
330
9E11
100
AcDbEntity
  8
1
  6
Continuous
100
AcDbLine
 10
225.453946
 20
103.042492
 30
0.0
 11
214.453946
 21
109.3933449999999
 31
0.0
  0
LINE
  5
9F0E
330
9E11
100
AcDbEntity
  8
1
  6
Continuous
100
AcDbLine
 10
236.453946
 20
122.0950509999999
 30
0.0
 11
225.453946
 21
128.4458969999998
 31
0.0
  0
LINE
  5
9F0F
330
9E11
100
AcDbEntity
  8
1
  6
Continuous
100
AcDbLine
 10
78.836949
 20
37.12239499999999
 30
0.0
 11
78.836949
 21
54.366093
 31
0.0
  0
LINE
  5
9F10
330
9E11
100
AcDbEntity
  8
1
  6
Continuous
100
AcDbLine
 10
85.13695199999999
 20
34.744191
 30
0.0
 11
83.93695500000003
 21
34.744191
 31
0.0
  0
LINE
  5
9F11
330
9E11
100
AcDbEntity
  8
1
  6
Continuous
100
AcDbLine
 10
83.93695500000003
 20
34.74419799999999
 30
0.0
 11
78.836949
 21
37.122399
 31
0.0
  0
LINE
  5
9F12
330
9E11
100
AcDbEntity
  8
1
  6
Continuous
100
AcDbLine
 10
100.436955
 20
37.84419699999999
 30
0.0
 11
100.436955
 21
41.84419699999997
 31
0.0
  0
LINE
  5
9F13
330
9E11
100
AcDbEntity
  8
1
  6
Continuous
100
AcDbLine
 10
85.13695199999999
 20
56.744191
 30
0.0
 11
83.93695500000003
 21
56.744191
 31
0.0
  0
LINE
  5
9F14
330
9E11
100
AcDbEntity
  8
1
  6
Continuous
100
AcDbLine
 10
83.93695500000003
 20
56.74420600000001
 30
0.0
 11
78.83694199999998
 21
54.366101
 31
0.0
  0
LINE
  5
9F15
330
9E11
100
AcDbEntity
  8
1
  6
Continuous
100
AcDbLine
 10
85.13695199999999
 20
56.74420600000001
 30
0.0
 11
85.13695199999999
 21
34.744206
 31
0.0
  0
LINE
  5
9F16
330
9E11
100
AcDbEntity
  8
1
  6
Continuous
100
AcDbLine
 10
83.93695500000003
 20
34.744206
 30
0.0
 11
83.93695500000003
 21
56.74420600000001
 31
0.0
  0
LINE
  5
9F17
330
9E11
100
AcDbEntity
  8
1
  6
Continuous
100
AcDbLine
 10
102.236951
 20
41.84419699999997
 30
0.0
 11
100.436955
 21
41.84419699999997
 31
0.0
  0
LINE
  5
9F18
330
9E11
100
AcDbEntity
  8
1
  6
Continuous
100
AcDbLine
 10
102.236951
 20
49.6442
 30
0.0
 11
100.436955
 21
49.6442
 31
0.0
  0
LINE
  5
9F19
330
9E11
100
AcDbEntity
  8
1
  6
Continuous
100
AcDbLine
 10
112.5369539999999
 20
44.044198
 30
0.0
 11
112.5369539999999
 21
47.444183
 31
0.0
  0
LINE
  5
9F1A
330
9E11
100
AcDbEntity
  8
4
  6
CENTER
100
AcDbLine
 10
77.10255899999999
 20
45.744191
 30
0.0
 11
114.4285399999999
 21
45.744191
 31
0.0
  0
LINE
  5
9F1B
330
9E11
100
AcDbEntity
  8
1
  6
Continuous
100
AcDbLine
 10
100.586949
 20
52.244206
 30
0.0
 11
100.586949
 21
49.6442
 31
0.0
  0
LINE
  5
9F1C
330
9E11
100
AcDbEntity
  8
1
  6
Continuous
100
AcDbLine
 10
100.436948
 20
39.09419299999999
 30
0.0
 11
100.586942
 21
39.244191
 31
0.0
  0
LINE
  5
9F1D
330
9E11
100
AcDbEntity
  8
1
  6
Continuous
100
AcDbLine
 10
100.586965
 20
52.24419799999999
 30
0.0
 11
100.436955
 21
52.394208
 31
0.0
  0
LINE
  5
9F1E
330
9E11
100
AcDbEntity
  8
1
  6
Continuous
100
AcDbLine
 10
100.936943
 20
38.044201
 30
0.0
 11
100.936943
 21
41.84419699999997
 31
0.0
  0
LINE
  5
9F1F
330
9E11
100
AcDbEntity
  8
1
  6
Continuous
100
AcDbLine
 10
102.5369489999998
 20
38.044201
 30
0.0
 11
102.5369489999998
 21
53.265917
 31
0.0
  0
LINE
  5
9F20
330
9E11
100
AcDbEntity
  8
1
  6
Continuous
100
AcDbLine
 10
85.13695199999999
 20
37.84419699999999
 30
0.0
 11
100.436955
 21
37.84419699999999
 31
0.0
  0
LINE
  5
9F21
330
9E11
100
AcDbEntity
  8
1
  6
Continuous
100
AcDbLine
 10
85.13695199999999
 20
53.64419999999999
 30
0.0
 11
100.436955
 21
53.64419999999999
 31
0.0
  0
LINE
  5
9F22
330
9E11
100
AcDbEntity
  8
1
  6
Continuous
100
AcDbLine
 10
102.5369489999998
 20
43.044198
 30
0.0
 11
111.5369539999999
 21
43.044198
 31
0.0
  0
LINE
  5
9F23
330
9E11
100
AcDbEntity
  8
4
  6
CENTER
100
AcDbLine
 10
140.3121159999998
 20
45.744191
 30
0.0
 11
179.5081759999999
 21
45.744191
 31
0.0
  0
LINE
  5
9F24
330
9E11
100
AcDbEntity
  8
1
  6
Continuous
100
AcDbLine
 10
159.998502
 20
42.089787
 30
0.0
 11
159.998502
 21
42.47499499999999
 31
0.0
  0
LINE
  5
9F25
330
9E11
100
AcDbEntity
  8
1
  6
Continuous
100
AcDbLine
 10
161.998502
 20
42.447499
 30
0.0
 11
161.998502
 21
42.832692
 31
0.0
  0
LINE
  5
9F26
330
9E11
100
AcDbEntity
  8
1
  6
Continuous
100
AcDbLine
 10
160.598508
 20
39.244191
 30
0.0
 11
160.598508
 21
52.244191
 31
0.0
  0
LINE
  5
9F27
330
9E11
100
AcDbEntity
  8
1
  6
Continuous
100
AcDbLine
 10
161.398511
 20
39.244191
 30
0.0
 11
161.398511
 21
52.244191
 31
0.0
  0
LINE
  5
9F28
330
9E11
100
AcDbEntity
  8
1
  6
Continuous
100
AcDbLine
 10
160.598508
 20
39.244191
 30
0.0
 11
161.398511
 21
39.244191
 31
0.0
  0
LINE
  5
9F29
330
9E11
100
AcDbEntity
  8
1
  6
Continuous
100
AcDbLine
 10
160.598508
 20
52.244191
 30
0.0
 11
161.398511
 21
52.244191
 31
0.0
  0
LINE
  5
9F2A
330
9E11
100
AcDbEntity
  8
1
  6
Continuous
100
AcDbLine
 10
159.998502
 20
42.089802
 30
0.0
 11
160.5984929999999
 21
42.197102
 31
0.0
  0
LINE
  5
9F2B
330
9E11
100
AcDbEntity
  8
1
  6
Continuous
100
AcDbLine
 10
160.397397
 20
43.226903
 30
0.0
 11
160.5984929999999
 21
43.32109899999998
 31
0.0
  0
LINE
  5
9F2C
330
9E11
100
AcDbEntity
  8
1
  6
Continuous
100
AcDbLine
 10
160.477216
 20
45.045491
 30
0.0
 11
160.598508
 21
45.115685
 31
0.0
  0
LINE
  5
9F2D
330
9E11
100
AcDbEntity
  8
1
  6
Continuous
100
AcDbLine
 10
159.998517
 20
47.423977
 30
0.0
 11
160.598508
 21
47.704976
 31
0.0
  0
LINE
  5
9F2E
330
9E11
100
AcDbEntity
  8
1
  6
Continuous
100
AcDbLine
 10
159.998502
 20
49.04099699999999
 30
0.0
 11
160.5984929999999
 21
49.148297
 31
0.0
  0
LINE
  5
9F2F
330
9E11
100
AcDbEntity
  8
1
  6
Continuous
100
AcDbLine
 10
159.998502
 20
42.474999
 30
0.0
 11
160.5984929999999
 21
42.58229899999999
 31
0.0
  0
LINE
  5
9F30
330
9E11
100
AcDbEntity
  8
1
  6
Continuous
100
AcDbLine
 10
160.001508
 20
43.672089
 30
0.0
 11
160.5985229999998
 21
43.95169099999999
 31
0.0
  0
LINE
  5
9F31
330
9E11
100
AcDbEntity
  8
1
  6
Continuous
100
AcDbLine
 10
160.077909
 20
45.73869799999999
 30
0.0
 11
160.598508
 21
46.04009699999997
 31
0.0
  0
LINE
  5
9F32
330
9E11
100
AcDbEntity
  8
1
  6
Continuous
100
AcDbLine
 10
159.998502
 20
47.885289
 30
0.0
 11
160.598508
 21
48.16619199999998
 31
0.0
  0
LINE
  5
9F33
330
9E11
100
AcDbEntity
  8
1
  6
Continuous
100
AcDbLine
 10
159.998502
 20
49.418999
 30
0.0
 11
160.5984929999999
 21
49.526299
 31
0.0
  0
LINE
  5
9F34
330
9E11
100
AcDbEntity
  8
1
  6
Continuous
100
AcDbLine
 10
159.998502
 20
47.42398499999999
 30
0.0
 11
159.998502
 21
47.885289
 31
0.0
  0
LINE
  5
9F35
330
9E11
100
AcDbEntity
  8
1
  6
Continuous
100
AcDbLine
 10
159.998502
 20
49.04099
 30
0.0
 11
159.998502
 21
49.418995
 31
0.0
  0
LINE
  5
9F36
330
9E11
100
AcDbEntity
  8
1
  6
Continuous
100
AcDbLine
 10
160.013211
 20
43.658883
 30
0.0
 11
160.4091159999998
 21
43.213776
 31
0.0
  0
LINE
  5
9F37
330
9E11
100
AcDbEntity
  8
1
  6
Continuous
100
AcDbLine
 10
161.6026279999998
 20
44.42177599999999
 30
0.0
 11
161.998532
 21
43.97667
 31
0.0
  0
LINE
  5
9F38
330
9E11
100
AcDbEntity
  8
1
  6
Continuous
100
AcDbLine
 10
160.077909
 20
45.738694
 30
0.0
 11
160.477216
 21
45.04548299999998
 31
0.0
  0
LINE
  5
9F39
330
9E11
100
AcDbEntity
  8
1
  6
Continuous
100
AcDbLine
 10
162.077909
 20
45.971989
 30
0.0
 11
161.773404
 21
46.72006999999999
 31
0.0
  0
LINE
  5
9F3A
330
9E11
100
AcDbEntity
  8
1
  6
Continuous
100
AcDbLine
 10
161.3984959999999
 20
42.34019899999998
 30
0.0
 11
161.998502
 21
42.447499
 31
0.0
  0
LINE
  5
9F3B
330
9E11
100
AcDbEntity
  8
1
  6
Continuous
100
AcDbLine
 10
161.3984959999999
 20
42.725396
 30
0.0
 11
161.998502
 21
42.83269599999999
 31
0.0
  0
LINE
  5
9F3C
330
9E11
100
AcDbEntity
  8
1
  6
Continuous
100
AcDbLine
 10
161.398511
 20
43.69569099999998
 30
0.0
 11
161.998502
 21
43.976689
 31
0.0
  0
LINE
  5
9F3D
330
9E11
100
AcDbEntity
  8
1
  6
Continuous
100
AcDbLine
 10
161.3984959999999
 20
44.326283
 30
0.0
 11
161.602597
 21
44.421784
 31
0.0
  0
LINE
  5
9F3E
330
9E11
100
AcDbEntity
  8
1
  6
Continuous
100
AcDbLine
 10
161.398511
 20
45.57879299999998
 30
0.0
 11
162.077909
 21
45.97199299999998
 31
0.0
  0
LINE
  5
9F3F
330
9E11
100
AcDbEntity
  8
1
  6
Continuous
100
AcDbLine
 10
161.3984959999999
 20
46.503098
 30
0.0
 11
161.773404
 21
46.720101
 31
0.0
  0
LINE
  5
9F40
330
9E11
100
AcDbEntity
  8
1
  6
Continuous
100
AcDbLine
 10
161.398511
 20
48.079587
 30
0.0
 11
161.9985169999999
 21
48.360489
 31
0.0
  0
LINE
  5
9F41
330
9E11
100
AcDbEntity
  8
1
  6
Continuous
100
AcDbLine
 10
161.398511
 20
48.54079099999999
 30
0.0
 11
161.6118139999999
 21
48.64069
 31
0.0
  0
LINE
  5
9F42
330
9E11
100
AcDbEntity
  8
1
  6
Continuous
100
AcDbLine
 10
161.3984959999999
 20
49.291409
 30
0.0
 11
161.998502
 21
49.39870899999998
 31
0.0
  0
LINE
  5
9F43
330
9E11
100
AcDbEntity
  8
1
  6
Continuous
100
AcDbLine
 10
161.398511
 20
49.66940000000001
 30
0.0
 11
161.5894139999998
 21
49.703499
 31
0.0
  0
LINE
  5
9F44
330
9E11
100
AcDbEntity
  8
1
  6
Continuous
100
AcDbLine
 10
171.787518
 20
40.244191
 30
0.0
 11
171.787518
 21
51.244191
 31
0.0
  0
LINE
  5
9F45
330
9E11
100
AcDbEntity
  8
1
  6
Continuous
100
AcDbLine
 10
175.987515
 20
40.244191
 30
0.0
 11
175.987515
 21
51.244191
 31
0.0
  0
LINE
  5
9F46
330
9E11
100
AcDbEntity
  8
1
  6
Continuous
100
AcDbLine
 10
144.1613129999998
 20
34.744191
 30
0.0
 11
144.1613129999998
 21
56.744191
 31
0.0
  0
LINE
  5
9F47
330
9E11
100
AcDbEntity
  8
1
  6
Continuous
100
AcDbLine
 10
147.6613129999998
 20
34.744191
 30
0.0
 11
147.6613129999998
 21
56.744191
 31
0.0
  0
LINE
  5
9F48
330
9E11
100
AcDbEntity
  8
1
  6
Continuous
100
AcDbLine
 10
146.6990179999999
 20
45.744191
 30
0.0
 11
144.1613129999998
 21
45.744191
 31
0.0
  0
LINE
  5
9F49
330
9E11
100
AcDbEntity
  8
1
  6
Continuous
100
AcDbLine
 10
144.1613129999998
 20
56.744191
 30
0.0
 11
147.6613129999998
 21
56.744191
 31
0.0
  0
LINE
  5
9F4A
330
9E11
100
AcDbEntity
  8
1
  6
Continuous
100
AcDbLine
 10
144.1613129999998
 20
34.744191
 30
0.0
 11
147.6613129999998
 21
34.744191
 31
0.0
  0
LINE
  5
9F4B
330
9E11
100
AcDbEntity
  8
1
  6
Continuous
100
AcDbLine
 10
171.787518
 20
40.244191
 30
0.0
 11
175.987515
 21
40.244191
 31
0.0
  0
LINE
  5
9F4C
330
9E11
100
AcDbEntity
  8
1
  6
Continuous
100
AcDbLine
 10
171.787518
 20
51.244191
 30
0.0
 11
175.987515
 21
51.244191
 31
0.0
  0
LINE
  5
9F4D
330
9E11
100
AcDbEntity
  8
1
  6
Continuous
100
AcDbLine
 10
175.496274
 20
45.744191
 30
0.0
 11
172.27876
 21
45.744191
 31
0.0
  0
LINE
  5
9F4E
330
9E11
100
AcDbEntity
  8
1
  6
Continuous
100
AcDbLine
 10
111.5369539999999
 20
43.044198
 30
0.0
 11
112.5369539999999
 21
44.044198
 31
0.0
  0
LINE
  5
9F4F
330
9E11
100
AcDbEntity
  8
1
  6
Continuous
100
AcDbLine
 10
111.5369539999999
 20
43.044198
 30
0.0
 11
111.5369539999999
 21
48.444183
 31
0.0
  0
LINE
  5
9F50
330
9E11
100
AcDbEntity
  8
1
  6
Continuous
100
AcDbLine
 10
103.236951
 20
43.044198
 30
0.0
 11
103.236951
 21
48.444183
 31
0.0
  0
LINE
  5
9F51
330
9E11
100
AcDbEntity
  8
1
  6
Continuous
100
AcDbLine
 10
103.5647479999999
 20
43.044198
 30
0.0
 11
103.5647479999999
 21
48.444183
 31
0.0
  0
LINE
  5
9F52
330
9E11
100
AcDbEntity
  8
1
  6
Continuous
100
AcDbLine
 10
102.236951
 20
49.6442
 30
0.0
 11
102.236951
 21
41.84419699999997
 31
0.0
  0
LINE
  5
9F53
330
9E11
100
AcDbEntity
  8
1
  6
Continuous
100
AcDbLine
 10
100.936943
 20
49.6442
 30
0.0
 11
100.936943
 21
53.265917
 31
0.0
  0
LINE
  5
9F54
330
9E11
100
AcDbEntity
  8
1
  6
Continuous
100
AcDbLine
 10
100.586949
 20
41.84419699999997
 30
0.0
 11
100.586949
 21
39.24420599999999
 31
0.0
  0
LINE
  5
9F55
330
9E11
100
AcDbEntity
  8
1
  6
Continuous
100
AcDbLine
 10
100.436955
 20
49.6442
 30
0.0
 11
100.436955
 21
53.64419999999999
 31
0.0
  0
LINE
  5
9F56
330
9E11
100
AcDbEntity
  8
1
  6
Continuous
100
AcDbLine
 10
17.88525499999998
 20
109.3933449999999
 30
0.0
 11
28.885255
 21
103.042492
 31
0.0
  0
LINE
  5
9F57
330
9E11
100
AcDbEntity
  8
1
  6
Continuous
100
AcDbLine
 10
28.885255
 20
103.042492
 30
0.0
 11
39.885255
 21
109.3933449999999
 31
0.0
  0
LINE
  5
9F58
330
9E11
100
AcDbEntity
  8
1
  6
Continuous
100
AcDbLine
 10
39.885255
 20
109.3933449999999
 30
0.0
 11
39.885255
 21
122.0950509999999
 31
0.0
  0
LINE
  5
9F59
330
9E11
100
AcDbEntity
  8
1
  6
Continuous
100
AcDbLine
 10
28.885255
 20
128.4458969999998
 30
0.0
 11
39.885255
 21
122.0950509999999
 31
0.0
  0
LINE
  5
9F5A
330
9E11
100
AcDbEntity
  8
1
  6
Continuous
100
AcDbLine
 10
17.88525499999998
 20
122.0950509999999
 30
0.0
 11
28.885255
 21
128.4459119999999
 31
0.0
  0
LINE
  5
9F5B
330
9E11
100
AcDbEntity
  8
1
  6
Continuous
100
AcDbLine
 10
17.88525499999998
 20
109.3933449999999
 30
0.0
 11
17.88525499999998
 21
122.0950509999999
 31
0.0
  0
LINE
  5
9F5C
330
9E11
100
AcDbEntity
  8
1
  6
Continuous
100
AcDbLine
 10
354.970957
 20
119.574299
 30
0.0
 11
353.37095
 21
119.574299
 31
0.0
  0
LINE
  5
9F5D
330
9E11
100
AcDbEntity
  8
1
  6
Continuous
100
AcDbLine
 10
354.970957
 20
111.9139979999999
 30
0.0
 11
353.37095
 21
111.9139979999999
 31
0.0
  0
LINE
  5
9F5E
330
9E11
100
AcDbEntity
  8
1
  6
Continuous
100
AcDbLine
 10
295.90936
 20
119.3985939999999
 30
0.0
 11
295.90936
 21
119.013402
 31
0.0
  0
LINE
  5
9F5F
330
9E11
100
AcDbEntity
  8
1
  6
Continuous
100
AcDbLine
 10
293.9093599999998
 20
119.0408979999999
 30
0.0
 11
293.9093599999998
 21
118.655705
 31
0.0
  0
LINE
  5
9F60
330
9E11
100
AcDbEntity
  8
1
  6
Continuous
100
AcDbLine
 10
295.3093839999999
 20
122.244206
 30
0.0
 11
295.3093839999999
 21
109.244198
 31
0.0
  0
LINE
  5
9F61
330
9E11
100
AcDbEntity
  8
1
  6
Continuous
100
AcDbLine
 10
294.5093969999998
 20
122.244206
 30
0.0
 11
294.5093969999998
 21
109.244198
 31
0.0
  0
LINE
  5
9F62
330
9E11
100
AcDbEntity
  8
1
  6
Continuous
100
AcDbLine
 10
295.3093839999999
 20
122.244206
 30
0.0
 11
294.5093969999998
 21
122.244206
 31
0.0
  0
LINE
  5
9F63
330
9E11
100
AcDbEntity
  8
1
  6
Continuous
100
AcDbLine
 10
295.3093839999999
 20
109.244198
 30
0.0
 11
294.5093969999998
 21
109.244198
 31
0.0
  0
LINE
  5
9F64
330
9E11
100
AcDbEntity
  8
1
  6
Continuous
100
AcDbLine
 10
295.90936
 20
119.3985939999999
 30
0.0
 11
295.3093539999999
 21
119.2912949999999
 31
0.0
  0
LINE
  5
9F65
330
9E11
100
AcDbEntity
  8
1
  6
Continuous
100
AcDbLine
 10
295.510587
 20
118.26151
 30
0.0
 11
295.3093539999999
 21
118.167302
 31
0.0
  0
LINE
  5
9F66
330
9E11
100
AcDbEntity
  8
1
  6
Continuous
100
AcDbLine
 10
295.4306919999999
 20
116.442929
 30
0.0
 11
295.3093839999999
 21
116.372716
 31
0.0
  0
LINE
  5
9F67
330
9E11
100
AcDbEntity
  8
1
  6
Continuous
100
AcDbLine
 10
295.90936
 20
114.064381
 30
0.0
 11
295.3093839999999
 21
113.7834899999998
 31
0.0
  0
LINE
  5
9F68
330
9E11
100
AcDbEntity
  8
1
  6
Continuous
100
AcDbLine
 10
295.90936
 20
112.447476
 30
0.0
 11
295.3093839999999
 21
112.340085
 31
0.0
  0
LINE
  5
9F69
330
9E11
100
AcDbEntity
  8
1
  6
Continuous
100
AcDbLine
 10
295.90936
 20
119.013402
 30
0.0
 11
295.3093539999999
 21
118.906102
 31
0.0
  0
LINE
  5
9F6A
330
9E11
100
AcDbEntity
  8
1
  6
Continuous
100
AcDbLine
 10
295.906491
 20
117.816304
 30
0.0
 11
295.3093839999999
 21
117.5366939999999
 31
0.0
  0
LINE
  5
9F6B
330
9E11
100
AcDbEntity
  8
1
  6
Continuous
100
AcDbLine
 10
295.830075
 20
115.7497139999998
 30
0.0
 11
295.3093539999999
 21
115.448308
 31
0.0
  0
LINE
  5
9F6C
330
9E11
100
AcDbEntity
  8
1
  6
Continuous
100
AcDbLine
 10
295.90936
 20
113.603078
 30
0.0
 11
295.3093539999999
 21
113.3221779999999
 31
0.0
  0
LINE
  5
9F6D
330
9E11
100
AcDbEntity
  8
1
  6
Continuous
100
AcDbLine
 10
295.9093899999999
 20
112.0693939999999
 30
0.0
 11
295.3093539999999
 21
111.9620939999998
 31
0.0
  0
LINE
  5
9F6E
330
9E11
100
AcDbEntity
  8
1
  6
Continuous
100
AcDbLine
 10
295.90936
 20
114.064396
 30
0.0
 11
295.90936
 21
113.6031
 31
0.0
  0
LINE
  5
9F6F
330
9E11
100
AcDbEntity
  8
1
  6
Continuous
100
AcDbLine
 10
295.90936
 20
112.4474989999998
 30
0.0
 11
295.90936
 21
112.069401
 31
0.0
  0
LINE
  5
9F70
330
9E11
100
AcDbEntity
  8
1
  6
Continuous
100
AcDbLine
 10
295.894681
 20
117.829487
 30
0.0
 11
295.4987759999998
 21
118.274586
 31
0.0
  0
LINE
  5
9F71
330
9E11
100
AcDbEntity
  8
1
  6
Continuous
100
AcDbLine
 10
294.305264
 20
117.066601
 30
0.0
 11
293.9093599999998
 21
117.511708
 31
0.0
  0
LINE
  5
9F72
330
9E11
100
AcDbEntity
  8
1
  6
Continuous
100
AcDbLine
 10
295.830075
 20
115.749707
 30
0.0
 11
295.4306609999998
 21
116.4429139999999
 31
0.0
  0
LINE
  5
9F73
330
9E11
100
AcDbEntity
  8
1
  6
Continuous
100
AcDbLine
 10
293.830106
 20
115.5163919999999
 30
0.0
 11
294.1344879999999
 21
114.768307
 31
0.0
  0
LINE
  5
9F74
330
9E11
100
AcDbEntity
  8
1
  6
Continuous
100
AcDbLine
 10
294.5093659999999
 20
119.148198
 30
0.0
 11
293.9093599999998
 21
119.0408979999999
 31
0.0
  0
LINE
  5
9F75
330
9E11
100
AcDbEntity
  8
1
  6
Continuous
100
AcDbLine
 10
294.5093659999999
 20
118.763005
 30
0.0
 11
293.9093599999998
 21
118.655705
 31
0.0
  0
LINE
  5
9F76
330
9E11
100
AcDbEntity
  8
1
  6
Continuous
100
AcDbLine
 10
294.5093659999999
 20
117.7927139999999
 30
0.0
 11
293.9093599999998
 21
117.5117159999998
 31
0.0
  0
LINE
  5
9F77
330
9E11
100
AcDbEntity
  8
1
  6
Continuous
100
AcDbLine
 10
294.5093659999999
 20
117.162083
 30
0.0
 11
294.305264
 21
117.066586
 31
0.0
  0
LINE
  5
9F78
330
9E11
100
AcDbEntity
  8
1
  6
Continuous
100
AcDbLine
 10
294.5093659999999
 20
115.9095959999998
 30
0.0
 11
293.830075
 21
115.5164
 31
0.0
  0
LINE
  5
9F79
330
9E11
100
AcDbEntity
  8
1
  6
Continuous
100
AcDbLine
 10
294.5093969999998
 20
114.985287
 30
0.0
 11
294.1344879999999
 21
114.7682919999999
 31
0.0
  0
LINE
  5
9F7A
330
9E11
100
AcDbEntity
  8
1
  6
Continuous
100
AcDbLine
 10
294.5093659999999
 20
113.4087799999999
 30
0.0
 11
293.9093599999998
 21
113.127873
 31
0.0
  0
LINE
  5
9F7B
330
9E11
100
AcDbEntity
  8
1
  6
Continuous
100
AcDbLine
 10
294.5093659999999
 20
112.947583
 30
0.0
 11
294.29617
 21
112.847684
 31
0.0
  0
LINE
  5
9F7C
330
9E11
100
AcDbEntity
  8
1
  6
Continuous
100
AcDbLine
 10
294.5093659999999
 20
112.1969879999999
 30
0.0
 11
293.9093599999998
 21
112.0896879999999
 31
0.0
  0
LINE
  5
9F7D
330
9E11
100
AcDbEntity
  8
1
  6
Continuous
100
AcDbLine
 10
294.5093969999998
 20
111.8189659999998
 30
0.0
 11
294.318601
 21
111.784871
 31
0.0
  0
LINE
  5
9F7E
330
9E11
100
AcDbEntity
  8
1
  6
Continuous
100
AcDbLine
 10
311.746579
 20
128.4458969999998
 30
0.0
 11
311.746579
 21
103.042492
 31
0.0
  0
LINE
  5
9F7F
330
9E11
100
AcDbEntity
  8
1
  6
Continuous
100
AcDbLine
 10
308.246579
 20
126.744206
 30
0.0
 11
308.246579
 21
104.7441979999998
 31
0.0
  0
LINE
  5
9F80
330
9E11
100
AcDbEntity
  8
1
  6
Continuous
100
AcDbLine
 10
284.120358
 20
121.244206
 30
0.0
 11
284.120358
 21
110.244198
 31
0.0
  0
LINE
  5
9F81
330
9E11
100
AcDbEntity
  8
1
  6
Continuous
100
AcDbLine
 10
279.9203769999999
 20
121.244206
 30
0.0
 11
279.9203769999999
 21
110.244198
 31
0.0
  0
LINE
  5
9F82
330
9E11
100
AcDbEntity
  8
4
  6
CENTER
100
AcDbLine
 10
316.047177
 20
115.7441979999999
 30
0.0
 11
276.399716
 21
115.7441979999999
 31
0.0
  0
LINE
  5
9F83
330
9E11
100
AcDbEntity
  8
1
  6
Continuous
100
AcDbLine
 10
311.746579
 20
103.042492
 30
0.0
 11
309.2290619999999
 21
103.042492
 31
0.0
  0
LINE
  5
9F84
330
9E11
100
AcDbEntity
  8
1
  6
Continuous
100
AcDbLine
 10
311.746579
 20
128.4458969999998
 30
0.0
 11
309.2290619999999
 21
128.4458969999998
 31
0.0
  0
LINE
  5
9F85
330
9E11
100
AcDbEntity
  8
1
  6
Continuous
100
AcDbLine
 10
311.746579
 20
122.095036
 30
0.0
 11
309.2290619999999
 21
122.095036
 31
0.0
  0
LINE
  5
9F86
330
9E11
100
AcDbEntity
  8
1
  6
Continuous
100
AcDbLine
 10
311.746579
 20
109.3933449999999
 30
0.0
 11
309.2290619999999
 21
109.3933449999999
 31
0.0
  0
LINE
  5
9F87
330
9E11
100
AcDbEntity
  8
1
  6
Continuous
100
AcDbLine
 10
309.2290619999999
 20
103.042492
 30
0.0
 11
308.246579
 21
104.744191
 31
0.0
  0
LINE
  5
9F88
330
9E11
100
AcDbEntity
  8
1
  6
Continuous
100
AcDbLine
 10
309.2290619999999
 20
128.4459119999999
 30
0.0
 11
308.246579
 21
126.744206
 31
0.0
  0
LINE
  5
9F89
330
9E11
100
AcDbEntity
  8
1
  6
Continuous
100
AcDbLine
 10
283.6291479999998
 20
122.095036
 30
0.0
 11
280.4116179999999
 21
122.095036
 31
0.0
  0
LINE
  5
9F8A
330
9E11
100
AcDbEntity
  8
1
  6
Continuous
100
AcDbLine
 10
283.6291479999998
 20
118.9196209999999
 30
0.0
 11
280.4116179999999
 21
118.9196209999999
 31
0.0
  0
LINE
  5
9F8B
330
9E11
100
AcDbEntity
  8
1
  6
Continuous
100
AcDbLine
 10
283.6291479999998
 20
112.5687679999999
 30
0.0
 11
280.4116179999999
 21
112.5687679999999
 31
0.0
  0
LINE
  5
9F8C
330
9E11
100
AcDbEntity
  8
1
  6
Continuous
100
AcDbLine
 10
283.6291479999998
 20
109.3933379999999
 30
0.0
 11
280.4116179999999
 21
109.3933379999999
 31
0.0
  0
LINE
  5
9F8D
330
9E11
100
AcDbEntity
  8
1
  6
Continuous
100
AcDbLine
 10
280.4116179999999
 20
122.0950669999999
 30
0.0
 11
279.9203769999999
 21
121.244206
 31
0.0
  0
LINE
  5
9F8E
330
9E11
100
AcDbEntity
  8
1
  6
Continuous
100
AcDbLine
 10
284.120358
 20
121.2441909999999
 30
0.0
 11
283.6291169999999
 21
122.0950509999999
 31
0.0
  0
LINE
  5
9F8F
330
9E11
100
AcDbEntity
  8
1
  6
Continuous
100
AcDbLine
 10
284.120358
 20
110.2441909999999
 30
0.0
 11
283.6291169999999
 21
109.3933379999999
 31
0.0
  0
LINE
  5
9F90
330
9E11
100
AcDbEntity
  8
1
  6
Continuous
100
AcDbLine
 10
280.4116179999999
 20
109.3933299999999
 30
0.0
 11
279.9203769999999
 21
110.244198
 31
0.0
  0
LINE
  5
9F91
330
9E11
100
AcDbEntity
  8
4
  6
CENTER
100
AcDbLine
 10
43.44115900000001
 20
115.7441979999999
 30
0.0
 11
14.671155
 21
115.7441979999999
 31
0.0
  0
LINE
  5
9F92
330
9E11
100
AcDbEntity
  8
4
  6
CENTER
100
AcDbLine
 10
28.885255
 20
131.2710159999998
 30
0.0
 11
28.885255
 21
100.8104369999998
 31
0.0
  0
LINE
  5
9F93
330
9E11
100
AcDbEntity
  8
1
  6
Continuous
100
AcDbLine
 10
29.760255
 20
122.1441999999999
 30
0.0
 11
28.01025499999999
 21
122.1441999999999
 31
0.0
  0
LINE
  5
9F94
330
9E11
100
AcDbEntity
  8
1
  6
Continuous
100
AcDbLine
 10
29.760255
 20
120.5497019999999
 30
0.0
 11
29.760255
 21
122.1441999999999
 31
0.0
  0
LINE
  5
9F95
330
9E11
100
AcDbEntity
  8
1
  6
Continuous
100
AcDbLine
 10
28.01025499999999
 20
120.5497019999999
 30
0.0
 11
28.01025499999999
 21
122.1441999999999
 31
0.0
  0
LINE
  5
9F96
330
9E11
100
AcDbEntity
  8
1
  6
Continuous
100
AcDbLine
 10
28.01025499999999
 20
119.544804
 30
0.0
 11
28.01025499999999
 21
118.1442
 31
0.0
  0
LINE
  5
9F97
330
9E11
100
AcDbEntity
  8
1
  6
Continuous
100
AcDbLine
 10
29.760255
 20
119.544804
 30
0.0
 11
29.760255
 21
118.1442
 31
0.0
  0
LINE
  5
9F98
330
9E11
100
AcDbEntity
  8
1
  6
Continuous
100
AcDbLine
 10
28.01025499999999
 20
118.1442
 30
0.0
 11
29.760255
 21
118.1442
 31
0.0
  0
LINE
  5
9F99
330
9E11
100
AcDbEntity
  8
1
  6
Continuous
100
AcDbLine
 10
35.285253
 20
114.8691979999999
 30
0.0
 11
35.285253
 21
116.619198
 31
0.0
  0
LINE
  5
9F9A
330
9E11
100
AcDbEntity
  8
1
  6
Continuous
100
AcDbLine
 10
33.69075499999999
 20
114.8691979999999
 30
0.0
 11
35.285253
 21
114.8691979999999
 31
0.0
  0
LINE
  5
9F9B
330
9E11
100
AcDbEntity
  8
1
  6
Continuous
100
AcDbLine
 10
33.69075499999999
 20
116.619198
 30
0.0
 11
35.285253
 21
116.619198
 31
0.0
  0
ARC
  5
9F9C
330
9E11
100
AcDbEntity
  8
1
  6
Continuous
100
AcDbCircle
 10
225.453946
 20
115.7441979999999
 30
0.0
 40
7.299999999999998
100
AcDbArc
 50
150.999609
 51
299.000164
  0
ARC
  5
9F9D
330
9E11
100
AcDbEntity
  8
1
  6
Continuous
100
AcDbCircle
 10
225.453946
 20
115.7441979999999
 30
0.0
 40
8.699999999999997
100
AcDbArc
 50
204.763283
 51
335.2366609999999
  0
ARC
  5
9F9E
330
9E11
100
AcDbEntity
  8
1
  6
Continuous
100
AcDbCircle
 10
225.453946
 20
115.7441979999999
 30
0.0
 40
8.699999999999997
100
AcDbArc
 50
24.763297
 51
155.2366759999999
  0
ARC
  5
9F9F
330
9E11
100
AcDbEntity
  8
1
  6
Continuous
100
AcDbCircle
 10
225.453946
 20
106.548703
 30
0.0
 40
4.15
100
AcDbArc
 50
140.55569
 51
160.011088
  0
ARC
  5
9FA0
330
9E11
100
AcDbEntity
  8
1
  6
Continuous
100
AcDbCircle
 10
225.453946
 20
106.548703
 30
0.0
 40
4.15
100
AcDbArc
 50
19.988897
 51
39.444295
  0
ARC
  5
9FA1
330
9E11
100
AcDbEntity
  8
1
  6
Continuous
100
AcDbCircle
 10
225.453946
 20
115.7441979999999
 30
0.0
 40
7.0
100
AcDbArc
 50
150.999555
 51
299.0001369999998
  0
ARC
  5
9FA2
330
9E11
100
AcDbEntity
  8
1
  6
Continuous
100
AcDbCircle
 10
225.453946
 20
115.7441979999999
 30
0.0
 40
8.599999999999997
100
AcDbArc
 50
116.446693
 51
150.999841
  0
ARC
  5
9FA3
330
9E11
100
AcDbEntity
  8
1
  6
Continuous
100
AcDbCircle
 10
225.453946
 20
115.7441979999999
 30
0.0
 40
8.599999999999997
100
AcDbArc
 50
299.0002229999999
 51
333.553262
  0
ARC
  5
9FA4
330
9E11
100
AcDbEntity
  8
1
  6
Continuous
100
AcDbCircle
 10
225.453946
 20
115.7441979999999
 30
0.0
 40
8.599999999999997
100
AcDbArc
 50
26.44669699999999
 51
63.553291
  0
CIRCLE
  5
9FA5
330
9E11
100
AcDbEntity
  8
1
  6
Continuous
100
AcDbCircle
 10
225.453946
 20
115.7441979999999
 30
0.0
 40
6.5
  0
CIRCLE
  5
9FA6
330
9E11
100
AcDbEntity
  8
1
  6
Continuous
100
AcDbCircle
 10
93.836949
 20
185.744191
 30
0.0
 40
1.5
  0
ARC
  5
9FA7
330
9E11
100
AcDbEntity
  8
1
  6
Continuous
100
AcDbCircle
 10
18.985253
 20
182.7442059999999
 30
0.0
 40
6.5
100
AcDbArc
 50
179.999978
 51
270.000001
  0
ARC
  5
9FA8
330
9E11
100
AcDbEntity
  8
1
  6
Continuous
100
AcDbCircle
 10
18.985253
 20
188.7442059999999
 30
0.0
 40
6.5
100
AcDbArc
 50
89.99998900000001
 51
179.999978
  0
ARC
  5
9FA9
330
9E11
100
AcDbEntity
  8
1
  6
Continuous
100
AcDbCircle
 10
27.985253
 20
182.7442059999999
 30
0.0
 40
6.5
100
AcDbArc
 50
269.99997
 51
352.04116
  0
ARC
  5
9FAA
330
9E11
100
AcDbEntity
  8
1
  6
Continuous
100
AcDbCircle
 10
16.085252
 20
188.2442059999999
 30
0.0
 40
1.0
100
AcDbArc
 50
89.99998900000001
 51
179.999978
  0
ARC
  5
9FAB
330
9E11
100
AcDbEntity
  8
1
  6
Continuous
100
AcDbCircle
 10
16.085252
 20
183.2442059999999
 30
0.0
 40
1.0
100
AcDbArc
 50
179.999978
 51
269.999973
  0
ARC
  5
9FAC
330
9E11
100
AcDbEntity
  8
1
  6
Continuous
100
AcDbCircle
 10
17.88525499999998
 20
183.2442059999999
 30
0.0
 40
1.0
100
AcDbArc
 50
269.99997
 51
0.0
  0
ARC
  5
9FAD
330
9E11
100
AcDbEntity
  8
1
  6
Continuous
100
AcDbCircle
 10
17.88525499999998
 20
188.2442059999999
 30
0.0
 40
1.0
100
AcDbArc
 50
0.0
 51
89.99998900000001
  0
ARC
  5
9FAE
330
9E11
100
AcDbEntity
  8
1
  6
Continuous
100
AcDbCircle
 10
40.885255
 20
191.9578899999999
 30
0.0
 40
1.199999999999999
100
AcDbArc
 50
0.0
 51
76.99999400000002
  0
ARC
  5
9FAF
330
9E11
100
AcDbEntity
  8
1
  6
Continuous
100
AcDbCircle
 10
32.18525
 20
185.7442059999999
 30
0.0
 40
3.9
100
AcDbArc
 50
206.176982
 51
269.99997
  0
ARC
  5
9FB0
330
9E11
100
AcDbEntity
  8
1
  6
Continuous
100
AcDbCircle
 10
32.18525
 20
185.7442059999999
 30
0.0
 40
3.9
100
AcDbArc
 50
89.99998900000001
 51
153.822977
  0
ARC
  5
9FB1
330
9E11
100
AcDbEntity
  8
1
  6
Continuous
100
AcDbCircle
 10
159.561704
 20
191.183003
 30
0.0
 40
1.837099999999999
100
AcDbArc
 50
283.7564009999999
 51
304.360797
  0
ARC
  5
9FB2
330
9E11
100
AcDbEntity
  8
1
  6
Continuous
100
AcDbCircle
 10
162.177609
 20
190.045003
 30
0.0
 40
1.02
100
AcDbArc
 50
220.197967
 51
259.8874579999999
  0
ARC
  5
9FB3
330
9E11
100
AcDbEntity
  8
1
  6
Continuous
100
AcDbCircle
 10
159.532804
 20
191.237202
 30
0.0
 40
3.0987
100
AcDbArc
 50
286.2014999999999
 51
290.1163999999998
  0
ARC
  5
9FB4
330
9E11
100
AcDbEntity
  8
1
  6
Continuous
100
AcDbCircle
 10
156.559201
 20
190.404698
 30
0.0
 40
4.3083
100
AcDbArc
 50
323.293095
 51
339.6457919999999
  0
ARC
  5
9FB5
330
9E11
100
AcDbEntity
  8
1
  6
Continuous
100
AcDbCircle
 10
160.465497
 20
187.031605
 30
0.0
 40
0.9421000000000001
100
AcDbArc
 50
352.033188
 51
7.966789999999998
  0
ARC
  5
9FB6
330
9E11
100
AcDbEntity
  8
1
  6
Continuous
100
AcDbCircle
 10
156.3113069999999
 20
187.586598
 30
0.0
 40
4.287499999999997
100
AcDbArc
 50
342.6549889999999
 51
359.333888
  0
ARC
  5
9FB7
330
9E11
100
AcDbEntity
  8
1
  6
Continuous
100
AcDbCircle
 10
159.3772099999999
 20
182.5339089999999
 30
0.0
 40
1.236599999999999
100
AcDbArc
 50
350.982889
 51
59.83788700000001
  0
ARC
  5
9FB8
330
9E11
100
AcDbEntity
  8
1
  6
Continuous
100
AcDbCircle
 10
162.340711
 20
182.248509
 30
0.0
 40
0.9435999999999999
100
AcDbArc
 50
111.260872
 51
183.128764
  0
ARC
  5
9FB9
330
9E11
100
AcDbEntity
  8
1
  6
Continuous
100
AcDbCircle
 10
162.330304
 20
181.2175029999999
 30
0.0
 40
0.9332
100
AcDbArc
 50
110.826171
 51
183.12397
  0
ARC
  5
9FBA
330
9E11
100
AcDbEntity
  8
1
  6
Continuous
100
AcDbCircle
 10
162.6668979999998
 20
179.997304
 30
0.0
 40
2.0872
100
AcDbArc
 50
121.080976
 51
127.4232709999999
  0
ARC
  5
9FBB
330
9E11
100
AcDbEntity
  8
1
  6
Continuous
100
AcDbCircle
 10
158.191007
 20
180.4677019999998
 30
0.0
 40
2.415099999999998
100
AcDbArc
 50
355.4672909999999
 51
41.544786
  0
ARC
  5
9FBC
330
9E11
100
AcDbEntity
  8
1
  6
Continuous
100
AcDbCircle
 10
161.631909
 20
183.7439009999999
 30
0.0
 40
1.0341
100
AcDbArc
 50
82.13137900000003
 51
103.0404729999999
  0
ARC
  5
9FBD
330
9E11
100
AcDbEntity
  8
1
  6
Continuous
100
AcDbCircle
 10
131.6206329999999
 20
191.2165569999999
 30
0.0
 40
16.04068599999999
100
AcDbArc
 50
340.0528149999999
 51
20.157459
  0
ARC
  5
9FBE
330
9E11
100
AcDbEntity
  8
1
  6
Continuous
100
AcDbCircle
 10
131.6206329999999
 20
180.2718549999999
 30
0.0
 40
16.04068599999999
100
AcDbArc
 50
339.8425409999999
 51
19.947185
  0
ARC
  5
9FBF
330
9E11
100
AcDbEntity
  8
1
  6
Continuous
100
AcDbCircle
 10
168.044599
 20
188.494206
 30
0.0
 40
7.942914999999997
100
AcDbArc
 50
339.7436819999999
 51
20.256318
  0
ARC
  5
9FC0
330
9E11
100
AcDbEntity
  8
1
  6
Continuous
100
AcDbCircle
 10
168.044599
 20
182.994206
 30
0.0
 40
7.942914999999997
100
AcDbArc
 50
339.7436819999999
 51
20.256318
  0
ARC
  5
9FC1
330
9E11
100
AcDbEntity
  8
1
  6
Continuous
100
AcDbCircle
 10
179.730435
 20
182.994206
 30
0.0
 40
7.942914999999997
100
AcDbArc
 50
159.743686
 51
200.256311
  0
ARC
  5
9FC2
330
9E11
100
AcDbEntity
  8
1
  6
Continuous
100
AcDbCircle
 10
179.730435
 20
188.494206
 30
0.0
 40
7.942914999999997
100
AcDbArc
 50
159.743686
 51
200.256311
  0
ARC
  5
9FC3
330
9E11
100
AcDbEntity
  8
1
  6
Continuous
100
AcDbCircle
 10
159.561612
 20
121.182988
 30
0.0
 40
1.837099999999999
100
AcDbArc
 50
283.756367
 51
304.360767
  0
ARC
  5
9FC4
330
9E11
100
AcDbEntity
  8
1
  6
Continuous
100
AcDbCircle
 10
162.177609
 20
120.044987
 30
0.0
 40
1.02
100
AcDbArc
 50
220.1979809999999
 51
259.8874719999999
  0
ARC
  5
9FC5
330
9E11
100
AcDbEntity
  8
1
  6
Continuous
100
AcDbCircle
 10
159.532712
 20
121.237187
 30
0.0
 40
3.0987
100
AcDbArc
 50
286.2014659999999
 51
290.116366
  0
ARC
  5
9FC6
330
9E11
100
AcDbEntity
  8
1
  6
Continuous
100
AcDbCircle
 10
156.559216
 20
120.4046979999999
 30
0.0
 40
4.3083
100
AcDbArc
 50
323.293064
 51
339.645761
  0
ARC
  5
9FC7
330
9E11
100
AcDbEntity
  8
1
  6
Continuous
100
AcDbCircle
 10
160.4654209999999
 20
117.031598
 30
0.0
 40
0.9421000000000001
100
AcDbArc
 50
352.03316
 51
7.966799
  0
ARC
  5
9FC8
330
9E11
100
AcDbEntity
  8
1
  6
Continuous
100
AcDbCircle
 10
156.3113219999999
 20
117.5865899999999
 30
0.0
 40
4.287499999999997
100
AcDbArc
 50
342.65496
 51
359.3338589999998
  0
ARC
  5
9FC9
330
9E11
100
AcDbEntity
  8
1
  6
Continuous
100
AcDbCircle
 10
159.377118
 20
112.5339019999999
 30
0.0
 40
1.236599999999999
100
AcDbArc
 50
350.98286
 51
59.83789399999999
  0
ARC
  5
9FCA
330
9E11
100
AcDbEntity
  8
1
  6
Continuous
100
AcDbCircle
 10
162.340619
 20
112.248501
 30
0.0
 40
0.9435999999999999
100
AcDbArc
 50
111.260886
 51
183.128778
  0
ARC
  5
9FCB
330
9E11
100
AcDbEntity
  8
1
  6
Continuous
100
AcDbCircle
 10
162.3302129999999
 20
111.2174959999999
 30
0.0
 40
0.9332
100
AcDbArc
 50
110.826185
 51
183.1239829999999
  0
ARC
  5
9FCC
330
9E11
100
AcDbEntity
  8
1
  6
Continuous
100
AcDbCircle
 10
162.666821
 20
109.9972959999999
 30
0.0
 40
2.0872
100
AcDbArc
 50
121.08099
 51
127.4232849999998
  0
ARC
  5
9FCD
330
9E11
100
AcDbEntity
  8
1
  6
Continuous
100
AcDbCircle
 10
158.1909149999999
 20
110.467694
 30
0.0
 40
2.415099999999998
100
AcDbArc
 50
355.467259
 51
41.54479600000001
  0
ARC
  5
9FCE
330
9E11
100
AcDbEntity
  8
1
  6
Continuous
100
AcDbCircle
 10
161.6318179999999
 20
113.743901
 30
0.0
 40
1.0341
100
AcDbArc
 50
82.131392
 51
103.040487
  0
ARC
  5
9FCF
330
9E11
100
AcDbEntity
  8
1
  6
Continuous
100
AcDbCircle
 10
142.03851
 20
125.2704819999999
 30
0.0
 40
5.622809999999999
100
AcDbArc
 50
325.6157519999998
 51
25.615752
  0
ARC
  5
9FD0
330
9E11
100
AcDbEntity
  8
1
  6
Continuous
100
AcDbCircle
 10
126.6437959999999
 20
115.7441979999999
 30
0.0
 40
21.017519
100
AcDbArc
 50
342.4120459999999
 51
17.587954
  0
ARC
  5
9FD1
330
9E11
100
AcDbEntity
  8
1
  6
Continuous
100
AcDbCircle
 10
142.03851
 20
106.2179229999999
 30
0.0
 40
5.622809999999999
100
AcDbArc
 50
334.384248
 51
34.38424799999999
  0
ARC
  5
9FD2
330
9E11
100
AcDbEntity
  8
1
  6
Continuous
100
AcDbCircle
 10
165.4788029999999
 20
115.7441979999999
 30
0.0
 40
10.50871499999999
100
AcDbArc
 50
342.411937
 51
17.58806299999999
  0
ARC
  5
9FD3
330
9E11
100
AcDbEntity
  8
1
  6
Continuous
100
AcDbCircle
 10
173.176129
 20
110.981053
 30
0.0
 40
2.811392999999998
100
AcDbArc
 50
334.3844680000001
 51
34.384467
  0
ARC
  5
9FD4
330
9E11
100
AcDbEntity
  8
1
  6
Continuous
100
AcDbCircle
 10
173.176129
 20
120.507329
 30
0.0
 40
2.811392999999998
100
AcDbArc
 50
325.615533
 51
25.615532
  0
ARC
  5
9FD5
330
9E11
100
AcDbEntity
  8
1
  6
Continuous
100
AcDbCircle
 10
174.598905
 20
110.981053
 30
0.0
 40
2.811392999999998
100
AcDbArc
 50
145.6155349999999
 51
205.615537
  0
ARC
  5
9FD6
330
9E11
100
AcDbEntity
  8
1
  6
Continuous
100
AcDbCircle
 10
174.598905
 20
120.507329
 30
0.0
 40
2.811392999999998
100
AcDbArc
 50
154.3844729999999
 51
214.3844749999999
  0
ARC
  5
9FD7
330
9E11
100
AcDbEntity
  8
1
  6
Continuous
100
AcDbCircle
 10
182.296231
 20
115.7441979999999
 30
0.0
 40
10.50871499999999
100
AcDbArc
 50
162.4119399999998
 51
197.5880699999999
  0
CIRCLE
  5
9FD8
330
9E11
100
AcDbEntity
  8
1
  6
Continuous
100
AcDbCircle
 10
225.453946
 20
115.7441979999999
 30
0.0
 40
11.0
  0
ARC
  5
9FD9
330
9E11
100
AcDbEntity
  8
1
  6
Continuous
100
AcDbCircle
 10
225.453946
 20
115.7441979999999
 30
0.0
 40
3.093999999999998
100
AcDbArc
 50
330.769152
 51
29.230848
  0
ARC
  5
9FDA
330
9E11
100
AcDbEntity
  8
2
  6
Continuous
100
AcDbCircle
 10
225.453946
 20
115.7441979999999
 30
0.0
 40
3.093999999999998
100
AcDbArc
 50
29.230848
 51
150.768574
  0
ARC
  5
9FDB
330
9E11
100
AcDbEntity
  8
2
  6
Continuous
100
AcDbCircle
 10
225.453946
 20
115.7441979999999
 30
0.0
 40
3.093999999999998
100
AcDbArc
 50
209.231426
 51
330.769152
  0
ARC
  5
9FDC
330
9E11
100
AcDbEntity
  8
1
  6
Continuous
100
AcDbCircle
 10
225.453946
 20
115.7441979999999
 30
0.0
 40
8.9585
100
AcDbArc
 50
331.865742
 51
28.134258
  0
ARC
  5
9FDD
330
9E11
100
AcDbEntity
  8
2
  6
Continuous
100
AcDbCircle
 10
225.453946
 20
115.7441979999999
 30
0.0
 40
8.9585
100
AcDbArc
 50
27.641268
 51
151.8655409999998
  0
ARC
  5
9FDE
330
9E11
100
AcDbEntity
  8
1
  6
Continuous
100
AcDbCircle
 10
225.453946
 20
115.7441979999999
 30
0.0
 40
8.9585
100
AcDbArc
 50
151.8655409999998
 51
208.1344689999999
  0
ARC
  5
9FDF
330
9E11
100
AcDbEntity
  8
2
  6
Continuous
100
AcDbCircle
 10
225.453946
 20
115.7441979999999
 30
0.0
 40
8.9585
100
AcDbArc
 50
208.134459
 51
331.865742
  0
ARC
  5
9FE0
330
9E11
100
AcDbEntity
  8
1
  6
Continuous
100
AcDbCircle
 10
159.561704
 20
40.305394
 30
0.0
 40
1.837099999999999
100
AcDbArc
 50
55.639203
 51
76.243599
  0
ARC
  5
9FE1
330
9E11
100
AcDbEntity
  8
1
  6
Continuous
100
AcDbCircle
 10
162.177609
 20
41.44339399999998
 30
0.0
 40
1.02
100
AcDbArc
 50
100.1125419999999
 51
139.802033
  0
ARC
  5
9FE2
330
9E11
100
AcDbEntity
  8
1
  6
Continuous
100
AcDbCircle
 10
159.532804
 20
40.251195
 30
0.0
 40
3.0987
100
AcDbArc
 50
69.8836
 51
73.79850000000002
  0
ARC
  5
9FE3
330
9E11
100
AcDbEntity
  8
1
  6
Continuous
100
AcDbCircle
 10
156.559201
 20
41.08369899999997
 30
0.0
 40
4.3083
100
AcDbArc
 50
20.354208
 51
36.706905
  0
ARC
  5
9FE4
330
9E11
100
AcDbEntity
  8
1
  6
Continuous
100
AcDbCircle
 10
160.465497
 20
44.45679199999999
 30
0.0
 40
0.9421000000000001
100
AcDbArc
 50
352.03321
 51
7.966812
  0
ARC
  5
9FE5
330
9E11
100
AcDbEntity
  8
1
  6
Continuous
100
AcDbCircle
 10
156.3113069999999
 20
43.90179899999998
 30
0.0
 40
4.287499999999997
100
AcDbArc
 50
0.6661120000000002
 51
17.345011
  0
ARC
  5
9FE6
330
9E11
100
AcDbEntity
  8
1
  6
Continuous
100
AcDbCircle
 10
159.3772099999999
 20
48.954487
 30
0.0
 40
1.236599999999999
100
AcDbArc
 50
300.1621129999999
 51
9.017110999999999
  0
ARC
  5
9FE7
330
9E11
100
AcDbEntity
  8
1
  6
Continuous
100
AcDbCircle
 10
162.340711
 20
49.239888
 30
0.0
 40
0.9435999999999999
100
AcDbArc
 50
176.8712319999999
 51
248.739124
  0
ARC
  5
9FE8
330
9E11
100
AcDbEntity
  8
1
  6
Continuous
100
AcDbCircle
 10
162.330304
 20
50.270894
 30
0.0
 40
0.9332
100
AcDbArc
 50
176.876027
 51
249.173825
  0
ARC
  5
9FE9
330
9E11
100
AcDbEntity
  8
1
  6
Continuous
100
AcDbCircle
 10
162.6668979999998
 20
51.491093
 30
0.0
 40
2.0872
100
AcDbArc
 50
232.5767289999999
 51
238.9190240000001
  0
ARC
  5
9FEA
330
9E11
100
AcDbEntity
  8
1
  6
Continuous
100
AcDbCircle
 10
158.191007
 20
51.020695
 30
0.0
 40
2.415099999999998
100
AcDbArc
 50
318.455214
 51
4.532708999999997
  0
ARC
  5
9FEB
330
9E11
100
AcDbEntity
  8
1
  6
Continuous
100
AcDbCircle
 10
161.631909
 20
47.74449599999999
 30
0.0
 40
1.0341
100
AcDbArc
 50
256.9595269999999
 51
277.868621
  0
ARC
  5
9FEC
330
9E11
100
AcDbEntity
  8
1
  6
Continuous
100
AcDbCircle
 10
131.6206329999999
 20
40.27184
 30
0.0
 40
16.04068599999999
100
AcDbArc
 50
339.8425409999999
 51
19.947185
  0
ARC
  5
9FED
330
9E11
100
AcDbEntity
  8
1
  6
Continuous
100
AcDbCircle
 10
131.6206329999999
 20
51.216542
 30
0.0
 40
16.04068599999999
100
AcDbArc
 50
340.0528149999999
 51
20.157459
  0
ARC
  5
9FEE
330
9E11
100
AcDbEntity
  8
1
  6
Continuous
100
AcDbCircle
 10
168.044599
 20
42.994191
 30
0.0
 40
7.942914999999997
100
AcDbArc
 50
339.7436819999999
 51
20.256318
  0
ARC
  5
9FEF
330
9E11
100
AcDbEntity
  8
1
  6
Continuous
100
AcDbCircle
 10
168.044599
 20
48.494191
 30
0.0
 40
7.942914999999997
100
AcDbArc
 50
339.7436819999999
 51
20.256318
  0
ARC
  5
9FF0
330
9E11
100
AcDbEntity
  8
1
  6
Continuous
100
AcDbCircle
 10
179.730435
 20
48.494191
 30
0.0
 40
7.942914999999997
100
AcDbArc
 50
159.743686
 51
200.256311
  0
ARC
  5
9FF1
330
9E11
100
AcDbEntity
  8
1
  6
Continuous
100
AcDbCircle
 10
179.730435
 20
42.994191
 30
0.0
 40
7.942914999999997
100
AcDbArc
 50
159.743686
 51
200.256311
  0
ARC
  5
9FF2
330
9E11
100
AcDbEntity
  8
1
  6
Continuous
100
AcDbCircle
 10
296.3462799999998
 20
121.182988
 30
0.0
 40
1.837099999999999
100
AcDbArc
 50
235.639235
 51
256.243635
  0
ARC
  5
9FF3
330
9E11
100
AcDbEntity
  8
1
  6
Continuous
100
AcDbCircle
 10
293.7302829999998
 20
120.044987
 30
0.0
 40
1.02
100
AcDbArc
 50
280.1125299999999
 51
319.8020179999998
  0
ARC
  5
9FF4
330
9E11
100
AcDbEntity
  8
1
  6
Continuous
100
AcDbCircle
 10
296.37518
 20
121.237187
 30
0.0
 40
3.0987
100
AcDbArc
 50
249.8836359999998
 51
253.7985359999999
  0
ARC
  5
9FF5
330
9E11
100
AcDbEntity
  8
1
  6
Continuous
100
AcDbCircle
 10
299.3486909999999
 20
120.4046979999999
 30
0.0
 40
4.3083
100
AcDbArc
 50
200.3542319999999
 51
216.7069339999999
  0
ARC
  5
9FF6
330
9E11
100
AcDbEntity
  8
1
  6
Continuous
100
AcDbCircle
 10
295.4424709999999
 20
117.031598
 30
0.0
 40
0.9421000000000001
100
AcDbArc
 50
172.033204
 51
187.966847
  0
ARC
  5
9FF7
330
9E11
100
AcDbEntity
  8
1
  6
Continuous
100
AcDbCircle
 10
299.5965549999999
 20
117.5865899999999
 30
0.0
 40
4.287499999999997
100
AcDbArc
 50
180.666143
 51
197.3450419999999
  0
ARC
  5
9FF8
330
9E11
100
AcDbEntity
  8
1
  6
Continuous
100
AcDbCircle
 10
296.530759
 20
112.5339019999999
 30
0.0
 40
1.236599999999999
100
AcDbArc
 50
120.162111
 51
189.0171389999999
  0
ARC
  5
9FF9
330
9E11
100
AcDbEntity
  8
1
  6
Continuous
100
AcDbCircle
 10
293.5672579999998
 20
112.248501
 30
0.0
 40
0.9435999999999999
100
AcDbArc
 50
356.871222
 51
68.739113
  0
ARC
  5
9FFA
330
9E11
100
AcDbEntity
  8
1
  6
Continuous
100
AcDbCircle
 10
293.577695
 20
111.2174959999999
 30
0.0
 40
0.9332
100
AcDbArc
 50
356.876017
 51
69.17381299999999
  0
ARC
  5
9FFB
330
9E11
100
AcDbEntity
  8
1
  6
Continuous
100
AcDbCircle
 10
293.241086
 20
109.9972959999999
 30
0.0
 40
2.0872
100
AcDbArc
 50
52.576716
 51
58.919008
  0
ARC
  5
9FFC
330
9E11
100
AcDbEntity
  8
1
  6
Continuous
100
AcDbCircle
 10
297.7169769999998
 20
110.467694
 30
0.0
 40
2.415099999999998
100
AcDbArc
 50
138.455202
 51
184.532737
  0
ARC
  5
9FFD
330
9E11
100
AcDbEntity
  8
1
  6
Continuous
100
AcDbCircle
 10
294.2760589999998
 20
113.743901
 30
0.0
 40
1.0341
100
AcDbArc
 50
76.959512
 51
97.868606
  0
ARC
  5
9FFE
330
9E11
100
AcDbEntity
  8
1
  6
Continuous
100
AcDbCircle
 10
313.8693819999998
 20
125.2704819999999
 30
0.0
 40
5.622809999999999
100
AcDbArc
 50
154.3842549999999
 51
214.384243
  0
ARC
  5
9FFF
330
9E11
100
AcDbEntity
  8
1
  6
Continuous
100
AcDbCircle
 10
329.2640959999999
 20
115.7441979999999
 30
0.0
 40
21.017519
100
AcDbArc
 50
162.4120489999999
 51
197.5879609999998
  0
ARC
  5
A000
330
9E11
100
AcDbEntity
  8
1
  6
Continuous
100
AcDbCircle
 10
313.8693819999998
 20
106.2179229999999
 30
0.0
 40
5.622809999999999
100
AcDbArc
 50
145.615754
 51
205.615755
  0
ARC
  5
A001
330
9E11
100
AcDbEntity
  8
1
  6
Continuous
100
AcDbCircle
 10
290.429074
 20
115.7441979999999
 30
0.0
 40
10.50871499999999
100
AcDbArc
 50
162.4119399999998
 51
197.5880699999999
  0
ARC
  5
A002
330
9E11
100
AcDbEntity
  8
1
  6
Continuous
100
AcDbCircle
 10
282.7317479999999
 20
110.981053
 30
0.0
 40
2.811392999999998
100
AcDbArc
 50
145.6155349999999
 51
205.615537
  0
ARC
  5
A003
330
9E11
100
AcDbEntity
  8
1
  6
Continuous
100
AcDbCircle
 10
282.7317479999999
 20
120.507329
 30
0.0
 40
2.811392999999998
100
AcDbArc
 50
154.3844729999999
 51
214.384461
  0
ARC
  5
A004
330
9E11
100
AcDbEntity
  8
1
  6
Continuous
100
AcDbCircle
 10
281.308988
 20
110.981053
 30
0.0
 40
2.811392999999998
100
AcDbArc
 50
334.3844629999999
 51
34.384467
  0
ARC
  5
A005
330
9E11
100
AcDbEntity
  8
1
  6
Continuous
100
AcDbCircle
 10
281.308988
 20
120.507329
 30
0.0
 40
2.811392999999998
100
AcDbArc
 50
325.6155269999998
 51
25.615527
  0
ARC
  5
A006
330
9E11
100
AcDbEntity
  8
1
  6
Continuous
100
AcDbCircle
 10
273.6116609999999
 20
115.7441979999999
 30
0.0
 40
10.50871499999999
100
AcDbArc
 50
342.41193
 51
17.58805999999999
  0
ARC
  5
A007
330
9E11
100
AcDbEntity
  8
1
  6
Continuous
100
AcDbCircle
 10
28.885255
 20
115.7441979999999
 30
0.0
 40
4.9
100
AcDbArc
 50
100.2865879999999
 51
349.713363
  0
CIRCLE
  5
A008
330
9E11
100
AcDbEntity
  8
1
  6
Continuous
100
AcDbCircle
 10
28.885255
 20
115.7441979999999
 30
0.0
 40
11.0
  0
CIRCLE
  5
A009
330
9E11
100
AcDbEntity
  8
1
  6
Continuous
100
AcDbCircle
 10
28.885255
 20
115.7441979999999
 30
0.0
 40
8.619999999999999
  0
ARC
  5
A00A
330
9E11
100
AcDbEntity
  8
1
  6
Continuous
100
AcDbCircle
 10
28.885255
 20
115.7441979999999
 30
0.0
 40
3.9
100
AcDbArc
 50
102.965191
 51
77.03479
  0
ARC
  5
A00B
330
9E11
100
AcDbEntity
  8
1
  6
Continuous
100
AcDbCircle
 10
32.526853
 20
119.3857919999999
 30
0.0
 40
1.05
100
AcDbArc
 50
154.527388
 51
295.472563
  0
ARC
  5
A00C
330
9E11
100
AcDbEntity
  8
1
  6
Continuous
100
AcDbCircle
 10
34.035253
 20
115.7441979999999
 30
0.0
 40
1.05
100
AcDbArc
 50
303.5572669999999
 51
56.442692
  0
ARC
  5
A00D
330
9E11
100
AcDbEntity
  8
1
  6
Continuous
100
AcDbCircle
 10
32.526853
 20
112.102597
 30
0.0
 40
1.05
100
AcDbArc
 50
64.52739300000001
 51
205.4725809999999
  0
ARC
  5
A00E
330
9E11
100
AcDbEntity
  8
1
  6
Continuous
100
AcDbCircle
 10
28.885255
 20
110.5941969999998
 30
0.0
 40
1.05
100
AcDbArc
 50
19.527398
 51
160.472576
  0
ARC
  5
A00F
330
9E11
100
AcDbEntity
  8
1
  6
Continuous
100
AcDbCircle
 10
25.24365299999999
 20
112.102597
 30
0.0
 40
1.05
100
AcDbArc
 50
334.527361
 51
115.472585
  0
ARC
  5
A010
330
9E11
100
AcDbEntity
  8
1
  6
Continuous
100
AcDbCircle
 10
23.735253
 20
115.7441979999999
 30
0.0
 40
1.05
100
AcDbArc
 50
289.5273649999999
 51
70.47259400000001
  0
ARC
  5
A011
330
9E11
100
AcDbEntity
  8
1
  6
Continuous
100
AcDbCircle
 10
25.24365299999999
 20
119.3857919999999
 30
0.0
 40
1.05
100
AcDbArc
 50
244.527374
 51
25.47259599999998
  0
ARC
  5
A012
330
9E11
100
AcDbEntity
  8
1
  6
Continuous
100
AcDbCircle
 10
28.885255
 20
115.7441979999999
 30
0.0
 40
4.9
100
AcDbArc
 50
10.286599
 51
79.71338900000002
  0
ARC
  5
A013
330
9E11
100
AcDbEntity
  8
1
  6
Continuous
100
AcDbCircle
 10
34.035253
 20
115.7441979999999
 30
0.0
 40
1.05
100
AcDbArc
 50
109.52739
 51
250.4725720000001
  0
LINE
  5
A014
330
9E11
100
AcDbEntity
  8
1
  6
Continuous
100
AcDbLine
 10
85.66695199999998
 20
125.2442
 30
0.0
 11
85.66695199999998
 21
121.020569
 31
0.0
  0
LINE
  5
A015
330
9E11
100
AcDbEntity
  8
2
  6
Continuous
100
AcDbLine
 10
85.13695199999999
 20
125.0087039999999
 30
0.0
 11
85.66695199999998
 21
124.7027019999999
 31
0.0
  0
ARC
  5
A016
330
9E11
100
AcDbEntity
  8
2
  6
Continuous
100
AcDbCircle
 10
225.453946
 20
115.7441979999999
 30
0.0
 40
9.5
100
AcDbArc
 50
326.26138
 51
33.73862000000001
  0
ARC
  5
A017
330
9E11
100
AcDbEntity
  8
1
  6
Continuous
100
AcDbCircle
 10
225.453946
 20
115.7441979999999
 30
0.0
 40
9.5
100
AcDbArc
 50
33.73862000000001
 51
146.2612149999999
  0
ARC
  5
A018
330
9E11
100
AcDbEntity
  8
1
  6
Continuous
100
AcDbCircle
 10
225.453946
 20
115.7441979999999
 30
0.0
 40
9.5
100
AcDbArc
 50
213.7387849999999
 51
326.26138
  0
ARC
  5
A019
330
9E11
100
AcDbEntity
  8
2
  6
Continuous
100
AcDbCircle
 10
225.453946
 20
115.7441979999999
 30
0.0
 40
9.5
100
AcDbArc
 50
146.2612149999999
 51
213.7387849999999
  0
ARC
  5
A01A
330
9E11
100
AcDbEntity
  8
2
  6
Continuous
100
AcDbCircle
 10
225.453946
 20
115.7441979999999
 30
0.0
 40
3.5
100
AcDbArc
 50
320.482549
 51
39.517451
  0
ARC
  5
A01B
330
9E11
100
AcDbEntity
  8
1
  6
Continuous
100
AcDbCircle
 10
225.453946
 20
115.7441979999999
 30
0.0
 40
3.5
100
AcDbArc
 50
219.5178429999999
 51
320.482549
  0
ARC
  5
A01C
330
9E11
100
AcDbEntity
  8
1
  6
Continuous
100
AcDbCircle
 10
225.453946
 20
115.7441979999999
 30
0.0
 40
3.5
100
AcDbArc
 50
39.517451
 51
140.482157
  0
LINE
  5
A01D
330
9E11
100
AcDbEntity
  8
1
  6
Continuous
100
AcDbLine
 10
93.416952
 20
121.020569
 30
0.0
 11
85.13695199999999
 21
121.020569
 31
0.0
  0
LINE
  5
A01E
330
9E11
100
AcDbEntity
  8
1
  6
Continuous
100
AcDbLine
 10
93.42454999999999
 20
110.4678279999999
 30
0.0
 11
85.13695199999999
 21
110.4678279999999
 31
0.0
  0
LINE
  5
A01F
330
9E11
100
AcDbEntity
  8
1
  6
Continuous
100
AcDbLine
 10
100.436948
 20
112.100012
 30
0.0
 11
94.63695200000001
 21
112.100012
 31
0.0
  0
LINE
  5
A020
330
9E11
100
AcDbEntity
  8
1
  6
Continuous
100
AcDbLine
 10
100.436948
 20
119.388385
 30
0.0
 11
94.63695200000001
 21
119.388385
 31
0.0
  0
LINE
  5
A021
330
9E11
100
AcDbEntity
  8
1
  6
Continuous
100
AcDbLine
 10
85.66695199999998
 20
110.4678279999999
 30
0.0
 11
85.66695199999998
 21
106.244205
 31
0.0
  0
LINE
  5
A022
330
9E11
100
AcDbEntity
  8
1
  6
Continuous
100
AcDbLine
 10
93.416952
 20
125.2442
 30
0.0
 11
93.416952
 21
121.020569
 31
0.0
  0
LINE
  5
A023
330
9E11
100
AcDbEntity
  8
1
  6
Continuous
100
AcDbLine
 10
94.636945
 20
107.044209
 30
0.0
 11
93.416952
 21
106.244197
 31
0.0
  0
LINE
  5
A024
330
9E11
100
AcDbEntity
  8
1
  6
Continuous
100
AcDbLine
 10
93.416952
 20
106.244197
 30
0.0
 11
93.416952
 21
110.4678279999999
 31
0.0
  0
LINE
  5
A025
330
9E11
100
AcDbEntity
  8
1
  6
Continuous
100
AcDbLine
 10
94.63695200000001
 20
107.044194
 30
0.0
 11
94.63695200000001
 21
112.100012
 31
0.0
  0
LINE
  5
A026
330
9E11
100
AcDbEntity
  8
1
  6
Continuous
100
AcDbLine
 10
94.63695200000001
 20
112.100012
 30
0.0
 11
93.416952
 21
110.4678279999999
 31
0.0
  0
LINE
  5
A027
330
9E11
100
AcDbEntity
  8
1
  6
Continuous
100
AcDbLine
 10
102.5369489999998
 20
108.222485
 30
0.0
 11
102.236951
 21
108.222485
 31
0.0
  0
LINE
  5
A028
330
9E11
100
AcDbEntity
  8
1
  6
Continuous
100
AcDbLine
 10
102.5369489999998
 20
110.059178
 30
0.0
 11
100.936943
 21
110.059178
 31
0.0
  0
LINE
  5
A029
330
9E11
100
AcDbEntity
  8
1
  6
Continuous
100
AcDbLine
 10
102.5369489999998
 20
119.913582
 30
0.0
 11
100.936943
 21
119.913582
 31
0.0
  0
LINE
  5
A02A
330
9E11
100
AcDbEntity
  8
1
  6
Continuous
100
AcDbLine
 10
102.5369489999998
 20
118.8955129999998
 30
0.0
 11
100.936943
 21
118.8955129999998
 31
0.0
  0
LINE
  5
A02B
330
9E11
100
AcDbEntity
  8
2
  6
Continuous
100
AcDbLine
 10
370.7709469999999
 20
121.020569
 30
0.0
 11
355.470952
 21
112.100012
 31
0.0
  0
LINE
  5
A02C
330
9E11
100
AcDbEntity
  8
2
  6
Continuous
100
AcDbLine
 10
355.470952
 20
119.388385
 30
0.0
 11
370.7709469999999
 21
110.4678279999999
 31
0.0
  0
LINE
  5
A02D
330
9E11
100
AcDbEntity
  8
1
  6
Continuous
100
AcDbLine
 10
355.470952
 20
112.100012
 30
0.0
 11
361.2709469999999
 21
112.100012
 31
0.0
  0
LINE
  5
A02E
330
9E11
100
AcDbEntity
  8
1
  6
Continuous
100
AcDbLine
 10
355.470952
 20
119.388385
 30
0.0
 11
361.2709469999999
 21
119.388385
 31
0.0
  0
LINE
  5
A02F
330
9E11
100
AcDbEntity
  8
1
  6
Continuous
100
AcDbLine
 10
361.2709469999999
 20
124.444203
 30
0.0
 11
355.470952
 21
124.444203
 31
0.0
  0
LINE
  5
A030
330
9E11
100
AcDbEntity
  8
1
  6
Continuous
100
AcDbLine
 10
361.2709469999999
 20
107.044201
 30
0.0
 11
354.170949
 21
107.044201
 31
0.0
  0
LINE
  5
A031
330
9E11
100
AcDbEntity
  8
4
  6
CENTER
100
AcDbLine
 10
379.819249
 20
115.7441979999999
 30
0.0
 11
341.69785
 21
115.7441979999999
 31
0.0
  0
LINE
  5
A032
330
9E11
100
AcDbEntity
  8
1
  6
Continuous
100
AcDbLine
 10
361.2709469999999
 20
107.044194
 30
0.0
 11
361.2709469999999
 21
112.100012
 31
0.0
  0
LINE
  5
A033
330
9E11
100
AcDbEntity
  8
1
  6
Continuous
100
AcDbLine
 10
362.4909469999999
 20
106.244197
 30
0.0
 11
362.4909469999999
 21
110.4678279999999
 31
0.0
  0
LINE
  5
A034
330
9E11
100
AcDbEntity
  8
1
  6
Continuous
100
AcDbLine
 10
370.240947
 20
110.4678279999999
 30
0.0
 11
370.240947
 21
106.244205
 31
0.0
  0
LINE
  5
A035
330
9E11
100
AcDbEntity
  8
1
  6
Continuous
100
AcDbLine
 10
371.970952
 20
126.744206
 30
0.0
 11
371.970952
 21
104.7441979999998
 31
0.0
  0
LINE
  5
A036
330
9E11
100
AcDbEntity
  8
1
  6
Continuous
100
AcDbLine
 10
370.7709469999999
 20
126.744206
 30
0.0
 11
370.7709469999999
 21
104.7441979999998
 31
0.0
  0
LINE
  5
A037
330
9E11
100
AcDbEntity
  8
1
  6
Continuous
100
AcDbLine
 10
377.0709499999999
 20
107.122304
 30
0.0
 11
377.0709499999999
 21
124.3660019999999
 31
0.0
  0
LINE
  5
A038
330
9E11
100
AcDbEntity
  8
1
  6
Continuous
100
AcDbLine
 10
371.970952
 20
104.744191
 30
0.0
 11
377.0709499999999
 21
107.1222879999998
 31
0.0
  0
LINE
  5
A039
330
9E11
100
AcDbEntity
  8
2
  6
Continuous
100
AcDbLine
 10
370.240947
 20
106.7856949999999
 30
0.0
 11
361.665181
 21
106.7856949999999
 31
0.0
  0
LINE
  5
A03A
330
9E11
100
AcDbEntity
  8
1
  6
Continuous
100
AcDbLine
 10
361.2709549999999
 20
107.044209
 30
0.0
 11
362.4909469999999
 21
106.244197
 31
0.0
  0
LINE
  5
A03B
330
9E11
100
AcDbEntity
  8
1
  6
Continuous
100
AcDbLine
 10
370.7709469999999
 20
106.244205
 30
0.0
 11
362.4833499999998
 21
106.244205
 31
0.0
  0
LINE
  5
A03C
330
9E11
100
AcDbEntity
  8
2
  6
Continuous
100
AcDbLine
 10
370.7709469999999
 20
106.4796929999999
 30
0.0
 11
370.240947
 21
106.7856949999999
 31
0.0
  0
LINE
  5
A03D
330
9E11
100
AcDbEntity
  8
1
  6
Continuous
100
AcDbLine
 10
370.7709469999999
 20
104.7441979999998
 30
0.0
 11
371.970952
 21
104.7441979999998
 31
0.0
  0
LINE
  5
A03E
330
9E11
100
AcDbEntity
  8
1
  6
Continuous
100
AcDbLine
 10
371.9709599999998
 20
126.7441909999998
 30
0.0
 11
377.070958
 21
124.3660019999999
 31
0.0
  0
LINE
  5
A03F
330
9E11
100
AcDbEntity
  8
1
  6
Continuous
100
AcDbLine
 10
361.2709469999999
 20
112.100012
 30
0.0
 11
362.4909469999999
 21
110.4678279999999
 31
0.0
  0
LINE
  5
A040
330
9E11
100
AcDbEntity
  8
2
  6
Continuous
100
AcDbLine
 10
370.240947
 20
124.7027019999999
 30
0.0
 11
361.665181
 21
124.7027019999999
 31
0.0
  0
LINE
  5
A041
330
9E11
100
AcDbEntity
  8
1
  6
Continuous
100
AcDbLine
 10
361.2709469999999
 20
119.388385
 30
0.0
 11
362.4909469999999
 21
121.020569
 31
0.0
  0
LINE
  5
A042
330
9E11
100
AcDbEntity
  8
1
  6
Continuous
100
AcDbLine
 10
362.4909469999999
 20
125.2442
 30
0.0
 11
362.4909469999999
 21
121.020569
 31
0.0
  0
LINE
  5
A043
330
9E11
100
AcDbEntity
  8
1
  6
Continuous
100
AcDbLine
 10
362.4909469999999
 20
121.020569
 30
0.0
 11
370.7709469999999
 21
121.020569
 31
0.0
  0
LINE
  5
A044
330
9E11
100
AcDbEntity
  8
1
  6
Continuous
100
AcDbLine
 10
361.2709549999999
 20
124.4441879999999
 30
0.0
 11
362.4909469999999
 21
125.2442
 31
0.0
  0
LINE
  5
A045
330
9E11
100
AcDbEntity
  8
1
  6
Continuous
100
AcDbLine
 10
370.7709469999999
 20
125.2442
 30
0.0
 11
362.4909469999999
 21
125.2442
 31
0.0
  0
LINE
  5
A046
330
9E11
100
AcDbEntity
  8
1
  6
Continuous
100
AcDbLine
 10
361.2709469999999
 20
124.444203
 30
0.0
 11
361.2709469999999
 21
119.388385
 31
0.0
  0
LINE
  5
A047
330
9E11
100
AcDbEntity
  8
1
  6
Continuous
100
AcDbLine
 10
362.4833499999998
 20
110.4678279999999
 30
0.0
 11
370.7709469999999
 21
110.4678279999999
 31
0.0
  0
LINE
  5
A048
330
9E11
100
AcDbEntity
  8
1
  6
Continuous
100
AcDbLine
 10
370.240947
 20
125.2442
 30
0.0
 11
370.240947
 21
121.020569
 31
0.0
  0
LINE
  5
A049
330
9E11
100
AcDbEntity
  8
2
  6
Continuous
100
AcDbLine
 10
370.7709469999999
 20
125.0087039999999
 30
0.0
 11
370.240947
 21
124.7027019999999
 31
0.0
  0
LINE
  5
A04A
330
9E11
100
AcDbEntity
  8
1
  6
Continuous
100
AcDbLine
 10
370.7709469999999
 20
126.744206
 30
0.0
 11
371.970952
 21
126.744206
 31
0.0
  0
LINE
  5
A04B
330
9E11
100
AcDbEntity
  8
1
  6
Continuous
100
AcDbLine
 10
353.37095
 20
123.444203
 30
0.0
 11
353.37095
 21
108.222485
 31
0.0
  0
LINE
  5
A04C
330
9E11
100
AcDbEntity
  8
1
  6
Continuous
100
AcDbLine
 10
354.970957
 20
123.444203
 30
0.0
 11
354.970957
 21
108.222485
 31
0.0
  0
LINE
  5
A04D
330
9E11
100
AcDbEntity
  8
1
  6
Continuous
100
AcDbLine
 10
355.3209499999999
 20
109.244153
 30
0.0
 11
355.3209499999999
 21
122.244206
 31
0.0
  0
LINE
  5
A04E
330
9E11
100
AcDbEntity
  8
1
  6
Continuous
100
AcDbLine
 10
355.470952
 20
107.967305
 30
0.0
 11
355.470952
 21
124.444203
 31
0.0
  0
LINE
  5
A04F
330
9E11
100
AcDbEntity
  8
1
  6
Continuous
100
AcDbLine
 10
353.37095
 20
108.222485
 30
0.0
 11
354.970957
 21
108.222485
 31
0.0
  0
LINE
  5
A050
330
9E11
100
AcDbEntity
  8
1
  6
Continuous
100
AcDbLine
 10
354.970957
 20
109.1852999999999
 30
0.0
 11
355.470952
 21
109.1852999999999
 31
0.0
  0
LINE
  5
A051
330
9E11
100
AcDbEntity
  8
1
  6
Continuous
100
AcDbLine
 10
355.470952
 20
107.967305
 30
0.0
 11
353.670949
 21
107.967305
 31
0.0
  0
LINE
  5
A052
330
9E11
100
AcDbEntity
  8
1
  6
Continuous
100
AcDbLine
 10
354.170934
 20
107.044209
 30
0.0
 11
353.6709339999999
 21
107.544209
 31
0.0
  0
LINE
  5
A053
330
9E11
100
AcDbEntity
  8
1
  6
Continuous
100
AcDbLine
 10
353.670949
 20
107.5442009999999
 30
0.0
 11
353.670949
 21
108.222485
 31
0.0
  0
LINE
  5
A054
330
9E11
100
AcDbEntity
  8
2
  6
Continuous
100
AcDbLine
 10
352.3431519999999
 20
112.6501969999999
 30
0.0
 11
343.9649489999998
 21
112.6501969999999
 31
0.0
  0
LINE
  5
A055
330
9E11
100
AcDbEntity
  8
2
  6
Continuous
100
AcDbLine
 10
352.3431519999999
 20
118.8382
 30
0.0
 11
343.964946
 21
118.8382
 31
0.0
  0
LINE
  5
A056
330
9E11
100
AcDbEntity
  8
1
  6
Continuous
100
AcDbLine
 10
343.370946
 20
113.2442049999999
 30
0.0
 11
344.3709459999998
 21
112.244197
 31
0.0
  0
LINE
  5
A057
330
9E11
100
AcDbEntity
  8
1
  6
Continuous
100
AcDbLine
 10
344.3709459999998
 20
119.2441999999999
 30
0.0
 11
343.370946
 21
118.2441999999999
 31
0.0
  0
LINE
  5
A058
330
9E11
100
AcDbEntity
  8
1
  6
Continuous
100
AcDbLine
 10
353.37095
 20
112.169201
 30
0.0
 11
352.670949
 21
112.169201
 31
0.0
  0
LINE
  5
A059
330
9E11
100
AcDbEntity
  8
1
  6
Continuous
100
AcDbLine
 10
353.37095
 20
119.319203
 30
0.0
 11
352.670949
 21
119.319203
 31
0.0
  0
LINE
  5
A05A
330
9E11
100
AcDbEntity
  8
1
  6
Continuous
100
AcDbLine
 10
355.3209499999999
 20
112.169201
 30
0.0
 11
354.970957
 21
112.169201
 31
0.0
  0
LINE
  5
A05B
330
9E11
100
AcDbEntity
  8
1
  6
Continuous
100
AcDbLine
 10
355.3209499999999
 20
119.319203
 30
0.0
 11
354.970957
 21
119.319203
 31
0.0
  0
LINE
  5
A05C
330
9E11
100
AcDbEntity
  8
1
  6
Continuous
100
AcDbLine
 10
354.970957
 20
123.444203
 30
0.0
 11
353.37095
 21
123.444203
 31
0.0
  0
LINE
  5
A05D
330
9E11
100
AcDbEntity
  8
2
  6
Continuous
100
AcDbLine
 10
352.670949
 20
112.460943
 30
0.0
 11
352.3431519999999
 21
112.6501969999999
 31
0.0
  0
LINE
  5
A05E
330
9E11
100
AcDbEntity
  8
2
  6
Continuous
100
AcDbLine
 10
352.670949
 20
119.0274529999999
 30
0.0
 11
352.3431439999998
 21
118.8382
 31
0.0
  0
LINE
  5
A05F
330
9E11
100
AcDbEntity
  8
1
  6
Continuous
100
AcDbLine
 10
344.3709459999998
 20
112.244197
 30
0.0
 11
352.670949
 21
112.244197
 31
0.0
  0
LINE
  5
A060
330
9E11
100
AcDbEntity
  8
1
  6
Continuous
100
AcDbLine
 10
344.3709459999998
 20
119.2441999999999
 30
0.0
 11
352.670949
 21
119.2441999999999
 31
0.0
  0
LINE
  5
A061
330
9E11
100
AcDbEntity
  8
1
  6
Continuous
100
AcDbLine
 10
355.470929
 20
122.3942149999998
 30
0.0
 11
355.3209279999999
 21
122.244221
 31
0.0
  0
LINE
  5
A062
330
9E11
100
AcDbEntity
  8
1
  6
Continuous
100
AcDbLine
 10
343.370946
 20
118.2441999999999
 30
0.0
 11
343.370946
 21
113.2442049999999
 31
0.0
  0
ARC
  5
A063
330
9E11
100
AcDbEntity
  8
2
  6
Continuous
100
AcDbCircle
 10
225.453946
 20
115.7441979999999
 30
0.0
 40
3.5
100
AcDbArc
 50
140.482549
 51
219.517451
  0
ARC
  5
A064
330
9E11
100
AcDbEntity
  8
1
  6
Continuous
100
AcDbCircle
 10
225.453946
 20
115.7441979999999
 30
0.0
 40
3.093999999999998
100
AcDbArc
 50
150.7691519999999
 51
209.230848
  0
LINE
  5
A065
330
9E11
100
AcDbEntity
  8
1
  6
Continuous
100
AcDbLine
 10
112.5369539999999
 20
117.9713129999999
 30
0.0
 11
102.5369489999998
 21
117.9713129999999
 31
0.0
  0
LINE
  5
A066
330
9E11
100
AcDbEntity
  8
1
  6
Continuous
100
AcDbLine
 10
112.5369539999999
 20
113.517102
 30
0.0
 11
102.5369489999998
 21
113.517102
 31
0.0
  0
LINE
  5
A067
330
9E11
100
AcDbEntity
  8
1
  6
Continuous
100
AcDbLine
 10
103.236951
 20
112.1691939999999
 30
0.0
 11
103.236951
 21
113.517084
 31
0.0
  0
LINE
  5
A068
330
9E11
100
AcDbEntity
  8
1
  6
Continuous
100
AcDbLine
 10
103.5647479999999
 20
112.244197
 30
0.0
 11
103.5647479999999
 21
113.517084
 31
0.0
  0
LINE
  5
A069
330
9E11
100
AcDbEntity
  8
1
  6
Continuous
100
AcDbLine
 10
111.5369539999999
 20
112.244197
 30
0.0
 11
111.5369539999999
 21
113.517084
 31
0.0
  0
LINE
  5
A06A
330
9E11
100
AcDbEntity
  8
1
  6
Continuous
100
AcDbLine
 10
343.370946
 20
117.9713129999999
 30
0.0
 11
353.37095
 21
117.9713129999999
 31
0.0
  0
LINE
  5
A06B
330
9E11
100
AcDbEntity
  8
2
  6
Continuous
100
AcDbLine
 10
343.4312499999998
 20
117.9713129999999
 30
0.0
 11
353.37095
 21
114.032285
 31
0.0
  0
LINE
  5
A06C
330
9E11
100
AcDbEntity
  8
2
  6
Continuous
100
AcDbLine
 10
353.37095
 20
117.4588799999999
 30
0.0
 11
343.370946
 21
113.517102
 31
0.0
  0
LINE
  5
A06D
330
9E11
100
AcDbEntity
  8
1
  6
Continuous
100
AcDbLine
 10
343.370946
 20
113.517102
 30
0.0
 11
353.37095
 21
113.517102
 31
0.0
  0
LINE
  5
A06E
330
9E11
100
AcDbEntity
  8
1
  6
Continuous
100
AcDbLine
 10
352.670949
 20
119.319203
 30
0.0
 11
352.670949
 21
117.9713129999999
 31
0.0
  0
LINE
  5
A06F
330
9E11
100
AcDbEntity
  8
1
  6
Continuous
100
AcDbLine
 10
352.3431519999999
 20
119.2441999999999
 30
0.0
 11
352.3431519999999
 21
117.9713129999999
 31
0.0
  0
LINE
  5
A070
330
9E11
100
AcDbEntity
  8
1
  6
Continuous
100
AcDbLine
 10
344.3709459999998
 20
119.2441999999999
 30
0.0
 11
344.3709459999998
 21
117.9713129999999
 31
0.0
  0
LINE
  5
A071
330
9E11
100
AcDbEntity
  8
1
  6
Continuous
100
AcDbLine
 10
344.3709459999998
 20
112.244197
 30
0.0
 11
344.3709459999998
 21
113.517084
 31
0.0
  0
LINE
  5
A072
330
9E11
100
AcDbEntity
  8
1
  6
Continuous
100
AcDbLine
 10
352.3431519999999
 20
112.244197
 30
0.0
 11
352.3431519999999
 21
113.517084
 31
0.0
  0
LINE
  5
A073
330
9E11
100
AcDbEntity
  8
1
  6
Continuous
100
AcDbLine
 10
352.670949
 20
112.1691939999999
 30
0.0
 11
352.670949
 21
113.517084
 31
0.0
  0
LINE
  5
A074
330
9E11
100
AcDbEntity
  8
1
  6
Continuous
100
AcDbLine
 10
93.416952
 20
177.844197
 30
0.0
 11
93.416952
 21
184.3041899999998
 31
0.0
  0
LINE
  5
A075
330
9E11
100
AcDbEntity
  8
1
  6
Continuous
100
AcDbLine
 10
94.63695200000001
 20
177.844197
 30
0.0
 11
94.63695200000001
 21
184.4753349999998
 31
0.0
  0
LINE
  5
A076
330
9E11
100
AcDbEntity
  8
1
  6
Continuous
100
AcDbLine
 10
85.66695199999998
 20
177.844197
 30
0.0
 11
85.66695199999998
 21
193.6442
 31
0.0
  0
LINE
  5
A077
330
9E11
100
AcDbEntity
  8
1
  6
Continuous
100
AcDbLine
 10
94.63695200000001
 20
187.013047
 30
0.0
 11
94.63695200000001
 21
193.6442
 31
0.0
  0
LINE
  5
A078
330
9E11
100
AcDbEntity
  8
1
  6
Continuous
100
AcDbLine
 10
93.416952
 20
187.1841919999999
 30
0.0
 11
93.416952
 21
193.6442
 31
0.0
  0
LINE
  5
A079
330
9E11
100
AcDbEntity
  8
1
  6
Continuous
100
AcDbLine
 10
112.5369539999999
 20
187.444214
 30
0.0
 11
111.5369389999999
 21
188.444229
 31
0.0
  0
LINE
  5
A07A
330
9E11
100
AcDbEntity
  8
1
  6
Continuous
100
AcDbLine
 10
102.5369489999998
 20
188.4442139999999
 30
0.0
 11
111.5369539999999
 21
188.4442139999999
 31
0.0
  0
LINE
  5
A07B
330
9E11
100
AcDbEntity
  8
1
  6
Continuous
100
AcDbLine
 10
102.5369489999998
 20
193.444195
 30
0.0
 11
100.936943
 21
193.444195
 31
0.0
  0
LINE
  5
A07C
330
9E11
100
AcDbEntity
  8
1
  6
Continuous
100
AcDbLine
 10
102.5369489999998
 20
189.5743989999998
 30
0.0
 11
100.936943
 21
189.5743989999998
 31
0.0
  0
LINE
  5
A07D
330
9E11
100
AcDbEntity
  8
1
  6
Continuous
100
AcDbLine
 10
102.5369489999998
 20
181.9141049999998
 30
0.0
 11
100.936943
 21
181.9141049999998
 31
0.0
  0
LINE
  5
A07E
330
9E11
100
AcDbEntity
  8
1
  6
Continuous
100
AcDbLine
 10
102.5369489999998
 20
178.2224799999999
 30
0.0
 11
100.936943
 21
178.2224799999999
 31
0.0
  0
LINE
  5
A07F
330
9E11
100
AcDbEntity
  8
1
  6
Continuous
100
AcDbLine
 10
85.66695199999998
 20
53.64419999999999
 30
0.0
 11
85.66695199999998
 21
37.84419699999999
 31
0.0
  0
LINE
  5
A080
330
9E11
100
AcDbEntity
  8
1
  6
Continuous
100
AcDbLine
 10
93.416952
 20
53.64419999999999
 30
0.0
 11
93.416952
 21
37.84419699999999
 31
0.0
  0
LINE
  5
A081
330
9E11
100
AcDbEntity
  8
1
  6
Continuous
100
AcDbLine
 10
94.63695200000001
 20
53.64419999999999
 30
0.0
 11
94.63695200000001
 21
37.84419699999999
 31
0.0
  0
LINE
  5
A082
330
9E11
100
AcDbEntity
  8
1
  6
Continuous
100
AcDbLine
 10
111.5369539999999
 20
48.444183
 30
0.0
 11
112.5369539999999
 21
47.444183
 31
0.0
  0
LINE
  5
A083
330
9E11
100
AcDbEntity
  8
1
  6
Continuous
100
AcDbLine
 10
102.5369489999998
 20
48.444183
 30
0.0
 11
111.5369539999999
 21
48.444183
 31
0.0
  0
LINE
  5
A084
330
9E11
100
AcDbEntity
  8
1
  6
Continuous
100
AcDbLine
 10
102.5369489999998
 20
38.044201
 30
0.0
 11
100.936943
 21
38.044201
 31
0.0
  0
LINE
  5
A085
330
9E11
100
AcDbEntity
  8
1
  6
Continuous
100
AcDbLine
 10
102.5369489999998
 20
41.574811
 30
0.0
 11
100.936943
 21
41.574811
 31
0.0
  0
LINE
  5
A086
330
9E11
100
AcDbEntity
  8
1
  6
Continuous
100
AcDbLine
 10
102.5369489999998
 20
42.592923
 30
0.0
 11
102.236951
 21
42.592923
 31
0.0
  0
LINE
  5
A087
330
9E11
100
AcDbEntity
  8
1
  6
Continuous
100
AcDbLine
 10
102.5369489999998
 20
51.429198
 30
0.0
 11
100.936943
 21
51.429198
 31
0.0
  0
LINE
  5
A088
330
9E11
100
AcDbEntity
  8
1
  6
Continuous
100
AcDbLine
 10
102.5369489999998
 20
53.265917
 30
0.0
 11
100.936943
 21
53.265917
 31
0.0
  0
ARC
  5
A089
330
9E11
100
AcDbEntity
  8
1
  6
Continuous
100
AcDbCircle
 10
26.55141599999998
 20
185.7442059999999
 30
0.0
 40
7.166163
100
AcDbArc
 50
144.462
 51
215.5377
  0
ARC
  5
A08A
330
9E11
100
AcDbEntity
  8
1
  6
Continuous
100
AcDbCircle
 10
17.219109
 20
185.7442059999999
 30
0.0
 40
7.166163
100
AcDbArc
 50
324.4619999999998
 51
35.53799999999999
  0
LINE
  5
A08B
330
9E11
100
AcDbEntity
  8
1
  6
Continuous
100
AcDbLine
 10
20.058837
 20
187.6884839999999
 30
0.0
 11
23.536884
 21
187.6884839999999
 31
0.0
  0
LINE
  5
A08C
330
9E11
100
AcDbEntity
  8
1
  6
Continuous
100
AcDbLine
 10
23.45342899999999
 20
187.13362
 30
0.0
 11
21.88469899999998
 21
187.13362
 31
0.0
  0
ARC
  5
A08D
330
9E11
100
AcDbEntity
  8
1
  6
Continuous
100
AcDbCircle
 10
23.45342899999999
 20
186.856189
 30
0.0
 40
0.277826
100
AcDbArc
 50
10.10399999999999
 51
90.0
  0
ARC
  5
A08E
330
9E11
100
AcDbEntity
  8
1
  6
Continuous
100
AcDbCircle
 10
20.31709699999999
 20
186.856189
 30
0.0
 40
0.277826
100
AcDbArc
 50
90.0
 51
169.896
  0
ARC
  5
A08F
330
9E11
100
AcDbEntity
  8
1
  6
Continuous
100
AcDbCircle
 10
21.88469899999998
 20
189.077898
 30
0.0
 40
1.431648999999999
100
AcDbArc
 50
35.53799999999999
 51
45.69899999999999
  0
ARC
  5
A090
330
9E11
100
AcDbEntity
  8
1
  6
Continuous
100
AcDbCircle
 10
21.88469899999998
 20
189.077898
 30
0.0
 40
1.431648999999999
100
AcDbArc
 50
62.24999999999999
 51
144.462
  0
ARC
  5
A091
330
9E11
100
AcDbEntity
  8
1
  6
Continuous
100
AcDbCircle
 10
21.607267
 20
188.5219069999999
 30
0.0
 40
0.277826
100
AcDbArc
 50
270.0
 51
90.0
  0
LINE
  5
A092
330
9E11
100
AcDbEntity
  8
1
  6
Continuous
100
AcDbLine
 10
21.88469899999998
 20
190.5090399999999
 30
0.0
 11
21.88469899999998
 21
189.3609679999999
 31
0.0
  0
LINE
  5
A093
330
9E11
100
AcDbEntity
  8
1
  6
Continuous
100
AcDbLine
 10
22.92450399999999
 20
189.082409
 30
0.0
 11
20.583251
 21
189.710578
 31
0.0
  0
LINE
  5
A094
330
9E11
100
AcDbEntity
  8
1
  6
Continuous
100
AcDbLine
 10
21.88469899999998
 20
188.5219069999999
 30
0.0
 11
23.217725
 21
188.5219069999999
 31
0.0
  0
LINE
  5
A095
330
9E11
100
AcDbEntity
  8
1
  6
Continuous
100
AcDbLine
 10
21.607267
 20
188.800466
 30
0.0
 11
20.420852
 21
188.800466
 31
0.0
  0
LINE
  5
A096
330
9E11
100
AcDbEntity
  8
1
  6
Continuous
100
AcDbLine
 10
20.32048
 20
188.2444749999999
 30
0.0
 11
21.607267
 21
188.2444749999999
 31
0.0
  0
LINE
  5
A097
330
9E11
100
AcDbEntity
  8
1
  6
Continuous
100
AcDbLine
 10
21.88469899999998
 20
187.13362
 30
0.0
 11
21.88469899999998
 21
186.856189
 31
0.0
  0
LINE
  5
A098
330
9E11
100
AcDbEntity
  8
1
  6
Continuous
100
AcDbLine
 10
21.218186
 20
187.13362
 30
0.0
 11
20.31709699999999
 21
187.13362
 31
0.0
  0
LINE
  5
A099
330
9E11
100
AcDbEntity
  8
1
  6
Continuous
100
AcDbLine
 10
20.056582
 20
186.577629
 30
0.0
 11
23.713944
 21
186.577629
 31
0.0
  0
LINE
  5
A09A
330
9E11
100
AcDbEntity
  8
1
  6
Continuous
100
AcDbLine
 10
19.947188
 20
186.0227659999999
 30
0.0
 11
23.823338
 21
186.0227659999999
 31
0.0
  0
ARC
  5
A09B
330
9E11
100
AcDbEntity
  8
1
  6
Continuous
100
AcDbCircle
 10
23.713944
 20
186.6340179999999
 30
0.0
 40
0.055565
100
AcDbArc
 50
270.0
 51
7.792999999999999
  0
ARC
  5
A09C
330
9E11
100
AcDbEntity
  8
1
  6
Continuous
100
AcDbCircle
 10
20.056582
 20
186.6340179999999
 30
0.0
 40
0.055565
100
AcDbArc
 50
172.2069999999999
 51
270.0
  0
ARC
  5
A09D
330
9E11
100
AcDbEntity
  8
1
  6
Continuous
100
AcDbCircle
 10
17.219109
 20
185.7442059999999
 30
0.0
 40
6.610656999999998
100
AcDbArc
 50
7.792999999999999
 51
10.10399999999999
  0
ARC
  5
A09E
330
9E11
100
AcDbEntity
  8
1
  6
Continuous
100
AcDbCircle
 10
26.55141599999998
 20
185.7442059999999
 30
0.0
 40
6.610656999999998
100
AcDbArc
 50
169.896
 51
172.2069999999999
  0
ARC
  5
A09F
330
9E11
100
AcDbEntity
  8
1
  6
Continuous
100
AcDbCircle
 10
17.219109
 20
185.7442059999999
 30
0.0
 40
6.610656999999998
100
AcDbArc
 50
333.9859999999998
 51
337.0559999999999
  0
ARC
  5
A0A0
330
9E11
100
AcDbEntity
  8
1
  6
Continuous
100
AcDbCircle
 10
23.25494099999999
 20
183.189804
 30
0.0
 40
0.055565
100
AcDbArc
 50
337.0559999999999
 51
90.0
  0
LINE
  5
A0A1
330
9E11
100
AcDbEntity
  8
1
  6
Continuous
100
AcDbLine
 10
19.947188
 20
185.466774
 30
0.0
 11
23.823338
 21
185.466774
 31
0.0
  0
LINE
  5
A0A2
330
9E11
100
AcDbEntity
  8
1
  6
Continuous
100
AcDbLine
 10
19.993427
 20
184.911911
 30
0.0
 11
23.777099
 21
184.911911
 31
0.0
  0
LINE
  5
A0A3
330
9E11
100
AcDbEntity
  8
1
  6
Continuous
100
AcDbLine
 10
23.61244399999999
 20
184.3559199999999
 30
0.0
 11
22.551212
 21
184.3559199999999
 31
0.0
  0
LINE
  5
A0A4
330
9E11
100
AcDbEntity
  8
1
  6
Continuous
100
AcDbLine
 10
20.442279
 20
183.799928
 30
0.0
 11
23.32824599999999
 21
183.799928
 31
0.0
  0
ARC
  5
A0A5
330
9E11
100
AcDbEntity
  8
1
  6
Continuous
100
AcDbCircle
 10
23.61244399999999
 20
184.3006589999999
 30
0.0
 40
0.055565
100
AcDbArc
 50
347.2709999999998
 51
90.0
  0
ARC
  5
A0A6
330
9E11
100
AcDbEntity
  8
1
  6
Continuous
100
AcDbCircle
 10
17.219109
 20
185.7442059999999
 30
0.0
 40
6.610656999999998
100
AcDbArc
 50
344.794
 51
347.2709999999998
  0
ARC
  5
A0A7
330
9E11
100
AcDbEntity
  8
1
  6
Continuous
100
AcDbCircle
 10
17.219109
 20
185.7442059999999
 30
0.0
 40
6.610656999999998
100
AcDbArc
 50
344.7419999999998
 51
344.794
  0
ARC
  5
A0A8
330
9E11
100
AcDbEntity
  8
1
  6
Continuous
100
AcDbCircle
 10
23.32824599999999
 20
184.078488
 30
0.0
 40
0.277826
100
AcDbArc
 50
270.0
 51
344.7419999999998
  0
ARC
  5
A0A9
330
9E11
100
AcDbEntity
  8
1
  6
Continuous
100
AcDbCircle
 10
20.442279
 20
184.078488
 30
0.0
 40
0.277826
100
AcDbArc
 50
195.2574999999999
 51
270.0
  0
ARC
  5
A0AA
330
9E11
100
AcDbEntity
  8
1
  6
Continuous
100
AcDbCircle
 10
26.55141599999998
 20
185.7442059999999
 30
0.0
 40
6.610656999999998
100
AcDbArc
 50
193.2680999999999
 51
195.2574999999999
  0
ARC
  5
A0AB
330
9E11
100
AcDbEntity
  8
1
  6
Continuous
100
AcDbCircle
 10
26.55141599999998
 20
185.7442059999999
 30
0.0
 40
6.610656999999998
100
AcDbArc
 50
192.7289
 51
193.2680999999999
  0
ARC
  5
A0AC
330
9E11
100
AcDbEntity
  8
1
  6
Continuous
100
AcDbCircle
 10
20.158081
 20
184.3006589999999
 30
0.0
 40
0.055565
100
AcDbArc
 50
90.0
 51
192.7289
  0
ARC
  5
A0AD
330
9E11
100
AcDbEntity
  8
1
  6
Continuous
100
AcDbCircle
 10
22.90984299999999
 20
182.967633
 30
0.0
 40
0.277826
100
AcDbArc
 50
270.0
 51
333.9859999999998
  0
ARC
  5
A0AE
330
9E11
100
AcDbEntity
  8
1
  6
Continuous
100
AcDbCircle
 10
20.51445699999999
 20
183.189804
 30
0.0
 40
0.055565
100
AcDbArc
 50
90.0
 51
202.944
  0
ARC
  5
A0AF
330
9E11
100
AcDbEntity
  8
1
  6
Continuous
100
AcDbCircle
 10
26.55141599999998
 20
185.7442059999999
 30
0.0
 40
6.610656999999998
100
AcDbArc
 50
202.944
 51
206.0144
  0
ARC
  5
A0B0
330
9E11
100
AcDbEntity
  8
1
  6
Continuous
100
AcDbCircle
 10
20.86068299999999
 20
182.967633
 30
0.0
 40
0.277826
100
AcDbArc
 50
206.0144
 51
270.0
  0
ARC
  5
A0B1
330
9E11
100
AcDbEntity
  8
1
  6
Continuous
100
AcDbCircle
 10
21.88469899999998
 20
182.411642
 30
0.0
 40
1.431648999999999
100
AcDbArc
 50
270.0
 51
324.4619999999998
  0
ARC
  5
A0B2
330
9E11
100
AcDbEntity
  8
1
  6
Continuous
100
AcDbCircle
 10
21.88469899999998
 20
182.411642
 30
0.0
 40
1.431648999999999
100
AcDbArc
 50
215.5377
 51
256.5374
  0
LINE
  5
A0B3
330
9E11
100
AcDbEntity
  8
1
  6
Continuous
100
AcDbLine
 10
21.88469899999998
 20
185.466774
 30
0.0
 11
21.88469899999998
 21
184.911911
 31
0.0
  0
LINE
  5
A0B4
330
9E11
100
AcDbEntity
  8
1
  6
Continuous
100
AcDbLine
 10
21.218186
 20
184.3559199999999
 30
0.0
 11
20.158081
 21
184.3559199999999
 31
0.0
  0
LINE
  5
A0B5
330
9E11
100
AcDbEntity
  8
1
  6
Continuous
100
AcDbLine
 10
20.51445699999999
 20
183.245065
 30
0.0
 11
23.25494099999999
 21
183.245065
 31
0.0
  0
LINE
  5
A0B6
330
9E11
100
AcDbEntity
  8
1
  6
Continuous
100
AcDbLine
 10
22.90984299999999
 20
182.6890739999998
 30
0.0
 11
20.86068299999999
 21
182.6890739999998
 31
0.0
  0
LINE
  5
A0B7
330
9E11
100
AcDbEntity
  8
1
  6
Continuous
100
AcDbLine
 10
20.36108
 20
182.13421
 30
0.0
 11
22.75646599999999
 21
182.13421
 31
0.0
  0
LINE
  5
A0B8
330
9E11
100
AcDbEntity
  8
1
  6
Continuous
100
AcDbLine
 10
100.528093
 20
109.1852999999999
 30
0.0
 11
100.586949
 21
109.244153
 31
0.0
  0
LINE
  5
A0B9
330
9E11
100
AcDbEntity
  8
1
  6
Continuous
100
AcDbLine
 10
355.3798069999999
 20
109.1852999999999
 30
0.0
 11
355.3209499999999
 21
109.244153
 31
0.0
  0
ENDSEC
  0
SECTION
  2
OBJECTS
  0
DICTIONARY
  5
9DFF
330
0
100
AcDbDictionary
281
     1
  3
ACAD_CIP_PREVIOUS_PRODUCT_INFO
350
A11D
  3
ACAD_COLOR
350
A0FF
  3
ACAD_DETAILVIEWSTYLE
350
A118
  3
ACAD_GROUP
350
9E00
  3
ACAD_LAYOUT
350
9E0C
  3
ACAD_MATERIAL
350
A0CD
  3
ACAD_MLEADERSTYLE
350
A114
  3
ACAD_MLINESTYLE
350
9E09
  3
ACAD_PLOTSETTINGS
350
9E0B
  3
ACAD_PLOTSTYLENAME
350
A0CB
  3
ACAD_SCALELIST
350
A102
  3
ACAD_SECTIONVIEWSTYLE
350
A116
  3
ACAD_TABLESTYLE
350
A100
  3
ACAD_VISUALSTYLE
350
A0E6
  3
ACDB_RECOMPOSE_DATA
350
A13B
  3
AcDbVariableDictionary
350
A12E
  3
DWGPROPS
350
A13C
  0
DICTIONARY
  5
A11E
330
9E03
100
AcDbDictionary
280
     1
281
     1
  3
ADSK_XREC_LAYER_RECONCILED
360
A11F
  0
DICTIONARY
  5
A120
330
9E19
100
AcDbDictionary
280
     1
281
     1
  3
ADSK_XREC_LAYER_RECONCILED
360
A121
  0
DICTIONARY
  5
A122
330
9E1A
100
AcDbDictionary
280
     1
281
     1
  3
ADSK_XREC_LAYER_RECONCILED
360
A123
  0
DICTIONARY
  5
A124
330
9E1B
100
AcDbDictionary
280
     1
281
     1
  3
ADSK_XREC_LAYER_RECONCILED
360
A125
  0
DICTIONARY
  5
A126
330
9E1C
100
AcDbDictionary
280
     1
281
     1
  3
ADSK_XREC_LAYER_RECONCILED
360
A127
  0
DICTIONARY
  5
A128
330
9E1D
100
AcDbDictionary
280
     1
281
     1
  3
ADSK_XREC_LAYER_RECONCILED
360
A129
  0
DICTIONARY
  5
A12A
330
9E1E
100
AcDbDictionary
280
     1
281
     1
  3
ADSK_XREC_LAYER_RECONCILED
360
A12B
  0
DICTIONARY
  5
A12C
330
9E1F
100
AcDbDictionary
280
     1
281
     1
  3
ADSK_XREC_LAYER_RECONCILED
360
A12D
  0
DICTIONARY
  5
A0C6
330
9E11
100
AcDbDictionary
281
     1
  3
ACAD_LAYOUTSELFREF
350
A0C7
  0
DICTIONARY
  5
A0C4
330
9E0D
100
AcDbDictionary
281
     1
  3
ACAD_LAYOUTSELFREF
350
A0C5
  0
XRECORD
  5
A11D
102
{ACAD_REACTORS
330
9DFF
102
}
330
9DFF
100
AcDbXrecord
280
     1
300
ACDLT
300
2014
300
ACDLT_F_S
  0
DICTIONARY
  5
A0FF
102
{ACAD_REACTORS
330
9DFF
102
}
330
9DFF
100
AcDbDictionary
281
     1
  0
DICTIONARY
  5
A118
102
{ACAD_REACTORS
330
9DFF
102
}
330
9DFF
100
AcDbDictionary
281
     1
  3
Imperial24
350
A119
  0
DICTIONARY
  5
9E00
102
{ACAD_REACTORS
330
9DFF
102
}
330
9DFF
100
AcDbDictionary
281
     1
  0
DICTIONARY
  5
9E0C
102
{ACAD_REACTORS
330
9DFF
102
}
330
9DFF
100
AcDbDictionary
281
     1
  3
Model
350
A11A
  3
レイアウト1
350
A11B
  0
DICTIONARY
  5
A0CD
102
{ACAD_REACTORS
330
9DFF
102
}
330
9DFF
100
AcDbDictionary
281
     1
  3
ByBlock
350
A0D6
  3
ByLayer
350
A0CE
  3
Global
350
A0DE
  0
DICTIONARY
  5
A114
102
{ACAD_REACTORS
330
9DFF
102
}
330
9DFF
100
AcDbDictionary
281
     1
  3
Standard
350
A115
  0
DICTIONARY
  5
9E09
102
{ACAD_REACTORS
330
9DFF
102
}
330
9DFF
100
AcDbDictionary
281
     1
  3
STANDARD
350
9E0A
  0
DICTIONARY
  5
9E0B
102
{ACAD_REACTORS
330
9DFF
102
}
330
9DFF
100
AcDbDictionary
281
     1
  0
ACDBDICTIONARYWDFLT
  5
A0CB
102
{ACAD_REACTORS
330
9DFF
102
}
330
9DFF
100
AcDbDictionary
281
     1
  3
Normal
350
A0CC
100
AcDbDictionaryWithDefault
340
A0CC
  0
DICTIONARY
  5
A102
102
{ACAD_REACTORS
330
9DFF
102
}
330
9DFF
100
AcDbDictionary
281
     1
  3
A0
350
A103
  3
A1
350
A104
  3
A2
350
A105
  3
A3
350
A106
  3
A4
350
A107
  3
A5
350
A108
  3
A6
350
A109
  3
A7
350
A10A
  3
A8
350
A10B
  3
A9
350
A10C
  3
B0
350
A10D
  3
B1
350
A10E
  3
B2
350
A10F
  3
B3
350
A110
  3
B4
350
A111
  3
B5
350
A112
  3
B6
350
A113
  0
DICTIONARY
  5
A116
102
{ACAD_REACTORS
330
9DFF
102
}
330
9DFF
100
AcDbDictionary
281
     1
  3
Imperial24
350
A117
  0
DICTIONARY
  5
A100
102
{ACAD_REACTORS
330
9DFF
102
}
330
9DFF
100
AcDbDictionary
281
     1
  3
Standard
350
A101
  0
DICTIONARY
  5
A0E6
102
{ACAD_REACTORS
330
9DFF
102
}
330
9DFF
100
AcDbDictionary
281
     1
  3
2dWireframe
350
A0EC
  3
Basic
350
A0EB
  3
Brighten
350
A0F2
  3
ColorChange
350
A0F6
  3
Conceptual
350
A0EF
  3
Dim
350
A0F1
  3
EdgeColorOff
350
A0FE
  3
Facepattern
350
A0F5
  3
Flat
350
A0E7
  3
FlatWithEdges
350
A0E8
  3
Gouraud
350
A0E9
  3
GouraudWithEdges
350
A0EA
  3
Hidden
350
A0EE
  3
JitterOff
350
A0FC
  3
Linepattern
350
A0F4
  3
OverhangOff
350
A0FD
  3
Realistic
350
A0F0
  3
Shaded
350
A0FB
  3
Shaded with edges
350
A0FA
  3
Shades of Gray
350
A0F7
  3
Sketchy
350
A0F8
  3
Thicken
350
A0F3
  3
Wireframe
350
A0ED
  3
X-Ray
350
A0F9
  0
XRECORD
  5
A13B
102
{ACAD_REACTORS
330
9DFF
102
}
330
9DFF
100
AcDbXrecord
280
     1
 90
        1
330
A101
  0
DICTIONARY
  5
A12E
102
{ACAD_REACTORS
330
9DFF
102
}
330
9DFF
100
AcDbDictionary
281
     1
  3
CANNOSCALE
350
A133
  3
CMLEADERSTYLE
350
A130
  3
CTABLESTYLE
350
A12F
  3
CVIEWDETAILSTYLE
350
A131
  3
CVIEWSECTIONSTYLE
350
A132
  3
DIMASSOC
350
A136
  3
INDEXCTL
350
A135
  3
SORTENTS
350
A134
  3
XCLIPFRAME
350
A137
  0
XRECORD
  5
A13C
102
{ACAD_REACTORS
330
9DFF
102
}
330
9DFF
100
AcDbXrecord
280
     1
  1
DWGPROPS COOKIE
  2

  3

  4

  6

  7

  8
Yoshitsune
  9

300
=
301
=
302
=
303
=
304
=
305
=
306
=
307
=
308
=
309
=
 40
0.0000148958333333
 41
2450950.41894919
 42
2457192.603784259
  1

 90
        0
  0
XRECORD
  5
A11F
102
{ACAD_REACTORS
330
A11E
102
}
330
A11E
100
AcDbXrecord
280
     1
290
     1
  0
XRECORD
  5
A121
102
{ACAD_REACTORS
330
A120
102
}
330
A120
100
AcDbXrecord
280
     1
290
     1
  0
XRECORD
  5
A123
102
{ACAD_REACTORS
330
A122
102
}
330
A122
100
AcDbXrecord
280
     1
290
     1
  0
XRECORD
  5
A125
102
{ACAD_REACTORS
330
A124
102
}
330
A124
100
AcDbXrecord
280
     1
290
     1
  0
XRECORD
  5
A127
102
{ACAD_REACTORS
330
A126
102
}
330
A126
100
AcDbXrecord
280
     1
290
     1
  0
XRECORD
  5
A129
102
{ACAD_REACTORS
330
A128
102
}
330
A128
100
AcDbXrecord
280
     1
290
     1
  0
XRECORD
  5
A12B
102
{ACAD_REACTORS
330
A12A
102
}
330
A12A
100
AcDbXrecord
280
     1
290
     1
  0
XRECORD
  5
A12D
102
{ACAD_REACTORS
330
A12C
102
}
330
A12C
100
AcDbXrecord
280
     1
290
     1
  0
XRECORD
  5
A0C7
102
{ACAD_REACTORS
330
A0C6
102
}
330
A0C6
100
AcDbXrecord
280
     1
340
9E11
  0
XRECORD
  5
A0C5
102
{ACAD_REACTORS
330
A0C4
102
}
330
A0C4
100
AcDbXrecord
280
     1
340
9E0D
  0
ACDBDETAILVIEWSTYLE
  5
A119
102
{ACAD_XDICTIONARY
360
A174
102
}
102
{ACAD_REACTORS
330
A118
102
}
330
A118
100
AcDbModelDocViewStyle
 70
     0
  3
Imperial24
290
     0
100
AcDbDetailViewStyle
 70
     0
 71
     0
 90
        3
 71
     1
340
9E04
 40
0.24
340
0
 40
0.24
300

 40
0.36
280
     3
 71
     2
340
9E08
 90
       25
 71
     3
340
9E04
 40
0.24
 90
        1
 40
0.75
 90
        1
300
%<\AcVar ViewType \f "%tc1">% %<\AcVar ViewDetailId>%\PSCALE %<\AcVar ViewScale \f "%sn">%
 71
     4
340
9E08
 90
       25
340
9E08
 90
       25
280
     0
  0
LAYOUT
  5
A11A
102
{ACAD_XDICTIONARY
360
A176
102
}
102
{ACAD_REACTORS
330
9E0C
102
}
330
9E0C
100
AcDbPlotSettings
  1

  2
Canon LBP9100C
  4

  6

 40
0.0
 41
0.0
 42
0.0
 43
0.0
 44
0.0
 45
0.0
 46
0.0
 47
0.0
 48
0.0
 49
0.0
140
0.0
141
0.0
142
1.0
143
1.0
 70
  1712
 72
     0
 73
     0
 74
     0
  7

 75
     0
147
1.0
148
0.0
149
0.0
100
AcDbLayout
  1
Model
 70
     1
 71
     0
 10
0.0
 20
0.0
 11
12.0
 21
9.0
 12
0.0
 22
0.0
 32
0.0
 14
0.0
 24
0.0
 34
0.0
 15
0.0
 25
0.0
 35
0.0
146
0.0
 13
0.0
 23
0.0
 33
0.0
 16
1.0
 26
0.0
 36
0.0
 17
0.0
 27
1.0
 37
0.0
 76
     0
330
9E11
331
A0C3
  0
LAYOUT
  5
A11B
102
{ACAD_XDICTIONARY
360
A178
102
}
102
{ACAD_REACTORS
330
9E0C
102
}
330
9E0C
100
AcDbPlotSettings
  1

  2
Canon LBP9100C
  4

  6

 40
0.0
 41
0.0
 42
0.0
 43
0.0
 44
0.0
 45
0.0
 46
0.0
 47
0.0
 48
0.0
 49
0.0
140
0.0
141
0.0
142
1.0
143
1.0
 70
   688
 72
     0
 73
     0
 74
     5
  7

 75
    16
147
1.0
148
0.0
149
0.0
100
AcDbLayout
  1
レイアウト1
 70
     0
 71
     1
 10
0.0
 20
0.0
 11
420.0
 21
297.0
 12
0.0
 22
0.0
 32
0.0
 14
1.000000000000000E+20
 24
1.000000000000000E+20
 34
1.000000000000000E+20
 15
-1.000000000000000E+20
 25
-1.000000000000000E+20
 35
-1.000000000000000E+20
146
0.0
 13
0.0
 23
0.0
 33
0.0
 16
1.0
 26
0.0
 36
0.0
 17
0.0
 27
1.0
 37
0.0
 76
     0
330
9E0D
  0
MATERIAL
  5
A0D6
102
{ACAD_XDICTIONARY
360
A0D7
102
}
102
{ACAD_REACTORS
330
A0CD
102
}
330
A0CD
100
AcDbMaterial
  1
ByBlock
 72
     0
 43
0.0208333333333333
 43
0.0
 43
0.0
 43
0.0
 43
0.0
 43
0.0208333333333333
 43
0.0
 43
0.0
 43
0.0
 43
0.0
 43
1.0
 43
0.0
 43
0.0
 43
0.0
 43
0.0
 43
1.0
 77
     0
 47
0.0208333333333333
 47
0.0
 47
0.0
 47
0.0
 47
0.0
 47
0.0208333333333333
 47
0.0
 47
0.0
 47
0.0
 47
0.0
 47
1.0
 47
0.0
 47
0.0
 47
0.0
 47
0.0
 47
1.0
171
     0
 49
0.0208333333333333
 49
0.0
 49
0.0
 49
0.0
 49
0.0
 49
0.0208333333333333
 49
0.0
 49
0.0
 49
0.0
 49
0.0
 49
1.0
 49
0.0
 49
0.0
 49
0.0
 49
0.0
 49
1.0
175
     0
142
0.0208333333333333
142
0.0
142
0.0
142
0.0
142
0.0
142
0.0208333333333333
142
0.0
142
0.0
142
0.0
142
0.0
142
1.0
142
0.0
142
0.0
142
0.0
142
0.0
142
1.0
179
     0
144
0.0208333333333333
144
0.0
144
0.0
144
0.0
144
0.0
144
0.0208333333333333
144
0.0
144
0.0
144
0.0
144
0.0
144
1.0
144
0.0
144
0.0
144
0.0
144
0.0
144
1.0
147
0.0208333333333333
147
0.0
147
0.0
147
0.0
147
0.0
147
0.0208333333333333
147
0.0
147
0.0
147
0.0
147
0.0
147
1.0
147
0.0
147
0.0
147
0.0
147
0.0
147
1.0
  0
MATERIAL
  5
A0CE
102
{ACAD_XDICTIONARY
360
A0CF
102
}
102
{ACAD_REACTORS
330
A0CD
102
}
330
A0CD
100
AcDbMaterial
  1
ByLayer
 72
     0
 43
0.0208333333333333
 43
0.0
 43
0.0
 43
0.0
 43
0.0
 43
0.0208333333333333
 43
0.0
 43
0.0
 43
0.0
 43
0.0
 43
1.0
 43
0.0
 43
0.0
 43
0.0
 43
0.0
 43
1.0
 77
     0
 47
0.0208333333333333
 47
0.0
 47
0.0
 47
0.0
 47
0.0
 47
0.0208333333333333
 47
0.0
 47
0.0
 47
0.0
 47
0.0
 47
1.0
 47
0.0
 47
0.0
 47
0.0
 47
0.0
 47
1.0
171
     0
 49
0.0208333333333333
 49
0.0
 49
0.0
 49
0.0
 49
0.0
 49
0.0208333333333333
 49
0.0
 49
0.0
 49
0.0
 49
0.0
 49
1.0
 49
0.0
 49
0.0
 49
0.0
 49
0.0
 49
1.0
175
     0
142
0.0208333333333333
142
0.0
142
0.0
142
0.0
142
0.0
142
0.0208333333333333
142
0.0
142
0.0
142
0.0
142
0.0
142
1.0
142
0.0
142
0.0
142
0.0
142
0.0
142
1.0
179
     0
144
0.0208333333333333
144
0.0
144
0.0
144
0.0
144
0.0
144
0.0208333333333333
144
0.0
144
0.0
144
0.0
144
0.0
144
1.0
144
0.0
144
0.0
144
0.0
144
0.0
144
1.0
147
0.0208333333333333
147
0.0
147
0.0
147
0.0
147
0.0
147
0.0208333333333333
147
0.0
147
0.0
147
0.0
147
0.0
147
1.0
147
0.0
147
0.0
147
0.0
147
0.0
147
1.0
  0
MATERIAL
  5
A0DE
102
{ACAD_XDICTIONARY
360
A0DF
102
}
102
{ACAD_REACTORS
330
A0CD
102
}
330
A0CD
100
AcDbMaterial
  1
Global
 72
     0
 43
0.0208333333333333
 43
0.0
 43
0.0
 43
0.0
 43
0.0
 43
0.0208333333333333
 43
0.0
 43
0.0
 43
0.0
 43
0.0
 43
1.0
 43
0.0
 43
0.0
 43
0.0
 43
0.0
 43
1.0
 77
     0
 47
0.0208333333333333
 47
0.0
 47
0.0
 47
0.0
 47
0.0
 47
0.0208333333333333
 47
0.0
 47
0.0
 47
0.0
 47
0.0
 47
1.0
 47
0.0
 47
0.0
 47
0.0
 47
0.0
 47
1.0
171
     0
 49
0.0208333333333333
 49
0.0
 49
0.0
 49
0.0
 49
0.0
 49
0.0208333333333333
 49
0.0
 49
0.0
 49
0.0
 49
0.0
 49
1.0
 49
0.0
 49
0.0
 49
0.0
 49
0.0
 49
1.0
175
     0
142
0.0208333333333333
142
0.0
142
0.0
142
0.0
142
0.0
142
0.0208333333333333
142
0.0
142
0.0
142
0.0
142
0.0
142
1.0
142
0.0
142
0.0
142
0.0
142
0.0
142
1.0
179
     0
144
0.0208333333333333
144
0.0
144
0.0
144
0.0
144
0.0
144
0.0208333333333333
144
0.0
144
0.0
144
0.0
144
0.0
144
1.0
144
0.0
144
0.0
144
0.0
144
0.0
144
1.0
147
0.0208333333333333
147
0.0
147
0.0
147
0.0
147
0.0
147
0.0208333333333333
147
0.0
147
0.0
147
0.0
147
0.0
147
1.0
147
0.0
147
0.0
147
0.0
147
0.0
147
1.0
  0
MLEADERSTYLE
  5
A115
102
{ACAD_REACTORS
330
A114
102
}
330
A114
100
AcDbMLeaderStyle
170
     2
171
     1
172
     0
 90
        2
 40
0.0
 41
0.0
173
     1
 91
-1056964608
340
9E06
 92
       -2
290
     1
 42
0.09
291
     1
 43
0.36
  3
Standard
 44
0.18
300

342
9E04
174
     1
178
     6
175
     1
176
     0
 93
-1056964608
 45
0.18
292
     0
297
     0
 46
0.18
 94
-1056964608
 47
1.0
 49
1.0
140
1.0
293
     1
141
0.0
294
     1
177
     0
142
1.0
295
     0
296
     0
143
0.125
1001
ACAD_MLEADERVER
1070
     2
  0
MLINESTYLE
  5
9E0A
102
{ACAD_REACTORS
330
9E09
102
}
330
9E09
100
AcDbMlineStyle
  2
STANDARD
 70
     0
  3

 62
   256
 51
90.0
 52
90.0
 71
     2
 49
0.5
 62
   256
  6
BYLAYER
 49
-0.5
 62
   256
  6
BYLAYER
  0
ACDBPLACEHOLDER
  5
A0CC
102
{ACAD_REACTORS
330
A0CB
102
}
330
A0CB
  0
SCALE
  5
A103
102
{ACAD_REACTORS
330
A102
102
}
330
A102
100
AcDbScale
 70
     0
300
1:1
140
1.0
141
1.0
290
     1
  0
SCALE
  5
A104
102
{ACAD_REACTORS
330
A102
102
}
330
A102
100
AcDbScale
 70
     0
300
1/128" = 1'-0"
140
0.0078125
141
12.0
290
     0
  0
SCALE
  5
A105
102
{ACAD_REACTORS
330
A102
102
}
330
A102
100
AcDbScale
 70
     0
300
1/64" = 1'-0"
140
0.015625
141
12.0
290
     0
  0
SCALE
  5
A106
102
{ACAD_REACTORS
330
A102
102
}
330
A102
100
AcDbScale
 70
     0
300
1/32" = 1'-0"
140
0.03125
141
12.0
290
     0
  0
SCALE
  5
A107
102
{ACAD_REACTORS
330
A102
102
}
330
A102
100
AcDbScale
 70
     0
300
1/16" = 1'-0"
140
0.0625
141
12.0
290
     0
  0
SCALE
  5
A108
102
{ACAD_REACTORS
330
A102
102
}
330
A102
100
AcDbScale
 70
     0
300
3/32" = 1'-0"
140
0.09375
141
12.0
290
     0
  0
SCALE
  5
A109
102
{ACAD_REACTORS
330
A102
102
}
330
A102
100
AcDbScale
 70
     0
300
1/8" = 1'-0"
140
0.125
141
12.0
290
     0
  0
SCALE
  5
A10A
102
{ACAD_REACTORS
330
A102
102
}
330
A102
100
AcDbScale
 70
     0
300
3/16" = 1'-0"
140
0.1875
141
12.0
290
     0
  0
SCALE
  5
A10B
102
{ACAD_REACTORS
330
A102
102
}
330
A102
100
AcDbScale
 70
     0
300
1/4" = 1'-0"
140
0.25
141
12.0
290
     0
  0
SCALE
  5
A10C
102
{ACAD_REACTORS
330
A102
102
}
330
A102
100
AcDbScale
 70
     0
300
3/8" = 1'-0"
140
0.375
141
12.0
290
     0
  0
SCALE
  5
A10D
102
{ACAD_REACTORS
330
A102
102
}
330
A102
100
AcDbScale
 70
     0
300
1/2" = 1'-0"
140
0.5
141
12.0
290
     0
  0
SCALE
  5
A10E
102
{ACAD_REACTORS
330
A102
102
}
330
A102
100
AcDbScale
 70
     0
300
3/4" = 1'-0"
140
0.75
141
12.0
290
     0
  0
SCALE
  5
A10F
102
{ACAD_REACTORS
330
A102
102
}
330
A102
100
AcDbScale
 70
     0
300
1" = 1'-0"
140
1.0
141
12.0
290
     0
  0
SCALE
  5
A110
102
{ACAD_REACTORS
330
A102
102
}
330
A102
100
AcDbScale
 70
     0
300
1-1/2" = 1'-0"
140
1.5
141
12.0
290
     0
  0
SCALE
  5
A111
102
{ACAD_REACTORS
330
A102
102
}
330
A102
100
AcDbScale
 70
     0
300
3" = 1'-0"
140
3.0
141
12.0
290
     0
  0
SCALE
  5
A112
102
{ACAD_REACTORS
330
A102
102
}
330
A102
100
AcDbScale
 70
     0
300
6" = 1'-0"
140
6.0
141
12.0
290
     0
  0
SCALE
  5
A113
102
{ACAD_REACTORS
330
A102
102
}
330
A102
100
AcDbScale
 70
     0
300
1'-0" = 1'-0"
140
12.0
141
12.0
290
     0
  0
ACDBSECTIONVIEWSTYLE
  5
A117
102
{ACAD_XDICTIONARY
360
A172
102
}
102
{ACAD_REACTORS
330
A116
102
}
330
A116
100
AcDbModelDocViewStyle
 70
     0
  3
Imperial24
290
     0
100
AcDbSectionViewStyle
 70
     0
 71
     0
 90
       78
 71
     1
340
9E04
 40
0.24
340
0
340
0
 40
0.24
300
I, O, Q, S, X, Z
 40
0.48
 90
        3
 40
0.18
 90
        1
 71
     2
340
9E08
 90
       25
340
9E08
 90
       50
 40
0.24
 40
0.0
 40
0.24
 71
     3
340
9E04
 40
0.24
 90
        1
 40
0.75
 90
        1
300
%<\AcVar ViewType \f "%tc1">% %<\AcVar ViewSectionStartId>%-%<\AcVar ViewSectionEndId>%\PSCALE %<\AcVar ViewScale \f "%sn">%
 71
     4
300
ANSI31
 40
1.0
 90
        0
290
     0
290
     0
 90
        6
 40
0.0
 40
1.570796326794896
 40
0.2617993877991494
 40
1.308996938995747
 40
-0.2617993877991494
 40
1.832595714594046
  0
TABLESTYLE
  5
A101
102
{ACAD_XDICTIONARY
360
A139
102
}
102
{ACAD_REACTORS
330
A100
102
}
330
A100
100
AcDbTableStyle
  3
Standard
 70
     0
 71
     0
 40
0.06
 41
0.06
280
     0
281
     0
  7
STANDARD
140
0.18
170
     2
 62
     0
 63
     7
283
     0
274
    -2
284
     1
 64
     0
275
    -2
285
     1
 65
     0
276
    -2
286
     1
 66
     0
277
    -2
287
     1
 67
     0
278
    -2
288
     1
 68
     0
279
    -2
289
     1
 69
     0
  7
STANDARD
140
0.25
170
     5
 62
     0
 63
     7
283
     0
274
    -2
284
     1
 64
     0
275
    -2
285
     1
 65
     0
276
    -2
286
     1
 66
     0
277
    -2
287
     1
 67
     0
278
    -2
288
     1
 68
     0
279
    -2
289
     1
 69
     0
  7
STANDARD
140
0.18
170
     5
 62
     0
 63
     7
283
     0
274
    -2
284
     1
 64
     0
275
    -2
285
     1
 65
     0
276
    -2
286
     1
 66
     0
277
    -2
287
     1
 67
     0
278
    -2
288
     1
 68
     0
279
    -2
289
     1
 69
     0
  0
VISUALSTYLE
  5
A0EC
102
{ACAD_XDICTIONARY
360
A14A
102
}
102
{ACAD_REACTORS
330
A0E6
102
}
330
A0E6
100
AcDbVisualStyle
  2
2dWireframe
 70
     4
 71
     0
 72
     2
 73
     0
 90
        0
 40
-0.6
 41
-30.0
 62
     5
 63
     7
 74
     1
 91
        4
 64
     7
 65
   257
 75
     1
175
     1
 42
1.0
 92
        0
 66
   257
 43
1.0
 76
     1
 77
     6
 78
     2
 67
     7
 79
     5
170
     0
171
     0
290
     0
174
     0
 93
        1
 44
0.0
173
     0
291
     0
 45
0.0
1001
ACAD
1000
AcDbSavedByObjectVersion
1070
     0
  0
VISUALSTYLE
  5
A0EB
102
{ACAD_XDICTIONARY
360
A148
102
}
102
{ACAD_REACTORS
330
A0E6
102
}
330
A0E6
100
AcDbVisualStyle
  2
Basic
 70
     7
 71
     1
 72
     0
 73
     1
 90
        0
 40
-0.6
 41
-30.0
 62
     5
 63
     7
 74
     0
 91
        4
 64
     7
 65
   257
 75
     1
175
     1
 42
1.0
 92
        8
 66
     7
 43
1.0
 76
     1
 77
     6
 78
     2
 67
     7
 79
     5
170
     0
171
     0
290
     0
174
     0
 93
        1
 44
0.0
173
     0
291
     1
 45
0.0
1001
ACAD
1000
AcDbSavedByObjectVersion
1070
     0
  0
VISUALSTYLE
  5
A0F2
102
{ACAD_XDICTIONARY
360
A156
102
}
102
{ACAD_REACTORS
330
A0E6
102
}
330
A0E6
100
AcDbVisualStyle
  2
Brighten
 70
    12
 71
     2
 72
     2
 73
     0
 90
        0
 40
-0.6
 41
-30.0
 62
     5
 63
     7
 74
     1
 91
        4
 64
     7
 65
   257
 75
     1
175
     1
 42
1.0
 92
        8
 66
     7
 43
1.0
 76
     1
 77
     6
 78
     2
 67
     7
 79
     5
170
     0
171
     0
290
     0
174
     0
 93
        1
 44
50.0
173
     0
291
     1
 45
0.0
1001
ACAD
1000
AcDbSavedByObjectVersion
1070
     0
  0
VISUALSTYLE
  5
A0F6
102
{ACAD_XDICTIONARY
360
A15E
102
}
102
{ACAD_REACTORS
330
A0E6
102
}
330
A0E6
100
AcDbVisualStyle
  2
ColorChange
 70
    16
 71
     2
 72
     2
 73
     3
 90
        0
 40
-0.6
 41
-30.0
 62
     5
 63
     8
 74
     1
 91
        4
 64
     7
 65
   257
 75
     1
175
     1
 42
1.0
 92
        8
 66
     8
 43
1.0
 76
     1
 77
     6
 78
     2
 67
     7
 79
     5
170
     0
171
     0
290
     0
174
     0
 93
        1
 44
0.0
173
     0
291
     1
 45
0.0
1001
ACAD
1000
AcDbSavedByObjectVersion
1070
     0
  0
VISUALSTYLE
  5
A0EF
102
{ACAD_XDICTIONARY
360
A150
102
}
102
{ACAD_REACTORS
330
A0E6
102
}
330
A0E6
100
AcDbVisualStyle
  2
Conceptual
 70
     9
 71
     3
 72
     2
 73
     0
 90
        0
 40
-0.6
 41
-30.0
 62
     5
 63
     7
 74
     2
 91
        2
 64
     7
 65
   257
 75
     1
175
     1
 42
179.0
 92
        8
 66
     7
 43
1.0
 76
     1
 77
     6
 78
     2
 67
     7
 79
     3
170
     0
171
     0
290
     0
174
     0
 93
        1
 44
0.0
173
     0
291
     0
 45
0.0
1001
ACAD
1000
AcDbSavedByObjectVersion
1070
     0
  0
VISUALSTYLE
  5
A0F1
102
{ACAD_XDICTIONARY
360
A154
102
}
102
{ACAD_REACTORS
330
A0E6
102
}
330
A0E6
100
AcDbVisualStyle
  2
Dim
 70
    11
 71
     2
 72
     2
 73
     0
 90
        0
 40
-0.6
 41
-30.0
 62
     5
 63
     7
 74
     1
 91
        4
 64
     7
 65
   257
 75
     1
175
     1
 42
1.0
 92
        8
 66
     7
 43
1.0
 76
     1
 77
     6
 78
     2
 67
     7
 79
     5
170
     0
171
     0
290
     0
174
     0
 93
        1
 44
-50.0
173
     0
291
     1
 45
0.0
1001
ACAD
1000
AcDbSavedByObjectVersion
1070
     0
  0
VISUALSTYLE
  5
A0FE
102
{ACAD_XDICTIONARY
360
A16E
102
}
102
{ACAD_REACTORS
330
A0E6
102
}
330
A0E6
100
AcDbVisualStyle
  2
EdgeColorOff
 70
    22
 71
     2
 72
     2
 73
     0
 90
        0
 40
-0.6
 41
-30.0
 62
     5
 63
     7
 74
     1
 91
        4
 64
     7
 65
   257
 75
     1
175
     1
 42
1.0
 92
        8
 66
     7
 43
1.0
 76
     1
 77
     6
 78
     2
 67
     7
 79
     5
170
     0
171
     0
290
     0
174
     0
 93
        1
 44
0.0
173
     0
291
     1
 45
0.0
1001
ACAD
1000
AcDbSavedByObjectVersion
1070
     0
  0
VISUALSTYLE
  5
A0F5
102
{ACAD_XDICTIONARY
360
A15C
102
}
102
{ACAD_REACTORS
330
A0E6
102
}
330
A0E6
100
AcDbVisualStyle
  2
Facepattern
 70
    15
 71
     2
 72
     2
 73
     0
 90
        0
 40
-0.6
 41
-30.0
 62
     5
 63
     7
 74
     1
 91
        4
 64
     7
 65
   257
 75
     1
175
     1
 42
1.0
 92
        8
 66
     7
 43
1.0
 76
     1
 77
     6
 78
     2
 67
     7
 79
     5
170
     0
171
     0
290
     0
174
     0
 93
        1
 44
0.0
173
     0
291
     1
 45
0.0
1001
ACAD
1000
AcDbSavedByObjectVersion
1070
     0
  0
VISUALSTYLE
  5
A0E7
102
{ACAD_XDICTIONARY
360
A140
102
}
102
{ACAD_REACTORS
330
A0E6
102
}
330
A0E6
100
AcDbVisualStyle
  2
Flat
 70
     0
 71
     2
 72
     1
 73
     1
 90
        2
 40
-0.6
 41
30.0
 62
     5
 63
     7
 74
     0
 91
        0
 64
     7
 65
   257
 75
     1
175
     1
 42
1.0
 92
        8
 66
     7
 43
1.0
 76
     1
 77
     6
 78
     2
 67
     7
 79
     5
170
     0
171
     0
290
     0
174
     0
 93
       13
 44
0.0
173
     0
291
     1
 45
0.0
1001
ACAD
1000
AcDbSavedByObjectVersion
1070
     0
  0
VISUALSTYLE
  5
A0E8
102
{ACAD_XDICTIONARY
360
A142
102
}
102
{ACAD_REACTORS
330
A0E6
102
}
330
A0E6
100
AcDbVisualStyle
  2
FlatWithEdges
 70
     1
 71
     2
 72
     1
 73
     1
 90
        2
 40
-0.6
 41
30.0
 62
     5
 63
     7
 74
     1
 91
        0
 64
     7
 65
   257
 75
     1
175
     1
 42
1.0
 92
        0
 66
   257
 43
1.0
 76
     1
 77
     6
 78
     2
 67
     7
 79
     5
170
     0
171
     0
290
     0
174
     0
 93
       13
 44
0.0
173
     0
291
     1
 45
0.0
1001
ACAD
1000
AcDbSavedByObjectVersion
1070
     0
  0
VISUALSTYLE
  5
A0E9
102
{ACAD_XDICTIONARY
360
A144
102
}
102
{ACAD_REACTORS
330
A0E6
102
}
330
A0E6
100
AcDbVisualStyle
  2
Gouraud
 70
     2
 71
     2
 72
     2
 73
     1
 90
        2
 40
-0.6
 41
30.0
 62
     5
 63
     7
 74
     0
 91
        0
 64
     7
 65
   257
 75
     1
175
     1
 42
1.0
 92
        0
 66
     7
 43
1.0
 76
     1
 77
     6
 78
     2
 67
     7
 79
     5
170
     0
171
     0
290
     0
174
     0
 93
       13
 44
0.0
173
     0
291
     1
 45
0.0
1001
ACAD
1000
AcDbSavedByObjectVersion
1070
     0
  0
VISUALSTYLE
  5
A0EA
102
{ACAD_XDICTIONARY
360
A146
102
}
102
{ACAD_REACTORS
330
A0E6
102
}
330
A0E6
100
AcDbVisualStyle
  2
GouraudWithEdges
 70
     3
 71
     2
 72
     2
 73
     1
 90
        2
 40
-0.6
 41
30.0
 62
     5
 63
     7
 74
     1
 91
        0
 64
     7
 65
   257
 75
     1
175
     1
 42
1.0
 92
        0
 66
   257
 43
1.0
 76
     1
 77
     6
 78
     2
 67
     7
 79
     5
170
     0
171
     0
290
     0
174
     0
 93
       13
 44
0.0
173
     0
291
     1
 45
0.0
1001
ACAD
1000
AcDbSavedByObjectVersion
1070
     0
  0
VISUALSTYLE
  5
A0EE
102
{ACAD_XDICTIONARY
360
A14E
102
}
102
{ACAD_REACTORS
330
A0E6
102
}
330
A0E6
100
AcDbVisualStyle
  2
Hidden
 70
     6
 71
     1
 72
     2
 73
     2
 90
        0
 40
-0.6
 41
-30.0
 62
     5
 63
     7
 74
     2
 91
        2
 64
     7
 65
   257
 75
     2
175
     1
 42
40.0
 92
        0
 66
   257
 43
1.0
 76
     1
 77
     6
 78
     2
 67
     7
 79
     3
170
     0
171
     0
290
     0
174
     0
 93
        1
 44
0.0
173
     0
291
     0
 45
0.0
1001
ACAD
1000
AcDbSavedByObjectVersion
1070
     0
  0
VISUALSTYLE
  5
A0FC
102
{ACAD_XDICTIONARY
360
A16A
102
}
102
{ACAD_REACTORS
330
A0E6
102
}
330
A0E6
100
AcDbVisualStyle
  2
JitterOff
 70
    20
 71
     2
 72
     2
 73
     0
 90
        0
 40
-0.6
 41
-30.0
 62
     5
 63
     7
 74
     1
 91
        4
 64
     7
 65
   257
 75
     1
175
     1
 42
1.0
 92
       10
 66
     7
 43
1.0
 76
     1
 77
     6
 78
     2
 67
     7
 79
     5
170
     0
171
     0
290
     0
174
     0
 93
        1
 44
0.0
173
     0
291
     1
 45
0.0
1001
ACAD
1000
AcDbSavedByObjectVersion
1070
     0
  0
VISUALSTYLE
  5
A0F4
102
{ACAD_XDICTIONARY
360
A15A
102
}
102
{ACAD_REACTORS
330
A0E6
102
}
330
A0E6
100
AcDbVisualStyle
  2
Linepattern
 70
    14
 71
     2
 72
     2
 73
     0
 90
        0
 40
-0.6
 41
-30.0
 62
     5
 63
     7
 74
     1
 91
        4
 64
     7
 65
   257
 75
     7
175
     7
 42
1.0
 92
        8
 66
     7
 43
1.0
 76
     1
 77
     6
 78
     2
 67
     7
 79
     5
170
     0
171
     0
290
     0
174
     0
 93
        1
 44
0.0
173
     0
291
     1
 45
0.0
1001
ACAD
1000
AcDbSavedByObjectVersion
1070
     0
  0
VISUALSTYLE
  5
A0FD
102
{ACAD_XDICTIONARY
360
A16C
102
}
102
{ACAD_REACTORS
330
A0E6
102
}
330
A0E6
100
AcDbVisualStyle
  2
OverhangOff
 70
    21
 71
     2
 72
     2
 73
     0
 90
        0
 40
-0.6
 41
-30.0
 62
     5
 63
     7
 74
     1
 91
        4
 64
     7
 65
   257
 75
     1
175
     1
 42
1.0
 92
        9
 66
     7
 43
1.0
 76
     1
 77
     6
 78
     2
 67
     7
 79
     5
170
     0
171
     0
290
     0
174
     0
 93
        1
 44
0.0
173
     0
291
     1
 45
0.0
1001
ACAD
1000
AcDbSavedByObjectVersion
1070
     0
  0
VISUALSTYLE
  5
A0F0
102
{ACAD_XDICTIONARY
360
A152
102
}
102
{ACAD_REACTORS
330
A0E6
102
}
330
A0E6
100
AcDbVisualStyle
  2
Realistic
 70
     8
 71
     2
 72
     3
 73
     0
 90
        2
 40
-0.6
 41
30.0
 62
     5
 63
     7
 74
     0
 91
        0
 64
     7
 65
   257
 75
     1
175
     1
 42
1.0
 92
        8
 66
   257
 43
1.0
 76
     1
 77
     6
 78
     2
 67
     7
 79
     3
170
     0
171
     0
290
     0
174
     0
 93
       13
 44
0.0
173
     0
291
     0
 45
0.0
1001
ACAD
1000
AcDbSavedByObjectVersion
1070
     0
  0
VISUALSTYLE
  5
A0FB
102
{ACAD_XDICTIONARY
360
A168
102
}
102
{ACAD_REACTORS
330
A0E6
102
}
330
A0E6
100
AcDbVisualStyle
  2
Shaded
 70
    27
 71
     2
 72
     2
 73
     1
 90
        2
 40
-0.6
 41
30.0
 62
     5
 63
     7
 74
     0
 91
        4
 64
     7
 65
   257
 75
     1
175
     1
 42
1.0
 92
        8
 66
   257
 43
1.0
 76
     1
 77
     6
 78
     2
 67
     8
 79
     3
170
     0
171
     0
290
     0
174
     0
 93
        5
 44
0.0
173
     0
291
     0
 45
0.0
1001
ACAD
1000
AcDbSavedByObjectVersion
1070
     0
  0
VISUALSTYLE
  5
A0FA
102
{ACAD_XDICTIONARY
360
A166
102
}
102
{ACAD_REACTORS
330
A0E6
102
}
330
A0E6
100
AcDbVisualStyle
  2
Shaded with edges
 70
    26
 71
     2
 72
     2
 73
     1
 90
        2
 40
-0.6
 41
30.0
 62
     5
 63
     7
 74
     1
 91
       10
 64
     7
 65
   257
 75
     2
175
     1
 42
1.0
 92
        8
 66
   257
 43
1.0
 76
     1
 77
     6
 78
     2
 67
     7
 79
     3
170
     0
171
     0
290
     0
174
     0
 93
        5
 44
0.0
173
     0
291
     0
 45
0.0
1001
ACAD
1000
AcDbSavedByObjectVersion
1070
     0
  0
VISUALSTYLE
  5
A0F7
102
{ACAD_XDICTIONARY
360
A160
102
}
102
{ACAD_REACTORS
330
A0E6
102
}
330
A0E6
100
AcDbVisualStyle
  2
Shades of Gray
 70
    23
 71
     2
 72
     2
 73
     3
 90
        0
 40
-0.6
 41
-30.0
 62
     5
 63
     7
 74
     2
 91
        2
 64
     7
 65
     7
 75
     1
175
     1
 42
40.0
 92
        8
 66
     7
 43
1.0
 76
     1
 77
     6
 78
     2
 67
     7
 79
     3
170
     0
171
     0
290
     0
174
     0
 93
        1
 44
0.0
173
     0
291
     0
 45
0.0
1001
ACAD
1000
AcDbSavedByObjectVersion
1070
     0
  0
VISUALSTYLE
  5
A0F8
102
{ACAD_XDICTIONARY
360
A162
102
}
102
{ACAD_REACTORS
330
A0E6
102
}
330
A0E6
100
AcDbVisualStyle
  2
Sketchy
 70
    24
 71
     1
 72
     2
 73
     2
 90
        0
 40
-0.6
 41
-30.0
 62
     5
 63
     7
 74
     2
 91
        2
 64
     7
 65
     7
 75
     1
175
     1
 42
40.0
 92
       11
 66
     7
 43
1.0
 76
     1
 77
     6
 78
     2
 67
     7
 79
     6
170
     0
171
     0
290
     0
174
     0
 93
        1
 44
0.0
173
     0
291
     0
 45
0.0
1001
ACAD
1000
AcDbSavedByObjectVersion
1070
     0
  0
VISUALSTYLE
  5
A0F3
102
{ACAD_XDICTIONARY
360
A158
102
}
102
{ACAD_REACTORS
330
A0E6
102
}
330
A0E6
100
AcDbVisualStyle
  2
Thicken
 70
    13
 71
     2
 72
     2
 73
     0
 90
        0
 40
-0.6
 41
-30.0
 62
     5
 63
     7
 74
     1
 91
        4
 64
     7
 65
   257
 75
     1
175
     1
 42
1.0
 92
       12
 66
     7
 43
1.0
 76
     1
 77
     6
 78
     2
 67
     7
 79
     5
170
     0
171
     0
290
     0
174
     0
 93
        1
 44
0.0
173
     0
291
     1
 45
0.0
1001
ACAD
1000
AcDbSavedByObjectVersion
1070
     0
  0
VISUALSTYLE
  5
A0ED
102
{ACAD_XDICTIONARY
360
A14C
102
}
102
{ACAD_REACTORS
330
A0E6
102
}
330
A0E6
100
AcDbVisualStyle
  2
Wireframe
 70
     5
 71
     0
 72
     2
 73
     0
 90
        0
 40
-0.6
 41
-30.0
 62
     5
 63
     7
 74
     1
 91
        4
 64
     7
 65
   257
 75
     1
175
     1
 42
1.0
 92
        0
 66
   257
 43
1.0
 76
     1
 77
     6
 78
     2
 67
     7
 79
     3
170
     0
171
     0
290
     0
174
     0
 93
        1
 44
0.0
173
     0
291
     0
 45
0.0
1001
ACAD
1000
AcDbSavedByObjectVersion
1070
     0
  0
VISUALSTYLE
  5
A0F9
102
{ACAD_XDICTIONARY
360
A164
102
}
102
{ACAD_REACTORS
330
A0E6
102
}
330
A0E6
100
AcDbVisualStyle
  2
X-Ray
 70
    25
 71
     2
 72
     2
 73
     1
 90
        1
 40
0.5
 41
-30.0
 62
     5
 63
     7
 74
     1
 91
        0
 64
     7
 65
   257
 75
     1
175
     1
 42
1.0
 92
        8
 66
     7
 43
1.0
 76
     1
 77
     6
 78
     2
 67
     7
 79
     3
170
     0
171
     0
290
     0
174
     0
 93
       13
 44
0.0
173
     0
291
     0
 45
0.0
1001
ACAD
1000
AcDbSavedByObjectVersion
1070
     0
  0
DICTIONARYVAR
  5
A133
102
{ACAD_REACTORS
330
A12E
102
}
330
A12E
100
DictionaryVariables
280
     0
  1
1:1
  0
DICTIONARYVAR
  5
A130
102
{ACAD_REACTORS
330
A12E
102
}
330
A12E
100
DictionaryVariables
280
     0
  1
STANDARD
  0
DICTIONARYVAR
  5
A12F
102
{ACAD_REACTORS
330
A12E
102
}
330
A12E
100
DictionaryVariables
280
     0
  1
STANDARD
  0
DICTIONARYVAR
  5
A131
102
{ACAD_REACTORS
330
A12E
102
}
330
A12E
100
DictionaryVariables
280
     0
  1
Imperial24
  0
DICTIONARYVAR
  5
A132
102
{ACAD_REACTORS
330
A12E
102
}
330
A12E
100
DictionaryVariables
280
     0
  1
Imperial24
  0
DICTIONARYVAR
  5
A136
102
{ACAD_REACTORS
330
A12E
102
}
330
A12E
100
DictionaryVariables
280
     0
  1
1
  0
DICTIONARYVAR
  5
A135
102
{ACAD_REACTORS
330
A12E
102
}
330
A12E
100
DictionaryVariables
280
     0
  1
0
  0
DICTIONARYVAR
  5
A134
102
{ACAD_REACTORS
330
A12E
102
}
330
A12E
100
DictionaryVariables
280
     0
  1
127
  0
DICTIONARYVAR
  5
A137
102
{ACAD_REACTORS
330
A12E
102
}
330
A12E
100
DictionaryVariables
280
     0
  1
2
  0
DICTIONARY
  5
A174
330
A119
100
AcDbDictionary
280
     1
281
     1
  3
ACAD_XREC_ROUNDTRIP
360
A175
  0
DICTIONARY
  5
A176
330
A11A
100
AcDbDictionary
280
     1
281
     1
  3
ACAD_XREC_ROUNDTRIP
360
A177
  0
DICTIONARY
  5
A178
330
A11B
100
AcDbDictionary
280
     1
281
     1
  3
ACAD_XREC_ROUNDTRIP
360
A179
  0
DICTIONARY
  5
A0D7
330
A0D6
100
AcDbDictionary
280
     1
281
     1
  3
ACAD_XREC_ROUNDTRIP
360
A13E
  3
BUMPTILE
360
A0D9
  3
DIFFUSETILE
360
A0D8
  3
OPACITYTILE
360
A0DC
  3
REFLECTIONTILE
360
A0DB
  3
REFRACTIONTILE
360
A0DD
  3
SPECULARTILE
360
A0DA
  0
DICTIONARY
  5
A0CF
330
A0CE
100
AcDbDictionary
280
     1
281
     1
  3
ACAD_XREC_ROUNDTRIP
360
A13D
  3
BUMPTILE
360
A0D1
  3
DIFFUSETILE
360
A0D0
  3
OPACITYTILE
360
A0D4
  3
REFLECTIONTILE
360
A0D3
  3
REFRACTIONTILE
360
A0D5
  3
SPECULARTILE
360
A0D2
  0
DICTIONARY
  5
A0DF
330
A0DE
100
AcDbDictionary
280
     1
281
     1
  3
ACAD_XREC_ROUNDTRIP
360
A13F
  3
BUMPTILE
360
A0E1
  3
DIFFUSETILE
360
A0E0
  3
OPACITYTILE
360
A0E4
  3
REFLECTIONTILE
360
A0E3
  3
REFRACTIONTILE
360
A0E5
  3
SPECULARTILE
360
A0E2
  0
DICTIONARY
  5
A172
330
A117
100
AcDbDictionary
280
     1
281
     1
  3
ACAD_XREC_ROUNDTRIP
360
A173
  0
DICTIONARY
  5
A139
330
A101
100
AcDbDictionary
280
     1
281
     1
  3
ACAD_ROUNDTRIP_2008_TABLESTYLE_CELLSTYLEMAP
360
A13A
  3
ACAD_XREC_ROUNDTRIP
360
A170
  0
DICTIONARY
  5
A14A
330
A0EC
100
AcDbDictionary
280
     1
281
     1
  3
ACAD_XREC_ROUNDTRIP
360
A14B
  0
DICTIONARY
  5
A148
330
A0EB
100
AcDbDictionary
280
     1
281
     1
  3
ACAD_XREC_ROUNDTRIP
360
A149
  0
DICTIONARY
  5
A156
330
A0F2
100
AcDbDictionary
280
     1
281
     1
  3
ACAD_XREC_ROUNDTRIP
360
A157
  0
DICTIONARY
  5
A15E
330
A0F6
100
AcDbDictionary
280
     1
281
     1
  3
ACAD_XREC_ROUNDTRIP
360
A15F
  0
DICTIONARY
  5
A150
330
A0EF
100
AcDbDictionary
280
     1
281
     1
  3
ACAD_XREC_ROUNDTRIP
360
A151
  0
DICTIONARY
  5
A154
330
A0F1
100
AcDbDictionary
280
     1
281
     1
  3
ACAD_XREC_ROUNDTRIP
360
A155
  0
DICTIONARY
  5
A16E
330
A0FE
100
AcDbDictionary
280
     1
281
     1
  3
ACAD_XREC_ROUNDTRIP
360
A16F
  0
DICTIONARY
  5
A15C
330
A0F5
100
AcDbDictionary
280
     1
281
     1
  3
ACAD_XREC_ROUNDTRIP
360
A15D
  0
DICTIONARY
  5
A140
330
A0E7
100
AcDbDictionary
280
     1
281
     1
  3
ACAD_XREC_ROUNDTRIP
360
A141
  0
DICTIONARY
  5
A142
330
A0E8
100
AcDbDictionary
280
     1
281
     1
  3
ACAD_XREC_ROUNDTRIP
360
A143
  0
DICTIONARY
  5
A144
330
A0E9
100
AcDbDictionary
280
     1
281
     1
  3
ACAD_XREC_ROUNDTRIP
360
A145
  0
DICTIONARY
  5
A146
330
A0EA
100
AcDbDictionary
280
     1
281
     1
  3
ACAD_XREC_ROUNDTRIP
360
A147
  0
DICTIONARY
  5
A14E
330
A0EE
100
AcDbDictionary
280
     1
281
     1
  3
ACAD_XREC_ROUNDTRIP
360
A14F
  0
DICTIONARY
  5
A16A
330
A0FC
100
AcDbDictionary
280
     1
281
     1
  3
ACAD_XREC_ROUNDTRIP
360
A16B
  0
DICTIONARY
  5
A15A
330
A0F4
100
AcDbDictionary
280
     1
281
     1
  3
ACAD_XREC_ROUNDTRIP
360
A15B
  0
DICTIONARY
  5
A16C
330
A0FD
100
AcDbDictionary
280
     1
281
     1
  3
ACAD_XREC_ROUNDTRIP
360
A16D
  0
DICTIONARY
  5
A152
330
A0F0
100
AcDbDictionary
280
     1
281
     1
  3
ACAD_XREC_ROUNDTRIP
360
A153
  0
DICTIONARY
  5
A168
330
A0FB
100
AcDbDictionary
280
     1
281
     1
  3
ACAD_XREC_ROUNDTRIP
360
A169
  0
DICTIONARY
  5
A166
330
A0FA
100
AcDbDictionary
280
     1
281
     1
  3
ACAD_XREC_ROUNDTRIP
360
A167
  0
DICTIONARY
  5
A160
330
A0F7
100
AcDbDictionary
280
     1
281
     1
  3
ACAD_XREC_ROUNDTRIP
360
A161
  0
DICTIONARY
  5
A162
330
A0F8
100
AcDbDictionary
280
     1
281
     1
  3
ACAD_XREC_ROUNDTRIP
360
A163
  0
DICTIONARY
  5
A158
330
A0F3
100
AcDbDictionary
280
     1
281
     1
  3
ACAD_XREC_ROUNDTRIP
360
A159
  0
DICTIONARY
  5
A14C
330
A0ED
100
AcDbDictionary
280
     1
281
     1
  3
ACAD_XREC_ROUNDTRIP
360
A14D
  0
DICTIONARY
  5
A164
330
A0F9
100
AcDbDictionary
280
     1
281
     1
  3
ACAD_XREC_ROUNDTRIP
360
A165
  0
XRECORD
  5
A175
102
{ACAD_REACTORS
330
A174
102
}
330
A174
100
AcDbXrecord
280
     1
102
DISPLAYNAME
  1
Imperial24
102
FLAGS
 90
        0
  0
XRECORD
  5
A177
102
{ACAD_REACTORS
330
A176
102
}
330
A176
100
AcDbXrecord
280
     1
102
SHADEPLOT
 70
     0
102
SHADEPLOTRESLEVEL
 70
     2
102
SHADEPLOTCUSTOMDPI
 70
   300
  0
XRECORD
  5
A179
102
{ACAD_REACTORS
330
A178
102
}
330
A178
100
AcDbXrecord
280
     1
102
SHADEPLOT
 70
     0
102
SHADEPLOTRESLEVEL
 70
     2
102
SHADEPLOTCUSTOMDPI
 70
   300
  0
XRECORD
  5
A13E
102
{ACAD_REACTORS
330
A0D7
102
}
330
A0D7
100
AcDbXrecord
280
     1
102
MATERIAL
148
0.0
149
0.0
149
0.0
 93
        0
 94
      127
282
     0
 72
     0
 77
     0
171
     0
175
     0
179
     0
273
     0
  0
XRECORD
  5
A0D9
102
{ACAD_REACTORS
330
A0D7
102
}
330
A0D7
100
AcDbXrecord
280
     1
270
     1
271
     1
  0
XRECORD
  5
A0D8
102
{ACAD_REACTORS
330
A0D7
102
}
330
A0D7
100
AcDbXrecord
280
     1
270
     1
271
     1
  0
XRECORD
  5
A0DC
102
{ACAD_REACTORS
330
A0D7
102
}
330
A0D7
100
AcDbXrecord
280
     1
270
     1
271
     1
  0
XRECORD
  5
A0DB
102
{ACAD_REACTORS
330
A0D7
102
}
330
A0D7
100
AcDbXrecord
280
     1
270
     1
271
     1
  0
XRECORD
  5
A0DD
102
{ACAD_REACTORS
330
A0D7
102
}
330
A0D7
100
AcDbXrecord
280
     1
270
     1
271
     1
  0
XRECORD
  5
A0DA
102
{ACAD_REACTORS
330
A0D7
102
}
330
A0D7
100
AcDbXrecord
280
     1
270
     1
271
     1
  0
XRECORD
  5
A13D
102
{ACAD_REACTORS
330
A0CF
102
}
330
A0CF
100
AcDbXrecord
280
     1
102
MATERIAL
148
0.0
149
0.0
149
0.0
 93
        0
 94
      127
282
     0
 72
     0
 77
     0
171
     0
175
     0
179
     0
273
     0
  0
XRECORD
  5
A0D1
102
{ACAD_REACTORS
330
A0CF
102
}
330
A0CF
100
AcDbXrecord
280
     1
270
     1
271
     1
  0
XRECORD
  5
A0D0
102
{ACAD_REACTORS
330
A0CF
102
}
330
A0CF
100
AcDbXrecord
280
     1
270
     1
271
     1
  0
XRECORD
  5
A0D4
102
{ACAD_REACTORS
330
A0CF
102
}
330
A0CF
100
AcDbXrecord
280
     1
270
     1
271
     1
  0
XRECORD
  5
A0D3
102
{ACAD_REACTORS
330
A0CF
102
}
330
A0CF
100
AcDbXrecord
280
     1
270
     1
271
     1
  0
XRECORD
  5
A0D5
102
{ACAD_REACTORS
330
A0CF
102
}
330
A0CF
100
AcDbXrecord
280
     1
270
     1
271
     1
  0
XRECORD
  5
A0D2
102
{ACAD_REACTORS
330
A0CF
102
}
330
A0CF
100
AcDbXrecord
280
     1
270
     1
271
     1
  0
XRECORD
  5
A13F
102
{ACAD_REACTORS
330
A0DF
102
}
330
A0DF
100
AcDbXrecord
280
     1
102
MATERIAL
148
0.0
149
0.0
149
0.0
 93
        0
 94
      127
282
     0
 72
     0
 77
     0
171
     0
175
     0
179
     0
273
     0
  0
XRECORD
  5
A0E1
102
{ACAD_REACTORS
330
A0DF
102
}
330
A0DF
100
AcDbXrecord
280
     1
270
     1
271
     1
  0
XRECORD
  5
A0E0
102
{ACAD_REACTORS
330
A0DF
102
}
330
A0DF
100
AcDbXrecord
280
     1
270
     1
271
     1
  0
XRECORD
  5
A0E4
102
{ACAD_REACTORS
330
A0DF
102
}
330
A0DF
100
AcDbXrecord
280
     1
270
     1
271
     1
  0
XRECORD
  5
A0E3
102
{ACAD_REACTORS
330
A0DF
102
}
330
A0DF
100
AcDbXrecord
280
     1
270
     1
271
     1
  0
XRECORD
  5
A0E5
102
{ACAD_REACTORS
330
A0DF
102
}
330
A0DF
100
AcDbXrecord
280
     1
270
     1
271
     1
  0
XRECORD
  5
A0E2
102
{ACAD_REACTORS
330
A0DF
102
}
330
A0DF
100
AcDbXrecord
280
     1
270
     1
271
     1
  0
XRECORD
  5
A173
102
{ACAD_REACTORS
330
A172
102
}
330
A172
100
AcDbXrecord
280
     1
102
DISPLAYNAME
  1
Imperial24
102
FLAGS
 90
        0
  0
CELLSTYLEMAP
  5
A13A
102
{ACAD_REACTORS
330
A139
102
}
330
A139
100
AcDbCellStyleMap
 90
        3
300
CELLSTYLE
  1
TABLEFORMAT_BEGIN
 90
        5
170
     1
 91
        0
 92
    32768
 62
   257
 93
        1
300
CONTENTFORMAT
  1
CONTENTFORMAT_BEGIN
 90
        0
 91
        0
 92
      512
 93
        0
300

 40
0.0
140
1.0
 94
        5
 62
     0
340
9E04
144
0.25
309
CONTENTFORMAT_END
171
     0
 94
        0
309
TABLEFORMAT_END
  1
CELLSTYLE_BEGIN
 90
        1
 91
        1
300
_TITLE
309
CELLSTYLE_END
300
CELLSTYLE
  1
TABLEFORMAT_BEGIN
 90
        5
170
     1
 91
        0
 92
        0
 62
   257
 93
        1
300
CONTENTFORMAT
  1
CONTENTFORMAT_BEGIN
 90
        0
 91
        0
 92
      512
 93
        0
300

 40
0.0
140
1.0
 94
        5
 62
     0
340
9E04
144
0.18
309
CONTENTFORMAT_END
171
     0
 94
        0
309
TABLEFORMAT_END
  1
CELLSTYLE_BEGIN
 90
        2
 91
        1
300
_HEADER
309
CELLSTYLE_END
300
CELLSTYLE
  1
TABLEFORMAT_BEGIN
 90
        5
170
     1
 91
        0
 92
        0
 62
   257
 93
        1
300
CONTENTFORMAT
  1
CONTENTFORMAT_BEGIN
 90
        0
 91
        0
 92
      512
 93
        0
300

 40
0.0
140
1.0
 94
        2
 62
     0
340
9E04
144
0.18
309
CONTENTFORMAT_END
171
     0
 94
        0
309
TABLEFORMAT_END
  1
CELLSTYLE_BEGIN
 90
        3
 91
        2
300
_DATA
309
CELLSTYLE_END
  0
XRECORD
  5
A170
102
{ACAD_REACTORS
330
A139
102
}
330
A139
100
AcDbXrecord
280
     1
102
ACAD_ROUNDTRIP_PRE2007_TABLESTYLE
 90
      512
 91
        0
  1

 92
      512
 93
        0
  2

 94
      512
 95
        0
  3

  0
XRECORD
  5
A14B
102
{ACAD_REACTORS
330
A14A
102
}
330
A14A
100
AcDbXrecord
280
     1
102
RTVSPost2010Prop28
280
     1
102
RTVSPost2010PropOp28
 70
     1
102
RTVSPost2010Prop29
280
     1
102
RTVSPost2010PropOp29
 70
     1
102
RTVSPost2010Prop30
280
     0
102
RTVSPost2010PropOp30
 70
     1
102
RTVSPost2010Prop31
280
     0
102
RTVSPost2010PropOp31
 70
     1
102
RTVSPost2010Prop32
280
     0
102
RTVSPost2010PropOp32
 70
     1
102
RTVSPost2010Prop33
280
     0
102
RTVSPost2010PropOp33
 70
     1
102
RTVSPost2010Prop34
280
     0
102
RTVSPost2010PropOp34
 70
     1
102
RTVSPost2010Prop35
280
     0
102
RTVSPost2010PropOp35
 70
     1
102
RTVSPost2010Prop36
280
     0
102
RTVSPost2010PropOp36
 70
     1
102
RTVSPost2010Prop37
 90
       50
102
RTVSPost2010PropOp37
 70
     1
102
RTVSPost2010Prop38
140
0.0
102
RTVSPost2010PropOp38
 70
     1
102
RTVSPost2010Prop39
140
1.0
102
RTVSPost2010PropOp39
 70
     1
102
RTVSPost2010Prop40
 90
        0
102
RTVSPost2010PropOp40
 70
     1
102
RTVSPost2010Prop41ColorIndex
 90
       18
102
RTVSPost2010Prop41ColorRGB
 90
        0
102
RTVSPost2010PropOp41
 70
     1
102
RTVSPost2010Prop42
 90
       50
102
RTVSPost2010PropOp42
 70
     1
102
RTVSPost2010Prop43
 90
        3
102
RTVSPost2010PropOp43
 70
     1
102
RTVSPost2010Prop44ColorIndex
 90
        5
102
RTVSPost2010Prop44ColorRGB
 90
      255
102
RTVSPost2010PropOp44
 70
     1
102
RTVSPost2010Prop45
280
     0
102
RTVSPost2010PropOp45
 70
     1
102
RTVSPost2010Prop46
 90
       50
102
RTVSPost2010PropOp46
 70
     1
102
RTVSPost2010Prop47
 90
       50
102
RTVSPost2010PropOp47
 70
     1
102
RTVSPost2010Prop48
 90
       50
102
RTVSPost2010PropOp48
 70
     1
102
RTVSPost2010Prop49
280
     0
102
RTVSPost2010PropOp49
 70
     1
102
RTVSPost2010Prop50
 90
       50
102
RTVSPost2010PropOp50
 70
     1
102
RTVSPost2010Prop51ColorIndex
 90
      256
102
RTVSPost2010Prop51ColorRGB
 90
-16777216
102
RTVSPost2010PropOp51
 70
     0
102
RTVSPost2010Prop52
140
1.0
102
RTVSPost2010PropOp52
 70
     0
102
RTVSPost2010Prop53
 90
        2
102
RTVSPost2010PropOp53
 70
     1
102
RTVSPost2010Prop54
  1
strokes_ogs.tif
102
RTVSPost2010PropOp54
 70
     1
102
RTVSPost2010Prop55
280
     0
102
RTVSPost2010PropOp55
 70
     1
102
RTVSPost2010Prop56
140
1.0
102
RTVSPost2010PropOp56
 70
     1
102
RTVSPost2010Prop57
140
1.0
102
RTVSPost2010PropOp57
 70
     1
102
RTVSPropertyOp0
 70
     1
102
RTVSPropertyOp1
 70
     1
102
RTVSPropertyOp2
 70
     1
102
RTVSPropertyOp3
 70
     1
102
RTVSPropertyOp4
 70
     1
102
RTVSPropertyOp5
 70
     1
102
RTVSPropertyOp6
 70
     1
102
RTVSPropertyOp7
 70
     1
102
RTVSPropertyOp8
 70
     1
102
RTVSPropertyOp9
 70
     1
102
RTVSPropertyOp10
 70
     1
102
RTVSPropertyOp11
 70
     1
102
RTVSPropertyOp12
 70
     1
102
RTVSPropertyOp13
 70
     1
102
RTVSPropertyOp14
 70
     1
102
RTVSPropertyOp15
 70
     1
102
RTVSPropertyOp16
 70
     1
102
RTVSPropertyOp17
 70
     1
102
RTVSPropertyOp18
 70
     1
102
RTVSPropertyOp19
 70
     1
102
RTVSPropertyOp20
 70
     1
102
RTVSPropertyOp21
 70
     1
102
RTVSPropertyOp22
 70
     1
102
RTVSPropertyOp23
 70
     1
102
RTVSPropertyOp24
 70
     1
102
RTVSPropertyOp25
 70
     1
102
RTVSPropertyOp26
 70
     1
102
RTVSPropertyOp27
 70
     1
102
RTVSPropertyOp28
 70
     1
102
RTVSPropertyOp29
 70
     1
102
RTVSPropertyOp30
 70
     1
102
RTVSPropertyOp31
 70
     1
102
RTVSPropertyOp32
 70
     1
102
RTVSPropertyOp33
 70
     1
102
RTVSPropertyOp34
 70
     1
102
RTVSPropertyOp35
 70
     1
102
RTVSPropertyOp36
 70
     1
102
RTVSPropertyOp37
 70
     1
102
RTVSPropertyOp38
 70
     1
102
RTVSPropertyOp39
 70
     1
102
RTVSPropertyOp40
 70
     1
102
RTVSPropertyOp41
 70
     1
102
RTVSPropertyOp42
 70
     1
102
RTVSPropertyOp43
 70
     1
102
RTVSPropertyOp44
 70
     1
102
RTVSPropertyOp45
 70
     1
102
RTVSPropertyOp46
 70
     1
102
RTVSPropertyOp47
 70
     1
102
RTVSPropertyOp48
 70
     1
102
RTVSPropertyOp49
 70
     1
102
RTVSPropertyOp50
 70
     1
102
RTVSPropertyOp51
 70
     0
102
RTVSPropertyOp52
 70
     0
102
RTVSPropertyOp53
 70
     1
102
RTVSPropertyOp54
 70
     1
102
RTVSPropertyOp55
 70
     1
102
RTVSPropertyOp56
 70
     1
102
RTVSPropertyOp57
 70
     1
102
RTVSPropertyOp58
 70
     1
102
RTVSPropertyOp59
 70
     1
102
RTVSPropertyOp60
 70
     1
102
RTVSPropertyOp61
 70
     1
102
RTVSPropertyOp62
 70
     1
  0
XRECORD
  5
A149
102
{ACAD_REACTORS
330
A148
102
}
330
A148
100
AcDbXrecord
280
     1
102
RTVSPost2010Prop28
280
     0
102
RTVSPost2010PropOp28
 70
     1
102
RTVSPost2010Prop29
280
     1
102
RTVSPost2010PropOp29
 70
     1
102
RTVSPost2010Prop30
280
     1
102
RTVSPost2010PropOp30
 70
     1
102
RTVSPost2010Prop31
280
     0
102
RTVSPost2010PropOp31
 70
     1
102
RTVSPost2010Prop32
280
     0
102
RTVSPost2010PropOp32
 70
     1
102
RTVSPost2010Prop33
280
     0
102
RTVSPost2010PropOp33
 70
     1
102
RTVSPost2010Prop34
280
     0
102
RTVSPost2010PropOp34
 70
     1
102
RTVSPost2010Prop35
280
     0
102
RTVSPost2010PropOp35
 70
     1
102
RTVSPost2010Prop36
280
     0
102
RTVSPost2010PropOp36
 70
     1
102
RTVSPost2010Prop37
 90
       50
102
RTVSPost2010PropOp37
 70
     1
102
RTVSPost2010Prop38
140
0.0
102
RTVSPost2010PropOp38
 70
     1
102
RTVSPost2010Prop39
140
1.0
102
RTVSPost2010PropOp39
 70
     1
102
RTVSPost2010Prop40
 90
        0
102
RTVSPost2010PropOp40
 70
     1
102
RTVSPost2010Prop41ColorIndex
 90
       18
102
RTVSPost2010Prop41ColorRGB
 90
        0
102
RTVSPost2010PropOp41
 70
     1
102
RTVSPost2010Prop42
 90
       50
102
RTVSPost2010PropOp42
 70
     1
102
RTVSPost2010Prop43
 90
        3
102
RTVSPost2010PropOp43
 70
     1
102
RTVSPost2010Prop44ColorIndex
 90
        5
102
RTVSPost2010Prop44ColorRGB
 90
      255
102
RTVSPost2010PropOp44
 70
     1
102
RTVSPost2010Prop45
280
     0
102
RTVSPost2010PropOp45
 70
     1
102
RTVSPost2010Prop46
 90
       50
102
RTVSPost2010PropOp46
 70
     1
102
RTVSPost2010Prop47
 90
       50
102
RTVSPost2010PropOp47
 70
     1
102
RTVSPost2010Prop48
 90
       50
102
RTVSPost2010PropOp48
 70
     1
102
RTVSPost2010Prop49
280
     0
102
RTVSPost2010PropOp49
 70
     1
102
RTVSPost2010Prop50
 90
       50
102
RTVSPost2010PropOp50
 70
     1
102
RTVSPost2010Prop51ColorIndex
 90
      256
102
RTVSPost2010Prop51ColorRGB
 90
-16777216
102
RTVSPost2010PropOp51
 70
     0
102
RTVSPost2010Prop52
140
1.0
102
RTVSPost2010PropOp52
 70
     0
102
RTVSPost2010Prop53
 90
        2
102
RTVSPost2010PropOp53
 70
     1
102
RTVSPost2010Prop54
  1
strokes_ogs.tif
102
RTVSPost2010PropOp54
 70
     1
102
RTVSPost2010Prop55
280
     0
102
RTVSPost2010PropOp55
 70
     1
102
RTVSPost2010Prop56
140
1.0
102
RTVSPost2010PropOp56
 70
     1
102
RTVSPost2010Prop57
140
1.0
102
RTVSPost2010PropOp57
 70
     1
102
RTVSPropertyOp0
 70
     1
102
RTVSPropertyOp1
 70
     1
102
RTVSPropertyOp2
 70
     1
102
RTVSPropertyOp3
 70
     1
102
RTVSPropertyOp4
 70
     1
102
RTVSPropertyOp5
 70
     1
102
RTVSPropertyOp6
 70
     1
102
RTVSPropertyOp7
 70
     1
102
RTVSPropertyOp8
 70
     1
102
RTVSPropertyOp9
 70
     1
102
RTVSPropertyOp10
 70
     1
102
RTVSPropertyOp11
 70
     1
102
RTVSPropertyOp12
 70
     1
102
RTVSPropertyOp13
 70
     1
102
RTVSPropertyOp14
 70
     1
102
RTVSPropertyOp15
 70
     1
102
RTVSPropertyOp16
 70
     1
102
RTVSPropertyOp17
 70
     1
102
RTVSPropertyOp18
 70
     1
102
RTVSPropertyOp19
 70
     1
102
RTVSPropertyOp20
 70
     1
102
RTVSPropertyOp21
 70
     1
102
RTVSPropertyOp22
 70
     1
102
RTVSPropertyOp23
 70
     1
102
RTVSPropertyOp24
 70
     1
102
RTVSPropertyOp25
 70
     1
102
RTVSPropertyOp26
 70
     1
102
RTVSPropertyOp27
 70
     1
102
RTVSPropertyOp28
 70
     1
102
RTVSPropertyOp29
 70
     1
102
RTVSPropertyOp30
 70
     1
102
RTVSPropertyOp31
 70
     1
102
RTVSPropertyOp32
 70
     1
102
RTVSPropertyOp33
 70
     1
102
RTVSPropertyOp34
 70
     1
102
RTVSPropertyOp35
 70
     1
102
RTVSPropertyOp36
 70
     1
102
RTVSPropertyOp37
 70
     1
102
RTVSPropertyOp38
 70
     1
102
RTVSPropertyOp39
 70
     1
102
RTVSPropertyOp40
 70
     1
102
RTVSPropertyOp41
 70
     1
102
RTVSPropertyOp42
 70
     1
102
RTVSPropertyOp43
 70
     1
102
RTVSPropertyOp44
 70
     1
102
RTVSPropertyOp45
 70
     1
102
RTVSPropertyOp46
 70
     1
102
RTVSPropertyOp47
 70
     1
102
RTVSPropertyOp48
 70
     1
102
RTVSPropertyOp49
 70
     1
102
RTVSPropertyOp50
 70
     1
102
RTVSPropertyOp51
 70
     0
102
RTVSPropertyOp52
 70
     0
102
RTVSPropertyOp53
 70
     1
102
RTVSPropertyOp54
 70
     1
102
RTVSPropertyOp55
 70
     1
102
RTVSPropertyOp56
 70
     1
102
RTVSPropertyOp57
 70
     1
102
RTVSPropertyOp58
 70
     1
102
RTVSPropertyOp59
 70
     1
102
RTVSPropertyOp60
 70
     1
102
RTVSPropertyOp61
 70
     1
102
RTVSPropertyOp62
 70
     1
  0
XRECORD
  5
A157
102
{ACAD_REACTORS
330
A156
102
}
330
A156
100
AcDbXrecord
280
     1
102
RTVSPost2010Prop28
280
     0
102
RTVSPost2010PropOp28
 70
     1
102
RTVSPost2010Prop29
280
     1
102
RTVSPost2010PropOp29
 70
     1
102
RTVSPost2010Prop30
280
     1
102
RTVSPost2010PropOp30
 70
     1
102
RTVSPost2010Prop31
280
     0
102
RTVSPost2010PropOp31
 70
     1
102
RTVSPost2010Prop32
280
     0
102
RTVSPost2010PropOp32
 70
     1
102
RTVSPost2010Prop33
280
     0
102
RTVSPost2010PropOp33
 70
     1
102
RTVSPost2010Prop34
280
     0
102
RTVSPost2010PropOp34
 70
     1
102
RTVSPost2010Prop35
280
     0
102
RTVSPost2010PropOp35
 70
     1
102
RTVSPost2010Prop36
280
     0
102
RTVSPost2010PropOp36
 70
     1
102
RTVSPost2010Prop37
 90
       50
102
RTVSPost2010PropOp37
 70
     1
102
RTVSPost2010Prop38
140
0.0
102
RTVSPost2010PropOp38
 70
     1
102
RTVSPost2010Prop39
140
1.0
102
RTVSPost2010PropOp39
 70
     1
102
RTVSPost2010Prop40
 90
        0
102
RTVSPost2010PropOp40
 70
     1
102
RTVSPost2010Prop41ColorIndex
 90
       18
102
RTVSPost2010Prop41ColorRGB
 90
        0
102
RTVSPost2010PropOp41
 70
     1
102
RTVSPost2010Prop42
 90
       50
102
RTVSPost2010PropOp42
 70
     1
102
RTVSPost2010Prop43
 90
        3
102
RTVSPost2010PropOp43
 70
     1
102
RTVSPost2010Prop44ColorIndex
 90
        5
102
RTVSPost2010Prop44ColorRGB
 90
      255
102
RTVSPost2010PropOp44
 70
     1
102
RTVSPost2010Prop45
280
     0
102
RTVSPost2010PropOp45
 70
     1
102
RTVSPost2010Prop46
 90
       50
102
RTVSPost2010PropOp46
 70
     1
102
RTVSPost2010Prop47
 90
       50
102
RTVSPost2010PropOp47
 70
     1
102
RTVSPost2010Prop48
 90
       50
102
RTVSPost2010PropOp48
 70
     1
102
RTVSPost2010Prop49
280
     0
102
RTVSPost2010PropOp49
 70
     1
102
RTVSPost2010Prop50
 90
       50
102
RTVSPost2010PropOp50
 70
     1
102
RTVSPost2010Prop51ColorIndex
 90
      256
102
RTVSPost2010Prop51ColorRGB
 90
-16777216
102
RTVSPost2010PropOp51
 70
     0
102
RTVSPost2010Prop52
140
1.0
102
RTVSPost2010PropOp52
 70
     0
102
RTVSPost2010Prop53
 90
        2
102
RTVSPost2010PropOp53
 70
     1
102
RTVSPost2010Prop54
  1
strokes_ogs.tif
102
RTVSPost2010PropOp54
 70
     1
102
RTVSPost2010Prop55
280
     0
102
RTVSPost2010PropOp55
 70
     1
102
RTVSPost2010Prop56
140
1.0
102
RTVSPost2010PropOp56
 70
     1
102
RTVSPost2010Prop57
140
1.0
102
RTVSPost2010PropOp57
 70
     1
102
RTVSPropertyOp0
 70
     1
102
RTVSPropertyOp1
 70
     1
102
RTVSPropertyOp2
 70
     1
102
RTVSPropertyOp3
 70
     1
102
RTVSPropertyOp4
 70
     1
102
RTVSPropertyOp5
 70
     1
102
RTVSPropertyOp6
 70
     1
102
RTVSPropertyOp7
 70
     1
102
RTVSPropertyOp8
 70
     1
102
RTVSPropertyOp9
 70
     1
102
RTVSPropertyOp10
 70
     1
102
RTVSPropertyOp11
 70
     1
102
RTVSPropertyOp12
 70
     1
102
RTVSPropertyOp13
 70
     1
102
RTVSPropertyOp14
 70
     1
102
RTVSPropertyOp15
 70
     1
102
RTVSPropertyOp16
 70
     1
102
RTVSPropertyOp17
 70
     1
102
RTVSPropertyOp18
 70
     1
102
RTVSPropertyOp19
 70
     1
102
RTVSPropertyOp20
 70
     1
102
RTVSPropertyOp21
 70
     1
102
RTVSPropertyOp22
 70
     1
102
RTVSPropertyOp23
 70
     1
102
RTVSPropertyOp24
 70
     1
102
RTVSPropertyOp25
 70
     1
102
RTVSPropertyOp26
 70
     1
102
RTVSPropertyOp27
 70
     1
102
RTVSPropertyOp28
 70
     1
102
RTVSPropertyOp29
 70
     1
102
RTVSPropertyOp30
 70
     1
102
RTVSPropertyOp31
 70
     1
102
RTVSPropertyOp32
 70
     1
102
RTVSPropertyOp33
 70
     1
102
RTVSPropertyOp34
 70
     1
102
RTVSPropertyOp35
 70
     1
102
RTVSPropertyOp36
 70
     1
102
RTVSPropertyOp37
 70
     1
102
RTVSPropertyOp38
 70
     1
102
RTVSPropertyOp39
 70
     1
102
RTVSPropertyOp40
 70
     1
102
RTVSPropertyOp41
 70
     1
102
RTVSPropertyOp42
 70
     1
102
RTVSPropertyOp43
 70
     1
102
RTVSPropertyOp44
 70
     1
102
RTVSPropertyOp45
 70
     1
102
RTVSPropertyOp46
 70
     1
102
RTVSPropertyOp47
 70
     1
102
RTVSPropertyOp48
 70
     1
102
RTVSPropertyOp49
 70
     1
102
RTVSPropertyOp50
 70
     1
102
RTVSPropertyOp51
 70
     0
102
RTVSPropertyOp52
 70
     0
102
RTVSPropertyOp53
 70
     1
102
RTVSPropertyOp54
 70
     1
102
RTVSPropertyOp55
 70
     1
102
RTVSPropertyOp56
 70
     1
102
RTVSPropertyOp57
 70
     1
102
RTVSPropertyOp58
 70
     1
102
RTVSPropertyOp59
 70
     1
102
RTVSPropertyOp60
 70
     1
102
RTVSPropertyOp61
 70
     1
102
RTVSPropertyOp62
 70
     1
  0
XRECORD
  5
A15F
102
{ACAD_REACTORS
330
A15E
102
}
330
A15E
100
AcDbXrecord
280
     1
102
RTVSPost2010Prop28
280
     0
102
RTVSPost2010PropOp28
 70
     1
102
RTVSPost2010Prop29
280
     1
102
RTVSPost2010PropOp29
 70
     1
102
RTVSPost2010Prop30
280
     1
102
RTVSPost2010PropOp30
 70
     1
102
RTVSPost2010Prop31
280
     0
102
RTVSPost2010PropOp31
 70
     1
102
RTVSPost2010Prop32
280
     0
102
RTVSPost2010PropOp32
 70
     1
102
RTVSPost2010Prop33
280
     0
102
RTVSPost2010PropOp33
 70
     1
102
RTVSPost2010Prop34
280
     0
102
RTVSPost2010PropOp34
 70
     1
102
RTVSPost2010Prop35
280
     0
102
RTVSPost2010PropOp35
 70
     1
102
RTVSPost2010Prop36
280
     0
102
RTVSPost2010PropOp36
 70
     1
102
RTVSPost2010Prop37
 90
       50
102
RTVSPost2010PropOp37
 70
     1
102
RTVSPost2010Prop38
140
0.0
102
RTVSPost2010PropOp38
 70
     1
102
RTVSPost2010Prop39
140
1.0
102
RTVSPost2010PropOp39
 70
     1
102
RTVSPost2010Prop40
 90
        0
102
RTVSPost2010PropOp40
 70
     1
102
RTVSPost2010Prop41ColorIndex
 90
       18
102
RTVSPost2010Prop41ColorRGB
 90
        0
102
RTVSPost2010PropOp41
 70
     1
102
RTVSPost2010Prop42
 90
       50
102
RTVSPost2010PropOp42
 70
     1
102
RTVSPost2010Prop43
 90
        3
102
RTVSPost2010PropOp43
 70
     1
102
RTVSPost2010Prop44ColorIndex
 90
        5
102
RTVSPost2010Prop44ColorRGB
 90
      255
102
RTVSPost2010PropOp44
 70
     1
102
RTVSPost2010Prop45
280
     0
102
RTVSPost2010PropOp45
 70
     1
102
RTVSPost2010Prop46
 90
       50
102
RTVSPost2010PropOp46
 70
     1
102
RTVSPost2010Prop47
 90
       50
102
RTVSPost2010PropOp47
 70
     1
102
RTVSPost2010Prop48
 90
       50
102
RTVSPost2010PropOp48
 70
     1
102
RTVSPost2010Prop49
280
     0
102
RTVSPost2010PropOp49
 70
     1
102
RTVSPost2010Prop50
 90
       50
102
RTVSPost2010PropOp50
 70
     1
102
RTVSPost2010Prop51ColorIndex
 90
      256
102
RTVSPost2010Prop51ColorRGB
 90
-16777216
102
RTVSPost2010PropOp51
 70
     0
102
RTVSPost2010Prop52
140
1.0
102
RTVSPost2010PropOp52
 70
     0
102
RTVSPost2010Prop53
 90
        2
102
RTVSPost2010PropOp53
 70
     1
102
RTVSPost2010Prop54
  1
strokes_ogs.tif
102
RTVSPost2010PropOp54
 70
     1
102
RTVSPost2010Prop55
280
     0
102
RTVSPost2010PropOp55
 70
     1
102
RTVSPost2010Prop56
140
1.0
102
RTVSPost2010PropOp56
 70
     1
102
RTVSPost2010Prop57
140
1.0
102
RTVSPost2010PropOp57
 70
     1
102
RTVSPropertyOp0
 70
     1
102
RTVSPropertyOp1
 70
     1
102
RTVSPropertyOp2
 70
     1
102
RTVSPropertyOp3
 70
     1
102
RTVSPropertyOp4
 70
     1
102
RTVSPropertyOp5
 70
     1
102
RTVSPropertyOp6
 70
     1
102
RTVSPropertyOp7
 70
     1
102
RTVSPropertyOp8
 70
     1
102
RTVSPropertyOp9
 70
     1
102
RTVSPropertyOp10
 70
     1
102
RTVSPropertyOp11
 70
     1
102
RTVSPropertyOp12
 70
     1
102
RTVSPropertyOp13
 70
     1
102
RTVSPropertyOp14
 70
     1
102
RTVSPropertyOp15
 70
     1
102
RTVSPropertyOp16
 70
     1
102
RTVSPropertyOp17
 70
     1
102
RTVSPropertyOp18
 70
     1
102
RTVSPropertyOp19
 70
     1
102
RTVSPropertyOp20
 70
     1
102
RTVSPropertyOp21
 70
     1
102
RTVSPropertyOp22
 70
     1
102
RTVSPropertyOp23
 70
     1
102
RTVSPropertyOp24
 70
     1
102
RTVSPropertyOp25
 70
     1
102
RTVSPropertyOp26
 70
     1
102
RTVSPropertyOp27
 70
     1
102
RTVSPropertyOp28
 70
     1
102
RTVSPropertyOp29
 70
     1
102
RTVSPropertyOp30
 70
     1
102
RTVSPropertyOp31
 70
     1
102
RTVSPropertyOp32
 70
     1
102
RTVSPropertyOp33
 70
     1
102
RTVSPropertyOp34
 70
     1
102
RTVSPropertyOp35
 70
     1
102
RTVSPropertyOp36
 70
     1
102
RTVSPropertyOp37
 70
     1
102
RTVSPropertyOp38
 70
     1
102
RTVSPropertyOp39
 70
     1
102
RTVSPropertyOp40
 70
     1
102
RTVSPropertyOp41
 70
     1
102
RTVSPropertyOp42
 70
     1
102
RTVSPropertyOp43
 70
     1
102
RTVSPropertyOp44
 70
     1
102
RTVSPropertyOp45
 70
     1
102
RTVSPropertyOp46
 70
     1
102
RTVSPropertyOp47
 70
     1
102
RTVSPropertyOp48
 70
     1
102
RTVSPropertyOp49
 70
     1
102
RTVSPropertyOp50
 70
     1
102
RTVSPropertyOp51
 70
     0
102
RTVSPropertyOp52
 70
     0
102
RTVSPropertyOp53
 70
     1
102
RTVSPropertyOp54
 70
     1
102
RTVSPropertyOp55
 70
     1
102
RTVSPropertyOp56
 70
     1
102
RTVSPropertyOp57
 70
     1
102
RTVSPropertyOp58
 70
     1
102
RTVSPropertyOp59
 70
     1
102
RTVSPropertyOp60
 70
     1
102
RTVSPropertyOp61
 70
     1
102
RTVSPropertyOp62
 70
     1
  0
XRECORD
  5
A151
102
{ACAD_REACTORS
330
A150
102
}
330
A150
100
AcDbXrecord
280
     1
102
RTVSPost2010Prop28
280
     0
102
RTVSPost2010PropOp28
 70
     1
102
RTVSPost2010Prop29
280
     1
102
RTVSPost2010PropOp29
 70
     1
102
RTVSPost2010Prop30
280
     1
102
RTVSPost2010PropOp30
 70
     1
102
RTVSPost2010Prop31
280
     0
102
RTVSPost2010PropOp31
 70
     1
102
RTVSPost2010Prop32
280
     0
102
RTVSPost2010PropOp32
 70
     1
102
RTVSPost2010Prop33
280
     0
102
RTVSPost2010PropOp33
 70
     1
102
RTVSPost2010Prop34
280
     0
102
RTVSPost2010PropOp34
 70
     1
102
RTVSPost2010Prop35
280
     0
102
RTVSPost2010PropOp35
 70
     1
102
RTVSPost2010Prop36
280
     0
102
RTVSPost2010PropOp36
 70
     1
102
RTVSPost2010Prop37
 90
       50
102
RTVSPost2010PropOp37
 70
     1
102
RTVSPost2010Prop38
140
0.0
102
RTVSPost2010PropOp38
 70
     1
102
RTVSPost2010Prop39
140
1.0
102
RTVSPost2010PropOp39
 70
     1
102
RTVSPost2010Prop40
 90
        0
102
RTVSPost2010PropOp40
 70
     1
102
RTVSPost2010Prop41ColorIndex
 90
       18
102
RTVSPost2010Prop41ColorRGB
 90
        0
102
RTVSPost2010PropOp41
 70
     1
102
RTVSPost2010Prop42
 90
       50
102
RTVSPost2010PropOp42
 70
     1
102
RTVSPost2010Prop43
 90
        3
102
RTVSPost2010PropOp43
 70
     1
102
RTVSPost2010Prop44ColorIndex
 90
        5
102
RTVSPost2010Prop44ColorRGB
 90
      255
102
RTVSPost2010PropOp44
 70
     1
102
RTVSPost2010Prop45
280
     0
102
RTVSPost2010PropOp45
 70
     1
102
RTVSPost2010Prop46
 90
       50
102
RTVSPost2010PropOp46
 70
     1
102
RTVSPost2010Prop47
 90
       50
102
RTVSPost2010PropOp47
 70
     1
102
RTVSPost2010Prop48
 90
       50
102
RTVSPost2010PropOp48
 70
     1
102
RTVSPost2010Prop49
280
     0
102
RTVSPost2010PropOp49
 70
     1
102
RTVSPost2010Prop50
 90
       50
102
RTVSPost2010PropOp50
 70
     1
102
RTVSPost2010Prop51ColorIndex
 90
      256
102
RTVSPost2010Prop51ColorRGB
 90
-16777216
102
RTVSPost2010PropOp51
 70
     0
102
RTVSPost2010Prop52
140
1.0
102
RTVSPost2010PropOp52
 70
     0
102
RTVSPost2010Prop53
 90
        2
102
RTVSPost2010PropOp53
 70
     1
102
RTVSPost2010Prop54
  1
strokes_ogs.tif
102
RTVSPost2010PropOp54
 70
     1
102
RTVSPost2010Prop55
280
     0
102
RTVSPost2010PropOp55
 70
     1
102
RTVSPost2010Prop56
140
1.0
102
RTVSPost2010PropOp56
 70
     1
102
RTVSPost2010Prop57
140
1.0
102
RTVSPost2010PropOp57
 70
     1
102
RTVSPropertyOp0
 70
     1
102
RTVSPropertyOp1
 70
     1
102
RTVSPropertyOp2
 70
     1
102
RTVSPropertyOp3
 70
     1
102
RTVSPropertyOp4
 70
     1
102
RTVSPropertyOp5
 70
     1
102
RTVSPropertyOp6
 70
     1
102
RTVSPropertyOp7
 70
     1
102
RTVSPropertyOp8
 70
     1
102
RTVSPropertyOp9
 70
     1
102
RTVSPropertyOp10
 70
     1
102
RTVSPropertyOp11
 70
     1
102
RTVSPropertyOp12
 70
     1
102
RTVSPropertyOp13
 70
     1
102
RTVSPropertyOp14
 70
     1
102
RTVSPropertyOp15
 70
     1
102
RTVSPropertyOp16
 70
     1
102
RTVSPropertyOp17
 70
     1
102
RTVSPropertyOp18
 70
     1
102
RTVSPropertyOp19
 70
     1
102
RTVSPropertyOp20
 70
     1
102
RTVSPropertyOp21
 70
     1
102
RTVSPropertyOp22
 70
     1
102
RTVSPropertyOp23
 70
     1
102
RTVSPropertyOp24
 70
     1
102
RTVSPropertyOp25
 70
     1
102
RTVSPropertyOp26
 70
     1
102
RTVSPropertyOp27
 70
     1
102
RTVSPropertyOp28
 70
     1
102
RTVSPropertyOp29
 70
     1
102
RTVSPropertyOp30
 70
     1
102
RTVSPropertyOp31
 70
     1
102
RTVSPropertyOp32
 70
     1
102
RTVSPropertyOp33
 70
     1
102
RTVSPropertyOp34
 70
     1
102
RTVSPropertyOp35
 70
     1
102
RTVSPropertyOp36
 70
     1
102
RTVSPropertyOp37
 70
     1
102
RTVSPropertyOp38
 70
     1
102
RTVSPropertyOp39
 70
     1
102
RTVSPropertyOp40
 70
     1
102
RTVSPropertyOp41
 70
     1
102
RTVSPropertyOp42
 70
     1
102
RTVSPropertyOp43
 70
     1
102
RTVSPropertyOp44
 70
     1
102
RTVSPropertyOp45
 70
     1
102
RTVSPropertyOp46
 70
     1
102
RTVSPropertyOp47
 70
     1
102
RTVSPropertyOp48
 70
     1
102
RTVSPropertyOp49
 70
     1
102
RTVSPropertyOp50
 70
     1
102
RTVSPropertyOp51
 70
     0
102
RTVSPropertyOp52
 70
     0
102
RTVSPropertyOp53
 70
     1
102
RTVSPropertyOp54
 70
     1
102
RTVSPropertyOp55
 70
     1
102
RTVSPropertyOp56
 70
     1
102
RTVSPropertyOp57
 70
     1
102
RTVSPropertyOp58
 70
     1
102
RTVSPropertyOp59
 70
     1
102
RTVSPropertyOp60
 70
     1
102
RTVSPropertyOp61
 70
     1
102
RTVSPropertyOp62
 70
     1
  0
XRECORD
  5
A155
102
{ACAD_REACTORS
330
A154
102
}
330
A154
100
AcDbXrecord
280
     1
102
RTVSPost2010Prop28
280
     0
102
RTVSPost2010PropOp28
 70
     1
102
RTVSPost2010Prop29
280
     1
102
RTVSPost2010PropOp29
 70
     1
102
RTVSPost2010Prop30
280
     1
102
RTVSPost2010PropOp30
 70
     1
102
RTVSPost2010Prop31
280
     0
102
RTVSPost2010PropOp31
 70
     1
102
RTVSPost2010Prop32
280
     0
102
RTVSPost2010PropOp32
 70
     1
102
RTVSPost2010Prop33
280
     0
102
RTVSPost2010PropOp33
 70
     1
102
RTVSPost2010Prop34
280
     0
102
RTVSPost2010PropOp34
 70
     1
102
RTVSPost2010Prop35
280
     0
102
RTVSPost2010PropOp35
 70
     1
102
RTVSPost2010Prop36
280
     0
102
RTVSPost2010PropOp36
 70
     1
102
RTVSPost2010Prop37
 90
       50
102
RTVSPost2010PropOp37
 70
     1
102
RTVSPost2010Prop38
140
0.0
102
RTVSPost2010PropOp38
 70
     1
102
RTVSPost2010Prop39
140
1.0
102
RTVSPost2010PropOp39
 70
     1
102
RTVSPost2010Prop40
 90
        0
102
RTVSPost2010PropOp40
 70
     1
102
RTVSPost2010Prop41ColorIndex
 90
       18
102
RTVSPost2010Prop41ColorRGB
 90
        0
102
RTVSPost2010PropOp41
 70
     1
102
RTVSPost2010Prop42
 90
       50
102
RTVSPost2010PropOp42
 70
     1
102
RTVSPost2010Prop43
 90
        3
102
RTVSPost2010PropOp43
 70
     1
102
RTVSPost2010Prop44ColorIndex
 90
        5
102
RTVSPost2010Prop44ColorRGB
 90
      255
102
RTVSPost2010PropOp44
 70
     1
102
RTVSPost2010Prop45
280
     0
102
RTVSPost2010PropOp45
 70
     1
102
RTVSPost2010Prop46
 90
       50
102
RTVSPost2010PropOp46
 70
     1
102
RTVSPost2010Prop47
 90
       50
102
RTVSPost2010PropOp47
 70
     1
102
RTVSPost2010Prop48
 90
       50
102
RTVSPost2010PropOp48
 70
     1
102
RTVSPost2010Prop49
280
     0
102
RTVSPost2010PropOp49
 70
     1
102
RTVSPost2010Prop50
 90
       50
102
RTVSPost2010PropOp50
 70
     1
102
RTVSPost2010Prop51ColorIndex
 90
      256
102
RTVSPost2010Prop51ColorRGB
 90
-16777216
102
RTVSPost2010PropOp51
 70
     0
102
RTVSPost2010Prop52
140
1.0
102
RTVSPost2010PropOp52
 70
     0
102
RTVSPost2010Prop53
 90
        2
102
RTVSPost2010PropOp53
 70
     1
102
RTVSPost2010Prop54
  1
strokes_ogs.tif
102
RTVSPost2010PropOp54
 70
     1
102
RTVSPost2010Prop55
280
     0
102
RTVSPost2010PropOp55
 70
     1
102
RTVSPost2010Prop56
140
1.0
102
RTVSPost2010PropOp56
 70
     1
102
RTVSPost2010Prop57
140
1.0
102
RTVSPost2010PropOp57
 70
     1
102
RTVSPropertyOp0
 70
     1
102
RTVSPropertyOp1
 70
     1
102
RTVSPropertyOp2
 70
     1
102
RTVSPropertyOp3
 70
     1
102
RTVSPropertyOp4
 70
     1
102
RTVSPropertyOp5
 70
     1
102
RTVSPropertyOp6
 70
     1
102
RTVSPropertyOp7
 70
     1
102
RTVSPropertyOp8
 70
     1
102
RTVSPropertyOp9
 70
     1
102
RTVSPropertyOp10
 70
     1
102
RTVSPropertyOp11
 70
     1
102
RTVSPropertyOp12
 70
     1
102
RTVSPropertyOp13
 70
     1
102
RTVSPropertyOp14
 70
     1
102
RTVSPropertyOp15
 70
     1
102
RTVSPropertyOp16
 70
     1
102
RTVSPropertyOp17
 70
     1
102
RTVSPropertyOp18
 70
     1
102
RTVSPropertyOp19
 70
     1
102
RTVSPropertyOp20
 70
     1
102
RTVSPropertyOp21
 70
     1
102
RTVSPropertyOp22
 70
     1
102
RTVSPropertyOp23
 70
     1
102
RTVSPropertyOp24
 70
     1
102
RTVSPropertyOp25
 70
     1
102
RTVSPropertyOp26
 70
     1
102
RTVSPropertyOp27
 70
     1
102
RTVSPropertyOp28
 70
     1
102
RTVSPropertyOp29
 70
     1
102
RTVSPropertyOp30
 70
     1
102
RTVSPropertyOp31
 70
     1
102
RTVSPropertyOp32
 70
     1
102
RTVSPropertyOp33
 70
     1
102
RTVSPropertyOp34
 70
     1
102
RTVSPropertyOp35
 70
     1
102
RTVSPropertyOp36
 70
     1
102
RTVSPropertyOp37
 70
     1
102
RTVSPropertyOp38
 70
     1
102
RTVSPropertyOp39
 70
     1
102
RTVSPropertyOp40
 70
     1
102
RTVSPropertyOp41
 70
     1
102
RTVSPropertyOp42
 70
     1
102
RTVSPropertyOp43
 70
     1
102
RTVSPropertyOp44
 70
     1
102
RTVSPropertyOp45
 70
     1
102
RTVSPropertyOp46
 70
     1
102
RTVSPropertyOp47
 70
     1
102
RTVSPropertyOp48
 70
     1
102
RTVSPropertyOp49
 70
     1
102
RTVSPropertyOp50
 70
     1
102
RTVSPropertyOp51
 70
     0
102
RTVSPropertyOp52
 70
     0
102
RTVSPropertyOp53
 70
     1
102
RTVSPropertyOp54
 70
     1
102
RTVSPropertyOp55
 70
     1
102
RTVSPropertyOp56
 70
     1
102
RTVSPropertyOp57
 70
     1
102
RTVSPropertyOp58
 70
     1
102
RTVSPropertyOp59
 70
     1
102
RTVSPropertyOp60
 70
     1
102
RTVSPropertyOp61
 70
     1
102
RTVSPropertyOp62
 70
     1
  0
XRECORD
  5
A16F
102
{ACAD_REACTORS
330
A16E
102
}
330
A16E
100
AcDbXrecord
280
     1
102
RTVSPost2010Prop28
280
     0
102
RTVSPost2010PropOp28
 70
     1
102
RTVSPost2010Prop29
280
     1
102
RTVSPost2010PropOp29
 70
     1
102
RTVSPost2010Prop30
280
     1
102
RTVSPost2010PropOp30
 70
     1
102
RTVSPost2010Prop31
280
     0
102
RTVSPost2010PropOp31
 70
     1
102
RTVSPost2010Prop32
280
     0
102
RTVSPost2010PropOp32
 70
     1
102
RTVSPost2010Prop33
280
     0
102
RTVSPost2010PropOp33
 70
     1
102
RTVSPost2010Prop34
280
     0
102
RTVSPost2010PropOp34
 70
     1
102
RTVSPost2010Prop35
280
     0
102
RTVSPost2010PropOp35
 70
     1
102
RTVSPost2010Prop36
280
     0
102
RTVSPost2010PropOp36
 70
     1
102
RTVSPost2010Prop37
 90
       50
102
RTVSPost2010PropOp37
 70
     0
102
RTVSPost2010Prop38
140
0.0
102
RTVSPost2010PropOp38
 70
     0
102
RTVSPost2010Prop39
140
1.0
102
RTVSPost2010PropOp39
 70
     0
102
RTVSPost2010Prop40
 90
        0
102
RTVSPost2010PropOp40
 70
     0
102
RTVSPost2010Prop41ColorIndex
 90
       18
102
RTVSPost2010Prop41ColorRGB
 90
        0
102
RTVSPost2010PropOp41
 70
     0
102
RTVSPost2010Prop42
 90
       50
102
RTVSPost2010PropOp42
 70
     0
102
RTVSPost2010Prop43
 90
        3
102
RTVSPost2010PropOp43
 70
     0
102
RTVSPost2010Prop44ColorIndex
 90
        5
102
RTVSPost2010Prop44ColorRGB
 90
      255
102
RTVSPost2010PropOp44
 70
     0
102
RTVSPost2010Prop45
280
     0
102
RTVSPost2010PropOp45
 70
     1
102
RTVSPost2010Prop46
 90
       50
102
RTVSPost2010PropOp46
 70
     0
102
RTVSPost2010Prop47
 90
       50
102
RTVSPost2010PropOp47
 70
     0
102
RTVSPost2010Prop48
 90
       50
102
RTVSPost2010PropOp48
 70
     0
102
RTVSPost2010Prop49
280
     0
102
RTVSPost2010PropOp49
 70
     1
102
RTVSPost2010Prop50
 90
       50
102
RTVSPost2010PropOp50
 70
     0
102
RTVSPost2010Prop51ColorIndex
 90
      256
102
RTVSPost2010Prop51ColorRGB
 90
-16777216
102
RTVSPost2010PropOp51
 70
     0
102
RTVSPost2010Prop52
140
1.0
102
RTVSPost2010PropOp52
 70
     0
102
RTVSPost2010Prop53
 90
        2
102
RTVSPost2010PropOp53
 70
     0
102
RTVSPost2010Prop54
  1
strokes_ogs.tif
102
RTVSPost2010PropOp54
 70
     0
102
RTVSPost2010Prop55
280
     0
102
RTVSPost2010PropOp55
 70
     1
102
RTVSPost2010Prop56
140
1.0
102
RTVSPost2010PropOp56
 70
     0
102
RTVSPost2010Prop57
140
1.0
102
RTVSPost2010PropOp57
 70
     0
102
RTVSPropertyOp0
 70
     0
102
RTVSPropertyOp1
 70
     0
102
RTVSPropertyOp2
 70
     0
102
RTVSPropertyOp3
 70
     0
102
RTVSPropertyOp4
 70
     0
102
RTVSPropertyOp5
 70
     0
102
RTVSPropertyOp6
 70
     0
102
RTVSPropertyOp7
 70
     0
102
RTVSPropertyOp8
 70
     0
102
RTVSPropertyOp9
 70
     0
102
RTVSPropertyOp10
 70
     0
102
RTVSPropertyOp11
 70
     0
102
RTVSPropertyOp12
 70
     0
102
RTVSPropertyOp13
 70
     0
102
RTVSPropertyOp14
 70
     2
102
RTVSPropertyOp15
 70
     0
102
RTVSPropertyOp16
 70
     0
102
RTVSPropertyOp17
 70
     0
102
RTVSPropertyOp18
 70
     0
102
RTVSPropertyOp19
 70
     0
102
RTVSPropertyOp20
 70
     0
102
RTVSPropertyOp21
 70
     0
102
RTVSPropertyOp22
 70
     0
102
RTVSPropertyOp23
 70
     0
102
RTVSPropertyOp24
 70
     0
102
RTVSPropertyOp25
 70
     0
102
RTVSPropertyOp26
 70
     0
102
RTVSPropertyOp27
 70
     0
102
RTVSPropertyOp28
 70
     1
102
RTVSPropertyOp29
 70
     1
102
RTVSPropertyOp30
 70
     1
102
RTVSPropertyOp31
 70
     1
102
RTVSPropertyOp32
 70
     1
102
RTVSPropertyOp33
 70
     1
102
RTVSPropertyOp34
 70
     1
102
RTVSPropertyOp35
 70
     1
102
RTVSPropertyOp36
 70
     1
102
RTVSPropertyOp37
 70
     0
102
RTVSPropertyOp38
 70
     0
102
RTVSPropertyOp39
 70
     0
102
RTVSPropertyOp40
 70
     0
102
RTVSPropertyOp41
 70
     0
102
RTVSPropertyOp42
 70
     0
102
RTVSPropertyOp43
 70
     0
102
RTVSPropertyOp44
 70
     0
102
RTVSPropertyOp45
 70
     1
102
RTVSPropertyOp46
 70
     0
102
RTVSPropertyOp47
 70
     0
102
RTVSPropertyOp48
 70
     0
102
RTVSPropertyOp49
 70
     1
102
RTVSPropertyOp50
 70
     0
102
RTVSPropertyOp51
 70
     0
102
RTVSPropertyOp52
 70
     0
102
RTVSPropertyOp53
 70
     0
102
RTVSPropertyOp54
 70
     0
102
RTVSPropertyOp55
 70
     1
102
RTVSPropertyOp56
 70
     0
102
RTVSPropertyOp57
 70
     0
102
RTVSPropertyOp58
 70
     0
102
RTVSPropertyOp59
 70
     0
102
RTVSPropertyOp60
 70
     0
102
RTVSPropertyOp61
 70
     0
102
RTVSPropertyOp62
 70
     0
  0
XRECORD
  5
A15D
102
{ACAD_REACTORS
330
A15C
102
}
330
A15C
100
AcDbXrecord
280
     1
102
RTVSPost2010Prop28
280
     0
102
RTVSPost2010PropOp28
 70
     1
102
RTVSPost2010Prop29
280
     1
102
RTVSPost2010PropOp29
 70
     1
102
RTVSPost2010Prop30
280
     1
102
RTVSPost2010PropOp30
 70
     1
102
RTVSPost2010Prop31
280
     0
102
RTVSPost2010PropOp31
 70
     1
102
RTVSPost2010Prop32
280
     0
102
RTVSPost2010PropOp32
 70
     1
102
RTVSPost2010Prop33
280
     0
102
RTVSPost2010PropOp33
 70
     1
102
RTVSPost2010Prop34
280
     0
102
RTVSPost2010PropOp34
 70
     1
102
RTVSPost2010Prop35
280
     0
102
RTVSPost2010PropOp35
 70
     1
102
RTVSPost2010Prop36
280
     0
102
RTVSPost2010PropOp36
 70
     1
102
RTVSPost2010Prop37
 90
       50
102
RTVSPost2010PropOp37
 70
     1
102
RTVSPost2010Prop38
140
0.0
102
RTVSPost2010PropOp38
 70
     1
102
RTVSPost2010Prop39
140
1.0
102
RTVSPost2010PropOp39
 70
     1
102
RTVSPost2010Prop40
 90
        0
102
RTVSPost2010PropOp40
 70
     1
102
RTVSPost2010Prop41ColorIndex
 90
       18
102
RTVSPost2010Prop41ColorRGB
 90
        0
102
RTVSPost2010PropOp41
 70
     1
102
RTVSPost2010Prop42
 90
       50
102
RTVSPost2010PropOp42
 70
     1
102
RTVSPost2010Prop43
 90
        3
102
RTVSPost2010PropOp43
 70
     1
102
RTVSPost2010Prop44ColorIndex
 90
        5
102
RTVSPost2010Prop44ColorRGB
 90
      255
102
RTVSPost2010PropOp44
 70
     1
102
RTVSPost2010Prop45
280
     0
102
RTVSPost2010PropOp45
 70
     1
102
RTVSPost2010Prop46
 90
       50
102
RTVSPost2010PropOp46
 70
     1
102
RTVSPost2010Prop47
 90
       50
102
RTVSPost2010PropOp47
 70
     1
102
RTVSPost2010Prop48
 90
       50
102
RTVSPost2010PropOp48
 70
     1
102
RTVSPost2010Prop49
280
     0
102
RTVSPost2010PropOp49
 70
     1
102
RTVSPost2010Prop50
 90
       50
102
RTVSPost2010PropOp50
 70
     1
102
RTVSPost2010Prop51ColorIndex
 90
      256
102
RTVSPost2010Prop51ColorRGB
 90
-16777216
102
RTVSPost2010PropOp51
 70
     0
102
RTVSPost2010Prop52
140
1.0
102
RTVSPost2010PropOp52
 70
     0
102
RTVSPost2010Prop53
 90
        2
102
RTVSPost2010PropOp53
 70
     1
102
RTVSPost2010Prop54
  1
strokes_ogs.tif
102
RTVSPost2010PropOp54
 70
     1
102
RTVSPost2010Prop55
280
     0
102
RTVSPost2010PropOp55
 70
     1
102
RTVSPost2010Prop56
140
1.0
102
RTVSPost2010PropOp56
 70
     1
102
RTVSPost2010Prop57
140
1.0
102
RTVSPost2010PropOp57
 70
     1
102
RTVSPropertyOp0
 70
     1
102
RTVSPropertyOp1
 70
     1
102
RTVSPropertyOp2
 70
     1
102
RTVSPropertyOp3
 70
     1
102
RTVSPropertyOp4
 70
     1
102
RTVSPropertyOp5
 70
     1
102
RTVSPropertyOp6
 70
     1
102
RTVSPropertyOp7
 70
     1
102
RTVSPropertyOp8
 70
     1
102
RTVSPropertyOp9
 70
     1
102
RTVSPropertyOp10
 70
     1
102
RTVSPropertyOp11
 70
     1
102
RTVSPropertyOp12
 70
     1
102
RTVSPropertyOp13
 70
     1
102
RTVSPropertyOp14
 70
     1
102
RTVSPropertyOp15
 70
     1
102
RTVSPropertyOp16
 70
     1
102
RTVSPropertyOp17
 70
     1
102
RTVSPropertyOp18
 70
     1
102
RTVSPropertyOp19
 70
     1
102
RTVSPropertyOp20
 70
     1
102
RTVSPropertyOp21
 70
     1
102
RTVSPropertyOp22
 70
     1
102
RTVSPropertyOp23
 70
     1
102
RTVSPropertyOp24
 70
     1
102
RTVSPropertyOp25
 70
     1
102
RTVSPropertyOp26
 70
     1
102
RTVSPropertyOp27
 70
     1
102
RTVSPropertyOp28
 70
     1
102
RTVSPropertyOp29
 70
     1
102
RTVSPropertyOp30
 70
     1
102
RTVSPropertyOp31
 70
     1
102
RTVSPropertyOp32
 70
     1
102
RTVSPropertyOp33
 70
     1
102
RTVSPropertyOp34
 70
     1
102
RTVSPropertyOp35
 70
     1
102
RTVSPropertyOp36
 70
     1
102
RTVSPropertyOp37
 70
     1
102
RTVSPropertyOp38
 70
     1
102
RTVSPropertyOp39
 70
     1
102
RTVSPropertyOp40
 70
     1
102
RTVSPropertyOp41
 70
     1
102
RTVSPropertyOp42
 70
     1
102
RTVSPropertyOp43
 70
     1
102
RTVSPropertyOp44
 70
     1
102
RTVSPropertyOp45
 70
     1
102
RTVSPropertyOp46
 70
     1
102
RTVSPropertyOp47
 70
     1
102
RTVSPropertyOp48
 70
     1
102
RTVSPropertyOp49
 70
     1
102
RTVSPropertyOp50
 70
     1
102
RTVSPropertyOp51
 70
     0
102
RTVSPropertyOp52
 70
     0
102
RTVSPropertyOp53
 70
     1
102
RTVSPropertyOp54
 70
     1
102
RTVSPropertyOp55
 70
     1
102
RTVSPropertyOp56
 70
     1
102
RTVSPropertyOp57
 70
     1
102
RTVSPropertyOp58
 70
     1
102
RTVSPropertyOp59
 70
     1
102
RTVSPropertyOp60
 70
     1
102
RTVSPropertyOp61
 70
     1
102
RTVSPropertyOp62
 70
     1
  0
XRECORD
  5
A141
102
{ACAD_REACTORS
330
A140
102
}
330
A140
100
AcDbXrecord
280
     1
102
RTVSPost2010Prop28
280
     0
102
RTVSPost2010PropOp28
 70
     1
102
RTVSPost2010Prop29
280
     1
102
RTVSPost2010PropOp29
 70
     1
102
RTVSPost2010Prop30
280
     1
102
RTVSPost2010PropOp30
 70
     1
102
RTVSPost2010Prop31
280
     0
102
RTVSPost2010PropOp31
 70
     1
102
RTVSPost2010Prop32
280
     0
102
RTVSPost2010PropOp32
 70
     1
102
RTVSPost2010Prop33
280
     0
102
RTVSPost2010PropOp33
 70
     1
102
RTVSPost2010Prop34
280
     0
102
RTVSPost2010PropOp34
 70
     1
102
RTVSPost2010Prop35
280
     0
102
RTVSPost2010PropOp35
 70
     1
102
RTVSPost2010Prop36
280
     0
102
RTVSPost2010PropOp36
 70
     1
102
RTVSPost2010Prop37
 90
       50
102
RTVSPost2010PropOp37
 70
     1
102
RTVSPost2010Prop38
140
0.0
102
RTVSPost2010PropOp38
 70
     1
102
RTVSPost2010Prop39
140
1.0
102
RTVSPost2010PropOp39
 70
     1
102
RTVSPost2010Prop40
 90
        0
102
RTVSPost2010PropOp40
 70
     1
102
RTVSPost2010Prop41ColorIndex
 90
       18
102
RTVSPost2010Prop41ColorRGB
 90
        0
102
RTVSPost2010PropOp41
 70
     1
102
RTVSPost2010Prop42
 90
       50
102
RTVSPost2010PropOp42
 70
     1
102
RTVSPost2010Prop43
 90
        3
102
RTVSPost2010PropOp43
 70
     1
102
RTVSPost2010Prop44ColorIndex
 90
        5
102
RTVSPost2010Prop44ColorRGB
 90
      255
102
RTVSPost2010PropOp44
 70
     1
102
RTVSPost2010Prop45
280
     0
102
RTVSPost2010PropOp45
 70
     1
102
RTVSPost2010Prop46
 90
       50
102
RTVSPost2010PropOp46
 70
     1
102
RTVSPost2010Prop47
 90
       50
102
RTVSPost2010PropOp47
 70
     1
102
RTVSPost2010Prop48
 90
       50
102
RTVSPost2010PropOp48
 70
     1
102
RTVSPost2010Prop49
280
     0
102
RTVSPost2010PropOp49
 70
     1
102
RTVSPost2010Prop50
 90
       50
102
RTVSPost2010PropOp50
 70
     1
102
RTVSPost2010Prop51ColorIndex
 90
      256
102
RTVSPost2010Prop51ColorRGB
 90
-16777216
102
RTVSPost2010PropOp51
 70
     0
102
RTVSPost2010Prop52
140
1.0
102
RTVSPost2010PropOp52
 70
     0
102
RTVSPost2010Prop53
 90
        2
102
RTVSPost2010PropOp53
 70
     1
102
RTVSPost2010Prop54
  1
strokes_ogs.tif
102
RTVSPost2010PropOp54
 70
     1
102
RTVSPost2010Prop55
280
     0
102
RTVSPost2010PropOp55
 70
     1
102
RTVSPost2010Prop56
140
1.0
102
RTVSPost2010PropOp56
 70
     1
102
RTVSPost2010Prop57
140
1.0
102
RTVSPost2010PropOp57
 70
     1
102
RTVSPropertyOp0
 70
     1
102
RTVSPropertyOp1
 70
     1
102
RTVSPropertyOp2
 70
     1
102
RTVSPropertyOp3
 70
     1
102
RTVSPropertyOp4
 70
     1
102
RTVSPropertyOp5
 70
     1
102
RTVSPropertyOp6
 70
     1
102
RTVSPropertyOp7
 70
     1
102
RTVSPropertyOp8
 70
     1
102
RTVSPropertyOp9
 70
     1
102
RTVSPropertyOp10
 70
     1
102
RTVSPropertyOp11
 70
     1
102
RTVSPropertyOp12
 70
     1
102
RTVSPropertyOp13
 70
     1
102
RTVSPropertyOp14
 70
     1
102
RTVSPropertyOp15
 70
     1
102
RTVSPropertyOp16
 70
     1
102
RTVSPropertyOp17
 70
     1
102
RTVSPropertyOp18
 70
     1
102
RTVSPropertyOp19
 70
     1
102
RTVSPropertyOp20
 70
     1
102
RTVSPropertyOp21
 70
     1
102
RTVSPropertyOp22
 70
     1
102
RTVSPropertyOp23
 70
     1
102
RTVSPropertyOp24
 70
     1
102
RTVSPropertyOp25
 70
     1
102
RTVSPropertyOp26
 70
     1
102
RTVSPropertyOp27
 70
     1
102
RTVSPropertyOp28
 70
     1
102
RTVSPropertyOp29
 70
     1
102
RTVSPropertyOp30
 70
     1
102
RTVSPropertyOp31
 70
     1
102
RTVSPropertyOp32
 70
     1
102
RTVSPropertyOp33
 70
     1
102
RTVSPropertyOp34
 70
     1
102
RTVSPropertyOp35
 70
     1
102
RTVSPropertyOp36
 70
     1
102
RTVSPropertyOp37
 70
     1
102
RTVSPropertyOp38
 70
     1
102
RTVSPropertyOp39
 70
     1
102
RTVSPropertyOp40
 70
     1
102
RTVSPropertyOp41
 70
     1
102
RTVSPropertyOp42
 70
     1
102
RTVSPropertyOp43
 70
     1
102
RTVSPropertyOp44
 70
     1
102
RTVSPropertyOp45
 70
     1
102
RTVSPropertyOp46
 70
     1
102
RTVSPropertyOp47
 70
     1
102
RTVSPropertyOp48
 70
     1
102
RTVSPropertyOp49
 70
     1
102
RTVSPropertyOp50
 70
     1
102
RTVSPropertyOp51
 70
     0
102
RTVSPropertyOp52
 70
     0
102
RTVSPropertyOp53
 70
     1
102
RTVSPropertyOp54
 70
     1
102
RTVSPropertyOp55
 70
     1
102
RTVSPropertyOp56
 70
     1
102
RTVSPropertyOp57
 70
     1
102
RTVSPropertyOp58
 70
     1
102
RTVSPropertyOp59
 70
     1
102
RTVSPropertyOp60
 70
     1
102
RTVSPropertyOp61
 70
     1
102
RTVSPropertyOp62
 70
     1
  0
XRECORD
  5
A143
102
{ACAD_REACTORS
330
A142
102
}
330
A142
100
AcDbXrecord
280
     1
102
RTVSPost2010Prop28
280
     0
102
RTVSPost2010PropOp28
 70
     1
102
RTVSPost2010Prop29
280
     1
102
RTVSPost2010PropOp29
 70
     1
102
RTVSPost2010Prop30
280
     1
102
RTVSPost2010PropOp30
 70
     1
102
RTVSPost2010Prop31
280
     0
102
RTVSPost2010PropOp31
 70
     1
102
RTVSPost2010Prop32
280
     0
102
RTVSPost2010PropOp32
 70
     1
102
RTVSPost2010Prop33
280
     0
102
RTVSPost2010PropOp33
 70
     1
102
RTVSPost2010Prop34
280
     0
102
RTVSPost2010PropOp34
 70
     1
102
RTVSPost2010Prop35
280
     0
102
RTVSPost2010PropOp35
 70
     1
102
RTVSPost2010Prop36
280
     0
102
RTVSPost2010PropOp36
 70
     1
102
RTVSPost2010Prop37
 90
       50
102
RTVSPost2010PropOp37
 70
     1
102
RTVSPost2010Prop38
140
0.0
102
RTVSPost2010PropOp38
 70
     1
102
RTVSPost2010Prop39
140
1.0
102
RTVSPost2010PropOp39
 70
     1
102
RTVSPost2010Prop40
 90
        0
102
RTVSPost2010PropOp40
 70
     1
102
RTVSPost2010Prop41ColorIndex
 90
       18
102
RTVSPost2010Prop41ColorRGB
 90
        0
102
RTVSPost2010PropOp41
 70
     1
102
RTVSPost2010Prop42
 90
       50
102
RTVSPost2010PropOp42
 70
     1
102
RTVSPost2010Prop43
 90
        3
102
RTVSPost2010PropOp43
 70
     1
102
RTVSPost2010Prop44ColorIndex
 90
        5
102
RTVSPost2010Prop44ColorRGB
 90
      255
102
RTVSPost2010PropOp44
 70
     1
102
RTVSPost2010Prop45
280
     0
102
RTVSPost2010PropOp45
 70
     1
102
RTVSPost2010Prop46
 90
       50
102
RTVSPost2010PropOp46
 70
     1
102
RTVSPost2010Prop47
 90
       50
102
RTVSPost2010PropOp47
 70
     1
102
RTVSPost2010Prop48
 90
       50
102
RTVSPost2010PropOp48
 70
     1
102
RTVSPost2010Prop49
280
     0
102
RTVSPost2010PropOp49
 70
     1
102
RTVSPost2010Prop50
 90
       50
102
RTVSPost2010PropOp50
 70
     1
102
RTVSPost2010Prop51ColorIndex
 90
      256
102
RTVSPost2010Prop51ColorRGB
 90
-16777216
102
RTVSPost2010PropOp51
 70
     0
102
RTVSPost2010Prop52
140
1.0
102
RTVSPost2010PropOp52
 70
     0
102
RTVSPost2010Prop53
 90
        2
102
RTVSPost2010PropOp53
 70
     1
102
RTVSPost2010Prop54
  1
strokes_ogs.tif
102
RTVSPost2010PropOp54
 70
     1
102
RTVSPost2010Prop55
280
     0
102
RTVSPost2010PropOp55
 70
     1
102
RTVSPost2010Prop56
140
1.0
102
RTVSPost2010PropOp56
 70
     1
102
RTVSPost2010Prop57
140
1.0
102
RTVSPost2010PropOp57
 70
     1
102
RTVSPropertyOp0
 70
     1
102
RTVSPropertyOp1
 70
     1
102
RTVSPropertyOp2
 70
     1
102
RTVSPropertyOp3
 70
     1
102
RTVSPropertyOp4
 70
     1
102
RTVSPropertyOp5
 70
     1
102
RTVSPropertyOp6
 70
     1
102
RTVSPropertyOp7
 70
     1
102
RTVSPropertyOp8
 70
     1
102
RTVSPropertyOp9
 70
     1
102
RTVSPropertyOp10
 70
     1
102
RTVSPropertyOp11
 70
     1
102
RTVSPropertyOp12
 70
     1
102
RTVSPropertyOp13
 70
     1
102
RTVSPropertyOp14
 70
     1
102
RTVSPropertyOp15
 70
     1
102
RTVSPropertyOp16
 70
     1
102
RTVSPropertyOp17
 70
     1
102
RTVSPropertyOp18
 70
     1
102
RTVSPropertyOp19
 70
     1
102
RTVSPropertyOp20
 70
     1
102
RTVSPropertyOp21
 70
     1
102
RTVSPropertyOp22
 70
     1
102
RTVSPropertyOp23
 70
     1
102
RTVSPropertyOp24
 70
     1
102
RTVSPropertyOp25
 70
     1
102
RTVSPropertyOp26
 70
     1
102
RTVSPropertyOp27
 70
     1
102
RTVSPropertyOp28
 70
     1
102
RTVSPropertyOp29
 70
     1
102
RTVSPropertyOp30
 70
     1
102
RTVSPropertyOp31
 70
     1
102
RTVSPropertyOp32
 70
     1
102
RTVSPropertyOp33
 70
     1
102
RTVSPropertyOp34
 70
     1
102
RTVSPropertyOp35
 70
     1
102
RTVSPropertyOp36
 70
     1
102
RTVSPropertyOp37
 70
     1
102
RTVSPropertyOp38
 70
     1
102
RTVSPropertyOp39
 70
     1
102
RTVSPropertyOp40
 70
     1
102
RTVSPropertyOp41
 70
     1
102
RTVSPropertyOp42
 70
     1
102
RTVSPropertyOp43
 70
     1
102
RTVSPropertyOp44
 70
     1
102
RTVSPropertyOp45
 70
     1
102
RTVSPropertyOp46
 70
     1
102
RTVSPropertyOp47
 70
     1
102
RTVSPropertyOp48
 70
     1
102
RTVSPropertyOp49
 70
     1
102
RTVSPropertyOp50
 70
     1
102
RTVSPropertyOp51
 70
     0
102
RTVSPropertyOp52
 70
     0
102
RTVSPropertyOp53
 70
     1
102
RTVSPropertyOp54
 70
     1
102
RTVSPropertyOp55
 70
     1
102
RTVSPropertyOp56
 70
     1
102
RTVSPropertyOp57
 70
     1
102
RTVSPropertyOp58
 70
     1
102
RTVSPropertyOp59
 70
     1
102
RTVSPropertyOp60
 70
     1
102
RTVSPropertyOp61
 70
     1
102
RTVSPropertyOp62
 70
     1
  0
XRECORD
  5
A145
102
{ACAD_REACTORS
330
A144
102
}
330
A144
100
AcDbXrecord
280
     1
102
RTVSPost2010Prop28
280
     0
102
RTVSPost2010PropOp28
 70
     1
102
RTVSPost2010Prop29
280
     1
102
RTVSPost2010PropOp29
 70
     1
102
RTVSPost2010Prop30
280
     1
102
RTVSPost2010PropOp30
 70
     1
102
RTVSPost2010Prop31
280
     0
102
RTVSPost2010PropOp31
 70
     1
102
RTVSPost2010Prop32
280
     0
102
RTVSPost2010PropOp32
 70
     1
102
RTVSPost2010Prop33
280
     0
102
RTVSPost2010PropOp33
 70
     1
102
RTVSPost2010Prop34
280
     0
102
RTVSPost2010PropOp34
 70
     1
102
RTVSPost2010Prop35
280
     0
102
RTVSPost2010PropOp35
 70
     1
102
RTVSPost2010Prop36
280
     0
102
RTVSPost2010PropOp36
 70
     1
102
RTVSPost2010Prop37
 90
       50
102
RTVSPost2010PropOp37
 70
     1
102
RTVSPost2010Prop38
140
0.0
102
RTVSPost2010PropOp38
 70
     1
102
RTVSPost2010Prop39
140
1.0
102
RTVSPost2010PropOp39
 70
     1
102
RTVSPost2010Prop40
 90
        0
102
RTVSPost2010PropOp40
 70
     1
102
RTVSPost2010Prop41ColorIndex
 90
       18
102
RTVSPost2010Prop41ColorRGB
 90
        0
102
RTVSPost2010PropOp41
 70
     1
102
RTVSPost2010Prop42
 90
       50
102
RTVSPost2010PropOp42
 70
     1
102
RTVSPost2010Prop43
 90
        3
102
RTVSPost2010PropOp43
 70
     1
102
RTVSPost2010Prop44ColorIndex
 90
        5
102
RTVSPost2010Prop44ColorRGB
 90
      255
102
RTVSPost2010PropOp44
 70
     1
102
RTVSPost2010Prop45
280
     0
102
RTVSPost2010PropOp45
 70
     1
102
RTVSPost2010Prop46
 90
       50
102
RTVSPost2010PropOp46
 70
     1
102
RTVSPost2010Prop47
 90
       50
102
RTVSPost2010PropOp47
 70
     1
102
RTVSPost2010Prop48
 90
       50
102
RTVSPost2010PropOp48
 70
     1
102
RTVSPost2010Prop49
280
     0
102
RTVSPost2010PropOp49
 70
     1
102
RTVSPost2010Prop50
 90
       50
102
RTVSPost2010PropOp50
 70
     1
102
RTVSPost2010Prop51ColorIndex
 90
      256
102
RTVSPost2010Prop51ColorRGB
 90
-16777216
102
RTVSPost2010PropOp51
 70
     0
102
RTVSPost2010Prop52
140
1.0
102
RTVSPost2010PropOp52
 70
     0
102
RTVSPost2010Prop53
 90
        2
102
RTVSPost2010PropOp53
 70
     1
102
RTVSPost2010Prop54
  1
strokes_ogs.tif
102
RTVSPost2010PropOp54
 70
     1
102
RTVSPost2010Prop55
280
     0
102
RTVSPost2010PropOp55
 70
     1
102
RTVSPost2010Prop56
140
1.0
102
RTVSPost2010PropOp56
 70
     1
102
RTVSPost2010Prop57
140
1.0
102
RTVSPost2010PropOp57
 70
     1
102
RTVSPropertyOp0
 70
     1
102
RTVSPropertyOp1
 70
     1
102
RTVSPropertyOp2
 70
     1
102
RTVSPropertyOp3
 70
     1
102
RTVSPropertyOp4
 70
     1
102
RTVSPropertyOp5
 70
     1
102
RTVSPropertyOp6
 70
     1
102
RTVSPropertyOp7
 70
     1
102
RTVSPropertyOp8
 70
     1
102
RTVSPropertyOp9
 70
     1
102
RTVSPropertyOp10
 70
     1
102
RTVSPropertyOp11
 70
     1
102
RTVSPropertyOp12
 70
     1
102
RTVSPropertyOp13
 70
     1
102
RTVSPropertyOp14
 70
     1
102
RTVSPropertyOp15
 70
     1
102
RTVSPropertyOp16
 70
     1
102
RTVSPropertyOp17
 70
     1
102
RTVSPropertyOp18
 70
     1
102
RTVSPropertyOp19
 70
     1
102
RTVSPropertyOp20
 70
     1
102
RTVSPropertyOp21
 70
     1
102
RTVSPropertyOp22
 70
     1
102
RTVSPropertyOp23
 70
     1
102
RTVSPropertyOp24
 70
     1
102
RTVSPropertyOp25
 70
     1
102
RTVSPropertyOp26
 70
     1
102
RTVSPropertyOp27
 70
     1
102
RTVSPropertyOp28
 70
     1
102
RTVSPropertyOp29
 70
     1
102
RTVSPropertyOp30
 70
     1
102
RTVSPropertyOp31
 70
     1
102
RTVSPropertyOp32
 70
     1
102
RTVSPropertyOp33
 70
     1
102
RTVSPropertyOp34
 70
     1
102
RTVSPropertyOp35
 70
     1
102
RTVSPropertyOp36
 70
     1
102
RTVSPropertyOp37
 70
     1
102
RTVSPropertyOp38
 70
     1
102
RTVSPropertyOp39
 70
     1
102
RTVSPropertyOp40
 70
     1
102
RTVSPropertyOp41
 70
     1
102
RTVSPropertyOp42
 70
     1
102
RTVSPropertyOp43
 70
     1
102
RTVSPropertyOp44
 70
     1
102
RTVSPropertyOp45
 70
     1
102
RTVSPropertyOp46
 70
     1
102
RTVSPropertyOp47
 70
     1
102
RTVSPropertyOp48
 70
     1
102
RTVSPropertyOp49
 70
     1
102
RTVSPropertyOp50
 70
     1
102
RTVSPropertyOp51
 70
     0
102
RTVSPropertyOp52
 70
     0
102
RTVSPropertyOp53
 70
     1
102
RTVSPropertyOp54
 70
     1
102
RTVSPropertyOp55
 70
     1
102
RTVSPropertyOp56
 70
     1
102
RTVSPropertyOp57
 70
     1
102
RTVSPropertyOp58
 70
     1
102
RTVSPropertyOp59
 70
     1
102
RTVSPropertyOp60
 70
     1
102
RTVSPropertyOp61
 70
     1
102
RTVSPropertyOp62
 70
     1
  0
XRECORD
  5
A147
102
{ACAD_REACTORS
330
A146
102
}
330
A146
100
AcDbXrecord
280
     1
102
RTVSPost2010Prop28
280
     0
102
RTVSPost2010PropOp28
 70
     1
102
RTVSPost2010Prop29
280
     1
102
RTVSPost2010PropOp29
 70
     1
102
RTVSPost2010Prop30
280
     1
102
RTVSPost2010PropOp30
 70
     1
102
RTVSPost2010Prop31
280
     0
102
RTVSPost2010PropOp31
 70
     1
102
RTVSPost2010Prop32
280
     0
102
RTVSPost2010PropOp32
 70
     1
102
RTVSPost2010Prop33
280
     0
102
RTVSPost2010PropOp33
 70
     1
102
RTVSPost2010Prop34
280
     0
102
RTVSPost2010PropOp34
 70
     1
102
RTVSPost2010Prop35
280
     0
102
RTVSPost2010PropOp35
 70
     1
102
RTVSPost2010Prop36
280
     0
102
RTVSPost2010PropOp36
 70
     1
102
RTVSPost2010Prop37
 90
       50
102
RTVSPost2010PropOp37
 70
     1
102
RTVSPost2010Prop38
140
0.0
102
RTVSPost2010PropOp38
 70
     1
102
RTVSPost2010Prop39
140
1.0
102
RTVSPost2010PropOp39
 70
     1
102
RTVSPost2010Prop40
 90
        0
102
RTVSPost2010PropOp40
 70
     1
102
RTVSPost2010Prop41ColorIndex
 90
       18
102
RTVSPost2010Prop41ColorRGB
 90
        0
102
RTVSPost2010PropOp41
 70
     1
102
RTVSPost2010Prop42
 90
       50
102
RTVSPost2010PropOp42
 70
     1
102
RTVSPost2010Prop43
 90
        3
102
RTVSPost2010PropOp43
 70
     1
102
RTVSPost2010Prop44ColorIndex
 90
        5
102
RTVSPost2010Prop44ColorRGB
 90
      255
102
RTVSPost2010PropOp44
 70
     1
102
RTVSPost2010Prop45
280
     0
102
RTVSPost2010PropOp45
 70
     1
102
RTVSPost2010Prop46
 90
       50
102
RTVSPost2010PropOp46
 70
     1
102
RTVSPost2010Prop47
 90
       50
102
RTVSPost2010PropOp47
 70
     1
102
RTVSPost2010Prop48
 90
       50
102
RTVSPost2010PropOp48
 70
     1
102
RTVSPost2010Prop49
280
     0
102
RTVSPost2010PropOp49
 70
     1
102
RTVSPost2010Prop50
 90
       50
102
RTVSPost2010PropOp50
 70
     1
102
RTVSPost2010Prop51ColorIndex
 90
      256
102
RTVSPost2010Prop51ColorRGB
 90
-16777216
102
RTVSPost2010PropOp51
 70
     0
102
RTVSPost2010Prop52
140
1.0
102
RTVSPost2010PropOp52
 70
     0
102
RTVSPost2010Prop53
 90
        2
102
RTVSPost2010PropOp53
 70
     1
102
RTVSPost2010Prop54
  1
strokes_ogs.tif
102
RTVSPost2010PropOp54
 70
     1
102
RTVSPost2010Prop55
280
     0
102
RTVSPost2010PropOp55
 70
     1
102
RTVSPost2010Prop56
140
1.0
102
RTVSPost2010PropOp56
 70
     1
102
RTVSPost2010Prop57
140
1.0
102
RTVSPost2010PropOp57
 70
     1
102
RTVSPropertyOp0
 70
     1
102
RTVSPropertyOp1
 70
     1
102
RTVSPropertyOp2
 70
     1
102
RTVSPropertyOp3
 70
     1
102
RTVSPropertyOp4
 70
     1
102
RTVSPropertyOp5
 70
     1
102
RTVSPropertyOp6
 70
     1
102
RTVSPropertyOp7
 70
     1
102
RTVSPropertyOp8
 70
     1
102
RTVSPropertyOp9
 70
     1
102
RTVSPropertyOp10
 70
     1
102
RTVSPropertyOp11
 70
     1
102
RTVSPropertyOp12
 70
     1
102
RTVSPropertyOp13
 70
     1
102
RTVSPropertyOp14
 70
     1
102
RTVSPropertyOp15
 70
     1
102
RTVSPropertyOp16
 70
     1
102
RTVSPropertyOp17
 70
     1
102
RTVSPropertyOp18
 70
     1
102
RTVSPropertyOp19
 70
     1
102
RTVSPropertyOp20
 70
     1
102
RTVSPropertyOp21
 70
     1
102
RTVSPropertyOp22
 70
     1
102
RTVSPropertyOp23
 70
     1
102
RTVSPropertyOp24
 70
     1
102
RTVSPropertyOp25
 70
     1
102
RTVSPropertyOp26
 70
     1
102
RTVSPropertyOp27
 70
     1
102
RTVSPropertyOp28
 70
     1
102
RTVSPropertyOp29
 70
     1
102
RTVSPropertyOp30
 70
     1
102
RTVSPropertyOp31
 70
     1
102
RTVSPropertyOp32
 70
     1
102
RTVSPropertyOp33
 70
     1
102
RTVSPropertyOp34
 70
     1
102
RTVSPropertyOp35
 70
     1
102
RTVSPropertyOp36
 70
     1
102
RTVSPropertyOp37
 70
     1
102
RTVSPropertyOp38
 70
     1
102
RTVSPropertyOp39
 70
     1
102
RTVSPropertyOp40
 70
     1
102
RTVSPropertyOp41
 70
     1
102
RTVSPropertyOp42
 70
     1
102
RTVSPropertyOp43
 70
     1
102
RTVSPropertyOp44
 70
     1
102
RTVSPropertyOp45
 70
     1
102
RTVSPropertyOp46
 70
     1
102
RTVSPropertyOp47
 70
     1
102
RTVSPropertyOp48
 70
     1
102
RTVSPropertyOp49
 70
     1
102
RTVSPropertyOp50
 70
     1
102
RTVSPropertyOp51
 70
     0
102
RTVSPropertyOp52
 70
     0
102
RTVSPropertyOp53
 70
     1
102
RTVSPropertyOp54
 70
     1
102
RTVSPropertyOp55
 70
     1
102
RTVSPropertyOp56
 70
     1
102
RTVSPropertyOp57
 70
     1
102
RTVSPropertyOp58
 70
     1
102
RTVSPropertyOp59
 70
     1
102
RTVSPropertyOp60
 70
     1
102
RTVSPropertyOp61
 70
     1
102
RTVSPropertyOp62
 70
     1
  0
XRECORD
  5
A14F
102
{ACAD_REACTORS
330
A14E
102
}
330
A14E
100
AcDbXrecord
280
     1
102
RTVSPost2010Prop28
280
     0
102
RTVSPost2010PropOp28
 70
     1
102
RTVSPost2010Prop29
280
     1
102
RTVSPost2010PropOp29
 70
     1
102
RTVSPost2010Prop30
280
     1
102
RTVSPost2010PropOp30
 70
     1
102
RTVSPost2010Prop31
280
     0
102
RTVSPost2010PropOp31
 70
     1
102
RTVSPost2010Prop32
280
     0
102
RTVSPost2010PropOp32
 70
     1
102
RTVSPost2010Prop33
280
     0
102
RTVSPost2010PropOp33
 70
     1
102
RTVSPost2010Prop34
280
     0
102
RTVSPost2010PropOp34
 70
     1
102
RTVSPost2010Prop35
280
     0
102
RTVSPost2010PropOp35
 70
     1
102
RTVSPost2010Prop36
280
     0
102
RTVSPost2010PropOp36
 70
     1
102
RTVSPost2010Prop37
 90
       50
102
RTVSPost2010PropOp37
 70
     1
102
RTVSPost2010Prop38
140
0.0
102
RTVSPost2010PropOp38
 70
     1
102
RTVSPost2010Prop39
140
1.0
102
RTVSPost2010PropOp39
 70
     1
102
RTVSPost2010Prop40
 90
        0
102
RTVSPost2010PropOp40
 70
     1
102
RTVSPost2010Prop41ColorIndex
 90
       18
102
RTVSPost2010Prop41ColorRGB
 90
        0
102
RTVSPost2010PropOp41
 70
     1
102
RTVSPost2010Prop42
 90
       50
102
RTVSPost2010PropOp42
 70
     1
102
RTVSPost2010Prop43
 90
        3
102
RTVSPost2010PropOp43
 70
     1
102
RTVSPost2010Prop44ColorIndex
 90
        5
102
RTVSPost2010Prop44ColorRGB
 90
      255
102
RTVSPost2010PropOp44
 70
     1
102
RTVSPost2010Prop45
280
     0
102
RTVSPost2010PropOp45
 70
     1
102
RTVSPost2010Prop46
 90
       50
102
RTVSPost2010PropOp46
 70
     1
102
RTVSPost2010Prop47
 90
       50
102
RTVSPost2010PropOp47
 70
     1
102
RTVSPost2010Prop48
 90
       50
102
RTVSPost2010PropOp48
 70
     1
102
RTVSPost2010Prop49
280
     0
102
RTVSPost2010PropOp49
 70
     1
102
RTVSPost2010Prop50
 90
       50
102
RTVSPost2010PropOp50
 70
     1
102
RTVSPost2010Prop51ColorIndex
 90
      256
102
RTVSPost2010Prop51ColorRGB
 90
-16777216
102
RTVSPost2010PropOp51
 70
     0
102
RTVSPost2010Prop52
140
1.0
102
RTVSPost2010PropOp52
 70
     0
102
RTVSPost2010Prop53
 90
        2
102
RTVSPost2010PropOp53
 70
     1
102
RTVSPost2010Prop54
  1
strokes_ogs.tif
102
RTVSPost2010PropOp54
 70
     1
102
RTVSPost2010Prop55
280
     0
102
RTVSPost2010PropOp55
 70
     1
102
RTVSPost2010Prop56
140
1.0
102
RTVSPost2010PropOp56
 70
     1
102
RTVSPost2010Prop57
140
1.0
102
RTVSPost2010PropOp57
 70
     1
102
RTVSPropertyOp0
 70
     1
102
RTVSPropertyOp1
 70
     1
102
RTVSPropertyOp2
 70
     1
102
RTVSPropertyOp3
 70
     1
102
RTVSPropertyOp4
 70
     1
102
RTVSPropertyOp5
 70
     1
102
RTVSPropertyOp6
 70
     1
102
RTVSPropertyOp7
 70
     1
102
RTVSPropertyOp8
 70
     1
102
RTVSPropertyOp9
 70
     1
102
RTVSPropertyOp10
 70
     1
102
RTVSPropertyOp11
 70
     1
102
RTVSPropertyOp12
 70
     1
102
RTVSPropertyOp13
 70
     1
102
RTVSPropertyOp14
 70
     1
102
RTVSPropertyOp15
 70
     1
102
RTVSPropertyOp16
 70
     1
102
RTVSPropertyOp17
 70
     1
102
RTVSPropertyOp18
 70
     1
102
RTVSPropertyOp19
 70
     1
102
RTVSPropertyOp20
 70
     1
102
RTVSPropertyOp21
 70
     1
102
RTVSPropertyOp22
 70
     1
102
RTVSPropertyOp23
 70
     1
102
RTVSPropertyOp24
 70
     1
102
RTVSPropertyOp25
 70
     1
102
RTVSPropertyOp26
 70
     1
102
RTVSPropertyOp27
 70
     1
102
RTVSPropertyOp28
 70
     1
102
RTVSPropertyOp29
 70
     1
102
RTVSPropertyOp30
 70
     1
102
RTVSPropertyOp31
 70
     1
102
RTVSPropertyOp32
 70
     1
102
RTVSPropertyOp33
 70
     1
102
RTVSPropertyOp34
 70
     1
102
RTVSPropertyOp35
 70
     1
102
RTVSPropertyOp36
 70
     1
102
RTVSPropertyOp37
 70
     1
102
RTVSPropertyOp38
 70
     1
102
RTVSPropertyOp39
 70
     1
102
RTVSPropertyOp40
 70
     1
102
RTVSPropertyOp41
 70
     1
102
RTVSPropertyOp42
 70
     1
102
RTVSPropertyOp43
 70
     1
102
RTVSPropertyOp44
 70
     1
102
RTVSPropertyOp45
 70
     1
102
RTVSPropertyOp46
 70
     1
102
RTVSPropertyOp47
 70
     1
102
RTVSPropertyOp48
 70
     1
102
RTVSPropertyOp49
 70
     1
102
RTVSPropertyOp50
 70
     1
102
RTVSPropertyOp51
 70
     0
102
RTVSPropertyOp52
 70
     0
102
RTVSPropertyOp53
 70
     1
102
RTVSPropertyOp54
 70
     1
102
RTVSPropertyOp55
 70
     1
102
RTVSPropertyOp56
 70
     1
102
RTVSPropertyOp57
 70
     1
102
RTVSPropertyOp58
 70
     1
102
RTVSPropertyOp59
 70
     1
102
RTVSPropertyOp60
 70
     1
102
RTVSPropertyOp61
 70
     1
102
RTVSPropertyOp62
 70
     1
  0
XRECORD
  5
A16B
102
{ACAD_REACTORS
330
A16A
102
}
330
A16A
100
AcDbXrecord
280
     1
102
RTVSPost2010Prop28
280
     0
102
RTVSPost2010PropOp28
 70
     1
102
RTVSPost2010Prop29
280
     1
102
RTVSPost2010PropOp29
 70
     1
102
RTVSPost2010Prop30
280
     1
102
RTVSPost2010PropOp30
 70
     1
102
RTVSPost2010Prop31
280
     0
102
RTVSPost2010PropOp31
 70
     1
102
RTVSPost2010Prop32
280
     0
102
RTVSPost2010PropOp32
 70
     1
102
RTVSPost2010Prop33
280
     0
102
RTVSPost2010PropOp33
 70
     1
102
RTVSPost2010Prop34
280
     0
102
RTVSPost2010PropOp34
 70
     1
102
RTVSPost2010Prop35
280
     0
102
RTVSPost2010PropOp35
 70
     1
102
RTVSPost2010Prop36
280
     0
102
RTVSPost2010PropOp36
 70
     1
102
RTVSPost2010Prop37
 90
       50
102
RTVSPost2010PropOp37
 70
     0
102
RTVSPost2010Prop38
140
0.0
102
RTVSPost2010PropOp38
 70
     0
102
RTVSPost2010Prop39
140
1.0
102
RTVSPost2010PropOp39
 70
     0
102
RTVSPost2010Prop40
 90
        0
102
RTVSPost2010PropOp40
 70
     0
102
RTVSPost2010Prop41ColorIndex
 90
       18
102
RTVSPost2010Prop41ColorRGB
 90
        0
102
RTVSPost2010PropOp41
 70
     0
102
RTVSPost2010Prop42
 90
       50
102
RTVSPost2010PropOp42
 70
     0
102
RTVSPost2010Prop43
 90
        3
102
RTVSPost2010PropOp43
 70
     0
102
RTVSPost2010Prop44ColorIndex
 90
        5
102
RTVSPost2010Prop44ColorRGB
 90
      255
102
RTVSPost2010PropOp44
 70
     0
102
RTVSPost2010Prop45
280
     0
102
RTVSPost2010PropOp45
 70
     1
102
RTVSPost2010Prop46
 90
       50
102
RTVSPost2010PropOp46
 70
     0
102
RTVSPost2010Prop47
 90
       50
102
RTVSPost2010PropOp47
 70
     0
102
RTVSPost2010Prop48
 90
       50
102
RTVSPost2010PropOp48
 70
     0
102
RTVSPost2010Prop49
280
     0
102
RTVSPost2010PropOp49
 70
     1
102
RTVSPost2010Prop50
 90
       50
102
RTVSPost2010PropOp50
 70
     0
102
RTVSPost2010Prop51ColorIndex
 90
      256
102
RTVSPost2010Prop51ColorRGB
 90
-16777216
102
RTVSPost2010PropOp51
 70
     0
102
RTVSPost2010Prop52
140
1.0
102
RTVSPost2010PropOp52
 70
     0
102
RTVSPost2010Prop53
 90
        2
102
RTVSPost2010PropOp53
 70
     0
102
RTVSPost2010Prop54
  1
strokes_ogs.tif
102
RTVSPost2010PropOp54
 70
     0
102
RTVSPost2010Prop55
280
     0
102
RTVSPost2010PropOp55
 70
     1
102
RTVSPost2010Prop56
140
1.0
102
RTVSPost2010PropOp56
 70
     0
102
RTVSPost2010Prop57
140
1.0
102
RTVSPost2010PropOp57
 70
     0
102
RTVSPropertyOp0
 70
     0
102
RTVSPropertyOp1
 70
     0
102
RTVSPropertyOp2
 70
     0
102
RTVSPropertyOp3
 70
     0
102
RTVSPropertyOp4
 70
     0
102
RTVSPropertyOp5
 70
     0
102
RTVSPropertyOp6
 70
     0
102
RTVSPropertyOp7
 70
     0
102
RTVSPropertyOp8
 70
     0
102
RTVSPropertyOp9
 70
     0
102
RTVSPropertyOp10
 70
     0
102
RTVSPropertyOp11
 70
     0
102
RTVSPropertyOp12
 70
     0
102
RTVSPropertyOp13
 70
     0
102
RTVSPropertyOp14
 70
     2
102
RTVSPropertyOp15
 70
     0
102
RTVSPropertyOp16
 70
     0
102
RTVSPropertyOp17
 70
     0
102
RTVSPropertyOp18
 70
     0
102
RTVSPropertyOp19
 70
     0
102
RTVSPropertyOp20
 70
     0
102
RTVSPropertyOp21
 70
     0
102
RTVSPropertyOp22
 70
     0
102
RTVSPropertyOp23
 70
     0
102
RTVSPropertyOp24
 70
     0
102
RTVSPropertyOp25
 70
     0
102
RTVSPropertyOp26
 70
     0
102
RTVSPropertyOp27
 70
     0
102
RTVSPropertyOp28
 70
     1
102
RTVSPropertyOp29
 70
     1
102
RTVSPropertyOp30
 70
     1
102
RTVSPropertyOp31
 70
     1
102
RTVSPropertyOp32
 70
     1
102
RTVSPropertyOp33
 70
     1
102
RTVSPropertyOp34
 70
     1
102
RTVSPropertyOp35
 70
     1
102
RTVSPropertyOp36
 70
     1
102
RTVSPropertyOp37
 70
     0
102
RTVSPropertyOp38
 70
     0
102
RTVSPropertyOp39
 70
     0
102
RTVSPropertyOp40
 70
     0
102
RTVSPropertyOp41
 70
     0
102
RTVSPropertyOp42
 70
     0
102
RTVSPropertyOp43
 70
     0
102
RTVSPropertyOp44
 70
     0
102
RTVSPropertyOp45
 70
     1
102
RTVSPropertyOp46
 70
     0
102
RTVSPropertyOp47
 70
     0
102
RTVSPropertyOp48
 70
     0
102
RTVSPropertyOp49
 70
     1
102
RTVSPropertyOp50
 70
     0
102
RTVSPropertyOp51
 70
     0
102
RTVSPropertyOp52
 70
     0
102
RTVSPropertyOp53
 70
     0
102
RTVSPropertyOp54
 70
     0
102
RTVSPropertyOp55
 70
     1
102
RTVSPropertyOp56
 70
     0
102
RTVSPropertyOp57
 70
     0
102
RTVSPropertyOp58
 70
     0
102
RTVSPropertyOp59
 70
     0
102
RTVSPropertyOp60
 70
     0
102
RTVSPropertyOp61
 70
     0
102
RTVSPropertyOp62
 70
     0
  0
XRECORD
  5
A15B
102
{ACAD_REACTORS
330
A15A
102
}
330
A15A
100
AcDbXrecord
280
     1
102
RTVSPost2010Prop28
280
     0
102
RTVSPost2010PropOp28
 70
     1
102
RTVSPost2010Prop29
280
     1
102
RTVSPost2010PropOp29
 70
     1
102
RTVSPost2010Prop30
280
     1
102
RTVSPost2010PropOp30
 70
     1
102
RTVSPost2010Prop31
280
     0
102
RTVSPost2010PropOp31
 70
     1
102
RTVSPost2010Prop32
280
     0
102
RTVSPost2010PropOp32
 70
     1
102
RTVSPost2010Prop33
280
     0
102
RTVSPost2010PropOp33
 70
     1
102
RTVSPost2010Prop34
280
     0
102
RTVSPost2010PropOp34
 70
     1
102
RTVSPost2010Prop35
280
     0
102
RTVSPost2010PropOp35
 70
     1
102
RTVSPost2010Prop36
280
     0
102
RTVSPost2010PropOp36
 70
     1
102
RTVSPost2010Prop37
 90
       50
102
RTVSPost2010PropOp37
 70
     1
102
RTVSPost2010Prop38
140
0.0
102
RTVSPost2010PropOp38
 70
     1
102
RTVSPost2010Prop39
140
1.0
102
RTVSPost2010PropOp39
 70
     1
102
RTVSPost2010Prop40
 90
        0
102
RTVSPost2010PropOp40
 70
     1
102
RTVSPost2010Prop41ColorIndex
 90
       18
102
RTVSPost2010Prop41ColorRGB
 90
        0
102
RTVSPost2010PropOp41
 70
     1
102
RTVSPost2010Prop42
 90
       50
102
RTVSPost2010PropOp42
 70
     1
102
RTVSPost2010Prop43
 90
        3
102
RTVSPost2010PropOp43
 70
     1
102
RTVSPost2010Prop44ColorIndex
 90
        5
102
RTVSPost2010Prop44ColorRGB
 90
      255
102
RTVSPost2010PropOp44
 70
     1
102
RTVSPost2010Prop45
280
     0
102
RTVSPost2010PropOp45
 70
     1
102
RTVSPost2010Prop46
 90
       50
102
RTVSPost2010PropOp46
 70
     1
102
RTVSPost2010Prop47
 90
       50
102
RTVSPost2010PropOp47
 70
     1
102
RTVSPost2010Prop48
 90
       50
102
RTVSPost2010PropOp48
 70
     1
102
RTVSPost2010Prop49
280
     0
102
RTVSPost2010PropOp49
 70
     1
102
RTVSPost2010Prop50
 90
       50
102
RTVSPost2010PropOp50
 70
     1
102
RTVSPost2010Prop51ColorIndex
 90
      256
102
RTVSPost2010Prop51ColorRGB
 90
-16777216
102
RTVSPost2010PropOp51
 70
     0
102
RTVSPost2010Prop52
140
1.0
102
RTVSPost2010PropOp52
 70
     0
102
RTVSPost2010Prop53
 90
        2
102
RTVSPost2010PropOp53
 70
     1
102
RTVSPost2010Prop54
  1
strokes_ogs.tif
102
RTVSPost2010PropOp54
 70
     1
102
RTVSPost2010Prop55
280
     0
102
RTVSPost2010PropOp55
 70
     1
102
RTVSPost2010Prop56
140
1.0
102
RTVSPost2010PropOp56
 70
     1
102
RTVSPost2010Prop57
140
1.0
102
RTVSPost2010PropOp57
 70
     1
102
RTVSPropertyOp0
 70
     1
102
RTVSPropertyOp1
 70
     1
102
RTVSPropertyOp2
 70
     1
102
RTVSPropertyOp3
 70
     1
102
RTVSPropertyOp4
 70
     1
102
RTVSPropertyOp5
 70
     1
102
RTVSPropertyOp6
 70
     1
102
RTVSPropertyOp7
 70
     1
102
RTVSPropertyOp8
 70
     1
102
RTVSPropertyOp9
 70
     1
102
RTVSPropertyOp10
 70
     1
102
RTVSPropertyOp11
 70
     1
102
RTVSPropertyOp12
 70
     1
102
RTVSPropertyOp13
 70
     1
102
RTVSPropertyOp14
 70
     1
102
RTVSPropertyOp15
 70
     1
102
RTVSPropertyOp16
 70
     1
102
RTVSPropertyOp17
 70
     1
102
RTVSPropertyOp18
 70
     1
102
RTVSPropertyOp19
 70
     1
102
RTVSPropertyOp20
 70
     1
102
RTVSPropertyOp21
 70
     1
102
RTVSPropertyOp22
 70
     1
102
RTVSPropertyOp23
 70
     1
102
RTVSPropertyOp24
 70
     1
102
RTVSPropertyOp25
 70
     1
102
RTVSPropertyOp26
 70
     1
102
RTVSPropertyOp27
 70
     1
102
RTVSPropertyOp28
 70
     1
102
RTVSPropertyOp29
 70
     1
102
RTVSPropertyOp30
 70
     1
102
RTVSPropertyOp31
 70
     1
102
RTVSPropertyOp32
 70
     1
102
RTVSPropertyOp33
 70
     1
102
RTVSPropertyOp34
 70
     1
102
RTVSPropertyOp35
 70
     1
102
RTVSPropertyOp36
 70
     1
102
RTVSPropertyOp37
 70
     1
102
RTVSPropertyOp38
 70
     1
102
RTVSPropertyOp39
 70
     1
102
RTVSPropertyOp40
 70
     1
102
RTVSPropertyOp41
 70
     1
102
RTVSPropertyOp42
 70
     1
102
RTVSPropertyOp43
 70
     1
102
RTVSPropertyOp44
 70
     1
102
RTVSPropertyOp45
 70
     1
102
RTVSPropertyOp46
 70
     1
102
RTVSPropertyOp47
 70
     1
102
RTVSPropertyOp48
 70
     1
102
RTVSPropertyOp49
 70
     1
102
RTVSPropertyOp50
 70
     1
102
RTVSPropertyOp51
 70
     0
102
RTVSPropertyOp52
 70
     0
102
RTVSPropertyOp53
 70
     1
102
RTVSPropertyOp54
 70
     1
102
RTVSPropertyOp55
 70
     1
102
RTVSPropertyOp56
 70
     1
102
RTVSPropertyOp57
 70
     1
102
RTVSPropertyOp58
 70
     1
102
RTVSPropertyOp59
 70
     1
102
RTVSPropertyOp60
 70
     1
102
RTVSPropertyOp61
 70
     1
102
RTVSPropertyOp62
 70
     1
  0
XRECORD
  5
A16D
102
{ACAD_REACTORS
330
A16C
102
}
330
A16C
100
AcDbXrecord
280
     1
102
RTVSPost2010Prop28
280
     0
102
RTVSPost2010PropOp28
 70
     1
102
RTVSPost2010Prop29
280
     1
102
RTVSPost2010PropOp29
 70
     1
102
RTVSPost2010Prop30
280
     1
102
RTVSPost2010PropOp30
 70
     1
102
RTVSPost2010Prop31
280
     0
102
RTVSPost2010PropOp31
 70
     1
102
RTVSPost2010Prop32
280
     0
102
RTVSPost2010PropOp32
 70
     1
102
RTVSPost2010Prop33
280
     0
102
RTVSPost2010PropOp33
 70
     1
102
RTVSPost2010Prop34
280
     0
102
RTVSPost2010PropOp34
 70
     1
102
RTVSPost2010Prop35
280
     0
102
RTVSPost2010PropOp35
 70
     1
102
RTVSPost2010Prop36
280
     0
102
RTVSPost2010PropOp36
 70
     1
102
RTVSPost2010Prop37
 90
       50
102
RTVSPost2010PropOp37
 70
     0
102
RTVSPost2010Prop38
140
0.0
102
RTVSPost2010PropOp38
 70
     0
102
RTVSPost2010Prop39
140
1.0
102
RTVSPost2010PropOp39
 70
     0
102
RTVSPost2010Prop40
 90
        0
102
RTVSPost2010PropOp40
 70
     0
102
RTVSPost2010Prop41ColorIndex
 90
       18
102
RTVSPost2010Prop41ColorRGB
 90
        0
102
RTVSPost2010PropOp41
 70
     0
102
RTVSPost2010Prop42
 90
       50
102
RTVSPost2010PropOp42
 70
     0
102
RTVSPost2010Prop43
 90
        3
102
RTVSPost2010PropOp43
 70
     0
102
RTVSPost2010Prop44ColorIndex
 90
        5
102
RTVSPost2010Prop44ColorRGB
 90
      255
102
RTVSPost2010PropOp44
 70
     0
102
RTVSPost2010Prop45
280
     0
102
RTVSPost2010PropOp45
 70
     1
102
RTVSPost2010Prop46
 90
       50
102
RTVSPost2010PropOp46
 70
     0
102
RTVSPost2010Prop47
 90
       50
102
RTVSPost2010PropOp47
 70
     0
102
RTVSPost2010Prop48
 90
       50
102
RTVSPost2010PropOp48
 70
     0
102
RTVSPost2010Prop49
280
     0
102
RTVSPost2010PropOp49
 70
     1
102
RTVSPost2010Prop50
 90
       50
102
RTVSPost2010PropOp50
 70
     0
102
RTVSPost2010Prop51ColorIndex
 90
      256
102
RTVSPost2010Prop51ColorRGB
 90
-16777216
102
RTVSPost2010PropOp51
 70
     0
102
RTVSPost2010Prop52
140
1.0
102
RTVSPost2010PropOp52
 70
     0
102
RTVSPost2010Prop53
 90
        2
102
RTVSPost2010PropOp53
 70
     0
102
RTVSPost2010Prop54
  1
strokes_ogs.tif
102
RTVSPost2010PropOp54
 70
     0
102
RTVSPost2010Prop55
280
     0
102
RTVSPost2010PropOp55
 70
     1
102
RTVSPost2010Prop56
140
1.0
102
RTVSPost2010PropOp56
 70
     0
102
RTVSPost2010Prop57
140
1.0
102
RTVSPost2010PropOp57
 70
     0
102
RTVSPropertyOp0
 70
     0
102
RTVSPropertyOp1
 70
     0
102
RTVSPropertyOp2
 70
     0
102
RTVSPropertyOp3
 70
     0
102
RTVSPropertyOp4
 70
     0
102
RTVSPropertyOp5
 70
     0
102
RTVSPropertyOp6
 70
     0
102
RTVSPropertyOp7
 70
     0
102
RTVSPropertyOp8
 70
     0
102
RTVSPropertyOp9
 70
     0
102
RTVSPropertyOp10
 70
     0
102
RTVSPropertyOp11
 70
     0
102
RTVSPropertyOp12
 70
     0
102
RTVSPropertyOp13
 70
     0
102
RTVSPropertyOp14
 70
     2
102
RTVSPropertyOp15
 70
     0
102
RTVSPropertyOp16
 70
     0
102
RTVSPropertyOp17
 70
     0
102
RTVSPropertyOp18
 70
     0
102
RTVSPropertyOp19
 70
     0
102
RTVSPropertyOp20
 70
     0
102
RTVSPropertyOp21
 70
     0
102
RTVSPropertyOp22
 70
     0
102
RTVSPropertyOp23
 70
     0
102
RTVSPropertyOp24
 70
     0
102
RTVSPropertyOp25
 70
     0
102
RTVSPropertyOp26
 70
     0
102
RTVSPropertyOp27
 70
     0
102
RTVSPropertyOp28
 70
     1
102
RTVSPropertyOp29
 70
     1
102
RTVSPropertyOp30
 70
     1
102
RTVSPropertyOp31
 70
     1
102
RTVSPropertyOp32
 70
     1
102
RTVSPropertyOp33
 70
     1
102
RTVSPropertyOp34
 70
     1
102
RTVSPropertyOp35
 70
     1
102
RTVSPropertyOp36
 70
     1
102
RTVSPropertyOp37
 70
     0
102
RTVSPropertyOp38
 70
     0
102
RTVSPropertyOp39
 70
     0
102
RTVSPropertyOp40
 70
     0
102
RTVSPropertyOp41
 70
     0
102
RTVSPropertyOp42
 70
     0
102
RTVSPropertyOp43
 70
     0
102
RTVSPropertyOp44
 70
     0
102
RTVSPropertyOp45
 70
     1
102
RTVSPropertyOp46
 70
     0
102
RTVSPropertyOp47
 70
     0
102
RTVSPropertyOp48
 70
     0
102
RTVSPropertyOp49
 70
     1
102
RTVSPropertyOp50
 70
     0
102
RTVSPropertyOp51
 70
     0
102
RTVSPropertyOp52
 70
     0
102
RTVSPropertyOp53
 70
     0
102
RTVSPropertyOp54
 70
     0
102
RTVSPropertyOp55
 70
     1
102
RTVSPropertyOp56
 70
     0
102
RTVSPropertyOp57
 70
     0
102
RTVSPropertyOp58
 70
     0
102
RTVSPropertyOp59
 70
     0
102
RTVSPropertyOp60
 70
     0
102
RTVSPropertyOp61
 70
     0
102
RTVSPropertyOp62
 70
     0
  0
XRECORD
  5
A153
102
{ACAD_REACTORS
330
A152
102
}
330
A152
100
AcDbXrecord
280
     1
102
RTVSPost2010Prop28
280
     0
102
RTVSPost2010PropOp28
 70
     1
102
RTVSPost2010Prop29
280
     1
102
RTVSPost2010PropOp29
 70
     1
102
RTVSPost2010Prop30
280
     1
102
RTVSPost2010PropOp30
 70
     1
102
RTVSPost2010Prop31
280
     0
102
RTVSPost2010PropOp31
 70
     1
102
RTVSPost2010Prop32
280
     0
102
RTVSPost2010PropOp32
 70
     1
102
RTVSPost2010Prop33
280
     0
102
RTVSPost2010PropOp33
 70
     1
102
RTVSPost2010Prop34
280
     0
102
RTVSPost2010PropOp34
 70
     1
102
RTVSPost2010Prop35
280
     0
102
RTVSPost2010PropOp35
 70
     1
102
RTVSPost2010Prop36
280
     0
102
RTVSPost2010PropOp36
 70
     1
102
RTVSPost2010Prop37
 90
       50
102
RTVSPost2010PropOp37
 70
     1
102
RTVSPost2010Prop38
140
0.0
102
RTVSPost2010PropOp38
 70
     1
102
RTVSPost2010Prop39
140
1.0
102
RTVSPost2010PropOp39
 70
     1
102
RTVSPost2010Prop40
 90
        0
102
RTVSPost2010PropOp40
 70
     1
102
RTVSPost2010Prop41ColorIndex
 90
       18
102
RTVSPost2010Prop41ColorRGB
 90
        0
102
RTVSPost2010PropOp41
 70
     1
102
RTVSPost2010Prop42
 90
       50
102
RTVSPost2010PropOp42
 70
     1
102
RTVSPost2010Prop43
 90
        3
102
RTVSPost2010PropOp43
 70
     1
102
RTVSPost2010Prop44ColorIndex
 90
        5
102
RTVSPost2010Prop44ColorRGB
 90
      255
102
RTVSPost2010PropOp44
 70
     1
102
RTVSPost2010Prop45
280
     0
102
RTVSPost2010PropOp45
 70
     1
102
RTVSPost2010Prop46
 90
       50
102
RTVSPost2010PropOp46
 70
     1
102
RTVSPost2010Prop47
 90
       50
102
RTVSPost2010PropOp47
 70
     1
102
RTVSPost2010Prop48
 90
       50
102
RTVSPost2010PropOp48
 70
     1
102
RTVSPost2010Prop49
280
     0
102
RTVSPost2010PropOp49
 70
     1
102
RTVSPost2010Prop50
 90
       50
102
RTVSPost2010PropOp50
 70
     1
102
RTVSPost2010Prop51ColorIndex
 90
      256
102
RTVSPost2010Prop51ColorRGB
 90
-16777216
102
RTVSPost2010PropOp51
 70
     0
102
RTVSPost2010Prop52
140
1.0
102
RTVSPost2010PropOp52
 70
     0
102
RTVSPost2010Prop53
 90
        2
102
RTVSPost2010PropOp53
 70
     1
102
RTVSPost2010Prop54
  1
strokes_ogs.tif
102
RTVSPost2010PropOp54
 70
     1
102
RTVSPost2010Prop55
280
     0
102
RTVSPost2010PropOp55
 70
     1
102
RTVSPost2010Prop56
140
1.0
102
RTVSPost2010PropOp56
 70
     1
102
RTVSPost2010Prop57
140
1.0
102
RTVSPost2010PropOp57
 70
     1
102
RTVSPropertyOp0
 70
     1
102
RTVSPropertyOp1
 70
     1
102
RTVSPropertyOp2
 70
     1
102
RTVSPropertyOp3
 70
     1
102
RTVSPropertyOp4
 70
     1
102
RTVSPropertyOp5
 70
     1
102
RTVSPropertyOp6
 70
     1
102
RTVSPropertyOp7
 70
     1
102
RTVSPropertyOp8
 70
     1
102
RTVSPropertyOp9
 70
     1
102
RTVSPropertyOp10
 70
     1
102
RTVSPropertyOp11
 70
     1
102
RTVSPropertyOp12
 70
     1
102
RTVSPropertyOp13
 70
     1
102
RTVSPropertyOp14
 70
     1
102
RTVSPropertyOp15
 70
     1
102
RTVSPropertyOp16
 70
     1
102
RTVSPropertyOp17
 70
     1
102
RTVSPropertyOp18
 70
     1
102
RTVSPropertyOp19
 70
     1
102
RTVSPropertyOp20
 70
     1
102
RTVSPropertyOp21
 70
     1
102
RTVSPropertyOp22
 70
     1
102
RTVSPropertyOp23
 70
     1
102
RTVSPropertyOp24
 70
     1
102
RTVSPropertyOp25
 70
     1
102
RTVSPropertyOp26
 70
     1
102
RTVSPropertyOp27
 70
     1
102
RTVSPropertyOp28
 70
     1
102
RTVSPropertyOp29
 70
     1
102
RTVSPropertyOp30
 70
     1
102
RTVSPropertyOp31
 70
     1
102
RTVSPropertyOp32
 70
     1
102
RTVSPropertyOp33
 70
     1
102
RTVSPropertyOp34
 70
     1
102
RTVSPropertyOp35
 70
     1
102
RTVSPropertyOp36
 70
     1
102
RTVSPropertyOp37
 70
     1
102
RTVSPropertyOp38
 70
     1
102
RTVSPropertyOp39
 70
     1
102
RTVSPropertyOp40
 70
     1
102
RTVSPropertyOp41
 70
     1
102
RTVSPropertyOp42
 70
     1
102
RTVSPropertyOp43
 70
     1
102
RTVSPropertyOp44
 70
     1
102
RTVSPropertyOp45
 70
     1
102
RTVSPropertyOp46
 70
     1
102
RTVSPropertyOp47
 70
     1
102
RTVSPropertyOp48
 70
     1
102
RTVSPropertyOp49
 70
     1
102
RTVSPropertyOp50
 70
     1
102
RTVSPropertyOp51
 70
     0
102
RTVSPropertyOp52
 70
     0
102
RTVSPropertyOp53
 70
     1
102
RTVSPropertyOp54
 70
     1
102
RTVSPropertyOp55
 70
     1
102
RTVSPropertyOp56
 70
     1
102
RTVSPropertyOp57
 70
     1
102
RTVSPropertyOp58
 70
     1
102
RTVSPropertyOp59
 70
     1
102
RTVSPropertyOp60
 70
     1
102
RTVSPropertyOp61
 70
     1
102
RTVSPropertyOp62
 70
     1
  0
XRECORD
  5
A169
102
{ACAD_REACTORS
330
A168
102
}
330
A168
100
AcDbXrecord
280
     1
102
RTVSPost2010Prop28
280
     0
102
RTVSPost2010PropOp28
 70
     1
102
RTVSPost2010Prop29
280
     1
102
RTVSPost2010PropOp29
 70
     1
102
RTVSPost2010Prop30
280
     1
102
RTVSPost2010PropOp30
 70
     1
102
RTVSPost2010Prop31
280
     0
102
RTVSPost2010PropOp31
 70
     1
102
RTVSPost2010Prop32
280
     0
102
RTVSPost2010PropOp32
 70
     1
102
RTVSPost2010Prop33
280
     0
102
RTVSPost2010PropOp33
 70
     1
102
RTVSPost2010Prop34
280
     0
102
RTVSPost2010PropOp34
 70
     1
102
RTVSPost2010Prop35
280
     0
102
RTVSPost2010PropOp35
 70
     1
102
RTVSPost2010Prop36
280
     0
102
RTVSPost2010PropOp36
 70
     1
102
RTVSPost2010Prop37
 90
       50
102
RTVSPost2010PropOp37
 70
     1
102
RTVSPost2010Prop38
140
0.0
102
RTVSPost2010PropOp38
 70
     1
102
RTVSPost2010Prop39
140
1.0
102
RTVSPost2010PropOp39
 70
     1
102
RTVSPost2010Prop40
 90
        0
102
RTVSPost2010PropOp40
 70
     1
102
RTVSPost2010Prop41ColorIndex
 90
       18
102
RTVSPost2010Prop41ColorRGB
 90
        0
102
RTVSPost2010PropOp41
 70
     1
102
RTVSPost2010Prop42
 90
       50
102
RTVSPost2010PropOp42
 70
     1
102
RTVSPost2010Prop43
 90
        3
102
RTVSPost2010PropOp43
 70
     1
102
RTVSPost2010Prop44ColorIndex
 90
        5
102
RTVSPost2010Prop44ColorRGB
 90
      255
102
RTVSPost2010PropOp44
 70
     1
102
RTVSPost2010Prop45
280
     0
102
RTVSPost2010PropOp45
 70
     1
102
RTVSPost2010Prop46
 90
       50
102
RTVSPost2010PropOp46
 70
     1
102
RTVSPost2010Prop47
 90
       50
102
RTVSPost2010PropOp47
 70
     1
102
RTVSPost2010Prop48
 90
       50
102
RTVSPost2010PropOp48
 70
     1
102
RTVSPost2010Prop49
280
     0
102
RTVSPost2010PropOp49
 70
     1
102
RTVSPost2010Prop50
 90
       50
102
RTVSPost2010PropOp50
 70
     1
102
RTVSPost2010Prop51ColorIndex
 90
      256
102
RTVSPost2010Prop51ColorRGB
 90
-16777216
102
RTVSPost2010PropOp51
 70
     0
102
RTVSPost2010Prop52
140
1.0
102
RTVSPost2010PropOp52
 70
     0
102
RTVSPost2010Prop53
 90
        2
102
RTVSPost2010PropOp53
 70
     1
102
RTVSPost2010Prop54
  1
strokes_ogs.tif
102
RTVSPost2010PropOp54
 70
     1
102
RTVSPost2010Prop55
280
     0
102
RTVSPost2010PropOp55
 70
     1
102
RTVSPost2010Prop56
140
1.0
102
RTVSPost2010PropOp56
 70
     1
102
RTVSPost2010Prop57
140
1.0
102
RTVSPost2010PropOp57
 70
     1
102
RTVSPropertyOp0
 70
     1
102
RTVSPropertyOp1
 70
     1
102
RTVSPropertyOp2
 70
     1
102
RTVSPropertyOp3
 70
     1
102
RTVSPropertyOp4
 70
     1
102
RTVSPropertyOp5
 70
     1
102
RTVSPropertyOp6
 70
     1
102
RTVSPropertyOp7
 70
     1
102
RTVSPropertyOp8
 70
     1
102
RTVSPropertyOp9
 70
     1
102
RTVSPropertyOp10
 70
     1
102
RTVSPropertyOp11
 70
     1
102
RTVSPropertyOp12
 70
     1
102
RTVSPropertyOp13
 70
     1
102
RTVSPropertyOp14
 70
     1
102
RTVSPropertyOp15
 70
     1
102
RTVSPropertyOp16
 70
     1
102
RTVSPropertyOp17
 70
     1
102
RTVSPropertyOp18
 70
     1
102
RTVSPropertyOp19
 70
     1
102
RTVSPropertyOp20
 70
     1
102
RTVSPropertyOp21
 70
     1
102
RTVSPropertyOp22
 70
     1
102
RTVSPropertyOp23
 70
     1
102
RTVSPropertyOp24
 70
     1
102
RTVSPropertyOp25
 70
     1
102
RTVSPropertyOp26
 70
     1
102
RTVSPropertyOp27
 70
     1
102
RTVSPropertyOp28
 70
     1
102
RTVSPropertyOp29
 70
     1
102
RTVSPropertyOp30
 70
     1
102
RTVSPropertyOp31
 70
     1
102
RTVSPropertyOp32
 70
     1
102
RTVSPropertyOp33
 70
     1
102
RTVSPropertyOp34
 70
     1
102
RTVSPropertyOp35
 70
     1
102
RTVSPropertyOp36
 70
     1
102
RTVSPropertyOp37
 70
     1
102
RTVSPropertyOp38
 70
     1
102
RTVSPropertyOp39
 70
     1
102
RTVSPropertyOp40
 70
     1
102
RTVSPropertyOp41
 70
     1
102
RTVSPropertyOp42
 70
     1
102
RTVSPropertyOp43
 70
     1
102
RTVSPropertyOp44
 70
     1
102
RTVSPropertyOp45
 70
     1
102
RTVSPropertyOp46
 70
     1
102
RTVSPropertyOp47
 70
     1
102
RTVSPropertyOp48
 70
     1
102
RTVSPropertyOp49
 70
     1
102
RTVSPropertyOp50
 70
     1
102
RTVSPropertyOp51
 70
     0
102
RTVSPropertyOp52
 70
     0
102
RTVSPropertyOp53
 70
     1
102
RTVSPropertyOp54
 70
     1
102
RTVSPropertyOp55
 70
     1
102
RTVSPropertyOp56
 70
     1
102
RTVSPropertyOp57
 70
     1
102
RTVSPropertyOp58
 70
     1
102
RTVSPropertyOp59
 70
     1
102
RTVSPropertyOp60
 70
     1
102
RTVSPropertyOp61
 70
     1
102
RTVSPropertyOp62
 70
     1
  0
XRECORD
  5
A167
102
{ACAD_REACTORS
330
A166
102
}
330
A166
100
AcDbXrecord
280
     1
102
RTVSPost2010Prop28
280
     0
102
RTVSPost2010PropOp28
 70
     1
102
RTVSPost2010Prop29
280
     1
102
RTVSPost2010PropOp29
 70
     1
102
RTVSPost2010Prop30
280
     1
102
RTVSPost2010PropOp30
 70
     1
102
RTVSPost2010Prop31
280
     0
102
RTVSPost2010PropOp31
 70
     1
102
RTVSPost2010Prop32
280
     0
102
RTVSPost2010PropOp32
 70
     1
102
RTVSPost2010Prop33
280
     0
102
RTVSPost2010PropOp33
 70
     1
102
RTVSPost2010Prop34
280
     0
102
RTVSPost2010PropOp34
 70
     1
102
RTVSPost2010Prop35
280
     0
102
RTVSPost2010PropOp35
 70
     1
102
RTVSPost2010Prop36
280
     0
102
RTVSPost2010PropOp36
 70
     1
102
RTVSPost2010Prop37
 90
       50
102
RTVSPost2010PropOp37
 70
     1
102
RTVSPost2010Prop38
140
0.0
102
RTVSPost2010PropOp38
 70
     1
102
RTVSPost2010Prop39
140
1.0
102
RTVSPost2010PropOp39
 70
     1
102
RTVSPost2010Prop40
 90
        0
102
RTVSPost2010PropOp40
 70
     1
102
RTVSPost2010Prop41ColorIndex
 90
       18
102
RTVSPost2010Prop41ColorRGB
 90
        0
102
RTVSPost2010PropOp41
 70
     1
102
RTVSPost2010Prop42
 90
       50
102
RTVSPost2010PropOp42
 70
     1
102
RTVSPost2010Prop43
 90
        3
102
RTVSPost2010PropOp43
 70
     1
102
RTVSPost2010Prop44ColorIndex
 90
        5
102
RTVSPost2010Prop44ColorRGB
 90
      255
102
RTVSPost2010PropOp44
 70
     1
102
RTVSPost2010Prop45
280
     0
102
RTVSPost2010PropOp45
 70
     1
102
RTVSPost2010Prop46
 90
       50
102
RTVSPost2010PropOp46
 70
     1
102
RTVSPost2010Prop47
 90
       50
102
RTVSPost2010PropOp47
 70
     1
102
RTVSPost2010Prop48
 90
       50
102
RTVSPost2010PropOp48
 70
     1
102
RTVSPost2010Prop49
280
     0
102
RTVSPost2010PropOp49
 70
     1
102
RTVSPost2010Prop50
 90
       50
102
RTVSPost2010PropOp50
 70
     1
102
RTVSPost2010Prop51ColorIndex
 90
      256
102
RTVSPost2010Prop51ColorRGB
 90
-16777216
102
RTVSPost2010PropOp51
 70
     0
102
RTVSPost2010Prop52
140
1.0
102
RTVSPost2010PropOp52
 70
     0
102
RTVSPost2010Prop53
 90
        2
102
RTVSPost2010PropOp53
 70
     1
102
RTVSPost2010Prop54
  1
strokes_ogs.tif
102
RTVSPost2010PropOp54
 70
     1
102
RTVSPost2010Prop55
280
     0
102
RTVSPost2010PropOp55
 70
     1
102
RTVSPost2010Prop56
140
1.0
102
RTVSPost2010PropOp56
 70
     1
102
RTVSPost2010Prop57
140
1.0
102
RTVSPost2010PropOp57
 70
     1
102
RTVSPropertyOp0
 70
     1
102
RTVSPropertyOp1
 70
     1
102
RTVSPropertyOp2
 70
     1
102
RTVSPropertyOp3
 70
     1
102
RTVSPropertyOp4
 70
     1
102
RTVSPropertyOp5
 70
     1
102
RTVSPropertyOp6
 70
     1
102
RTVSPropertyOp7
 70
     1
102
RTVSPropertyOp8
 70
     1
102
RTVSPropertyOp9
 70
     1
102
RTVSPropertyOp10
 70
     1
102
RTVSPropertyOp11
 70
     1
102
RTVSPropertyOp12
 70
     1
102
RTVSPropertyOp13
 70
     1
102
RTVSPropertyOp14
 70
     1
102
RTVSPropertyOp15
 70
     1
102
RTVSPropertyOp16
 70
     1
102
RTVSPropertyOp17
 70
     1
102
RTVSPropertyOp18
 70
     1
102
RTVSPropertyOp19
 70
     1
102
RTVSPropertyOp20
 70
     1
102
RTVSPropertyOp21
 70
     1
102
RTVSPropertyOp22
 70
     1
102
RTVSPropertyOp23
 70
     1
102
RTVSPropertyOp24
 70
     1
102
RTVSPropertyOp25
 70
     1
102
RTVSPropertyOp26
 70
     1
102
RTVSPropertyOp27
 70
     1
102
RTVSPropertyOp28
 70
     1
102
RTVSPropertyOp29
 70
     1
102
RTVSPropertyOp30
 70
     1
102
RTVSPropertyOp31
 70
     1
102
RTVSPropertyOp32
 70
     1
102
RTVSPropertyOp33
 70
     1
102
RTVSPropertyOp34
 70
     1
102
RTVSPropertyOp35
 70
     1
102
RTVSPropertyOp36
 70
     1
102
RTVSPropertyOp37
 70
     1
102
RTVSPropertyOp38
 70
     1
102
RTVSPropertyOp39
 70
     1
102
RTVSPropertyOp40
 70
     1
102
RTVSPropertyOp41
 70
     1
102
RTVSPropertyOp42
 70
     1
102
RTVSPropertyOp43
 70
     1
102
RTVSPropertyOp44
 70
     1
102
RTVSPropertyOp45
 70
     1
102
RTVSPropertyOp46
 70
     1
102
RTVSPropertyOp47
 70
     1
102
RTVSPropertyOp48
 70
     1
102
RTVSPropertyOp49
 70
     1
102
RTVSPropertyOp50
 70
     1
102
RTVSPropertyOp51
 70
     0
102
RTVSPropertyOp52
 70
     0
102
RTVSPropertyOp53
 70
     1
102
RTVSPropertyOp54
 70
     1
102
RTVSPropertyOp55
 70
     1
102
RTVSPropertyOp56
 70
     1
102
RTVSPropertyOp57
 70
     1
102
RTVSPropertyOp58
 70
     1
102
RTVSPropertyOp59
 70
     1
102
RTVSPropertyOp60
 70
     1
102
RTVSPropertyOp61
 70
     1
102
RTVSPropertyOp62
 70
     1
  0
XRECORD
  5
A161
102
{ACAD_REACTORS
330
A160
102
}
330
A160
100
AcDbXrecord
280
     1
102
RTVSPost2010Prop28
280
     0
102
RTVSPost2010PropOp28
 70
     1
102
RTVSPost2010Prop29
280
     1
102
RTVSPost2010PropOp29
 70
     1
102
RTVSPost2010Prop30
280
     1
102
RTVSPost2010PropOp30
 70
     1
102
RTVSPost2010Prop31
280
     0
102
RTVSPost2010PropOp31
 70
     1
102
RTVSPost2010Prop32
280
     0
102
RTVSPost2010PropOp32
 70
     1
102
RTVSPost2010Prop33
280
     0
102
RTVSPost2010PropOp33
 70
     1
102
RTVSPost2010Prop34
280
     0
102
RTVSPost2010PropOp34
 70
     1
102
RTVSPost2010Prop35
280
     0
102
RTVSPost2010PropOp35
 70
     1
102
RTVSPost2010Prop36
280
     0
102
RTVSPost2010PropOp36
 70
     1
102
RTVSPost2010Prop37
 90
       50
102
RTVSPost2010PropOp37
 70
     1
102
RTVSPost2010Prop38
140
0.0
102
RTVSPost2010PropOp38
 70
     1
102
RTVSPost2010Prop39
140
1.0
102
RTVSPost2010PropOp39
 70
     1
102
RTVSPost2010Prop40
 90
        0
102
RTVSPost2010PropOp40
 70
     1
102
RTVSPost2010Prop41ColorIndex
 90
       18
102
RTVSPost2010Prop41ColorRGB
 90
        0
102
RTVSPost2010PropOp41
 70
     1
102
RTVSPost2010Prop42
 90
       50
102
RTVSPost2010PropOp42
 70
     1
102
RTVSPost2010Prop43
 90
        3
102
RTVSPost2010PropOp43
 70
     1
102
RTVSPost2010Prop44ColorIndex
 90
        5
102
RTVSPost2010Prop44ColorRGB
 90
      255
102
RTVSPost2010PropOp44
 70
     1
102
RTVSPost2010Prop45
280
     0
102
RTVSPost2010PropOp45
 70
     1
102
RTVSPost2010Prop46
 90
       50
102
RTVSPost2010PropOp46
 70
     1
102
RTVSPost2010Prop47
 90
       50
102
RTVSPost2010PropOp47
 70
     1
102
RTVSPost2010Prop48
 90
       50
102
RTVSPost2010PropOp48
 70
     1
102
RTVSPost2010Prop49
280
     0
102
RTVSPost2010PropOp49
 70
     1
102
RTVSPost2010Prop50
 90
       50
102
RTVSPost2010PropOp50
 70
     1
102
RTVSPost2010Prop51ColorIndex
 90
      256
102
RTVSPost2010Prop51ColorRGB
 90
-16777216
102
RTVSPost2010PropOp51
 70
     0
102
RTVSPost2010Prop52
140
1.0
102
RTVSPost2010PropOp52
 70
     0
102
RTVSPost2010Prop53
 90
        2
102
RTVSPost2010PropOp53
 70
     1
102
RTVSPost2010Prop54
  1
strokes_ogs.tif
102
RTVSPost2010PropOp54
 70
     1
102
RTVSPost2010Prop55
280
     0
102
RTVSPost2010PropOp55
 70
     1
102
RTVSPost2010Prop56
140
1.0
102
RTVSPost2010PropOp56
 70
     1
102
RTVSPost2010Prop57
140
1.0
102
RTVSPost2010PropOp57
 70
     1
102
RTVSPropertyOp0
 70
     1
102
RTVSPropertyOp1
 70
     1
102
RTVSPropertyOp2
 70
     1
102
RTVSPropertyOp3
 70
     1
102
RTVSPropertyOp4
 70
     1
102
RTVSPropertyOp5
 70
     1
102
RTVSPropertyOp6
 70
     1
102
RTVSPropertyOp7
 70
     1
102
RTVSPropertyOp8
 70
     1
102
RTVSPropertyOp9
 70
     1
102
RTVSPropertyOp10
 70
     1
102
RTVSPropertyOp11
 70
     1
102
RTVSPropertyOp12
 70
     1
102
RTVSPropertyOp13
 70
     1
102
RTVSPropertyOp14
 70
     1
102
RTVSPropertyOp15
 70
     1
102
RTVSPropertyOp16
 70
     1
102
RTVSPropertyOp17
 70
     1
102
RTVSPropertyOp18
 70
     1
102
RTVSPropertyOp19
 70
     1
102
RTVSPropertyOp20
 70
     1
102
RTVSPropertyOp21
 70
     1
102
RTVSPropertyOp22
 70
     1
102
RTVSPropertyOp23
 70
     1
102
RTVSPropertyOp24
 70
     1
102
RTVSPropertyOp25
 70
     1
102
RTVSPropertyOp26
 70
     1
102
RTVSPropertyOp27
 70
     1
102
RTVSPropertyOp28
 70
     1
102
RTVSPropertyOp29
 70
     1
102
RTVSPropertyOp30
 70
     1
102
RTVSPropertyOp31
 70
     1
102
RTVSPropertyOp32
 70
     1
102
RTVSPropertyOp33
 70
     1
102
RTVSPropertyOp34
 70
     1
102
RTVSPropertyOp35
 70
     1
102
RTVSPropertyOp36
 70
     1
102
RTVSPropertyOp37
 70
     1
102
RTVSPropertyOp38
 70
     1
102
RTVSPropertyOp39
 70
     1
102
RTVSPropertyOp40
 70
     1
102
RTVSPropertyOp41
 70
     1
102
RTVSPropertyOp42
 70
     1
102
RTVSPropertyOp43
 70
     1
102
RTVSPropertyOp44
 70
     1
102
RTVSPropertyOp45
 70
     1
102
RTVSPropertyOp46
 70
     1
102
RTVSPropertyOp47
 70
     1
102
RTVSPropertyOp48
 70
     1
102
RTVSPropertyOp49
 70
     1
102
RTVSPropertyOp50
 70
     1
102
RTVSPropertyOp51
 70
     0
102
RTVSPropertyOp52
 70
     0
102
RTVSPropertyOp53
 70
     1
102
RTVSPropertyOp54
 70
     1
102
RTVSPropertyOp55
 70
     1
102
RTVSPropertyOp56
 70
     1
102
RTVSPropertyOp57
 70
     1
102
RTVSPropertyOp58
 70
     1
102
RTVSPropertyOp59
 70
     1
102
RTVSPropertyOp60
 70
     1
102
RTVSPropertyOp61
 70
     1
102
RTVSPropertyOp62
 70
     1
  0
XRECORD
  5
A163
102
{ACAD_REACTORS
330
A162
102
}
330
A162
100
AcDbXrecord
280
     1
102
RTVSPost2010Prop28
280
     0
102
RTVSPost2010PropOp28
 70
     1
102
RTVSPost2010Prop29
280
     1
102
RTVSPost2010PropOp29
 70
     1
102
RTVSPost2010Prop30
280
     1
102
RTVSPost2010PropOp30
 70
     1
102
RTVSPost2010Prop31
280
     0
102
RTVSPost2010PropOp31
 70
     1
102
RTVSPost2010Prop32
280
     0
102
RTVSPost2010PropOp32
 70
     1
102
RTVSPost2010Prop33
280
     0
102
RTVSPost2010PropOp33
 70
     1
102
RTVSPost2010Prop34
280
     0
102
RTVSPost2010PropOp34
 70
     1
102
RTVSPost2010Prop35
280
     0
102
RTVSPost2010PropOp35
 70
     1
102
RTVSPost2010Prop36
280
     0
102
RTVSPost2010PropOp36
 70
     1
102
RTVSPost2010Prop37
 90
       50
102
RTVSPost2010PropOp37
 70
     1
102
RTVSPost2010Prop38
140
0.0
102
RTVSPost2010PropOp38
 70
     1
102
RTVSPost2010Prop39
140
1.0
102
RTVSPost2010PropOp39
 70
     1
102
RTVSPost2010Prop40
 90
        0
102
RTVSPost2010PropOp40
 70
     1
102
RTVSPost2010Prop41ColorIndex
 90
       18
102
RTVSPost2010Prop41ColorRGB
 90
        0
102
RTVSPost2010PropOp41
 70
     1
102
RTVSPost2010Prop42
 90
       50
102
RTVSPost2010PropOp42
 70
     1
102
RTVSPost2010Prop43
 90
        3
102
RTVSPost2010PropOp43
 70
     1
102
RTVSPost2010Prop44ColorIndex
 90
        5
102
RTVSPost2010Prop44ColorRGB
 90
      255
102
RTVSPost2010PropOp44
 70
     1
102
RTVSPost2010Prop45
280
     0
102
RTVSPost2010PropOp45
 70
     1
102
RTVSPost2010Prop46
 90
       50
102
RTVSPost2010PropOp46
 70
     1
102
RTVSPost2010Prop47
 90
       50
102
RTVSPost2010PropOp47
 70
     1
102
RTVSPost2010Prop48
 90
       50
102
RTVSPost2010PropOp48
 70
     1
102
RTVSPost2010Prop49
280
     0
102
RTVSPost2010PropOp49
 70
     1
102
RTVSPost2010Prop50
 90
       50
102
RTVSPost2010PropOp50
 70
     1
102
RTVSPost2010Prop51ColorIndex
 90
      256
102
RTVSPost2010Prop51ColorRGB
 90
-16777216
102
RTVSPost2010PropOp51
 70
     0
102
RTVSPost2010Prop52
140
1.0
102
RTVSPost2010PropOp52
 70
     0
102
RTVSPost2010Prop53
 90
        2
102
RTVSPost2010PropOp53
 70
     1
102
RTVSPost2010Prop54
  1
strokes_ogs.tif
102
RTVSPost2010PropOp54
 70
     1
102
RTVSPost2010Prop55
280
     0
102
RTVSPost2010PropOp55
 70
     1
102
RTVSPost2010Prop56
140
1.0
102
RTVSPost2010PropOp56
 70
     1
102
RTVSPost2010Prop57
140
1.0
102
RTVSPost2010PropOp57
 70
     1
102
RTVSPropertyOp0
 70
     1
102
RTVSPropertyOp1
 70
     1
102
RTVSPropertyOp2
 70
     1
102
RTVSPropertyOp3
 70
     1
102
RTVSPropertyOp4
 70
     1
102
RTVSPropertyOp5
 70
     1
102
RTVSPropertyOp6
 70
     1
102
RTVSPropertyOp7
 70
     1
102
RTVSPropertyOp8
 70
     1
102
RTVSPropertyOp9
 70
     1
102
RTVSPropertyOp10
 70
     1
102
RTVSPropertyOp11
 70
     1
102
RTVSPropertyOp12
 70
     1
102
RTVSPropertyOp13
 70
     1
102
RTVSPropertyOp14
 70
     1
102
RTVSPropertyOp15
 70
     1
102
RTVSPropertyOp16
 70
     1
102
RTVSPropertyOp17
 70
     1
102
RTVSPropertyOp18
 70
     1
102
RTVSPropertyOp19
 70
     1
102
RTVSPropertyOp20
 70
     1
102
RTVSPropertyOp21
 70
     1
102
RTVSPropertyOp22
 70
     1
102
RTVSPropertyOp23
 70
     1
102
RTVSPropertyOp24
 70
     1
102
RTVSPropertyOp25
 70
     1
102
RTVSPropertyOp26
 70
     1
102
RTVSPropertyOp27
 70
     1
102
RTVSPropertyOp28
 70
     1
102
RTVSPropertyOp29
 70
     1
102
RTVSPropertyOp30
 70
     1
102
RTVSPropertyOp31
 70
     1
102
RTVSPropertyOp32
 70
     1
102
RTVSPropertyOp33
 70
     1
102
RTVSPropertyOp34
 70
     1
102
RTVSPropertyOp35
 70
     1
102
RTVSPropertyOp36
 70
     1
102
RTVSPropertyOp37
 70
     1
102
RTVSPropertyOp38
 70
     1
102
RTVSPropertyOp39
 70
     1
102
RTVSPropertyOp40
 70
     1
102
RTVSPropertyOp41
 70
     1
102
RTVSPropertyOp42
 70
     1
102
RTVSPropertyOp43
 70
     1
102
RTVSPropertyOp44
 70
     1
102
RTVSPropertyOp45
 70
     1
102
RTVSPropertyOp46
 70
     1
102
RTVSPropertyOp47
 70
     1
102
RTVSPropertyOp48
 70
     1
102
RTVSPropertyOp49
 70
     1
102
RTVSPropertyOp50
 70
     1
102
RTVSPropertyOp51
 70
     0
102
RTVSPropertyOp52
 70
     0
102
RTVSPropertyOp53
 70
     1
102
RTVSPropertyOp54
 70
     1
102
RTVSPropertyOp55
 70
     1
102
RTVSPropertyOp56
 70
     1
102
RTVSPropertyOp57
 70
     1
102
RTVSPropertyOp58
 70
     1
102
RTVSPropertyOp59
 70
     1
102
RTVSPropertyOp60
 70
     1
102
RTVSPropertyOp61
 70
     1
102
RTVSPropertyOp62
 70
     1
  0
XRECORD
  5
A159
102
{ACAD_REACTORS
330
A158
102
}
330
A158
100
AcDbXrecord
280
     1
102
RTVSPost2010Prop28
280
     0
102
RTVSPost2010PropOp28
 70
     1
102
RTVSPost2010Prop29
280
     1
102
RTVSPost2010PropOp29
 70
     1
102
RTVSPost2010Prop30
280
     1
102
RTVSPost2010PropOp30
 70
     1
102
RTVSPost2010Prop31
280
     0
102
RTVSPost2010PropOp31
 70
     1
102
RTVSPost2010Prop32
280
     0
102
RTVSPost2010PropOp32
 70
     1
102
RTVSPost2010Prop33
280
     0
102
RTVSPost2010PropOp33
 70
     1
102
RTVSPost2010Prop34
280
     0
102
RTVSPost2010PropOp34
 70
     1
102
RTVSPost2010Prop35
280
     0
102
RTVSPost2010PropOp35
 70
     1
102
RTVSPost2010Prop36
280
     0
102
RTVSPost2010PropOp36
 70
     1
102
RTVSPost2010Prop37
 90
       50
102
RTVSPost2010PropOp37
 70
     1
102
RTVSPost2010Prop38
140
0.0
102
RTVSPost2010PropOp38
 70
     1
102
RTVSPost2010Prop39
140
1.0
102
RTVSPost2010PropOp39
 70
     1
102
RTVSPost2010Prop40
 90
        0
102
RTVSPost2010PropOp40
 70
     1
102
RTVSPost2010Prop41ColorIndex
 90
       18
102
RTVSPost2010Prop41ColorRGB
 90
        0
102
RTVSPost2010PropOp41
 70
     1
102
RTVSPost2010Prop42
 90
       50
102
RTVSPost2010PropOp42
 70
     1
102
RTVSPost2010Prop43
 90
        3
102
RTVSPost2010PropOp43
 70
     1
102
RTVSPost2010Prop44ColorIndex
 90
        5
102
RTVSPost2010Prop44ColorRGB
 90
      255
102
RTVSPost2010PropOp44
 70
     1
102
RTVSPost2010Prop45
280
     0
102
RTVSPost2010PropOp45
 70
     1
102
RTVSPost2010Prop46
 90
       50
102
RTVSPost2010PropOp46
 70
     1
102
RTVSPost2010Prop47
 90
       50
102
RTVSPost2010PropOp47
 70
     1
102
RTVSPost2010Prop48
 90
       50
102
RTVSPost2010PropOp48
 70
     1
102
RTVSPost2010Prop49
280
     0
102
RTVSPost2010PropOp49
 70
     1
102
RTVSPost2010Prop50
 90
       50
102
RTVSPost2010PropOp50
 70
     1
102
RTVSPost2010Prop51ColorIndex
 90
      256
102
RTVSPost2010Prop51ColorRGB
 90
-16777216
102
RTVSPost2010PropOp51
 70
     0
102
RTVSPost2010Prop52
140
1.0
102
RTVSPost2010PropOp52
 70
     0
102
RTVSPost2010Prop53
 90
        2
102
RTVSPost2010PropOp53
 70
     1
102
RTVSPost2010Prop54
  1
strokes_ogs.tif
102
RTVSPost2010PropOp54
 70
     1
102
RTVSPost2010Prop55
280
     0
102
RTVSPost2010PropOp55
 70
     1
102
RTVSPost2010Prop56
140
1.0
102
RTVSPost2010PropOp56
 70
     1
102
RTVSPost2010Prop57
140
1.0
102
RTVSPost2010PropOp57
 70
     1
102
RTVSPropertyOp0
 70
     1
102
RTVSPropertyOp1
 70
     1
102
RTVSPropertyOp2
 70
     1
102
RTVSPropertyOp3
 70
     1
102
RTVSPropertyOp4
 70
     1
102
RTVSPropertyOp5
 70
     1
102
RTVSPropertyOp6
 70
     1
102
RTVSPropertyOp7
 70
     1
102
RTVSPropertyOp8
 70
     1
102
RTVSPropertyOp9
 70
     1
102
RTVSPropertyOp10
 70
     1
102
RTVSPropertyOp11
 70
     1
102
RTVSPropertyOp12
 70
     1
102
RTVSPropertyOp13
 70
     1
102
RTVSPropertyOp14
 70
     1
102
RTVSPropertyOp15
 70
     1
102
RTVSPropertyOp16
 70
     1
102
RTVSPropertyOp17
 70
     1
102
RTVSPropertyOp18
 70
     1
102
RTVSPropertyOp19
 70
     1
102
RTVSPropertyOp20
 70
     1
102
RTVSPropertyOp21
 70
     1
102
RTVSPropertyOp22
 70
     1
102
RTVSPropertyOp23
 70
     1
102
RTVSPropertyOp24
 70
     1
102
RTVSPropertyOp25
 70
     1
102
RTVSPropertyOp26
 70
     1
102
RTVSPropertyOp27
 70
     1
102
RTVSPropertyOp28
 70
     1
102
RTVSPropertyOp29
 70
     1
102
RTVSPropertyOp30
 70
     1
102
RTVSPropertyOp31
 70
     1
102
RTVSPropertyOp32
 70
     1
102
RTVSPropertyOp33
 70
     1
102
RTVSPropertyOp34
 70
     1
102
RTVSPropertyOp35
 70
     1
102
RTVSPropertyOp36
 70
     1
102
RTVSPropertyOp37
 70
     1
102
RTVSPropertyOp38
 70
     1
102
RTVSPropertyOp39
 70
     1
102
RTVSPropertyOp40
 70
     1
102
RTVSPropertyOp41
 70
     1
102
RTVSPropertyOp42
 70
     1
102
RTVSPropertyOp43
 70
     1
102
RTVSPropertyOp44
 70
     1
102
RTVSPropertyOp45
 70
     1
102
RTVSPropertyOp46
 70
     1
102
RTVSPropertyOp47
 70
     1
102
RTVSPropertyOp48
 70
     1
102
RTVSPropertyOp49
 70
     1
102
RTVSPropertyOp50
 70
     1
102
RTVSPropertyOp51
 70
     0
102
RTVSPropertyOp52
 70
     0
102
RTVSPropertyOp53
 70
     1
102
RTVSPropertyOp54
 70
     1
102
RTVSPropertyOp55
 70
     1
102
RTVSPropertyOp56
 70
     1
102
RTVSPropertyOp57
 70
     1
102
RTVSPropertyOp58
 70
     1
102
RTVSPropertyOp59
 70
     1
102
RTVSPropertyOp60
 70
     1
102
RTVSPropertyOp61
 70
     1
102
RTVSPropertyOp62
 70
     1
  0
XRECORD
  5
A14D
102
{ACAD_REACTORS
330
A14C
102
}
330
A14C
100
AcDbXrecord
280
     1
102
RTVSPost2010Prop28
280
     0
102
RTVSPost2010PropOp28
 70
     1
102
RTVSPost2010Prop29
280
     1
102
RTVSPost2010PropOp29
 70
     1
102
RTVSPost2010Prop30
280
     1
102
RTVSPost2010PropOp30
 70
     1
102
RTVSPost2010Prop31
280
     0
102
RTVSPost2010PropOp31
 70
     1
102
RTVSPost2010Prop32
280
     0
102
RTVSPost2010PropOp32
 70
     1
102
RTVSPost2010Prop33
280
     0
102
RTVSPost2010PropOp33
 70
     1
102
RTVSPost2010Prop34
280
     0
102
RTVSPost2010PropOp34
 70
     1
102
RTVSPost2010Prop35
280
     0
102
RTVSPost2010PropOp35
 70
     1
102
RTVSPost2010Prop36
280
     0
102
RTVSPost2010PropOp36
 70
     1
102
RTVSPost2010Prop37
 90
       50
102
RTVSPost2010PropOp37
 70
     1
102
RTVSPost2010Prop38
140
0.0
102
RTVSPost2010PropOp38
 70
     1
102
RTVSPost2010Prop39
140
1.0
102
RTVSPost2010PropOp39
 70
     1
102
RTVSPost2010Prop40
 90
        0
102
RTVSPost2010PropOp40
 70
     1
102
RTVSPost2010Prop41ColorIndex
 90
       18
102
RTVSPost2010Prop41ColorRGB
 90
        0
102
RTVSPost2010PropOp41
 70
     1
102
RTVSPost2010Prop42
 90
       50
102
RTVSPost2010PropOp42
 70
     1
102
RTVSPost2010Prop43
 90
        3
102
RTVSPost2010PropOp43
 70
     1
102
RTVSPost2010Prop44ColorIndex
 90
        5
102
RTVSPost2010Prop44ColorRGB
 90
      255
102
RTVSPost2010PropOp44
 70
     1
102
RTVSPost2010Prop45
280
     0
102
RTVSPost2010PropOp45
 70
     1
102
RTVSPost2010Prop46
 90
       50
102
RTVSPost2010PropOp46
 70
     1
102
RTVSPost2010Prop47
 90
       50
102
RTVSPost2010PropOp47
 70
     1
102
RTVSPost2010Prop48
 90
       50
102
RTVSPost2010PropOp48
 70
     1
102
RTVSPost2010Prop49
280
     0
102
RTVSPost2010PropOp49
 70
     1
102
RTVSPost2010Prop50
 90
       50
102
RTVSPost2010PropOp50
 70
     1
102
RTVSPost2010Prop51ColorIndex
 90
      256
102
RTVSPost2010Prop51ColorRGB
 90
-16777216
102
RTVSPost2010PropOp51
 70
     0
102
RTVSPost2010Prop52
140
1.0
102
RTVSPost2010PropOp52
 70
     0
102
RTVSPost2010Prop53
 90
        2
102
RTVSPost2010PropOp53
 70
     1
102
RTVSPost2010Prop54
  1
strokes_ogs.tif
102
RTVSPost2010PropOp54
 70
     1
102
RTVSPost2010Prop55
280
     0
102
RTVSPost2010PropOp55
 70
     1
102
RTVSPost2010Prop56
140
1.0
102
RTVSPost2010PropOp56
 70
     1
102
RTVSPost2010Prop57
140
1.0
102
RTVSPost2010PropOp57
 70
     1
102
RTVSPropertyOp0
 70
     1
102
RTVSPropertyOp1
 70
     1
102
RTVSPropertyOp2
 70
     1
102
RTVSPropertyOp3
 70
     1
102
RTVSPropertyOp4
 70
     1
102
RTVSPropertyOp5
 70
     1
102
RTVSPropertyOp6
 70
     1
102
RTVSPropertyOp7
 70
     1
102
RTVSPropertyOp8
 70
     1
102
RTVSPropertyOp9
 70
     1
102
RTVSPropertyOp10
 70
     1
102
RTVSPropertyOp11
 70
     1
102
RTVSPropertyOp12
 70
     1
102
RTVSPropertyOp13
 70
     1
102
RTVSPropertyOp14
 70
     1
102
RTVSPropertyOp15
 70
     1
102
RTVSPropertyOp16
 70
     1
102
RTVSPropertyOp17
 70
     1
102
RTVSPropertyOp18
 70
     1
102
RTVSPropertyOp19
 70
     1
102
RTVSPropertyOp20
 70
     1
102
RTVSPropertyOp21
 70
     1
102
RTVSPropertyOp22
 70
     1
102
RTVSPropertyOp23
 70
     1
102
RTVSPropertyOp24
 70
     1
102
RTVSPropertyOp25
 70
     1
102
RTVSPropertyOp26
 70
     1
102
RTVSPropertyOp27
 70
     1
102
RTVSPropertyOp28
 70
     1
102
RTVSPropertyOp29
 70
     1
102
RTVSPropertyOp30
 70
     1
102
RTVSPropertyOp31
 70
     1
102
RTVSPropertyOp32
 70
     1
102
RTVSPropertyOp33
 70
     1
102
RTVSPropertyOp34
 70
     1
102
RTVSPropertyOp35
 70
     1
102
RTVSPropertyOp36
 70
     1
102
RTVSPropertyOp37
 70
     1
102
RTVSPropertyOp38
 70
     1
102
RTVSPropertyOp39
 70
     1
102
RTVSPropertyOp40
 70
     1
102
RTVSPropertyOp41
 70
     1
102
RTVSPropertyOp42
 70
     1
102
RTVSPropertyOp43
 70
     1
102
RTVSPropertyOp44
 70
     1
102
RTVSPropertyOp45
 70
     1
102
RTVSPropertyOp46
 70
     1
102
RTVSPropertyOp47
 70
     1
102
RTVSPropertyOp48
 70
     1
102
RTVSPropertyOp49
 70
     1
102
RTVSPropertyOp50
 70
     1
102
RTVSPropertyOp51
 70
     0
102
RTVSPropertyOp52
 70
     0
102
RTVSPropertyOp53
 70
     1
102
RTVSPropertyOp54
 70
     1
102
RTVSPropertyOp55
 70
     1
102
RTVSPropertyOp56
 70
     1
102
RTVSPropertyOp57
 70
     1
102
RTVSPropertyOp58
 70
     1
102
RTVSPropertyOp59
 70
     1
102
RTVSPropertyOp60
 70
     1
102
RTVSPropertyOp61
 70
     1
102
RTVSPropertyOp62
 70
     1
  0
XRECORD
  5
A165
102
{ACAD_REACTORS
330
A164
102
}
330
A164
100
AcDbXrecord
280
     1
102
RTVSPost2010Prop28
280
     0
102
RTVSPost2010PropOp28
 70
     1
102
RTVSPost2010Prop29
280
     1
102
RTVSPost2010PropOp29
 70
     1
102
RTVSPost2010Prop30
280
     1
102
RTVSPost2010PropOp30
 70
     1
102
RTVSPost2010Prop31
280
     0
102
RTVSPost2010PropOp31
 70
     1
102
RTVSPost2010Prop32
280
     0
102
RTVSPost2010PropOp32
 70
     1
102
RTVSPost2010Prop33
280
     0
102
RTVSPost2010PropOp33
 70
     1
102
RTVSPost2010Prop34
280
     0
102
RTVSPost2010PropOp34
 70
     1
102
RTVSPost2010Prop35
280
     0
102
RTVSPost2010PropOp35
 70
     1
102
RTVSPost2010Prop36
280
     0
102
RTVSPost2010PropOp36
 70
     1
102
RTVSPost2010Prop37
 90
       50
102
RTVSPost2010PropOp37
 70
     1
102
RTVSPost2010Prop38
140
0.0
102
RTVSPost2010PropOp38
 70
     1
102
RTVSPost2010Prop39
140
1.0
102
RTVSPost2010PropOp39
 70
     1
102
RTVSPost2010Prop40
 90
        0
102
RTVSPost2010PropOp40
 70
     1
102
RTVSPost2010Prop41ColorIndex
 90
       18
102
RTVSPost2010Prop41ColorRGB
 90
        0
102
RTVSPost2010PropOp41
 70
     1
102
RTVSPost2010Prop42
 90
       50
102
RTVSPost2010PropOp42
 70
     1
102
RTVSPost2010Prop43
 90
        3
102
RTVSPost2010PropOp43
 70
     1
102
RTVSPost2010Prop44ColorIndex
 90
        5
102
RTVSPost2010Prop44ColorRGB
 90
      255
102
RTVSPost2010PropOp44
 70
     1
102
RTVSPost2010Prop45
280
     0
102
RTVSPost2010PropOp45
 70
     1
102
RTVSPost2010Prop46
 90
       50
102
RTVSPost2010PropOp46
 70
     1
102
RTVSPost2010Prop47
 90
       50
102
RTVSPost2010PropOp47
 70
     1
102
RTVSPost2010Prop48
 90
       50
102
RTVSPost2010PropOp48
 70
     1
102
RTVSPost2010Prop49
280
     0
102
RTVSPost2010PropOp49
 70
     1
102
RTVSPost2010Prop50
 90
       50
102
RTVSPost2010PropOp50
 70
     1
102
RTVSPost2010Prop51ColorIndex
 90
      256
102
RTVSPost2010Prop51ColorRGB
 90
-16777216
102
RTVSPost2010PropOp51
 70
     0
102
RTVSPost2010Prop52
140
1.0
102
RTVSPost2010PropOp52
 70
     0
102
RTVSPost2010Prop53
 90
        2
102
RTVSPost2010PropOp53
 70
     1
102
RTVSPost2010Prop54
  1
strokes_ogs.tif
102
RTVSPost2010PropOp54
 70
     1
102
RTVSPost2010Prop55
280
     0
102
RTVSPost2010PropOp55
 70
     1
102
RTVSPost2010Prop56
140
1.0
102
RTVSPost2010PropOp56
 70
     1
102
RTVSPost2010Prop57
140
1.0
102
RTVSPost2010PropOp57
 70
     1
102
RTVSPropertyOp0
 70
     1
102
RTVSPropertyOp1
 70
     1
102
RTVSPropertyOp2
 70
     1
102
RTVSPropertyOp3
 70
     1
102
RTVSPropertyOp4
 70
     1
102
RTVSPropertyOp5
 70
     1
102
RTVSPropertyOp6
 70
     1
102
RTVSPropertyOp7
 70
     1
102
RTVSPropertyOp8
 70
     1
102
RTVSPropertyOp9
 70
     1
102
RTVSPropertyOp10
 70
     1
102
RTVSPropertyOp11
 70
     1
102
RTVSPropertyOp12
 70
     1
102
RTVSPropertyOp13
 70
     1
102
RTVSPropertyOp14
 70
     1
102
RTVSPropertyOp15
 70
     1
102
RTVSPropertyOp16
 70
     1
102
RTVSPropertyOp17
 70
     1
102
RTVSPropertyOp18
 70
     1
102
RTVSPropertyOp19
 70
     1
102
RTVSPropertyOp20
 70
     1
102
RTVSPropertyOp21
 70
     1
102
RTVSPropertyOp22
 70
     1
102
RTVSPropertyOp23
 70
     1
102
RTVSPropertyOp24
 70
     1
102
RTVSPropertyOp25
 70
     1
102
RTVSPropertyOp26
 70
     1
102
RTVSPropertyOp27
 70
     1
102
RTVSPropertyOp28
 70
     1
102
RTVSPropertyOp29
 70
     1
102
RTVSPropertyOp30
 70
     1
102
RTVSPropertyOp31
 70
     1
102
RTVSPropertyOp32
 70
     1
102
RTVSPropertyOp33
 70
     1
102
RTVSPropertyOp34
 70
     1
102
RTVSPropertyOp35
 70
     1
102
RTVSPropertyOp36
 70
     1
102
RTVSPropertyOp37
 70
     1
102
RTVSPropertyOp38
 70
     1
102
RTVSPropertyOp39
 70
     1
102
RTVSPropertyOp40
 70
     1
102
RTVSPropertyOp41
 70
     1
102
RTVSPropertyOp42
 70
     1
102
RTVSPropertyOp43
 70
     1
102
RTVSPropertyOp44
 70
     1
102
RTVSPropertyOp45
 70
     1
102
RTVSPropertyOp46
 70
     1
102
RTVSPropertyOp47
 70
     1
102
RTVSPropertyOp48
 70
     1
102
RTVSPropertyOp49
 70
     1
102
RTVSPropertyOp50
 70
     1
102
RTVSPropertyOp51
 70
     0
102
RTVSPropertyOp52
 70
     0
102
RTVSPropertyOp53
 70
     1
102
RTVSPropertyOp54
 70
     1
102
RTVSPropertyOp55
 70
     1
102
RTVSPropertyOp56
 70
     1
102
RTVSPropertyOp57
 70
     1
102
RTVSPropertyOp58
 70
     1
102
RTVSPropertyOp59
 70
     1
102
RTVSPropertyOp60
 70
     1
102
RTVSPropertyOp61
 70
     1
102
RTVSPropertyOp62
 70
     1
  0
ENDSEC
  0
EOF
