  0
SECTION
  2
HEADER
  9
$ACADVER
  1
AC1015
  9
$ACADMAINTVER
 70
    20
  9
$DWGCODEPAGE
  3
ANSI_932
  9
$INSBASE
 10
0.0
 20
0.0
 30
0.0
  9
$EXTMIN
 10
9.740218999999999
 20
9.999999999999998
 30
0.0
  9
$EXTMAX
 10
375.739323
 20
192.780459
 30
0.0
  9
$LIMMIN
 10
0.0
 20
0.0
  9
$LIMMAX
 10
396.0
 20
273.0
  9
$ORTHOMODE
 70
     1
  9
$REGENMODE
 70
     1
  9
$FILLMODE
 70
     1
  9
$QTEXTMODE
 70
     0
  9
$MIRRTEXT
 70
     1
  9
$LTSCALE
 40
20.0
  9
$ATTMODE
 70
     1
  9
$TEXTSIZE
 40
5.0
  9
$TRACEWID
 40
1.0
  9
$TEXTSTYLE
  7
STANDARD
  9
$CLAYER
  8
0
  9
$CELTYPE
  6
BYLAYER
  9
$CECOLOR
 62
   256
  9
$CELTSCALE
 40
1.0
  9
$DISPSILH
 70
     0
  9
$DIMSCALE
 40
1.0
  9
$DIMASZ
 40
3.0
  9
$DIMEXO
 40
1.0
  9
$DIMDLI
 40
10.0
  9
$DIMRND
 40
0.0
  9
$DIMDLE
 40
0.0
  9
$DIMEXE
 40
1.0
  9
$DIMTP
 40
0.0
  9
$DIMTM
 40
0.0
  9
$DIMTXT
 40
3.2
  9
$DIMCEN
 40
0.0
  9
$DIMTSZ
 40
0.0
  9
$DIMTOL
 70
     0
  9
$DIMLIM
 70
     0
  9
$DIMTIH
 70
     0
  9
$DIMTOH
 70
     0
  9
$DIMSE1
 70
     0
  9
$DIMSE2
 70
     0
  9
$DIMTAD
 70
     3
  9
$DIMZIN
 70
     8
  9
$DIMBLK
  1

  9
$DIMASO
 70
     1
  9
$DIMSHO
 70
     1
  9
$DIMPOST
  1

  9
$DIMAPOST
  1

  9
$DIMALT
 70
     0
  9
$DIMALTD
 70
     2
  9
$DIMALTF
 40
25.4
  9
$DIMLFAC
 40
1.0
  9
$DIMTOFL
 70
     1
  9
$DIMTVP
 40
0.0
  9
$DIMTIX
 70
     0
  9
$DIMSOXD
 70
     0
  9
$DIMSAH
 70
     1
  9
$DIMBLK1
  1

  9
$DIMBLK2
  1

  9
$DIMSTYLE
  2
STANDARD
  9
$DIMCLRD
 70
     0
  9
$DIMCLRE
 70
     0
  9
$DIMCLRT
 70
     0
  9
$DIMTFAC
 40
1.0
  9
$DIMGAP
 40
1.0
  9
$DIMJUST
 70
     0
  9
$DIMSD1
 70
     0
  9
$DIMSD2
 70
     0
  9
$DIMTOLJ
 70
     1
  9
$DIMTZIN
 70
     0
  9
$DIMALTZ
 70
     0
  9
$DIMALTTZ
 70
     0
  9
$DIMUPT
 70
     0
  9
$DIMDEC
 70
     4
  9
$DIMTDEC
 70
     4
  9
$DIMALTU
 70
     2
  9
$DIMALTTD
 70
     2
  9
$DIMTXSTY
  7
STANDARD
  9
$DIMAUNIT
 70
     0
  9
$DIMADEC
 70
     0
  9
$DIMALTRND
 40
0.0
  9
$DIMAZIN
 70
     0
  9
$DIMDSEP
 70
    46
  9
$DIMATFIT
 70
     3
  9
$DIMFRAC
 70
     0
  9
$DIMLDRBLK
  1

  9
$DIMLUNIT
 70
     2
  9
$DIMLWD
 70
    -2
  9
$DIMLWE
 70
    -2
  9
$DIMTMOVE
 70
     0
  9
$LUNITS
 70
     2
  9
$LUPREC
 70
     4
  9
$SKETCHINC
 40
1.0
  9
$FILLETRAD
 40
0.0
  9
$AUNITS
 70
     0
  9
$AUPREC
 70
     2
  9
$MENU
  1
.
  9
$ELEVATION
 40
0.0
  9
$PELEVATION
 40
0.0
  9
$THICKNESS
 40
0.0
  9
$LIMCHECK
 70
     0
  9
$CHAMFERA
 40
10.0
  9
$CHAMFERB
 40
10.0
  9
$CHAMFERC
 40
0.0
  9
$CHAMFERD
 40
0.0
  9
$SKPOLY
 70
     0
  9
$TDCREATE
 40
2450950.420538542
  9
$TDUCREATE
 40
2450950.045538542
  9
$TDUPDATE
 40
2457192.603795833
  9
$TDUUPDATE
 40
2457192.228795833
  9
$TDINDWG
 40
0.0000153588
  9
$TDUSRTIMER
 40
0.0000150463
  9
$USRTIMER
 70
     1
  9
$ANGBASE
 50
0.0
  9
$ANGDIR
 70
     0
  9
$PDMODE
 70
     0
  9
$PDSIZE
 40
0.0
  9
$PLINEWID
 40
0.0
  9
$SPLFRAME
 70
     0
  9
$SPLINETYPE
 70
     6
  9
$SPLINESEGS
 70
     8
  9
$HANDSEED
  5
9FA0
  9
$SURFTAB1
 70
     6
  9
$SURFTAB2
 70
     6
  9
$SURFTYPE
 70
     6
  9
$SURFU
 70
     6
  9
$SURFV
 70
     6
  9
$UCSBASE
  2

  9
$UCSNAME
  2

  9
$UCSORG
 10
0.0
 20
0.0
 30
0.0
  9
$UCSXDIR
 10
1.0
 20
0.0
 30
0.0
  9
$UCSYDIR
 10
0.0
 20
1.0
 30
0.0
  9
$UCSORTHOREF
  2

  9
$UCSORTHOVIEW
 70
     0
  9
$UCSORGTOP
 10
0.0
 20
0.0
 30
0.0
  9
$UCSORGBOTTOM
 10
0.0
 20
0.0
 30
0.0
  9
$UCSORGLEFT
 10
0.0
 20
0.0
 30
0.0
  9
$UCSORGRIGHT
 10
0.0
 20
0.0
 30
0.0
  9
$UCSORGFRONT
 10
0.0
 20
0.0
 30
0.0
  9
$UCSORGBACK
 10
0.0
 20
0.0
 30
0.0
  9
$PUCSBASE
  2

  9
$PUCSNAME
  2

  9
$PUCSORG
 10
0.0
 20
0.0
 30
0.0
  9
$PUCSXDIR
 10
1.0
 20
0.0
 30
0.0
  9
$PUCSYDIR
 10
0.0
 20
1.0
 30
0.0
  9
$PUCSORTHOREF
  2

  9
$PUCSORTHOVIEW
 70
     0
  9
$PUCSORGTOP
 10
0.0
 20
0.0
 30
0.0
  9
$PUCSORGBOTTOM
 10
0.0
 20
0.0
 30
0.0
  9
$PUCSORGLEFT
 10
0.0
 20
0.0
 30
0.0
  9
$PUCSORGRIGHT
 10
0.0
 20
0.0
 30
0.0
  9
$PUCSORGFRONT
 10
0.0
 20
0.0
 30
0.0
  9
$PUCSORGBACK
 10
0.0
 20
0.0
 30
0.0
  9
$USERI1
 70
     0
  9
$USERI2
 70
     0
  9
$USERI3
 70
     0
  9
$USERI4
 70
     0
  9
$USERI5
 70
     0
  9
$USERR1
 40
0.0
  9
$USERR2
 40
0.0
  9
$USERR3
 40
0.0
  9
$USERR4
 40
0.0
  9
$USERR5
 40
0.0
  9
$WORLDVIEW
 70
     1
  9
$SHADEDGE
 70
     3
  9
$SHADEDIF
 70
    70
  9
$TILEMODE
 70
     1
  9
$MAXACTVP
 70
    16
  9
$PINSBASE
 10
0.0
 20
0.0
 30
0.0
  9
$PLIMCHECK
 70
     0
  9
$PEXTMIN
 10
1.000000000000000E+20
 20
1.000000000000000E+20
 30
1.000000000000000E+20
  9
$PEXTMAX
 10
-1.000000000000000E+20
 20
-1.000000000000000E+20
 30
-1.000000000000000E+20
  9
$PLIMMIN
 10
0.0
 20
0.0
  9
$PLIMMAX
 10
420.0
 20
297.0
  9
$UNITMODE
 70
     0
  9
$VISRETAIN
 70
     0
  9
$PLINEGEN
 70
     0
  9
$PSLTSCALE
 70
     0
  9
$TREEDEPTH
 70
  3020
  9
$CMLSTYLE
  2
STANDARD
  9
$CMLJUST
 70
     0
  9
$CMLSCALE
 40
1.0
  9
$PROXYGRAPHICS
 70
     1
  9
$MEASUREMENT
 70
     0
  9
$CELWEIGHT
370
    -1
  9
$ENDCAPS
280
     0
  9
$JOINSTYLE
280
     0
  9
$LWDISPLAY
290
     0
  9
$INSUNITS
 70
     0
  9
$HYPERLINKBASE
  1

  9
$STYLESHEET
  1

  9
$XEDIT
290
     1
  9
$CEPSNTYPE
380
     0
  9
$PSTYLEMODE
290
     1
  9
$FINGERPRINTGUID
  2
{5C696B44-B7D9-4333-889D-1C09E0A726E8}
  9
$VERSIONGUID
  2
{671220CF-FDF8-4195-B884-00B55D59328D}
  9
$EXTNAMES
290
     1
  9
$PSVPSCALE
 40
0.0
  9
$OLESTARTUP
290
     0
  0
ENDSEC
  0
SECTION
  2
CLASSES
  0
CLASS
  1
ACDBDICTIONARYWDFLT
  2
AcDbDictionaryWithDefault
  3
ObjectDBX Classes
 90
        0
280
     0
281
     0
  0
CLASS
  1
ACDBPLACEHOLDER
  2
AcDbPlaceHolder
  3
ObjectDBX Classes
 90
        0
280
     0
281
     0
  0
CLASS
  1
LAYOUT
  2
AcDbLayout
  3
ObjectDBX Classes
 90
        0
280
     0
281
     0
  0
CLASS
  1
DICTIONARYVAR
  2
AcDbDictionaryVar
  3
ObjectDBX Classes
 90
        0
280
     0
281
     0
  0
CLASS
  1
MATERIAL
  2
AcDbMaterial
  3
ObjectDBX Classes
 90
     1153
280
     0
281
     0
  0
CLASS
  1
VISUALSTYLE
  2
AcDbVisualStyle
  3
ObjectDBX Classes
 90
     4095
280
     0
281
     0
  0
CLASS
  1
TABLESTYLE
  2
AcDbTableStyle
  3
ObjectDBX Classes
 90
     4095
280
     0
281
     0
  0
CLASS
  1
SCALE
  2
AcDbScale
  3
ObjectDBX Classes
 90
     1153
280
     0
281
     0
  0
CLASS
  1
MLEADERSTYLE
  2
AcDbMLeaderStyle
  3
ACDB_MLEADERSTYLE_CLASS
 90
     4095
280
     0
281
     0
  0
CLASS
  1
ACDBSECTIONVIEWSTYLE
  2
AcDbSectionViewStyle
  3
ObjectDBX Classes
 90
     1025
280
     0
281
     0
  0
CLASS
  1
ACDBDETAILVIEWSTYLE
  2
AcDbDetailViewStyle
  3
ObjectDBX Classes
 90
     1025
280
     0
281
     0
  0
CLASS
  1
CELLSTYLEMAP
  2
AcDbCellStyleMap
  3
ObjectDBX Classes
 90
     1152
280
     0
281
     0
  0
ENDSEC
  0
SECTION
  2
TABLES
  0
TABLE
  2
VPORT
  5
9C2D
330
0
100
AcDbSymbolTable
 70
     1
  0
VPORT
  5
9EE9
330
9C2D
100
AcDbSymbolTableRecord
100
AcDbViewportTableRecord
  2
*ACTIVE
 70
     0
 10
0.0
 20
0.0
 11
1.0
 21
1.0
 12
255.7474104926607
 22
101.3939901577471
 13
0.0
 23
0.0
 14
10.0
 24
10.0
 15
10.0
 25
10.0
 16
0.0
 26
0.0
 36
1.0
 17
0.0
 27
0.0
 37
0.0
 40
210.3932198113394
 41
1.899603698811096
 42
50.0
 43
0.0
 44
0.0
 50
0.0
 51
0.0
 71
     0
 72
   100
 73
     1
 74
     0
 75
     0
 76
     0
 77
     0
 78
     0
281
     0
 65
     1
110
0.0
120
0.0
130
0.0
111
1.0
121
0.0
131
0.0
112
0.0
122
1.0
132
0.0
 79
     0
146
0.0
1001
ACAD_NAV_VCDISPLAY
1070
     3
  0
ENDTAB
  0
TABLE
  2
LTYPE
  5
9C2A
330
0
100
AcDbSymbolTable
 70
     4
  0
LTYPE
  5
9C38
330
9C2A
100
AcDbSymbolTableRecord
100
AcDbLinetypeTableRecord
  2
BYBLOCK
 70
     0
  3

 72
    65
 73
     0
 40
0.0
  0
LTYPE
  5
9C39
330
9C2A
100
AcDbSymbolTableRecord
100
AcDbLinetypeTableRecord
  2
BYLAYER
 70
     0
  3

 72
    65
 73
     0
 40
0.0
  0
LTYPE
  5
9C3A
330
9C2A
100
AcDbSymbolTableRecord
100
AcDbLinetypeTableRecord
  2
CONTINUOUS
 70
     0
  3
Solid line
 72
    65
 73
     0
 40
0.0
  0
LTYPE
  5
9C48
330
9C2A
100
AcDbSymbolTableRecord
100
AcDbLinetypeTableRecord
  2
DASHED
 70
     0
  3
__ __ __ __ __ __ __ __ __ __ __ __ __ __ __ __
 72
    65
 73
     2
 40
0.75
 49
0.5
 74
     0
 49
-0.25
 74
     0
  0
LTYPE
  5
9C49
330
9C2A
100
AcDbSymbolTableRecord
100
AcDbLinetypeTableRecord
  2
CENTER
 70
     0
  3
____ _ ____ _ ____ _ ____ _ ____ _ ____ _ ____ 
 72
    65
 73
     4
 40
2.0
 49
1.25
 74
     0
 49
-0.25
 74
     0
 49
0.25
 74
     0
 49
-0.25
 74
     0
  0
LTYPE
  5
9C4A
330
9C2A
100
AcDbSymbolTableRecord
100
AcDbLinetypeTableRecord
  2
PHANTOM
 70
     0
  3
______  __  __  ______  __  __  ______  __  __ 
 72
    65
 73
     6
 40
2.5
 49
1.25
 74
     0
 49
-0.25
 74
     0
 49
0.25
 74
     0
 49
-0.25
 74
     0
 49
0.25
 74
     0
 49
-0.25
 74
     0
  0
ENDTAB
  0
TABLE
  2
LAYER
  5
9C27
330
0
100
AcDbSymbolTable
 70
     8
  0
LAYER
  5
9C35
102
{ACAD_XDICTIONARY
360
9F44
102
}
330
9C27
100
AcDbSymbolTableRecord
100
AcDbLayerTableRecord
  2
0
 70
     0
 62
     7
  6
CONTINUOUS
370
    -3
390
9EF2
  0
LAYER
  5
9C4B
102
{ACAD_XDICTIONARY
360
9F46
102
}
330
9C27
100
AcDbSymbolTableRecord
100
AcDbLayerTableRecord
  2
4
 70
     0
 62
     1
  6
CENTER
370
    -3
390
9EF2
  0
LAYER
  5
9C4C
102
{ACAD_XDICTIONARY
360
9F48
102
}
330
9C27
100
AcDbSymbolTableRecord
100
AcDbLayerTableRecord
  2
5
 70
     0
 62
     6
  6
PHANTOM
370
    -3
390
9EF2
  0
LAYER
  5
9C4D
102
{ACAD_XDICTIONARY
360
9F4A
102
}
330
9C27
100
AcDbSymbolTableRecord
100
AcDbLayerTableRecord
  2
1
 70
     0
 62
     7
  6
CONTINUOUS
370
    -3
390
9EF2
  0
LAYER
  5
9C4E
102
{ACAD_XDICTIONARY
360
9F4C
102
}
330
9C27
100
AcDbSymbolTableRecord
100
AcDbLayerTableRecord
  2
2
 70
     0
 62
     4
  6
CONTINUOUS
370
    -3
390
9EF2
  0
LAYER
  5
9C4F
102
{ACAD_XDICTIONARY
360
9F4E
102
}
330
9C27
100
AcDbSymbolTableRecord
100
AcDbLayerTableRecord
  2
3
 70
     0
 62
     2
  6
DASHED
370
    -3
390
9EF2
  0
LAYER
  5
9C50
102
{ACAD_XDICTIONARY
360
9F50
102
}
330
9C27
100
AcDbSymbolTableRecord
100
AcDbLayerTableRecord
  2
6
 70
     0
 62
     5
  6
CONTINUOUS
370
    -3
390
9EF2
  0
LAYER
  5
9C51
102
{ACAD_XDICTIONARY
360
9F52
102
}
330
9C27
100
AcDbSymbolTableRecord
100
AcDbLayerTableRecord
  2
7
 70
     0
 62
     3
  6
CONTINUOUS
370
    -3
390
9EF2
  0
ENDTAB
  0
TABLE
  2
STYLE
  5
9C28
330
0
100
AcDbSymbolTable
 70
     1
  0
STYLE
  5
9C36
330
9C28
100
AcDbSymbolTableRecord
100
AcDbTextStyleTableRecord
  2
STANDARD
 70
     0
 40
0.0
 41
1.0
 50
0.0
 71
     0
 42
5.0
  3
txt
  4

  0
ENDTAB
  0
TABLE
  2
VIEW
  5
9C2B
330
0
100
AcDbSymbolTable
 70
     0
  0
ENDTAB
  0
TABLE
  2
UCS
  5
9C2C
330
0
100
AcDbSymbolTable
 70
     0
  0
ENDTAB
  0
TABLE
  2
APPID
  5
9C2E
330
0
100
AcDbSymbolTable
 70
     3
  0
APPID
  5
9C37
330
9C2E
100
AcDbSymbolTableRecord
100
AcDbRegAppTableRecord
  2
ACAD
 70
     0
  0
APPID
  5
9F5E
330
9C2E
100
AcDbSymbolTableRecord
100
AcDbRegAppTableRecord
  2
ACAD_NAV_VCDISPLAY
 70
     0
  0
APPID
  5
9F97
330
9C2E
100
AcDbSymbolTableRecord
100
AcDbRegAppTableRecord
  2
ACAD_MLEADERVER
 70
     0
  0
ENDTAB
  0
TABLE
  2
DIMSTYLE
  5
9C2F
330
0
100
AcDbSymbolTable
 70
     1
100
AcDbDimStyleTable
 71
     0
  0
DIMSTYLE
105
9C53
330
9C2F
100
AcDbSymbolTableRecord
100
AcDbDimStyleTableRecord
  2
STANDARD
 70
     0
 41
3.0
 42
1.0
 43
10.0
 44
1.0
 73
     0
 74
     0
 77
     3
 78
     8
140
3.2
141
0.0
147
1.0
172
     1
173
     1
284
     8
285
     8
286
     8
340
9C36
  0
ENDTAB
  0
TABLE
  2
BLOCK_RECORD
  5
9C26
330
0
100
AcDbSymbolTable
 70
     0
  0
BLOCK_RECORD
  5
9C43
102
{ACAD_XDICTIONARY
360
9EEC
102
}
330
9C26
100
AcDbSymbolTableRecord
100
AcDbBlockTableRecord
  2
*MODEL_SPACE
340
9F40
  0
BLOCK_RECORD
  5
9C3F
102
{ACAD_XDICTIONARY
360
9EEA
102
}
330
9C26
100
AcDbSymbolTableRecord
100
AcDbBlockTableRecord
  2
*PAPER_SPACE
340
9F41
  0
ENDTAB
  0
ENDSEC
  0
SECTION
  2
BLOCKS
  0
BLOCK
  5
9C44
330
9C43
100
AcDbEntity
  8
0
100
AcDbBlockBegin
  2
*MODEL_SPACE
 70
     0
 10
0.0
 20
0.0
 30
0.0
  3
*MODEL_SPACE
  1

  0
ENDBLK
  5
9C45
330
9C43
100
AcDbEntity
  8
0
100
AcDbBlockEnd
  0
BLOCK
  5
9C40
330
9C3F
100
AcDbEntity
 67
     1
  8
0
100
AcDbBlockBegin
  2
*PAPER_SPACE
 70
     0
 10
0.0
 20
0.0
 30
0.0
  3
*PAPER_SPACE
  1

  0
ENDBLK
  5
9C41
330
9C3F
100
AcDbEntity
 67
     1
  8
0
100
AcDbBlockEnd
  0
ENDSEC
  0
SECTION
  2
ENTITIES
  0
TEXT
  5
9C5B
330
9C43
100
AcDbEntity
  8
7
  6
Continuous
100
AcDbText
 10
10.0
 20
18.0
 30
0.0
 40
3.0
  1
TYPE No.TL-96S-1
100
AcDbText
  0
TEXT
  5
9C5C
330
9C43
100
AcDbEntity
  8
7
  6
Continuous
100
AcDbText
 10
10.0
 20
26.0
 30
0.0
 40
3.0
  1
CODE No.1731
100
AcDbText
  0
TEXT
  5
9C5D
330
9C43
100
AcDbEntity
  8
1
  6
Continuous
100
AcDbText
 10
10.0
 20
10.0
 30
0.0
 40
1.399999999999999
  1
LAYER
100
AcDbText
  0
TEXT
  5
9C5E
330
9C43
100
AcDbEntity
  8
1
  6
Continuous
100
AcDbText
 10
17.97951099999998
 20
10.04873699999998
 30
0.0
 40
1.399999999999999
  1
1
100
AcDbText
  0
TEXT
  5
9C5F
330
9C43
100
AcDbEntity
  8
7
  6
Continuous
100
AcDbText
 10
29.97951099999999
 20
10.04873699999998
 30
0.0
 40
1.399999999999999
  1
7
100
AcDbText
  0
TEXT
  5
9C60
330
9C43
100
AcDbEntity
  8
4
  6
CENTER
100
AcDbText
 10
23.97951099999999
 20
10.04873699999998
 30
0.0
 40
1.399999999999999
  1
4
100
AcDbText
  0
TEXT
  5
9C61
330
9C43
100
AcDbEntity
  8
3
  6
DASHED
100
AcDbText
 10
21.979511
 20
10.04873699999998
 30
0.0
 40
1.399999999999999
  1
3
100
AcDbText
  0
TEXT
  5
9C62
330
9C43
100
AcDbEntity
  8
2
  6
Continuous
100
AcDbText
 10
19.97951099999999
 20
10.04873699999998
 30
0.0
 40
1.399999999999999
  1
2
100
AcDbText
  0
TEXT
  5
9C63
330
9C43
100
AcDbEntity
  8
6
  6
Continuous
100
AcDbText
 10
27.979511
 20
10.04873699999998
 30
0.0
 40
1.399999999999999
  1
6
100
AcDbText
  0
TEXT
  5
9C64
330
9C43
100
AcDbEntity
  8
5
  6
PHANTOM
100
AcDbText
 10
25.97951099999999
 20
10.04873699999998
 30
0.0
 40
1.399999999999999
  1
5
100
AcDbText
  0
LINE
  5
9C65
330
9C43
100
AcDbEntity
  8
1
  6
Continuous
100
AcDbLine
 10
219.7028239999999
 20
119.480456
 30
0.0
 11
227.3631169999999
 21
119.480456
 31
0.0
  0
LINE
  5
9C66
330
9C43
100
AcDbEntity
  8
1
  6
Continuous
100
AcDbLine
 10
216.0111879999998
 20
115.9498319999999
 30
0.0
 11
217.847904
 21
114.9317649999999
 31
0.0
  0
LINE
  5
9C67
330
9C43
100
AcDbEntity
  8
1
  6
Continuous
100
AcDbLine
 10
227.702289
 20
104.258738
 30
0.0
 11
226.684177
 21
106.095424
 31
0.0
  0
LINE
  5
9C68
330
9C43
100
AcDbEntity
  8
1
  6
Continuous
100
AcDbLine
 10
231.232914
 20
115.610553
 30
0.0
 11
231.232914
 21
107.950259
 31
0.0
  0
LINE
  5
9C69
330
9C43
100
AcDbEntity
  8
4
  6
CENTER
100
AcDbLine
 10
9.740218999999999
 20
181.780459
 30
0.0
 11
51.383518
 21
181.780459
 31
0.0
  0
LINE
  5
9C6A
330
9C43
100
AcDbEntity
  8
1
  6
Continuous
100
AcDbLine
 10
12.147819
 20
184.780459
 30
0.0
 11
12.147819
 21
178.780459
 31
0.0
  0
LINE
  5
9C6B
330
9C43
100
AcDbEntity
  8
1
  6
Continuous
100
AcDbLine
 10
18.64781899999998
 20
172.280459
 30
0.0
 11
27.647819
 21
172.280459
 31
0.0
  0
LINE
  5
9C6C
330
9C43
100
AcDbEntity
  8
1
  6
Continuous
100
AcDbLine
 10
31.64781899999999
 20
191.280459
 30
0.0
 11
18.64781899999998
 21
191.280459
 31
0.0
  0
LINE
  5
9C6D
330
9C43
100
AcDbEntity
  8
1
  6
Continuous
100
AcDbLine
 10
34.14781899999999
 20
185.6804529999998
 30
0.0
 11
34.14781899999999
 21
186.580462
 31
0.0
  0
LINE
  5
9C6E
330
9C43
100
AcDbEntity
  8
1
  6
Continuous
100
AcDbLine
 10
31.647812
 20
191.280459
 30
0.0
 11
40.817818
 21
189.163455
 31
0.0
  0
LINE
  5
9C6F
330
9C43
100
AcDbEntity
  8
1
  6
Continuous
100
AcDbLine
 10
34.14781899999999
 20
186.580462
 30
0.0
 11
48.14783099999999
 21
186.580462
 31
0.0
  0
LINE
  5
9C70
330
9C43
100
AcDbEntity
  8
1
  6
Continuous
100
AcDbLine
 10
45.247818
 20
187.480456
 30
0.0
 11
45.247818
 21
186.580462
 31
0.0
  0
LINE
  5
9C71
330
9C43
100
AcDbEntity
  8
1
  6
Continuous
100
AcDbLine
 10
45.247818
 20
187.480456
 30
0.0
 11
47.147831
 21
187.480456
 31
0.0
  0
LINE
  5
9C72
330
9C43
100
AcDbEntity
  8
1
  6
Continuous
100
AcDbLine
 10
46.747822
 20
186.580447
 30
0.0
 11
47.147831
 21
186.687655
 31
0.0
  0
LINE
  5
9C73
330
9C43
100
AcDbEntity
  8
1
  6
Continuous
100
AcDbLine
 10
47.147831
 20
186.687655
 30
0.0
 11
47.147831
 21
187.480456
 31
0.0
  0
LINE
  5
9C74
330
9C43
100
AcDbEntity
  8
1
  6
Continuous
100
AcDbLine
 10
14.74781799999998
 20
184.280459
 30
0.0
 11
14.74781799999998
 21
179.280459
 31
0.0
  0
LINE
  5
9C75
330
9C43
100
AcDbEntity
  8
1
  6
Continuous
100
AcDbLine
 10
18.54782099999998
 20
179.280459
 30
0.0
 11
18.54782099999998
 21
184.280459
 31
0.0
  0
LINE
  5
9C76
330
9C43
100
AcDbEntity
  8
1
  6
Continuous
100
AcDbLine
 10
17.54782099999999
 20
185.280459
 30
0.0
 11
15.747818
 21
185.280459
 31
0.0
  0
LINE
  5
9C77
330
9C43
100
AcDbEntity
  8
1
  6
Continuous
100
AcDbLine
 10
41.747818
 20
187.9941589999999
 30
0.0
 11
41.747818
 21
186.580462
 31
0.0
  0
LINE
  5
9C78
330
9C43
100
AcDbEntity
  8
1
  6
Continuous
100
AcDbLine
 10
48.14783099999999
 20
176.980456
 30
0.0
 11
35.34781599999997
 21
176.980456
 31
0.0
  0
LINE
  5
9C79
330
9C43
100
AcDbEntity
  8
1
  6
Continuous
100
AcDbLine
 10
28.34781599999999
 20
180.060046
 30
0.0
 11
28.34781599999999
 21
183.5009639999999
 31
0.0
  0
LINE
  5
9C7A
330
9C43
100
AcDbEntity
  8
1
  6
Continuous
100
AcDbLine
 10
48.347828
 20
186.38045
 30
0.0
 11
48.347828
 21
177.1804529999998
 31
0.0
  0
LINE
  5
9C7B
330
9C43
100
AcDbEntity
  8
1
  6
Continuous
100
AcDbLine
 10
35.147819
 20
185.6804529999998
 30
0.0
 11
35.147819
 21
177.8804499999999
 31
0.0
  0
LINE
  5
9C7C
330
9C43
100
AcDbEntity
  8
1
  6
Continuous
100
AcDbLine
 10
31.84781599999999
 20
185.6804529999998
 30
0.0
 11
35.147819
 21
185.6804529999998
 31
0.0
  0
LINE
  5
9C7D
330
9C43
100
AcDbEntity
  8
1
  6
Continuous
100
AcDbLine
 10
31.84781599999999
 20
177.8804499999999
 30
0.0
 11
35.147819
 21
177.8804499999999
 31
0.0
  0
LINE
  5
9C7E
330
9C43
100
AcDbEntity
  8
1
  6
Continuous
100
AcDbLine
 10
48.147823
 20
176.980456
 30
0.0
 11
48.347828
 21
177.1804679999999
 31
0.0
  0
LINE
  5
9C7F
330
9C43
100
AcDbEntity
  8
1
  6
Continuous
100
AcDbLine
 10
48.14781599999999
 20
186.580462
 30
0.0
 11
48.34782
 21
186.38045
 31
0.0
  0
LINE
  5
9C80
330
9C43
100
AcDbEntity
  8
1
  6
Continuous
100
AcDbLine
 10
35.14782299999998
 20
177.1804529999998
 30
0.0
 11
35.34781999999999
 21
176.980456
 31
0.0
  0
LINE
  5
9C81
330
9C43
100
AcDbEntity
  8
1
  6
Continuous
100
AcDbLine
 10
35.14782299999998
 20
186.3804649999999
 30
0.0
 11
35.34781999999999
 21
186.580462
 31
0.0
  0
LINE
  5
9C82
330
9C43
100
AcDbEntity
  8
1
  6
Continuous
100
AcDbLine
 10
35.147819
 20
177.1804529999998
 30
0.0
 11
35.147819
 21
177.8804499999999
 31
0.0
  0
LINE
  5
9C83
330
9C43
100
AcDbEntity
  8
1
  6
Continuous
100
AcDbLine
 10
35.147819
 20
186.38045
 30
0.0
 11
35.147819
 21
185.6804529999998
 31
0.0
  0
LINE
  5
9C84
330
9C43
100
AcDbEntity
  8
1
  6
Continuous
100
AcDbLine
 10
15.747818
 20
178.280459
 30
0.0
 11
17.54782099999999
 21
178.280459
 31
0.0
  0
LINE
  5
9C85
330
9C43
100
AcDbEntity
  8
4
  6
CENTER
100
AcDbLine
 10
14.585718
 20
111.7804589999999
 30
0.0
 11
43.02691999999999
 21
111.7804589999999
 31
0.0
  0
LINE
  5
9C86
330
9C43
100
AcDbEntity
  8
4
  6
CENTER
100
AcDbLine
 10
28.54782099999999
 20
125.8110529999999
 30
0.0
 11
28.54782099999999
 21
97.36986000000001
 31
0.0
  0
LINE
  5
9C87
330
9C43
100
AcDbEntity
  8
1
  6
Continuous
100
AcDbLine
 10
27.672821
 20
118.101657
 30
0.0
 11
27.672821
 21
116.601657
 31
0.0
  0
LINE
  5
9C88
330
9C43
100
AcDbEntity
  8
1
  6
Continuous
100
AcDbLine
 10
29.42282099999999
 20
118.101657
 30
0.0
 11
29.42282099999999
 21
116.601657
 31
0.0
  0
LINE
  5
9C89
330
9C43
100
AcDbEntity
  8
1
  6
Continuous
100
AcDbLine
 10
27.672821
 20
118.101657
 30
0.0
 11
29.42282099999999
 21
118.101657
 31
0.0
  0
LINE
  5
9C8A
330
9C43
100
AcDbEntity
  8
1
  6
Continuous
100
AcDbLine
 10
27.672821
 20
115.581057
 30
0.0
 11
27.672821
 21
114.1804679999999
 31
0.0
  0
LINE
  5
9C8B
330
9C43
100
AcDbEntity
  8
1
  6
Continuous
100
AcDbLine
 10
29.42282099999999
 20
115.581057
 30
0.0
 11
29.42282099999999
 21
114.1804679999999
 31
0.0
  0
LINE
  5
9C8C
330
9C43
100
AcDbEntity
  8
1
  6
Continuous
100
AcDbLine
 10
27.672821
 20
114.1804679999999
 30
0.0
 11
29.42282099999999
 21
114.1804679999999
 31
0.0
  0
LINE
  5
9C8D
330
9C43
100
AcDbEntity
  8
1
  6
Continuous
100
AcDbLine
 10
79.09092300000001
 20
122.7804589999999
 30
0.0
 11
80.090923
 21
122.7804589999999
 31
0.0
  0
LINE
  5
9C8E
330
9C43
100
AcDbEntity
  8
1
  6
Continuous
100
AcDbLine
 10
80.090923
 20
102.280459
 30
0.0
 11
87.89091899999998
 21
102.280459
 31
0.0
  0
LINE
  5
9C8F
330
9C43
100
AcDbEntity
  8
1
  6
Continuous
100
AcDbLine
 10
80.090923
 20
121.2804589999999
 30
0.0
 11
87.89091899999998
 21
121.2804589999999
 31
0.0
  0
LINE
  5
9C90
330
9C43
100
AcDbEntity
  8
1
  6
Continuous
100
AcDbLine
 10
88.690922
 20
103.080455
 30
0.0
 11
90.79092000000001
 21
103.080455
 31
0.0
  0
LINE
  5
9C91
330
9C43
100
AcDbEntity
  8
1
  6
Continuous
100
AcDbLine
 10
88.690922
 20
120.480456
 30
0.0
 11
88.99091700000004
 21
120.480456
 31
0.0
  0
LINE
  5
9C92
330
9C43
100
AcDbEntity
  8
1
  6
Continuous
100
AcDbLine
 10
73.79091999999999
 20
120.2804589999999
 30
0.0
 11
73.79091999999999
 21
103.280459
 31
0.0
  0
LINE
  5
9C93
330
9C43
100
AcDbEntity
  8
1
  6
Continuous
100
AcDbLine
 10
73.79092799999998
 20
120.2804589999999
 30
0.0
 11
79.09093100000003
 21
122.7804589999999
 31
0.0
  0
LINE
  5
9C94
330
9C43
100
AcDbEntity
  8
1
  6
Continuous
100
AcDbLine
 10
80.090923
 20
122.7804589999999
 30
0.0
 11
80.090923
 21
100.7804589999998
 31
0.0
  0
LINE
  5
9C95
330
9C43
100
AcDbEntity
  8
1
  6
Continuous
100
AcDbLine
 10
79.09092300000001
 20
100.7804589999998
 30
0.0
 11
80.090923
 21
100.7804589999998
 31
0.0
  0
LINE
  5
9C96
330
9C43
100
AcDbEntity
  8
1
  6
Continuous
100
AcDbLine
 10
73.79091999999999
 20
103.2804669999999
 30
0.0
 11
79.09092300000001
 21
100.780467
 31
0.0
  0
LINE
  5
9C97
330
9C43
100
AcDbEntity
  8
1
  6
Continuous
100
AcDbLine
 10
88.69092899999998
 20
120.4804709999998
 30
0.0
 11
87.89092600000001
 21
121.2804739999999
 31
0.0
  0
LINE
  5
9C98
330
9C43
100
AcDbEntity
  8
1
  6
Continuous
100
AcDbLine
 10
88.690922
 20
103.080462
 30
0.0
 11
87.89091899999998
 21
102.280459
 31
0.0
  0
LINE
  5
9C99
330
9C43
100
AcDbEntity
  8
1
  6
Continuous
100
AcDbLine
 10
88.99091700000004
 20
120.480456
 30
0.0
 11
88.99091700000004
 21
104.003558
 31
0.0
  0
LINE
  5
9C9A
330
9C43
100
AcDbEntity
  8
1
  6
Continuous
100
AcDbLine
 10
90.79092000000001
 20
105.22156
 30
0.0
 11
90.79092000000001
 21
103.080455
 31
0.0
  0
LINE
  5
9C9B
330
9C43
100
AcDbEntity
  8
4
  6
CENTER
100
AcDbLine
 10
71.32651899999998
 20
111.7804589999999
 30
0.0
 11
103.731525
 21
111.7804589999999
 31
0.0
  0
LINE
  5
9C9C
330
9C43
100
AcDbEntity
  8
1
  6
Continuous
100
AcDbLine
 10
88.99091700000004
 20
104.003558
 30
0.0
 11
90.79092000000001
 21
104.003558
 31
0.0
  0
LINE
  5
9C9D
330
9C43
100
AcDbEntity
  8
1
  6
Continuous
100
AcDbLine
 10
88.99091700000004
 20
105.22156
 30
0.0
 11
90.79092000000001
 21
105.22156
 31
0.0
  0
LINE
  5
9C9E
330
9C43
100
AcDbEntity
  8
1
  6
Continuous
100
AcDbLine
 10
73.590923
 20
115.3804499999999
 30
0.0
 11
73.590923
 21
108.180461
 31
0.0
  0
LINE
  5
9C9F
330
9C43
100
AcDbEntity
  8
1
  6
Continuous
100
AcDbLine
 10
101.090916
 20
114.2804589999999
 30
0.0
 11
101.090916
 21
109.2804589999999
 31
0.0
  0
LINE
  5
9CA0
330
9C43
100
AcDbEntity
  8
1
  6
Continuous
100
AcDbLine
 10
91.090923
 20
113.8726679999999
 30
0.0
 11
101.090916
 21
113.8726679999999
 31
0.0
  0
LINE
  5
9CA1
330
9C43
100
AcDbEntity
  8
1
  6
Continuous
100
AcDbLine
 10
91.090923
 20
109.688159
 30
0.0
 11
101.090916
 21
109.688159
 31
0.0
  0
LINE
  5
9CA2
330
9C43
100
AcDbEntity
  8
2
  6
Continuous
100
AcDbLine
 10
91.090923
 20
113.280154
 30
0.0
 11
100.790913
 21
109.688151
 31
0.0
  0
LINE
  5
9CA3
330
9C43
100
AcDbEntity
  8
2
  6
Continuous
100
AcDbLine
 10
91.09091600000001
 20
110.28065
 30
0.0
 11
100.79092
 21
113.872653
 31
0.0
  0
LINE
  5
9CA4
330
9C43
100
AcDbEntity
  8
1
  6
Continuous
100
AcDbLine
 10
73.79092799999998
 20
115.580462
 30
0.0
 11
73.59091600000002
 21
115.3804649999998
 31
0.0
  0
LINE
  5
9CA5
330
9C43
100
AcDbEntity
  8
1
  6
Continuous
100
AcDbLine
 10
73.79091999999999
 20
107.980456
 30
0.0
 11
73.59091600000002
 21
108.180461
 31
0.0
  0
LINE
  5
9CA6
330
9C43
100
AcDbEntity
  8
1
  6
Continuous
100
AcDbLine
 10
89.14091899999998
 20
108.280459
 30
0.0
 11
89.49091700000002
 21
108.280459
 31
0.0
  0
LINE
  5
9CA7
330
9C43
100
AcDbEntity
  8
1
  6
Continuous
100
AcDbLine
 10
89.14091899999998
 20
115.2804589999999
 30
0.0
 11
89.49091700000002
 21
115.2804589999999
 31
0.0
  0
LINE
  5
9CA8
330
9C43
100
AcDbEntity
  8
1
  6
Continuous
100
AcDbLine
 10
100.090931
 20
115.280474
 30
0.0
 11
101.090931
 21
114.280474
 31
0.0
  0
LINE
  5
9CA9
330
9C43
100
AcDbEntity
  8
1
  6
Continuous
100
AcDbLine
 10
101.0909229999999
 20
109.2804669999999
 30
0.0
 11
100.0909229999999
 21
108.2804669999999
 31
0.0
  0
LINE
  5
9CAA
330
9C43
100
AcDbEntity
  8
1
  6
Continuous
100
AcDbLine
 10
88.99091700000004
 20
118.780459
 30
0.0
 11
89.04092
 21
118.780459
 31
0.0
  0
LINE
  5
9CAB
330
9C43
100
AcDbEntity
  8
1
  6
Continuous
100
AcDbLine
 10
89.14091899999998
 20
118.6804679999999
 30
0.0
 11
89.14091899999998
 21
105.22156
 31
0.0
  0
LINE
  5
9CAC
330
9C43
100
AcDbEntity
  8
1
  6
Continuous
100
AcDbLine
 10
89.14091899999998
 20
118.680453
 30
0.0
 11
89.04092
 21
118.780459
 31
0.0
  0
LINE
  5
9CAD
330
9C43
100
AcDbEntity
  8
1
  6
Continuous
100
AcDbLine
 10
79.09092300000001
 20
122.7804589999999
 30
0.0
 11
79.09092300000001
 21
100.7804589999998
 31
0.0
  0
LINE
  5
9CAE
330
9C43
100
AcDbEntity
  8
1
  6
Continuous
100
AcDbLine
 10
80.090923
 20
117.0567499999998
 30
0.0
 11
87.89091899999998
 21
117.0567499999998
 31
0.0
  0
LINE
  5
9CAF
330
9C43
100
AcDbEntity
  8
1
  6
Continuous
100
AcDbLine
 10
80.090923
 20
106.5040619999999
 30
0.0
 11
87.89091899999998
 21
106.5040619999999
 31
0.0
  0
LINE
  5
9CB0
330
9C43
100
AcDbEntity
  8
1
  6
Continuous
100
AcDbLine
 10
87.89091899999998
 20
121.2804589999999
 30
0.0
 11
87.89091899999998
 21
117.0567499999998
 31
0.0
  0
LINE
  5
9CB1
330
9C43
100
AcDbEntity
  8
1
  6
Continuous
100
AcDbLine
 10
88.690922
 20
120.480456
 30
0.0
 11
88.690922
 21
116.2567619999999
 31
0.0
  0
LINE
  5
9CB2
330
9C43
100
AcDbEntity
  8
1
  6
Continuous
100
AcDbLine
 10
88.690922
 20
116.2567619999999
 30
0.0
 11
87.89091899999998
 21
117.0567649999999
 31
0.0
  0
LINE
  5
9CB3
330
9C43
100
AcDbEntity
  8
1
  6
Continuous
100
AcDbLine
 10
88.690922
 20
116.2567619999999
 30
0.0
 11
88.99091700000004
 21
116.2567619999999
 31
0.0
  0
LINE
  5
9CB4
330
9C43
100
AcDbEntity
  8
1
  6
Continuous
100
AcDbLine
 10
87.89091899999998
 20
102.280459
 30
0.0
 11
87.89091899999998
 21
106.5040619999999
 31
0.0
  0
LINE
  5
9CB5
330
9C43
100
AcDbEntity
  8
1
  6
Continuous
100
AcDbLine
 10
88.690922
 20
103.080455
 30
0.0
 11
88.690922
 21
107.304057
 31
0.0
  0
LINE
  5
9CB6
330
9C43
100
AcDbEntity
  8
1
  6
Continuous
100
AcDbLine
 10
88.69092899999998
 20
107.304065
 30
0.0
 11
87.89091899999998
 21
106.5040619999999
 31
0.0
  0
LINE
  5
9CB7
330
9C43
100
AcDbEntity
  8
1
  6
Continuous
100
AcDbLine
 10
88.690922
 20
107.304057
 30
0.0
 11
88.99091700000004
 21
107.304057
 31
0.0
  0
LINE
  5
9CB8
330
9C43
100
AcDbEntity
  8
2
  6
Continuous
100
AcDbLine
 10
80.09091600000003
 20
117.0567649999999
 30
0.0
 11
88.99091700000004
 21
107.304057
 31
0.0
  0
LINE
  5
9CB9
330
9C43
100
AcDbEntity
  8
2
  6
Continuous
100
AcDbLine
 10
88.99091700000004
 20
116.2567619999999
 30
0.0
 11
80.09091600000003
 21
106.504054
 31
0.0
  0
LINE
  5
9CBA
330
9C43
100
AcDbEntity
  8
1
  6
Continuous
100
AcDbLine
 10
89.49091700000002
 20
119.480456
 30
0.0
 11
91.090923
 21
119.480456
 31
0.0
  0
LINE
  5
9CBB
330
9C43
100
AcDbEntity
  8
1
  6
Continuous
100
AcDbLine
 10
89.49091700000002
 20
119.480456
 30
0.0
 11
89.49091700000002
 21
105.22156
 31
0.0
  0
LINE
  5
9CBC
330
9C43
100
AcDbEntity
  8
1
  6
Continuous
100
AcDbLine
 10
91.090923
 20
119.480456
 30
0.0
 11
91.090923
 21
104.258738
 31
0.0
  0
LINE
  5
9CBD
330
9C43
100
AcDbEntity
  8
1
  6
Continuous
100
AcDbLine
 10
89.49091700000002
 20
116.0641659999999
 30
0.0
 11
91.090923
 21
116.0641659999999
 31
0.0
  0
LINE
  5
9CBE
330
9C43
100
AcDbEntity
  8
1
  6
Continuous
100
AcDbLine
 10
89.49091700000002
 20
105.280459
 30
0.0
 11
91.090923
 21
105.280459
 31
0.0
  0
LINE
  5
9CBF
330
9C43
100
AcDbEntity
  8
1
  6
Continuous
100
AcDbLine
 10
215.632923
 20
117.056826
 30
0.0
 11
215.632923
 21
106.5040619999999
 31
0.0
  0
LINE
  5
9CC0
330
9C43
100
AcDbEntity
  8
1
  6
Continuous
100
AcDbLine
 10
231.432926
 20
117.0567499999998
 30
0.0
 11
231.432926
 21
106.5040619999999
 31
0.0
  0
LINE
  5
9CC1
330
9C43
100
AcDbEntity
  8
1
  6
Continuous
100
AcDbLine
 10
220.83292
 20
114.007571
 30
0.0
 11
220.83292
 21
109.553347
 31
0.0
  0
LINE
  5
9CC2
330
9C43
100
AcDbEntity
  8
1
  6
Continuous
100
AcDbLine
 10
226.2329139999999
 20
114.007571
 30
0.0
 11
226.2329139999999
 21
109.553347
 31
0.0
  0
LINE
  5
9CC3
330
9C43
100
AcDbEntity
  8
1
  6
Continuous
100
AcDbLine
 10
79.09092300000001
 20
170.780459
 30
0.0
 11
80.090923
 21
170.780459
 31
0.0
  0
LINE
  5
9CC4
330
9C43
100
AcDbEntity
  8
1
  6
Continuous
100
AcDbLine
 10
79.09092300000001
 20
192.780459
 30
0.0
 11
80.090923
 21
192.780459
 31
0.0
  0
LINE
  5
9CC5
330
9C43
100
AcDbEntity
  8
1
  6
Continuous
100
AcDbLine
 10
73.79091999999999
 20
190.280459
 30
0.0
 11
73.79091999999999
 21
173.280459
 31
0.0
  0
LINE
  5
9CC6
330
9C43
100
AcDbEntity
  8
1
  6
Continuous
100
AcDbLine
 10
73.790935
 20
190.280459
 30
0.0
 11
79.09093100000003
 21
192.780459
 31
0.0
  0
LINE
  5
9CC7
330
9C43
100
AcDbEntity
  8
1
  6
Continuous
100
AcDbLine
 10
80.090923
 20
192.780459
 30
0.0
 11
80.090923
 21
170.780459
 31
0.0
  0
LINE
  5
9CC8
330
9C43
100
AcDbEntity
  8
1
  6
Continuous
100
AcDbLine
 10
73.79092799999998
 20
173.280459
 30
0.0
 11
79.09093799999998
 21
170.780459
 31
0.0
  0
LINE
  5
9CC9
330
9C43
100
AcDbEntity
  8
1
  6
Continuous
100
AcDbLine
 10
88.99093200000001
 20
189.6804529999998
 30
0.0
 11
88.99093200000001
 21
173.8804649999999
 31
0.0
  0
LINE
  5
9CCA
330
9C43
100
AcDbEntity
  8
4
  6
CENTER
100
AcDbLine
 10
85.69092899999999
 20
181.079654
 30
0.0
 11
85.69092899999999
 21
176.772052
 31
0.0
  0
LINE
  5
9CCB
330
9C43
100
AcDbEntity
  8
4
  6
CENTER
100
AcDbLine
 10
71.649822
 20
181.780459
 30
0.0
 11
102.4492299999999
 21
181.780459
 31
0.0
  0
LINE
  5
9CCC
330
9C43
100
AcDbEntity
  8
1
  6
Continuous
100
AcDbLine
 10
79.09092300000001
 20
192.780459
 30
0.0
 11
79.09092300000001
 21
170.780459
 31
0.0
  0
LINE
  5
9CCD
330
9C43
100
AcDbEntity
  8
1
  6
Continuous
100
AcDbLine
 10
87.89092600000001
 20
189.6804529999998
 30
0.0
 11
87.89092600000001
 21
173.8804649999999
 31
0.0
  0
LINE
  5
9CCE
330
9C43
100
AcDbEntity
  8
1
  6
Continuous
100
AcDbLine
 10
88.69092899999998
 20
189.6804529999998
 30
0.0
 11
88.69092899999998
 21
173.8804649999999
 31
0.0
  0
LINE
  5
9CCF
330
9C43
100
AcDbEntity
  8
1
  6
Continuous
100
AcDbLine
 10
89.14092600000001
 20
185.6804679999999
 30
0.0
 11
89.490932
 21
185.6804679999999
 31
0.0
  0
LINE
  5
9CD0
330
9C43
100
AcDbEntity
  8
1
  6
Continuous
100
AcDbLine
 10
89.490932
 20
184.9852629999998
 30
0.0
 11
89.14092600000001
 21
184.9852629999998
 31
0.0
  0
LINE
  5
9CD1
330
9C43
100
AcDbEntity
  8
1
  6
Continuous
100
AcDbLine
 10
89.490932
 20
178.575656
 30
0.0
 11
89.14092600000001
 21
178.575656
 31
0.0
  0
LINE
  5
9CD2
330
9C43
100
AcDbEntity
  8
1
  6
Continuous
100
AcDbLine
 10
89.490932
 20
177.8804499999999
 30
0.0
 11
89.14092600000001
 21
177.8804499999999
 31
0.0
  0
LINE
  5
9CD3
330
9C43
100
AcDbEntity
  8
1
  6
Continuous
100
AcDbLine
 10
73.590923
 20
185.38045
 30
0.0
 11
73.590923
 21
178.180453
 31
0.0
  0
LINE
  5
9CD4
330
9C43
100
AcDbEntity
  8
1
  6
Continuous
100
AcDbLine
 10
101.0909229999999
 20
183.480456
 30
0.0
 11
101.0909229999999
 21
180.080462
 31
0.0
  0
LINE
  5
9CD5
330
9C43
100
AcDbEntity
  8
1
  6
Continuous
100
AcDbLine
 10
73.790935
 20
185.580462
 30
0.0
 11
73.59093100000002
 21
185.3804649999999
 31
0.0
  0
LINE
  5
9CD6
330
9C43
100
AcDbEntity
  8
1
  6
Continuous
100
AcDbLine
 10
73.790935
 20
177.980471
 30
0.0
 11
73.59093799999998
 21
178.180468
 31
0.0
  0
LINE
  5
9CD7
330
9C43
100
AcDbEntity
  8
1
  6
Continuous
100
AcDbLine
 10
89.14092600000001
 20
184.480456
 30
0.0
 11
89.490932
 21
184.480456
 31
0.0
  0
LINE
  5
9CD8
330
9C43
100
AcDbEntity
  8
1
  6
Continuous
100
AcDbLine
 10
89.14092600000001
 20
179.080462
 30
0.0
 11
89.490932
 21
179.080462
 31
0.0
  0
LINE
  5
9CD9
330
9C43
100
AcDbEntity
  8
1
  6
Continuous
100
AcDbLine
 10
101.0909379999998
 20
183.480471
 30
0.0
 11
100.0909379999998
 21
184.480471
 31
0.0
  0
LINE
  5
9CDA
330
9C43
100
AcDbEntity
  8
1
  6
Continuous
100
AcDbLine
 10
101.090931
 20
180.080462
 30
0.0
 11
100.090931
 21
179.080462
 31
0.0
  0
LINE
  5
9CDB
330
9C43
100
AcDbEntity
  8
1
  6
Continuous
100
AcDbLine
 10
88.99093200000001
 20
174.780459
 30
0.0
 11
89.04092
 21
174.780459
 31
0.0
  0
LINE
  5
9CDC
330
9C43
100
AcDbEntity
  8
1
  6
Continuous
100
AcDbLine
 10
88.99093200000001
 20
188.780459
 30
0.0
 11
89.04092
 21
188.780459
 31
0.0
  0
LINE
  5
9CDD
330
9C43
100
AcDbEntity
  8
1
  6
Continuous
100
AcDbLine
 10
89.14092600000001
 20
188.680453
 30
0.0
 11
89.14092600000001
 21
174.88045
 31
0.0
  0
LINE
  5
9CDE
330
9C43
100
AcDbEntity
  8
1
  6
Continuous
100
AcDbLine
 10
89.140934
 20
188.680453
 30
0.0
 11
89.04092799999999
 21
188.780459
 31
0.0
  0
LINE
  5
9CDF
330
9C43
100
AcDbEntity
  8
1
  6
Continuous
100
AcDbLine
 10
89.040935
 20
174.780459
 30
0.0
 11
89.140934
 21
174.88045
 31
0.0
  0
LINE
  5
9CE0
330
9C43
100
AcDbEntity
  8
4
  6
CENTER
100
AcDbLine
 10
87.630031
 20
178.9237549999998
 30
0.0
 11
83.70032900000003
 21
178.9237549999998
 31
0.0
  0
LINE
  5
9CE1
330
9C43
100
AcDbEntity
  8
1
  6
Continuous
100
AcDbLine
 10
91.090923
 20
189.480456
 30
0.0
 11
89.490932
 21
189.480456
 31
0.0
  0
LINE
  5
9CE2
330
9C43
100
AcDbEntity
  8
1
  6
Continuous
100
AcDbLine
 10
89.490932
 20
189.480456
 30
0.0
 11
89.490932
 21
174.258731
 31
0.0
  0
LINE
  5
9CE3
330
9C43
100
AcDbEntity
  8
1
  6
Continuous
100
AcDbLine
 10
91.090923
 20
179.080462
 30
0.0
 11
100.090931
 21
179.080462
 31
0.0
  0
LINE
  5
9CE4
330
9C43
100
AcDbEntity
  8
1
  6
Continuous
100
AcDbLine
 10
91.090923
 20
184.480456
 30
0.0
 11
100.090931
 21
184.480456
 31
0.0
  0
LINE
  5
9CE5
330
9C43
100
AcDbEntity
  8
1
  6
Continuous
100
AcDbLine
 10
80.090923
 20
173.8804649999999
 30
0.0
 11
88.99093200000001
 21
173.8804649999999
 31
0.0
  0
LINE
  5
9CE6
330
9C43
100
AcDbEntity
  8
1
  6
Continuous
100
AcDbLine
 10
80.090923
 20
189.6804679999999
 30
0.0
 11
88.99093200000001
 21
189.6804679999999
 31
0.0
  0
LINE
  5
9CE7
330
9C43
100
AcDbEntity
  8
1
  6
Continuous
100
AcDbLine
 10
91.090923
 20
189.480456
 30
0.0
 11
91.090923
 21
174.258731
 31
0.0
  0
LINE
  5
9CE8
330
9C43
100
AcDbEntity
  8
1
  6
Continuous
100
AcDbLine
 10
100.090816
 20
184.480456
 30
0.0
 11
100.090816
 21
179.080462
 31
0.0
  0
LINE
  5
9CE9
330
9C43
100
AcDbEntity
  8
1
  6
Continuous
100
AcDbLine
 10
91.090923
 20
115.2804589999999
 30
0.0
 11
100.090916
 21
115.2804589999999
 31
0.0
  0
LINE
  5
9CEA
330
9C43
100
AcDbEntity
  8
1
  6
Continuous
100
AcDbLine
 10
91.090923
 20
108.280459
 30
0.0
 11
100.090916
 21
108.280459
 31
0.0
  0
LINE
  5
9CEB
330
9C43
100
AcDbEntity
  8
2
  6
Continuous
100
AcDbLine
 10
80.62092300000001
 20
102.8219559999999
 30
0.0
 11
88.432423
 21
102.8219559999999
 31
0.0
  0
LINE
  5
9CEC
330
9C43
100
AcDbEntity
  8
2
  6
Continuous
100
AcDbLine
 10
80.090923
 20
102.515955
 30
0.0
 11
80.62092300000001
 21
102.8219559999999
 31
0.0
  0
LINE
  5
9CED
330
9C43
100
AcDbEntity
  8
2
  6
Continuous
100
AcDbLine
 10
91.090923
 20
108.686457
 30
0.0
 11
100.496914
 21
108.686457
 31
0.0
  0
LINE
  5
9CEE
330
9C43
100
AcDbEntity
  8
2
  6
Continuous
100
AcDbLine
 10
91.090923
 20
114.874469
 30
0.0
 11
100.4969369999999
 21
114.874469
 31
0.0
  0
LINE
  5
9CEF
330
9C43
100
AcDbEntity
  8
1
  6
Continuous
100
AcDbLine
 10
100.0908389999999
 20
115.280474
 30
0.0
 11
100.0908389999999
 21
113.8726679999999
 31
0.0
  0
LINE
  5
9CF0
330
9C43
100
AcDbEntity
  8
1
  6
Continuous
100
AcDbLine
 10
100.0908389999999
 20
109.688159
 30
0.0
 11
100.0908389999999
 21
108.2804669999999
 31
0.0
  0
LINE
  5
9CF1
330
9C43
100
AcDbEntity
  8
4
  6
CENTER
100
AcDbLine
 10
131.481129
 20
41.78045899999999
 30
0.0
 11
170.6771889999999
 21
41.78045899999999
 31
0.0
  0
LINE
  5
9CF2
330
9C43
100
AcDbEntity
  8
1
  6
Continuous
100
AcDbLine
 10
151.1675149999998
 20
45.434863
 30
0.0
 11
151.1675149999998
 21
45.04965499999999
 31
0.0
  0
LINE
  5
9CF3
330
9C43
100
AcDbEntity
  8
1
  6
Continuous
100
AcDbLine
 10
153.1675149999998
 20
45.077151
 30
0.0
 11
153.1675149999998
 21
44.691958
 31
0.0
  0
LINE
  5
9CF4
330
9C43
100
AcDbEntity
  8
1
  6
Continuous
100
AcDbLine
 10
151.7675209999999
 20
48.280459
 30
0.0
 11
151.7675209999999
 21
35.280459
 31
0.0
  0
LINE
  5
9CF5
330
9C43
100
AcDbEntity
  8
1
  6
Continuous
100
AcDbLine
 10
152.5675239999999
 20
48.280459
 30
0.0
 11
152.5675239999999
 21
35.280459
 31
0.0
  0
LINE
  5
9CF6
330
9C43
100
AcDbEntity
  8
1
  6
Continuous
100
AcDbLine
 10
151.7675209999999
 20
48.280459
 30
0.0
 11
152.5675239999999
 21
48.280459
 31
0.0
  0
LINE
  5
9CF7
330
9C43
100
AcDbEntity
  8
1
  6
Continuous
100
AcDbLine
 10
151.7675209999999
 20
35.280459
 30
0.0
 11
152.5675239999999
 21
35.280459
 31
0.0
  0
LINE
  5
9CF8
330
9C43
100
AcDbEntity
  8
1
  6
Continuous
100
AcDbLine
 10
151.16753
 20
45.434855
 30
0.0
 11
151.7675209999999
 21
45.327559
 31
0.0
  0
LINE
  5
9CF9
330
9C43
100
AcDbEntity
  8
1
  6
Continuous
100
AcDbLine
 10
151.566425
 20
44.29774699999999
 30
0.0
 11
151.7675209999999
 21
44.203551
 31
0.0
  0
LINE
  5
9CFA
330
9C43
100
AcDbEntity
  8
1
  6
Continuous
100
AcDbLine
 10
151.6462289999998
 20
42.479159
 30
0.0
 11
151.7675209999999
 21
42.408965
 31
0.0
  0
LINE
  5
9CFB
330
9C43
100
AcDbEntity
  8
1
  6
Continuous
100
AcDbLine
 10
151.16753
 20
40.100673
 30
0.0
 11
151.7675209999999
 21
39.819674
 31
0.0
  0
LINE
  5
9CFC
330
9C43
100
AcDbEntity
  8
1
  6
Continuous
100
AcDbLine
 10
151.16753
 20
38.48366399999999
 30
0.0
 11
151.7675209999999
 21
38.376365
 31
0.0
  0
LINE
  5
9CFD
330
9C43
100
AcDbEntity
  8
1
  6
Continuous
100
AcDbLine
 10
151.16753
 20
45.049662
 30
0.0
 11
151.7675209999999
 21
44.94236299999999
 31
0.0
  0
LINE
  5
9CFE
330
9C43
100
AcDbEntity
  8
1
  6
Continuous
100
AcDbLine
 10
151.170521
 20
43.852561
 30
0.0
 11
151.7675209999999
 21
43.572955
 31
0.0
  0
LINE
  5
9CFF
330
9C43
100
AcDbEntity
  8
1
  6
Continuous
100
AcDbLine
 10
151.2469209999999
 20
41.78595999999997
 30
0.0
 11
151.7675209999999
 21
41.484565
 31
0.0
  0
LINE
  5
9D00
330
9C43
100
AcDbEntity
  8
1
  6
Continuous
100
AcDbLine
 10
151.1675149999998
 20
39.63936499999999
 30
0.0
 11
151.7675209999999
 21
39.358462
 31
0.0
  0
LINE
  5
9D01
330
9C43
100
AcDbEntity
  8
1
  6
Continuous
100
AcDbLine
 10
151.16753
 20
38.105658
 30
0.0
 11
151.7675209999999
 21
37.998359
 31
0.0
  0
LINE
  5
9D02
330
9C43
100
AcDbEntity
  8
1
  6
Continuous
100
AcDbLine
 10
151.1675149999998
 20
40.10066499999999
 30
0.0
 11
151.1675149999998
 21
39.639361
 31
0.0
  0
LINE
  5
9D03
330
9C43
100
AcDbEntity
  8
1
  6
Continuous
100
AcDbLine
 10
151.1675149999998
 20
38.48366099999999
 30
0.0
 11
151.1675149999998
 21
38.105655
 31
0.0
  0
LINE
  5
9D04
330
9C43
100
AcDbEntity
  8
1
  6
Continuous
100
AcDbLine
 10
151.1822239999998
 20
43.865764
 30
0.0
 11
151.5781289999999
 21
44.31087
 31
0.0
  0
LINE
  5
9D05
330
9C43
100
AcDbEntity
  8
1
  6
Continuous
100
AcDbLine
 10
152.771641
 20
43.10287
 30
0.0
 11
153.1675449999999
 21
43.547976
 31
0.0
  0
LINE
  5
9D06
330
9C43
100
AcDbEntity
  8
1
  6
Continuous
100
AcDbLine
 10
151.2469369999998
 20
41.785971
 30
0.0
 11
151.6462289999998
 21
42.47917799999998
 31
0.0
  0
LINE
  5
9D07
330
9C43
100
AcDbEntity
  8
1
  6
Continuous
100
AcDbLine
 10
153.2469209999999
 20
41.552657
 30
0.0
 11
152.9424319999999
 21
40.804572
 31
0.0
  0
LINE
  5
9D08
330
9C43
100
AcDbEntity
  8
1
  6
Continuous
100
AcDbLine
 10
152.5675239999999
 20
45.18445899999998
 30
0.0
 11
153.16753
 21
45.07715899999999
 31
0.0
  0
LINE
  5
9D09
330
9C43
100
AcDbEntity
  8
1
  6
Continuous
100
AcDbLine
 10
152.5675239999999
 20
44.79926599999997
 30
0.0
 11
153.16753
 21
44.69196199999998
 31
0.0
  0
LINE
  5
9D0A
330
9C43
100
AcDbEntity
  8
1
  6
Continuous
100
AcDbLine
 10
152.5675239999999
 20
43.828959
 30
0.0
 11
153.1675149999998
 21
43.547961
 31
0.0
  0
LINE
  5
9D0B
330
9C43
100
AcDbEntity
  8
1
  6
Continuous
100
AcDbLine
 10
152.5675239999999
 20
43.19836699999998
 30
0.0
 11
152.771625
 21
43.102866
 31
0.0
  0
LINE
  5
9D0C
330
9C43
100
AcDbEntity
  8
1
  6
Continuous
100
AcDbLine
 10
152.5675239999999
 20
41.945845
 30
0.0
 11
153.2469209999999
 21
41.552649
 31
0.0
  0
LINE
  5
9D0D
330
9C43
100
AcDbEntity
  8
1
  6
Continuous
100
AcDbLine
 10
152.567509
 20
41.02154
 30
0.0
 11
152.942417
 21
40.80453799999999
 31
0.0
  0
LINE
  5
9D0E
330
9C43
100
AcDbEntity
  8
1
  6
Continuous
100
AcDbLine
 10
152.5675239999999
 20
39.445067
 30
0.0
 11
153.16753
 21
39.164164
 31
0.0
  0
LINE
  5
9D0F
330
9C43
100
AcDbEntity
  8
1
  6
Continuous
100
AcDbLine
 10
152.567509
 20
38.983863
 30
0.0
 11
152.780811
 21
38.883963
 31
0.0
  0
LINE
  5
9D10
330
9C43
100
AcDbEntity
  8
1
  6
Continuous
100
AcDbLine
 10
152.5675239999999
 20
38.233252
 30
0.0
 11
153.16753
 21
38.125949
 31
0.0
  0
LINE
  5
9D11
330
9C43
100
AcDbEntity
  8
1
  6
Continuous
100
AcDbLine
 10
152.5675389999999
 20
37.855246
 30
0.0
 11
152.758442
 21
37.82114699999999
 31
0.0
  0
LINE
  5
9D12
330
9C43
100
AcDbEntity
  8
1
  6
Continuous
100
AcDbLine
 10
162.956531
 20
47.280459
 30
0.0
 11
162.956531
 21
36.280459
 31
0.0
  0
LINE
  5
9D13
330
9C43
100
AcDbEntity
  8
1
  6
Continuous
100
AcDbLine
 10
167.156528
 20
47.280459
 30
0.0
 11
167.156528
 21
36.280459
 31
0.0
  0
LINE
  5
9D14
330
9C43
100
AcDbEntity
  8
1
  6
Continuous
100
AcDbLine
 10
135.330326
 20
52.78045899999999
 30
0.0
 11
135.330326
 21
30.78045900000001
 31
0.0
  0
LINE
  5
9D15
330
9C43
100
AcDbEntity
  8
1
  6
Continuous
100
AcDbLine
 10
138.830326
 20
52.78045899999999
 30
0.0
 11
138.830326
 21
30.78045900000001
 31
0.0
  0
LINE
  5
9D16
330
9C43
100
AcDbEntity
  8
1
  6
Continuous
100
AcDbLine
 10
137.86803
 20
41.78045899999999
 30
0.0
 11
135.330326
 21
41.78045899999999
 31
0.0
  0
LINE
  5
9D17
330
9C43
100
AcDbEntity
  8
1
  6
Continuous
100
AcDbLine
 10
135.330326
 20
30.78045900000001
 30
0.0
 11
138.830326
 21
30.78045900000001
 31
0.0
  0
LINE
  5
9D18
330
9C43
100
AcDbEntity
  8
1
  6
Continuous
100
AcDbLine
 10
135.330326
 20
52.78045899999999
 30
0.0
 11
138.830326
 21
52.78045899999999
 31
0.0
  0
LINE
  5
9D19
330
9C43
100
AcDbEntity
  8
1
  6
Continuous
100
AcDbLine
 10
162.956531
 20
47.280459
 30
0.0
 11
167.156528
 21
47.280459
 31
0.0
  0
LINE
  5
9D1A
330
9C43
100
AcDbEntity
  8
1
  6
Continuous
100
AcDbLine
 10
162.956531
 20
36.280459
 30
0.0
 11
167.156528
 21
36.280459
 31
0.0
  0
LINE
  5
9D1B
330
9C43
100
AcDbEntity
  8
1
  6
Continuous
100
AcDbLine
 10
166.665287
 20
41.78045899999999
 30
0.0
 11
163.447773
 21
41.78045899999999
 31
0.0
  0
LINE
  5
9D1C
330
9C43
100
AcDbEntity
  8
1
  6
Continuous
100
AcDbLine
 10
151.16753
 20
115.4348629999998
 30
0.0
 11
151.16753
 21
115.0496699999999
 31
0.0
  0
LINE
  5
9D1D
330
9C43
100
AcDbEntity
  8
1
  6
Continuous
100
AcDbLine
 10
153.16753
 20
115.0771659999999
 30
0.0
 11
153.16753
 21
114.691958
 31
0.0
  0
LINE
  5
9D1E
330
9C43
100
AcDbEntity
  8
1
  6
Continuous
100
AcDbLine
 10
151.7675209999999
 20
118.2804589999999
 30
0.0
 11
151.7675209999999
 21
105.280459
 31
0.0
  0
LINE
  5
9D1F
330
9C43
100
AcDbEntity
  8
1
  6
Continuous
100
AcDbLine
 10
152.5675239999999
 20
118.2804589999999
 30
0.0
 11
152.5675239999999
 21
105.280459
 31
0.0
  0
LINE
  5
9D20
330
9C43
100
AcDbEntity
  8
1
  6
Continuous
100
AcDbLine
 10
151.7675209999999
 20
118.2804589999999
 30
0.0
 11
152.5675239999999
 21
118.2804589999999
 31
0.0
  0
LINE
  5
9D21
330
9C43
100
AcDbEntity
  8
1
  6
Continuous
100
AcDbLine
 10
151.7675209999999
 20
105.280459
 30
0.0
 11
152.5675239999999
 21
105.280459
 31
0.0
  0
LINE
  5
9D22
330
9C43
100
AcDbEntity
  8
1
  6
Continuous
100
AcDbLine
 10
151.16753
 20
115.4348629999998
 30
0.0
 11
151.767536
 21
115.3275629999999
 31
0.0
  0
LINE
  5
9D23
330
9C43
100
AcDbEntity
  8
1
  6
Continuous
100
AcDbLine
 10
151.566334
 20
114.2977469999999
 30
0.0
 11
151.7675209999999
 21
114.2035549999999
 31
0.0
  0
LINE
  5
9D24
330
9C43
100
AcDbEntity
  8
1
  6
Continuous
100
AcDbLine
 10
151.6462289999998
 20
112.479174
 30
0.0
 11
151.767536
 21
112.4089759999999
 31
0.0
  0
LINE
  5
9D25
330
9C43
100
AcDbEntity
  8
1
  6
Continuous
100
AcDbLine
 10
151.16753
 20
110.100642
 30
0.0
 11
151.7675209999999
 21
109.8197429999999
 31
0.0
  0
LINE
  5
9D26
330
9C43
100
AcDbEntity
  8
1
  6
Continuous
100
AcDbLine
 10
151.16753
 20
108.483737
 30
0.0
 11
151.7675209999999
 21
108.3763379999999
 31
0.0
  0
LINE
  5
9D27
330
9C43
100
AcDbEntity
  8
1
  6
Continuous
100
AcDbLine
 10
151.167545
 20
115.0496549999999
 30
0.0
 11
151.767536
 21
114.942355
 31
0.0
  0
LINE
  5
9D28
330
9C43
100
AcDbEntity
  8
1
  6
Continuous
100
AcDbLine
 10
151.170429
 20
113.852557
 30
0.0
 11
151.767536
 21
113.5729549999999
 31
0.0
  0
LINE
  5
9D29
330
9C43
100
AcDbEntity
  8
1
  6
Continuous
100
AcDbLine
 10
151.2468299999999
 20
111.785975
 30
0.0
 11
151.767536
 21
111.484576
 31
0.0
  0
LINE
  5
9D2A
330
9C43
100
AcDbEntity
  8
1
  6
Continuous
100
AcDbLine
 10
151.16753
 20
109.639338
 30
0.0
 11
151.767536
 21
109.3584389999999
 31
0.0
  0
LINE
  5
9D2B
330
9C43
100
AcDbEntity
  8
1
  6
Continuous
100
AcDbLine
 10
151.16753
 20
108.105662
 30
0.0
 11
151.767536
 21
107.998362
 31
0.0
  0
LINE
  5
9D2C
330
9C43
100
AcDbEntity
  8
1
  6
Continuous
100
AcDbLine
 10
151.16753
 20
110.100657
 30
0.0
 11
151.16753
 21
109.639361
 31
0.0
  0
LINE
  5
9D2D
330
9C43
100
AcDbEntity
  8
1
  6
Continuous
100
AcDbLine
 10
151.16753
 20
108.4837599999999
 30
0.0
 11
151.16753
 21
108.105662
 31
0.0
  0
LINE
  5
9D2E
330
9C43
100
AcDbEntity
  8
1
  6
Continuous
100
AcDbLine
 10
151.1822389999998
 20
113.865756
 30
0.0
 11
151.5781289999999
 21
114.310855
 31
0.0
  0
LINE
  5
9D2F
330
9C43
100
AcDbEntity
  8
1
  6
Continuous
100
AcDbLine
 10
152.771625
 20
113.102862
 30
0.0
 11
153.16753
 21
113.547961
 31
0.0
  0
LINE
  5
9D30
330
9C43
100
AcDbEntity
  8
1
  6
Continuous
100
AcDbLine
 10
151.246845
 20
111.785968
 30
0.0
 11
151.6462439999999
 21
112.479174
 31
0.0
  0
LINE
  5
9D31
330
9C43
100
AcDbEntity
  8
1
  6
Continuous
100
AcDbLine
 10
153.2468149999999
 20
111.552653
 30
0.0
 11
152.942417
 21
110.8045679999999
 31
0.0
  0
LINE
  5
9D32
330
9C43
100
AcDbEntity
  8
1
  6
Continuous
100
AcDbLine
 10
152.5675389999999
 20
115.1844659999998
 30
0.0
 11
153.16753
 21
115.0771659999999
 31
0.0
  0
LINE
  5
9D33
330
9C43
100
AcDbEntity
  8
1
  6
Continuous
100
AcDbLine
 10
152.5675389999999
 20
114.7992579999999
 30
0.0
 11
153.16753
 21
114.691958
 31
0.0
  0
LINE
  5
9D34
330
9C43
100
AcDbEntity
  8
1
  6
Continuous
100
AcDbLine
 10
152.5675389999999
 20
113.828967
 30
0.0
 11
153.16753
 21
113.547976
 31
0.0
  0
LINE
  5
9D35
330
9C43
100
AcDbEntity
  8
1
  6
Continuous
100
AcDbLine
 10
152.5675239999999
 20
113.198336
 30
0.0
 11
152.771625
 21
113.1028469999999
 31
0.0
  0
LINE
  5
9D36
330
9C43
100
AcDbEntity
  8
1
  6
Continuous
100
AcDbLine
 10
152.5675389999999
 20
111.945857
 30
0.0
 11
153.2468299999999
 21
111.552661
 31
0.0
  0
LINE
  5
9D37
330
9C43
100
AcDbEntity
  8
1
  6
Continuous
100
AcDbLine
 10
152.5675239999999
 20
111.0215479999999
 30
0.0
 11
152.9424319999999
 21
110.804553
 31
0.0
  0
LINE
  5
9D38
330
9C43
100
AcDbEntity
  8
1
  6
Continuous
100
AcDbLine
 10
152.5675239999999
 20
109.4450409999998
 30
0.0
 11
153.16753
 21
109.1641409999999
 31
0.0
  0
LINE
  5
9D39
330
9C43
100
AcDbEntity
  8
1
  6
Continuous
100
AcDbLine
 10
152.567509
 20
108.9838439999999
 30
0.0
 11
152.7807199999998
 21
108.883944
 31
0.0
  0
LINE
  5
9D3A
330
9C43
100
AcDbEntity
  8
1
  6
Continuous
100
AcDbLine
 10
152.5675389999999
 20
108.2332489999999
 30
0.0
 11
153.16753
 21
108.125949
 31
0.0
  0
LINE
  5
9D3B
330
9C43
100
AcDbEntity
  8
1
  6
Continuous
100
AcDbLine
 10
152.5675239999999
 20
107.855235
 30
0.0
 11
152.75832
 21
107.8211389999998
 31
0.0
  0
LINE
  5
9D3C
330
9C43
100
AcDbEntity
  8
1
  6
Continuous
100
AcDbLine
 10
135.330326
 20
124.482165
 30
0.0
 11
135.330326
 21
99.078753
 31
0.0
  0
LINE
  5
9D3D
330
9C43
100
AcDbEntity
  8
1
  6
Continuous
100
AcDbLine
 10
138.830326
 20
122.7804589999999
 30
0.0
 11
138.830326
 21
100.7804589999998
 31
0.0
  0
LINE
  5
9D3E
330
9C43
100
AcDbEntity
  8
1
  6
Continuous
100
AcDbLine
 10
162.956531
 20
117.2804589999999
 30
0.0
 11
162.956531
 21
106.280459
 31
0.0
  0
LINE
  5
9D3F
330
9C43
100
AcDbEntity
  8
1
  6
Continuous
100
AcDbLine
 10
167.156528
 20
117.2804589999999
 30
0.0
 11
167.156528
 21
106.280459
 31
0.0
  0
LINE
  5
9D40
330
9C43
100
AcDbEntity
  8
4
  6
CENTER
100
AcDbLine
 10
131.481129
 20
111.7804589999999
 30
0.0
 11
170.6771889999999
 21
111.7804589999999
 31
0.0
  0
LINE
  5
9D41
330
9C43
100
AcDbEntity
  8
1
  6
Continuous
100
AcDbLine
 10
135.330326
 20
99.078753
 30
0.0
 11
137.8478429999999
 21
99.078753
 31
0.0
  0
LINE
  5
9D42
330
9C43
100
AcDbEntity
  8
1
  6
Continuous
100
AcDbLine
 10
135.330326
 20
124.482165
 30
0.0
 11
137.8478429999999
 21
124.482165
 31
0.0
  0
LINE
  5
9D43
330
9C43
100
AcDbEntity
  8
1
  6
Continuous
100
AcDbLine
 10
135.330326
 20
118.1313049999999
 30
0.0
 11
137.8478429999999
 21
118.1313049999999
 31
0.0
  0
LINE
  5
9D44
330
9C43
100
AcDbEntity
  8
1
  6
Continuous
100
AcDbLine
 10
135.330326
 20
105.4296059999998
 30
0.0
 11
137.8478429999999
 21
105.4296059999998
 31
0.0
  0
LINE
  5
9D45
330
9C43
100
AcDbEntity
  8
1
  6
Continuous
100
AcDbLine
 10
137.8478429999999
 20
99.078753
 30
0.0
 11
138.830326
 21
100.780452
 31
0.0
  0
LINE
  5
9D46
330
9C43
100
AcDbEntity
  8
1
  6
Continuous
100
AcDbLine
 10
137.8478429999999
 20
124.482165
 30
0.0
 11
138.830326
 21
122.7804589999999
 31
0.0
  0
LINE
  5
9D47
330
9C43
100
AcDbEntity
  8
1
  6
Continuous
100
AcDbLine
 10
163.447773
 20
118.1313049999999
 30
0.0
 11
166.665287
 21
118.1313049999999
 31
0.0
  0
LINE
  5
9D48
330
9C43
100
AcDbEntity
  8
1
  6
Continuous
100
AcDbLine
 10
163.447773
 20
114.9558899999999
 30
0.0
 11
166.665287
 21
114.9558899999999
 31
0.0
  0
LINE
  5
9D49
330
9C43
100
AcDbEntity
  8
1
  6
Continuous
100
AcDbLine
 10
163.447773
 20
108.6050289999999
 30
0.0
 11
166.665287
 21
108.6050289999999
 31
0.0
  0
LINE
  5
9D4A
330
9C43
100
AcDbEntity
  8
1
  6
Continuous
100
AcDbLine
 10
163.447773
 20
105.4295989999999
 30
0.0
 11
166.665287
 21
105.4295989999999
 31
0.0
  0
LINE
  5
9D4B
330
9C43
100
AcDbEntity
  8
1
  6
Continuous
100
AcDbLine
 10
166.665287
 20
118.1313199999999
 30
0.0
 11
167.156528
 21
117.2804589999999
 31
0.0
  0
LINE
  5
9D4C
330
9C43
100
AcDbEntity
  8
1
  6
Continuous
100
AcDbLine
 10
162.956531
 20
117.2804589999999
 30
0.0
 11
163.447773
 21
118.1313199999999
 31
0.0
  0
LINE
  5
9D4D
330
9C43
100
AcDbEntity
  8
1
  6
Continuous
100
AcDbLine
 10
162.956516
 20
106.280459
 30
0.0
 11
163.447773
 21
105.4295989999999
 31
0.0
  0
LINE
  5
9D4E
330
9C43
100
AcDbEntity
  8
1
  6
Continuous
100
AcDbLine
 10
166.665287
 20
105.429591
 30
0.0
 11
167.156528
 21
106.280459
 31
0.0
  0
LINE
  5
9D4F
330
9C43
100
AcDbEntity
  8
1
  6
Continuous
100
AcDbLine
 10
223.5329169999999
 20
105.4296139999999
 30
0.0
 11
229.032902
 21
108.6050289999999
 31
0.0
  0
LINE
  5
9D50
330
9C43
100
AcDbEntity
  8
1
  6
Continuous
100
AcDbLine
 10
218.0329169999999
 20
114.9558899999999
 30
0.0
 11
223.5329019999999
 21
118.1313049999999
 31
0.0
  0
LINE
  5
9D51
330
9C43
100
AcDbEntity
  8
1
  6
Continuous
100
AcDbLine
 10
218.0329169999999
 20
114.9558899999999
 30
0.0
 11
218.0329169999999
 21
108.605037
 31
0.0
  0
LINE
  5
9D52
330
9C43
100
AcDbEntity
  8
1
  6
Continuous
100
AcDbLine
 10
229.032917
 20
114.9558899999999
 30
0.0
 11
229.032917
 21
108.605037
 31
0.0
  0
LINE
  5
9D53
330
9C43
100
AcDbEntity
  8
1
  6
Continuous
100
AcDbLine
 10
218.032902
 20
108.6050289999999
 30
0.0
 11
223.5329169999999
 21
105.4295989999999
 31
0.0
  0
LINE
  5
9D54
330
9C43
100
AcDbEntity
  8
1
  6
Continuous
100
AcDbLine
 10
223.5329019999999
 20
118.1313049999999
 30
0.0
 11
229.032917
 21
114.955874
 31
0.0
  0
LINE
  5
9D55
330
9C43
100
AcDbEntity
  8
1
  6
Continuous
100
AcDbLine
 10
212.532902
 20
118.1313049999999
 30
0.0
 11
223.5329169999999
 21
124.482165
 31
0.0
  0
LINE
  5
9D56
330
9C43
100
AcDbEntity
  8
1
  6
Continuous
100
AcDbLine
 10
223.5329019999999
 20
99.07874599999999
 30
0.0
 11
234.5329169999998
 21
105.4296059999998
 31
0.0
  0
LINE
  5
9D57
330
9C43
100
AcDbEntity
  8
1
  6
Continuous
100
AcDbLine
 10
212.532917
 20
118.1313049999999
 30
0.0
 11
212.532917
 21
105.4296059999998
 31
0.0
  0
LINE
  5
9D58
330
9C43
100
AcDbEntity
  8
1
  6
Continuous
100
AcDbLine
 10
234.5329169999998
 20
118.1313049999999
 30
0.0
 11
234.5329169999998
 21
105.4296059999998
 31
0.0
  0
LINE
  5
9D59
330
9C43
100
AcDbEntity
  8
1
  6
Continuous
100
AcDbLine
 10
212.532917
 20
105.4295989999999
 30
0.0
 11
223.5329169999999
 21
99.07874599999999
 31
0.0
  0
LINE
  5
9D5A
330
9C43
100
AcDbEntity
  8
1
  6
Continuous
100
AcDbLine
 10
223.5329169999999
 20
124.48215
 30
0.0
 11
234.5329169999998
 21
118.1313049999999
 31
0.0
  0
LINE
  5
9D5B
330
9C43
100
AcDbEntity
  8
4
  6
CENTER
100
AcDbLine
 10
237.532917
 20
111.7804589999999
 30
0.0
 11
209.5329169999998
 21
111.7804589999999
 31
0.0
  0
LINE
  5
9D5C
330
9C43
100
AcDbEntity
  8
4
  6
CENTER
100
AcDbLine
 10
223.5329169999999
 20
125.7804589999999
 30
0.0
 11
223.5329169999999
 21
97.780459
 31
0.0
  0
LINE
  5
9D5D
330
9C43
100
AcDbEntity
  8
4
  6
CENTER
100
AcDbLine
 10
131.481129
 20
181.780459
 30
0.0
 11
170.6771889999999
 21
181.780459
 31
0.0
  0
LINE
  5
9D5E
330
9C43
100
AcDbEntity
  8
1
  6
Continuous
100
AcDbLine
 10
151.1675149999998
 20
185.4348629999998
 30
0.0
 11
151.1675149999998
 21
185.049655
 31
0.0
  0
LINE
  5
9D5F
330
9C43
100
AcDbEntity
  8
1
  6
Continuous
100
AcDbLine
 10
153.1675149999998
 20
185.0771509999999
 30
0.0
 11
153.1675149999998
 21
184.6919579999998
 31
0.0
  0
LINE
  5
9D60
330
9C43
100
AcDbEntity
  8
1
  6
Continuous
100
AcDbLine
 10
151.7675209999999
 20
188.280459
 30
0.0
 11
151.7675209999999
 21
175.280459
 31
0.0
  0
LINE
  5
9D61
330
9C43
100
AcDbEntity
  8
1
  6
Continuous
100
AcDbLine
 10
152.5675239999999
 20
188.280459
 30
0.0
 11
152.5675239999999
 21
175.280459
 31
0.0
  0
LINE
  5
9D62
330
9C43
100
AcDbEntity
  8
1
  6
Continuous
100
AcDbLine
 10
151.7675209999999
 20
188.280459
 30
0.0
 11
152.5675239999999
 21
188.280459
 31
0.0
  0
LINE
  5
9D63
330
9C43
100
AcDbEntity
  8
1
  6
Continuous
100
AcDbLine
 10
151.7675209999999
 20
175.280459
 30
0.0
 11
152.5675239999999
 21
175.280459
 31
0.0
  0
LINE
  5
9D64
330
9C43
100
AcDbEntity
  8
1
  6
Continuous
100
AcDbLine
 10
151.1675149999998
 20
185.4348479999999
 30
0.0
 11
151.767506
 21
185.3275629999999
 31
0.0
  0
LINE
  5
9D65
330
9C43
100
AcDbEntity
  8
1
  6
Continuous
100
AcDbLine
 10
151.566425
 20
184.2977469999999
 30
0.0
 11
151.7675209999999
 21
184.203555
 31
0.0
  0
LINE
  5
9D66
330
9C43
100
AcDbEntity
  8
1
  6
Continuous
100
AcDbLine
 10
151.6462289999998
 20
182.479159
 30
0.0
 11
151.7675209999999
 21
182.4089689999999
 31
0.0
  0
LINE
  5
9D67
330
9C43
100
AcDbEntity
  8
1
  6
Continuous
100
AcDbLine
 10
151.16753
 20
180.1006649999999
 30
0.0
 11
151.7675209999999
 21
179.8196739999999
 31
0.0
  0
LINE
  5
9D68
330
9C43
100
AcDbEntity
  8
1
  6
Continuous
100
AcDbLine
 10
151.1675149999998
 20
178.483661
 30
0.0
 11
151.7675209999999
 21
178.376361
 31
0.0
  0
LINE
  5
9D69
330
9C43
100
AcDbEntity
  8
1
  6
Continuous
100
AcDbLine
 10
151.1675149999998
 20
185.049655
 30
0.0
 11
151.767506
 21
184.942355
 31
0.0
  0
LINE
  5
9D6A
330
9C43
100
AcDbEntity
  8
1
  6
Continuous
100
AcDbLine
 10
151.170521
 20
183.8525569999999
 30
0.0
 11
151.767536
 21
183.572955
 31
0.0
  0
LINE
  5
9D6B
330
9C43
100
AcDbEntity
  8
1
  6
Continuous
100
AcDbLine
 10
151.2469209999999
 20
181.7859679999999
 30
0.0
 11
151.7675209999999
 21
181.484561
 31
0.0
  0
LINE
  5
9D6C
330
9C43
100
AcDbEntity
  8
1
  6
Continuous
100
AcDbLine
 10
151.1675149999998
 20
179.639361
 30
0.0
 11
151.7675209999999
 21
179.358462
 31
0.0
  0
LINE
  5
9D6D
330
9C43
100
AcDbEntity
  8
1
  6
Continuous
100
AcDbLine
 10
151.1675149999998
 20
178.105655
 30
0.0
 11
151.7675209999999
 21
177.998355
 31
0.0
  0
LINE
  5
9D6E
330
9C43
100
AcDbEntity
  8
1
  6
Continuous
100
AcDbLine
 10
151.1675149999998
 20
180.1006649999999
 30
0.0
 11
151.1675149999998
 21
179.639361
 31
0.0
  0
LINE
  5
9D6F
330
9C43
100
AcDbEntity
  8
1
  6
Continuous
100
AcDbLine
 10
151.1675149999998
 20
178.483661
 30
0.0
 11
151.1675149999998
 21
178.105655
 31
0.0
  0
LINE
  5
9D70
330
9C43
100
AcDbEntity
  8
1
  6
Continuous
100
AcDbLine
 10
151.1822239999998
 20
183.8657709999999
 30
0.0
 11
151.5781289999999
 21
184.3108699999999
 31
0.0
  0
LINE
  5
9D71
330
9C43
100
AcDbEntity
  8
1
  6
Continuous
100
AcDbLine
 10
152.771641
 20
183.1028769999998
 30
0.0
 11
153.1675449999999
 21
183.547976
 31
0.0
  0
LINE
  5
9D72
330
9C43
100
AcDbEntity
  8
1
  6
Continuous
100
AcDbLine
 10
151.2469369999998
 20
181.7859679999999
 30
0.0
 11
151.6462289999998
 21
182.479174
 31
0.0
  0
LINE
  5
9D73
330
9C43
100
AcDbEntity
  8
1
  6
Continuous
100
AcDbLine
 10
153.2469059999999
 20
181.552661
 30
0.0
 11
152.942417
 21
180.804583
 31
0.0
  0
LINE
  5
9D74
330
9C43
100
AcDbEntity
  8
1
  6
Continuous
100
AcDbLine
 10
152.567509
 20
185.184451
 30
0.0
 11
153.1675149999998
 21
185.0771509999999
 31
0.0
  0
LINE
  5
9D75
330
9C43
100
AcDbEntity
  8
1
  6
Continuous
100
AcDbLine
 10
152.567509
 20
184.799258
 30
0.0
 11
153.1675149999998
 21
184.6919579999998
 31
0.0
  0
LINE
  5
9D76
330
9C43
100
AcDbEntity
  8
1
  6
Continuous
100
AcDbLine
 10
152.5675239999999
 20
183.828952
 30
0.0
 11
153.1675149999998
 21
183.5479609999999
 31
0.0
  0
LINE
  5
9D77
330
9C43
100
AcDbEntity
  8
1
  6
Continuous
100
AcDbLine
 10
152.5675239999999
 20
183.1983669999999
 30
0.0
 11
152.771625
 21
183.1028619999999
 31
0.0
  0
LINE
  5
9D78
330
9C43
100
AcDbEntity
  8
1
  6
Continuous
100
AcDbLine
 10
152.5675239999999
 20
181.9458649999999
 30
0.0
 11
153.2469209999999
 21
181.552661
 31
0.0
  0
LINE
  5
9D79
330
9C43
100
AcDbEntity
  8
1
  6
Continuous
100
AcDbLine
 10
152.567509
 20
181.021548
 30
0.0
 11
152.942417
 21
180.8045379999999
 31
0.0
  0
LINE
  5
9D7A
330
9C43
100
AcDbEntity
  8
1
  6
Continuous
100
AcDbLine
 10
152.5675239999999
 20
179.4450709999999
 30
0.0
 11
153.16753
 21
179.1641569999999
 31
0.0
  0
LINE
  5
9D7B
330
9C43
100
AcDbEntity
  8
1
  6
Continuous
100
AcDbLine
 10
152.5675239999999
 20
178.983859
 30
0.0
 11
152.780826
 21
178.88396
 31
0.0
  0
LINE
  5
9D7C
330
9C43
100
AcDbEntity
  8
1
  6
Continuous
100
AcDbLine
 10
152.567509
 20
178.2332489999998
 30
0.0
 11
153.1675149999998
 21
178.125949
 31
0.0
  0
LINE
  5
9D7D
330
9C43
100
AcDbEntity
  8
1
  6
Continuous
100
AcDbLine
 10
152.5675239999999
 20
177.8552429999998
 30
0.0
 11
152.758427
 21
177.8211389999999
 31
0.0
  0
LINE
  5
9D7E
330
9C43
100
AcDbEntity
  8
1
  6
Continuous
100
AcDbLine
 10
162.956531
 20
187.280459
 30
0.0
 11
162.956531
 21
176.280459
 31
0.0
  0
LINE
  5
9D7F
330
9C43
100
AcDbEntity
  8
1
  6
Continuous
100
AcDbLine
 10
167.156528
 20
187.280459
 30
0.0
 11
167.156528
 21
176.280459
 31
0.0
  0
LINE
  5
9D80
330
9C43
100
AcDbEntity
  8
1
  6
Continuous
100
AcDbLine
 10
135.330326
 20
192.780459
 30
0.0
 11
135.330326
 21
170.780459
 31
0.0
  0
LINE
  5
9D81
330
9C43
100
AcDbEntity
  8
1
  6
Continuous
100
AcDbLine
 10
138.830326
 20
192.780459
 30
0.0
 11
138.830326
 21
170.780459
 31
0.0
  0
LINE
  5
9D82
330
9C43
100
AcDbEntity
  8
1
  6
Continuous
100
AcDbLine
 10
137.86803
 20
181.780459
 30
0.0
 11
135.330326
 21
181.780459
 31
0.0
  0
LINE
  5
9D83
330
9C43
100
AcDbEntity
  8
1
  6
Continuous
100
AcDbLine
 10
135.330326
 20
170.780459
 30
0.0
 11
138.830326
 21
170.780459
 31
0.0
  0
LINE
  5
9D84
330
9C43
100
AcDbEntity
  8
1
  6
Continuous
100
AcDbLine
 10
135.330326
 20
192.780459
 30
0.0
 11
138.830326
 21
192.780459
 31
0.0
  0
LINE
  5
9D85
330
9C43
100
AcDbEntity
  8
1
  6
Continuous
100
AcDbLine
 10
162.956531
 20
187.280459
 30
0.0
 11
167.156528
 21
187.280459
 31
0.0
  0
LINE
  5
9D86
330
9C43
100
AcDbEntity
  8
1
  6
Continuous
100
AcDbLine
 10
162.956531
 20
176.280459
 30
0.0
 11
167.156528
 21
176.280459
 31
0.0
  0
LINE
  5
9D87
330
9C43
100
AcDbEntity
  8
1
  6
Continuous
100
AcDbLine
 10
166.665287
 20
181.780459
 30
0.0
 11
163.447773
 21
181.780459
 31
0.0
  0
LINE
  5
9D88
330
9C43
100
AcDbEntity
  8
1
  6
Continuous
100
AcDbLine
 10
79.09092300000001
 20
52.78045899999999
 30
0.0
 11
80.090923
 21
52.78045899999999
 31
0.0
  0
LINE
  5
9D89
330
9C43
100
AcDbEntity
  8
1
  6
Continuous
100
AcDbLine
 10
79.09092300000001
 20
30.78045900000001
 30
0.0
 11
80.090923
 21
30.78045900000001
 31
0.0
  0
LINE
  5
9D8A
330
9C43
100
AcDbEntity
  8
1
  6
Continuous
100
AcDbLine
 10
73.79091999999999
 20
33.280459
 30
0.0
 11
73.79091999999999
 21
50.280459
 31
0.0
  0
LINE
  5
9D8B
330
9C43
100
AcDbEntity
  8
1
  6
Continuous
100
AcDbLine
 10
73.790935
 20
33.280463
 30
0.0
 11
79.09093100000003
 21
30.780463
 31
0.0
  0
LINE
  5
9D8C
330
9C43
100
AcDbEntity
  8
1
  6
Continuous
100
AcDbLine
 10
80.090923
 20
30.78045900000001
 30
0.0
 11
80.090923
 21
52.78045899999999
 31
0.0
  0
LINE
  5
9D8D
330
9C43
100
AcDbEntity
  8
1
  6
Continuous
100
AcDbLine
 10
73.79091999999999
 20
50.280459
 30
0.0
 11
79.09093100000003
 21
52.780467
 31
0.0
  0
LINE
  5
9D8E
330
9C43
100
AcDbEntity
  8
1
  6
Continuous
100
AcDbLine
 10
88.99093200000001
 20
33.880465
 30
0.0
 11
88.99093200000001
 21
37.88045
 31
0.0
  0
LINE
  5
9D8F
330
9C43
100
AcDbEntity
  8
4
  6
CENTER
100
AcDbLine
 10
71.649822
 20
41.78045899999999
 30
0.0
 11
102.4492299999999
 21
41.78045899999999
 31
0.0
  0
LINE
  5
9D90
330
9C43
100
AcDbEntity
  8
1
  6
Continuous
100
AcDbLine
 10
79.09092300000001
 20
30.78045900000001
 30
0.0
 11
79.09092300000001
 21
52.78045899999999
 31
0.0
  0
LINE
  5
9D91
330
9C43
100
AcDbEntity
  8
1
  6
Continuous
100
AcDbLine
 10
87.89092600000001
 20
33.880465
 30
0.0
 11
87.89092600000001
 21
49.68045299999999
 31
0.0
  0
LINE
  5
9D92
330
9C43
100
AcDbEntity
  8
1
  6
Continuous
100
AcDbLine
 10
88.69092899999998
 20
33.880465
 30
0.0
 11
88.69092899999998
 21
49.68045299999999
 31
0.0
  0
LINE
  5
9D93
330
9C43
100
AcDbEntity
  8
1
  6
Continuous
100
AcDbLine
 10
88.99093200000001
 20
37.88045
 30
0.0
 11
90.79092000000001
 21
37.88045
 31
0.0
  0
LINE
  5
9D94
330
9C43
100
AcDbEntity
  8
1
  6
Continuous
100
AcDbLine
 10
90.79092000000001
 20
45.680468
 30
0.0
 11
88.99093200000001
 21
45.680468
 31
0.0
  0
LINE
  5
9D95
330
9C43
100
AcDbEntity
  8
1
  6
Continuous
100
AcDbLine
 10
73.590923
 20
38.18046799999999
 30
0.0
 11
73.590923
 21
45.380465
 31
0.0
  0
LINE
  5
9D96
330
9C43
100
AcDbEntity
  8
1
  6
Continuous
100
AcDbLine
 10
101.0909229999999
 20
40.08046199999999
 30
0.0
 11
101.0909229999999
 21
43.48045599999998
 31
0.0
  0
LINE
  5
9D97
330
9C43
100
AcDbEntity
  8
1
  6
Continuous
100
AcDbLine
 10
73.790943
 20
37.980456
 30
0.0
 11
73.59093100000002
 21
38.180461
 31
0.0
  0
LINE
  5
9D98
330
9C43
100
AcDbEntity
  8
1
  6
Continuous
100
AcDbLine
 10
73.790943
 20
45.580451
 30
0.0
 11
73.590946
 21
45.380454
 31
0.0
  0
LINE
  5
9D99
330
9C43
100
AcDbEntity
  8
1
  6
Continuous
100
AcDbLine
 10
101.090946
 20
40.080455
 30
0.0
 11
100.0909379999998
 21
39.080455
 31
0.0
  0
LINE
  5
9D9A
330
9C43
100
AcDbEntity
  8
1
  6
Continuous
100
AcDbLine
 10
101.090931
 20
43.48046
 30
0.0
 11
100.090931
 21
44.48046399999999
 31
0.0
  0
LINE
  5
9D9B
330
9C43
100
AcDbEntity
  8
1
  6
Continuous
100
AcDbLine
 10
88.99093200000001
 20
48.780459
 30
0.0
 11
89.04092
 21
48.780459
 31
0.0
  0
LINE
  5
9D9C
330
9C43
100
AcDbEntity
  8
1
  6
Continuous
100
AcDbLine
 10
88.99093200000001
 20
34.780459
 30
0.0
 11
89.04092
 21
34.780459
 31
0.0
  0
LINE
  5
9D9D
330
9C43
100
AcDbEntity
  8
1
  6
Continuous
100
AcDbLine
 10
89.14092600000001
 20
34.880465
 30
0.0
 11
89.14092600000001
 21
37.88045
 31
0.0
  0
LINE
  5
9D9E
330
9C43
100
AcDbEntity
  8
1
  6
Continuous
100
AcDbLine
 10
89.14094199999999
 20
34.880465
 30
0.0
 11
89.04092799999999
 21
34.78045499999999
 31
0.0
  0
LINE
  5
9D9F
330
9C43
100
AcDbEntity
  8
1
  6
Continuous
100
AcDbLine
 10
89.040943
 20
48.780459
 30
0.0
 11
89.14094199999999
 21
48.68046500000001
 31
0.0
  0
LINE
  5
9DA0
330
9C43
100
AcDbEntity
  8
1
  6
Continuous
100
AcDbLine
 10
89.14092600000001
 20
45.680468
 30
0.0
 11
89.14092600000001
 21
48.680453
 31
0.0
  0
LINE
  5
9DA1
330
9C43
100
AcDbEntity
  8
1
  6
Continuous
100
AcDbLine
 10
91.090923
 20
34.08046199999999
 30
0.0
 11
89.490932
 21
34.08046199999999
 31
0.0
  0
LINE
  5
9DA2
330
9C43
100
AcDbEntity
  8
1
  6
Continuous
100
AcDbLine
 10
89.490932
 20
34.08046199999999
 30
0.0
 11
89.490932
 21
37.88045
 31
0.0
  0
LINE
  5
9DA3
330
9C43
100
AcDbEntity
  8
1
  6
Continuous
100
AcDbLine
 10
91.090923
 20
44.48045599999999
 30
0.0
 11
100.090931
 21
44.48045599999999
 31
0.0
  0
LINE
  5
9DA4
330
9C43
100
AcDbEntity
  8
1
  6
Continuous
100
AcDbLine
 10
91.090923
 20
39.08046199999999
 30
0.0
 11
100.090931
 21
39.08046199999999
 31
0.0
  0
LINE
  5
9DA5
330
9C43
100
AcDbEntity
  8
1
  6
Continuous
100
AcDbLine
 10
80.090923
 20
49.68045299999999
 30
0.0
 11
88.99093200000001
 21
49.68045299999999
 31
0.0
  0
LINE
  5
9DA6
330
9C43
100
AcDbEntity
  8
1
  6
Continuous
100
AcDbLine
 10
80.090923
 20
33.88045
 30
0.0
 11
88.99093200000001
 21
33.88045
 31
0.0
  0
LINE
  5
9DA7
330
9C43
100
AcDbEntity
  8
1
  6
Continuous
100
AcDbLine
 10
91.090923
 20
34.08046199999999
 30
0.0
 11
91.090923
 21
49.30218499999998
 31
0.0
  0
LINE
  5
9DA8
330
9C43
100
AcDbEntity
  8
1
  6
Continuous
100
AcDbLine
 10
100.090816
 20
39.08046599999997
 30
0.0
 11
100.090816
 21
44.48046
 31
0.0
  0
LINE
  5
9DA9
330
9C43
100
AcDbEntity
  8
1
  6
Continuous
100
AcDbLine
 10
90.79092000000001
 20
45.680468
 30
0.0
 11
90.79092000000001
 21
37.88045
 31
0.0
  0
LINE
  5
9DAA
330
9C43
100
AcDbEntity
  8
1
  6
Continuous
100
AcDbLine
 10
89.490932
 20
45.680468
 30
0.0
 11
89.490932
 21
49.30218499999998
 31
0.0
  0
LINE
  5
9DAB
330
9C43
100
AcDbEntity
  8
1
  6
Continuous
100
AcDbLine
 10
88.99093200000001
 20
45.680468
 30
0.0
 11
88.99093200000001
 21
49.68045299999999
 31
0.0
  0
LINE
  5
9DAC
330
9C43
100
AcDbEntity
  8
1
  6
Continuous
100
AcDbLine
 10
39.547825
 20
118.1313199999999
 30
0.0
 11
28.547825
 21
124.482165
 31
0.0
  0
LINE
  5
9DAD
330
9C43
100
AcDbEntity
  8
1
  6
Continuous
100
AcDbLine
 10
28.547817
 20
124.482165
 30
0.0
 11
17.54781699999999
 21
118.1313049999999
 31
0.0
  0
LINE
  5
9DAE
330
9C43
100
AcDbEntity
  8
1
  6
Continuous
100
AcDbLine
 10
17.54782099999999
 20
118.1313049999999
 30
0.0
 11
17.54782099999999
 21
105.4296059999998
 31
0.0
  0
LINE
  5
9DAF
330
9C43
100
AcDbEntity
  8
1
  6
Continuous
100
AcDbLine
 10
28.54782099999999
 20
99.078753
 30
0.0
 11
17.54782099999999
 21
105.4296059999998
 31
0.0
  0
LINE
  5
9DB0
330
9C43
100
AcDbEntity
  8
1
  6
Continuous
100
AcDbLine
 10
39.54781699999998
 20
105.4296059999998
 30
0.0
 11
28.547817
 21
99.078753
 31
0.0
  0
LINE
  5
9DB1
330
9C43
100
AcDbEntity
  8
1
  6
Continuous
100
AcDbLine
 10
39.547821
 20
118.1313049999999
 30
0.0
 11
39.547821
 21
105.4296059999998
 31
0.0
  0
LINE
  5
9DB2
330
9C43
100
AcDbEntity
  8
1
  6
Continuous
100
AcDbLine
 10
367.9749179999998
 20
122.7804589999999
 30
0.0
 11
366.974918
 21
122.7804589999999
 31
0.0
  0
LINE
  5
9DB3
330
9C43
100
AcDbEntity
  8
1
  6
Continuous
100
AcDbLine
 10
366.974918
 20
102.280459
 30
0.0
 11
359.1749299999999
 21
102.280459
 31
0.0
  0
LINE
  5
9DB4
330
9C43
100
AcDbEntity
  8
1
  6
Continuous
100
AcDbLine
 10
366.974918
 20
121.2804589999999
 30
0.0
 11
359.1749299999999
 21
121.2804589999999
 31
0.0
  0
LINE
  5
9DB5
330
9C43
100
AcDbEntity
  8
1
  6
Continuous
100
AcDbLine
 10
358.374912
 20
103.080455
 30
0.0
 11
356.2749059999999
 21
103.080455
 31
0.0
  0
LINE
  5
9DB6
330
9C43
100
AcDbEntity
  8
1
  6
Continuous
100
AcDbLine
 10
358.374912
 20
120.480456
 30
0.0
 11
358.074924
 21
120.480456
 31
0.0
  0
LINE
  5
9DB7
330
9C43
100
AcDbEntity
  8
1
  6
Continuous
100
AcDbLine
 10
373.2749059999999
 20
120.2804589999999
 30
0.0
 11
373.2749059999999
 21
103.280459
 31
0.0
  0
LINE
  5
9DB8
330
9C43
100
AcDbEntity
  8
1
  6
Continuous
100
AcDbLine
 10
373.2749059999999
 20
120.2804589999999
 30
0.0
 11
367.9749179999998
 21
122.7804589999999
 31
0.0
  0
LINE
  5
9DB9
330
9C43
100
AcDbEntity
  8
1
  6
Continuous
100
AcDbLine
 10
366.974918
 20
122.7804589999999
 30
0.0
 11
366.974918
 21
100.7804589999998
 31
0.0
  0
LINE
  5
9DBA
330
9C43
100
AcDbEntity
  8
1
  6
Continuous
100
AcDbLine
 10
367.9749179999998
 20
100.7804589999998
 30
0.0
 11
366.974918
 21
100.7804589999998
 31
0.0
  0
LINE
  5
9DBB
330
9C43
100
AcDbEntity
  8
1
  6
Continuous
100
AcDbLine
 10
373.2749059999999
 20
103.280459
 30
0.0
 11
367.9749179999998
 21
100.7804589999998
 31
0.0
  0
LINE
  5
9DBC
330
9C43
100
AcDbEntity
  8
1
  6
Continuous
100
AcDbLine
 10
358.374912
 20
120.4804709999998
 30
0.0
 11
359.1749299999999
 21
121.2804739999999
 31
0.0
  0
LINE
  5
9DBD
330
9C43
100
AcDbEntity
  8
1
  6
Continuous
100
AcDbLine
 10
358.374912
 20
103.08047
 30
0.0
 11
359.1749299999999
 21
102.2804669999999
 31
0.0
  0
LINE
  5
9DBE
330
9C43
100
AcDbEntity
  8
1
  6
Continuous
100
AcDbLine
 10
358.074924
 20
120.480456
 30
0.0
 11
358.074924
 21
104.003558
 31
0.0
  0
LINE
  5
9DBF
330
9C43
100
AcDbEntity
  8
1
  6
Continuous
100
AcDbLine
 10
356.2749059999999
 20
104.258738
 30
0.0
 11
356.2749059999999
 21
103.080455
 31
0.0
  0
LINE
  5
9DC0
330
9C43
100
AcDbEntity
  8
4
  6
CENTER
100
AcDbLine
 10
375.739323
 20
111.7804589999999
 30
0.0
 11
343.334293
 21
111.7804589999999
 31
0.0
  0
LINE
  5
9DC1
330
9C43
100
AcDbEntity
  8
1
  6
Continuous
100
AcDbLine
 10
358.074924
 20
104.003558
 30
0.0
 11
356.2749059999999
 21
104.003558
 31
0.0
  0
LINE
  5
9DC2
330
9C43
100
AcDbEntity
  8
1
  6
Continuous
100
AcDbLine
 10
358.074924
 20
105.22156
 30
0.0
 11
357.574924
 21
105.22156
 31
0.0
  0
LINE
  5
9DC3
330
9C43
100
AcDbEntity
  8
1
  6
Continuous
100
AcDbLine
 10
373.474918
 20
115.3804499999999
 30
0.0
 11
373.474918
 21
108.180461
 31
0.0
  0
LINE
  5
9DC4
330
9C43
100
AcDbEntity
  8
1
  6
Continuous
100
AcDbLine
 10
345.974918
 20
114.2804589999999
 30
0.0
 11
345.974918
 21
109.2804589999999
 31
0.0
  0
LINE
  5
9DC5
330
9C43
100
AcDbEntity
  8
1
  6
Continuous
100
AcDbLine
 10
355.974918
 20
113.8726679999999
 30
0.0
 11
345.974918
 21
113.8726679999999
 31
0.0
  0
LINE
  5
9DC6
330
9C43
100
AcDbEntity
  8
1
  6
Continuous
100
AcDbLine
 10
355.974918
 20
109.688159
 30
0.0
 11
345.974918
 21
109.688159
 31
0.0
  0
LINE
  5
9DC7
330
9C43
100
AcDbEntity
  8
2
  6
Continuous
100
AcDbLine
 10
355.974918
 20
113.280154
 30
0.0
 11
346.274906
 21
109.688151
 31
0.0
  0
LINE
  5
9DC8
330
9C43
100
AcDbEntity
  8
2
  6
Continuous
100
AcDbLine
 10
355.974918
 20
110.2806579999999
 30
0.0
 11
346.274906
 21
113.8726679999999
 31
0.0
  0
LINE
  5
9DC9
330
9C43
100
AcDbEntity
  8
1
  6
Continuous
100
AcDbLine
 10
373.2749059999999
 20
115.5804779999999
 30
0.0
 11
373.474918
 21
115.3804649999998
 31
0.0
  0
LINE
  5
9DCA
330
9C43
100
AcDbEntity
  8
1
  6
Continuous
100
AcDbLine
 10
373.2749059999999
 20
107.980456
 30
0.0
 11
373.474918
 21
108.180453
 31
0.0
  0
LINE
  5
9DCB
330
9C43
100
AcDbEntity
  8
1
  6
Continuous
100
AcDbLine
 10
357.9249299999998
 20
108.280459
 30
0.0
 11
357.574924
 21
108.280459
 31
0.0
  0
LINE
  5
9DCC
330
9C43
100
AcDbEntity
  8
1
  6
Continuous
100
AcDbLine
 10
357.9249299999998
 20
115.2804589999999
 30
0.0
 11
357.574924
 21
115.2804589999999
 31
0.0
  0
LINE
  5
9DCD
330
9C43
100
AcDbEntity
  8
1
  6
Continuous
100
AcDbLine
 10
346.9749179999998
 20
115.280474
 30
0.0
 11
345.974918
 21
114.2804589999999
 31
0.0
  0
LINE
  5
9DCE
330
9C43
100
AcDbEntity
  8
1
  6
Continuous
100
AcDbLine
 10
345.974918
 20
109.280474
 30
0.0
 11
346.9749179999998
 21
108.280474
 31
0.0
  0
LINE
  5
9DCF
330
9C43
100
AcDbEntity
  8
1
  6
Continuous
100
AcDbLine
 10
358.074924
 20
118.780459
 30
0.0
 11
358.0249059999999
 21
118.780459
 31
0.0
  0
LINE
  5
9DD0
330
9C43
100
AcDbEntity
  8
1
  6
Continuous
100
AcDbLine
 10
357.9249299999998
 20
118.6804679999999
 30
0.0
 11
357.9249299999998
 21
105.22156
 31
0.0
  0
LINE
  5
9DD1
330
9C43
100
AcDbEntity
  8
1
  6
Continuous
100
AcDbLine
 10
357.9248999999999
 20
118.680453
 30
0.0
 11
358.0249059999999
 21
118.7804439999998
 31
0.0
  0
LINE
  5
9DD2
330
9C43
100
AcDbEntity
  8
1
  6
Continuous
100
AcDbLine
 10
367.9749179999998
 20
122.7804589999999
 30
0.0
 11
367.9749179999998
 21
100.7804589999998
 31
0.0
  0
LINE
  5
9DD3
330
9C43
100
AcDbEntity
  8
1
  6
Continuous
100
AcDbLine
 10
366.974918
 20
117.0567499999998
 30
0.0
 11
359.1749299999999
 21
117.0567499999998
 31
0.0
  0
LINE
  5
9DD4
330
9C43
100
AcDbEntity
  8
1
  6
Continuous
100
AcDbLine
 10
366.974918
 20
106.5040619999999
 30
0.0
 11
359.1749299999999
 21
106.5040619999999
 31
0.0
  0
LINE
  5
9DD5
330
9C43
100
AcDbEntity
  8
1
  6
Continuous
100
AcDbLine
 10
359.1749299999999
 20
121.2804589999999
 30
0.0
 11
359.1749299999999
 21
117.0567499999998
 31
0.0
  0
LINE
  5
9DD6
330
9C43
100
AcDbEntity
  8
1
  6
Continuous
100
AcDbLine
 10
358.374912
 20
120.480456
 30
0.0
 11
358.374912
 21
116.2567619999999
 31
0.0
  0
LINE
  5
9DD7
330
9C43
100
AcDbEntity
  8
1
  6
Continuous
100
AcDbLine
 10
358.374912
 20
116.2567619999999
 30
0.0
 11
359.1749
 21
117.0567499999998
 31
0.0
  0
LINE
  5
9DD8
330
9C43
100
AcDbEntity
  8
1
  6
Continuous
100
AcDbLine
 10
358.374912
 20
116.2567619999999
 30
0.0
 11
358.074924
 21
116.2567619999999
 31
0.0
  0
LINE
  5
9DD9
330
9C43
100
AcDbEntity
  8
1
  6
Continuous
100
AcDbLine
 10
359.1749299999999
 20
102.280459
 30
0.0
 11
359.1749299999999
 21
106.5040619999999
 31
0.0
  0
LINE
  5
9DDA
330
9C43
100
AcDbEntity
  8
1
  6
Continuous
100
AcDbLine
 10
358.374912
 20
103.080455
 30
0.0
 11
358.374912
 21
107.304057
 31
0.0
  0
LINE
  5
9DDB
330
9C43
100
AcDbEntity
  8
1
  6
Continuous
100
AcDbLine
 10
358.374912
 20
107.304057
 30
0.0
 11
359.1749
 21
106.504054
 31
0.0
  0
LINE
  5
9DDC
330
9C43
100
AcDbEntity
  8
1
  6
Continuous
100
AcDbLine
 10
358.374912
 20
107.304057
 30
0.0
 11
358.074924
 21
107.304057
 31
0.0
  0
LINE
  5
9DDD
330
9C43
100
AcDbEntity
  8
2
  6
Continuous
100
AcDbLine
 10
366.974918
 20
117.0567649999999
 30
0.0
 11
358.0748939999998
 21
107.3040489999999
 31
0.0
  0
LINE
  5
9DDE
330
9C43
100
AcDbEntity
  8
2
  6
Continuous
100
AcDbLine
 10
358.074924
 20
116.256747
 30
0.0
 11
366.974918
 21
106.504046
 31
0.0
  0
LINE
  5
9DDF
330
9C43
100
AcDbEntity
  8
1
  6
Continuous
100
AcDbLine
 10
357.574924
 20
119.480456
 30
0.0
 11
355.974918
 21
119.480456
 31
0.0
  0
LINE
  5
9DE0
330
9C43
100
AcDbEntity
  8
1
  6
Continuous
100
AcDbLine
 10
357.574924
 20
119.480456
 30
0.0
 11
357.574924
 21
104.258738
 31
0.0
  0
LINE
  5
9DE1
330
9C43
100
AcDbEntity
  8
1
  6
Continuous
100
AcDbLine
 10
355.974918
 20
119.480456
 30
0.0
 11
355.974918
 21
104.258738
 31
0.0
  0
LINE
  5
9DE2
330
9C43
100
AcDbEntity
  8
1
  6
Continuous
100
AcDbLine
 10
355.974918
 20
115.2804589999999
 30
0.0
 11
346.9749179999998
 21
115.2804589999999
 31
0.0
  0
LINE
  5
9DE3
330
9C43
100
AcDbEntity
  8
1
  6
Continuous
100
AcDbLine
 10
355.974918
 20
108.280459
 30
0.0
 11
346.9749179999998
 21
108.280459
 31
0.0
  0
LINE
  5
9DE4
330
9C43
100
AcDbEntity
  8
2
  6
Continuous
100
AcDbLine
 10
355.974918
 20
108.686457
 30
0.0
 11
346.568912
 21
108.686457
 31
0.0
  0
LINE
  5
9DE5
330
9C43
100
AcDbEntity
  8
2
  6
Continuous
100
AcDbLine
 10
355.974918
 20
114.874469
 30
0.0
 11
346.568912
 21
114.874469
 31
0.0
  0
LINE
  5
9DE6
330
9C43
100
AcDbEntity
  8
1
  6
Continuous
100
AcDbLine
 10
346.97501
 20
115.280474
 30
0.0
 11
346.97501
 21
113.8726679999999
 31
0.0
  0
LINE
  5
9DE7
330
9C43
100
AcDbEntity
  8
1
  6
Continuous
100
AcDbLine
 10
346.97501
 20
109.688159
 30
0.0
 11
346.97501
 21
108.2804669999999
 31
0.0
  0
LINE
  5
9DE8
330
9C43
100
AcDbEntity
  8
1
  6
Continuous
100
AcDbLine
 10
295.898319
 20
115.4348629999998
 30
0.0
 11
295.898319
 21
115.0496699999999
 31
0.0
  0
LINE
  5
9DE9
330
9C43
100
AcDbEntity
  8
1
  6
Continuous
100
AcDbLine
 10
293.898319
 20
115.0771659999999
 30
0.0
 11
293.898319
 21
114.691958
 31
0.0
  0
LINE
  5
9DEA
330
9C43
100
AcDbEntity
  8
1
  6
Continuous
100
AcDbLine
 10
295.298313
 20
118.2804589999999
 30
0.0
 11
295.298313
 21
105.280459
 31
0.0
  0
LINE
  5
9DEB
330
9C43
100
AcDbEntity
  8
1
  6
Continuous
100
AcDbLine
 10
294.4982949999999
 20
118.2804589999999
 30
0.0
 11
294.4982949999999
 21
105.280459
 31
0.0
  0
LINE
  5
9DEC
330
9C43
100
AcDbEntity
  8
1
  6
Continuous
100
AcDbLine
 10
295.298313
 20
118.2804589999999
 30
0.0
 11
294.4982949999999
 21
118.2804589999999
 31
0.0
  0
LINE
  5
9DED
330
9C43
100
AcDbEntity
  8
1
  6
Continuous
100
AcDbLine
 10
295.298313
 20
105.280459
 30
0.0
 11
294.4982949999999
 21
105.280459
 31
0.0
  0
LINE
  5
9DEE
330
9C43
100
AcDbEntity
  8
1
  6
Continuous
100
AcDbLine
 10
295.8982889999999
 20
115.4348629999998
 30
0.0
 11
295.298283
 21
115.3275629999999
 31
0.0
  0
LINE
  5
9DEF
330
9C43
100
AcDbEntity
  8
1
  6
Continuous
100
AcDbLine
 10
295.4994849999998
 20
114.2977629999998
 30
0.0
 11
295.298313
 21
114.20357
 31
0.0
  0
LINE
  5
9DF0
330
9C43
100
AcDbEntity
  8
1
  6
Continuous
100
AcDbLine
 10
295.41962
 20
112.479174
 30
0.0
 11
295.298283
 21
112.4089689999999
 31
0.0
  0
LINE
  5
9DF1
330
9C43
100
AcDbEntity
  8
1
  6
Continuous
100
AcDbLine
 10
295.8982889999999
 20
110.100642
 30
0.0
 11
295.298313
 21
109.819751
 31
0.0
  0
LINE
  5
9DF2
330
9C43
100
AcDbEntity
  8
1
  6
Continuous
100
AcDbLine
 10
295.8982889999999
 20
108.483744
 30
0.0
 11
295.298313
 21
108.3763449999999
 31
0.0
  0
LINE
  5
9DF3
330
9C43
100
AcDbEntity
  8
1
  6
Continuous
100
AcDbLine
 10
295.8982889999999
 20
115.0496699999999
 30
0.0
 11
295.298283
 21
114.94237
 31
0.0
  0
LINE
  5
9DF4
330
9C43
100
AcDbEntity
  8
1
  6
Continuous
100
AcDbLine
 10
295.895389
 20
113.8525419999999
 30
0.0
 11
295.298313
 21
113.5729549999999
 31
0.0
  0
LINE
  5
9DF5
330
9C43
100
AcDbEntity
  8
1
  6
Continuous
100
AcDbLine
 10
295.819004
 20
111.785968
 30
0.0
 11
295.298283
 21
111.484561
 31
0.0
  0
LINE
  5
9DF6
330
9C43
100
AcDbEntity
  8
1
  6
Continuous
100
AcDbLine
 10
295.8982889999999
 20
109.639338
 30
0.0
 11
295.298283
 21
109.3584389999999
 31
0.0
  0
LINE
  5
9DF7
330
9C43
100
AcDbEntity
  8
1
  6
Continuous
100
AcDbLine
 10
295.898319
 20
108.105662
 30
0.0
 11
295.298313
 21
107.998362
 31
0.0
  0
LINE
  5
9DF8
330
9C43
100
AcDbEntity
  8
1
  6
Continuous
100
AcDbLine
 10
295.898319
 20
110.100657
 30
0.0
 11
295.898319
 21
109.639361
 31
0.0
  0
LINE
  5
9DF9
330
9C43
100
AcDbEntity
  8
1
  6
Continuous
100
AcDbLine
 10
295.898319
 20
108.4837599999999
 30
0.0
 11
295.898319
 21
108.105662
 31
0.0
  0
LINE
  5
9DFA
330
9C43
100
AcDbEntity
  8
1
  6
Continuous
100
AcDbLine
 10
295.883579
 20
113.865756
 30
0.0
 11
295.4877049999998
 21
114.310855
 31
0.0
  0
LINE
  5
9DFB
330
9C43
100
AcDbEntity
  8
1
  6
Continuous
100
AcDbLine
 10
294.2941929999999
 20
113.102862
 30
0.0
 11
293.8982889999999
 21
113.547961
 31
0.0
  0
LINE
  5
9DFC
330
9C43
100
AcDbEntity
  8
1
  6
Continuous
100
AcDbLine
 10
295.819004
 20
111.785975
 30
0.0
 11
295.4195899999998
 21
112.479174
 31
0.0
  0
LINE
  5
9DFD
330
9C43
100
AcDbEntity
  8
1
  6
Continuous
100
AcDbLine
 10
293.8190339999998
 20
111.552653
 30
0.0
 11
294.123417
 21
110.8045679999999
 31
0.0
  0
LINE
  5
9DFE
330
9C43
100
AcDbEntity
  8
1
  6
Continuous
100
AcDbLine
 10
294.4982949999999
 20
115.1844659999998
 30
0.0
 11
293.8982889999999
 21
115.0771659999999
 31
0.0
  0
LINE
  5
9DFF
330
9C43
100
AcDbEntity
  8
1
  6
Continuous
100
AcDbLine
 10
294.4982949999999
 20
114.799273
 30
0.0
 11
293.8982889999999
 21
114.6919739999999
 31
0.0
  0
LINE
  5
9E00
330
9C43
100
AcDbEntity
  8
1
  6
Continuous
100
AcDbLine
 10
294.4982949999999
 20
113.828967
 30
0.0
 11
293.8982889999999
 21
113.547961
 31
0.0
  0
LINE
  5
9E01
330
9C43
100
AcDbEntity
  8
1
  6
Continuous
100
AcDbLine
 10
294.4982949999999
 20
113.198336
 30
0.0
 11
294.2941929999999
 21
113.102832
 31
0.0
  0
LINE
  5
9E02
330
9C43
100
AcDbEntity
  8
1
  6
Continuous
100
AcDbLine
 10
294.4982949999999
 20
111.945865
 30
0.0
 11
293.819004
 21
111.552668
 31
0.0
  0
LINE
  5
9E03
330
9C43
100
AcDbEntity
  8
1
  6
Continuous
100
AcDbLine
 10
294.498325
 20
111.021556
 30
0.0
 11
294.123386
 21
110.8045449999999
 31
0.0
  0
LINE
  5
9E04
330
9C43
100
AcDbEntity
  8
1
  6
Continuous
100
AcDbLine
 10
294.4982949999999
 20
109.4450409999998
 30
0.0
 11
293.8982889999999
 21
109.1641409999999
 31
0.0
  0
LINE
  5
9E05
330
9C43
100
AcDbEntity
  8
1
  6
Continuous
100
AcDbLine
 10
294.498325
 20
108.983851
 30
0.0
 11
294.2851289999999
 21
108.883952
 31
0.0
  0
LINE
  5
9E06
330
9C43
100
AcDbEntity
  8
1
  6
Continuous
100
AcDbLine
 10
294.4982949999999
 20
108.233256
 30
0.0
 11
293.8982889999999
 21
108.125956
 31
0.0
  0
LINE
  5
9E07
330
9C43
100
AcDbEntity
  8
1
  6
Continuous
100
AcDbLine
 10
294.4982949999999
 20
107.855235
 30
0.0
 11
294.3075289999999
 21
107.8211389999998
 31
0.0
  0
LINE
  5
9E08
330
9C43
100
AcDbEntity
  8
1
  6
Continuous
100
AcDbLine
 10
311.7355079999999
 20
124.482165
 30
0.0
 11
311.7355079999999
 21
99.078753
 31
0.0
  0
LINE
  5
9E09
330
9C43
100
AcDbEntity
  8
1
  6
Continuous
100
AcDbLine
 10
308.2355079999999
 20
122.7804589999999
 30
0.0
 11
308.2355079999999
 21
100.7804589999998
 31
0.0
  0
LINE
  5
9E0A
330
9C43
100
AcDbEntity
  8
1
  6
Continuous
100
AcDbLine
 10
284.1093179999999
 20
117.2804589999999
 30
0.0
 11
284.1093179999999
 21
106.280459
 31
0.0
  0
LINE
  5
9E0B
330
9C43
100
AcDbEntity
  8
1
  6
Continuous
100
AcDbLine
 10
279.9093049999999
 20
117.2804589999999
 30
0.0
 11
279.9093049999999
 21
106.280459
 31
0.0
  0
LINE
  5
9E0C
330
9C43
100
AcDbEntity
  8
4
  6
CENTER
100
AcDbLine
 10
315.58472
 20
111.7804589999999
 30
0.0
 11
276.388645
 21
111.7804589999999
 31
0.0
  0
LINE
  5
9E0D
330
9C43
100
AcDbEntity
  8
1
  6
Continuous
100
AcDbLine
 10
311.7355079999999
 20
99.078753
 30
0.0
 11
309.217991
 21
99.078753
 31
0.0
  0
LINE
  5
9E0E
330
9C43
100
AcDbEntity
  8
1
  6
Continuous
100
AcDbLine
 10
311.7355079999999
 20
124.482165
 30
0.0
 11
309.217991
 21
124.482165
 31
0.0
  0
LINE
  5
9E0F
330
9C43
100
AcDbEntity
  8
1
  6
Continuous
100
AcDbLine
 10
311.7355079999999
 20
118.1313049999999
 30
0.0
 11
309.217991
 21
118.1313049999999
 31
0.0
  0
LINE
  5
9E10
330
9C43
100
AcDbEntity
  8
1
  6
Continuous
100
AcDbLine
 10
311.7355079999999
 20
105.4296059999998
 30
0.0
 11
309.217991
 21
105.4296059999998
 31
0.0
  0
LINE
  5
9E11
330
9C43
100
AcDbEntity
  8
1
  6
Continuous
100
AcDbLine
 10
309.21796
 20
99.078753
 30
0.0
 11
308.2355079999999
 21
100.7804439999999
 31
0.0
  0
LINE
  5
9E12
330
9C43
100
AcDbEntity
  8
1
  6
Continuous
100
AcDbLine
 10
309.217991
 20
124.482165
 30
0.0
 11
308.2355079999999
 21
122.7804589999999
 31
0.0
  0
LINE
  5
9E13
330
9C43
100
AcDbEntity
  8
1
  6
Continuous
100
AcDbLine
 10
283.6180459999998
 20
118.1313049999999
 30
0.0
 11
280.400547
 21
118.1313049999999
 31
0.0
  0
LINE
  5
9E14
330
9C43
100
AcDbEntity
  8
1
  6
Continuous
100
AcDbLine
 10
283.6180459999998
 20
114.9558899999999
 30
0.0
 11
280.400547
 21
114.9558899999999
 31
0.0
  0
LINE
  5
9E15
330
9C43
100
AcDbEntity
  8
1
  6
Continuous
100
AcDbLine
 10
283.6180459999998
 20
108.6050289999999
 30
0.0
 11
280.400547
 21
108.6050289999999
 31
0.0
  0
LINE
  5
9E16
330
9C43
100
AcDbEntity
  8
1
  6
Continuous
100
AcDbLine
 10
283.6180459999998
 20
105.4295989999999
 30
0.0
 11
280.400547
 21
105.4295989999999
 31
0.0
  0
LINE
  5
9E17
330
9C43
100
AcDbEntity
  8
1
  6
Continuous
100
AcDbLine
 10
280.400547
 20
118.1313199999999
 30
0.0
 11
279.9093049999999
 21
117.2804589999999
 31
0.0
  0
LINE
  5
9E18
330
9C43
100
AcDbEntity
  8
1
  6
Continuous
100
AcDbLine
 10
284.1093179999999
 20
117.2804589999999
 30
0.0
 11
283.6180459999998
 21
118.1313199999999
 31
0.0
  0
LINE
  5
9E19
330
9C43
100
AcDbEntity
  8
1
  6
Continuous
100
AcDbLine
 10
284.1093179999999
 20
106.280452
 30
0.0
 11
283.6180759999999
 21
105.4295989999999
 31
0.0
  0
LINE
  5
9E1A
330
9C43
100
AcDbEntity
  8
1
  6
Continuous
100
AcDbLine
 10
280.400547
 20
105.4295989999999
 30
0.0
 11
279.9093049999999
 21
106.2804669999999
 31
0.0
  0
LINE
  5
9E1B
330
9C43
100
AcDbEntity
  8
1
  6
Continuous
100
AcDbLine
 10
355.974918
 20
107.950259
 30
0.0
 11
357.574924
 21
107.950259
 31
0.0
  0
LINE
  5
9E1C
330
9C43
100
AcDbEntity
  8
1
  6
Continuous
100
AcDbLine
 10
355.974918
 20
115.610553
 30
0.0
 11
357.574924
 21
115.610553
 31
0.0
  0
ARC
  5
9E1D
330
9C43
100
AcDbEntity
  8
1
  6
Continuous
100
AcDbCircle
 10
223.5329169999999
 20
111.7804589999999
 30
0.0
 40
8.599999999999997
100
AcDbArc
 50
116.446693
 51
150.999978
  0
ARC
  5
9E1E
330
9C43
100
AcDbEntity
  8
1
  6
Continuous
100
AcDbCircle
 10
223.5329169999999
 20
111.7804589999999
 30
0.0
 40
8.599999999999997
100
AcDbArc
 50
299.000161
 51
333.553262
  0
ARC
  5
9E1F
330
9C43
100
AcDbEntity
  8
1
  6
Continuous
100
AcDbCircle
 10
223.5329169999999
 20
111.7804589999999
 30
0.0
 40
8.599999999999997
100
AcDbArc
 50
26.44669699999999
 51
63.553291
  0
ARC
  5
9E20
330
9C43
100
AcDbEntity
  8
1
  6
Continuous
100
AcDbCircle
 10
18.64781899999998
 20
178.780459
 30
0.0
 40
6.5
100
AcDbArc
 50
179.999978
 51
270.000001
  0
ARC
  5
9E21
330
9C43
100
AcDbEntity
  8
1
  6
Continuous
100
AcDbCircle
 10
18.64781899999998
 20
184.780459
 30
0.0
 40
6.5
100
AcDbArc
 50
89.99998900000001
 51
179.999978
  0
ARC
  5
9E22
330
9C43
100
AcDbEntity
  8
1
  6
Continuous
100
AcDbCircle
 10
27.647819
 20
178.780459
 30
0.0
 40
6.5
100
AcDbArc
 50
269.99997
 51
352.04116
  0
ARC
  5
9E23
330
9C43
100
AcDbEntity
  8
1
  6
Continuous
100
AcDbCircle
 10
15.747818
 20
184.280459
 30
0.0
 40
1.0
100
AcDbArc
 50
89.99998900000001
 51
179.999978
  0
ARC
  5
9E24
330
9C43
100
AcDbEntity
  8
1
  6
Continuous
100
AcDbCircle
 10
15.747818
 20
179.280459
 30
0.0
 40
1.0
100
AcDbArc
 50
179.999978
 51
269.999973
  0
ARC
  5
9E25
330
9C43
100
AcDbEntity
  8
1
  6
Continuous
100
AcDbCircle
 10
17.54782099999999
 20
179.280459
 30
0.0
 40
1.0
100
AcDbArc
 50
269.99997
 51
0.0
  0
ARC
  5
9E26
330
9C43
100
AcDbEntity
  8
1
  6
Continuous
100
AcDbCircle
 10
17.54782099999999
 20
184.280459
 30
0.0
 40
1.0
100
AcDbArc
 50
0.0
 51
89.99998900000001
  0
ARC
  5
9E27
330
9C43
100
AcDbEntity
  8
1
  6
Continuous
100
AcDbCircle
 10
40.54782099999999
 20
187.9941589999999
 30
0.0
 40
1.199999999999999
100
AcDbArc
 50
0.0
 51
76.99999400000002
  0
ARC
  5
9E28
330
9C43
100
AcDbEntity
  8
1
  6
Continuous
100
AcDbCircle
 10
31.84781599999999
 20
181.780459
 30
0.0
 40
3.9
100
AcDbArc
 50
206.176982
 51
269.99997
  0
ARC
  5
9E29
330
9C43
100
AcDbEntity
  8
1
  6
Continuous
100
AcDbCircle
 10
31.84781599999999
 20
181.780459
 30
0.0
 40
3.9
100
AcDbArc
 50
89.99998900000001
 51
153.822977
  0
CIRCLE
  5
9E2A
330
9C43
100
AcDbEntity
  8
1
  6
Continuous
100
AcDbCircle
 10
28.54782099999999
 20
111.7804589999999
 30
0.0
 40
11.0
  0
CIRCLE
  5
9E2B
330
9C43
100
AcDbEntity
  8
1
  6
Continuous
100
AcDbCircle
 10
28.54782099999999
 20
111.7804589999999
 30
0.0
 40
8.5
  0
ARC
  5
9E2C
330
9C43
100
AcDbEntity
  8
1
  6
Continuous
100
AcDbCircle
 10
28.54782099999999
 20
111.7804589999999
 30
0.0
 40
4.9
100
AcDbArc
 50
100.2865879999999
 51
79.71339899999998
  0
ARC
  5
9E2D
330
9C43
100
AcDbEntity
  8
1
  6
Continuous
100
AcDbCircle
 10
28.54782099999999
 20
111.7804589999999
 30
0.0
 40
3.6
100
AcDbArc
 50
104.0669889999998
 51
75.93299899999998
  0
ARC
  5
9E2E
330
9C43
100
AcDbEntity
  8
1
  6
Continuous
100
AcDbCircle
 10
28.54782099999999
 20
111.7804589999999
 30
0.0
 40
3.9
100
AcDbArc
 50
102.965191
 51
77.03479
  0
ARC
  5
9E2F
330
9C43
100
AcDbEntity
  8
1
  6
Continuous
100
AcDbCircle
 10
33.115921
 20
114.1584649999998
 30
0.0
 40
1.05
100
AcDbArc
 50
137.0273779999999
 51
277.97258
  0
ARC
  5
9E30
330
9C43
100
AcDbEntity
  8
1
  6
Continuous
100
AcDbCircle
 10
33.45941899999999
 20
110.231761
 30
0.0
 40
1.05
100
AcDbArc
 50
92.02738700000002
 51
232.972562
  0
ARC
  5
9E31
330
9C43
100
AcDbEntity
  8
1
  6
Continuous
100
AcDbCircle
 10
30.925819
 20
107.212359
 30
0.0
 40
1.05
100
AcDbArc
 50
47.027396
 51
187.972584
  0
ARC
  5
9E32
330
9C43
100
AcDbEntity
  8
1
  6
Continuous
100
AcDbCircle
 10
26.99912299999999
 20
106.868762
 30
0.0
 40
1.05
100
AcDbArc
 50
2.0274
 51
142.9725799999999
  0
ARC
  5
9E33
330
9C43
100
AcDbEntity
  8
1
  6
Continuous
100
AcDbCircle
 10
23.979721
 20
109.402461
 30
0.0
 40
1.05
100
AcDbArc
 50
317.027363
 51
97.97258900000002
  0
ARC
  5
9E34
330
9C43
100
AcDbEntity
  8
1
  6
Continuous
100
AcDbCircle
 10
23.63611999999999
 20
113.329058
 30
0.0
 40
1.05
100
AcDbArc
 50
272.027368
 51
52.97259399999999
  0
ARC
  5
9E35
330
9C43
100
AcDbEntity
  8
1
  6
Continuous
100
AcDbCircle
 10
26.169823
 20
116.348559
 30
0.0
 40
1.05
100
AcDbArc
 50
227.027377
 51
7.972599
  0
ARC
  5
9E36
330
9C43
100
AcDbEntity
  8
1
  6
Continuous
100
AcDbCircle
 10
223.5329169999999
 20
111.7804589999999
 30
0.0
 40
7.025
100
AcDbArc
 50
150.999718
 51
299.0000549999999
  0
ARC
  5
9E37
330
9C43
100
AcDbEntity
  8
1
  6
Continuous
100
AcDbCircle
 10
223.5329169999999
 20
111.7804589999999
 30
0.0
 40
7.299999999999998
100
AcDbArc
 50
150.999773
 51
299.0000819999999
  0
ARC
  5
9E38
330
9C43
100
AcDbEntity
  8
2
  6
Continuous
100
AcDbCircle
 10
223.5329169999999
 20
111.7804589999999
 30
0.0
 40
9.5
100
AcDbArc
 50
326.2613759999999
 51
33.738624
  0
ARC
  5
9E39
330
9C43
100
AcDbEntity
  8
1
  6
Continuous
100
AcDbCircle
 10
223.5329169999999
 20
111.7804589999999
 30
0.0
 40
9.5
100
AcDbArc
 50
213.7386709999999
 51
326.261263
  0
ARC
  5
9E3A
330
9C43
100
AcDbEntity
  8
1
  6
Continuous
100
AcDbCircle
 10
223.5329169999999
 20
111.7804589999999
 30
0.0
 40
8.699999999999997
100
AcDbArc
 50
24.763297
 51
155.2366759999999
  0
ARC
  5
9E3B
330
9C43
100
AcDbEntity
  8
1
  6
Continuous
100
AcDbCircle
 10
223.5329169999999
 20
111.7804589999999
 30
0.0
 40
8.699999999999997
100
AcDbArc
 50
204.763283
 51
335.2366609999999
  0
ARC
  5
9E3C
330
9C43
100
AcDbEntity
  8
1
  6
Continuous
100
AcDbCircle
 10
223.5329169999999
 20
102.584956
 30
0.0
 40
4.15
100
AcDbArc
 50
19.988897
 51
39.444295
  0
ARC
  5
9E3D
330
9C43
100
AcDbEntity
  8
1
  6
Continuous
100
AcDbCircle
 10
223.5329169999999
 20
102.584956
 30
0.0
 40
4.15
100
AcDbArc
 50
140.55569
 51
160.011088
  0
ARC
  5
9E3E
330
9C43
100
AcDbEntity
  8
1
  6
Continuous
100
AcDbCircle
 10
223.5329169999999
 20
111.7804589999999
 30
0.0
 40
7.0
100
AcDbArc
 50
150.999705
 51
299.0000549999999
  0
ARC
  5
9E3F
330
9C43
100
AcDbEntity
  8
2
  6
Continuous
100
AcDbCircle
 10
223.5329169999999
 20
111.7804589999999
 30
0.0
 40
3.5
100
AcDbArc
 50
320.4822669999999
 51
39.517733
  0
CIRCLE
  5
9E40
330
9C43
100
AcDbEntity
  8
1
  6
Continuous
100
AcDbCircle
 10
85.69092899999999
 20
178.9237549999998
 30
0.0
 40
1.5
  0
ARC
  5
9E41
330
9C43
100
AcDbEntity
  8
1
  6
Continuous
100
AcDbCircle
 10
150.7307169999999
 20
47.219256
 30
0.0
 40
1.837099999999999
100
AcDbArc
 50
283.7564009999999
 51
304.360797
  0
ARC
  5
9E42
330
9C43
100
AcDbEntity
  8
1
  6
Continuous
100
AcDbCircle
 10
153.346622
 20
46.081256
 30
0.0
 40
1.02
100
AcDbArc
 50
220.197967
 51
259.8874579999999
  0
ARC
  5
9E43
330
9C43
100
AcDbEntity
  8
1
  6
Continuous
100
AcDbCircle
 10
150.7018159999998
 20
47.273455
 30
0.0
 40
3.0987
100
AcDbArc
 50
286.2014999999999
 51
290.1163999999998
  0
ARC
  5
9E44
330
9C43
100
AcDbEntity
  8
1
  6
Continuous
100
AcDbCircle
 10
147.7282139999998
 20
46.440951
 30
0.0
 40
4.3083
100
AcDbArc
 50
323.293095
 51
339.6457919999999
  0
ARC
  5
9E45
330
9C43
100
AcDbEntity
  8
1
  6
Continuous
100
AcDbCircle
 10
151.63451
 20
43.067859
 30
0.0
 40
0.9421000000000001
100
AcDbArc
 50
352.033188
 51
7.966789999999998
  0
ARC
  5
9E46
330
9C43
100
AcDbEntity
  8
1
  6
Continuous
100
AcDbCircle
 10
147.48032
 20
43.622851
 30
0.0
 40
4.287499999999997
100
AcDbArc
 50
342.6549889999999
 51
359.333888
  0
ARC
  5
9E47
330
9C43
100
AcDbEntity
  8
1
  6
Continuous
100
AcDbCircle
 10
150.546223
 20
38.570163
 30
0.0
 40
1.236599999999999
100
AcDbArc
 50
350.982889
 51
59.83788700000001
  0
ARC
  5
9E48
330
9C43
100
AcDbEntity
  8
1
  6
Continuous
100
AcDbCircle
 10
153.5097239999998
 20
38.284762
 30
0.0
 40
0.9435999999999999
100
AcDbArc
 50
111.260872
 51
183.128764
  0
ARC
  5
9E49
330
9C43
100
AcDbEntity
  8
1
  6
Continuous
100
AcDbCircle
 10
153.4993169999999
 20
37.253756
 30
0.0
 40
0.9332
100
AcDbArc
 50
110.826171
 51
183.12397
  0
ARC
  5
9E4A
330
9C43
100
AcDbEntity
  8
1
  6
Continuous
100
AcDbCircle
 10
153.835911
 20
36.033557
 30
0.0
 40
2.0872
100
AcDbArc
 50
121.080976
 51
127.4232709999999
  0
ARC
  5
9E4B
330
9C43
100
AcDbEntity
  8
1
  6
Continuous
100
AcDbCircle
 10
149.3600199999999
 20
36.503955
 30
0.0
 40
2.415099999999998
100
AcDbArc
 50
355.4672909999999
 51
41.544786
  0
ARC
  5
9E4C
330
9C43
100
AcDbEntity
  8
1
  6
Continuous
100
AcDbCircle
 10
152.8009219999999
 20
39.78015399999998
 30
0.0
 40
1.0341
100
AcDbArc
 50
82.13137900000003
 51
103.0404729999999
  0
ARC
  5
9E4D
330
9C43
100
AcDbEntity
  8
1
  6
Continuous
100
AcDbCircle
 10
122.7896459999999
 20
47.25280999999998
 30
0.0
 40
16.04068599999999
100
AcDbArc
 50
340.0528149999999
 51
20.157459
  0
ARC
  5
9E4E
330
9C43
100
AcDbEntity
  8
1
  6
Continuous
100
AcDbCircle
 10
122.7896459999999
 20
36.30810799999999
 30
0.0
 40
16.04068599999999
100
AcDbArc
 50
339.8425409999999
 51
19.947185
  0
ARC
  5
9E4F
330
9C43
100
AcDbEntity
  8
1
  6
Continuous
100
AcDbCircle
 10
159.213611
 20
44.530459
 30
0.0
 40
7.942914999999997
100
AcDbArc
 50
339.7436819999999
 51
20.256318
  0
ARC
  5
9E50
330
9C43
100
AcDbEntity
  8
1
  6
Continuous
100
AcDbCircle
 10
159.213611
 20
39.030459
 30
0.0
 40
7.942914999999997
100
AcDbArc
 50
339.7436819999999
 51
20.256318
  0
ARC
  5
9E51
330
9C43
100
AcDbEntity
  8
1
  6
Continuous
100
AcDbCircle
 10
170.899448
 20
39.030459
 30
0.0
 40
7.942914999999997
100
AcDbArc
 50
159.743686
 51
200.256311
  0
ARC
  5
9E52
330
9C43
100
AcDbEntity
  8
1
  6
Continuous
100
AcDbCircle
 10
170.899448
 20
44.530459
 30
0.0
 40
7.942914999999997
100
AcDbArc
 50
159.743686
 51
200.256311
  0
ARC
  5
9E53
330
9C43
100
AcDbEntity
  8
1
  6
Continuous
100
AcDbCircle
 10
150.730625
 20
117.219256
 30
0.0
 40
1.837099999999999
100
AcDbArc
 50
283.756367
 51
304.360767
  0
ARC
  5
9E54
330
9C43
100
AcDbEntity
  8
1
  6
Continuous
100
AcDbCircle
 10
153.346622
 20
116.081256
 30
0.0
 40
1.02
100
AcDbArc
 50
220.1979809999999
 51
259.8874719999999
  0
ARC
  5
9E55
330
9C43
100
AcDbEntity
  8
1
  6
Continuous
100
AcDbCircle
 10
150.701725
 20
117.2734549999999
 30
0.0
 40
3.0987
100
AcDbArc
 50
286.2014659999999
 51
290.116366
  0
ARC
  5
9E56
330
9C43
100
AcDbEntity
  8
1
  6
Continuous
100
AcDbCircle
 10
147.7282289999999
 20
116.440966
 30
0.0
 40
4.3083
100
AcDbArc
 50
323.293064
 51
339.645761
  0
ARC
  5
9E57
330
9C43
100
AcDbEntity
  8
1
  6
Continuous
100
AcDbCircle
 10
151.634434
 20
113.067859
 30
0.0
 40
0.9421000000000001
100
AcDbArc
 50
352.03316
 51
7.966799
  0
ARC
  5
9E58
330
9C43
100
AcDbEntity
  8
1
  6
Continuous
100
AcDbCircle
 10
147.480335
 20
113.622851
 30
0.0
 40
4.287499999999997
100
AcDbArc
 50
342.65496
 51
359.3338589999998
  0
ARC
  5
9E59
330
9C43
100
AcDbEntity
  8
1
  6
Continuous
100
AcDbCircle
 10
150.546131
 20
108.5701629999998
 30
0.0
 40
1.236599999999999
100
AcDbArc
 50
350.98286
 51
59.83789399999999
  0
ARC
  5
9E5A
330
9C43
100
AcDbEntity
  8
1
  6
Continuous
100
AcDbCircle
 10
153.509632
 20
108.284762
 30
0.0
 40
0.9435999999999999
100
AcDbArc
 50
111.260886
 51
183.128778
  0
ARC
  5
9E5B
330
9C43
100
AcDbEntity
  8
1
  6
Continuous
100
AcDbCircle
 10
153.4992259999999
 20
107.253756
 30
0.0
 40
0.9332
100
AcDbArc
 50
110.826185
 51
183.1239829999999
  0
ARC
  5
9E5C
330
9C43
100
AcDbEntity
  8
1
  6
Continuous
100
AcDbCircle
 10
153.835834
 20
106.033557
 30
0.0
 40
2.0872
100
AcDbArc
 50
121.08099
 51
127.4232849999998
  0
ARC
  5
9E5D
330
9C43
100
AcDbEntity
  8
1
  6
Continuous
100
AcDbCircle
 10
149.3599279999999
 20
106.503955
 30
0.0
 40
2.415099999999998
100
AcDbArc
 50
355.467259
 51
41.54479600000001
  0
ARC
  5
9E5E
330
9C43
100
AcDbEntity
  8
1
  6
Continuous
100
AcDbCircle
 10
152.8008309999999
 20
109.780162
 30
0.0
 40
1.0341
100
AcDbArc
 50
82.131392
 51
103.040487
  0
ARC
  5
9E5F
330
9C43
100
AcDbEntity
  8
1
  6
Continuous
100
AcDbCircle
 10
133.207523
 20
121.3067349999999
 30
0.0
 40
5.622809999999999
100
AcDbArc
 50
325.6157519999998
 51
25.615752
  0
ARC
  5
9E60
330
9C43
100
AcDbEntity
  8
1
  6
Continuous
100
AcDbCircle
 10
117.8128089999999
 20
111.7804589999999
 30
0.0
 40
21.017519
100
AcDbArc
 50
342.4120459999999
 51
17.587954
  0
ARC
  5
9E61
330
9C43
100
AcDbEntity
  8
1
  6
Continuous
100
AcDbCircle
 10
133.207523
 20
102.2541839999999
 30
0.0
 40
5.622809999999999
100
AcDbArc
 50
334.384248
 51
34.38424799999999
  0
ARC
  5
9E62
330
9C43
100
AcDbEntity
  8
1
  6
Continuous
100
AcDbCircle
 10
156.6478159999998
 20
111.7804589999999
 30
0.0
 40
10.50871499999999
100
AcDbArc
 50
342.411937
 51
17.58806299999999
  0
ARC
  5
9E63
330
9C43
100
AcDbEntity
  8
1
  6
Continuous
100
AcDbCircle
 10
164.3451419999998
 20
107.0173139999998
 30
0.0
 40
2.811392999999998
100
AcDbArc
 50
334.3844680000001
 51
34.384467
  0
ARC
  5
9E64
330
9C43
100
AcDbEntity
  8
1
  6
Continuous
100
AcDbCircle
 10
164.3451419999998
 20
116.5435969999999
 30
0.0
 40
2.811392999999998
100
AcDbArc
 50
325.615533
 51
25.615532
  0
ARC
  5
9E65
330
9C43
100
AcDbEntity
  8
1
  6
Continuous
100
AcDbCircle
 10
165.7679179999998
 20
107.0173139999998
 30
0.0
 40
2.811392999999998
100
AcDbArc
 50
145.6155349999999
 51
205.615537
  0
ARC
  5
9E66
330
9C43
100
AcDbEntity
  8
1
  6
Continuous
100
AcDbCircle
 10
165.7679179999998
 20
116.5435969999999
 30
0.0
 40
2.811392999999998
100
AcDbArc
 50
154.3844729999999
 51
214.3844749999999
  0
ARC
  5
9E67
330
9C43
100
AcDbEntity
  8
1
  6
Continuous
100
AcDbCircle
 10
173.4652439999999
 20
111.7804589999999
 30
0.0
 40
10.50871499999999
100
AcDbArc
 50
162.4119399999998
 51
197.5880699999999
  0
CIRCLE
  5
9E68
330
9C43
100
AcDbEntity
  8
1
  6
Continuous
100
AcDbCircle
 10
223.5329169999999
 20
111.7804589999999
 30
0.0
 40
6.5
  0
ARC
  5
9E69
330
9C43
100
AcDbEntity
  8
1
  6
Continuous
100
AcDbCircle
 10
223.5329169999999
 20
111.7804589999999
 30
0.0
 40
3.093999999999998
100
AcDbArc
 50
330.7687399999999
 51
29.23126
  0
ARC
  5
9E6A
330
9C43
100
AcDbEntity
  8
1
  6
Continuous
100
AcDbCircle
 10
223.5329169999999
 20
111.7804589999999
 30
0.0
 40
3.5
100
AcDbArc
 50
39.517733
 51
140.4822649999998
  0
ARC
  5
9E6B
330
9C43
100
AcDbEntity
  8
2
  6
Continuous
100
AcDbCircle
 10
223.5329169999999
 20
111.7804589999999
 30
0.0
 40
3.093999999999998
100
AcDbArc
 50
29.23126
 51
150.7687349999999
  0
ARC
  5
9E6C
330
9C43
100
AcDbEntity
  8
1
  6
Continuous
100
AcDbCircle
 10
223.5329169999999
 20
111.7804589999999
 30
0.0
 40
3.093999999999998
100
AcDbArc
 50
150.7687349999999
 51
209.231261
  0
ARC
  5
9E6D
330
9C43
100
AcDbEntity
  8
2
  6
Continuous
100
AcDbCircle
 10
223.5329169999999
 20
111.7804589999999
 30
0.0
 40
3.5
100
AcDbArc
 50
140.4822649999998
 51
219.517731
  0
ARC
  5
9E6E
330
9C43
100
AcDbEntity
  8
2
  6
Continuous
100
AcDbCircle
 10
223.5329169999999
 20
111.7804589999999
 30
0.0
 40
3.093999999999998
100
AcDbArc
 50
209.231265
 51
330.7687399999999
  0
ARC
  5
9E6F
330
9C43
100
AcDbEntity
  8
1
  6
Continuous
100
AcDbCircle
 10
223.5329169999999
 20
111.7804589999999
 30
0.0
 40
3.5
100
AcDbArc
 50
219.5177349999999
 51
320.4822669999999
  0
ARC
  5
9E70
330
9C43
100
AcDbEntity
  8
1
  6
Continuous
100
AcDbCircle
 10
223.5329169999999
 20
111.7804589999999
 30
0.0
 40
8.9585
100
AcDbArc
 50
331.865742
 51
28.134258
  0
ARC
  5
9E71
330
9C43
100
AcDbEntity
  8
2
  6
Continuous
100
AcDbCircle
 10
223.5329169999999
 20
111.7804589999999
 30
0.0
 40
9.5
100
AcDbArc
 50
146.2612059999999
 51
213.7387899999999
  0
ARC
  5
9E72
330
9C43
100
AcDbEntity
  8
1
  6
Continuous
100
AcDbCircle
 10
223.5329169999999
 20
111.7804589999999
 30
0.0
 40
9.5
100
AcDbArc
 50
33.738624
 51
146.2612059999999
  0
ARC
  5
9E73
330
9C43
100
AcDbEntity
  8
1
  6
Continuous
100
AcDbCircle
 10
223.5329169999999
 20
111.7804589999999
 30
0.0
 40
8.9585
100
AcDbArc
 50
152.8229959999999
 51
208.1344689999999
  0
ARC
  5
9E74
330
9C43
100
AcDbEntity
  8
2
  6
Continuous
100
AcDbCircle
 10
223.5329169999999
 20
111.7804589999999
 30
0.0
 40
8.9585
100
AcDbArc
 50
208.134459
 51
331.865742
  0
ARC
  5
9E75
330
9C43
100
AcDbEntity
  8
2
  6
Continuous
100
AcDbCircle
 10
223.5329169999999
 20
111.7804589999999
 30
0.0
 40
8.9585
100
AcDbArc
 50
28.134258
 51
151.8655409999998
  0
CIRCLE
  5
9E76
330
9C43
100
AcDbEntity
  8
1
  6
Continuous
100
AcDbCircle
 10
223.5329169999999
 20
111.7804589999999
 30
0.0
 40
11.0
  0
ARC
  5
9E77
330
9C43
100
AcDbEntity
  8
1
  6
Continuous
100
AcDbCircle
 10
150.7307169999999
 20
187.219256
 30
0.0
 40
1.837099999999999
100
AcDbArc
 50
283.7564009999999
 51
304.360797
  0
ARC
  5
9E78
330
9C43
100
AcDbEntity
  8
1
  6
Continuous
100
AcDbCircle
 10
153.346622
 20
186.081256
 30
0.0
 40
1.02
100
AcDbArc
 50
220.197967
 51
259.8874579999999
  0
ARC
  5
9E79
330
9C43
100
AcDbEntity
  8
1
  6
Continuous
100
AcDbCircle
 10
150.7018159999998
 20
187.273455
 30
0.0
 40
3.0987
100
AcDbArc
 50
286.2014999999999
 51
290.1163999999998
  0
ARC
  5
9E7A
330
9C43
100
AcDbEntity
  8
1
  6
Continuous
100
AcDbCircle
 10
147.7282139999998
 20
186.440951
 30
0.0
 40
4.3083
100
AcDbArc
 50
323.293095
 51
339.6457919999999
  0
ARC
  5
9E7B
330
9C43
100
AcDbEntity
  8
1
  6
Continuous
100
AcDbCircle
 10
151.63451
 20
183.0678589999999
 30
0.0
 40
0.9421000000000001
100
AcDbArc
 50
352.033188
 51
7.966789999999998
  0
ARC
  5
9E7C
330
9C43
100
AcDbEntity
  8
1
  6
Continuous
100
AcDbCircle
 10
147.48032
 20
183.6228509999999
 30
0.0
 40
4.287499999999997
100
AcDbArc
 50
342.6549889999999
 51
359.333888
  0
ARC
  5
9E7D
330
9C43
100
AcDbEntity
  8
1
  6
Continuous
100
AcDbCircle
 10
150.546223
 20
178.5701629999999
 30
0.0
 40
1.236599999999999
100
AcDbArc
 50
350.982889
 51
59.83788700000001
  0
ARC
  5
9E7E
330
9C43
100
AcDbEntity
  8
1
  6
Continuous
100
AcDbCircle
 10
153.5097239999998
 20
178.284762
 30
0.0
 40
0.9435999999999999
100
AcDbArc
 50
111.260872
 51
183.128764
  0
ARC
  5
9E7F
330
9C43
100
AcDbEntity
  8
1
  6
Continuous
100
AcDbCircle
 10
153.4993169999999
 20
177.253756
 30
0.0
 40
0.9332
100
AcDbArc
 50
110.826171
 51
183.12397
  0
ARC
  5
9E80
330
9C43
100
AcDbEntity
  8
1
  6
Continuous
100
AcDbCircle
 10
153.835911
 20
176.033557
 30
0.0
 40
2.0872
100
AcDbArc
 50
121.080976
 51
127.4232709999999
  0
ARC
  5
9E81
330
9C43
100
AcDbEntity
  8
1
  6
Continuous
100
AcDbCircle
 10
149.3600199999999
 20
176.503955
 30
0.0
 40
2.415099999999998
100
AcDbArc
 50
355.4672909999999
 51
41.544786
  0
ARC
  5
9E82
330
9C43
100
AcDbEntity
  8
1
  6
Continuous
100
AcDbCircle
 10
152.8009219999999
 20
179.780154
 30
0.0
 40
1.0341
100
AcDbArc
 50
82.13137900000003
 51
103.0404729999999
  0
ARC
  5
9E83
330
9C43
100
AcDbEntity
  8
1
  6
Continuous
100
AcDbCircle
 10
122.7896459999999
 20
187.25281
 30
0.0
 40
16.04068599999999
100
AcDbArc
 50
340.0528149999999
 51
20.157459
  0
ARC
  5
9E84
330
9C43
100
AcDbEntity
  8
1
  6
Continuous
100
AcDbCircle
 10
122.7896459999999
 20
176.308108
 30
0.0
 40
16.04068599999999
100
AcDbArc
 50
339.8425409999999
 51
19.947185
  0
ARC
  5
9E85
330
9C43
100
AcDbEntity
  8
1
  6
Continuous
100
AcDbCircle
 10
159.213611
 20
184.5304589999998
 30
0.0
 40
7.942914999999997
100
AcDbArc
 50
339.7436819999999
 51
20.256318
  0
ARC
  5
9E86
330
9C43
100
AcDbEntity
  8
1
  6
Continuous
100
AcDbCircle
 10
159.213611
 20
179.030459
 30
0.0
 40
7.942914999999997
100
AcDbArc
 50
339.7436819999999
 51
20.256318
  0
ARC
  5
9E87
330
9C43
100
AcDbEntity
  8
1
  6
Continuous
100
AcDbCircle
 10
170.899448
 20
179.030459
 30
0.0
 40
7.942914999999997
100
AcDbArc
 50
159.743686
 51
200.256311
  0
ARC
  5
9E88
330
9C43
100
AcDbEntity
  8
1
  6
Continuous
100
AcDbCircle
 10
170.899448
 20
184.5304589999998
 30
0.0
 40
7.942914999999997
100
AcDbArc
 50
159.743686
 51
200.256311
  0
ARC
  5
9E89
330
9C43
100
AcDbEntity
  8
1
  6
Continuous
100
AcDbCircle
 10
296.3352089999998
 20
117.219256
 30
0.0
 40
1.837099999999999
100
AcDbArc
 50
235.639235
 51
256.243635
  0
ARC
  5
9E8A
330
9C43
100
AcDbEntity
  8
1
  6
Continuous
100
AcDbCircle
 10
293.7192109999998
 20
116.081256
 30
0.0
 40
1.02
100
AcDbArc
 50
280.1125299999999
 51
319.8020179999998
  0
ARC
  5
9E8B
330
9C43
100
AcDbEntity
  8
1
  6
Continuous
100
AcDbCircle
 10
296.3641089999999
 20
117.2734549999999
 30
0.0
 40
3.0987
100
AcDbArc
 50
249.8836359999998
 51
253.7985359999999
  0
ARC
  5
9E8C
330
9C43
100
AcDbEntity
  8
1
  6
Continuous
100
AcDbCircle
 10
299.3375889999999
 20
116.440966
 30
0.0
 40
4.3083
100
AcDbArc
 50
200.3542319999999
 51
216.7069339999999
  0
ARC
  5
9E8D
330
9C43
100
AcDbEntity
  8
1
  6
Continuous
100
AcDbCircle
 10
295.4314
 20
113.067859
 30
0.0
 40
0.9421000000000001
100
AcDbArc
 50
172.033204
 51
187.966847
  0
ARC
  5
9E8E
330
9C43
100
AcDbEntity
  8
1
  6
Continuous
100
AcDbCircle
 10
299.5855139999998
 20
113.622851
 30
0.0
 40
4.287499999999997
100
AcDbArc
 50
180.666143
 51
197.3450419999999
  0
ARC
  5
9E8F
330
9C43
100
AcDbEntity
  8
1
  6
Continuous
100
AcDbCircle
 10
296.519718
 20
108.5701629999998
 30
0.0
 40
1.236599999999999
100
AcDbArc
 50
120.162111
 51
189.0171389999999
  0
ARC
  5
9E90
330
9C43
100
AcDbEntity
  8
1
  6
Continuous
100
AcDbCircle
 10
293.556217
 20
108.284762
 30
0.0
 40
0.9435999999999999
100
AcDbArc
 50
356.871222
 51
68.739113
  0
ARC
  5
9E91
330
9C43
100
AcDbEntity
  8
1
  6
Continuous
100
AcDbCircle
 10
293.566593
 20
107.253756
 30
0.0
 40
0.9332
100
AcDbArc
 50
356.876017
 51
69.17381299999999
  0
ARC
  5
9E92
330
9C43
100
AcDbEntity
  8
1
  6
Continuous
100
AcDbCircle
 10
293.229984
 20
106.033557
 30
0.0
 40
2.0872
100
AcDbArc
 50
52.576716
 51
58.919008
  0
ARC
  5
9E93
330
9C43
100
AcDbEntity
  8
1
  6
Continuous
100
AcDbCircle
 10
297.7059060000001
 20
106.503955
 30
0.0
 40
2.415099999999998
100
AcDbArc
 50
138.455202
 51
184.532737
  0
ARC
  5
9E94
330
9C43
100
AcDbEntity
  8
1
  6
Continuous
100
AcDbCircle
 10
294.265018
 20
109.780162
 30
0.0
 40
1.0341
100
AcDbArc
 50
76.959512
 51
97.868606
  0
ARC
  5
9E95
330
9C43
100
AcDbEntity
  8
1
  6
Continuous
100
AcDbCircle
 10
313.858311
 20
121.3067349999999
 30
0.0
 40
5.622809999999999
100
AcDbArc
 50
154.3842549999999
 51
214.384243
  0
ARC
  5
9E96
330
9C43
100
AcDbEntity
  8
1
  6
Continuous
100
AcDbCircle
 10
329.2530249999999
 20
111.7804589999999
 30
0.0
 40
21.017519
100
AcDbArc
 50
162.4120489999999
 51
197.5879609999998
  0
ARC
  5
9E97
330
9C43
100
AcDbEntity
  8
1
  6
Continuous
100
AcDbCircle
 10
313.858311
 20
102.2541839999999
 30
0.0
 40
5.622809999999999
100
AcDbArc
 50
145.615754
 51
205.615755
  0
ARC
  5
9E98
330
9C43
100
AcDbEntity
  8
1
  6
Continuous
100
AcDbCircle
 10
290.4180329999999
 20
111.7804589999999
 30
0.0
 40
10.50871499999999
100
AcDbArc
 50
162.4119399999998
 51
197.5880699999999
  0
ARC
  5
9E99
330
9C43
100
AcDbEntity
  8
1
  6
Continuous
100
AcDbCircle
 10
282.720707
 20
107.0173139999998
 30
0.0
 40
2.811392999999998
100
AcDbArc
 50
145.6155349999999
 51
205.615537
  0
ARC
  5
9E9A
330
9C43
100
AcDbEntity
  8
1
  6
Continuous
100
AcDbCircle
 10
282.720707
 20
116.5435969999999
 30
0.0
 40
2.811392999999998
100
AcDbArc
 50
154.3844729999999
 51
214.384461
  0
ARC
  5
9E9B
330
9C43
100
AcDbEntity
  8
1
  6
Continuous
100
AcDbCircle
 10
281.2979159999999
 20
107.0173139999998
 30
0.0
 40
2.811392999999998
100
AcDbArc
 50
334.3844629999999
 51
34.384467
  0
ARC
  5
9E9C
330
9C43
100
AcDbEntity
  8
1
  6
Continuous
100
AcDbCircle
 10
281.2979159999999
 20
116.5435969999999
 30
0.0
 40
2.811392999999998
100
AcDbArc
 50
325.6155269999998
 51
25.615527
  0
ARC
  5
9E9D
330
9C43
100
AcDbEntity
  8
1
  6
Continuous
100
AcDbCircle
 10
273.60059
 20
111.7804589999999
 30
0.0
 40
10.50871499999999
100
AcDbArc
 50
342.41193
 51
17.58805999999999
  0
ARC
  5
9E9E
330
9C43
100
AcDbEntity
  8
1
  6
Continuous
100
AcDbCircle
 10
26.213982
 20
181.780459
 30
0.0
 40
7.166163
100
AcDbArc
 50
144.462
 51
215.5377
  0
ARC
  5
9E9F
330
9C43
100
AcDbEntity
  8
1
  6
Continuous
100
AcDbCircle
 10
16.881675
 20
181.780459
 30
0.0
 40
7.166163
100
AcDbArc
 50
324.4619999999998
 51
35.53799999999999
  0
LINE
  5
9EA0
330
9C43
100
AcDbEntity
  8
1
  6
Continuous
100
AcDbLine
 10
19.72140299999999
 20
183.724737
 30
0.0
 11
23.19945
 21
183.724737
 31
0.0
  0
LINE
  5
9EA1
330
9C43
100
AcDbEntity
  8
1
  6
Continuous
100
AcDbLine
 10
23.115995
 20
183.169873
 30
0.0
 11
21.547265
 21
183.169873
 31
0.0
  0
ARC
  5
9EA2
330
9C43
100
AcDbEntity
  8
1
  6
Continuous
100
AcDbCircle
 10
23.115995
 20
182.8924419999999
 30
0.0
 40
0.277826
100
AcDbArc
 50
10.10399999999999
 51
90.0
  0
ARC
  5
9EA3
330
9C43
100
AcDbEntity
  8
1
  6
Continuous
100
AcDbCircle
 10
19.97966299999999
 20
182.8924419999999
 30
0.0
 40
0.277826
100
AcDbArc
 50
90.0
 51
169.896
  0
ARC
  5
9EA4
330
9C43
100
AcDbEntity
  8
1
  6
Continuous
100
AcDbCircle
 10
21.547265
 20
185.1141509999999
 30
0.0
 40
1.431648999999999
100
AcDbArc
 50
35.53799999999999
 51
45.69899999999999
  0
ARC
  5
9EA5
330
9C43
100
AcDbEntity
  8
1
  6
Continuous
100
AcDbCircle
 10
21.547265
 20
185.1141509999999
 30
0.0
 40
1.431648999999999
100
AcDbArc
 50
62.24999999999999
 51
144.462
  0
ARC
  5
9EA6
330
9C43
100
AcDbEntity
  8
1
  6
Continuous
100
AcDbCircle
 10
21.269833
 20
184.5581599999999
 30
0.0
 40
0.277826
100
AcDbArc
 50
270.0
 51
90.0
  0
LINE
  5
9EA7
330
9C43
100
AcDbEntity
  8
1
  6
Continuous
100
AcDbLine
 10
21.547265
 20
186.545293
 30
0.0
 11
21.547265
 21
185.3972219999999
 31
0.0
  0
LINE
  5
9EA8
330
9C43
100
AcDbEntity
  8
1
  6
Continuous
100
AcDbLine
 10
22.58707
 20
185.118662
 30
0.0
 11
20.245817
 21
185.7468309999999
 31
0.0
  0
LINE
  5
9EA9
330
9C43
100
AcDbEntity
  8
1
  6
Continuous
100
AcDbLine
 10
21.547265
 20
184.5581599999999
 30
0.0
 11
22.880291
 21
184.5581599999999
 31
0.0
  0
LINE
  5
9EAA
330
9C43
100
AcDbEntity
  8
1
  6
Continuous
100
AcDbLine
 10
21.269833
 20
184.8367189999999
 30
0.0
 11
20.08341799999999
 21
184.8367189999999
 31
0.0
  0
LINE
  5
9EAB
330
9C43
100
AcDbEntity
  8
1
  6
Continuous
100
AcDbLine
 10
19.98304599999999
 20
184.280728
 30
0.0
 11
21.269833
 21
184.280728
 31
0.0
  0
LINE
  5
9EAC
330
9C43
100
AcDbEntity
  8
1
  6
Continuous
100
AcDbLine
 10
21.547265
 20
183.169873
 30
0.0
 11
21.547265
 21
182.8924419999999
 31
0.0
  0
LINE
  5
9EAD
330
9C43
100
AcDbEntity
  8
1
  6
Continuous
100
AcDbLine
 10
20.880752
 20
183.169873
 30
0.0
 11
19.97966299999999
 21
183.169873
 31
0.0
  0
LINE
  5
9EAE
330
9C43
100
AcDbEntity
  8
1
  6
Continuous
100
AcDbLine
 10
19.719148
 20
182.6138819999999
 30
0.0
 11
23.37651
 21
182.6138819999999
 31
0.0
  0
LINE
  5
9EAF
330
9C43
100
AcDbEntity
  8
1
  6
Continuous
100
AcDbLine
 10
19.60975399999998
 20
182.059019
 30
0.0
 11
23.485904
 21
182.059019
 31
0.0
  0
ARC
  5
9EB0
330
9C43
100
AcDbEntity
  8
1
  6
Continuous
100
AcDbCircle
 10
23.37651
 20
182.6702709999999
 30
0.0
 40
0.055565
100
AcDbArc
 50
270.0
 51
7.792999999999999
  0
ARC
  5
9EB1
330
9C43
100
AcDbEntity
  8
1
  6
Continuous
100
AcDbCircle
 10
19.719148
 20
182.6702709999999
 30
0.0
 40
0.055565
100
AcDbArc
 50
172.2069999999999
 51
270.0
  0
ARC
  5
9EB2
330
9C43
100
AcDbEntity
  8
1
  6
Continuous
100
AcDbCircle
 10
16.881675
 20
181.780459
 30
0.0
 40
6.610656999999998
100
AcDbArc
 50
7.792999999999999
 51
10.10399999999999
  0
ARC
  5
9EB3
330
9C43
100
AcDbEntity
  8
1
  6
Continuous
100
AcDbCircle
 10
26.213982
 20
181.780459
 30
0.0
 40
6.610656999999998
100
AcDbArc
 50
169.896
 51
172.2069999999999
  0
ARC
  5
9EB4
330
9C43
100
AcDbEntity
  8
1
  6
Continuous
100
AcDbCircle
 10
16.881675
 20
181.780459
 30
0.0
 40
6.610656999999998
100
AcDbArc
 50
333.9859999999998
 51
337.0559999999999
  0
ARC
  5
9EB5
330
9C43
100
AcDbEntity
  8
1
  6
Continuous
100
AcDbCircle
 10
22.917507
 20
179.226057
 30
0.0
 40
0.055565
100
AcDbArc
 50
337.0559999999999
 51
90.0
  0
LINE
  5
9EB6
330
9C43
100
AcDbEntity
  8
1
  6
Continuous
100
AcDbLine
 10
19.60975399999998
 20
181.503028
 30
0.0
 11
23.485904
 21
181.503028
 31
0.0
  0
LINE
  5
9EB7
330
9C43
100
AcDbEntity
  8
1
  6
Continuous
100
AcDbLine
 10
19.655993
 20
180.9481639999999
 30
0.0
 11
23.439665
 21
180.9481639999999
 31
0.0
  0
LINE
  5
9EB8
330
9C43
100
AcDbEntity
  8
1
  6
Continuous
100
AcDbLine
 10
23.275011
 20
180.3921729999999
 30
0.0
 11
22.213778
 21
180.3921729999999
 31
0.0
  0
LINE
  5
9EB9
330
9C43
100
AcDbEntity
  8
1
  6
Continuous
100
AcDbLine
 10
20.10484599999999
 20
179.836182
 30
0.0
 11
22.99081199999999
 21
179.836182
 31
0.0
  0
ARC
  5
9EBA
330
9C43
100
AcDbEntity
  8
1
  6
Continuous
100
AcDbCircle
 10
23.275011
 20
180.336912
 30
0.0
 40
0.055565
100
AcDbArc
 50
347.2709999999998
 51
90.0
  0
ARC
  5
9EBB
330
9C43
100
AcDbEntity
  8
1
  6
Continuous
100
AcDbCircle
 10
16.881675
 20
181.780459
 30
0.0
 40
6.610656999999998
100
AcDbArc
 50
344.794
 51
347.2709999999998
  0
ARC
  5
9EBC
330
9C43
100
AcDbEntity
  8
1
  6
Continuous
100
AcDbCircle
 10
16.881675
 20
181.780459
 30
0.0
 40
6.610656999999998
100
AcDbArc
 50
344.7419999999998
 51
344.794
  0
ARC
  5
9EBD
330
9C43
100
AcDbEntity
  8
1
  6
Continuous
100
AcDbCircle
 10
22.99081199999999
 20
180.1147409999999
 30
0.0
 40
0.277826
100
AcDbArc
 50
270.0
 51
344.7419999999998
  0
ARC
  5
9EBE
330
9C43
100
AcDbEntity
  8
1
  6
Continuous
100
AcDbCircle
 10
20.10484599999999
 20
180.1147409999999
 30
0.0
 40
0.277826
100
AcDbArc
 50
195.2574999999999
 51
270.0
  0
ARC
  5
9EBF
330
9C43
100
AcDbEntity
  8
1
  6
Continuous
100
AcDbCircle
 10
26.213982
 20
181.780459
 30
0.0
 40
6.610656999999998
100
AcDbArc
 50
193.2680999999999
 51
195.2574999999999
  0
ARC
  5
9EC0
330
9C43
100
AcDbEntity
  8
1
  6
Continuous
100
AcDbCircle
 10
26.213982
 20
181.780459
 30
0.0
 40
6.610656999999998
100
AcDbArc
 50
192.7289
 51
193.2680999999999
  0
ARC
  5
9EC1
330
9C43
100
AcDbEntity
  8
1
  6
Continuous
100
AcDbCircle
 10
19.820647
 20
180.336912
 30
0.0
 40
0.055565
100
AcDbArc
 50
90.0
 51
192.7289
  0
ARC
  5
9EC2
330
9C43
100
AcDbEntity
  8
1
  6
Continuous
100
AcDbCircle
 10
22.572409
 20
179.0038859999999
 30
0.0
 40
0.277826
100
AcDbArc
 50
270.0
 51
333.9859999999998
  0
ARC
  5
9EC3
330
9C43
100
AcDbEntity
  8
1
  6
Continuous
100
AcDbCircle
 10
20.17702299999999
 20
179.226057
 30
0.0
 40
0.055565
100
AcDbArc
 50
90.0
 51
202.944
  0
ARC
  5
9EC4
330
9C43
100
AcDbEntity
  8
1
  6
Continuous
100
AcDbCircle
 10
26.213982
 20
181.780459
 30
0.0
 40
6.610656999999998
100
AcDbArc
 50
202.944
 51
206.0144
  0
ARC
  5
9EC5
330
9C43
100
AcDbEntity
  8
1
  6
Continuous
100
AcDbCircle
 10
20.52324899999999
 20
179.0038859999999
 30
0.0
 40
0.277826
100
AcDbArc
 50
206.0144
 51
270.0
  0
ARC
  5
9EC6
330
9C43
100
AcDbEntity
  8
1
  6
Continuous
100
AcDbCircle
 10
21.547265
 20
178.447895
 30
0.0
 40
1.431648999999999
100
AcDbArc
 50
270.0
 51
324.4619999999998
  0
ARC
  5
9EC7
330
9C43
100
AcDbEntity
  8
1
  6
Continuous
100
AcDbCircle
 10
21.547265
 20
178.447895
 30
0.0
 40
1.431648999999999
100
AcDbArc
 50
215.5377
 51
256.5374
  0
LINE
  5
9EC8
330
9C43
100
AcDbEntity
  8
1
  6
Continuous
100
AcDbLine
 10
21.547265
 20
181.503028
 30
0.0
 11
21.547265
 21
180.9481639999999
 31
0.0
  0
LINE
  5
9EC9
330
9C43
100
AcDbEntity
  8
1
  6
Continuous
100
AcDbLine
 10
20.880752
 20
180.3921729999999
 30
0.0
 11
19.820647
 21
180.3921729999999
 31
0.0
  0
LINE
  5
9ECA
330
9C43
100
AcDbEntity
  8
1
  6
Continuous
100
AcDbLine
 10
20.17702299999999
 20
179.281318
 30
0.0
 11
22.917507
 21
179.281318
 31
0.0
  0
LINE
  5
9ECB
330
9C43
100
AcDbEntity
  8
1
  6
Continuous
100
AcDbLine
 10
22.572409
 20
178.7253269999999
 30
0.0
 11
20.52324899999999
 21
178.7253269999999
 31
0.0
  0
LINE
  5
9ECC
330
9C43
100
AcDbEntity
  8
1
  6
Continuous
100
AcDbLine
 10
20.02364599999999
 20
178.1704629999999
 30
0.0
 11
22.419032
 21
178.1704629999999
 31
0.0
  0
LINE
  5
9ECD
330
9C43
100
AcDbEntity
  8
1
  6
Continuous
100
AcDbLine
 10
90.79092000000001
 20
104.258738
 30
0.0
 11
91.090923
 21
104.258738
 31
0.0
  0
LINE
  5
9ECE
330
9C43
100
AcDbEntity
  8
1
  6
Continuous
100
AcDbLine
 10
355.974918
 20
104.258738
 30
0.0
 11
357.574924
 21
104.258738
 31
0.0
  0
LINE
  5
9ECF
330
9C43
100
AcDbEntity
  8
1
  6
Continuous
100
AcDbLine
 10
91.090923
 20
49.30218499999998
 30
0.0
 11
89.490932
 21
49.30218499999998
 31
0.0
  0
LINE
  5
9ED0
330
9C43
100
AcDbEntity
  8
1
  6
Continuous
100
AcDbLine
 10
91.090923
 20
174.258731
 30
0.0
 11
89.490932
 21
174.258731
 31
0.0
  0
LINE
  5
9ED1
330
9C43
100
AcDbEntity
  8
1
  6
Continuous
100
AcDbLine
 10
91.090923
 20
185.6106589999999
 30
0.0
 11
89.490932
 21
185.6106589999999
 31
0.0
  0
LINE
  5
9ED2
330
9C43
100
AcDbEntity
  8
1
  6
Continuous
100
AcDbLine
 10
91.090923
 20
177.950366
 30
0.0
 11
89.490932
 21
177.950366
 31
0.0
  0
LINE
  5
9ED3
330
9C43
100
AcDbEntity
  8
1
  6
Continuous
100
AcDbLine
 10
91.090923
 20
37.611075
 30
0.0
 11
89.490932
 21
37.611075
 31
0.0
  0
LINE
  5
9ED4
330
9C43
100
AcDbEntity
  8
1
  6
Continuous
100
AcDbLine
 10
80.62092300000001
 20
121.2804589999999
 30
0.0
 11
80.62092300000001
 21
117.0567499999998
 31
0.0
  0
LINE
  5
9ED5
330
9C43
100
AcDbEntity
  8
1
  6
Continuous
100
AcDbLine
 10
80.62092300000001
 20
106.5040619999999
 30
0.0
 11
80.62092300000001
 21
102.280459
 31
0.0
  0
LINE
  5
9ED6
330
9C43
100
AcDbEntity
  8
2
  6
Continuous
100
AcDbLine
 10
80.62092300000001
 20
120.7389629999999
 30
0.0
 11
88.432423
 21
120.7389629999999
 31
0.0
  0
LINE
  5
9ED7
330
9C43
100
AcDbEntity
  8
2
  6
Continuous
100
AcDbLine
 10
80.090923
 20
121.0449639999998
 30
0.0
 11
80.62092300000001
 21
120.7389629999999
 31
0.0
  0
LINE
  5
9ED8
330
9C43
100
AcDbEntity
  8
1
  6
Continuous
100
AcDbLine
 10
80.62092300000001
 20
189.6804679999999
 30
0.0
 11
80.62092300000001
 21
173.8804649999999
 31
0.0
  0
LINE
  5
9ED9
330
9C43
100
AcDbEntity
  8
1
  6
Continuous
100
AcDbLine
 10
80.62092300000001
 20
33.88045
 30
0.0
 11
80.62092300000001
 21
49.68045299999999
 31
0.0
  0
LINE
  5
9EDA
330
9C43
100
AcDbEntity
  8
2
  6
Continuous
100
AcDbLine
 10
366.4449029999998
 20
120.7389629999999
 30
0.0
 11
358.633404
 21
120.7389629999999
 31
0.0
  0
LINE
  5
9EDB
330
9C43
100
AcDbEntity
  8
1
  6
Continuous
100
AcDbLine
 10
366.4449029999998
 20
121.2804589999999
 30
0.0
 11
366.4449029999998
 21
117.0567499999998
 31
0.0
  0
LINE
  5
9EDC
330
9C43
100
AcDbEntity
  8
2
  6
Continuous
100
AcDbLine
 10
366.9749029999999
 20
121.0449639999998
 30
0.0
 11
366.4449029999998
 21
120.7389629999999
 31
0.0
  0
LINE
  5
9EDD
330
9C43
100
AcDbEntity
  8
2
  6
Continuous
100
AcDbLine
 10
366.9749029999999
 20
102.515955
 30
0.0
 11
366.4449029999998
 21
102.8219559999999
 31
0.0
  0
LINE
  5
9EDE
330
9C43
100
AcDbEntity
  8
2
  6
Continuous
100
AcDbLine
 10
366.4449029999998
 20
102.8219559999999
 30
0.0
 11
358.633404
 21
102.8219559999999
 31
0.0
  0
LINE
  5
9EDF
330
9C43
100
AcDbEntity
  8
1
  6
Continuous
100
AcDbLine
 10
366.4449029999998
 20
106.5040619999999
 30
0.0
 11
366.4449029999998
 21
102.280459
 31
0.0
  0
ENDSEC
  0
SECTION
  2
OBJECTS
  0
DICTIONARY
  5
9C31
330
0
100
AcDbDictionary
281
     1
  3
ACAD_CIP_PREVIOUS_PRODUCT_INFO
350
9F43
  3
ACAD_COLOR
350
9F25
  3
ACAD_DETAILVIEWSTYLE
350
9F3E
  3
ACAD_GROUP
350
9C32
  3
ACAD_LAYOUT
350
9C3E
  3
ACAD_MATERIAL
350
9EF3
  3
ACAD_MLEADERSTYLE
350
9F3A
  3
ACAD_MLINESTYLE
350
9C3B
  3
ACAD_PLOTSETTINGS
350
9C3D
  3
ACAD_PLOTSTYLENAME
350
9EF1
  3
ACAD_SCALELIST
350
9F28
  3
ACAD_SECTIONVIEWSTYLE
350
9F3C
  3
ACAD_TABLESTYLE
350
9F26
  3
ACAD_VISUALSTYLE
350
9F0C
  3
ACDB_RECOMPOSE_DATA
350
9F61
  3
AcDbVariableDictionary
350
9F54
  3
DWGPROPS
350
9F62
  0
DICTIONARY
  5
9F44
330
9C35
100
AcDbDictionary
280
     1
281
     1
  3
ADSK_XREC_LAYER_RECONCILED
360
9F45
  0
DICTIONARY
  5
9F46
330
9C4B
100
AcDbDictionary
280
     1
281
     1
  3
ADSK_XREC_LAYER_RECONCILED
360
9F47
  0
DICTIONARY
  5
9F48
330
9C4C
100
AcDbDictionary
280
     1
281
     1
  3
ADSK_XREC_LAYER_RECONCILED
360
9F49
  0
DICTIONARY
  5
9F4A
330
9C4D
100
AcDbDictionary
280
     1
281
     1
  3
ADSK_XREC_LAYER_RECONCILED
360
9F4B
  0
DICTIONARY
  5
9F4C
330
9C4E
100
AcDbDictionary
280
     1
281
     1
  3
ADSK_XREC_LAYER_RECONCILED
360
9F4D
  0
DICTIONARY
  5
9F4E
330
9C4F
100
AcDbDictionary
280
     1
281
     1
  3
ADSK_XREC_LAYER_RECONCILED
360
9F4F
  0
DICTIONARY
  5
9F50
330
9C50
100
AcDbDictionary
280
     1
281
     1
  3
ADSK_XREC_LAYER_RECONCILED
360
9F51
  0
DICTIONARY
  5
9F52
330
9C51
100
AcDbDictionary
280
     1
281
     1
  3
ADSK_XREC_LAYER_RECONCILED
360
9F53
  0
DICTIONARY
  5
9EEC
330
9C43
100
AcDbDictionary
281
     1
  3
ACAD_LAYOUTSELFREF
350
9EED
  0
DICTIONARY
  5
9EEA
330
9C3F
100
AcDbDictionary
281
     1
  3
ACAD_LAYOUTSELFREF
350
9EEB
  0
XRECORD
  5
9F43
102
{ACAD_REACTORS
330
9C31
102
}
330
9C31
100
AcDbXrecord
280
     1
300
ACDLT
300
2014
300
ACDLT_F_S
  0
DICTIONARY
  5
9F25
102
{ACAD_REACTORS
330
9C31
102
}
330
9C31
100
AcDbDictionary
281
     1
  0
DICTIONARY
  5
9F3E
102
{ACAD_REACTORS
330
9C31
102
}
330
9C31
100
AcDbDictionary
281
     1
  3
Imperial24
350
9F3F
  0
DICTIONARY
  5
9C32
102
{ACAD_REACTORS
330
9C31
102
}
330
9C31
100
AcDbDictionary
281
     1
  0
DICTIONARY
  5
9C3E
102
{ACAD_REACTORS
330
9C31
102
}
330
9C31
100
AcDbDictionary
281
     1
  3
Model
350
9F40
  3
レイアウト1
350
9F41
  0
DICTIONARY
  5
9EF3
102
{ACAD_REACTORS
330
9C31
102
}
330
9C31
100
AcDbDictionary
281
     1
  3
ByBlock
350
9EFC
  3
ByLayer
350
9EF4
  3
Global
350
9F04
  0
DICTIONARY
  5
9F3A
102
{ACAD_REACTORS
330
9C31
102
}
330
9C31
100
AcDbDictionary
281
     1
  3
Standard
350
9F3B
  0
DICTIONARY
  5
9C3B
102
{ACAD_REACTORS
330
9C31
102
}
330
9C31
100
AcDbDictionary
281
     1
  3
STANDARD
350
9C3C
  0
DICTIONARY
  5
9C3D
102
{ACAD_REACTORS
330
9C31
102
}
330
9C31
100
AcDbDictionary
281
     1
  0
ACDBDICTIONARYWDFLT
  5
9EF1
102
{ACAD_REACTORS
330
9C31
102
}
330
9C31
100
AcDbDictionary
281
     1
  3
Normal
350
9EF2
100
AcDbDictionaryWithDefault
340
9EF2
  0
DICTIONARY
  5
9F28
102
{ACAD_REACTORS
330
9C31
102
}
330
9C31
100
AcDbDictionary
281
     1
  3
A0
350
9F29
  3
A1
350
9F2A
  3
A2
350
9F2B
  3
A3
350
9F2C
  3
A4
350
9F2D
  3
A5
350
9F2E
  3
A6
350
9F2F
  3
A7
350
9F30
  3
A8
350
9F31
  3
A9
350
9F32
  3
B0
350
9F33
  3
B1
350
9F34
  3
B2
350
9F35
  3
B3
350
9F36
  3
B4
350
9F37
  3
B5
350
9F38
  3
B6
350
9F39
  0
DICTIONARY
  5
9F3C
102
{ACAD_REACTORS
330
9C31
102
}
330
9C31
100
AcDbDictionary
281
     1
  3
Imperial24
350
9F3D
  0
DICTIONARY
  5
9F26
102
{ACAD_REACTORS
330
9C31
102
}
330
9C31
100
AcDbDictionary
281
     1
  3
Standard
350
9F27
  0
DICTIONARY
  5
9F0C
102
{ACAD_REACTORS
330
9C31
102
}
330
9C31
100
AcDbDictionary
281
     1
  3
2dWireframe
350
9F12
  3
Basic
350
9F11
  3
Brighten
350
9F18
  3
ColorChange
350
9F1C
  3
Conceptual
350
9F15
  3
Dim
350
9F17
  3
EdgeColorOff
350
9F24
  3
Facepattern
350
9F1B
  3
Flat
350
9F0D
  3
FlatWithEdges
350
9F0E
  3
Gouraud
350
9F0F
  3
GouraudWithEdges
350
9F10
  3
Hidden
350
9F14
  3
JitterOff
350
9F22
  3
Linepattern
350
9F1A
  3
OverhangOff
350
9F23
  3
Realistic
350
9F16
  3
Shaded
350
9F21
  3
Shaded with edges
350
9F20
  3
Shades of Gray
350
9F1D
  3
Sketchy
350
9F1E
  3
Thicken
350
9F19
  3
Wireframe
350
9F13
  3
X-Ray
350
9F1F
  0
XRECORD
  5
9F61
102
{ACAD_REACTORS
330
9C31
102
}
330
9C31
100
AcDbXrecord
280
     1
 90
        1
330
9F27
  0
DICTIONARY
  5
9F54
102
{ACAD_REACTORS
330
9C31
102
}
330
9C31
100
AcDbDictionary
281
     1
  3
CANNOSCALE
350
9F59
  3
CMLEADERSTYLE
350
9F56
  3
CTABLESTYLE
350
9F55
  3
CVIEWDETAILSTYLE
350
9F57
  3
CVIEWSECTIONSTYLE
350
9F58
  3
DIMASSOC
350
9F5C
  3
INDEXCTL
350
9F5B
  3
SORTENTS
350
9F5A
  3
XCLIPFRAME
350
9F5D
  0
XRECORD
  5
9F62
102
{ACAD_REACTORS
330
9C31
102
}
330
9C31
100
AcDbXrecord
280
     1
  1
DWGPROPS COOKIE
  2

  3

  4

  6

  7

  8
Yoshitsune
  9

300
=
301
=
302
=
303
=
304
=
305
=
306
=
307
=
308
=
309
=
 40
0.0000146875
 41
2450950.420538542
 42
2457192.603795833
  1

 90
        0
  0
XRECORD
  5
9F45
102
{ACAD_REACTORS
330
9F44
102
}
330
9F44
100
AcDbXrecord
280
     1
290
     1
  0
XRECORD
  5
9F47
102
{ACAD_REACTORS
330
9F46
102
}
330
9F46
100
AcDbXrecord
280
     1
290
     1
  0
XRECORD
  5
9F49
102
{ACAD_REACTORS
330
9F48
102
}
330
9F48
100
AcDbXrecord
280
     1
290
     1
  0
XRECORD
  5
9F4B
102
{ACAD_REACTORS
330
9F4A
102
}
330
9F4A
100
AcDbXrecord
280
     1
290
     1
  0
XRECORD
  5
9F4D
102
{ACAD_REACTORS
330
9F4C
102
}
330
9F4C
100
AcDbXrecord
280
     1
290
     1
  0
XRECORD
  5
9F4F
102
{ACAD_REACTORS
330
9F4E
102
}
330
9F4E
100
AcDbXrecord
280
     1
290
     1
  0
XRECORD
  5
9F51
102
{ACAD_REACTORS
330
9F50
102
}
330
9F50
100
AcDbXrecord
280
     1
290
     1
  0
XRECORD
  5
9F53
102
{ACAD_REACTORS
330
9F52
102
}
330
9F52
100
AcDbXrecord
280
     1
290
     1
  0
XRECORD
  5
9EED
102
{ACAD_REACTORS
330
9EEC
102
}
330
9EEC
100
AcDbXrecord
280
     1
340
9C43
  0
XRECORD
  5
9EEB
102
{ACAD_REACTORS
330
9EEA
102
}
330
9EEA
100
AcDbXrecord
280
     1
340
9C3F
  0
ACDBDETAILVIEWSTYLE
  5
9F3F
102
{ACAD_XDICTIONARY
360
9F9A
102
}
102
{ACAD_REACTORS
330
9F3E
102
}
330
9F3E
100
AcDbModelDocViewStyle
 70
     0
  3
Imperial24
290
     0
100
AcDbDetailViewStyle
 70
     0
 71
     0
 90
        3
 71
     1
340
9C36
 40
0.24
340
0
 40
0.24
300

 40
0.36
280
     3
 71
     2
340
9C3A
 90
       25
 71
     3
340
9C36
 40
0.24
 90
        1
 40
0.75
 90
        1
300
%<\AcVar ViewType \f "%tc1">% %<\AcVar ViewDetailId>%\PSCALE %<\AcVar ViewScale \f "%sn">%
 71
     4
340
9C3A
 90
       25
340
9C3A
 90
       25
280
     0
  0
LAYOUT
  5
9F40
102
{ACAD_XDICTIONARY
360
9F9C
102
}
102
{ACAD_REACTORS
330
9C3E
102
}
330
9C3E
100
AcDbPlotSettings
  1

  2
Canon LBP9100C
  4

  6

 40
0.0
 41
0.0
 42
0.0
 43
0.0
 44
0.0
 45
0.0
 46
0.0
 47
0.0
 48
0.0
 49
0.0
140
0.0
141
0.0
142
1.0
143
1.0
 70
  1712
 72
     0
 73
     0
 74
     0
  7

 75
     0
147
1.0
148
0.0
149
0.0
100
AcDbLayout
  1
Model
 70
     1
 71
     0
 10
0.0
 20
0.0
 11
12.0
 21
9.0
 12
0.0
 22
0.0
 32
0.0
 14
0.0
 24
0.0
 34
0.0
 15
0.0
 25
0.0
 35
0.0
146
0.0
 13
0.0
 23
0.0
 33
0.0
 16
1.0
 26
0.0
 36
0.0
 17
0.0
 27
1.0
 37
0.0
 76
     0
330
9C43
331
9EE9
  0
LAYOUT
  5
9F41
102
{ACAD_XDICTIONARY
360
9F9E
102
}
102
{ACAD_REACTORS
330
9C3E
102
}
330
9C3E
100
AcDbPlotSettings
  1

  2
Canon LBP9100C
  4

  6

 40
0.0
 41
0.0
 42
0.0
 43
0.0
 44
0.0
 45
0.0
 46
0.0
 47
0.0
 48
0.0
 49
0.0
140
0.0
141
0.0
142
1.0
143
1.0
 70
   688
 72
     0
 73
     0
 74
     5
  7

 75
    16
147
1.0
148
0.0
149
0.0
100
AcDbLayout
  1
レイアウト1
 70
     0
 71
     1
 10
0.0
 20
0.0
 11
420.0
 21
297.0
 12
0.0
 22
0.0
 32
0.0
 14
1.000000000000000E+20
 24
1.000000000000000E+20
 34
1.000000000000000E+20
 15
-1.000000000000000E+20
 25
-1.000000000000000E+20
 35
-1.000000000000000E+20
146
0.0
 13
0.0
 23
0.0
 33
0.0
 16
1.0
 26
0.0
 36
0.0
 17
0.0
 27
1.0
 37
0.0
 76
     0
330
9C3F
  0
MATERIAL
  5
9EFC
102
{ACAD_XDICTIONARY
360
9EFD
102
}
102
{ACAD_REACTORS
330
9EF3
102
}
330
9EF3
100
AcDbMaterial
  1
ByBlock
 72
     0
 43
0.0208333333333333
 43
0.0
 43
0.0
 43
0.0
 43
0.0
 43
0.0208333333333333
 43
0.0
 43
0.0
 43
0.0
 43
0.0
 43
1.0
 43
0.0
 43
0.0
 43
0.0
 43
0.0
 43
1.0
 77
     0
 47
0.0208333333333333
 47
0.0
 47
0.0
 47
0.0
 47
0.0
 47
0.0208333333333333
 47
0.0
 47
0.0
 47
0.0
 47
0.0
 47
1.0
 47
0.0
 47
0.0
 47
0.0
 47
0.0
 47
1.0
171
     0
 49
0.0208333333333333
 49
0.0
 49
0.0
 49
0.0
 49
0.0
 49
0.0208333333333333
 49
0.0
 49
0.0
 49
0.0
 49
0.0
 49
1.0
 49
0.0
 49
0.0
 49
0.0
 49
0.0
 49
1.0
175
     0
142
0.0208333333333333
142
0.0
142
0.0
142
0.0
142
0.0
142
0.0208333333333333
142
0.0
142
0.0
142
0.0
142
0.0
142
1.0
142
0.0
142
0.0
142
0.0
142
0.0
142
1.0
179
     0
144
0.0208333333333333
144
0.0
144
0.0
144
0.0
144
0.0
144
0.0208333333333333
144
0.0
144
0.0
144
0.0
144
0.0
144
1.0
144
0.0
144
0.0
144
0.0
144
0.0
144
1.0
147
0.0208333333333333
147
0.0
147
0.0
147
0.0
147
0.0
147
0.0208333333333333
147
0.0
147
0.0
147
0.0
147
0.0
147
1.0
147
0.0
147
0.0
147
0.0
147
0.0
147
1.0
  0
MATERIAL
  5
9EF4
102
{ACAD_XDICTIONARY
360
9EF5
102
}
102
{ACAD_REACTORS
330
9EF3
102
}
330
9EF3
100
AcDbMaterial
  1
ByLayer
 72
     0
 43
0.0208333333333333
 43
0.0
 43
0.0
 43
0.0
 43
0.0
 43
0.0208333333333333
 43
0.0
 43
0.0
 43
0.0
 43
0.0
 43
1.0
 43
0.0
 43
0.0
 43
0.0
 43
0.0
 43
1.0
 77
     0
 47
0.0208333333333333
 47
0.0
 47
0.0
 47
0.0
 47
0.0
 47
0.0208333333333333
 47
0.0
 47
0.0
 47
0.0
 47
0.0
 47
1.0
 47
0.0
 47
0.0
 47
0.0
 47
0.0
 47
1.0
171
     0
 49
0.0208333333333333
 49
0.0
 49
0.0
 49
0.0
 49
0.0
 49
0.0208333333333333
 49
0.0
 49
0.0
 49
0.0
 49
0.0
 49
1.0
 49
0.0
 49
0.0
 49
0.0
 49
0.0
 49
1.0
175
     0
142
0.0208333333333333
142
0.0
142
0.0
142
0.0
142
0.0
142
0.0208333333333333
142
0.0
142
0.0
142
0.0
142
0.0
142
1.0
142
0.0
142
0.0
142
0.0
142
0.0
142
1.0
179
     0
144
0.0208333333333333
144
0.0
144
0.0
144
0.0
144
0.0
144
0.0208333333333333
144
0.0
144
0.0
144
0.0
144
0.0
144
1.0
144
0.0
144
0.0
144
0.0
144
0.0
144
1.0
147
0.0208333333333333
147
0.0
147
0.0
147
0.0
147
0.0
147
0.0208333333333333
147
0.0
147
0.0
147
0.0
147
0.0
147
1.0
147
0.0
147
0.0
147
0.0
147
0.0
147
1.0
  0
MATERIAL
  5
9F04
102
{ACAD_XDICTIONARY
360
9F05
102
}
102
{ACAD_REACTORS
330
9EF3
102
}
330
9EF3
100
AcDbMaterial
  1
Global
 72
     0
 43
0.0208333333333333
 43
0.0
 43
0.0
 43
0.0
 43
0.0
 43
0.0208333333333333
 43
0.0
 43
0.0
 43
0.0
 43
0.0
 43
1.0
 43
0.0
 43
0.0
 43
0.0
 43
0.0
 43
1.0
 77
     0
 47
0.0208333333333333
 47
0.0
 47
0.0
 47
0.0
 47
0.0
 47
0.0208333333333333
 47
0.0
 47
0.0
 47
0.0
 47
0.0
 47
1.0
 47
0.0
 47
0.0
 47
0.0
 47
0.0
 47
1.0
171
     0
 49
0.0208333333333333
 49
0.0
 49
0.0
 49
0.0
 49
0.0
 49
0.0208333333333333
 49
0.0
 49
0.0
 49
0.0
 49
0.0
 49
1.0
 49
0.0
 49
0.0
 49
0.0
 49
0.0
 49
1.0
175
     0
142
0.0208333333333333
142
0.0
142
0.0
142
0.0
142
0.0
142
0.0208333333333333
142
0.0
142
0.0
142
0.0
142
0.0
142
1.0
142
0.0
142
0.0
142
0.0
142
0.0
142
1.0
179
     0
144
0.0208333333333333
144
0.0
144
0.0
144
0.0
144
0.0
144
0.0208333333333333
144
0.0
144
0.0
144
0.0
144
0.0
144
1.0
144
0.0
144
0.0
144
0.0
144
0.0
144
1.0
147
0.0208333333333333
147
0.0
147
0.0
147
0.0
147
0.0
147
0.0208333333333333
147
0.0
147
0.0
147
0.0
147
0.0
147
1.0
147
0.0
147
0.0
147
0.0
147
0.0
147
1.0
  0
MLEADERSTYLE
  5
9F3B
102
{ACAD_REACTORS
330
9F3A
102
}
330
9F3A
100
AcDbMLeaderStyle
170
     2
171
     1
172
     0
 90
        2
 40
0.0
 41
0.0
173
     1
 91
-1056964608
340
9C38
 92
       -2
290
     1
 42
0.09
291
     1
 43
0.36
  3
Standard
 44
0.18
300

342
9C36
174
     1
178
     6
175
     1
176
     0
 93
-1056964608
 45
0.18
292
     0
297
     0
 46
0.18
 94
-1056964608
 47
1.0
 49
1.0
140
1.0
293
     1
141
0.0
294
     1
177
     0
142
1.0
295
     0
296
     0
143
0.125
1001
ACAD_MLEADERVER
1070
     2
  0
MLINESTYLE
  5
9C3C
102
{ACAD_REACTORS
330
9C3B
102
}
330
9C3B
100
AcDbMlineStyle
  2
STANDARD
 70
     0
  3

 62
   256
 51
90.0
 52
90.0
 71
     2
 49
0.5
 62
   256
  6
BYLAYER
 49
-0.5
 62
   256
  6
BYLAYER
  0
ACDBPLACEHOLDER
  5
9EF2
102
{ACAD_REACTORS
330
9EF1
102
}
330
9EF1
  0
SCALE
  5
9F29
102
{ACAD_REACTORS
330
9F28
102
}
330
9F28
100
AcDbScale
 70
     0
300
1:1
140
1.0
141
1.0
290
     1
  0
SCALE
  5
9F2A
102
{ACAD_REACTORS
330
9F28
102
}
330
9F28
100
AcDbScale
 70
     0
300
1/128" = 1'-0"
140
0.0078125
141
12.0
290
     0
  0
SCALE
  5
9F2B
102
{ACAD_REACTORS
330
9F28
102
}
330
9F28
100
AcDbScale
 70
     0
300
1/64" = 1'-0"
140
0.015625
141
12.0
290
     0
  0
SCALE
  5
9F2C
102
{ACAD_REACTORS
330
9F28
102
}
330
9F28
100
AcDbScale
 70
     0
300
1/32" = 1'-0"
140
0.03125
141
12.0
290
     0
  0
SCALE
  5
9F2D
102
{ACAD_REACTORS
330
9F28
102
}
330
9F28
100
AcDbScale
 70
     0
300
1/16" = 1'-0"
140
0.0625
141
12.0
290
     0
  0
SCALE
  5
9F2E
102
{ACAD_REACTORS
330
9F28
102
}
330
9F28
100
AcDbScale
 70
     0
300
3/32" = 1'-0"
140
0.09375
141
12.0
290
     0
  0
SCALE
  5
9F2F
102
{ACAD_REACTORS
330
9F28
102
}
330
9F28
100
AcDbScale
 70
     0
300
1/8" = 1'-0"
140
0.125
141
12.0
290
     0
  0
SCALE
  5
9F30
102
{ACAD_REACTORS
330
9F28
102
}
330
9F28
100
AcDbScale
 70
     0
300
3/16" = 1'-0"
140
0.1875
141
12.0
290
     0
  0
SCALE
  5
9F31
102
{ACAD_REACTORS
330
9F28
102
}
330
9F28
100
AcDbScale
 70
     0
300
1/4" = 1'-0"
140
0.25
141
12.0
290
     0
  0
SCALE
  5
9F32
102
{ACAD_REACTORS
330
9F28
102
}
330
9F28
100
AcDbScale
 70
     0
300
3/8" = 1'-0"
140
0.375
141
12.0
290
     0
  0
SCALE
  5
9F33
102
{ACAD_REACTORS
330
9F28
102
}
330
9F28
100
AcDbScale
 70
     0
300
1/2" = 1'-0"
140
0.5
141
12.0
290
     0
  0
SCALE
  5
9F34
102
{ACAD_REACTORS
330
9F28
102
}
330
9F28
100
AcDbScale
 70
     0
300
3/4" = 1'-0"
140
0.75
141
12.0
290
     0
  0
SCALE
  5
9F35
102
{ACAD_REACTORS
330
9F28
102
}
330
9F28
100
AcDbScale
 70
     0
300
1" = 1'-0"
140
1.0
141
12.0
290
     0
  0
SCALE
  5
9F36
102
{ACAD_REACTORS
330
9F28
102
}
330
9F28
100
AcDbScale
 70
     0
300
1-1/2" = 1'-0"
140
1.5
141
12.0
290
     0
  0
SCALE
  5
9F37
102
{ACAD_REACTORS
330
9F28
102
}
330
9F28
100
AcDbScale
 70
     0
300
3" = 1'-0"
140
3.0
141
12.0
290
     0
  0
SCALE
  5
9F38
102
{ACAD_REACTORS
330
9F28
102
}
330
9F28
100
AcDbScale
 70
     0
300
6" = 1'-0"
140
6.0
141
12.0
290
     0
  0
SCALE
  5
9F39
102
{ACAD_REACTORS
330
9F28
102
}
330
9F28
100
AcDbScale
 70
     0
300
1'-0" = 1'-0"
140
12.0
141
12.0
290
     0
  0
ACDBSECTIONVIEWSTYLE
  5
9F3D
102
{ACAD_XDICTIONARY
360
9F98
102
}
102
{ACAD_REACTORS
330
9F3C
102
}
330
9F3C
100
AcDbModelDocViewStyle
 70
     0
  3
Imperial24
290
     0
100
AcDbSectionViewStyle
 70
     0
 71
     0
 90
       78
 71
     1
340
9C36
 40
0.24
340
0
340
0
 40
0.24
300
I, O, Q, S, X, Z
 40
0.48
 90
        3
 40
0.18
 90
        1
 71
     2
340
9C3A
 90
       25
340
9C3A
 90
       50
 40
0.24
 40
0.0
 40
0.24
 71
     3
340
9C36
 40
0.24
 90
        1
 40
0.75
 90
        1
300
%<\AcVar ViewType \f "%tc1">% %<\AcVar ViewSectionStartId>%-%<\AcVar ViewSectionEndId>%\PSCALE %<\AcVar ViewScale \f "%sn">%
 71
     4
300
ANSI31
 40
1.0
 90
        0
290
     0
290
     0
 90
        6
 40
0.0
 40
1.570796326794896
 40
0.2617993877991494
 40
1.308996938995747
 40
-0.2617993877991494
 40
1.832595714594046
  0
TABLESTYLE
  5
9F27
102
{ACAD_XDICTIONARY
360
9F5F
102
}
102
{ACAD_REACTORS
330
9F26
102
}
330
9F26
100
AcDbTableStyle
  3
Standard
 70
     0
 71
     0
 40
0.06
 41
0.06
280
     0
281
     0
  7
STANDARD
140
0.18
170
     2
 62
     0
 63
     7
283
     0
274
    -2
284
     1
 64
     0
275
    -2
285
     1
 65
     0
276
    -2
286
     1
 66
     0
277
    -2
287
     1
 67
     0
278
    -2
288
     1
 68
     0
279
    -2
289
     1
 69
     0
  7
STANDARD
140
0.25
170
     5
 62
     0
 63
     7
283
     0
274
    -2
284
     1
 64
     0
275
    -2
285
     1
 65
     0
276
    -2
286
     1
 66
     0
277
    -2
287
     1
 67
     0
278
    -2
288
     1
 68
     0
279
    -2
289
     1
 69
     0
  7
STANDARD
140
0.18
170
     5
 62
     0
 63
     7
283
     0
274
    -2
284
     1
 64
     0
275
    -2
285
     1
 65
     0
276
    -2
286
     1
 66
     0
277
    -2
287
     1
 67
     0
278
    -2
288
     1
 68
     0
279
    -2
289
     1
 69
     0
  0
VISUALSTYLE
  5
9F12
102
{ACAD_XDICTIONARY
360
9F70
102
}
102
{ACAD_REACTORS
330
9F0C
102
}
330
9F0C
100
AcDbVisualStyle
  2
2dWireframe
 70
     4
 71
     0
 72
     2
 73
     0
 90
        0
 40
-0.6
 41
-30.0
 62
     5
 63
     7
 74
     1
 91
        4
 64
     7
 65
   257
 75
     1
175
     1
 42
1.0
 92
        0
 66
   257
 43
1.0
 76
     1
 77
     6
 78
     2
 67
     7
 79
     5
170
     0
171
     0
290
     0
174
     0
 93
        1
 44
0.0
173
     0
291
     0
 45
0.0
1001
ACAD
1000
AcDbSavedByObjectVersion
1070
     0
  0
VISUALSTYLE
  5
9F11
102
{ACAD_XDICTIONARY
360
9F6E
102
}
102
{ACAD_REACTORS
330
9F0C
102
}
330
9F0C
100
AcDbVisualStyle
  2
Basic
 70
     7
 71
     1
 72
     0
 73
     1
 90
        0
 40
-0.6
 41
-30.0
 62
     5
 63
     7
 74
     0
 91
        4
 64
     7
 65
   257
 75
     1
175
     1
 42
1.0
 92
        8
 66
     7
 43
1.0
 76
     1
 77
     6
 78
     2
 67
     7
 79
     5
170
     0
171
     0
290
     0
174
     0
 93
        1
 44
0.0
173
     0
291
     1
 45
0.0
1001
ACAD
1000
AcDbSavedByObjectVersion
1070
     0
  0
VISUALSTYLE
  5
9F18
102
{ACAD_XDICTIONARY
360
9F7C
102
}
102
{ACAD_REACTORS
330
9F0C
102
}
330
9F0C
100
AcDbVisualStyle
  2
Brighten
 70
    12
 71
     2
 72
     2
 73
     0
 90
        0
 40
-0.6
 41
-30.0
 62
     5
 63
     7
 74
     1
 91
        4
 64
     7
 65
   257
 75
     1
175
     1
 42
1.0
 92
        8
 66
     7
 43
1.0
 76
     1
 77
     6
 78
     2
 67
     7
 79
     5
170
     0
171
     0
290
     0
174
     0
 93
        1
 44
50.0
173
     0
291
     1
 45
0.0
1001
ACAD
1000
AcDbSavedByObjectVersion
1070
     0
  0
VISUALSTYLE
  5
9F1C
102
{ACAD_XDICTIONARY
360
9F84
102
}
102
{ACAD_REACTORS
330
9F0C
102
}
330
9F0C
100
AcDbVisualStyle
  2
ColorChange
 70
    16
 71
     2
 72
     2
 73
     3
 90
        0
 40
-0.6
 41
-30.0
 62
     5
 63
     8
 74
     1
 91
        4
 64
     7
 65
   257
 75
     1
175
     1
 42
1.0
 92
        8
 66
     8
 43
1.0
 76
     1
 77
     6
 78
     2
 67
     7
 79
     5
170
     0
171
     0
290
     0
174
     0
 93
        1
 44
0.0
173
     0
291
     1
 45
0.0
1001
ACAD
1000
AcDbSavedByObjectVersion
1070
     0
  0
VISUALSTYLE
  5
9F15
102
{ACAD_XDICTIONARY
360
9F76
102
}
102
{ACAD_REACTORS
330
9F0C
102
}
330
9F0C
100
AcDbVisualStyle
  2
Conceptual
 70
     9
 71
     3
 72
     2
 73
     0
 90
        0
 40
-0.6
 41
-30.0
 62
     5
 63
     7
 74
     2
 91
        2
 64
     7
 65
   257
 75
     1
175
     1
 42
179.0
 92
        8
 66
     7
 43
1.0
 76
     1
 77
     6
 78
     2
 67
     7
 79
     3
170
     0
171
     0
290
     0
174
     0
 93
        1
 44
0.0
173
     0
291
     0
 45
0.0
1001
ACAD
1000
AcDbSavedByObjectVersion
1070
     0
  0
VISUALSTYLE
  5
9F17
102
{ACAD_XDICTIONARY
360
9F7A
102
}
102
{ACAD_REACTORS
330
9F0C
102
}
330
9F0C
100
AcDbVisualStyle
  2
Dim
 70
    11
 71
     2
 72
     2
 73
     0
 90
        0
 40
-0.6
 41
-30.0
 62
     5
 63
     7
 74
     1
 91
        4
 64
     7
 65
   257
 75
     1
175
     1
 42
1.0
 92
        8
 66
     7
 43
1.0
 76
     1
 77
     6
 78
     2
 67
     7
 79
     5
170
     0
171
     0
290
     0
174
     0
 93
        1
 44
-50.0
173
     0
291
     1
 45
0.0
1001
ACAD
1000
AcDbSavedByObjectVersion
1070
     0
  0
VISUALSTYLE
  5
9F24
102
{ACAD_XDICTIONARY
360
9F94
102
}
102
{ACAD_REACTORS
330
9F0C
102
}
330
9F0C
100
AcDbVisualStyle
  2
EdgeColorOff
 70
    22
 71
     2
 72
     2
 73
     0
 90
        0
 40
-0.6
 41
-30.0
 62
     5
 63
     7
 74
     1
 91
        4
 64
     7
 65
   257
 75
     1
175
     1
 42
1.0
 92
        8
 66
     7
 43
1.0
 76
     1
 77
     6
 78
     2
 67
     7
 79
     5
170
     0
171
     0
290
     0
174
     0
 93
        1
 44
0.0
173
     0
291
     1
 45
0.0
1001
ACAD
1000
AcDbSavedByObjectVersion
1070
     0
  0
VISUALSTYLE
  5
9F1B
102
{ACAD_XDICTIONARY
360
9F82
102
}
102
{ACAD_REACTORS
330
9F0C
102
}
330
9F0C
100
AcDbVisualStyle
  2
Facepattern
 70
    15
 71
     2
 72
     2
 73
     0
 90
        0
 40
-0.6
 41
-30.0
 62
     5
 63
     7
 74
     1
 91
        4
 64
     7
 65
   257
 75
     1
175
     1
 42
1.0
 92
        8
 66
     7
 43
1.0
 76
     1
 77
     6
 78
     2
 67
     7
 79
     5
170
     0
171
     0
290
     0
174
     0
 93
        1
 44
0.0
173
     0
291
     1
 45
0.0
1001
ACAD
1000
AcDbSavedByObjectVersion
1070
     0
  0
VISUALSTYLE
  5
9F0D
102
{ACAD_XDICTIONARY
360
9F66
102
}
102
{ACAD_REACTORS
330
9F0C
102
}
330
9F0C
100
AcDbVisualStyle
  2
Flat
 70
     0
 71
     2
 72
     1
 73
     1
 90
        2
 40
-0.6
 41
30.0
 62
     5
 63
     7
 74
     0
 91
        0
 64
     7
 65
   257
 75
     1
175
     1
 42
1.0
 92
        8
 66
     7
 43
1.0
 76
     1
 77
     6
 78
     2
 67
     7
 79
     5
170
     0
171
     0
290
     0
174
     0
 93
       13
 44
0.0
173
     0
291
     1
 45
0.0
1001
ACAD
1000
AcDbSavedByObjectVersion
1070
     0
  0
VISUALSTYLE
  5
9F0E
102
{ACAD_XDICTIONARY
360
9F68
102
}
102
{ACAD_REACTORS
330
9F0C
102
}
330
9F0C
100
AcDbVisualStyle
  2
FlatWithEdges
 70
     1
 71
     2
 72
     1
 73
     1
 90
        2
 40
-0.6
 41
30.0
 62
     5
 63
     7
 74
     1
 91
        0
 64
     7
 65
   257
 75
     1
175
     1
 42
1.0
 92
        0
 66
   257
 43
1.0
 76
     1
 77
     6
 78
     2
 67
     7
 79
     5
170
     0
171
     0
290
     0
174
     0
 93
       13
 44
0.0
173
     0
291
     1
 45
0.0
1001
ACAD
1000
AcDbSavedByObjectVersion
1070
     0
  0
VISUALSTYLE
  5
9F0F
102
{ACAD_XDICTIONARY
360
9F6A
102
}
102
{ACAD_REACTORS
330
9F0C
102
}
330
9F0C
100
AcDbVisualStyle
  2
Gouraud
 70
     2
 71
     2
 72
     2
 73
     1
 90
        2
 40
-0.6
 41
30.0
 62
     5
 63
     7
 74
     0
 91
        0
 64
     7
 65
   257
 75
     1
175
     1
 42
1.0
 92
        0
 66
     7
 43
1.0
 76
     1
 77
     6
 78
     2
 67
     7
 79
     5
170
     0
171
     0
290
     0
174
     0
 93
       13
 44
0.0
173
     0
291
     1
 45
0.0
1001
ACAD
1000
AcDbSavedByObjectVersion
1070
     0
  0
VISUALSTYLE
  5
9F10
102
{ACAD_XDICTIONARY
360
9F6C
102
}
102
{ACAD_REACTORS
330
9F0C
102
}
330
9F0C
100
AcDbVisualStyle
  2
GouraudWithEdges
 70
     3
 71
     2
 72
     2
 73
     1
 90
        2
 40
-0.6
 41
30.0
 62
     5
 63
     7
 74
     1
 91
        0
 64
     7
 65
   257
 75
     1
175
     1
 42
1.0
 92
        0
 66
   257
 43
1.0
 76
     1
 77
     6
 78
     2
 67
     7
 79
     5
170
     0
171
     0
290
     0
174
     0
 93
       13
 44
0.0
173
     0
291
     1
 45
0.0
1001
ACAD
1000
AcDbSavedByObjectVersion
1070
     0
  0
VISUALSTYLE
  5
9F14
102
{ACAD_XDICTIONARY
360
9F74
102
}
102
{ACAD_REACTORS
330
9F0C
102
}
330
9F0C
100
AcDbVisualStyle
  2
Hidden
 70
     6
 71
     1
 72
     2
 73
     2
 90
        0
 40
-0.6
 41
-30.0
 62
     5
 63
     7
 74
     2
 91
        2
 64
     7
 65
   257
 75
     2
175
     1
 42
40.0
 92
        0
 66
   257
 43
1.0
 76
     1
 77
     6
 78
     2
 67
     7
 79
     3
170
     0
171
     0
290
     0
174
     0
 93
        1
 44
0.0
173
     0
291
     0
 45
0.0
1001
ACAD
1000
AcDbSavedByObjectVersion
1070
     0
  0
VISUALSTYLE
  5
9F22
102
{ACAD_XDICTIONARY
360
9F90
102
}
102
{ACAD_REACTORS
330
9F0C
102
}
330
9F0C
100
AcDbVisualStyle
  2
JitterOff
 70
    20
 71
     2
 72
     2
 73
     0
 90
        0
 40
-0.6
 41
-30.0
 62
     5
 63
     7
 74
     1
 91
        4
 64
     7
 65
   257
 75
     1
175
     1
 42
1.0
 92
       10
 66
     7
 43
1.0
 76
     1
 77
     6
 78
     2
 67
     7
 79
     5
170
     0
171
     0
290
     0
174
     0
 93
        1
 44
0.0
173
     0
291
     1
 45
0.0
1001
ACAD
1000
AcDbSavedByObjectVersion
1070
     0
  0
VISUALSTYLE
  5
9F1A
102
{ACAD_XDICTIONARY
360
9F80
102
}
102
{ACAD_REACTORS
330
9F0C
102
}
330
9F0C
100
AcDbVisualStyle
  2
Linepattern
 70
    14
 71
     2
 72
     2
 73
     0
 90
        0
 40
-0.6
 41
-30.0
 62
     5
 63
     7
 74
     1
 91
        4
 64
     7
 65
   257
 75
     7
175
     7
 42
1.0
 92
        8
 66
     7
 43
1.0
 76
     1
 77
     6
 78
     2
 67
     7
 79
     5
170
     0
171
     0
290
     0
174
     0
 93
        1
 44
0.0
173
     0
291
     1
 45
0.0
1001
ACAD
1000
AcDbSavedByObjectVersion
1070
     0
  0
VISUALSTYLE
  5
9F23
102
{ACAD_XDICTIONARY
360
9F92
102
}
102
{ACAD_REACTORS
330
9F0C
102
}
330
9F0C
100
AcDbVisualStyle
  2
OverhangOff
 70
    21
 71
     2
 72
     2
 73
     0
 90
        0
 40
-0.6
 41
-30.0
 62
     5
 63
     7
 74
     1
 91
        4
 64
     7
 65
   257
 75
     1
175
     1
 42
1.0
 92
        9
 66
     7
 43
1.0
 76
     1
 77
     6
 78
     2
 67
     7
 79
     5
170
     0
171
     0
290
     0
174
     0
 93
        1
 44
0.0
173
     0
291
     1
 45
0.0
1001
ACAD
1000
AcDbSavedByObjectVersion
1070
     0
  0
VISUALSTYLE
  5
9F16
102
{ACAD_XDICTIONARY
360
9F78
102
}
102
{ACAD_REACTORS
330
9F0C
102
}
330
9F0C
100
AcDbVisualStyle
  2
Realistic
 70
     8
 71
     2
 72
     3
 73
     0
 90
        2
 40
-0.6
 41
30.0
 62
     5
 63
     7
 74
     0
 91
        0
 64
     7
 65
   257
 75
     1
175
     1
 42
1.0
 92
        8
 66
   257
 43
1.0
 76
     1
 77
     6
 78
     2
 67
     7
 79
     3
170
     0
171
     0
290
     0
174
     0
 93
       13
 44
0.0
173
     0
291
     0
 45
0.0
1001
ACAD
1000
AcDbSavedByObjectVersion
1070
     0
  0
VISUALSTYLE
  5
9F21
102
{ACAD_XDICTIONARY
360
9F8E
102
}
102
{ACAD_REACTORS
330
9F0C
102
}
330
9F0C
100
AcDbVisualStyle
  2
Shaded
 70
    27
 71
     2
 72
     2
 73
     1
 90
        2
 40
-0.6
 41
30.0
 62
     5
 63
     7
 74
     0
 91
        4
 64
     7
 65
   257
 75
     1
175
     1
 42
1.0
 92
        8
 66
   257
 43
1.0
 76
     1
 77
     6
 78
     2
 67
     8
 79
     3
170
     0
171
     0
290
     0
174
     0
 93
        5
 44
0.0
173
     0
291
     0
 45
0.0
1001
ACAD
1000
AcDbSavedByObjectVersion
1070
     0
  0
VISUALSTYLE
  5
9F20
102
{ACAD_XDICTIONARY
360
9F8C
102
}
102
{ACAD_REACTORS
330
9F0C
102
}
330
9F0C
100
AcDbVisualStyle
  2
Shaded with edges
 70
    26
 71
     2
 72
     2
 73
     1
 90
        2
 40
-0.6
 41
30.0
 62
     5
 63
     7
 74
     1
 91
       10
 64
     7
 65
   257
 75
     2
175
     1
 42
1.0
 92
        8
 66
   257
 43
1.0
 76
     1
 77
     6
 78
     2
 67
     7
 79
     3
170
     0
171
     0
290
     0
174
     0
 93
        5
 44
0.0
173
     0
291
     0
 45
0.0
1001
ACAD
1000
AcDbSavedByObjectVersion
1070
     0
  0
VISUALSTYLE
  5
9F1D
102
{ACAD_XDICTIONARY
360
9F86
102
}
102
{ACAD_REACTORS
330
9F0C
102
}
330
9F0C
100
AcDbVisualStyle
  2
Shades of Gray
 70
    23
 71
     2
 72
     2
 73
     3
 90
        0
 40
-0.6
 41
-30.0
 62
     5
 63
     7
 74
     2
 91
        2
 64
     7
 65
     7
 75
     1
175
     1
 42
40.0
 92
        8
 66
     7
 43
1.0
 76
     1
 77
     6
 78
     2
 67
     7
 79
     3
170
     0
171
     0
290
     0
174
     0
 93
        1
 44
0.0
173
     0
291
     0
 45
0.0
1001
ACAD
1000
AcDbSavedByObjectVersion
1070
     0
  0
VISUALSTYLE
  5
9F1E
102
{ACAD_XDICTIONARY
360
9F88
102
}
102
{ACAD_REACTORS
330
9F0C
102
}
330
9F0C
100
AcDbVisualStyle
  2
Sketchy
 70
    24
 71
     1
 72
     2
 73
     2
 90
        0
 40
-0.6
 41
-30.0
 62
     5
 63
     7
 74
     2
 91
        2
 64
     7
 65
     7
 75
     1
175
     1
 42
40.0
 92
       11
 66
     7
 43
1.0
 76
     1
 77
     6
 78
     2
 67
     7
 79
     6
170
     0
171
     0
290
     0
174
     0
 93
        1
 44
0.0
173
     0
291
     0
 45
0.0
1001
ACAD
1000
AcDbSavedByObjectVersion
1070
     0
  0
VISUALSTYLE
  5
9F19
102
{ACAD_XDICTIONARY
360
9F7E
102
}
102
{ACAD_REACTORS
330
9F0C
102
}
330
9F0C
100
AcDbVisualStyle
  2
Thicken
 70
    13
 71
     2
 72
     2
 73
     0
 90
        0
 40
-0.6
 41
-30.0
 62
     5
 63
     7
 74
     1
 91
        4
 64
     7
 65
   257
 75
     1
175
     1
 42
1.0
 92
       12
 66
     7
 43
1.0
 76
     1
 77
     6
 78
     2
 67
     7
 79
     5
170
     0
171
     0
290
     0
174
     0
 93
        1
 44
0.0
173
     0
291
     1
 45
0.0
1001
ACAD
1000
AcDbSavedByObjectVersion
1070
     0
  0
VISUALSTYLE
  5
9F13
102
{ACAD_XDICTIONARY
360
9F72
102
}
102
{ACAD_REACTORS
330
9F0C
102
}
330
9F0C
100
AcDbVisualStyle
  2
Wireframe
 70
     5
 71
     0
 72
     2
 73
     0
 90
        0
 40
-0.6
 41
-30.0
 62
     5
 63
     7
 74
     1
 91
        4
 64
     7
 65
   257
 75
     1
175
     1
 42
1.0
 92
        0
 66
   257
 43
1.0
 76
     1
 77
     6
 78
     2
 67
     7
 79
     3
170
     0
171
     0
290
     0
174
     0
 93
        1
 44
0.0
173
     0
291
     0
 45
0.0
1001
ACAD
1000
AcDbSavedByObjectVersion
1070
     0
  0
VISUALSTYLE
  5
9F1F
102
{ACAD_XDICTIONARY
360
9F8A
102
}
102
{ACAD_REACTORS
330
9F0C
102
}
330
9F0C
100
AcDbVisualStyle
  2
X-Ray
 70
    25
 71
     2
 72
     2
 73
     1
 90
        1
 40
0.5
 41
-30.0
 62
     5
 63
     7
 74
     1
 91
        0
 64
     7
 65
   257
 75
     1
175
     1
 42
1.0
 92
        8
 66
     7
 43
1.0
 76
     1
 77
     6
 78
     2
 67
     7
 79
     3
170
     0
171
     0
290
     0
174
     0
 93
       13
 44
0.0
173
     0
291
     0
 45
0.0
1001
ACAD
1000
AcDbSavedByObjectVersion
1070
     0
  0
DICTIONARYVAR
  5
9F59
102
{ACAD_REACTORS
330
9F54
102
}
330
9F54
100
DictionaryVariables
280
     0
  1
1:1
  0
DICTIONARYVAR
  5
9F56
102
{ACAD_REACTORS
330
9F54
102
}
330
9F54
100
DictionaryVariables
280
     0
  1
STANDARD
  0
DICTIONARYVAR
  5
9F55
102
{ACAD_REACTORS
330
9F54
102
}
330
9F54
100
DictionaryVariables
280
     0
  1
STANDARD
  0
DICTIONARYVAR
  5
9F57
102
{ACAD_REACTORS
330
9F54
102
}
330
9F54
100
DictionaryVariables
280
     0
  1
Imperial24
  0
DICTIONARYVAR
  5
9F58
102
{ACAD_REACTORS
330
9F54
102
}
330
9F54
100
DictionaryVariables
280
     0
  1
Imperial24
  0
DICTIONARYVAR
  5
9F5C
102
{ACAD_REACTORS
330
9F54
102
}
330
9F54
100
DictionaryVariables
280
     0
  1
1
  0
DICTIONARYVAR
  5
9F5B
102
{ACAD_REACTORS
330
9F54
102
}
330
9F54
100
DictionaryVariables
280
     0
  1
0
  0
DICTIONARYVAR
  5
9F5A
102
{ACAD_REACTORS
330
9F54
102
}
330
9F54
100
DictionaryVariables
280
     0
  1
127
  0
DICTIONARYVAR
  5
9F5D
102
{ACAD_REACTORS
330
9F54
102
}
330
9F54
100
DictionaryVariables
280
     0
  1
2
  0
DICTIONARY
  5
9F9A
330
9F3F
100
AcDbDictionary
280
     1
281
     1
  3
ACAD_XREC_ROUNDTRIP
360
9F9B
  0
DICTIONARY
  5
9F9C
330
9F40
100
AcDbDictionary
280
     1
281
     1
  3
ACAD_XREC_ROUNDTRIP
360
9F9D
  0
DICTIONARY
  5
9F9E
330
9F41
100
AcDbDictionary
280
     1
281
     1
  3
ACAD_XREC_ROUNDTRIP
360
9F9F
  0
DICTIONARY
  5
9EFD
330
9EFC
100
AcDbDictionary
280
     1
281
     1
  3
ACAD_XREC_ROUNDTRIP
360
9F64
  3
BUMPTILE
360
9EFF
  3
DIFFUSETILE
360
9EFE
  3
OPACITYTILE
360
9F02
  3
REFLECTIONTILE
360
9F01
  3
REFRACTIONTILE
360
9F03
  3
SPECULARTILE
360
9F00
  0
DICTIONARY
  5
9EF5
330
9EF4
100
AcDbDictionary
280
     1
281
     1
  3
ACAD_XREC_ROUNDTRIP
360
9F63
  3
BUMPTILE
360
9EF7
  3
DIFFUSETILE
360
9EF6
  3
OPACITYTILE
360
9EFA
  3
REFLECTIONTILE
360
9EF9
  3
REFRACTIONTILE
360
9EFB
  3
SPECULARTILE
360
9EF8
  0
DICTIONARY
  5
9F05
330
9F04
100
AcDbDictionary
280
     1
281
     1
  3
ACAD_XREC_ROUNDTRIP
360
9F65
  3
BUMPTILE
360
9F07
  3
DIFFUSETILE
360
9F06
  3
OPACITYTILE
360
9F0A
  3
REFLECTIONTILE
360
9F09
  3
REFRACTIONTILE
360
9F0B
  3
SPECULARTILE
360
9F08
  0
DICTIONARY
  5
9F98
330
9F3D
100
AcDbDictionary
280
     1
281
     1
  3
ACAD_XREC_ROUNDTRIP
360
9F99
  0
DICTIONARY
  5
9F5F
330
9F27
100
AcDbDictionary
280
     1
281
     1
  3
ACAD_ROUNDTRIP_2008_TABLESTYLE_CELLSTYLEMAP
360
9F60
  3
ACAD_XREC_ROUNDTRIP
360
9F96
  0
DICTIONARY
  5
9F70
330
9F12
100
AcDbDictionary
280
     1
281
     1
  3
ACAD_XREC_ROUNDTRIP
360
9F71
  0
DICTIONARY
  5
9F6E
330
9F11
100
AcDbDictionary
280
     1
281
     1
  3
ACAD_XREC_ROUNDTRIP
360
9F6F
  0
DICTIONARY
  5
9F7C
330
9F18
100
AcDbDictionary
280
     1
281
     1
  3
ACAD_XREC_ROUNDTRIP
360
9F7D
  0
DICTIONARY
  5
9F84
330
9F1C
100
AcDbDictionary
280
     1
281
     1
  3
ACAD_XREC_ROUNDTRIP
360
9F85
  0
DICTIONARY
  5
9F76
330
9F15
100
AcDbDictionary
280
     1
281
     1
  3
ACAD_XREC_ROUNDTRIP
360
9F77
  0
DICTIONARY
  5
9F7A
330
9F17
100
AcDbDictionary
280
     1
281
     1
  3
ACAD_XREC_ROUNDTRIP
360
9F7B
  0
DICTIONARY
  5
9F94
330
9F24
100
AcDbDictionary
280
     1
281
     1
  3
ACAD_XREC_ROUNDTRIP
360
9F95
  0
DICTIONARY
  5
9F82
330
9F1B
100
AcDbDictionary
280
     1
281
     1
  3
ACAD_XREC_ROUNDTRIP
360
9F83
  0
DICTIONARY
  5
9F66
330
9F0D
100
AcDbDictionary
280
     1
281
     1
  3
ACAD_XREC_ROUNDTRIP
360
9F67
  0
DICTIONARY
  5
9F68
330
9F0E
100
AcDbDictionary
280
     1
281
     1
  3
ACAD_XREC_ROUNDTRIP
360
9F69
  0
DICTIONARY
  5
9F6A
330
9F0F
100
AcDbDictionary
280
     1
281
     1
  3
ACAD_XREC_ROUNDTRIP
360
9F6B
  0
DICTIONARY
  5
9F6C
330
9F10
100
AcDbDictionary
280
     1
281
     1
  3
ACAD_XREC_ROUNDTRIP
360
9F6D
  0
DICTIONARY
  5
9F74
330
9F14
100
AcDbDictionary
280
     1
281
     1
  3
ACAD_XREC_ROUNDTRIP
360
9F75
  0
DICTIONARY
  5
9F90
330
9F22
100
AcDbDictionary
280
     1
281
     1
  3
ACAD_XREC_ROUNDTRIP
360
9F91
  0
DICTIONARY
  5
9F80
330
9F1A
100
AcDbDictionary
280
     1
281
     1
  3
ACAD_XREC_ROUNDTRIP
360
9F81
  0
DICTIONARY
  5
9F92
330
9F23
100
AcDbDictionary
280
     1
281
     1
  3
ACAD_XREC_ROUNDTRIP
360
9F93
  0
DICTIONARY
  5
9F78
330
9F16
100
AcDbDictionary
280
     1
281
     1
  3
ACAD_XREC_ROUNDTRIP
360
9F79
  0
DICTIONARY
  5
9F8E
330
9F21
100
AcDbDictionary
280
     1
281
     1
  3
ACAD_XREC_ROUNDTRIP
360
9F8F
  0
DICTIONARY
  5
9F8C
330
9F20
100
AcDbDictionary
280
     1
281
     1
  3
ACAD_XREC_ROUNDTRIP
360
9F8D
  0
DICTIONARY
  5
9F86
330
9F1D
100
AcDbDictionary
280
     1
281
     1
  3
ACAD_XREC_ROUNDTRIP
360
9F87
  0
DICTIONARY
  5
9F88
330
9F1E
100
AcDbDictionary
280
     1
281
     1
  3
ACAD_XREC_ROUNDTRIP
360
9F89
  0
DICTIONARY
  5
9F7E
330
9F19
100
AcDbDictionary
280
     1
281
     1
  3
ACAD_XREC_ROUNDTRIP
360
9F7F
  0
DICTIONARY
  5
9F72
330
9F13
100
AcDbDictionary
280
     1
281
     1
  3
ACAD_XREC_ROUNDTRIP
360
9F73
  0
DICTIONARY
  5
9F8A
330
9F1F
100
AcDbDictionary
280
     1
281
     1
  3
ACAD_XREC_ROUNDTRIP
360
9F8B
  0
XRECORD
  5
9F9B
102
{ACAD_REACTORS
330
9F9A
102
}
330
9F9A
100
AcDbXrecord
280
     1
102
DISPLAYNAME
  1
Imperial24
102
FLAGS
 90
        0
  0
XRECORD
  5
9F9D
102
{ACAD_REACTORS
330
9F9C
102
}
330
9F9C
100
AcDbXrecord
280
     1
102
SHADEPLOT
 70
     0
102
SHADEPLOTRESLEVEL
 70
     2
102
SHADEPLOTCUSTOMDPI
 70
   300
  0
XRECORD
  5
9F9F
102
{ACAD_REACTORS
330
9F9E
102
}
330
9F9E
100
AcDbXrecord
280
     1
102
SHADEPLOT
 70
     0
102
SHADEPLOTRESLEVEL
 70
     2
102
SHADEPLOTCUSTOMDPI
 70
   300
  0
XRECORD
  5
9F64
102
{ACAD_REACTORS
330
9EFD
102
}
330
9EFD
100
AcDbXrecord
280
     1
102
MATERIAL
148
0.0
149
0.0
149
0.0
 93
        0
 94
      127
282
     0
 72
     0
 77
     0
171
     0
175
     0
179
     0
273
     0
  0
XRECORD
  5
9EFF
102
{ACAD_REACTORS
330
9EFD
102
}
330
9EFD
100
AcDbXrecord
280
     1
270
     1
271
     1
  0
XRECORD
  5
9EFE
102
{ACAD_REACTORS
330
9EFD
102
}
330
9EFD
100
AcDbXrecord
280
     1
270
     1
271
     1
  0
XRECORD
  5
9F02
102
{ACAD_REACTORS
330
9EFD
102
}
330
9EFD
100
AcDbXrecord
280
     1
270
     1
271
     1
  0
XRECORD
  5
9F01
102
{ACAD_REACTORS
330
9EFD
102
}
330
9EFD
100
AcDbXrecord
280
     1
270
     1
271
     1
  0
XRECORD
  5
9F03
102
{ACAD_REACTORS
330
9EFD
102
}
330
9EFD
100
AcDbXrecord
280
     1
270
     1
271
     1
  0
XRECORD
  5
9F00
102
{ACAD_REACTORS
330
9EFD
102
}
330
9EFD
100
AcDbXrecord
280
     1
270
     1
271
     1
  0
XRECORD
  5
9F63
102
{ACAD_REACTORS
330
9EF5
102
}
330
9EF5
100
AcDbXrecord
280
     1
102
MATERIAL
148
0.0
149
0.0
149
0.0
 93
        0
 94
      127
282
     0
 72
     0
 77
     0
171
     0
175
     0
179
     0
273
     0
  0
XRECORD
  5
9EF7
102
{ACAD_REACTORS
330
9EF5
102
}
330
9EF5
100
AcDbXrecord
280
     1
270
     1
271
     1
  0
XRECORD
  5
9EF6
102
{ACAD_REACTORS
330
9EF5
102
}
330
9EF5
100
AcDbXrecord
280
     1
270
     1
271
     1
  0
XRECORD
  5
9EFA
102
{ACAD_REACTORS
330
9EF5
102
}
330
9EF5
100
AcDbXrecord
280
     1
270
     1
271
     1
  0
XRECORD
  5
9EF9
102
{ACAD_REACTORS
330
9EF5
102
}
330
9EF5
100
AcDbXrecord
280
     1
270
     1
271
     1
  0
XRECORD
  5
9EFB
102
{ACAD_REACTORS
330
9EF5
102
}
330
9EF5
100
AcDbXrecord
280
     1
270
     1
271
     1
  0
XRECORD
  5
9EF8
102
{ACAD_REACTORS
330
9EF5
102
}
330
9EF5
100
AcDbXrecord
280
     1
270
     1
271
     1
  0
XRECORD
  5
9F65
102
{ACAD_REACTORS
330
9F05
102
}
330
9F05
100
AcDbXrecord
280
     1
102
MATERIAL
148
0.0
149
0.0
149
0.0
 93
        0
 94
      127
282
     0
 72
     0
 77
     0
171
     0
175
     0
179
     0
273
     0
  0
XRECORD
  5
9F07
102
{ACAD_REACTORS
330
9F05
102
}
330
9F05
100
AcDbXrecord
280
     1
270
     1
271
     1
  0
XRECORD
  5
9F06
102
{ACAD_REACTORS
330
9F05
102
}
330
9F05
100
AcDbXrecord
280
     1
270
     1
271
     1
  0
XRECORD
  5
9F0A
102
{ACAD_REACTORS
330
9F05
102
}
330
9F05
100
AcDbXrecord
280
     1
270
     1
271
     1
  0
XRECORD
  5
9F09
102
{ACAD_REACTORS
330
9F05
102
}
330
9F05
100
AcDbXrecord
280
     1
270
     1
271
     1
  0
XRECORD
  5
9F0B
102
{ACAD_REACTORS
330
9F05
102
}
330
9F05
100
AcDbXrecord
280
     1
270
     1
271
     1
  0
XRECORD
  5
9F08
102
{ACAD_REACTORS
330
9F05
102
}
330
9F05
100
AcDbXrecord
280
     1
270
     1
271
     1
  0
XRECORD
  5
9F99
102
{ACAD_REACTORS
330
9F98
102
}
330
9F98
100
AcDbXrecord
280
     1
102
DISPLAYNAME
  1
Imperial24
102
FLAGS
 90
        0
  0
CELLSTYLEMAP
  5
9F60
102
{ACAD_REACTORS
330
9F5F
102
}
330
9F5F
100
AcDbCellStyleMap
 90
        3
300
CELLSTYLE
  1
TABLEFORMAT_BEGIN
 90
        5
170
     1
 91
        0
 92
    32768
 62
   257
 93
        1
300
CONTENTFORMAT
  1
CONTENTFORMAT_BEGIN
 90
        0
 91
        0
 92
      512
 93
        0
300

 40
0.0
140
1.0
 94
        5
 62
     0
340
9C36
144
0.25
309
CONTENTFORMAT_END
171
     0
 94
        0
309
TABLEFORMAT_END
  1
CELLSTYLE_BEGIN
 90
        1
 91
        1
300
_TITLE
309
CELLSTYLE_END
300
CELLSTYLE
  1
TABLEFORMAT_BEGIN
 90
        5
170
     1
 91
        0
 92
        0
 62
   257
 93
        1
300
CONTENTFORMAT
  1
CONTENTFORMAT_BEGIN
 90
        0
 91
        0
 92
      512
 93
        0
300

 40
0.0
140
1.0
 94
        5
 62
     0
340
9C36
144
0.18
309
CONTENTFORMAT_END
171
     0
 94
        0
309
TABLEFORMAT_END
  1
CELLSTYLE_BEGIN
 90
        2
 91
        1
300
_HEADER
309
CELLSTYLE_END
300
CELLSTYLE
  1
TABLEFORMAT_BEGIN
 90
        5
170
     1
 91
        0
 92
        0
 62
   257
 93
        1
300
CONTENTFORMAT
  1
CONTENTFORMAT_BEGIN
 90
        0
 91
        0
 92
      512
 93
        0
300

 40
0.0
140
1.0
 94
        2
 62
     0
340
9C36
144
0.18
309
CONTENTFORMAT_END
171
     0
 94
        0
309
TABLEFORMAT_END
  1
CELLSTYLE_BEGIN
 90
        3
 91
        2
300
_DATA
309
CELLSTYLE_END
  0
XRECORD
  5
9F96
102
{ACAD_REACTORS
330
9F5F
102
}
330
9F5F
100
AcDbXrecord
280
     1
102
ACAD_ROUNDTRIP_PRE2007_TABLESTYLE
 90
      512
 91
        0
  1

 92
      512
 93
        0
  2

 94
      512
 95
        0
  3

  0
XRECORD
  5
9F71
102
{ACAD_REACTORS
330
9F70
102
}
330
9F70
100
AcDbXrecord
280
     1
102
RTVSPost2010Prop28
280
     1
102
RTVSPost2010PropOp28
 70
     1
102
RTVSPost2010Prop29
280
     1
102
RTVSPost2010PropOp29
 70
     1
102
RTVSPost2010Prop30
280
     0
102
RTVSPost2010PropOp30
 70
     1
102
RTVSPost2010Prop31
280
     0
102
RTVSPost2010PropOp31
 70
     1
102
RTVSPost2010Prop32
280
     0
102
RTVSPost2010PropOp32
 70
     1
102
RTVSPost2010Prop33
280
     0
102
RTVSPost2010PropOp33
 70
     1
102
RTVSPost2010Prop34
280
     0
102
RTVSPost2010PropOp34
 70
     1
102
RTVSPost2010Prop35
280
     0
102
RTVSPost2010PropOp35
 70
     1
102
RTVSPost2010Prop36
280
     0
102
RTVSPost2010PropOp36
 70
     1
102
RTVSPost2010Prop37
 90
       50
102
RTVSPost2010PropOp37
 70
     1
102
RTVSPost2010Prop38
140
0.0
102
RTVSPost2010PropOp38
 70
     1
102
RTVSPost2010Prop39
140
1.0
102
RTVSPost2010PropOp39
 70
     1
102
RTVSPost2010Prop40
 90
        0
102
RTVSPost2010PropOp40
 70
     1
102
RTVSPost2010Prop41ColorIndex
 90
       18
102
RTVSPost2010Prop41ColorRGB
 90
        0
102
RTVSPost2010PropOp41
 70
     1
102
RTVSPost2010Prop42
 90
       50
102
RTVSPost2010PropOp42
 70
     1
102
RTVSPost2010Prop43
 90
        3
102
RTVSPost2010PropOp43
 70
     1
102
RTVSPost2010Prop44ColorIndex
 90
        5
102
RTVSPost2010Prop44ColorRGB
 90
      255
102
RTVSPost2010PropOp44
 70
     1
102
RTVSPost2010Prop45
280
     0
102
RTVSPost2010PropOp45
 70
     1
102
RTVSPost2010Prop46
 90
       50
102
RTVSPost2010PropOp46
 70
     1
102
RTVSPost2010Prop47
 90
       50
102
RTVSPost2010PropOp47
 70
     1
102
RTVSPost2010Prop48
 90
       50
102
RTVSPost2010PropOp48
 70
     1
102
RTVSPost2010Prop49
280
     0
102
RTVSPost2010PropOp49
 70
     1
102
RTVSPost2010Prop50
 90
       50
102
RTVSPost2010PropOp50
 70
     1
102
RTVSPost2010Prop51ColorIndex
 90
      256
102
RTVSPost2010Prop51ColorRGB
 90
-16777216
102
RTVSPost2010PropOp51
 70
     0
102
RTVSPost2010Prop52
140
1.0
102
RTVSPost2010PropOp52
 70
     0
102
RTVSPost2010Prop53
 90
        2
102
RTVSPost2010PropOp53
 70
     1
102
RTVSPost2010Prop54
  1
strokes_ogs.tif
102
RTVSPost2010PropOp54
 70
     1
102
RTVSPost2010Prop55
280
     0
102
RTVSPost2010PropOp55
 70
     1
102
RTVSPost2010Prop56
140
1.0
102
RTVSPost2010PropOp56
 70
     1
102
RTVSPost2010Prop57
140
1.0
102
RTVSPost2010PropOp57
 70
     1
102
RTVSPropertyOp0
 70
     1
102
RTVSPropertyOp1
 70
     1
102
RTVSPropertyOp2
 70
     1
102
RTVSPropertyOp3
 70
     1
102
RTVSPropertyOp4
 70
     1
102
RTVSPropertyOp5
 70
     1
102
RTVSPropertyOp6
 70
     1
102
RTVSPropertyOp7
 70
     1
102
RTVSPropertyOp8
 70
     1
102
RTVSPropertyOp9
 70
     1
102
RTVSPropertyOp10
 70
     1
102
RTVSPropertyOp11
 70
     1
102
RTVSPropertyOp12
 70
     1
102
RTVSPropertyOp13
 70
     1
102
RTVSPropertyOp14
 70
     1
102
RTVSPropertyOp15
 70
     1
102
RTVSPropertyOp16
 70
     1
102
RTVSPropertyOp17
 70
     1
102
RTVSPropertyOp18
 70
     1
102
RTVSPropertyOp19
 70
     1
102
RTVSPropertyOp20
 70
     1
102
RTVSPropertyOp21
 70
     1
102
RTVSPropertyOp22
 70
     1
102
RTVSPropertyOp23
 70
     1
102
RTVSPropertyOp24
 70
     1
102
RTVSPropertyOp25
 70
     1
102
RTVSPropertyOp26
 70
     1
102
RTVSPropertyOp27
 70
     1
102
RTVSPropertyOp28
 70
     1
102
RTVSPropertyOp29
 70
     1
102
RTVSPropertyOp30
 70
     1
102
RTVSPropertyOp31
 70
     1
102
RTVSPropertyOp32
 70
     1
102
RTVSPropertyOp33
 70
     1
102
RTVSPropertyOp34
 70
     1
102
RTVSPropertyOp35
 70
     1
102
RTVSPropertyOp36
 70
     1
102
RTVSPropertyOp37
 70
     1
102
RTVSPropertyOp38
 70
     1
102
RTVSPropertyOp39
 70
     1
102
RTVSPropertyOp40
 70
     1
102
RTVSPropertyOp41
 70
     1
102
RTVSPropertyOp42
 70
     1
102
RTVSPropertyOp43
 70
     1
102
RTVSPropertyOp44
 70
     1
102
RTVSPropertyOp45
 70
     1
102
RTVSPropertyOp46
 70
     1
102
RTVSPropertyOp47
 70
     1
102
RTVSPropertyOp48
 70
     1
102
RTVSPropertyOp49
 70
     1
102
RTVSPropertyOp50
 70
     1
102
RTVSPropertyOp51
 70
     0
102
RTVSPropertyOp52
 70
     0
102
RTVSPropertyOp53
 70
     1
102
RTVSPropertyOp54
 70
     1
102
RTVSPropertyOp55
 70
     1
102
RTVSPropertyOp56
 70
     1
102
RTVSPropertyOp57
 70
     1
102
RTVSPropertyOp58
 70
     1
102
RTVSPropertyOp59
 70
     1
102
RTVSPropertyOp60
 70
     1
102
RTVSPropertyOp61
 70
     1
102
RTVSPropertyOp62
 70
     1
  0
XRECORD
  5
9F6F
102
{ACAD_REACTORS
330
9F6E
102
}
330
9F6E
100
AcDbXrecord
280
     1
102
RTVSPost2010Prop28
280
     0
102
RTVSPost2010PropOp28
 70
     1
102
RTVSPost2010Prop29
280
     1
102
RTVSPost2010PropOp29
 70
     1
102
RTVSPost2010Prop30
280
     1
102
RTVSPost2010PropOp30
 70
     1
102
RTVSPost2010Prop31
280
     0
102
RTVSPost2010PropOp31
 70
     1
102
RTVSPost2010Prop32
280
     0
102
RTVSPost2010PropOp32
 70
     1
102
RTVSPost2010Prop33
280
     0
102
RTVSPost2010PropOp33
 70
     1
102
RTVSPost2010Prop34
280
     0
102
RTVSPost2010PropOp34
 70
     1
102
RTVSPost2010Prop35
280
     0
102
RTVSPost2010PropOp35
 70
     1
102
RTVSPost2010Prop36
280
     0
102
RTVSPost2010PropOp36
 70
     1
102
RTVSPost2010Prop37
 90
       50
102
RTVSPost2010PropOp37
 70
     1
102
RTVSPost2010Prop38
140
0.0
102
RTVSPost2010PropOp38
 70
     1
102
RTVSPost2010Prop39
140
1.0
102
RTVSPost2010PropOp39
 70
     1
102
RTVSPost2010Prop40
 90
        0
102
RTVSPost2010PropOp40
 70
     1
102
RTVSPost2010Prop41ColorIndex
 90
       18
102
RTVSPost2010Prop41ColorRGB
 90
        0
102
RTVSPost2010PropOp41
 70
     1
102
RTVSPost2010Prop42
 90
       50
102
RTVSPost2010PropOp42
 70
     1
102
RTVSPost2010Prop43
 90
        3
102
RTVSPost2010PropOp43
 70
     1
102
RTVSPost2010Prop44ColorIndex
 90
        5
102
RTVSPost2010Prop44ColorRGB
 90
      255
102
RTVSPost2010PropOp44
 70
     1
102
RTVSPost2010Prop45
280
     0
102
RTVSPost2010PropOp45
 70
     1
102
RTVSPost2010Prop46
 90
       50
102
RTVSPost2010PropOp46
 70
     1
102
RTVSPost2010Prop47
 90
       50
102
RTVSPost2010PropOp47
 70
     1
102
RTVSPost2010Prop48
 90
       50
102
RTVSPost2010PropOp48
 70
     1
102
RTVSPost2010Prop49
280
     0
102
RTVSPost2010PropOp49
 70
     1
102
RTVSPost2010Prop50
 90
       50
102
RTVSPost2010PropOp50
 70
     1
102
RTVSPost2010Prop51ColorIndex
 90
      256
102
RTVSPost2010Prop51ColorRGB
 90
-16777216
102
RTVSPost2010PropOp51
 70
     0
102
RTVSPost2010Prop52
140
1.0
102
RTVSPost2010PropOp52
 70
     0
102
RTVSPost2010Prop53
 90
        2
102
RTVSPost2010PropOp53
 70
     1
102
RTVSPost2010Prop54
  1
strokes_ogs.tif
102
RTVSPost2010PropOp54
 70
     1
102
RTVSPost2010Prop55
280
     0
102
RTVSPost2010PropOp55
 70
     1
102
RTVSPost2010Prop56
140
1.0
102
RTVSPost2010PropOp56
 70
     1
102
RTVSPost2010Prop57
140
1.0
102
RTVSPost2010PropOp57
 70
     1
102
RTVSPropertyOp0
 70
     1
102
RTVSPropertyOp1
 70
     1
102
RTVSPropertyOp2
 70
     1
102
RTVSPropertyOp3
 70
     1
102
RTVSPropertyOp4
 70
     1
102
RTVSPropertyOp5
 70
     1
102
RTVSPropertyOp6
 70
     1
102
RTVSPropertyOp7
 70
     1
102
RTVSPropertyOp8
 70
     1
102
RTVSPropertyOp9
 70
     1
102
RTVSPropertyOp10
 70
     1
102
RTVSPropertyOp11
 70
     1
102
RTVSPropertyOp12
 70
     1
102
RTVSPropertyOp13
 70
     1
102
RTVSPropertyOp14
 70
     1
102
RTVSPropertyOp15
 70
     1
102
RTVSPropertyOp16
 70
     1
102
RTVSPropertyOp17
 70
     1
102
RTVSPropertyOp18
 70
     1
102
RTVSPropertyOp19
 70
     1
102
RTVSPropertyOp20
 70
     1
102
RTVSPropertyOp21
 70
     1
102
RTVSPropertyOp22
 70
     1
102
RTVSPropertyOp23
 70
     1
102
RTVSPropertyOp24
 70
     1
102
RTVSPropertyOp25
 70
     1
102
RTVSPropertyOp26
 70
     1
102
RTVSPropertyOp27
 70
     1
102
RTVSPropertyOp28
 70
     1
102
RTVSPropertyOp29
 70
     1
102
RTVSPropertyOp30
 70
     1
102
RTVSPropertyOp31
 70
     1
102
RTVSPropertyOp32
 70
     1
102
RTVSPropertyOp33
 70
     1
102
RTVSPropertyOp34
 70
     1
102
RTVSPropertyOp35
 70
     1
102
RTVSPropertyOp36
 70
     1
102
RTVSPropertyOp37
 70
     1
102
RTVSPropertyOp38
 70
     1
102
RTVSPropertyOp39
 70
     1
102
RTVSPropertyOp40
 70
     1
102
RTVSPropertyOp41
 70
     1
102
RTVSPropertyOp42
 70
     1
102
RTVSPropertyOp43
 70
     1
102
RTVSPropertyOp44
 70
     1
102
RTVSPropertyOp45
 70
     1
102
RTVSPropertyOp46
 70
     1
102
RTVSPropertyOp47
 70
     1
102
RTVSPropertyOp48
 70
     1
102
RTVSPropertyOp49
 70
     1
102
RTVSPropertyOp50
 70
     1
102
RTVSPropertyOp51
 70
     0
102
RTVSPropertyOp52
 70
     0
102
RTVSPropertyOp53
 70
     1
102
RTVSPropertyOp54
 70
     1
102
RTVSPropertyOp55
 70
     1
102
RTVSPropertyOp56
 70
     1
102
RTVSPropertyOp57
 70
     1
102
RTVSPropertyOp58
 70
     1
102
RTVSPropertyOp59
 70
     1
102
RTVSPropertyOp60
 70
     1
102
RTVSPropertyOp61
 70
     1
102
RTVSPropertyOp62
 70
     1
  0
XRECORD
  5
9F7D
102
{ACAD_REACTORS
330
9F7C
102
}
330
9F7C
100
AcDbXrecord
280
     1
102
RTVSPost2010Prop28
280
     0
102
RTVSPost2010PropOp28
 70
     1
102
RTVSPost2010Prop29
280
     1
102
RTVSPost2010PropOp29
 70
     1
102
RTVSPost2010Prop30
280
     1
102
RTVSPost2010PropOp30
 70
     1
102
RTVSPost2010Prop31
280
     0
102
RTVSPost2010PropOp31
 70
     1
102
RTVSPost2010Prop32
280
     0
102
RTVSPost2010PropOp32
 70
     1
102
RTVSPost2010Prop33
280
     0
102
RTVSPost2010PropOp33
 70
     1
102
RTVSPost2010Prop34
280
     0
102
RTVSPost2010PropOp34
 70
     1
102
RTVSPost2010Prop35
280
     0
102
RTVSPost2010PropOp35
 70
     1
102
RTVSPost2010Prop36
280
     0
102
RTVSPost2010PropOp36
 70
     1
102
RTVSPost2010Prop37
 90
       50
102
RTVSPost2010PropOp37
 70
     1
102
RTVSPost2010Prop38
140
0.0
102
RTVSPost2010PropOp38
 70
     1
102
RTVSPost2010Prop39
140
1.0
102
RTVSPost2010PropOp39
 70
     1
102
RTVSPost2010Prop40
 90
        0
102
RTVSPost2010PropOp40
 70
     1
102
RTVSPost2010Prop41ColorIndex
 90
       18
102
RTVSPost2010Prop41ColorRGB
 90
        0
102
RTVSPost2010PropOp41
 70
     1
102
RTVSPost2010Prop42
 90
       50
102
RTVSPost2010PropOp42
 70
     1
102
RTVSPost2010Prop43
 90
        3
102
RTVSPost2010PropOp43
 70
     1
102
RTVSPost2010Prop44ColorIndex
 90
        5
102
RTVSPost2010Prop44ColorRGB
 90
      255
102
RTVSPost2010PropOp44
 70
     1
102
RTVSPost2010Prop45
280
     0
102
RTVSPost2010PropOp45
 70
     1
102
RTVSPost2010Prop46
 90
       50
102
RTVSPost2010PropOp46
 70
     1
102
RTVSPost2010Prop47
 90
       50
102
RTVSPost2010PropOp47
 70
     1
102
RTVSPost2010Prop48
 90
       50
102
RTVSPost2010PropOp48
 70
     1
102
RTVSPost2010Prop49
280
     0
102
RTVSPost2010PropOp49
 70
     1
102
RTVSPost2010Prop50
 90
       50
102
RTVSPost2010PropOp50
 70
     1
102
RTVSPost2010Prop51ColorIndex
 90
      256
102
RTVSPost2010Prop51ColorRGB
 90
-16777216
102
RTVSPost2010PropOp51
 70
     0
102
RTVSPost2010Prop52
140
1.0
102
RTVSPost2010PropOp52
 70
     0
102
RTVSPost2010Prop53
 90
        2
102
RTVSPost2010PropOp53
 70
     1
102
RTVSPost2010Prop54
  1
strokes_ogs.tif
102
RTVSPost2010PropOp54
 70
     1
102
RTVSPost2010Prop55
280
     0
102
RTVSPost2010PropOp55
 70
     1
102
RTVSPost2010Prop56
140
1.0
102
RTVSPost2010PropOp56
 70
     1
102
RTVSPost2010Prop57
140
1.0
102
RTVSPost2010PropOp57
 70
     1
102
RTVSPropertyOp0
 70
     1
102
RTVSPropertyOp1
 70
     1
102
RTVSPropertyOp2
 70
     1
102
RTVSPropertyOp3
 70
     1
102
RTVSPropertyOp4
 70
     1
102
RTVSPropertyOp5
 70
     1
102
RTVSPropertyOp6
 70
     1
102
RTVSPropertyOp7
 70
     1
102
RTVSPropertyOp8
 70
     1
102
RTVSPropertyOp9
 70
     1
102
RTVSPropertyOp10
 70
     1
102
RTVSPropertyOp11
 70
     1
102
RTVSPropertyOp12
 70
     1
102
RTVSPropertyOp13
 70
     1
102
RTVSPropertyOp14
 70
     1
102
RTVSPropertyOp15
 70
     1
102
RTVSPropertyOp16
 70
     1
102
RTVSPropertyOp17
 70
     1
102
RTVSPropertyOp18
 70
     1
102
RTVSPropertyOp19
 70
     1
102
RTVSPropertyOp20
 70
     1
102
RTVSPropertyOp21
 70
     1
102
RTVSPropertyOp22
 70
     1
102
RTVSPropertyOp23
 70
     1
102
RTVSPropertyOp24
 70
     1
102
RTVSPropertyOp25
 70
     1
102
RTVSPropertyOp26
 70
     1
102
RTVSPropertyOp27
 70
     1
102
RTVSPropertyOp28
 70
     1
102
RTVSPropertyOp29
 70
     1
102
RTVSPropertyOp30
 70
     1
102
RTVSPropertyOp31
 70
     1
102
RTVSPropertyOp32
 70
     1
102
RTVSPropertyOp33
 70
     1
102
RTVSPropertyOp34
 70
     1
102
RTVSPropertyOp35
 70
     1
102
RTVSPropertyOp36
 70
     1
102
RTVSPropertyOp37
 70
     1
102
RTVSPropertyOp38
 70
     1
102
RTVSPropertyOp39
 70
     1
102
RTVSPropertyOp40
 70
     1
102
RTVSPropertyOp41
 70
     1
102
RTVSPropertyOp42
 70
     1
102
RTVSPropertyOp43
 70
     1
102
RTVSPropertyOp44
 70
     1
102
RTVSPropertyOp45
 70
     1
102
RTVSPropertyOp46
 70
     1
102
RTVSPropertyOp47
 70
     1
102
RTVSPropertyOp48
 70
     1
102
RTVSPropertyOp49
 70
     1
102
RTVSPropertyOp50
 70
     1
102
RTVSPropertyOp51
 70
     0
102
RTVSPropertyOp52
 70
     0
102
RTVSPropertyOp53
 70
     1
102
RTVSPropertyOp54
 70
     1
102
RTVSPropertyOp55
 70
     1
102
RTVSPropertyOp56
 70
     1
102
RTVSPropertyOp57
 70
     1
102
RTVSPropertyOp58
 70
     1
102
RTVSPropertyOp59
 70
     1
102
RTVSPropertyOp60
 70
     1
102
RTVSPropertyOp61
 70
     1
102
RTVSPropertyOp62
 70
     1
  0
XRECORD
  5
9F85
102
{ACAD_REACTORS
330
9F84
102
}
330
9F84
100
AcDbXrecord
280
     1
102
RTVSPost2010Prop28
280
     0
102
RTVSPost2010PropOp28
 70
     1
102
RTVSPost2010Prop29
280
     1
102
RTVSPost2010PropOp29
 70
     1
102
RTVSPost2010Prop30
280
     1
102
RTVSPost2010PropOp30
 70
     1
102
RTVSPost2010Prop31
280
     0
102
RTVSPost2010PropOp31
 70
     1
102
RTVSPost2010Prop32
280
     0
102
RTVSPost2010PropOp32
 70
     1
102
RTVSPost2010Prop33
280
     0
102
RTVSPost2010PropOp33
 70
     1
102
RTVSPost2010Prop34
280
     0
102
RTVSPost2010PropOp34
 70
     1
102
RTVSPost2010Prop35
280
     0
102
RTVSPost2010PropOp35
 70
     1
102
RTVSPost2010Prop36
280
     0
102
RTVSPost2010PropOp36
 70
     1
102
RTVSPost2010Prop37
 90
       50
102
RTVSPost2010PropOp37
 70
     1
102
RTVSPost2010Prop38
140
0.0
102
RTVSPost2010PropOp38
 70
     1
102
RTVSPost2010Prop39
140
1.0
102
RTVSPost2010PropOp39
 70
     1
102
RTVSPost2010Prop40
 90
        0
102
RTVSPost2010PropOp40
 70
     1
102
RTVSPost2010Prop41ColorIndex
 90
       18
102
RTVSPost2010Prop41ColorRGB
 90
        0
102
RTVSPost2010PropOp41
 70
     1
102
RTVSPost2010Prop42
 90
       50
102
RTVSPost2010PropOp42
 70
     1
102
RTVSPost2010Prop43
 90
        3
102
RTVSPost2010PropOp43
 70
     1
102
RTVSPost2010Prop44ColorIndex
 90
        5
102
RTVSPost2010Prop44ColorRGB
 90
      255
102
RTVSPost2010PropOp44
 70
     1
102
RTVSPost2010Prop45
280
     0
102
RTVSPost2010PropOp45
 70
     1
102
RTVSPost2010Prop46
 90
       50
102
RTVSPost2010PropOp46
 70
     1
102
RTVSPost2010Prop47
 90
       50
102
RTVSPost2010PropOp47
 70
     1
102
RTVSPost2010Prop48
 90
       50
102
RTVSPost2010PropOp48
 70
     1
102
RTVSPost2010Prop49
280
     0
102
RTVSPost2010PropOp49
 70
     1
102
RTVSPost2010Prop50
 90
       50
102
RTVSPost2010PropOp50
 70
     1
102
RTVSPost2010Prop51ColorIndex
 90
      256
102
RTVSPost2010Prop51ColorRGB
 90
-16777216
102
RTVSPost2010PropOp51
 70
     0
102
RTVSPost2010Prop52
140
1.0
102
RTVSPost2010PropOp52
 70
     0
102
RTVSPost2010Prop53
 90
        2
102
RTVSPost2010PropOp53
 70
     1
102
RTVSPost2010Prop54
  1
strokes_ogs.tif
102
RTVSPost2010PropOp54
 70
     1
102
RTVSPost2010Prop55
280
     0
102
RTVSPost2010PropOp55
 70
     1
102
RTVSPost2010Prop56
140
1.0
102
RTVSPost2010PropOp56
 70
     1
102
RTVSPost2010Prop57
140
1.0
102
RTVSPost2010PropOp57
 70
     1
102
RTVSPropertyOp0
 70
     1
102
RTVSPropertyOp1
 70
     1
102
RTVSPropertyOp2
 70
     1
102
RTVSPropertyOp3
 70
     1
102
RTVSPropertyOp4
 70
     1
102
RTVSPropertyOp5
 70
     1
102
RTVSPropertyOp6
 70
     1
102
RTVSPropertyOp7
 70
     1
102
RTVSPropertyOp8
 70
     1
102
RTVSPropertyOp9
 70
     1
102
RTVSPropertyOp10
 70
     1
102
RTVSPropertyOp11
 70
     1
102
RTVSPropertyOp12
 70
     1
102
RTVSPropertyOp13
 70
     1
102
RTVSPropertyOp14
 70
     1
102
RTVSPropertyOp15
 70
     1
102
RTVSPropertyOp16
 70
     1
102
RTVSPropertyOp17
 70
     1
102
RTVSPropertyOp18
 70
     1
102
RTVSPropertyOp19
 70
     1
102
RTVSPropertyOp20
 70
     1
102
RTVSPropertyOp21
 70
     1
102
RTVSPropertyOp22
 70
     1
102
RTVSPropertyOp23
 70
     1
102
RTVSPropertyOp24
 70
     1
102
RTVSPropertyOp25
 70
     1
102
RTVSPropertyOp26
 70
     1
102
RTVSPropertyOp27
 70
     1
102
RTVSPropertyOp28
 70
     1
102
RTVSPropertyOp29
 70
     1
102
RTVSPropertyOp30
 70
     1
102
RTVSPropertyOp31
 70
     1
102
RTVSPropertyOp32
 70
     1
102
RTVSPropertyOp33
 70
     1
102
RTVSPropertyOp34
 70
     1
102
RTVSPropertyOp35
 70
     1
102
RTVSPropertyOp36
 70
     1
102
RTVSPropertyOp37
 70
     1
102
RTVSPropertyOp38
 70
     1
102
RTVSPropertyOp39
 70
     1
102
RTVSPropertyOp40
 70
     1
102
RTVSPropertyOp41
 70
     1
102
RTVSPropertyOp42
 70
     1
102
RTVSPropertyOp43
 70
     1
102
RTVSPropertyOp44
 70
     1
102
RTVSPropertyOp45
 70
     1
102
RTVSPropertyOp46
 70
     1
102
RTVSPropertyOp47
 70
     1
102
RTVSPropertyOp48
 70
     1
102
RTVSPropertyOp49
 70
     1
102
RTVSPropertyOp50
 70
     1
102
RTVSPropertyOp51
 70
     0
102
RTVSPropertyOp52
 70
     0
102
RTVSPropertyOp53
 70
     1
102
RTVSPropertyOp54
 70
     1
102
RTVSPropertyOp55
 70
     1
102
RTVSPropertyOp56
 70
     1
102
RTVSPropertyOp57
 70
     1
102
RTVSPropertyOp58
 70
     1
102
RTVSPropertyOp59
 70
     1
102
RTVSPropertyOp60
 70
     1
102
RTVSPropertyOp61
 70
     1
102
RTVSPropertyOp62
 70
     1
  0
XRECORD
  5
9F77
102
{ACAD_REACTORS
330
9F76
102
}
330
9F76
100
AcDbXrecord
280
     1
102
RTVSPost2010Prop28
280
     0
102
RTVSPost2010PropOp28
 70
     1
102
RTVSPost2010Prop29
280
     1
102
RTVSPost2010PropOp29
 70
     1
102
RTVSPost2010Prop30
280
     1
102
RTVSPost2010PropOp30
 70
     1
102
RTVSPost2010Prop31
280
     0
102
RTVSPost2010PropOp31
 70
     1
102
RTVSPost2010Prop32
280
     0
102
RTVSPost2010PropOp32
 70
     1
102
RTVSPost2010Prop33
280
     0
102
RTVSPost2010PropOp33
 70
     1
102
RTVSPost2010Prop34
280
     0
102
RTVSPost2010PropOp34
 70
     1
102
RTVSPost2010Prop35
280
     0
102
RTVSPost2010PropOp35
 70
     1
102
RTVSPost2010Prop36
280
     0
102
RTVSPost2010PropOp36
 70
     1
102
RTVSPost2010Prop37
 90
       50
102
RTVSPost2010PropOp37
 70
     1
102
RTVSPost2010Prop38
140
0.0
102
RTVSPost2010PropOp38
 70
     1
102
RTVSPost2010Prop39
140
1.0
102
RTVSPost2010PropOp39
 70
     1
102
RTVSPost2010Prop40
 90
        0
102
RTVSPost2010PropOp40
 70
     1
102
RTVSPost2010Prop41ColorIndex
 90
       18
102
RTVSPost2010Prop41ColorRGB
 90
        0
102
RTVSPost2010PropOp41
 70
     1
102
RTVSPost2010Prop42
 90
       50
102
RTVSPost2010PropOp42
 70
     1
102
RTVSPost2010Prop43
 90
        3
102
RTVSPost2010PropOp43
 70
     1
102
RTVSPost2010Prop44ColorIndex
 90
        5
102
RTVSPost2010Prop44ColorRGB
 90
      255
102
RTVSPost2010PropOp44
 70
     1
102
RTVSPost2010Prop45
280
     0
102
RTVSPost2010PropOp45
 70
     1
102
RTVSPost2010Prop46
 90
       50
102
RTVSPost2010PropOp46
 70
     1
102
RTVSPost2010Prop47
 90
       50
102
RTVSPost2010PropOp47
 70
     1
102
RTVSPost2010Prop48
 90
       50
102
RTVSPost2010PropOp48
 70
     1
102
RTVSPost2010Prop49
280
     0
102
RTVSPost2010PropOp49
 70
     1
102
RTVSPost2010Prop50
 90
       50
102
RTVSPost2010PropOp50
 70
     1
102
RTVSPost2010Prop51ColorIndex
 90
      256
102
RTVSPost2010Prop51ColorRGB
 90
-16777216
102
RTVSPost2010PropOp51
 70
     0
102
RTVSPost2010Prop52
140
1.0
102
RTVSPost2010PropOp52
 70
     0
102
RTVSPost2010Prop53
 90
        2
102
RTVSPost2010PropOp53
 70
     1
102
RTVSPost2010Prop54
  1
strokes_ogs.tif
102
RTVSPost2010PropOp54
 70
     1
102
RTVSPost2010Prop55
280
     0
102
RTVSPost2010PropOp55
 70
     1
102
RTVSPost2010Prop56
140
1.0
102
RTVSPost2010PropOp56
 70
     1
102
RTVSPost2010Prop57
140
1.0
102
RTVSPost2010PropOp57
 70
     1
102
RTVSPropertyOp0
 70
     1
102
RTVSPropertyOp1
 70
     1
102
RTVSPropertyOp2
 70
     1
102
RTVSPropertyOp3
 70
     1
102
RTVSPropertyOp4
 70
     1
102
RTVSPropertyOp5
 70
     1
102
RTVSPropertyOp6
 70
     1
102
RTVSPropertyOp7
 70
     1
102
RTVSPropertyOp8
 70
     1
102
RTVSPropertyOp9
 70
     1
102
RTVSPropertyOp10
 70
     1
102
RTVSPropertyOp11
 70
     1
102
RTVSPropertyOp12
 70
     1
102
RTVSPropertyOp13
 70
     1
102
RTVSPropertyOp14
 70
     1
102
RTVSPropertyOp15
 70
     1
102
RTVSPropertyOp16
 70
     1
102
RTVSPropertyOp17
 70
     1
102
RTVSPropertyOp18
 70
     1
102
RTVSPropertyOp19
 70
     1
102
RTVSPropertyOp20
 70
     1
102
RTVSPropertyOp21
 70
     1
102
RTVSPropertyOp22
 70
     1
102
RTVSPropertyOp23
 70
     1
102
RTVSPropertyOp24
 70
     1
102
RTVSPropertyOp25
 70
     1
102
RTVSPropertyOp26
 70
     1
102
RTVSPropertyOp27
 70
     1
102
RTVSPropertyOp28
 70
     1
102
RTVSPropertyOp29
 70
     1
102
RTVSPropertyOp30
 70
     1
102
RTVSPropertyOp31
 70
     1
102
RTVSPropertyOp32
 70
     1
102
RTVSPropertyOp33
 70
     1
102
RTVSPropertyOp34
 70
     1
102
RTVSPropertyOp35
 70
     1
102
RTVSPropertyOp36
 70
     1
102
RTVSPropertyOp37
 70
     1
102
RTVSPropertyOp38
 70
     1
102
RTVSPropertyOp39
 70
     1
102
RTVSPropertyOp40
 70
     1
102
RTVSPropertyOp41
 70
     1
102
RTVSPropertyOp42
 70
     1
102
RTVSPropertyOp43
 70
     1
102
RTVSPropertyOp44
 70
     1
102
RTVSPropertyOp45
 70
     1
102
RTVSPropertyOp46
 70
     1
102
RTVSPropertyOp47
 70
     1
102
RTVSPropertyOp48
 70
     1
102
RTVSPropertyOp49
 70
     1
102
RTVSPropertyOp50
 70
     1
102
RTVSPropertyOp51
 70
     0
102
RTVSPropertyOp52
 70
     0
102
RTVSPropertyOp53
 70
     1
102
RTVSPropertyOp54
 70
     1
102
RTVSPropertyOp55
 70
     1
102
RTVSPropertyOp56
 70
     1
102
RTVSPropertyOp57
 70
     1
102
RTVSPropertyOp58
 70
     1
102
RTVSPropertyOp59
 70
     1
102
RTVSPropertyOp60
 70
     1
102
RTVSPropertyOp61
 70
     1
102
RTVSPropertyOp62
 70
     1
  0
XRECORD
  5
9F7B
102
{ACAD_REACTORS
330
9F7A
102
}
330
9F7A
100
AcDbXrecord
280
     1
102
RTVSPost2010Prop28
280
     0
102
RTVSPost2010PropOp28
 70
     1
102
RTVSPost2010Prop29
280
     1
102
RTVSPost2010PropOp29
 70
     1
102
RTVSPost2010Prop30
280
     1
102
RTVSPost2010PropOp30
 70
     1
102
RTVSPost2010Prop31
280
     0
102
RTVSPost2010PropOp31
 70
     1
102
RTVSPost2010Prop32
280
     0
102
RTVSPost2010PropOp32
 70
     1
102
RTVSPost2010Prop33
280
     0
102
RTVSPost2010PropOp33
 70
     1
102
RTVSPost2010Prop34
280
     0
102
RTVSPost2010PropOp34
 70
     1
102
RTVSPost2010Prop35
280
     0
102
RTVSPost2010PropOp35
 70
     1
102
RTVSPost2010Prop36
280
     0
102
RTVSPost2010PropOp36
 70
     1
102
RTVSPost2010Prop37
 90
       50
102
RTVSPost2010PropOp37
 70
     1
102
RTVSPost2010Prop38
140
0.0
102
RTVSPost2010PropOp38
 70
     1
102
RTVSPost2010Prop39
140
1.0
102
RTVSPost2010PropOp39
 70
     1
102
RTVSPost2010Prop40
 90
        0
102
RTVSPost2010PropOp40
 70
     1
102
RTVSPost2010Prop41ColorIndex
 90
       18
102
RTVSPost2010Prop41ColorRGB
 90
        0
102
RTVSPost2010PropOp41
 70
     1
102
RTVSPost2010Prop42
 90
       50
102
RTVSPost2010PropOp42
 70
     1
102
RTVSPost2010Prop43
 90
        3
102
RTVSPost2010PropOp43
 70
     1
102
RTVSPost2010Prop44ColorIndex
 90
        5
102
RTVSPost2010Prop44ColorRGB
 90
      255
102
RTVSPost2010PropOp44
 70
     1
102
RTVSPost2010Prop45
280
     0
102
RTVSPost2010PropOp45
 70
     1
102
RTVSPost2010Prop46
 90
       50
102
RTVSPost2010PropOp46
 70
     1
102
RTVSPost2010Prop47
 90
       50
102
RTVSPost2010PropOp47
 70
     1
102
RTVSPost2010Prop48
 90
       50
102
RTVSPost2010PropOp48
 70
     1
102
RTVSPost2010Prop49
280
     0
102
RTVSPost2010PropOp49
 70
     1
102
RTVSPost2010Prop50
 90
       50
102
RTVSPost2010PropOp50
 70
     1
102
RTVSPost2010Prop51ColorIndex
 90
      256
102
RTVSPost2010Prop51ColorRGB
 90
-16777216
102
RTVSPost2010PropOp51
 70
     0
102
RTVSPost2010Prop52
140
1.0
102
RTVSPost2010PropOp52
 70
     0
102
RTVSPost2010Prop53
 90
        2
102
RTVSPost2010PropOp53
 70
     1
102
RTVSPost2010Prop54
  1
strokes_ogs.tif
102
RTVSPost2010PropOp54
 70
     1
102
RTVSPost2010Prop55
280
     0
102
RTVSPost2010PropOp55
 70
     1
102
RTVSPost2010Prop56
140
1.0
102
RTVSPost2010PropOp56
 70
     1
102
RTVSPost2010Prop57
140
1.0
102
RTVSPost2010PropOp57
 70
     1
102
RTVSPropertyOp0
 70
     1
102
RTVSPropertyOp1
 70
     1
102
RTVSPropertyOp2
 70
     1
102
RTVSPropertyOp3
 70
     1
102
RTVSPropertyOp4
 70
     1
102
RTVSPropertyOp5
 70
     1
102
RTVSPropertyOp6
 70
     1
102
RTVSPropertyOp7
 70
     1
102
RTVSPropertyOp8
 70
     1
102
RTVSPropertyOp9
 70
     1
102
RTVSPropertyOp10
 70
     1
102
RTVSPropertyOp11
 70
     1
102
RTVSPropertyOp12
 70
     1
102
RTVSPropertyOp13
 70
     1
102
RTVSPropertyOp14
 70
     1
102
RTVSPropertyOp15
 70
     1
102
RTVSPropertyOp16
 70
     1
102
RTVSPropertyOp17
 70
     1
102
RTVSPropertyOp18
 70
     1
102
RTVSPropertyOp19
 70
     1
102
RTVSPropertyOp20
 70
     1
102
RTVSPropertyOp21
 70
     1
102
RTVSPropertyOp22
 70
     1
102
RTVSPropertyOp23
 70
     1
102
RTVSPropertyOp24
 70
     1
102
RTVSPropertyOp25
 70
     1
102
RTVSPropertyOp26
 70
     1
102
RTVSPropertyOp27
 70
     1
102
RTVSPropertyOp28
 70
     1
102
RTVSPropertyOp29
 70
     1
102
RTVSPropertyOp30
 70
     1
102
RTVSPropertyOp31
 70
     1
102
RTVSPropertyOp32
 70
     1
102
RTVSPropertyOp33
 70
     1
102
RTVSPropertyOp34
 70
     1
102
RTVSPropertyOp35
 70
     1
102
RTVSPropertyOp36
 70
     1
102
RTVSPropertyOp37
 70
     1
102
RTVSPropertyOp38
 70
     1
102
RTVSPropertyOp39
 70
     1
102
RTVSPropertyOp40
 70
     1
102
RTVSPropertyOp41
 70
     1
102
RTVSPropertyOp42
 70
     1
102
RTVSPropertyOp43
 70
     1
102
RTVSPropertyOp44
 70
     1
102
RTVSPropertyOp45
 70
     1
102
RTVSPropertyOp46
 70
     1
102
RTVSPropertyOp47
 70
     1
102
RTVSPropertyOp48
 70
     1
102
RTVSPropertyOp49
 70
     1
102
RTVSPropertyOp50
 70
     1
102
RTVSPropertyOp51
 70
     0
102
RTVSPropertyOp52
 70
     0
102
RTVSPropertyOp53
 70
     1
102
RTVSPropertyOp54
 70
     1
102
RTVSPropertyOp55
 70
     1
102
RTVSPropertyOp56
 70
     1
102
RTVSPropertyOp57
 70
     1
102
RTVSPropertyOp58
 70
     1
102
RTVSPropertyOp59
 70
     1
102
RTVSPropertyOp60
 70
     1
102
RTVSPropertyOp61
 70
     1
102
RTVSPropertyOp62
 70
     1
  0
XRECORD
  5
9F95
102
{ACAD_REACTORS
330
9F94
102
}
330
9F94
100
AcDbXrecord
280
     1
102
RTVSPost2010Prop28
280
     0
102
RTVSPost2010PropOp28
 70
     1
102
RTVSPost2010Prop29
280
     1
102
RTVSPost2010PropOp29
 70
     1
102
RTVSPost2010Prop30
280
     1
102
RTVSPost2010PropOp30
 70
     1
102
RTVSPost2010Prop31
280
     0
102
RTVSPost2010PropOp31
 70
     1
102
RTVSPost2010Prop32
280
     0
102
RTVSPost2010PropOp32
 70
     1
102
RTVSPost2010Prop33
280
     0
102
RTVSPost2010PropOp33
 70
     1
102
RTVSPost2010Prop34
280
     0
102
RTVSPost2010PropOp34
 70
     1
102
RTVSPost2010Prop35
280
     0
102
RTVSPost2010PropOp35
 70
     1
102
RTVSPost2010Prop36
280
     0
102
RTVSPost2010PropOp36
 70
     1
102
RTVSPost2010Prop37
 90
       50
102
RTVSPost2010PropOp37
 70
     0
102
RTVSPost2010Prop38
140
0.0
102
RTVSPost2010PropOp38
 70
     0
102
RTVSPost2010Prop39
140
1.0
102
RTVSPost2010PropOp39
 70
     0
102
RTVSPost2010Prop40
 90
        0
102
RTVSPost2010PropOp40
 70
     0
102
RTVSPost2010Prop41ColorIndex
 90
       18
102
RTVSPost2010Prop41ColorRGB
 90
        0
102
RTVSPost2010PropOp41
 70
     0
102
RTVSPost2010Prop42
 90
       50
102
RTVSPost2010PropOp42
 70
     0
102
RTVSPost2010Prop43
 90
        3
102
RTVSPost2010PropOp43
 70
     0
102
RTVSPost2010Prop44ColorIndex
 90
        5
102
RTVSPost2010Prop44ColorRGB
 90
      255
102
RTVSPost2010PropOp44
 70
     0
102
RTVSPost2010Prop45
280
     0
102
RTVSPost2010PropOp45
 70
     1
102
RTVSPost2010Prop46
 90
       50
102
RTVSPost2010PropOp46
 70
     0
102
RTVSPost2010Prop47
 90
       50
102
RTVSPost2010PropOp47
 70
     0
102
RTVSPost2010Prop48
 90
       50
102
RTVSPost2010PropOp48
 70
     0
102
RTVSPost2010Prop49
280
     0
102
RTVSPost2010PropOp49
 70
     1
102
RTVSPost2010Prop50
 90
       50
102
RTVSPost2010PropOp50
 70
     0
102
RTVSPost2010Prop51ColorIndex
 90
      256
102
RTVSPost2010Prop51ColorRGB
 90
-16777216
102
RTVSPost2010PropOp51
 70
     0
102
RTVSPost2010Prop52
140
1.0
102
RTVSPost2010PropOp52
 70
     0
102
RTVSPost2010Prop53
 90
        2
102
RTVSPost2010PropOp53
 70
     0
102
RTVSPost2010Prop54
  1
strokes_ogs.tif
102
RTVSPost2010PropOp54
 70
     0
102
RTVSPost2010Prop55
280
     0
102
RTVSPost2010PropOp55
 70
     1
102
RTVSPost2010Prop56
140
1.0
102
RTVSPost2010PropOp56
 70
     0
102
RTVSPost2010Prop57
140
1.0
102
RTVSPost2010PropOp57
 70
     0
102
RTVSPropertyOp0
 70
     0
102
RTVSPropertyOp1
 70
     0
102
RTVSPropertyOp2
 70
     0
102
RTVSPropertyOp3
 70
     0
102
RTVSPropertyOp4
 70
     0
102
RTVSPropertyOp5
 70
     0
102
RTVSPropertyOp6
 70
     0
102
RTVSPropertyOp7
 70
     0
102
RTVSPropertyOp8
 70
     0
102
RTVSPropertyOp9
 70
     0
102
RTVSPropertyOp10
 70
     0
102
RTVSPropertyOp11
 70
     0
102
RTVSPropertyOp12
 70
     0
102
RTVSPropertyOp13
 70
     0
102
RTVSPropertyOp14
 70
     2
102
RTVSPropertyOp15
 70
     0
102
RTVSPropertyOp16
 70
     0
102
RTVSPropertyOp17
 70
     0
102
RTVSPropertyOp18
 70
     0
102
RTVSPropertyOp19
 70
     0
102
RTVSPropertyOp20
 70
     0
102
RTVSPropertyOp21
 70
     0
102
RTVSPropertyOp22
 70
     0
102
RTVSPropertyOp23
 70
     0
102
RTVSPropertyOp24
 70
     0
102
RTVSPropertyOp25
 70
     0
102
RTVSPropertyOp26
 70
     0
102
RTVSPropertyOp27
 70
     0
102
RTVSPropertyOp28
 70
     1
102
RTVSPropertyOp29
 70
     1
102
RTVSPropertyOp30
 70
     1
102
RTVSPropertyOp31
 70
     1
102
RTVSPropertyOp32
 70
     1
102
RTVSPropertyOp33
 70
     1
102
RTVSPropertyOp34
 70
     1
102
RTVSPropertyOp35
 70
     1
102
RTVSPropertyOp36
 70
     1
102
RTVSPropertyOp37
 70
     0
102
RTVSPropertyOp38
 70
     0
102
RTVSPropertyOp39
 70
     0
102
RTVSPropertyOp40
 70
     0
102
RTVSPropertyOp41
 70
     0
102
RTVSPropertyOp42
 70
     0
102
RTVSPropertyOp43
 70
     0
102
RTVSPropertyOp44
 70
     0
102
RTVSPropertyOp45
 70
     1
102
RTVSPropertyOp46
 70
     0
102
RTVSPropertyOp47
 70
     0
102
RTVSPropertyOp48
 70
     0
102
RTVSPropertyOp49
 70
     1
102
RTVSPropertyOp50
 70
     0
102
RTVSPropertyOp51
 70
     0
102
RTVSPropertyOp52
 70
     0
102
RTVSPropertyOp53
 70
     0
102
RTVSPropertyOp54
 70
     0
102
RTVSPropertyOp55
 70
     1
102
RTVSPropertyOp56
 70
     0
102
RTVSPropertyOp57
 70
     0
102
RTVSPropertyOp58
 70
     0
102
RTVSPropertyOp59
 70
     0
102
RTVSPropertyOp60
 70
     0
102
RTVSPropertyOp61
 70
     0
102
RTVSPropertyOp62
 70
     0
  0
XRECORD
  5
9F83
102
{ACAD_REACTORS
330
9F82
102
}
330
9F82
100
AcDbXrecord
280
     1
102
RTVSPost2010Prop28
280
     0
102
RTVSPost2010PropOp28
 70
     1
102
RTVSPost2010Prop29
280
     1
102
RTVSPost2010PropOp29
 70
     1
102
RTVSPost2010Prop30
280
     1
102
RTVSPost2010PropOp30
 70
     1
102
RTVSPost2010Prop31
280
     0
102
RTVSPost2010PropOp31
 70
     1
102
RTVSPost2010Prop32
280
     0
102
RTVSPost2010PropOp32
 70
     1
102
RTVSPost2010Prop33
280
     0
102
RTVSPost2010PropOp33
 70
     1
102
RTVSPost2010Prop34
280
     0
102
RTVSPost2010PropOp34
 70
     1
102
RTVSPost2010Prop35
280
     0
102
RTVSPost2010PropOp35
 70
     1
102
RTVSPost2010Prop36
280
     0
102
RTVSPost2010PropOp36
 70
     1
102
RTVSPost2010Prop37
 90
       50
102
RTVSPost2010PropOp37
 70
     1
102
RTVSPost2010Prop38
140
0.0
102
RTVSPost2010PropOp38
 70
     1
102
RTVSPost2010Prop39
140
1.0
102
RTVSPost2010PropOp39
 70
     1
102
RTVSPost2010Prop40
 90
        0
102
RTVSPost2010PropOp40
 70
     1
102
RTVSPost2010Prop41ColorIndex
 90
       18
102
RTVSPost2010Prop41ColorRGB
 90
        0
102
RTVSPost2010PropOp41
 70
     1
102
RTVSPost2010Prop42
 90
       50
102
RTVSPost2010PropOp42
 70
     1
102
RTVSPost2010Prop43
 90
        3
102
RTVSPost2010PropOp43
 70
     1
102
RTVSPost2010Prop44ColorIndex
 90
        5
102
RTVSPost2010Prop44ColorRGB
 90
      255
102
RTVSPost2010PropOp44
 70
     1
102
RTVSPost2010Prop45
280
     0
102
RTVSPost2010PropOp45
 70
     1
102
RTVSPost2010Prop46
 90
       50
102
RTVSPost2010PropOp46
 70
     1
102
RTVSPost2010Prop47
 90
       50
102
RTVSPost2010PropOp47
 70
     1
102
RTVSPost2010Prop48
 90
       50
102
RTVSPost2010PropOp48
 70
     1
102
RTVSPost2010Prop49
280
     0
102
RTVSPost2010PropOp49
 70
     1
102
RTVSPost2010Prop50
 90
       50
102
RTVSPost2010PropOp50
 70
     1
102
RTVSPost2010Prop51ColorIndex
 90
      256
102
RTVSPost2010Prop51ColorRGB
 90
-16777216
102
RTVSPost2010PropOp51
 70
     0
102
RTVSPost2010Prop52
140
1.0
102
RTVSPost2010PropOp52
 70
     0
102
RTVSPost2010Prop53
 90
        2
102
RTVSPost2010PropOp53
 70
     1
102
RTVSPost2010Prop54
  1
strokes_ogs.tif
102
RTVSPost2010PropOp54
 70
     1
102
RTVSPost2010Prop55
280
     0
102
RTVSPost2010PropOp55
 70
     1
102
RTVSPost2010Prop56
140
1.0
102
RTVSPost2010PropOp56
 70
     1
102
RTVSPost2010Prop57
140
1.0
102
RTVSPost2010PropOp57
 70
     1
102
RTVSPropertyOp0
 70
     1
102
RTVSPropertyOp1
 70
     1
102
RTVSPropertyOp2
 70
     1
102
RTVSPropertyOp3
 70
     1
102
RTVSPropertyOp4
 70
     1
102
RTVSPropertyOp5
 70
     1
102
RTVSPropertyOp6
 70
     1
102
RTVSPropertyOp7
 70
     1
102
RTVSPropertyOp8
 70
     1
102
RTVSPropertyOp9
 70
     1
102
RTVSPropertyOp10
 70
     1
102
RTVSPropertyOp11
 70
     1
102
RTVSPropertyOp12
 70
     1
102
RTVSPropertyOp13
 70
     1
102
RTVSPropertyOp14
 70
     1
102
RTVSPropertyOp15
 70
     1
102
RTVSPropertyOp16
 70
     1
102
RTVSPropertyOp17
 70
     1
102
RTVSPropertyOp18
 70
     1
102
RTVSPropertyOp19
 70
     1
102
RTVSPropertyOp20
 70
     1
102
RTVSPropertyOp21
 70
     1
102
RTVSPropertyOp22
 70
     1
102
RTVSPropertyOp23
 70
     1
102
RTVSPropertyOp24
 70
     1
102
RTVSPropertyOp25
 70
     1
102
RTVSPropertyOp26
 70
     1
102
RTVSPropertyOp27
 70
     1
102
RTVSPropertyOp28
 70
     1
102
RTVSPropertyOp29
 70
     1
102
RTVSPropertyOp30
 70
     1
102
RTVSPropertyOp31
 70
     1
102
RTVSPropertyOp32
 70
     1
102
RTVSPropertyOp33
 70
     1
102
RTVSPropertyOp34
 70
     1
102
RTVSPropertyOp35
 70
     1
102
RTVSPropertyOp36
 70
     1
102
RTVSPropertyOp37
 70
     1
102
RTVSPropertyOp38
 70
     1
102
RTVSPropertyOp39
 70
     1
102
RTVSPropertyOp40
 70
     1
102
RTVSPropertyOp41
 70
     1
102
RTVSPropertyOp42
 70
     1
102
RTVSPropertyOp43
 70
     1
102
RTVSPropertyOp44
 70
     1
102
RTVSPropertyOp45
 70
     1
102
RTVSPropertyOp46
 70
     1
102
RTVSPropertyOp47
 70
     1
102
RTVSPropertyOp48
 70
     1
102
RTVSPropertyOp49
 70
     1
102
RTVSPropertyOp50
 70
     1
102
RTVSPropertyOp51
 70
     0
102
RTVSPropertyOp52
 70
     0
102
RTVSPropertyOp53
 70
     1
102
RTVSPropertyOp54
 70
     1
102
RTVSPropertyOp55
 70
     1
102
RTVSPropertyOp56
 70
     1
102
RTVSPropertyOp57
 70
     1
102
RTVSPropertyOp58
 70
     1
102
RTVSPropertyOp59
 70
     1
102
RTVSPropertyOp60
 70
     1
102
RTVSPropertyOp61
 70
     1
102
RTVSPropertyOp62
 70
     1
  0
XRECORD
  5
9F67
102
{ACAD_REACTORS
330
9F66
102
}
330
9F66
100
AcDbXrecord
280
     1
102
RTVSPost2010Prop28
280
     0
102
RTVSPost2010PropOp28
 70
     1
102
RTVSPost2010Prop29
280
     1
102
RTVSPost2010PropOp29
 70
     1
102
RTVSPost2010Prop30
280
     1
102
RTVSPost2010PropOp30
 70
     1
102
RTVSPost2010Prop31
280
     0
102
RTVSPost2010PropOp31
 70
     1
102
RTVSPost2010Prop32
280
     0
102
RTVSPost2010PropOp32
 70
     1
102
RTVSPost2010Prop33
280
     0
102
RTVSPost2010PropOp33
 70
     1
102
RTVSPost2010Prop34
280
     0
102
RTVSPost2010PropOp34
 70
     1
102
RTVSPost2010Prop35
280
     0
102
RTVSPost2010PropOp35
 70
     1
102
RTVSPost2010Prop36
280
     0
102
RTVSPost2010PropOp36
 70
     1
102
RTVSPost2010Prop37
 90
       50
102
RTVSPost2010PropOp37
 70
     1
102
RTVSPost2010Prop38
140
0.0
102
RTVSPost2010PropOp38
 70
     1
102
RTVSPost2010Prop39
140
1.0
102
RTVSPost2010PropOp39
 70
     1
102
RTVSPost2010Prop40
 90
        0
102
RTVSPost2010PropOp40
 70
     1
102
RTVSPost2010Prop41ColorIndex
 90
       18
102
RTVSPost2010Prop41ColorRGB
 90
        0
102
RTVSPost2010PropOp41
 70
     1
102
RTVSPost2010Prop42
 90
       50
102
RTVSPost2010PropOp42
 70
     1
102
RTVSPost2010Prop43
 90
        3
102
RTVSPost2010PropOp43
 70
     1
102
RTVSPost2010Prop44ColorIndex
 90
        5
102
RTVSPost2010Prop44ColorRGB
 90
      255
102
RTVSPost2010PropOp44
 70
     1
102
RTVSPost2010Prop45
280
     0
102
RTVSPost2010PropOp45
 70
     1
102
RTVSPost2010Prop46
 90
       50
102
RTVSPost2010PropOp46
 70
     1
102
RTVSPost2010Prop47
 90
       50
102
RTVSPost2010PropOp47
 70
     1
102
RTVSPost2010Prop48
 90
       50
102
RTVSPost2010PropOp48
 70
     1
102
RTVSPost2010Prop49
280
     0
102
RTVSPost2010PropOp49
 70
     1
102
RTVSPost2010Prop50
 90
       50
102
RTVSPost2010PropOp50
 70
     1
102
RTVSPost2010Prop51ColorIndex
 90
      256
102
RTVSPost2010Prop51ColorRGB
 90
-16777216
102
RTVSPost2010PropOp51
 70
     0
102
RTVSPost2010Prop52
140
1.0
102
RTVSPost2010PropOp52
 70
     0
102
RTVSPost2010Prop53
 90
        2
102
RTVSPost2010PropOp53
 70
     1
102
RTVSPost2010Prop54
  1
strokes_ogs.tif
102
RTVSPost2010PropOp54
 70
     1
102
RTVSPost2010Prop55
280
     0
102
RTVSPost2010PropOp55
 70
     1
102
RTVSPost2010Prop56
140
1.0
102
RTVSPost2010PropOp56
 70
     1
102
RTVSPost2010Prop57
140
1.0
102
RTVSPost2010PropOp57
 70
     1
102
RTVSPropertyOp0
 70
     1
102
RTVSPropertyOp1
 70
     1
102
RTVSPropertyOp2
 70
     1
102
RTVSPropertyOp3
 70
     1
102
RTVSPropertyOp4
 70
     1
102
RTVSPropertyOp5
 70
     1
102
RTVSPropertyOp6
 70
     1
102
RTVSPropertyOp7
 70
     1
102
RTVSPropertyOp8
 70
     1
102
RTVSPropertyOp9
 70
     1
102
RTVSPropertyOp10
 70
     1
102
RTVSPropertyOp11
 70
     1
102
RTVSPropertyOp12
 70
     1
102
RTVSPropertyOp13
 70
     1
102
RTVSPropertyOp14
 70
     1
102
RTVSPropertyOp15
 70
     1
102
RTVSPropertyOp16
 70
     1
102
RTVSPropertyOp17
 70
     1
102
RTVSPropertyOp18
 70
     1
102
RTVSPropertyOp19
 70
     1
102
RTVSPropertyOp20
 70
     1
102
RTVSPropertyOp21
 70
     1
102
RTVSPropertyOp22
 70
     1
102
RTVSPropertyOp23
 70
     1
102
RTVSPropertyOp24
 70
     1
102
RTVSPropertyOp25
 70
     1
102
RTVSPropertyOp26
 70
     1
102
RTVSPropertyOp27
 70
     1
102
RTVSPropertyOp28
 70
     1
102
RTVSPropertyOp29
 70
     1
102
RTVSPropertyOp30
 70
     1
102
RTVSPropertyOp31
 70
     1
102
RTVSPropertyOp32
 70
     1
102
RTVSPropertyOp33
 70
     1
102
RTVSPropertyOp34
 70
     1
102
RTVSPropertyOp35
 70
     1
102
RTVSPropertyOp36
 70
     1
102
RTVSPropertyOp37
 70
     1
102
RTVSPropertyOp38
 70
     1
102
RTVSPropertyOp39
 70
     1
102
RTVSPropertyOp40
 70
     1
102
RTVSPropertyOp41
 70
     1
102
RTVSPropertyOp42
 70
     1
102
RTVSPropertyOp43
 70
     1
102
RTVSPropertyOp44
 70
     1
102
RTVSPropertyOp45
 70
     1
102
RTVSPropertyOp46
 70
     1
102
RTVSPropertyOp47
 70
     1
102
RTVSPropertyOp48
 70
     1
102
RTVSPropertyOp49
 70
     1
102
RTVSPropertyOp50
 70
     1
102
RTVSPropertyOp51
 70
     0
102
RTVSPropertyOp52
 70
     0
102
RTVSPropertyOp53
 70
     1
102
RTVSPropertyOp54
 70
     1
102
RTVSPropertyOp55
 70
     1
102
RTVSPropertyOp56
 70
     1
102
RTVSPropertyOp57
 70
     1
102
RTVSPropertyOp58
 70
     1
102
RTVSPropertyOp59
 70
     1
102
RTVSPropertyOp60
 70
     1
102
RTVSPropertyOp61
 70
     1
102
RTVSPropertyOp62
 70
     1
  0
XRECORD
  5
9F69
102
{ACAD_REACTORS
330
9F68
102
}
330
9F68
100
AcDbXrecord
280
     1
102
RTVSPost2010Prop28
280
     0
102
RTVSPost2010PropOp28
 70
     1
102
RTVSPost2010Prop29
280
     1
102
RTVSPost2010PropOp29
 70
     1
102
RTVSPost2010Prop30
280
     1
102
RTVSPost2010PropOp30
 70
     1
102
RTVSPost2010Prop31
280
     0
102
RTVSPost2010PropOp31
 70
     1
102
RTVSPost2010Prop32
280
     0
102
RTVSPost2010PropOp32
 70
     1
102
RTVSPost2010Prop33
280
     0
102
RTVSPost2010PropOp33
 70
     1
102
RTVSPost2010Prop34
280
     0
102
RTVSPost2010PropOp34
 70
     1
102
RTVSPost2010Prop35
280
     0
102
RTVSPost2010PropOp35
 70
     1
102
RTVSPost2010Prop36
280
     0
102
RTVSPost2010PropOp36
 70
     1
102
RTVSPost2010Prop37
 90
       50
102
RTVSPost2010PropOp37
 70
     1
102
RTVSPost2010Prop38
140
0.0
102
RTVSPost2010PropOp38
 70
     1
102
RTVSPost2010Prop39
140
1.0
102
RTVSPost2010PropOp39
 70
     1
102
RTVSPost2010Prop40
 90
        0
102
RTVSPost2010PropOp40
 70
     1
102
RTVSPost2010Prop41ColorIndex
 90
       18
102
RTVSPost2010Prop41ColorRGB
 90
        0
102
RTVSPost2010PropOp41
 70
     1
102
RTVSPost2010Prop42
 90
       50
102
RTVSPost2010PropOp42
 70
     1
102
RTVSPost2010Prop43
 90
        3
102
RTVSPost2010PropOp43
 70
     1
102
RTVSPost2010Prop44ColorIndex
 90
        5
102
RTVSPost2010Prop44ColorRGB
 90
      255
102
RTVSPost2010PropOp44
 70
     1
102
RTVSPost2010Prop45
280
     0
102
RTVSPost2010PropOp45
 70
     1
102
RTVSPost2010Prop46
 90
       50
102
RTVSPost2010PropOp46
 70
     1
102
RTVSPost2010Prop47
 90
       50
102
RTVSPost2010PropOp47
 70
     1
102
RTVSPost2010Prop48
 90
       50
102
RTVSPost2010PropOp48
 70
     1
102
RTVSPost2010Prop49
280
     0
102
RTVSPost2010PropOp49
 70
     1
102
RTVSPost2010Prop50
 90
       50
102
RTVSPost2010PropOp50
 70
     1
102
RTVSPost2010Prop51ColorIndex
 90
      256
102
RTVSPost2010Prop51ColorRGB
 90
-16777216
102
RTVSPost2010PropOp51
 70
     0
102
RTVSPost2010Prop52
140
1.0
102
RTVSPost2010PropOp52
 70
     0
102
RTVSPost2010Prop53
 90
        2
102
RTVSPost2010PropOp53
 70
     1
102
RTVSPost2010Prop54
  1
strokes_ogs.tif
102
RTVSPost2010PropOp54
 70
     1
102
RTVSPost2010Prop55
280
     0
102
RTVSPost2010PropOp55
 70
     1
102
RTVSPost2010Prop56
140
1.0
102
RTVSPost2010PropOp56
 70
     1
102
RTVSPost2010Prop57
140
1.0
102
RTVSPost2010PropOp57
 70
     1
102
RTVSPropertyOp0
 70
     1
102
RTVSPropertyOp1
 70
     1
102
RTVSPropertyOp2
 70
     1
102
RTVSPropertyOp3
 70
     1
102
RTVSPropertyOp4
 70
     1
102
RTVSPropertyOp5
 70
     1
102
RTVSPropertyOp6
 70
     1
102
RTVSPropertyOp7
 70
     1
102
RTVSPropertyOp8
 70
     1
102
RTVSPropertyOp9
 70
     1
102
RTVSPropertyOp10
 70
     1
102
RTVSPropertyOp11
 70
     1
102
RTVSPropertyOp12
 70
     1
102
RTVSPropertyOp13
 70
     1
102
RTVSPropertyOp14
 70
     1
102
RTVSPropertyOp15
 70
     1
102
RTVSPropertyOp16
 70
     1
102
RTVSPropertyOp17
 70
     1
102
RTVSPropertyOp18
 70
     1
102
RTVSPropertyOp19
 70
     1
102
RTVSPropertyOp20
 70
     1
102
RTVSPropertyOp21
 70
     1
102
RTVSPropertyOp22
 70
     1
102
RTVSPropertyOp23
 70
     1
102
RTVSPropertyOp24
 70
     1
102
RTVSPropertyOp25
 70
     1
102
RTVSPropertyOp26
 70
     1
102
RTVSPropertyOp27
 70
     1
102
RTVSPropertyOp28
 70
     1
102
RTVSPropertyOp29
 70
     1
102
RTVSPropertyOp30
 70
     1
102
RTVSPropertyOp31
 70
     1
102
RTVSPropertyOp32
 70
     1
102
RTVSPropertyOp33
 70
     1
102
RTVSPropertyOp34
 70
     1
102
RTVSPropertyOp35
 70
     1
102
RTVSPropertyOp36
 70
     1
102
RTVSPropertyOp37
 70
     1
102
RTVSPropertyOp38
 70
     1
102
RTVSPropertyOp39
 70
     1
102
RTVSPropertyOp40
 70
     1
102
RTVSPropertyOp41
 70
     1
102
RTVSPropertyOp42
 70
     1
102
RTVSPropertyOp43
 70
     1
102
RTVSPropertyOp44
 70
     1
102
RTVSPropertyOp45
 70
     1
102
RTVSPropertyOp46
 70
     1
102
RTVSPropertyOp47
 70
     1
102
RTVSPropertyOp48
 70
     1
102
RTVSPropertyOp49
 70
     1
102
RTVSPropertyOp50
 70
     1
102
RTVSPropertyOp51
 70
     0
102
RTVSPropertyOp52
 70
     0
102
RTVSPropertyOp53
 70
     1
102
RTVSPropertyOp54
 70
     1
102
RTVSPropertyOp55
 70
     1
102
RTVSPropertyOp56
 70
     1
102
RTVSPropertyOp57
 70
     1
102
RTVSPropertyOp58
 70
     1
102
RTVSPropertyOp59
 70
     1
102
RTVSPropertyOp60
 70
     1
102
RTVSPropertyOp61
 70
     1
102
RTVSPropertyOp62
 70
     1
  0
XRECORD
  5
9F6B
102
{ACAD_REACTORS
330
9F6A
102
}
330
9F6A
100
AcDbXrecord
280
     1
102
RTVSPost2010Prop28
280
     0
102
RTVSPost2010PropOp28
 70
     1
102
RTVSPost2010Prop29
280
     1
102
RTVSPost2010PropOp29
 70
     1
102
RTVSPost2010Prop30
280
     1
102
RTVSPost2010PropOp30
 70
     1
102
RTVSPost2010Prop31
280
     0
102
RTVSPost2010PropOp31
 70
     1
102
RTVSPost2010Prop32
280
     0
102
RTVSPost2010PropOp32
 70
     1
102
RTVSPost2010Prop33
280
     0
102
RTVSPost2010PropOp33
 70
     1
102
RTVSPost2010Prop34
280
     0
102
RTVSPost2010PropOp34
 70
     1
102
RTVSPost2010Prop35
280
     0
102
RTVSPost2010PropOp35
 70
     1
102
RTVSPost2010Prop36
280
     0
102
RTVSPost2010PropOp36
 70
     1
102
RTVSPost2010Prop37
 90
       50
102
RTVSPost2010PropOp37
 70
     1
102
RTVSPost2010Prop38
140
0.0
102
RTVSPost2010PropOp38
 70
     1
102
RTVSPost2010Prop39
140
1.0
102
RTVSPost2010PropOp39
 70
     1
102
RTVSPost2010Prop40
 90
        0
102
RTVSPost2010PropOp40
 70
     1
102
RTVSPost2010Prop41ColorIndex
 90
       18
102
RTVSPost2010Prop41ColorRGB
 90
        0
102
RTVSPost2010PropOp41
 70
     1
102
RTVSPost2010Prop42
 90
       50
102
RTVSPost2010PropOp42
 70
     1
102
RTVSPost2010Prop43
 90
        3
102
RTVSPost2010PropOp43
 70
     1
102
RTVSPost2010Prop44ColorIndex
 90
        5
102
RTVSPost2010Prop44ColorRGB
 90
      255
102
RTVSPost2010PropOp44
 70
     1
102
RTVSPost2010Prop45
280
     0
102
RTVSPost2010PropOp45
 70
     1
102
RTVSPost2010Prop46
 90
       50
102
RTVSPost2010PropOp46
 70
     1
102
RTVSPost2010Prop47
 90
       50
102
RTVSPost2010PropOp47
 70
     1
102
RTVSPost2010Prop48
 90
       50
102
RTVSPost2010PropOp48
 70
     1
102
RTVSPost2010Prop49
280
     0
102
RTVSPost2010PropOp49
 70
     1
102
RTVSPost2010Prop50
 90
       50
102
RTVSPost2010PropOp50
 70
     1
102
RTVSPost2010Prop51ColorIndex
 90
      256
102
RTVSPost2010Prop51ColorRGB
 90
-16777216
102
RTVSPost2010PropOp51
 70
     0
102
RTVSPost2010Prop52
140
1.0
102
RTVSPost2010PropOp52
 70
     0
102
RTVSPost2010Prop53
 90
        2
102
RTVSPost2010PropOp53
 70
     1
102
RTVSPost2010Prop54
  1
strokes_ogs.tif
102
RTVSPost2010PropOp54
 70
     1
102
RTVSPost2010Prop55
280
     0
102
RTVSPost2010PropOp55
 70
     1
102
RTVSPost2010Prop56
140
1.0
102
RTVSPost2010PropOp56
 70
     1
102
RTVSPost2010Prop57
140
1.0
102
RTVSPost2010PropOp57
 70
     1
102
RTVSPropertyOp0
 70
     1
102
RTVSPropertyOp1
 70
     1
102
RTVSPropertyOp2
 70
     1
102
RTVSPropertyOp3
 70
     1
102
RTVSPropertyOp4
 70
     1
102
RTVSPropertyOp5
 70
     1
102
RTVSPropertyOp6
 70
     1
102
RTVSPropertyOp7
 70
     1
102
RTVSPropertyOp8
 70
     1
102
RTVSPropertyOp9
 70
     1
102
RTVSPropertyOp10
 70
     1
102
RTVSPropertyOp11
 70
     1
102
RTVSPropertyOp12
 70
     1
102
RTVSPropertyOp13
 70
     1
102
RTVSPropertyOp14
 70
     1
102
RTVSPropertyOp15
 70
     1
102
RTVSPropertyOp16
 70
     1
102
RTVSPropertyOp17
 70
     1
102
RTVSPropertyOp18
 70
     1
102
RTVSPropertyOp19
 70
     1
102
RTVSPropertyOp20
 70
     1
102
RTVSPropertyOp21
 70
     1
102
RTVSPropertyOp22
 70
     1
102
RTVSPropertyOp23
 70
     1
102
RTVSPropertyOp24
 70
     1
102
RTVSPropertyOp25
 70
     1
102
RTVSPropertyOp26
 70
     1
102
RTVSPropertyOp27
 70
     1
102
RTVSPropertyOp28
 70
     1
102
RTVSPropertyOp29
 70
     1
102
RTVSPropertyOp30
 70
     1
102
RTVSPropertyOp31
 70
     1
102
RTVSPropertyOp32
 70
     1
102
RTVSPropertyOp33
 70
     1
102
RTVSPropertyOp34
 70
     1
102
RTVSPropertyOp35
 70
     1
102
RTVSPropertyOp36
 70
     1
102
RTVSPropertyOp37
 70
     1
102
RTVSPropertyOp38
 70
     1
102
RTVSPropertyOp39
 70
     1
102
RTVSPropertyOp40
 70
     1
102
RTVSPropertyOp41
 70
     1
102
RTVSPropertyOp42
 70
     1
102
RTVSPropertyOp43
 70
     1
102
RTVSPropertyOp44
 70
     1
102
RTVSPropertyOp45
 70
     1
102
RTVSPropertyOp46
 70
     1
102
RTVSPropertyOp47
 70
     1
102
RTVSPropertyOp48
 70
     1
102
RTVSPropertyOp49
 70
     1
102
RTVSPropertyOp50
 70
     1
102
RTVSPropertyOp51
 70
     0
102
RTVSPropertyOp52
 70
     0
102
RTVSPropertyOp53
 70
     1
102
RTVSPropertyOp54
 70
     1
102
RTVSPropertyOp55
 70
     1
102
RTVSPropertyOp56
 70
     1
102
RTVSPropertyOp57
 70
     1
102
RTVSPropertyOp58
 70
     1
102
RTVSPropertyOp59
 70
     1
102
RTVSPropertyOp60
 70
     1
102
RTVSPropertyOp61
 70
     1
102
RTVSPropertyOp62
 70
     1
  0
XRECORD
  5
9F6D
102
{ACAD_REACTORS
330
9F6C
102
}
330
9F6C
100
AcDbXrecord
280
     1
102
RTVSPost2010Prop28
280
     0
102
RTVSPost2010PropOp28
 70
     1
102
RTVSPost2010Prop29
280
     1
102
RTVSPost2010PropOp29
 70
     1
102
RTVSPost2010Prop30
280
     1
102
RTVSPost2010PropOp30
 70
     1
102
RTVSPost2010Prop31
280
     0
102
RTVSPost2010PropOp31
 70
     1
102
RTVSPost2010Prop32
280
     0
102
RTVSPost2010PropOp32
 70
     1
102
RTVSPost2010Prop33
280
     0
102
RTVSPost2010PropOp33
 70
     1
102
RTVSPost2010Prop34
280
     0
102
RTVSPost2010PropOp34
 70
     1
102
RTVSPost2010Prop35
280
     0
102
RTVSPost2010PropOp35
 70
     1
102
RTVSPost2010Prop36
280
     0
102
RTVSPost2010PropOp36
 70
     1
102
RTVSPost2010Prop37
 90
       50
102
RTVSPost2010PropOp37
 70
     1
102
RTVSPost2010Prop38
140
0.0
102
RTVSPost2010PropOp38
 70
     1
102
RTVSPost2010Prop39
140
1.0
102
RTVSPost2010PropOp39
 70
     1
102
RTVSPost2010Prop40
 90
        0
102
RTVSPost2010PropOp40
 70
     1
102
RTVSPost2010Prop41ColorIndex
 90
       18
102
RTVSPost2010Prop41ColorRGB
 90
        0
102
RTVSPost2010PropOp41
 70
     1
102
RTVSPost2010Prop42
 90
       50
102
RTVSPost2010PropOp42
 70
     1
102
RTVSPost2010Prop43
 90
        3
102
RTVSPost2010PropOp43
 70
     1
102
RTVSPost2010Prop44ColorIndex
 90
        5
102
RTVSPost2010Prop44ColorRGB
 90
      255
102
RTVSPost2010PropOp44
 70
     1
102
RTVSPost2010Prop45
280
     0
102
RTVSPost2010PropOp45
 70
     1
102
RTVSPost2010Prop46
 90
       50
102
RTVSPost2010PropOp46
 70
     1
102
RTVSPost2010Prop47
 90
       50
102
RTVSPost2010PropOp47
 70
     1
102
RTVSPost2010Prop48
 90
       50
102
RTVSPost2010PropOp48
 70
     1
102
RTVSPost2010Prop49
280
     0
102
RTVSPost2010PropOp49
 70
     1
102
RTVSPost2010Prop50
 90
       50
102
RTVSPost2010PropOp50
 70
     1
102
RTVSPost2010Prop51ColorIndex
 90
      256
102
RTVSPost2010Prop51ColorRGB
 90
-16777216
102
RTVSPost2010PropOp51
 70
     0
102
RTVSPost2010Prop52
140
1.0
102
RTVSPost2010PropOp52
 70
     0
102
RTVSPost2010Prop53
 90
        2
102
RTVSPost2010PropOp53
 70
     1
102
RTVSPost2010Prop54
  1
strokes_ogs.tif
102
RTVSPost2010PropOp54
 70
     1
102
RTVSPost2010Prop55
280
     0
102
RTVSPost2010PropOp55
 70
     1
102
RTVSPost2010Prop56
140
1.0
102
RTVSPost2010PropOp56
 70
     1
102
RTVSPost2010Prop57
140
1.0
102
RTVSPost2010PropOp57
 70
     1
102
RTVSPropertyOp0
 70
     1
102
RTVSPropertyOp1
 70
     1
102
RTVSPropertyOp2
 70
     1
102
RTVSPropertyOp3
 70
     1
102
RTVSPropertyOp4
 70
     1
102
RTVSPropertyOp5
 70
     1
102
RTVSPropertyOp6
 70
     1
102
RTVSPropertyOp7
 70
     1
102
RTVSPropertyOp8
 70
     1
102
RTVSPropertyOp9
 70
     1
102
RTVSPropertyOp10
 70
     1
102
RTVSPropertyOp11
 70
     1
102
RTVSPropertyOp12
 70
     1
102
RTVSPropertyOp13
 70
     1
102
RTVSPropertyOp14
 70
     1
102
RTVSPropertyOp15
 70
     1
102
RTVSPropertyOp16
 70
     1
102
RTVSPropertyOp17
 70
     1
102
RTVSPropertyOp18
 70
     1
102
RTVSPropertyOp19
 70
     1
102
RTVSPropertyOp20
 70
     1
102
RTVSPropertyOp21
 70
     1
102
RTVSPropertyOp22
 70
     1
102
RTVSPropertyOp23
 70
     1
102
RTVSPropertyOp24
 70
     1
102
RTVSPropertyOp25
 70
     1
102
RTVSPropertyOp26
 70
     1
102
RTVSPropertyOp27
 70
     1
102
RTVSPropertyOp28
 70
     1
102
RTVSPropertyOp29
 70
     1
102
RTVSPropertyOp30
 70
     1
102
RTVSPropertyOp31
 70
     1
102
RTVSPropertyOp32
 70
     1
102
RTVSPropertyOp33
 70
     1
102
RTVSPropertyOp34
 70
     1
102
RTVSPropertyOp35
 70
     1
102
RTVSPropertyOp36
 70
     1
102
RTVSPropertyOp37
 70
     1
102
RTVSPropertyOp38
 70
     1
102
RTVSPropertyOp39
 70
     1
102
RTVSPropertyOp40
 70
     1
102
RTVSPropertyOp41
 70
     1
102
RTVSPropertyOp42
 70
     1
102
RTVSPropertyOp43
 70
     1
102
RTVSPropertyOp44
 70
     1
102
RTVSPropertyOp45
 70
     1
102
RTVSPropertyOp46
 70
     1
102
RTVSPropertyOp47
 70
     1
102
RTVSPropertyOp48
 70
     1
102
RTVSPropertyOp49
 70
     1
102
RTVSPropertyOp50
 70
     1
102
RTVSPropertyOp51
 70
     0
102
RTVSPropertyOp52
 70
     0
102
RTVSPropertyOp53
 70
     1
102
RTVSPropertyOp54
 70
     1
102
RTVSPropertyOp55
 70
     1
102
RTVSPropertyOp56
 70
     1
102
RTVSPropertyOp57
 70
     1
102
RTVSPropertyOp58
 70
     1
102
RTVSPropertyOp59
 70
     1
102
RTVSPropertyOp60
 70
     1
102
RTVSPropertyOp61
 70
     1
102
RTVSPropertyOp62
 70
     1
  0
XRECORD
  5
9F75
102
{ACAD_REACTORS
330
9F74
102
}
330
9F74
100
AcDbXrecord
280
     1
102
RTVSPost2010Prop28
280
     0
102
RTVSPost2010PropOp28
 70
     1
102
RTVSPost2010Prop29
280
     1
102
RTVSPost2010PropOp29
 70
     1
102
RTVSPost2010Prop30
280
     1
102
RTVSPost2010PropOp30
 70
     1
102
RTVSPost2010Prop31
280
     0
102
RTVSPost2010PropOp31
 70
     1
102
RTVSPost2010Prop32
280
     0
102
RTVSPost2010PropOp32
 70
     1
102
RTVSPost2010Prop33
280
     0
102
RTVSPost2010PropOp33
 70
     1
102
RTVSPost2010Prop34
280
     0
102
RTVSPost2010PropOp34
 70
     1
102
RTVSPost2010Prop35
280
     0
102
RTVSPost2010PropOp35
 70
     1
102
RTVSPost2010Prop36
280
     0
102
RTVSPost2010PropOp36
 70
     1
102
RTVSPost2010Prop37
 90
       50
102
RTVSPost2010PropOp37
 70
     1
102
RTVSPost2010Prop38
140
0.0
102
RTVSPost2010PropOp38
 70
     1
102
RTVSPost2010Prop39
140
1.0
102
RTVSPost2010PropOp39
 70
     1
102
RTVSPost2010Prop40
 90
        0
102
RTVSPost2010PropOp40
 70
     1
102
RTVSPost2010Prop41ColorIndex
 90
       18
102
RTVSPost2010Prop41ColorRGB
 90
        0
102
RTVSPost2010PropOp41
 70
     1
102
RTVSPost2010Prop42
 90
       50
102
RTVSPost2010PropOp42
 70
     1
102
RTVSPost2010Prop43
 90
        3
102
RTVSPost2010PropOp43
 70
     1
102
RTVSPost2010Prop44ColorIndex
 90
        5
102
RTVSPost2010Prop44ColorRGB
 90
      255
102
RTVSPost2010PropOp44
 70
     1
102
RTVSPost2010Prop45
280
     0
102
RTVSPost2010PropOp45
 70
     1
102
RTVSPost2010Prop46
 90
       50
102
RTVSPost2010PropOp46
 70
     1
102
RTVSPost2010Prop47
 90
       50
102
RTVSPost2010PropOp47
 70
     1
102
RTVSPost2010Prop48
 90
       50
102
RTVSPost2010PropOp48
 70
     1
102
RTVSPost2010Prop49
280
     0
102
RTVSPost2010PropOp49
 70
     1
102
RTVSPost2010Prop50
 90
       50
102
RTVSPost2010PropOp50
 70
     1
102
RTVSPost2010Prop51ColorIndex
 90
      256
102
RTVSPost2010Prop51ColorRGB
 90
-16777216
102
RTVSPost2010PropOp51
 70
     0
102
RTVSPost2010Prop52
140
1.0
102
RTVSPost2010PropOp52
 70
     0
102
RTVSPost2010Prop53
 90
        2
102
RTVSPost2010PropOp53
 70
     1
102
RTVSPost2010Prop54
  1
strokes_ogs.tif
102
RTVSPost2010PropOp54
 70
     1
102
RTVSPost2010Prop55
280
     0
102
RTVSPost2010PropOp55
 70
     1
102
RTVSPost2010Prop56
140
1.0
102
RTVSPost2010PropOp56
 70
     1
102
RTVSPost2010Prop57
140
1.0
102
RTVSPost2010PropOp57
 70
     1
102
RTVSPropertyOp0
 70
     1
102
RTVSPropertyOp1
 70
     1
102
RTVSPropertyOp2
 70
     1
102
RTVSPropertyOp3
 70
     1
102
RTVSPropertyOp4
 70
     1
102
RTVSPropertyOp5
 70
     1
102
RTVSPropertyOp6
 70
     1
102
RTVSPropertyOp7
 70
     1
102
RTVSPropertyOp8
 70
     1
102
RTVSPropertyOp9
 70
     1
102
RTVSPropertyOp10
 70
     1
102
RTVSPropertyOp11
 70
     1
102
RTVSPropertyOp12
 70
     1
102
RTVSPropertyOp13
 70
     1
102
RTVSPropertyOp14
 70
     1
102
RTVSPropertyOp15
 70
     1
102
RTVSPropertyOp16
 70
     1
102
RTVSPropertyOp17
 70
     1
102
RTVSPropertyOp18
 70
     1
102
RTVSPropertyOp19
 70
     1
102
RTVSPropertyOp20
 70
     1
102
RTVSPropertyOp21
 70
     1
102
RTVSPropertyOp22
 70
     1
102
RTVSPropertyOp23
 70
     1
102
RTVSPropertyOp24
 70
     1
102
RTVSPropertyOp25
 70
     1
102
RTVSPropertyOp26
 70
     1
102
RTVSPropertyOp27
 70
     1
102
RTVSPropertyOp28
 70
     1
102
RTVSPropertyOp29
 70
     1
102
RTVSPropertyOp30
 70
     1
102
RTVSPropertyOp31
 70
     1
102
RTVSPropertyOp32
 70
     1
102
RTVSPropertyOp33
 70
     1
102
RTVSPropertyOp34
 70
     1
102
RTVSPropertyOp35
 70
     1
102
RTVSPropertyOp36
 70
     1
102
RTVSPropertyOp37
 70
     1
102
RTVSPropertyOp38
 70
     1
102
RTVSPropertyOp39
 70
     1
102
RTVSPropertyOp40
 70
     1
102
RTVSPropertyOp41
 70
     1
102
RTVSPropertyOp42
 70
     1
102
RTVSPropertyOp43
 70
     1
102
RTVSPropertyOp44
 70
     1
102
RTVSPropertyOp45
 70
     1
102
RTVSPropertyOp46
 70
     1
102
RTVSPropertyOp47
 70
     1
102
RTVSPropertyOp48
 70
     1
102
RTVSPropertyOp49
 70
     1
102
RTVSPropertyOp50
 70
     1
102
RTVSPropertyOp51
 70
     0
102
RTVSPropertyOp52
 70
     0
102
RTVSPropertyOp53
 70
     1
102
RTVSPropertyOp54
 70
     1
102
RTVSPropertyOp55
 70
     1
102
RTVSPropertyOp56
 70
     1
102
RTVSPropertyOp57
 70
     1
102
RTVSPropertyOp58
 70
     1
102
RTVSPropertyOp59
 70
     1
102
RTVSPropertyOp60
 70
     1
102
RTVSPropertyOp61
 70
     1
102
RTVSPropertyOp62
 70
     1
  0
XRECORD
  5
9F91
102
{ACAD_REACTORS
330
9F90
102
}
330
9F90
100
AcDbXrecord
280
     1
102
RTVSPost2010Prop28
280
     0
102
RTVSPost2010PropOp28
 70
     1
102
RTVSPost2010Prop29
280
     1
102
RTVSPost2010PropOp29
 70
     1
102
RTVSPost2010Prop30
280
     1
102
RTVSPost2010PropOp30
 70
     1
102
RTVSPost2010Prop31
280
     0
102
RTVSPost2010PropOp31
 70
     1
102
RTVSPost2010Prop32
280
     0
102
RTVSPost2010PropOp32
 70
     1
102
RTVSPost2010Prop33
280
     0
102
RTVSPost2010PropOp33
 70
     1
102
RTVSPost2010Prop34
280
     0
102
RTVSPost2010PropOp34
 70
     1
102
RTVSPost2010Prop35
280
     0
102
RTVSPost2010PropOp35
 70
     1
102
RTVSPost2010Prop36
280
     0
102
RTVSPost2010PropOp36
 70
     1
102
RTVSPost2010Prop37
 90
       50
102
RTVSPost2010PropOp37
 70
     0
102
RTVSPost2010Prop38
140
0.0
102
RTVSPost2010PropOp38
 70
     0
102
RTVSPost2010Prop39
140
1.0
102
RTVSPost2010PropOp39
 70
     0
102
RTVSPost2010Prop40
 90
        0
102
RTVSPost2010PropOp40
 70
     0
102
RTVSPost2010Prop41ColorIndex
 90
       18
102
RTVSPost2010Prop41ColorRGB
 90
        0
102
RTVSPost2010PropOp41
 70
     0
102
RTVSPost2010Prop42
 90
       50
102
RTVSPost2010PropOp42
 70
     0
102
RTVSPost2010Prop43
 90
        3
102
RTVSPost2010PropOp43
 70
     0
102
RTVSPost2010Prop44ColorIndex
 90
        5
102
RTVSPost2010Prop44ColorRGB
 90
      255
102
RTVSPost2010PropOp44
 70
     0
102
RTVSPost2010Prop45
280
     0
102
RTVSPost2010PropOp45
 70
     1
102
RTVSPost2010Prop46
 90
       50
102
RTVSPost2010PropOp46
 70
     0
102
RTVSPost2010Prop47
 90
       50
102
RTVSPost2010PropOp47
 70
     0
102
RTVSPost2010Prop48
 90
       50
102
RTVSPost2010PropOp48
 70
     0
102
RTVSPost2010Prop49
280
     0
102
RTVSPost2010PropOp49
 70
     1
102
RTVSPost2010Prop50
 90
       50
102
RTVSPost2010PropOp50
 70
     0
102
RTVSPost2010Prop51ColorIndex
 90
      256
102
RTVSPost2010Prop51ColorRGB
 90
-16777216
102
RTVSPost2010PropOp51
 70
     0
102
RTVSPost2010Prop52
140
1.0
102
RTVSPost2010PropOp52
 70
     0
102
RTVSPost2010Prop53
 90
        2
102
RTVSPost2010PropOp53
 70
     0
102
RTVSPost2010Prop54
  1
strokes_ogs.tif
102
RTVSPost2010PropOp54
 70
     0
102
RTVSPost2010Prop55
280
     0
102
RTVSPost2010PropOp55
 70
     1
102
RTVSPost2010Prop56
140
1.0
102
RTVSPost2010PropOp56
 70
     0
102
RTVSPost2010Prop57
140
1.0
102
RTVSPost2010PropOp57
 70
     0
102
RTVSPropertyOp0
 70
     0
102
RTVSPropertyOp1
 70
     0
102
RTVSPropertyOp2
 70
     0
102
RTVSPropertyOp3
 70
     0
102
RTVSPropertyOp4
 70
     0
102
RTVSPropertyOp5
 70
     0
102
RTVSPropertyOp6
 70
     0
102
RTVSPropertyOp7
 70
     0
102
RTVSPropertyOp8
 70
     0
102
RTVSPropertyOp9
 70
     0
102
RTVSPropertyOp10
 70
     0
102
RTVSPropertyOp11
 70
     0
102
RTVSPropertyOp12
 70
     0
102
RTVSPropertyOp13
 70
     0
102
RTVSPropertyOp14
 70
     2
102
RTVSPropertyOp15
 70
     0
102
RTVSPropertyOp16
 70
     0
102
RTVSPropertyOp17
 70
     0
102
RTVSPropertyOp18
 70
     0
102
RTVSPropertyOp19
 70
     0
102
RTVSPropertyOp20
 70
     0
102
RTVSPropertyOp21
 70
     0
102
RTVSPropertyOp22
 70
     0
102
RTVSPropertyOp23
 70
     0
102
RTVSPropertyOp24
 70
     0
102
RTVSPropertyOp25
 70
     0
102
RTVSPropertyOp26
 70
     0
102
RTVSPropertyOp27
 70
     0
102
RTVSPropertyOp28
 70
     1
102
RTVSPropertyOp29
 70
     1
102
RTVSPropertyOp30
 70
     1
102
RTVSPropertyOp31
 70
     1
102
RTVSPropertyOp32
 70
     1
102
RTVSPropertyOp33
 70
     1
102
RTVSPropertyOp34
 70
     1
102
RTVSPropertyOp35
 70
     1
102
RTVSPropertyOp36
 70
     1
102
RTVSPropertyOp37
 70
     0
102
RTVSPropertyOp38
 70
     0
102
RTVSPropertyOp39
 70
     0
102
RTVSPropertyOp40
 70
     0
102
RTVSPropertyOp41
 70
     0
102
RTVSPropertyOp42
 70
     0
102
RTVSPropertyOp43
 70
     0
102
RTVSPropertyOp44
 70
     0
102
RTVSPropertyOp45
 70
     1
102
RTVSPropertyOp46
 70
     0
102
RTVSPropertyOp47
 70
     0
102
RTVSPropertyOp48
 70
     0
102
RTVSPropertyOp49
 70
     1
102
RTVSPropertyOp50
 70
     0
102
RTVSPropertyOp51
 70
     0
102
RTVSPropertyOp52
 70
     0
102
RTVSPropertyOp53
 70
     0
102
RTVSPropertyOp54
 70
     0
102
RTVSPropertyOp55
 70
     1
102
RTVSPropertyOp56
 70
     0
102
RTVSPropertyOp57
 70
     0
102
RTVSPropertyOp58
 70
     0
102
RTVSPropertyOp59
 70
     0
102
RTVSPropertyOp60
 70
     0
102
RTVSPropertyOp61
 70
     0
102
RTVSPropertyOp62
 70
     0
  0
XRECORD
  5
9F81
102
{ACAD_REACTORS
330
9F80
102
}
330
9F80
100
AcDbXrecord
280
     1
102
RTVSPost2010Prop28
280
     0
102
RTVSPost2010PropOp28
 70
     1
102
RTVSPost2010Prop29
280
     1
102
RTVSPost2010PropOp29
 70
     1
102
RTVSPost2010Prop30
280
     1
102
RTVSPost2010PropOp30
 70
     1
102
RTVSPost2010Prop31
280
     0
102
RTVSPost2010PropOp31
 70
     1
102
RTVSPost2010Prop32
280
     0
102
RTVSPost2010PropOp32
 70
     1
102
RTVSPost2010Prop33
280
     0
102
RTVSPost2010PropOp33
 70
     1
102
RTVSPost2010Prop34
280
     0
102
RTVSPost2010PropOp34
 70
     1
102
RTVSPost2010Prop35
280
     0
102
RTVSPost2010PropOp35
 70
     1
102
RTVSPost2010Prop36
280
     0
102
RTVSPost2010PropOp36
 70
     1
102
RTVSPost2010Prop37
 90
       50
102
RTVSPost2010PropOp37
 70
     1
102
RTVSPost2010Prop38
140
0.0
102
RTVSPost2010PropOp38
 70
     1
102
RTVSPost2010Prop39
140
1.0
102
RTVSPost2010PropOp39
 70
     1
102
RTVSPost2010Prop40
 90
        0
102
RTVSPost2010PropOp40
 70
     1
102
RTVSPost2010Prop41ColorIndex
 90
       18
102
RTVSPost2010Prop41ColorRGB
 90
        0
102
RTVSPost2010PropOp41
 70
     1
102
RTVSPost2010Prop42
 90
       50
102
RTVSPost2010PropOp42
 70
     1
102
RTVSPost2010Prop43
 90
        3
102
RTVSPost2010PropOp43
 70
     1
102
RTVSPost2010Prop44ColorIndex
 90
        5
102
RTVSPost2010Prop44ColorRGB
 90
      255
102
RTVSPost2010PropOp44
 70
     1
102
RTVSPost2010Prop45
280
     0
102
RTVSPost2010PropOp45
 70
     1
102
RTVSPost2010Prop46
 90
       50
102
RTVSPost2010PropOp46
 70
     1
102
RTVSPost2010Prop47
 90
       50
102
RTVSPost2010PropOp47
 70
     1
102
RTVSPost2010Prop48
 90
       50
102
RTVSPost2010PropOp48
 70
     1
102
RTVSPost2010Prop49
280
     0
102
RTVSPost2010PropOp49
 70
     1
102
RTVSPost2010Prop50
 90
       50
102
RTVSPost2010PropOp50
 70
     1
102
RTVSPost2010Prop51ColorIndex
 90
      256
102
RTVSPost2010Prop51ColorRGB
 90
-16777216
102
RTVSPost2010PropOp51
 70
     0
102
RTVSPost2010Prop52
140
1.0
102
RTVSPost2010PropOp52
 70
     0
102
RTVSPost2010Prop53
 90
        2
102
RTVSPost2010PropOp53
 70
     1
102
RTVSPost2010Prop54
  1
strokes_ogs.tif
102
RTVSPost2010PropOp54
 70
     1
102
RTVSPost2010Prop55
280
     0
102
RTVSPost2010PropOp55
 70
     1
102
RTVSPost2010Prop56
140
1.0
102
RTVSPost2010PropOp56
 70
     1
102
RTVSPost2010Prop57
140
1.0
102
RTVSPost2010PropOp57
 70
     1
102
RTVSPropertyOp0
 70
     1
102
RTVSPropertyOp1
 70
     1
102
RTVSPropertyOp2
 70
     1
102
RTVSPropertyOp3
 70
     1
102
RTVSPropertyOp4
 70
     1
102
RTVSPropertyOp5
 70
     1
102
RTVSPropertyOp6
 70
     1
102
RTVSPropertyOp7
 70
     1
102
RTVSPropertyOp8
 70
     1
102
RTVSPropertyOp9
 70
     1
102
RTVSPropertyOp10
 70
     1
102
RTVSPropertyOp11
 70
     1
102
RTVSPropertyOp12
 70
     1
102
RTVSPropertyOp13
 70
     1
102
RTVSPropertyOp14
 70
     1
102
RTVSPropertyOp15
 70
     1
102
RTVSPropertyOp16
 70
     1
102
RTVSPropertyOp17
 70
     1
102
RTVSPropertyOp18
 70
     1
102
RTVSPropertyOp19
 70
     1
102
RTVSPropertyOp20
 70
     1
102
RTVSPropertyOp21
 70
     1
102
RTVSPropertyOp22
 70
     1
102
RTVSPropertyOp23
 70
     1
102
RTVSPropertyOp24
 70
     1
102
RTVSPropertyOp25
 70
     1
102
RTVSPropertyOp26
 70
     1
102
RTVSPropertyOp27
 70
     1
102
RTVSPropertyOp28
 70
     1
102
RTVSPropertyOp29
 70
     1
102
RTVSPropertyOp30
 70
     1
102
RTVSPropertyOp31
 70
     1
102
RTVSPropertyOp32
 70
     1
102
RTVSPropertyOp33
 70
     1
102
RTVSPropertyOp34
 70
     1
102
RTVSPropertyOp35
 70
     1
102
RTVSPropertyOp36
 70
     1
102
RTVSPropertyOp37
 70
     1
102
RTVSPropertyOp38
 70
     1
102
RTVSPropertyOp39
 70
     1
102
RTVSPropertyOp40
 70
     1
102
RTVSPropertyOp41
 70
     1
102
RTVSPropertyOp42
 70
     1
102
RTVSPropertyOp43
 70
     1
102
RTVSPropertyOp44
 70
     1
102
RTVSPropertyOp45
 70
     1
102
RTVSPropertyOp46
 70
     1
102
RTVSPropertyOp47
 70
     1
102
RTVSPropertyOp48
 70
     1
102
RTVSPropertyOp49
 70
     1
102
RTVSPropertyOp50
 70
     1
102
RTVSPropertyOp51
 70
     0
102
RTVSPropertyOp52
 70
     0
102
RTVSPropertyOp53
 70
     1
102
RTVSPropertyOp54
 70
     1
102
RTVSPropertyOp55
 70
     1
102
RTVSPropertyOp56
 70
     1
102
RTVSPropertyOp57
 70
     1
102
RTVSPropertyOp58
 70
     1
102
RTVSPropertyOp59
 70
     1
102
RTVSPropertyOp60
 70
     1
102
RTVSPropertyOp61
 70
     1
102
RTVSPropertyOp62
 70
     1
  0
XRECORD
  5
9F93
102
{ACAD_REACTORS
330
9F92
102
}
330
9F92
100
AcDbXrecord
280
     1
102
RTVSPost2010Prop28
280
     0
102
RTVSPost2010PropOp28
 70
     1
102
RTVSPost2010Prop29
280
     1
102
RTVSPost2010PropOp29
 70
     1
102
RTVSPost2010Prop30
280
     1
102
RTVSPost2010PropOp30
 70
     1
102
RTVSPost2010Prop31
280
     0
102
RTVSPost2010PropOp31
 70
     1
102
RTVSPost2010Prop32
280
     0
102
RTVSPost2010PropOp32
 70
     1
102
RTVSPost2010Prop33
280
     0
102
RTVSPost2010PropOp33
 70
     1
102
RTVSPost2010Prop34
280
     0
102
RTVSPost2010PropOp34
 70
     1
102
RTVSPost2010Prop35
280
     0
102
RTVSPost2010PropOp35
 70
     1
102
RTVSPost2010Prop36
280
     0
102
RTVSPost2010PropOp36
 70
     1
102
RTVSPost2010Prop37
 90
       50
102
RTVSPost2010PropOp37
 70
     0
102
RTVSPost2010Prop38
140
0.0
102
RTVSPost2010PropOp38
 70
     0
102
RTVSPost2010Prop39
140
1.0
102
RTVSPost2010PropOp39
 70
     0
102
RTVSPost2010Prop40
 90
        0
102
RTVSPost2010PropOp40
 70
     0
102
RTVSPost2010Prop41ColorIndex
 90
       18
102
RTVSPost2010Prop41ColorRGB
 90
        0
102
RTVSPost2010PropOp41
 70
     0
102
RTVSPost2010Prop42
 90
       50
102
RTVSPost2010PropOp42
 70
     0
102
RTVSPost2010Prop43
 90
        3
102
RTVSPost2010PropOp43
 70
     0
102
RTVSPost2010Prop44ColorIndex
 90
        5
102
RTVSPost2010Prop44ColorRGB
 90
      255
102
RTVSPost2010PropOp44
 70
     0
102
RTVSPost2010Prop45
280
     0
102
RTVSPost2010PropOp45
 70
     1
102
RTVSPost2010Prop46
 90
       50
102
RTVSPost2010PropOp46
 70
     0
102
RTVSPost2010Prop47
 90
       50
102
RTVSPost2010PropOp47
 70
     0
102
RTVSPost2010Prop48
 90
       50
102
RTVSPost2010PropOp48
 70
     0
102
RTVSPost2010Prop49
280
     0
102
RTVSPost2010PropOp49
 70
     1
102
RTVSPost2010Prop50
 90
       50
102
RTVSPost2010PropOp50
 70
     0
102
RTVSPost2010Prop51ColorIndex
 90
      256
102
RTVSPost2010Prop51ColorRGB
 90
-16777216
102
RTVSPost2010PropOp51
 70
     0
102
RTVSPost2010Prop52
140
1.0
102
RTVSPost2010PropOp52
 70
     0
102
RTVSPost2010Prop53
 90
        2
102
RTVSPost2010PropOp53
 70
     0
102
RTVSPost2010Prop54
  1
strokes_ogs.tif
102
RTVSPost2010PropOp54
 70
     0
102
RTVSPost2010Prop55
280
     0
102
RTVSPost2010PropOp55
 70
     1
102
RTVSPost2010Prop56
140
1.0
102
RTVSPost2010PropOp56
 70
     0
102
RTVSPost2010Prop57
140
1.0
102
RTVSPost2010PropOp57
 70
     0
102
RTVSPropertyOp0
 70
     0
102
RTVSPropertyOp1
 70
     0
102
RTVSPropertyOp2
 70
     0
102
RTVSPropertyOp3
 70
     0
102
RTVSPropertyOp4
 70
     0
102
RTVSPropertyOp5
 70
     0
102
RTVSPropertyOp6
 70
     0
102
RTVSPropertyOp7
 70
     0
102
RTVSPropertyOp8
 70
     0
102
RTVSPropertyOp9
 70
     0
102
RTVSPropertyOp10
 70
     0
102
RTVSPropertyOp11
 70
     0
102
RTVSPropertyOp12
 70
     0
102
RTVSPropertyOp13
 70
     0
102
RTVSPropertyOp14
 70
     2
102
RTVSPropertyOp15
 70
     0
102
RTVSPropertyOp16
 70
     0
102
RTVSPropertyOp17
 70
     0
102
RTVSPropertyOp18
 70
     0
102
RTVSPropertyOp19
 70
     0
102
RTVSPropertyOp20
 70
     0
102
RTVSPropertyOp21
 70
     0
102
RTVSPropertyOp22
 70
     0
102
RTVSPropertyOp23
 70
     0
102
RTVSPropertyOp24
 70
     0
102
RTVSPropertyOp25
 70
     0
102
RTVSPropertyOp26
 70
     0
102
RTVSPropertyOp27
 70
     0
102
RTVSPropertyOp28
 70
     1
102
RTVSPropertyOp29
 70
     1
102
RTVSPropertyOp30
 70
     1
102
RTVSPropertyOp31
 70
     1
102
RTVSPropertyOp32
 70
     1
102
RTVSPropertyOp33
 70
     1
102
RTVSPropertyOp34
 70
     1
102
RTVSPropertyOp35
 70
     1
102
RTVSPropertyOp36
 70
     1
102
RTVSPropertyOp37
 70
     0
102
RTVSPropertyOp38
 70
     0
102
RTVSPropertyOp39
 70
     0
102
RTVSPropertyOp40
 70
     0
102
RTVSPropertyOp41
 70
     0
102
RTVSPropertyOp42
 70
     0
102
RTVSPropertyOp43
 70
     0
102
RTVSPropertyOp44
 70
     0
102
RTVSPropertyOp45
 70
     1
102
RTVSPropertyOp46
 70
     0
102
RTVSPropertyOp47
 70
     0
102
RTVSPropertyOp48
 70
     0
102
RTVSPropertyOp49
 70
     1
102
RTVSPropertyOp50
 70
     0
102
RTVSPropertyOp51
 70
     0
102
RTVSPropertyOp52
 70
     0
102
RTVSPropertyOp53
 70
     0
102
RTVSPropertyOp54
 70
     0
102
RTVSPropertyOp55
 70
     1
102
RTVSPropertyOp56
 70
     0
102
RTVSPropertyOp57
 70
     0
102
RTVSPropertyOp58
 70
     0
102
RTVSPropertyOp59
 70
     0
102
RTVSPropertyOp60
 70
     0
102
RTVSPropertyOp61
 70
     0
102
RTVSPropertyOp62
 70
     0
  0
XRECORD
  5
9F79
102
{ACAD_REACTORS
330
9F78
102
}
330
9F78
100
AcDbXrecord
280
     1
102
RTVSPost2010Prop28
280
     0
102
RTVSPost2010PropOp28
 70
     1
102
RTVSPost2010Prop29
280
     1
102
RTVSPost2010PropOp29
 70
     1
102
RTVSPost2010Prop30
280
     1
102
RTVSPost2010PropOp30
 70
     1
102
RTVSPost2010Prop31
280
     0
102
RTVSPost2010PropOp31
 70
     1
102
RTVSPost2010Prop32
280
     0
102
RTVSPost2010PropOp32
 70
     1
102
RTVSPost2010Prop33
280
     0
102
RTVSPost2010PropOp33
 70
     1
102
RTVSPost2010Prop34
280
     0
102
RTVSPost2010PropOp34
 70
     1
102
RTVSPost2010Prop35
280
     0
102
RTVSPost2010PropOp35
 70
     1
102
RTVSPost2010Prop36
280
     0
102
RTVSPost2010PropOp36
 70
     1
102
RTVSPost2010Prop37
 90
       50
102
RTVSPost2010PropOp37
 70
     1
102
RTVSPost2010Prop38
140
0.0
102
RTVSPost2010PropOp38
 70
     1
102
RTVSPost2010Prop39
140
1.0
102
RTVSPost2010PropOp39
 70
     1
102
RTVSPost2010Prop40
 90
        0
102
RTVSPost2010PropOp40
 70
     1
102
RTVSPost2010Prop41ColorIndex
 90
       18
102
RTVSPost2010Prop41ColorRGB
 90
        0
102
RTVSPost2010PropOp41
 70
     1
102
RTVSPost2010Prop42
 90
       50
102
RTVSPost2010PropOp42
 70
     1
102
RTVSPost2010Prop43
 90
        3
102
RTVSPost2010PropOp43
 70
     1
102
RTVSPost2010Prop44ColorIndex
 90
        5
102
RTVSPost2010Prop44ColorRGB
 90
      255
102
RTVSPost2010PropOp44
 70
     1
102
RTVSPost2010Prop45
280
     0
102
RTVSPost2010PropOp45
 70
     1
102
RTVSPost2010Prop46
 90
       50
102
RTVSPost2010PropOp46
 70
     1
102
RTVSPost2010Prop47
 90
       50
102
RTVSPost2010PropOp47
 70
     1
102
RTVSPost2010Prop48
 90
       50
102
RTVSPost2010PropOp48
 70
     1
102
RTVSPost2010Prop49
280
     0
102
RTVSPost2010PropOp49
 70
     1
102
RTVSPost2010Prop50
 90
       50
102
RTVSPost2010PropOp50
 70
     1
102
RTVSPost2010Prop51ColorIndex
 90
      256
102
RTVSPost2010Prop51ColorRGB
 90
-16777216
102
RTVSPost2010PropOp51
 70
     0
102
RTVSPost2010Prop52
140
1.0
102
RTVSPost2010PropOp52
 70
     0
102
RTVSPost2010Prop53
 90
        2
102
RTVSPost2010PropOp53
 70
     1
102
RTVSPost2010Prop54
  1
strokes_ogs.tif
102
RTVSPost2010PropOp54
 70
     1
102
RTVSPost2010Prop55
280
     0
102
RTVSPost2010PropOp55
 70
     1
102
RTVSPost2010Prop56
140
1.0
102
RTVSPost2010PropOp56
 70
     1
102
RTVSPost2010Prop57
140
1.0
102
RTVSPost2010PropOp57
 70
     1
102
RTVSPropertyOp0
 70
     1
102
RTVSPropertyOp1
 70
     1
102
RTVSPropertyOp2
 70
     1
102
RTVSPropertyOp3
 70
     1
102
RTVSPropertyOp4
 70
     1
102
RTVSPropertyOp5
 70
     1
102
RTVSPropertyOp6
 70
     1
102
RTVSPropertyOp7
 70
     1
102
RTVSPropertyOp8
 70
     1
102
RTVSPropertyOp9
 70
     1
102
RTVSPropertyOp10
 70
     1
102
RTVSPropertyOp11
 70
     1
102
RTVSPropertyOp12
 70
     1
102
RTVSPropertyOp13
 70
     1
102
RTVSPropertyOp14
 70
     1
102
RTVSPropertyOp15
 70
     1
102
RTVSPropertyOp16
 70
     1
102
RTVSPropertyOp17
 70
     1
102
RTVSPropertyOp18
 70
     1
102
RTVSPropertyOp19
 70
     1
102
RTVSPropertyOp20
 70
     1
102
RTVSPropertyOp21
 70
     1
102
RTVSPropertyOp22
 70
     1
102
RTVSPropertyOp23
 70
     1
102
RTVSPropertyOp24
 70
     1
102
RTVSPropertyOp25
 70
     1
102
RTVSPropertyOp26
 70
     1
102
RTVSPropertyOp27
 70
     1
102
RTVSPropertyOp28
 70
     1
102
RTVSPropertyOp29
 70
     1
102
RTVSPropertyOp30
 70
     1
102
RTVSPropertyOp31
 70
     1
102
RTVSPropertyOp32
 70
     1
102
RTVSPropertyOp33
 70
     1
102
RTVSPropertyOp34
 70
     1
102
RTVSPropertyOp35
 70
     1
102
RTVSPropertyOp36
 70
     1
102
RTVSPropertyOp37
 70
     1
102
RTVSPropertyOp38
 70
     1
102
RTVSPropertyOp39
 70
     1
102
RTVSPropertyOp40
 70
     1
102
RTVSPropertyOp41
 70
     1
102
RTVSPropertyOp42
 70
     1
102
RTVSPropertyOp43
 70
     1
102
RTVSPropertyOp44
 70
     1
102
RTVSPropertyOp45
 70
     1
102
RTVSPropertyOp46
 70
     1
102
RTVSPropertyOp47
 70
     1
102
RTVSPropertyOp48
 70
     1
102
RTVSPropertyOp49
 70
     1
102
RTVSPropertyOp50
 70
     1
102
RTVSPropertyOp51
 70
     0
102
RTVSPropertyOp52
 70
     0
102
RTVSPropertyOp53
 70
     1
102
RTVSPropertyOp54
 70
     1
102
RTVSPropertyOp55
 70
     1
102
RTVSPropertyOp56
 70
     1
102
RTVSPropertyOp57
 70
     1
102
RTVSPropertyOp58
 70
     1
102
RTVSPropertyOp59
 70
     1
102
RTVSPropertyOp60
 70
     1
102
RTVSPropertyOp61
 70
     1
102
RTVSPropertyOp62
 70
     1
  0
XRECORD
  5
9F8F
102
{ACAD_REACTORS
330
9F8E
102
}
330
9F8E
100
AcDbXrecord
280
     1
102
RTVSPost2010Prop28
280
     0
102
RTVSPost2010PropOp28
 70
     1
102
RTVSPost2010Prop29
280
     1
102
RTVSPost2010PropOp29
 70
     1
102
RTVSPost2010Prop30
280
     1
102
RTVSPost2010PropOp30
 70
     1
102
RTVSPost2010Prop31
280
     0
102
RTVSPost2010PropOp31
 70
     1
102
RTVSPost2010Prop32
280
     0
102
RTVSPost2010PropOp32
 70
     1
102
RTVSPost2010Prop33
280
     0
102
RTVSPost2010PropOp33
 70
     1
102
RTVSPost2010Prop34
280
     0
102
RTVSPost2010PropOp34
 70
     1
102
RTVSPost2010Prop35
280
     0
102
RTVSPost2010PropOp35
 70
     1
102
RTVSPost2010Prop36
280
     0
102
RTVSPost2010PropOp36
 70
     1
102
RTVSPost2010Prop37
 90
       50
102
RTVSPost2010PropOp37
 70
     1
102
RTVSPost2010Prop38
140
0.0
102
RTVSPost2010PropOp38
 70
     1
102
RTVSPost2010Prop39
140
1.0
102
RTVSPost2010PropOp39
 70
     1
102
RTVSPost2010Prop40
 90
        0
102
RTVSPost2010PropOp40
 70
     1
102
RTVSPost2010Prop41ColorIndex
 90
       18
102
RTVSPost2010Prop41ColorRGB
 90
        0
102
RTVSPost2010PropOp41
 70
     1
102
RTVSPost2010Prop42
 90
       50
102
RTVSPost2010PropOp42
 70
     1
102
RTVSPost2010Prop43
 90
        3
102
RTVSPost2010PropOp43
 70
     1
102
RTVSPost2010Prop44ColorIndex
 90
        5
102
RTVSPost2010Prop44ColorRGB
 90
      255
102
RTVSPost2010PropOp44
 70
     1
102
RTVSPost2010Prop45
280
     0
102
RTVSPost2010PropOp45
 70
     1
102
RTVSPost2010Prop46
 90
       50
102
RTVSPost2010PropOp46
 70
     1
102
RTVSPost2010Prop47
 90
       50
102
RTVSPost2010PropOp47
 70
     1
102
RTVSPost2010Prop48
 90
       50
102
RTVSPost2010PropOp48
 70
     1
102
RTVSPost2010Prop49
280
     0
102
RTVSPost2010PropOp49
 70
     1
102
RTVSPost2010Prop50
 90
       50
102
RTVSPost2010PropOp50
 70
     1
102
RTVSPost2010Prop51ColorIndex
 90
      256
102
RTVSPost2010Prop51ColorRGB
 90
-16777216
102
RTVSPost2010PropOp51
 70
     0
102
RTVSPost2010Prop52
140
1.0
102
RTVSPost2010PropOp52
 70
     0
102
RTVSPost2010Prop53
 90
        2
102
RTVSPost2010PropOp53
 70
     1
102
RTVSPost2010Prop54
  1
strokes_ogs.tif
102
RTVSPost2010PropOp54
 70
     1
102
RTVSPost2010Prop55
280
     0
102
RTVSPost2010PropOp55
 70
     1
102
RTVSPost2010Prop56
140
1.0
102
RTVSPost2010PropOp56
 70
     1
102
RTVSPost2010Prop57
140
1.0
102
RTVSPost2010PropOp57
 70
     1
102
RTVSPropertyOp0
 70
     1
102
RTVSPropertyOp1
 70
     1
102
RTVSPropertyOp2
 70
     1
102
RTVSPropertyOp3
 70
     1
102
RTVSPropertyOp4
 70
     1
102
RTVSPropertyOp5
 70
     1
102
RTVSPropertyOp6
 70
     1
102
RTVSPropertyOp7
 70
     1
102
RTVSPropertyOp8
 70
     1
102
RTVSPropertyOp9
 70
     1
102
RTVSPropertyOp10
 70
     1
102
RTVSPropertyOp11
 70
     1
102
RTVSPropertyOp12
 70
     1
102
RTVSPropertyOp13
 70
     1
102
RTVSPropertyOp14
 70
     1
102
RTVSPropertyOp15
 70
     1
102
RTVSPropertyOp16
 70
     1
102
RTVSPropertyOp17
 70
     1
102
RTVSPropertyOp18
 70
     1
102
RTVSPropertyOp19
 70
     1
102
RTVSPropertyOp20
 70
     1
102
RTVSPropertyOp21
 70
     1
102
RTVSPropertyOp22
 70
     1
102
RTVSPropertyOp23
 70
     1
102
RTVSPropertyOp24
 70
     1
102
RTVSPropertyOp25
 70
     1
102
RTVSPropertyOp26
 70
     1
102
RTVSPropertyOp27
 70
     1
102
RTVSPropertyOp28
 70
     1
102
RTVSPropertyOp29
 70
     1
102
RTVSPropertyOp30
 70
     1
102
RTVSPropertyOp31
 70
     1
102
RTVSPropertyOp32
 70
     1
102
RTVSPropertyOp33
 70
     1
102
RTVSPropertyOp34
 70
     1
102
RTVSPropertyOp35
 70
     1
102
RTVSPropertyOp36
 70
     1
102
RTVSPropertyOp37
 70
     1
102
RTVSPropertyOp38
 70
     1
102
RTVSPropertyOp39
 70
     1
102
RTVSPropertyOp40
 70
     1
102
RTVSPropertyOp41
 70
     1
102
RTVSPropertyOp42
 70
     1
102
RTVSPropertyOp43
 70
     1
102
RTVSPropertyOp44
 70
     1
102
RTVSPropertyOp45
 70
     1
102
RTVSPropertyOp46
 70
     1
102
RTVSPropertyOp47
 70
     1
102
RTVSPropertyOp48
 70
     1
102
RTVSPropertyOp49
 70
     1
102
RTVSPropertyOp50
 70
     1
102
RTVSPropertyOp51
 70
     0
102
RTVSPropertyOp52
 70
     0
102
RTVSPropertyOp53
 70
     1
102
RTVSPropertyOp54
 70
     1
102
RTVSPropertyOp55
 70
     1
102
RTVSPropertyOp56
 70
     1
102
RTVSPropertyOp57
 70
     1
102
RTVSPropertyOp58
 70
     1
102
RTVSPropertyOp59
 70
     1
102
RTVSPropertyOp60
 70
     1
102
RTVSPropertyOp61
 70
     1
102
RTVSPropertyOp62
 70
     1
  0
XRECORD
  5
9F8D
102
{ACAD_REACTORS
330
9F8C
102
}
330
9F8C
100
AcDbXrecord
280
     1
102
RTVSPost2010Prop28
280
     0
102
RTVSPost2010PropOp28
 70
     1
102
RTVSPost2010Prop29
280
     1
102
RTVSPost2010PropOp29
 70
     1
102
RTVSPost2010Prop30
280
     1
102
RTVSPost2010PropOp30
 70
     1
102
RTVSPost2010Prop31
280
     0
102
RTVSPost2010PropOp31
 70
     1
102
RTVSPost2010Prop32
280
     0
102
RTVSPost2010PropOp32
 70
     1
102
RTVSPost2010Prop33
280
     0
102
RTVSPost2010PropOp33
 70
     1
102
RTVSPost2010Prop34
280
     0
102
RTVSPost2010PropOp34
 70
     1
102
RTVSPost2010Prop35
280
     0
102
RTVSPost2010PropOp35
 70
     1
102
RTVSPost2010Prop36
280
     0
102
RTVSPost2010PropOp36
 70
     1
102
RTVSPost2010Prop37
 90
       50
102
RTVSPost2010PropOp37
 70
     1
102
RTVSPost2010Prop38
140
0.0
102
RTVSPost2010PropOp38
 70
     1
102
RTVSPost2010Prop39
140
1.0
102
RTVSPost2010PropOp39
 70
     1
102
RTVSPost2010Prop40
 90
        0
102
RTVSPost2010PropOp40
 70
     1
102
RTVSPost2010Prop41ColorIndex
 90
       18
102
RTVSPost2010Prop41ColorRGB
 90
        0
102
RTVSPost2010PropOp41
 70
     1
102
RTVSPost2010Prop42
 90
       50
102
RTVSPost2010PropOp42
 70
     1
102
RTVSPost2010Prop43
 90
        3
102
RTVSPost2010PropOp43
 70
     1
102
RTVSPost2010Prop44ColorIndex
 90
        5
102
RTVSPost2010Prop44ColorRGB
 90
      255
102
RTVSPost2010PropOp44
 70
     1
102
RTVSPost2010Prop45
280
     0
102
RTVSPost2010PropOp45
 70
     1
102
RTVSPost2010Prop46
 90
       50
102
RTVSPost2010PropOp46
 70
     1
102
RTVSPost2010Prop47
 90
       50
102
RTVSPost2010PropOp47
 70
     1
102
RTVSPost2010Prop48
 90
       50
102
RTVSPost2010PropOp48
 70
     1
102
RTVSPost2010Prop49
280
     0
102
RTVSPost2010PropOp49
 70
     1
102
RTVSPost2010Prop50
 90
       50
102
RTVSPost2010PropOp50
 70
     1
102
RTVSPost2010Prop51ColorIndex
 90
      256
102
RTVSPost2010Prop51ColorRGB
 90
-16777216
102
RTVSPost2010PropOp51
 70
     0
102
RTVSPost2010Prop52
140
1.0
102
RTVSPost2010PropOp52
 70
     0
102
RTVSPost2010Prop53
 90
        2
102
RTVSPost2010PropOp53
 70
     1
102
RTVSPost2010Prop54
  1
strokes_ogs.tif
102
RTVSPost2010PropOp54
 70
     1
102
RTVSPost2010Prop55
280
     0
102
RTVSPost2010PropOp55
 70
     1
102
RTVSPost2010Prop56
140
1.0
102
RTVSPost2010PropOp56
 70
     1
102
RTVSPost2010Prop57
140
1.0
102
RTVSPost2010PropOp57
 70
     1
102
RTVSPropertyOp0
 70
     1
102
RTVSPropertyOp1
 70
     1
102
RTVSPropertyOp2
 70
     1
102
RTVSPropertyOp3
 70
     1
102
RTVSPropertyOp4
 70
     1
102
RTVSPropertyOp5
 70
     1
102
RTVSPropertyOp6
 70
     1
102
RTVSPropertyOp7
 70
     1
102
RTVSPropertyOp8
 70
     1
102
RTVSPropertyOp9
 70
     1
102
RTVSPropertyOp10
 70
     1
102
RTVSPropertyOp11
 70
     1
102
RTVSPropertyOp12
 70
     1
102
RTVSPropertyOp13
 70
     1
102
RTVSPropertyOp14
 70
     1
102
RTVSPropertyOp15
 70
     1
102
RTVSPropertyOp16
 70
     1
102
RTVSPropertyOp17
 70
     1
102
RTVSPropertyOp18
 70
     1
102
RTVSPropertyOp19
 70
     1
102
RTVSPropertyOp20
 70
     1
102
RTVSPropertyOp21
 70
     1
102
RTVSPropertyOp22
 70
     1
102
RTVSPropertyOp23
 70
     1
102
RTVSPropertyOp24
 70
     1
102
RTVSPropertyOp25
 70
     1
102
RTVSPropertyOp26
 70
     1
102
RTVSPropertyOp27
 70
     1
102
RTVSPropertyOp28
 70
     1
102
RTVSPropertyOp29
 70
     1
102
RTVSPropertyOp30
 70
     1
102
RTVSPropertyOp31
 70
     1
102
RTVSPropertyOp32
 70
     1
102
RTVSPropertyOp33
 70
     1
102
RTVSPropertyOp34
 70
     1
102
RTVSPropertyOp35
 70
     1
102
RTVSPropertyOp36
 70
     1
102
RTVSPropertyOp37
 70
     1
102
RTVSPropertyOp38
 70
     1
102
RTVSPropertyOp39
 70
     1
102
RTVSPropertyOp40
 70
     1
102
RTVSPropertyOp41
 70
     1
102
RTVSPropertyOp42
 70
     1
102
RTVSPropertyOp43
 70
     1
102
RTVSPropertyOp44
 70
     1
102
RTVSPropertyOp45
 70
     1
102
RTVSPropertyOp46
 70
     1
102
RTVSPropertyOp47
 70
     1
102
RTVSPropertyOp48
 70
     1
102
RTVSPropertyOp49
 70
     1
102
RTVSPropertyOp50
 70
     1
102
RTVSPropertyOp51
 70
     0
102
RTVSPropertyOp52
 70
     0
102
RTVSPropertyOp53
 70
     1
102
RTVSPropertyOp54
 70
     1
102
RTVSPropertyOp55
 70
     1
102
RTVSPropertyOp56
 70
     1
102
RTVSPropertyOp57
 70
     1
102
RTVSPropertyOp58
 70
     1
102
RTVSPropertyOp59
 70
     1
102
RTVSPropertyOp60
 70
     1
102
RTVSPropertyOp61
 70
     1
102
RTVSPropertyOp62
 70
     1
  0
XRECORD
  5
9F87
102
{ACAD_REACTORS
330
9F86
102
}
330
9F86
100
AcDbXrecord
280
     1
102
RTVSPost2010Prop28
280
     0
102
RTVSPost2010PropOp28
 70
     1
102
RTVSPost2010Prop29
280
     1
102
RTVSPost2010PropOp29
 70
     1
102
RTVSPost2010Prop30
280
     1
102
RTVSPost2010PropOp30
 70
     1
102
RTVSPost2010Prop31
280
     0
102
RTVSPost2010PropOp31
 70
     1
102
RTVSPost2010Prop32
280
     0
102
RTVSPost2010PropOp32
 70
     1
102
RTVSPost2010Prop33
280
     0
102
RTVSPost2010PropOp33
 70
     1
102
RTVSPost2010Prop34
280
     0
102
RTVSPost2010PropOp34
 70
     1
102
RTVSPost2010Prop35
280
     0
102
RTVSPost2010PropOp35
 70
     1
102
RTVSPost2010Prop36
280
     0
102
RTVSPost2010PropOp36
 70
     1
102
RTVSPost2010Prop37
 90
       50
102
RTVSPost2010PropOp37
 70
     1
102
RTVSPost2010Prop38
140
0.0
102
RTVSPost2010PropOp38
 70
     1
102
RTVSPost2010Prop39
140
1.0
102
RTVSPost2010PropOp39
 70
     1
102
RTVSPost2010Prop40
 90
        0
102
RTVSPost2010PropOp40
 70
     1
102
RTVSPost2010Prop41ColorIndex
 90
       18
102
RTVSPost2010Prop41ColorRGB
 90
        0
102
RTVSPost2010PropOp41
 70
     1
102
RTVSPost2010Prop42
 90
       50
102
RTVSPost2010PropOp42
 70
     1
102
RTVSPost2010Prop43
 90
        3
102
RTVSPost2010PropOp43
 70
     1
102
RTVSPost2010Prop44ColorIndex
 90
        5
102
RTVSPost2010Prop44ColorRGB
 90
      255
102
RTVSPost2010PropOp44
 70
     1
102
RTVSPost2010Prop45
280
     0
102
RTVSPost2010PropOp45
 70
     1
102
RTVSPost2010Prop46
 90
       50
102
RTVSPost2010PropOp46
 70
     1
102
RTVSPost2010Prop47
 90
       50
102
RTVSPost2010PropOp47
 70
     1
102
RTVSPost2010Prop48
 90
       50
102
RTVSPost2010PropOp48
 70
     1
102
RTVSPost2010Prop49
280
     0
102
RTVSPost2010PropOp49
 70
     1
102
RTVSPost2010Prop50
 90
       50
102
RTVSPost2010PropOp50
 70
     1
102
RTVSPost2010Prop51ColorIndex
 90
      256
102
RTVSPost2010Prop51ColorRGB
 90
-16777216
102
RTVSPost2010PropOp51
 70
     0
102
RTVSPost2010Prop52
140
1.0
102
RTVSPost2010PropOp52
 70
     0
102
RTVSPost2010Prop53
 90
        2
102
RTVSPost2010PropOp53
 70
     1
102
RTVSPost2010Prop54
  1
strokes_ogs.tif
102
RTVSPost2010PropOp54
 70
     1
102
RTVSPost2010Prop55
280
     0
102
RTVSPost2010PropOp55
 70
     1
102
RTVSPost2010Prop56
140
1.0
102
RTVSPost2010PropOp56
 70
     1
102
RTVSPost2010Prop57
140
1.0
102
RTVSPost2010PropOp57
 70
     1
102
RTVSPropertyOp0
 70
     1
102
RTVSPropertyOp1
 70
     1
102
RTVSPropertyOp2
 70
     1
102
RTVSPropertyOp3
 70
     1
102
RTVSPropertyOp4
 70
     1
102
RTVSPropertyOp5
 70
     1
102
RTVSPropertyOp6
 70
     1
102
RTVSPropertyOp7
 70
     1
102
RTVSPropertyOp8
 70
     1
102
RTVSPropertyOp9
 70
     1
102
RTVSPropertyOp10
 70
     1
102
RTVSPropertyOp11
 70
     1
102
RTVSPropertyOp12
 70
     1
102
RTVSPropertyOp13
 70
     1
102
RTVSPropertyOp14
 70
     1
102
RTVSPropertyOp15
 70
     1
102
RTVSPropertyOp16
 70
     1
102
RTVSPropertyOp17
 70
     1
102
RTVSPropertyOp18
 70
     1
102
RTVSPropertyOp19
 70
     1
102
RTVSPropertyOp20
 70
     1
102
RTVSPropertyOp21
 70
     1
102
RTVSPropertyOp22
 70
     1
102
RTVSPropertyOp23
 70
     1
102
RTVSPropertyOp24
 70
     1
102
RTVSPropertyOp25
 70
     1
102
RTVSPropertyOp26
 70
     1
102
RTVSPropertyOp27
 70
     1
102
RTVSPropertyOp28
 70
     1
102
RTVSPropertyOp29
 70
     1
102
RTVSPropertyOp30
 70
     1
102
RTVSPropertyOp31
 70
     1
102
RTVSPropertyOp32
 70
     1
102
RTVSPropertyOp33
 70
     1
102
RTVSPropertyOp34
 70
     1
102
RTVSPropertyOp35
 70
     1
102
RTVSPropertyOp36
 70
     1
102
RTVSPropertyOp37
 70
     1
102
RTVSPropertyOp38
 70
     1
102
RTVSPropertyOp39
 70
     1
102
RTVSPropertyOp40
 70
     1
102
RTVSPropertyOp41
 70
     1
102
RTVSPropertyOp42
 70
     1
102
RTVSPropertyOp43
 70
     1
102
RTVSPropertyOp44
 70
     1
102
RTVSPropertyOp45
 70
     1
102
RTVSPropertyOp46
 70
     1
102
RTVSPropertyOp47
 70
     1
102
RTVSPropertyOp48
 70
     1
102
RTVSPropertyOp49
 70
     1
102
RTVSPropertyOp50
 70
     1
102
RTVSPropertyOp51
 70
     0
102
RTVSPropertyOp52
 70
     0
102
RTVSPropertyOp53
 70
     1
102
RTVSPropertyOp54
 70
     1
102
RTVSPropertyOp55
 70
     1
102
RTVSPropertyOp56
 70
     1
102
RTVSPropertyOp57
 70
     1
102
RTVSPropertyOp58
 70
     1
102
RTVSPropertyOp59
 70
     1
102
RTVSPropertyOp60
 70
     1
102
RTVSPropertyOp61
 70
     1
102
RTVSPropertyOp62
 70
     1
  0
XRECORD
  5
9F89
102
{ACAD_REACTORS
330
9F88
102
}
330
9F88
100
AcDbXrecord
280
     1
102
RTVSPost2010Prop28
280
     0
102
RTVSPost2010PropOp28
 70
     1
102
RTVSPost2010Prop29
280
     1
102
RTVSPost2010PropOp29
 70
     1
102
RTVSPost2010Prop30
280
     1
102
RTVSPost2010PropOp30
 70
     1
102
RTVSPost2010Prop31
280
     0
102
RTVSPost2010PropOp31
 70
     1
102
RTVSPost2010Prop32
280
     0
102
RTVSPost2010PropOp32
 70
     1
102
RTVSPost2010Prop33
280
     0
102
RTVSPost2010PropOp33
 70
     1
102
RTVSPost2010Prop34
280
     0
102
RTVSPost2010PropOp34
 70
     1
102
RTVSPost2010Prop35
280
     0
102
RTVSPost2010PropOp35
 70
     1
102
RTVSPost2010Prop36
280
     0
102
RTVSPost2010PropOp36
 70
     1
102
RTVSPost2010Prop37
 90
       50
102
RTVSPost2010PropOp37
 70
     1
102
RTVSPost2010Prop38
140
0.0
102
RTVSPost2010PropOp38
 70
     1
102
RTVSPost2010Prop39
140
1.0
102
RTVSPost2010PropOp39
 70
     1
102
RTVSPost2010Prop40
 90
        0
102
RTVSPost2010PropOp40
 70
     1
102
RTVSPost2010Prop41ColorIndex
 90
       18
102
RTVSPost2010Prop41ColorRGB
 90
        0
102
RTVSPost2010PropOp41
 70
     1
102
RTVSPost2010Prop42
 90
       50
102
RTVSPost2010PropOp42
 70
     1
102
RTVSPost2010Prop43
 90
        3
102
RTVSPost2010PropOp43
 70
     1
102
RTVSPost2010Prop44ColorIndex
 90
        5
102
RTVSPost2010Prop44ColorRGB
 90
      255
102
RTVSPost2010PropOp44
 70
     1
102
RTVSPost2010Prop45
280
     0
102
RTVSPost2010PropOp45
 70
     1
102
RTVSPost2010Prop46
 90
       50
102
RTVSPost2010PropOp46
 70
     1
102
RTVSPost2010Prop47
 90
       50
102
RTVSPost2010PropOp47
 70
     1
102
RTVSPost2010Prop48
 90
       50
102
RTVSPost2010PropOp48
 70
     1
102
RTVSPost2010Prop49
280
     0
102
RTVSPost2010PropOp49
 70
     1
102
RTVSPost2010Prop50
 90
       50
102
RTVSPost2010PropOp50
 70
     1
102
RTVSPost2010Prop51ColorIndex
 90
      256
102
RTVSPost2010Prop51ColorRGB
 90
-16777216
102
RTVSPost2010PropOp51
 70
     0
102
RTVSPost2010Prop52
140
1.0
102
RTVSPost2010PropOp52
 70
     0
102
RTVSPost2010Prop53
 90
        2
102
RTVSPost2010PropOp53
 70
     1
102
RTVSPost2010Prop54
  1
strokes_ogs.tif
102
RTVSPost2010PropOp54
 70
     1
102
RTVSPost2010Prop55
280
     0
102
RTVSPost2010PropOp55
 70
     1
102
RTVSPost2010Prop56
140
1.0
102
RTVSPost2010PropOp56
 70
     1
102
RTVSPost2010Prop57
140
1.0
102
RTVSPost2010PropOp57
 70
     1
102
RTVSPropertyOp0
 70
     1
102
RTVSPropertyOp1
 70
     1
102
RTVSPropertyOp2
 70
     1
102
RTVSPropertyOp3
 70
     1
102
RTVSPropertyOp4
 70
     1
102
RTVSPropertyOp5
 70
     1
102
RTVSPropertyOp6
 70
     1
102
RTVSPropertyOp7
 70
     1
102
RTVSPropertyOp8
 70
     1
102
RTVSPropertyOp9
 70
     1
102
RTVSPropertyOp10
 70
     1
102
RTVSPropertyOp11
 70
     1
102
RTVSPropertyOp12
 70
     1
102
RTVSPropertyOp13
 70
     1
102
RTVSPropertyOp14
 70
     1
102
RTVSPropertyOp15
 70
     1
102
RTVSPropertyOp16
 70
     1
102
RTVSPropertyOp17
 70
     1
102
RTVSPropertyOp18
 70
     1
102
RTVSPropertyOp19
 70
     1
102
RTVSPropertyOp20
 70
     1
102
RTVSPropertyOp21
 70
     1
102
RTVSPropertyOp22
 70
     1
102
RTVSPropertyOp23
 70
     1
102
RTVSPropertyOp24
 70
     1
102
RTVSPropertyOp25
 70
     1
102
RTVSPropertyOp26
 70
     1
102
RTVSPropertyOp27
 70
     1
102
RTVSPropertyOp28
 70
     1
102
RTVSPropertyOp29
 70
     1
102
RTVSPropertyOp30
 70
     1
102
RTVSPropertyOp31
 70
     1
102
RTVSPropertyOp32
 70
     1
102
RTVSPropertyOp33
 70
     1
102
RTVSPropertyOp34
 70
     1
102
RTVSPropertyOp35
 70
     1
102
RTVSPropertyOp36
 70
     1
102
RTVSPropertyOp37
 70
     1
102
RTVSPropertyOp38
 70
     1
102
RTVSPropertyOp39
 70
     1
102
RTVSPropertyOp40
 70
     1
102
RTVSPropertyOp41
 70
     1
102
RTVSPropertyOp42
 70
     1
102
RTVSPropertyOp43
 70
     1
102
RTVSPropertyOp44
 70
     1
102
RTVSPropertyOp45
 70
     1
102
RTVSPropertyOp46
 70
     1
102
RTVSPropertyOp47
 70
     1
102
RTVSPropertyOp48
 70
     1
102
RTVSPropertyOp49
 70
     1
102
RTVSPropertyOp50
 70
     1
102
RTVSPropertyOp51
 70
     0
102
RTVSPropertyOp52
 70
     0
102
RTVSPropertyOp53
 70
     1
102
RTVSPropertyOp54
 70
     1
102
RTVSPropertyOp55
 70
     1
102
RTVSPropertyOp56
 70
     1
102
RTVSPropertyOp57
 70
     1
102
RTVSPropertyOp58
 70
     1
102
RTVSPropertyOp59
 70
     1
102
RTVSPropertyOp60
 70
     1
102
RTVSPropertyOp61
 70
     1
102
RTVSPropertyOp62
 70
     1
  0
XRECORD
  5
9F7F
102
{ACAD_REACTORS
330
9F7E
102
}
330
9F7E
100
AcDbXrecord
280
     1
102
RTVSPost2010Prop28
280
     0
102
RTVSPost2010PropOp28
 70
     1
102
RTVSPost2010Prop29
280
     1
102
RTVSPost2010PropOp29
 70
     1
102
RTVSPost2010Prop30
280
     1
102
RTVSPost2010PropOp30
 70
     1
102
RTVSPost2010Prop31
280
     0
102
RTVSPost2010PropOp31
 70
     1
102
RTVSPost2010Prop32
280
     0
102
RTVSPost2010PropOp32
 70
     1
102
RTVSPost2010Prop33
280
     0
102
RTVSPost2010PropOp33
 70
     1
102
RTVSPost2010Prop34
280
     0
102
RTVSPost2010PropOp34
 70
     1
102
RTVSPost2010Prop35
280
     0
102
RTVSPost2010PropOp35
 70
     1
102
RTVSPost2010Prop36
280
     0
102
RTVSPost2010PropOp36
 70
     1
102
RTVSPost2010Prop37
 90
       50
102
RTVSPost2010PropOp37
 70
     1
102
RTVSPost2010Prop38
140
0.0
102
RTVSPost2010PropOp38
 70
     1
102
RTVSPost2010Prop39
140
1.0
102
RTVSPost2010PropOp39
 70
     1
102
RTVSPost2010Prop40
 90
        0
102
RTVSPost2010PropOp40
 70
     1
102
RTVSPost2010Prop41ColorIndex
 90
       18
102
RTVSPost2010Prop41ColorRGB
 90
        0
102
RTVSPost2010PropOp41
 70
     1
102
RTVSPost2010Prop42
 90
       50
102
RTVSPost2010PropOp42
 70
     1
102
RTVSPost2010Prop43
 90
        3
102
RTVSPost2010PropOp43
 70
     1
102
RTVSPost2010Prop44ColorIndex
 90
        5
102
RTVSPost2010Prop44ColorRGB
 90
      255
102
RTVSPost2010PropOp44
 70
     1
102
RTVSPost2010Prop45
280
     0
102
RTVSPost2010PropOp45
 70
     1
102
RTVSPost2010Prop46
 90
       50
102
RTVSPost2010PropOp46
 70
     1
102
RTVSPost2010Prop47
 90
       50
102
RTVSPost2010PropOp47
 70
     1
102
RTVSPost2010Prop48
 90
       50
102
RTVSPost2010PropOp48
 70
     1
102
RTVSPost2010Prop49
280
     0
102
RTVSPost2010PropOp49
 70
     1
102
RTVSPost2010Prop50
 90
       50
102
RTVSPost2010PropOp50
 70
     1
102
RTVSPost2010Prop51ColorIndex
 90
      256
102
RTVSPost2010Prop51ColorRGB
 90
-16777216
102
RTVSPost2010PropOp51
 70
     0
102
RTVSPost2010Prop52
140
1.0
102
RTVSPost2010PropOp52
 70
     0
102
RTVSPost2010Prop53
 90
        2
102
RTVSPost2010PropOp53
 70
     1
102
RTVSPost2010Prop54
  1
strokes_ogs.tif
102
RTVSPost2010PropOp54
 70
     1
102
RTVSPost2010Prop55
280
     0
102
RTVSPost2010PropOp55
 70
     1
102
RTVSPost2010Prop56
140
1.0
102
RTVSPost2010PropOp56
 70
     1
102
RTVSPost2010Prop57
140
1.0
102
RTVSPost2010PropOp57
 70
     1
102
RTVSPropertyOp0
 70
     1
102
RTVSPropertyOp1
 70
     1
102
RTVSPropertyOp2
 70
     1
102
RTVSPropertyOp3
 70
     1
102
RTVSPropertyOp4
 70
     1
102
RTVSPropertyOp5
 70
     1
102
RTVSPropertyOp6
 70
     1
102
RTVSPropertyOp7
 70
     1
102
RTVSPropertyOp8
 70
     1
102
RTVSPropertyOp9
 70
     1
102
RTVSPropertyOp10
 70
     1
102
RTVSPropertyOp11
 70
     1
102
RTVSPropertyOp12
 70
     1
102
RTVSPropertyOp13
 70
     1
102
RTVSPropertyOp14
 70
     1
102
RTVSPropertyOp15
 70
     1
102
RTVSPropertyOp16
 70
     1
102
RTVSPropertyOp17
 70
     1
102
RTVSPropertyOp18
 70
     1
102
RTVSPropertyOp19
 70
     1
102
RTVSPropertyOp20
 70
     1
102
RTVSPropertyOp21
 70
     1
102
RTVSPropertyOp22
 70
     1
102
RTVSPropertyOp23
 70
     1
102
RTVSPropertyOp24
 70
     1
102
RTVSPropertyOp25
 70
     1
102
RTVSPropertyOp26
 70
     1
102
RTVSPropertyOp27
 70
     1
102
RTVSPropertyOp28
 70
     1
102
RTVSPropertyOp29
 70
     1
102
RTVSPropertyOp30
 70
     1
102
RTVSPropertyOp31
 70
     1
102
RTVSPropertyOp32
 70
     1
102
RTVSPropertyOp33
 70
     1
102
RTVSPropertyOp34
 70
     1
102
RTVSPropertyOp35
 70
     1
102
RTVSPropertyOp36
 70
     1
102
RTVSPropertyOp37
 70
     1
102
RTVSPropertyOp38
 70
     1
102
RTVSPropertyOp39
 70
     1
102
RTVSPropertyOp40
 70
     1
102
RTVSPropertyOp41
 70
     1
102
RTVSPropertyOp42
 70
     1
102
RTVSPropertyOp43
 70
     1
102
RTVSPropertyOp44
 70
     1
102
RTVSPropertyOp45
 70
     1
102
RTVSPropertyOp46
 70
     1
102
RTVSPropertyOp47
 70
     1
102
RTVSPropertyOp48
 70
     1
102
RTVSPropertyOp49
 70
     1
102
RTVSPropertyOp50
 70
     1
102
RTVSPropertyOp51
 70
     0
102
RTVSPropertyOp52
 70
     0
102
RTVSPropertyOp53
 70
     1
102
RTVSPropertyOp54
 70
     1
102
RTVSPropertyOp55
 70
     1
102
RTVSPropertyOp56
 70
     1
102
RTVSPropertyOp57
 70
     1
102
RTVSPropertyOp58
 70
     1
102
RTVSPropertyOp59
 70
     1
102
RTVSPropertyOp60
 70
     1
102
RTVSPropertyOp61
 70
     1
102
RTVSPropertyOp62
 70
     1
  0
XRECORD
  5
9F73
102
{ACAD_REACTORS
330
9F72
102
}
330
9F72
100
AcDbXrecord
280
     1
102
RTVSPost2010Prop28
280
     0
102
RTVSPost2010PropOp28
 70
     1
102
RTVSPost2010Prop29
280
     1
102
RTVSPost2010PropOp29
 70
     1
102
RTVSPost2010Prop30
280
     1
102
RTVSPost2010PropOp30
 70
     1
102
RTVSPost2010Prop31
280
     0
102
RTVSPost2010PropOp31
 70
     1
102
RTVSPost2010Prop32
280
     0
102
RTVSPost2010PropOp32
 70
     1
102
RTVSPost2010Prop33
280
     0
102
RTVSPost2010PropOp33
 70
     1
102
RTVSPost2010Prop34
280
     0
102
RTVSPost2010PropOp34
 70
     1
102
RTVSPost2010Prop35
280
     0
102
RTVSPost2010PropOp35
 70
     1
102
RTVSPost2010Prop36
280
     0
102
RTVSPost2010PropOp36
 70
     1
102
RTVSPost2010Prop37
 90
       50
102
RTVSPost2010PropOp37
 70
     1
102
RTVSPost2010Prop38
140
0.0
102
RTVSPost2010PropOp38
 70
     1
102
RTVSPost2010Prop39
140
1.0
102
RTVSPost2010PropOp39
 70
     1
102
RTVSPost2010Prop40
 90
        0
102
RTVSPost2010PropOp40
 70
     1
102
RTVSPost2010Prop41ColorIndex
 90
       18
102
RTVSPost2010Prop41ColorRGB
 90
        0
102
RTVSPost2010PropOp41
 70
     1
102
RTVSPost2010Prop42
 90
       50
102
RTVSPost2010PropOp42
 70
     1
102
RTVSPost2010Prop43
 90
        3
102
RTVSPost2010PropOp43
 70
     1
102
RTVSPost2010Prop44ColorIndex
 90
        5
102
RTVSPost2010Prop44ColorRGB
 90
      255
102
RTVSPost2010PropOp44
 70
     1
102
RTVSPost2010Prop45
280
     0
102
RTVSPost2010PropOp45
 70
     1
102
RTVSPost2010Prop46
 90
       50
102
RTVSPost2010PropOp46
 70
     1
102
RTVSPost2010Prop47
 90
       50
102
RTVSPost2010PropOp47
 70
     1
102
RTVSPost2010Prop48
 90
       50
102
RTVSPost2010PropOp48
 70
     1
102
RTVSPost2010Prop49
280
     0
102
RTVSPost2010PropOp49
 70
     1
102
RTVSPost2010Prop50
 90
       50
102
RTVSPost2010PropOp50
 70
     1
102
RTVSPost2010Prop51ColorIndex
 90
      256
102
RTVSPost2010Prop51ColorRGB
 90
-16777216
102
RTVSPost2010PropOp51
 70
     0
102
RTVSPost2010Prop52
140
1.0
102
RTVSPost2010PropOp52
 70
     0
102
RTVSPost2010Prop53
 90
        2
102
RTVSPost2010PropOp53
 70
     1
102
RTVSPost2010Prop54
  1
strokes_ogs.tif
102
RTVSPost2010PropOp54
 70
     1
102
RTVSPost2010Prop55
280
     0
102
RTVSPost2010PropOp55
 70
     1
102
RTVSPost2010Prop56
140
1.0
102
RTVSPost2010PropOp56
 70
     1
102
RTVSPost2010Prop57
140
1.0
102
RTVSPost2010PropOp57
 70
     1
102
RTVSPropertyOp0
 70
     1
102
RTVSPropertyOp1
 70
     1
102
RTVSPropertyOp2
 70
     1
102
RTVSPropertyOp3
 70
     1
102
RTVSPropertyOp4
 70
     1
102
RTVSPropertyOp5
 70
     1
102
RTVSPropertyOp6
 70
     1
102
RTVSPropertyOp7
 70
     1
102
RTVSPropertyOp8
 70
     1
102
RTVSPropertyOp9
 70
     1
102
RTVSPropertyOp10
 70
     1
102
RTVSPropertyOp11
 70
     1
102
RTVSPropertyOp12
 70
     1
102
RTVSPropertyOp13
 70
     1
102
RTVSPropertyOp14
 70
     1
102
RTVSPropertyOp15
 70
     1
102
RTVSPropertyOp16
 70
     1
102
RTVSPropertyOp17
 70
     1
102
RTVSPropertyOp18
 70
     1
102
RTVSPropertyOp19
 70
     1
102
RTVSPropertyOp20
 70
     1
102
RTVSPropertyOp21
 70
     1
102
RTVSPropertyOp22
 70
     1
102
RTVSPropertyOp23
 70
     1
102
RTVSPropertyOp24
 70
     1
102
RTVSPropertyOp25
 70
     1
102
RTVSPropertyOp26
 70
     1
102
RTVSPropertyOp27
 70
     1
102
RTVSPropertyOp28
 70
     1
102
RTVSPropertyOp29
 70
     1
102
RTVSPropertyOp30
 70
     1
102
RTVSPropertyOp31
 70
     1
102
RTVSPropertyOp32
 70
     1
102
RTVSPropertyOp33
 70
     1
102
RTVSPropertyOp34
 70
     1
102
RTVSPropertyOp35
 70
     1
102
RTVSPropertyOp36
 70
     1
102
RTVSPropertyOp37
 70
     1
102
RTVSPropertyOp38
 70
     1
102
RTVSPropertyOp39
 70
     1
102
RTVSPropertyOp40
 70
     1
102
RTVSPropertyOp41
 70
     1
102
RTVSPropertyOp42
 70
     1
102
RTVSPropertyOp43
 70
     1
102
RTVSPropertyOp44
 70
     1
102
RTVSPropertyOp45
 70
     1
102
RTVSPropertyOp46
 70
     1
102
RTVSPropertyOp47
 70
     1
102
RTVSPropertyOp48
 70
     1
102
RTVSPropertyOp49
 70
     1
102
RTVSPropertyOp50
 70
     1
102
RTVSPropertyOp51
 70
     0
102
RTVSPropertyOp52
 70
     0
102
RTVSPropertyOp53
 70
     1
102
RTVSPropertyOp54
 70
     1
102
RTVSPropertyOp55
 70
     1
102
RTVSPropertyOp56
 70
     1
102
RTVSPropertyOp57
 70
     1
102
RTVSPropertyOp58
 70
     1
102
RTVSPropertyOp59
 70
     1
102
RTVSPropertyOp60
 70
     1
102
RTVSPropertyOp61
 70
     1
102
RTVSPropertyOp62
 70
     1
  0
XRECORD
  5
9F8B
102
{ACAD_REACTORS
330
9F8A
102
}
330
9F8A
100
AcDbXrecord
280
     1
102
RTVSPost2010Prop28
280
     0
102
RTVSPost2010PropOp28
 70
     1
102
RTVSPost2010Prop29
280
     1
102
RTVSPost2010PropOp29
 70
     1
102
RTVSPost2010Prop30
280
     1
102
RTVSPost2010PropOp30
 70
     1
102
RTVSPost2010Prop31
280
     0
102
RTVSPost2010PropOp31
 70
     1
102
RTVSPost2010Prop32
280
     0
102
RTVSPost2010PropOp32
 70
     1
102
RTVSPost2010Prop33
280
     0
102
RTVSPost2010PropOp33
 70
     1
102
RTVSPost2010Prop34
280
     0
102
RTVSPost2010PropOp34
 70
     1
102
RTVSPost2010Prop35
280
     0
102
RTVSPost2010PropOp35
 70
     1
102
RTVSPost2010Prop36
280
     0
102
RTVSPost2010PropOp36
 70
     1
102
RTVSPost2010Prop37
 90
       50
102
RTVSPost2010PropOp37
 70
     1
102
RTVSPost2010Prop38
140
0.0
102
RTVSPost2010PropOp38
 70
     1
102
RTVSPost2010Prop39
140
1.0
102
RTVSPost2010PropOp39
 70
     1
102
RTVSPost2010Prop40
 90
        0
102
RTVSPost2010PropOp40
 70
     1
102
RTVSPost2010Prop41ColorIndex
 90
       18
102
RTVSPost2010Prop41ColorRGB
 90
        0
102
RTVSPost2010PropOp41
 70
     1
102
RTVSPost2010Prop42
 90
       50
102
RTVSPost2010PropOp42
 70
     1
102
RTVSPost2010Prop43
 90
        3
102
RTVSPost2010PropOp43
 70
     1
102
RTVSPost2010Prop44ColorIndex
 90
        5
102
RTVSPost2010Prop44ColorRGB
 90
      255
102
RTVSPost2010PropOp44
 70
     1
102
RTVSPost2010Prop45
280
     0
102
RTVSPost2010PropOp45
 70
     1
102
RTVSPost2010Prop46
 90
       50
102
RTVSPost2010PropOp46
 70
     1
102
RTVSPost2010Prop47
 90
       50
102
RTVSPost2010PropOp47
 70
     1
102
RTVSPost2010Prop48
 90
       50
102
RTVSPost2010PropOp48
 70
     1
102
RTVSPost2010Prop49
280
     0
102
RTVSPost2010PropOp49
 70
     1
102
RTVSPost2010Prop50
 90
       50
102
RTVSPost2010PropOp50
 70
     1
102
RTVSPost2010Prop51ColorIndex
 90
      256
102
RTVSPost2010Prop51ColorRGB
 90
-16777216
102
RTVSPost2010PropOp51
 70
     0
102
RTVSPost2010Prop52
140
1.0
102
RTVSPost2010PropOp52
 70
     0
102
RTVSPost2010Prop53
 90
        2
102
RTVSPost2010PropOp53
 70
     1
102
RTVSPost2010Prop54
  1
strokes_ogs.tif
102
RTVSPost2010PropOp54
 70
     1
102
RTVSPost2010Prop55
280
     0
102
RTVSPost2010PropOp55
 70
     1
102
RTVSPost2010Prop56
140
1.0
102
RTVSPost2010PropOp56
 70
     1
102
RTVSPost2010Prop57
140
1.0
102
RTVSPost2010PropOp57
 70
     1
102
RTVSPropertyOp0
 70
     1
102
RTVSPropertyOp1
 70
     1
102
RTVSPropertyOp2
 70
     1
102
RTVSPropertyOp3
 70
     1
102
RTVSPropertyOp4
 70
     1
102
RTVSPropertyOp5
 70
     1
102
RTVSPropertyOp6
 70
     1
102
RTVSPropertyOp7
 70
     1
102
RTVSPropertyOp8
 70
     1
102
RTVSPropertyOp9
 70
     1
102
RTVSPropertyOp10
 70
     1
102
RTVSPropertyOp11
 70
     1
102
RTVSPropertyOp12
 70
     1
102
RTVSPropertyOp13
 70
     1
102
RTVSPropertyOp14
 70
     1
102
RTVSPropertyOp15
 70
     1
102
RTVSPropertyOp16
 70
     1
102
RTVSPropertyOp17
 70
     1
102
RTVSPropertyOp18
 70
     1
102
RTVSPropertyOp19
 70
     1
102
RTVSPropertyOp20
 70
     1
102
RTVSPropertyOp21
 70
     1
102
RTVSPropertyOp22
 70
     1
102
RTVSPropertyOp23
 70
     1
102
RTVSPropertyOp24
 70
     1
102
RTVSPropertyOp25
 70
     1
102
RTVSPropertyOp26
 70
     1
102
RTVSPropertyOp27
 70
     1
102
RTVSPropertyOp28
 70
     1
102
RTVSPropertyOp29
 70
     1
102
RTVSPropertyOp30
 70
     1
102
RTVSPropertyOp31
 70
     1
102
RTVSPropertyOp32
 70
     1
102
RTVSPropertyOp33
 70
     1
102
RTVSPropertyOp34
 70
     1
102
RTVSPropertyOp35
 70
     1
102
RTVSPropertyOp36
 70
     1
102
RTVSPropertyOp37
 70
     1
102
RTVSPropertyOp38
 70
     1
102
RTVSPropertyOp39
 70
     1
102
RTVSPropertyOp40
 70
     1
102
RTVSPropertyOp41
 70
     1
102
RTVSPropertyOp42
 70
     1
102
RTVSPropertyOp43
 70
     1
102
RTVSPropertyOp44
 70
     1
102
RTVSPropertyOp45
 70
     1
102
RTVSPropertyOp46
 70
     1
102
RTVSPropertyOp47
 70
     1
102
RTVSPropertyOp48
 70
     1
102
RTVSPropertyOp49
 70
     1
102
RTVSPropertyOp50
 70
     1
102
RTVSPropertyOp51
 70
     0
102
RTVSPropertyOp52
 70
     0
102
RTVSPropertyOp53
 70
     1
102
RTVSPropertyOp54
 70
     1
102
RTVSPropertyOp55
 70
     1
102
RTVSPropertyOp56
 70
     1
102
RTVSPropertyOp57
 70
     1
102
RTVSPropertyOp58
 70
     1
102
RTVSPropertyOp59
 70
     1
102
RTVSPropertyOp60
 70
     1
102
RTVSPropertyOp61
 70
     1
102
RTVSPropertyOp62
 70
     1
  0
ENDSEC
  0
EOF
