  0
SECTION
  2
HEADER
  9
$ACADVER
  1
AC1015
  9
$ACADMAINTVER
 70
    20
  9
$DWGCODEPAGE
  3
ANSI_932
  9
$INSBASE
 10
0.0
 20
0.0
 30
0.0
  9
$EXTMIN
 10
10.0
 20
9.999999999999998
 30
0.0
  9
$EXTMAX
 10
386.6868149999999
 20
196.1172239999999
 30
0.0
  9
$LIMMIN
 10
0.0
 20
0.0
  9
$LIMMAX
 10
396.0
 20
273.0
  9
$ORTHOMODE
 70
     1
  9
$REGENMODE
 70
     1
  9
$FILLMODE
 70
     1
  9
$QTEXTMODE
 70
     0
  9
$MIRRTEXT
 70
     1
  9
$LTSCALE
 40
20.0
  9
$ATTMODE
 70
     1
  9
$TEXTSIZE
 40
5.0
  9
$TRACEWID
 40
1.0
  9
$TEXTSTYLE
  7
STANDARD
  9
$CLAYER
  8
0
  9
$CELTYPE
  6
BYLAYER
  9
$CECOLOR
 62
   256
  9
$CELTSCALE
 40
1.0
  9
$DISPSILH
 70
     0
  9
$DIMSCALE
 40
1.0
  9
$DIMASZ
 40
3.0
  9
$DIMEXO
 40
1.0
  9
$DIMDLI
 40
10.0
  9
$DIMRND
 40
0.0
  9
$DIMDLE
 40
0.0
  9
$DIMEXE
 40
1.0
  9
$DIMTP
 40
0.0
  9
$DIMTM
 40
0.0
  9
$DIMTXT
 40
3.2
  9
$DIMCEN
 40
0.0
  9
$DIMTSZ
 40
0.0
  9
$DIMTOL
 70
     0
  9
$DIMLIM
 70
     0
  9
$DIMTIH
 70
     0
  9
$DIMTOH
 70
     0
  9
$DIMSE1
 70
     0
  9
$DIMSE2
 70
     0
  9
$DIMTAD
 70
     3
  9
$DIMZIN
 70
     8
  9
$DIMBLK
  1

  9
$DIMASO
 70
     1
  9
$DIMSHO
 70
     1
  9
$DIMPOST
  1

  9
$DIMAPOST
  1

  9
$DIMALT
 70
     0
  9
$DIMALTD
 70
     2
  9
$DIMALTF
 40
25.4
  9
$DIMLFAC
 40
1.0
  9
$DIMTOFL
 70
     1
  9
$DIMTVP
 40
0.0
  9
$DIMTIX
 70
     0
  9
$DIMSOXD
 70
     0
  9
$DIMSAH
 70
     1
  9
$DIMBLK1
  1
OPEN
  9
$DIMBLK2
  1
OPEN
  9
$DIMSTYLE
  2
STANDARD
  9
$DIMCLRD
 70
     0
  9
$DIMCLRE
 70
     0
  9
$DIMCLRT
 70
     0
  9
$DIMTFAC
 40
1.0
  9
$DIMGAP
 40
1.0
  9
$DIMJUST
 70
     0
  9
$DIMSD1
 70
     0
  9
$DIMSD2
 70
     0
  9
$DIMTOLJ
 70
     1
  9
$DIMTZIN
 70
     0
  9
$DIMALTZ
 70
     0
  9
$DIMALTTZ
 70
     0
  9
$DIMUPT
 70
     0
  9
$DIMDEC
 70
     4
  9
$DIMTDEC
 70
     4
  9
$DIMALTU
 70
     2
  9
$DIMALTTD
 70
     2
  9
$DIMTXSTY
  7
STANDARD
  9
$DIMAUNIT
 70
     0
  9
$DIMADEC
 70
     0
  9
$DIMALTRND
 40
0.0
  9
$DIMAZIN
 70
     0
  9
$DIMDSEP
 70
    46
  9
$DIMATFIT
 70
     3
  9
$DIMFRAC
 70
     0
  9
$DIMLDRBLK
  1
OPEN
  9
$DIMLUNIT
 70
     2
  9
$DIMLWD
 70
    -2
  9
$DIMLWE
 70
    -2
  9
$DIMTMOVE
 70
     0
  9
$LUNITS
 70
     2
  9
$LUPREC
 70
     4
  9
$SKETCHINC
 40
1.0
  9
$FILLETRAD
 40
0.0
  9
$AUNITS
 70
     0
  9
$AUPREC
 70
     2
  9
$MENU
  1
.
  9
$ELEVATION
 40
0.0
  9
$PELEVATION
 40
0.0
  9
$THICKNESS
 40
0.0
  9
$LIMCHECK
 70
     0
  9
$CHAMFERA
 40
10.0
  9
$CHAMFERB
 40
10.0
  9
$CHAMFERC
 40
0.0
  9
$CHAMFERD
 40
0.0
  9
$SKPOLY
 70
     0
  9
$TDCREATE
 40
2450950.407545139
  9
$TDUCREATE
 40
2450950.032545139
  9
$TDUPDATE
 40
2457192.603818299
  9
$TDUUPDATE
 40
2457192.228818299
  9
$TDINDWG
 40
0.0006754514
  9
$TDUSRTIMER
 40
0.0006749653
  9
$USRTIMER
 70
     1
  9
$ANGBASE
 50
0.0
  9
$ANGDIR
 70
     0
  9
$PDMODE
 70
     0
  9
$PDSIZE
 40
0.0
  9
$PLINEWID
 40
0.0
  9
$SPLFRAME
 70
     0
  9
$SPLINETYPE
 70
     6
  9
$SPLINESEGS
 70
     8
  9
$HANDSEED
  5
A381
  9
$SURFTAB1
 70
     6
  9
$SURFTAB2
 70
     6
  9
$SURFTYPE
 70
     6
  9
$SURFU
 70
     6
  9
$SURFV
 70
     6
  9
$UCSBASE
  2

  9
$UCSNAME
  2

  9
$UCSORG
 10
0.0
 20
0.0
 30
0.0
  9
$UCSXDIR
 10
1.0
 20
0.0
 30
0.0
  9
$UCSYDIR
 10
0.0
 20
1.0
 30
0.0
  9
$UCSORTHOREF
  2

  9
$UCSORTHOVIEW
 70
     0
  9
$UCSORGTOP
 10
0.0
 20
0.0
 30
0.0
  9
$UCSORGBOTTOM
 10
0.0
 20
0.0
 30
0.0
  9
$UCSORGLEFT
 10
0.0
 20
0.0
 30
0.0
  9
$UCSORGRIGHT
 10
0.0
 20
0.0
 30
0.0
  9
$UCSORGFRONT
 10
0.0
 20
0.0
 30
0.0
  9
$UCSORGBACK
 10
0.0
 20
0.0
 30
0.0
  9
$PUCSBASE
  2

  9
$PUCSNAME
  2

  9
$PUCSORG
 10
0.0
 20
0.0
 30
0.0
  9
$PUCSXDIR
 10
1.0
 20
0.0
 30
0.0
  9
$PUCSYDIR
 10
0.0
 20
1.0
 30
0.0
  9
$PUCSORTHOREF
  2

  9
$PUCSORTHOVIEW
 70
     0
  9
$PUCSORGTOP
 10
0.0
 20
0.0
 30
0.0
  9
$PUCSORGBOTTOM
 10
0.0
 20
0.0
 30
0.0
  9
$PUCSORGLEFT
 10
0.0
 20
0.0
 30
0.0
  9
$PUCSORGRIGHT
 10
0.0
 20
0.0
 30
0.0
  9
$PUCSORGFRONT
 10
0.0
 20
0.0
 30
0.0
  9
$PUCSORGBACK
 10
0.0
 20
0.0
 30
0.0
  9
$USERI1
 70
     0
  9
$USERI2
 70
     0
  9
$USERI3
 70
     0
  9
$USERI4
 70
     0
  9
$USERI5
 70
     0
  9
$USERR1
 40
0.0
  9
$USERR2
 40
0.0
  9
$USERR3
 40
0.0
  9
$USERR4
 40
0.0
  9
$USERR5
 40
0.0
  9
$WORLDVIEW
 70
     1
  9
$SHADEDGE
 70
     3
  9
$SHADEDIF
 70
    70
  9
$TILEMODE
 70
     1
  9
$MAXACTVP
 70
    16
  9
$PINSBASE
 10
0.0
 20
0.0
 30
0.0
  9
$PLIMCHECK
 70
     0
  9
$PEXTMIN
 10
1.000000000000000E+20
 20
1.000000000000000E+20
 30
1.000000000000000E+20
  9
$PEXTMAX
 10
-1.000000000000000E+20
 20
-1.000000000000000E+20
 30
-1.000000000000000E+20
  9
$PLIMMIN
 10
0.0
 20
0.0
  9
$PLIMMAX
 10
420.0
 20
297.0
  9
$UNITMODE
 70
     0
  9
$VISRETAIN
 70
     0
  9
$PLINEGEN
 70
     0
  9
$PSLTSCALE
 70
     0
  9
$TREEDEPTH
 70
  3020
  9
$CMLSTYLE
  2
STANDARD
  9
$CMLJUST
 70
     0
  9
$CMLSCALE
 40
1.0
  9
$PROXYGRAPHICS
 70
     1
  9
$MEASUREMENT
 70
     0
  9
$CELWEIGHT
370
    -1
  9
$ENDCAPS
280
     0
  9
$JOINSTYLE
280
     0
  9
$LWDISPLAY
290
     0
  9
$INSUNITS
 70
     0
  9
$HYPERLINKBASE
  1

  9
$STYLESHEET
  1

  9
$XEDIT
290
     1
  9
$CEPSNTYPE
380
     0
  9
$PSTYLEMODE
290
     1
  9
$FINGERPRINTGUID
  2
{3B1B939D-874C-4C7F-845C-F611FE297075}
  9
$VERSIONGUID
  2
{CDB7BE2E-CB67-4171-8A5B-A2D6F61B621B}
  9
$EXTNAMES
290
     1
  9
$PSVPSCALE
 40
0.0
  9
$OLESTARTUP
290
     0
  0
ENDSEC
  0
SECTION
  2
CLASSES
  0
CLASS
  1
ACDBDICTIONARYWDFLT
  2
AcDbDictionaryWithDefault
  3
ObjectDBX Classes
 90
        0
280
     0
281
     0
  0
CLASS
  1
ACDBPLACEHOLDER
  2
AcDbPlaceHolder
  3
ObjectDBX Classes
 90
        0
280
     0
281
     0
  0
CLASS
  1
LAYOUT
  2
AcDbLayout
  3
ObjectDBX Classes
 90
        0
280
     0
281
     0
  0
CLASS
  1
DICTIONARYVAR
  2
AcDbDictionaryVar
  3
ObjectDBX Classes
 90
        0
280
     0
281
     0
  0
CLASS
  1
MATERIAL
  2
AcDbMaterial
  3
ObjectDBX Classes
 90
     1153
280
     0
281
     0
  0
CLASS
  1
VISUALSTYLE
  2
AcDbVisualStyle
  3
ObjectDBX Classes
 90
     4095
280
     0
281
     0
  0
CLASS
  1
TABLESTYLE
  2
AcDbTableStyle
  3
ObjectDBX Classes
 90
     4095
280
     0
281
     0
  0
CLASS
  1
SCALE
  2
AcDbScale
  3
ObjectDBX Classes
 90
     1153
280
     0
281
     0
  0
CLASS
  1
MLEADERSTYLE
  2
AcDbMLeaderStyle
  3
ACDB_MLEADERSTYLE_CLASS
 90
     4095
280
     0
281
     0
  0
CLASS
  1
ACDBSECTIONVIEWSTYLE
  2
AcDbSectionViewStyle
  3
ObjectDBX Classes
 90
     1025
280
     0
281
     0
  0
CLASS
  1
ACDBDETAILVIEWSTYLE
  2
AcDbDetailViewStyle
  3
ObjectDBX Classes
 90
     1025
280
     0
281
     0
  0
CLASS
  1
CELLSTYLEMAP
  2
AcDbCellStyleMap
  3
ObjectDBX Classes
 90
     1152
280
     0
281
     0
  0
ENDSEC
  0
SECTION
  2
TABLES
  0
TABLE
  2
VPORT
  5
9FFC
330
0
100
AcDbSymbolTable
 70
     1
  0
VPORT
  5
A2CA
330
9FFC
100
AcDbSymbolTableRecord
100
AcDbViewportTableRecord
  2
*ACTIVE
 70
     0
 10
0.0
 20
0.0
 11
1.0
 21
1.0
 12
263.208344800948
 22
103.0602499253118
 13
0.0
 23
0.0
 14
10.0
 24
10.0
 15
10.0
 25
10.0
 16
0.0
 26
0.0
 36
1.0
 17
0.0
 27
0.0
 37
0.0
 40
216.5409044920676
 41
1.899603698811096
 42
50.0
 43
0.0
 44
0.0
 50
0.0
 51
0.0
 71
     0
 72
   100
 73
     1
 74
     0
 75
     0
 76
     0
 77
     0
 78
     0
281
     0
 65
     1
110
0.0
120
0.0
130
0.0
111
1.0
121
0.0
131
0.0
112
0.0
122
1.0
132
0.0
 79
     0
146
0.0
1001
ACAD_NAV_VCDISPLAY
1070
     3
  0
ENDTAB
  0
TABLE
  2
LTYPE
  5
9FF9
330
0
100
AcDbSymbolTable
 70
     4
  0
LTYPE
  5
A007
330
9FF9
100
AcDbSymbolTableRecord
100
AcDbLinetypeTableRecord
  2
BYBLOCK
 70
     0
  3

 72
    65
 73
     0
 40
0.0
  0
LTYPE
  5
A008
330
9FF9
100
AcDbSymbolTableRecord
100
AcDbLinetypeTableRecord
  2
BYLAYER
 70
     0
  3

 72
    65
 73
     0
 40
0.0
  0
LTYPE
  5
A009
330
9FF9
100
AcDbSymbolTableRecord
100
AcDbLinetypeTableRecord
  2
CONTINUOUS
 70
     0
  3
Solid line
 72
    65
 73
     0
 40
0.0
  0
LTYPE
  5
A017
330
9FF9
100
AcDbSymbolTableRecord
100
AcDbLinetypeTableRecord
  2
DASHED
 70
     0
  3
__ __ __ __ __ __ __ __ __ __ __ __ __ __ __ __
 72
    65
 73
     2
 40
0.75
 49
0.5
 74
     0
 49
-0.25
 74
     0
  0
LTYPE
  5
A018
330
9FF9
100
AcDbSymbolTableRecord
100
AcDbLinetypeTableRecord
  2
CENTER
 70
     0
  3
____ _ ____ _ ____ _ ____ _ ____ _ ____ _ ____ 
 72
    65
 73
     4
 40
2.0
 49
1.25
 74
     0
 49
-0.25
 74
     0
 49
0.25
 74
     0
 49
-0.25
 74
     0
  0
LTYPE
  5
A019
330
9FF9
100
AcDbSymbolTableRecord
100
AcDbLinetypeTableRecord
  2
PHANTOM
 70
     0
  3
______  __  __  ______  __  __  ______  __  __ 
 72
    65
 73
     6
 40
2.5
 49
1.25
 74
     0
 49
-0.25
 74
     0
 49
0.25
 74
     0
 49
-0.25
 74
     0
 49
0.25
 74
     0
 49
-0.25
 74
     0
  0
ENDTAB
  0
TABLE
  2
LAYER
  5
9FF6
330
0
100
AcDbSymbolTable
 70
     8
  0
LAYER
  5
A004
102
{ACAD_XDICTIONARY
360
A325
102
}
330
9FF6
100
AcDbSymbolTableRecord
100
AcDbLayerTableRecord
  2
0
 70
     0
 62
     7
  6
CONTINUOUS
370
    -3
390
A2D3
  0
LAYER
  5
A01A
102
{ACAD_XDICTIONARY
360
A327
102
}
330
9FF6
100
AcDbSymbolTableRecord
100
AcDbLayerTableRecord
  2
4
 70
     0
 62
     1
  6
CENTER
370
    -3
390
A2D3
  0
LAYER
  5
A01B
102
{ACAD_XDICTIONARY
360
A329
102
}
330
9FF6
100
AcDbSymbolTableRecord
100
AcDbLayerTableRecord
  2
5
 70
     0
 62
     6
  6
PHANTOM
370
    -3
390
A2D3
  0
LAYER
  5
A01C
102
{ACAD_XDICTIONARY
360
A32B
102
}
330
9FF6
100
AcDbSymbolTableRecord
100
AcDbLayerTableRecord
  2
1
 70
     0
 62
     7
  6
CONTINUOUS
370
    -3
390
A2D3
  0
LAYER
  5
A01D
102
{ACAD_XDICTIONARY
360
A32D
102
}
330
9FF6
100
AcDbSymbolTableRecord
100
AcDbLayerTableRecord
  2
2
 70
     0
 62
     4
  6
CONTINUOUS
370
    -3
390
A2D3
  0
LAYER
  5
A01E
102
{ACAD_XDICTIONARY
360
A32F
102
}
330
9FF6
100
AcDbSymbolTableRecord
100
AcDbLayerTableRecord
  2
3
 70
     0
 62
     2
  6
DASHED
370
    -3
390
A2D3
  0
LAYER
  5
A01F
102
{ACAD_XDICTIONARY
360
A331
102
}
330
9FF6
100
AcDbSymbolTableRecord
100
AcDbLayerTableRecord
  2
6
 70
     0
 62
     5
  6
CONTINUOUS
370
    -3
390
A2D3
  0
LAYER
  5
A020
102
{ACAD_XDICTIONARY
360
A333
102
}
330
9FF6
100
AcDbSymbolTableRecord
100
AcDbLayerTableRecord
  2
7
 70
     0
 62
     3
  6
CONTINUOUS
370
    -3
390
A2D3
  0
ENDTAB
  0
TABLE
  2
STYLE
  5
9FF7
330
0
100
AcDbSymbolTable
 70
     1
  0
STYLE
  5
A005
330
9FF7
100
AcDbSymbolTableRecord
100
AcDbTextStyleTableRecord
  2
STANDARD
 70
     0
 40
0.0
 41
1.0
 50
0.0
 71
     0
 42
5.0
  3
txt
  4

  0
ENDTAB
  0
TABLE
  2
VIEW
  5
9FFA
330
0
100
AcDbSymbolTable
 70
     0
  0
ENDTAB
  0
TABLE
  2
UCS
  5
9FFB
330
0
100
AcDbSymbolTable
 70
     0
  0
ENDTAB
  0
TABLE
  2
APPID
  5
9FFD
330
0
100
AcDbSymbolTable
 70
     4
  0
APPID
  5
A006
330
9FFD
100
AcDbSymbolTableRecord
100
AcDbRegAppTableRecord
  2
ACAD
 70
     0
  0
APPID
  5
A021
330
9FFD
100
AcDbSymbolTableRecord
100
AcDbRegAppTableRecord
  2
CONTENTBLOCKICON
 70
     0
  0
APPID
  5
A33F
330
9FFD
100
AcDbSymbolTableRecord
100
AcDbRegAppTableRecord
  2
ACAD_NAV_VCDISPLAY
 70
     0
  0
APPID
  5
A378
330
9FFD
100
AcDbSymbolTableRecord
100
AcDbRegAppTableRecord
  2
ACAD_MLEADERVER
 70
     0
  0
ENDTAB
  0
TABLE
  2
DIMSTYLE
  5
9FFE
330
0
100
AcDbSymbolTable
 70
     1
100
AcDbDimStyleTable
 71
     0
  0
DIMSTYLE
105
A023
330
9FFE
100
AcDbSymbolTableRecord
100
AcDbDimStyleTableRecord
  2
STANDARD
 70
     0
 41
3.0
 42
1.0
 43
10.0
 44
1.0
 73
     0
 74
     0
 77
     3
 78
     8
140
3.2
141
0.0
147
1.0
172
     1
173
     1
284
     8
285
     8
286
     8
340
A005
  0
ENDTAB
  0
TABLE
  2
BLOCK_RECORD
  5
9FF5
330
0
100
AcDbSymbolTable
 70
     1
  0
BLOCK_RECORD
  5
A012
102
{ACAD_XDICTIONARY
360
A2CD
102
}
330
9FF5
100
AcDbSymbolTableRecord
100
AcDbBlockTableRecord
  2
*MODEL_SPACE
340
A321
  0
BLOCK_RECORD
  5
A00E
102
{ACAD_XDICTIONARY
360
A2CB
102
}
330
9FF5
100
AcDbSymbolTableRecord
100
AcDbBlockTableRecord
  2
*PAPER_SPACE
340
A322
  0
BLOCK_RECORD
  5
A02B
330
9FF5
100
AcDbSymbolTableRecord
100
AcDbBlockTableRecord
  2
_OPEN
340
0
  0
ENDTAB
  0
ENDSEC
  0
SECTION
  2
BLOCKS
  0
BLOCK
  5
A013
330
A012
100
AcDbEntity
  8
0
100
AcDbBlockBegin
  2
*MODEL_SPACE
 70
     0
 10
0.0
 20
0.0
 30
0.0
  3
*MODEL_SPACE
  1

  0
ENDBLK
  5
A014
330
A012
100
AcDbEntity
  8
0
100
AcDbBlockEnd
  0
BLOCK
  5
A00F
330
A00E
100
AcDbEntity
 67
     1
  8
0
100
AcDbBlockBegin
  2
*PAPER_SPACE
 70
     0
 10
0.0
 20
0.0
 30
0.0
  3
*PAPER_SPACE
  1

  0
ENDBLK
  5
A010
330
A00E
100
AcDbEntity
 67
     1
  8
0
100
AcDbBlockEnd
  0
BLOCK
  5
A02C
330
A02B
100
AcDbEntity
  8
0
100
AcDbBlockBegin
  2
_OPEN
 70
     0
 10
0.0
 20
0.0
 30
0.0
  3
_OPEN
  1

  0
LINE
  5
A02D
330
A02B
100
AcDbEntity
  8
0
  6
ByBlock
 62
     0
100
AcDbLine
 10
-1.0
 20
0.1666666666666666
 30
0.0
 11
0.0
 21
0.0
 31
0.0
  0
LINE
  5
A02E
330
A02B
100
AcDbEntity
  8
0
  6
ByBlock
 62
     0
100
AcDbLine
 10
0.0
 20
0.0
 30
0.0
 11
-1.0
 21
-0.1666666666666666
 31
0.0
  0
LINE
  5
A02F
330
A02B
100
AcDbEntity
  8
0
  6
ByBlock
 62
     0
100
AcDbLine
 10
0.0
 20
0.0
 30
0.0
 11
-1.0
 21
0.0
 31
0.0
  0
ENDBLK
  5
A030
330
A02B
100
AcDbEntity
  8
0
100
AcDbBlockEnd
  0
ENDSEC
  0
SECTION
  2
ENTITIES
  0
TEXT
  5
A031
330
A012
100
AcDbEntity
  8
7
  6
Continuous
100
AcDbText
 10
10.0
 20
18.0
 30
0.0
 40
3.0
  1
TYPE No.TL-96-1
100
AcDbText
  0
TEXT
  5
A032
330
A012
100
AcDbEntity
  8
7
  6
Continuous
100
AcDbText
 10
10.0
 20
26.0
 30
0.0
 40
3.0
  1
CODE No.1645
100
AcDbText
  0
TEXT
  5
A033
330
A012
100
AcDbEntity
  8
1
  6
Continuous
100
AcDbText
 10
10.0
 20
10.0
 30
0.0
 40
1.399999999999999
  1
LAYER
100
AcDbText
  0
TEXT
  5
A034
330
A012
100
AcDbEntity
  8
1
  6
Continuous
100
AcDbText
 10
17.97951099999998
 20
10.04873699999998
 30
0.0
 40
1.399999999999999
  1
1
100
AcDbText
  0
TEXT
  5
A035
330
A012
100
AcDbEntity
  8
7
  6
Continuous
100
AcDbText
 10
29.97951099999999
 20
10.04873699999998
 30
0.0
 40
1.399999999999999
  1
7
100
AcDbText
  0
TEXT
  5
A036
330
A012
100
AcDbEntity
  8
4
  6
CENTER
100
AcDbText
 10
23.97951099999999
 20
10.04873699999998
 30
0.0
 40
1.399999999999999
  1
4
100
AcDbText
  0
TEXT
  5
A037
330
A012
100
AcDbEntity
  8
3
  6
DASHED
100
AcDbText
 10
21.979511
 20
10.04873699999998
 30
0.0
 40
1.399999999999999
  1
3
100
AcDbText
  0
TEXT
  5
A038
330
A012
100
AcDbEntity
  8
2
  6
Continuous
100
AcDbText
 10
19.97951099999999
 20
10.04873699999998
 30
0.0
 40
1.399999999999999
  1
2
100
AcDbText
  0
TEXT
  5
A039
330
A012
100
AcDbEntity
  8
6
  6
Continuous
100
AcDbText
 10
27.979511
 20
10.04873699999998
 30
0.0
 40
1.399999999999999
  1
6
100
AcDbText
  0
TEXT
  5
A03A
330
A012
100
AcDbEntity
  8
5
  6
PHANTOM
100
AcDbText
 10
25.97951099999999
 20
10.04873699999998
 30
0.0
 40
1.399999999999999
  1
5
100
AcDbText
  0
LINE
  5
A03B
330
A012
100
AcDbEntity
  8
4
  6
CENTER
100
AcDbLine
 10
44.806707
 20
115.1172089999999
 30
0.0
 11
16.297302
 21
115.1172089999999
 31
0.0
  0
LINE
  5
A03C
330
A012
100
AcDbEntity
  8
4
  6
CENTER
100
AcDbLine
 10
30.752806
 20
130.1934109999999
 30
0.0
 11
30.752806
 21
99.816809
 31
0.0
  0
LINE
  5
A03D
330
A012
100
AcDbEntity
  8
1
  6
Continuous
100
AcDbLine
 10
90.70449999999999
 20
106.495306
 30
0.0
 11
90.70449999999999
 21
123.7390189999999
 31
0.0
  0
LINE
  5
A03E
330
A012
100
AcDbEntity
  8
1
  6
Continuous
100
AcDbLine
 10
97.00450299999999
 20
104.117209
 30
0.0
 11
95.80449900000001
 21
104.117209
 31
0.0
  0
LINE
  5
A03F
330
A012
100
AcDbEntity
  8
1
  6
Continuous
100
AcDbLine
 10
95.804506
 20
104.117209
 30
0.0
 11
90.70449999999999
 21
106.4953139999997
 31
0.0
  0
LINE
  5
A040
330
A012
100
AcDbEntity
  8
1
  6
Continuous
100
AcDbLine
 10
114.1045019999999
 20
106.9172039999999
 30
0.0
 11
114.1045019999999
 21
108.55831
 31
0.0
  0
LINE
  5
A041
330
A012
100
AcDbEntity
  8
1
  6
Continuous
100
AcDbLine
 10
97.00450299999999
 20
105.6172069999998
 30
0.0
 11
110.384502
 21
105.6172069999998
 31
0.0
  0
LINE
  5
A042
330
A012
100
AcDbEntity
  8
1
  6
Continuous
100
AcDbLine
 10
97.00450299999999
 20
126.117209
 30
0.0
 11
97.00450299999999
 21
104.117209
 31
0.0
  0
LINE
  5
A043
330
A012
100
AcDbEntity
  8
1
  6
Continuous
100
AcDbLine
 10
112.3044989999997
 20
107.340307
 30
0.0
 11
112.3044989999997
 21
123.8172049999999
 31
0.0
  0
LINE
  5
A044
330
A012
100
AcDbEntity
  8
1
  6
Continuous
100
AcDbLine
 10
113.604502
 20
106.417204
 30
0.0
 11
114.1045019999999
 21
106.9172039999999
 31
0.0
  0
LINE
  5
A045
330
A012
100
AcDbEntity
  8
1
  6
Continuous
100
AcDbLine
 10
97.00450299999999
 20
126.117209
 30
0.0
 11
95.80449900000001
 21
126.117209
 31
0.0
  0
LINE
  5
A046
330
A012
100
AcDbEntity
  8
1
  6
Continuous
100
AcDbLine
 10
95.80449900000001
 20
126.117209
 30
0.0
 11
90.70449999999999
 21
123.7390039999998
 31
0.0
  0
LINE
  5
A047
330
A012
100
AcDbEntity
  8
4
  6
CENTER
100
AcDbLine
 10
87.956202
 20
115.1172089999999
 30
0.0
 11
125.977601
 21
115.1172089999999
 31
0.0
  0
LINE
  5
A048
330
A012
100
AcDbEntity
  8
1
  6
Continuous
100
AcDbLine
 10
111.604502
 20
106.417204
 30
0.0
 11
110.384502
 21
105.6172069999998
 31
0.0
  0
LINE
  5
A049
330
A012
100
AcDbEntity
  8
1
  6
Continuous
100
AcDbLine
 10
111.604502
 20
106.417204
 30
0.0
 11
113.604502
 21
106.417204
 31
0.0
  0
LINE
  5
A04A
330
A012
100
AcDbEntity
  8
1
  6
Continuous
100
AcDbLine
 10
111.604502
 20
123.8172049999999
 30
0.0
 11
112.3044989999997
 21
123.8172049999999
 31
0.0
  0
LINE
  5
A04B
330
A012
100
AcDbEntity
  8
1
  6
Continuous
100
AcDbLine
 10
124.3044899999999
 20
117.617225
 30
0.0
 11
124.3044899999999
 21
112.6171919999999
 31
0.0
  0
LINE
  5
A04C
330
A012
100
AcDbEntity
  8
1
  6
Continuous
100
AcDbLine
 10
123.3044899999999
 20
111.6172069999998
 30
0.0
 11
115.1045019999999
 21
111.6172069999998
 31
0.0
  0
LINE
  5
A04D
330
A012
100
AcDbEntity
  8
1
  6
Continuous
100
AcDbLine
 10
115.1045019999999
 20
118.6922049999999
 30
0.0
 11
115.1045019999999
 21
117.3382289999999
 31
0.0
  0
LINE
  5
A04E
330
A012
100
AcDbEntity
  8
1
  6
Continuous
100
AcDbLine
 10
112.454508
 20
111.542212
 30
0.0
 11
112.804502
 21
111.542212
 31
0.0
  0
LINE
  5
A04F
330
A012
100
AcDbEntity
  8
1
  6
Continuous
100
AcDbLine
 10
112.454508
 20
118.6922049999999
 30
0.0
 11
112.804502
 21
118.6922049999999
 31
0.0
  0
LINE
  5
A050
330
A012
100
AcDbEntity
  8
1
  6
Continuous
100
AcDbLine
 10
114.404508
 20
118.6922049999999
 30
0.0
 11
115.1045019999999
 21
118.6922049999999
 31
0.0
  0
LINE
  5
A051
330
A012
100
AcDbEntity
  8
1
  6
Continuous
100
AcDbLine
 10
114.404508
 20
111.542212
 30
0.0
 11
115.1045019999999
 21
111.542212
 31
0.0
  0
LINE
  5
A052
330
A012
100
AcDbEntity
  8
2
  6
Continuous
100
AcDbLine
 10
124.3044899999999
 20
117.3382289999999
 30
0.0
 11
114.404508
 21
113.407206
 31
0.0
  0
LINE
  5
A053
330
A012
100
AcDbEntity
  8
2
  6
Continuous
100
AcDbLine
 10
114.404508
 20
116.8271929999997
 30
0.0
 11
124.3044899999999
 21
112.896169
 31
0.0
  0
LINE
  5
A054
330
A012
100
AcDbEntity
  8
1
  6
Continuous
100
AcDbLine
 10
112.454508
 20
108.617209
 30
0.0
 11
112.454508
 21
121.617209
 31
0.0
  0
LINE
  5
A055
330
A012
100
AcDbEntity
  8
1
  6
Continuous
100
AcDbLine
 10
112.3045139999997
 20
121.767218
 30
0.0
 11
112.454508
 21
121.617209
 31
0.0
  0
LINE
  5
A056
330
A012
100
AcDbEntity
  8
1
  6
Continuous
100
AcDbLine
 10
95.80449900000001
 20
126.117209
 30
0.0
 11
95.80449900000001
 21
104.117209
 31
0.0
  0
LINE
  5
A057
330
A012
100
AcDbEntity
  8
1
  6
Continuous
100
AcDbLine
 10
112.3044989999997
 20
107.340307
 30
0.0
 11
114.1045019999999
 21
107.340307
 31
0.0
  0
LINE
  5
A058
330
A012
100
AcDbEntity
  8
1
  6
Continuous
100
AcDbLine
 10
114.1045019999999
 20
108.55831
 30
0.0
 11
112.3044989999997
 21
108.55831
 31
0.0
  0
LINE
  5
A059
330
A012
100
AcDbEntity
  8
1
  6
Continuous
100
AcDbLine
 10
111.604502
 20
118.7613849999999
 30
0.0
 11
110.384502
 21
120.393556
 31
0.0
  0
LINE
  5
A05A
330
A012
100
AcDbEntity
  8
1
  6
Continuous
100
AcDbLine
 10
111.604502
 20
106.417204
 30
0.0
 11
111.604502
 21
111.4730369999999
 31
0.0
  0
LINE
  5
A05B
330
A012
100
AcDbEntity
  8
1
  6
Continuous
100
AcDbLine
 10
111.604502
 20
111.4730369999999
 30
0.0
 11
110.384502
 21
109.840861
 31
0.0
  0
LINE
  5
A05C
330
A012
100
AcDbEntity
  8
2
  6
Continuous
100
AcDbLine
 10
112.3044989999997
 20
118.7613849999999
 30
0.0
 11
97.004511
 21
110.0231079999998
 31
0.0
  0
LINE
  5
A05D
330
A012
100
AcDbEntity
  8
2
  6
Continuous
100
AcDbLine
 10
97.00450299999999
 20
120.211309
 30
0.0
 11
112.3044989999997
 21
111.4730369999999
 31
0.0
  0
LINE
  5
A05E
330
A012
100
AcDbEntity
  8
1
  6
Continuous
100
AcDbLine
 10
112.804502
 20
122.8172049999999
 30
0.0
 11
112.804502
 21
108.55831
 31
0.0
  0
LINE
  5
A05F
330
A012
100
AcDbEntity
  8
1
  6
Continuous
100
AcDbLine
 10
114.404508
 20
122.8172049999999
 30
0.0
 11
114.404508
 21
107.595495
 31
0.0
  0
LINE
  5
A060
330
A012
100
AcDbEntity
  8
1
  6
Continuous
100
AcDbLine
 10
175.170603
 20
118.771612
 30
0.0
 11
175.170603
 21
118.3864189999999
 31
0.0
  0
LINE
  5
A061
330
A012
100
AcDbEntity
  8
1
  6
Continuous
100
AcDbLine
 10
177.1706029999998
 20
118.4139159999999
 30
0.0
 11
177.1706029999998
 21
118.028708
 31
0.0
  0
LINE
  5
A062
330
A012
100
AcDbEntity
  8
1
  6
Continuous
100
AcDbLine
 10
175.7705939999999
 20
121.617209
 30
0.0
 11
175.7705939999999
 21
108.617209
 31
0.0
  0
LINE
  5
A063
330
A012
100
AcDbEntity
  8
1
  6
Continuous
100
AcDbLine
 10
176.5705969999999
 20
121.617209
 30
0.0
 11
176.5705969999999
 21
108.617209
 31
0.0
  0
LINE
  5
A064
330
A012
100
AcDbEntity
  8
1
  6
Continuous
100
AcDbLine
 10
175.7705939999999
 20
121.617209
 30
0.0
 11
176.5705969999999
 21
121.617209
 31
0.0
  0
LINE
  5
A065
330
A012
100
AcDbEntity
  8
1
  6
Continuous
100
AcDbLine
 10
175.7705939999999
 20
108.617209
 30
0.0
 11
176.5705969999999
 21
108.617209
 31
0.0
  0
LINE
  5
A066
330
A012
100
AcDbEntity
  8
1
  6
Continuous
100
AcDbLine
 10
175.170603
 20
118.771612
 30
0.0
 11
175.770609
 21
118.664312
 31
0.0
  0
LINE
  5
A067
330
A012
100
AcDbEntity
  8
1
  6
Continuous
100
AcDbLine
 10
175.569407
 20
117.634512
 30
0.0
 11
175.770609
 21
117.540304
 31
0.0
  0
LINE
  5
A068
330
A012
100
AcDbEntity
  8
1
  6
Continuous
100
AcDbLine
 10
175.649302
 20
115.815924
 30
0.0
 11
175.770609
 21
115.7457179999999
 31
0.0
  0
LINE
  5
A069
330
A012
100
AcDbEntity
  8
1
  6
Continuous
100
AcDbLine
 10
175.170603
 20
113.4373909999999
 30
0.0
 11
175.7705939999999
 21
113.1564999999997
 31
0.0
  0
LINE
  5
A06A
330
A012
100
AcDbEntity
  8
1
  6
Continuous
100
AcDbLine
 10
175.170618
 20
111.820494
 30
0.0
 11
175.770609
 21
111.7130949999999
 31
0.0
  0
LINE
  5
A06B
330
A012
100
AcDbEntity
  8
1
  6
Continuous
100
AcDbLine
 10
175.170618
 20
118.386404
 30
0.0
 11
175.770609
 21
118.279104
 31
0.0
  0
LINE
  5
A06C
330
A012
100
AcDbEntity
  8
1
  6
Continuous
100
AcDbLine
 10
175.173502
 20
117.1892909999999
 30
0.0
 11
175.7705939999999
 21
116.909704
 31
0.0
  0
LINE
  5
A06D
330
A012
100
AcDbEntity
  8
1
  6
Continuous
100
AcDbLine
 10
175.2499179999998
 20
115.122717
 30
0.0
 11
175.770609
 21
114.8213179999999
 31
0.0
  0
LINE
  5
A06E
330
A012
100
AcDbEntity
  8
1
  6
Continuous
100
AcDbLine
 10
175.170603
 20
112.976095
 30
0.0
 11
175.770609
 21
112.6951889999999
 31
0.0
  0
LINE
  5
A06F
330
A012
100
AcDbEntity
  8
1
  6
Continuous
100
AcDbLine
 10
175.170603
 20
111.442411
 30
0.0
 11
175.770609
 21
111.335112
 31
0.0
  0
LINE
  5
A070
330
A012
100
AcDbEntity
  8
1
  6
Continuous
100
AcDbLine
 10
175.170603
 20
113.437407
 30
0.0
 11
175.170603
 21
112.97611
 31
0.0
  0
LINE
  5
A071
330
A012
100
AcDbEntity
  8
1
  6
Continuous
100
AcDbLine
 10
175.170603
 20
111.820509
 30
0.0
 11
175.170603
 21
111.442411
 31
0.0
  0
LINE
  5
A072
330
A012
100
AcDbEntity
  8
1
  6
Continuous
100
AcDbLine
 10
175.1853119999999
 20
117.2025199999997
 30
0.0
 11
175.581202
 21
117.647604
 31
0.0
  0
LINE
  5
A073
330
A012
100
AcDbEntity
  8
1
  6
Continuous
100
AcDbLine
 10
176.774698
 20
116.439611
 30
0.0
 11
177.1706179999999
 21
116.8847259999999
 31
0.0
  0
LINE
  5
A074
330
A012
100
AcDbEntity
  8
1
  6
Continuous
100
AcDbLine
 10
175.2499179999998
 20
115.122717
 30
0.0
 11
175.6493169999999
 21
115.8159159999997
 31
0.0
  0
LINE
  5
A075
330
A012
100
AcDbEntity
  8
1
  6
Continuous
100
AcDbLine
 10
177.249888
 20
114.8894019999999
 30
0.0
 11
176.9454899999999
 21
114.14131
 31
0.0
  0
LINE
  5
A076
330
A012
100
AcDbEntity
  8
1
  6
Continuous
100
AcDbLine
 10
176.570612
 20
118.5212149999999
 30
0.0
 11
177.1706029999998
 21
118.4139159999999
 31
0.0
  0
LINE
  5
A077
330
A012
100
AcDbEntity
  8
1
  6
Continuous
100
AcDbLine
 10
176.570612
 20
118.1360069999999
 30
0.0
 11
177.1706029999998
 21
118.028708
 31
0.0
  0
LINE
  5
A078
330
A012
100
AcDbEntity
  8
1
  6
Continuous
100
AcDbLine
 10
176.570612
 20
117.1657159999997
 30
0.0
 11
177.1706029999998
 21
116.8847259999999
 31
0.0
  0
LINE
  5
A079
330
A012
100
AcDbEntity
  8
1
  6
Continuous
100
AcDbLine
 10
176.5705969999999
 20
116.5350859999997
 30
0.0
 11
176.7747139999999
 21
116.439596
 31
0.0
  0
LINE
  5
A07A
330
A012
100
AcDbEntity
  8
1
  6
Continuous
100
AcDbLine
 10
176.570612
 20
115.2826139999999
 30
0.0
 11
177.2499029999999
 21
114.8894179999999
 31
0.0
  0
LINE
  5
A07B
330
A012
100
AcDbEntity
  8
1
  6
Continuous
100
AcDbLine
 10
176.5705969999999
 20
114.3583049999999
 30
0.0
 11
176.9455049999999
 21
114.1413019999999
 31
0.0
  0
LINE
  5
A07C
330
A012
100
AcDbEntity
  8
1
  6
Continuous
100
AcDbLine
 10
176.5705969999999
 20
112.7817969999999
 30
0.0
 11
177.1706029999998
 21
112.500891
 31
0.0
  0
LINE
  5
A07D
330
A012
100
AcDbEntity
  8
1
  6
Continuous
100
AcDbLine
 10
176.5705969999999
 20
112.3205929999999
 30
0.0
 11
176.7837929999998
 21
112.2206939999999
 31
0.0
  0
LINE
  5
A07E
330
A012
100
AcDbEntity
  8
1
  6
Continuous
100
AcDbLine
 10
176.570612
 20
111.569998
 30
0.0
 11
177.1706029999998
 21
111.462698
 31
0.0
  0
LINE
  5
A07F
330
A012
100
AcDbEntity
  8
1
  6
Continuous
100
AcDbLine
 10
176.5705969999999
 20
111.191984
 30
0.0
 11
176.761377
 21
111.1578879999999
 31
0.0
  0
LINE
  5
A080
330
A012
100
AcDbEntity
  8
1
  6
Continuous
100
AcDbLine
 10
158.3333989999998
 20
127.818914
 30
0.0
 11
158.3333989999998
 21
102.4155029999999
 31
0.0
  0
LINE
  5
A081
330
A012
100
AcDbEntity
  8
1
  6
Continuous
100
AcDbLine
 10
162.8333989999999
 20
126.117209
 30
0.0
 11
162.8333989999999
 21
104.117209
 31
0.0
  0
LINE
  5
A082
330
A012
100
AcDbEntity
  8
1
  6
Continuous
100
AcDbLine
 10
186.959604
 20
120.617209
 30
0.0
 11
186.959604
 21
109.617209
 31
0.0
  0
LINE
  5
A083
330
A012
100
AcDbEntity
  8
1
  6
Continuous
100
AcDbLine
 10
191.159601
 20
120.617209
 30
0.0
 11
191.159601
 21
109.617209
 31
0.0
  0
LINE
  5
A084
330
A012
100
AcDbEntity
  8
4
  6
CENTER
100
AcDbLine
 10
154.484202
 20
185.117209
 30
0.0
 11
194.6802619999999
 21
185.117209
 31
0.0
  0
LINE
  5
A085
330
A012
100
AcDbEntity
  8
4
  6
CENTER
100
AcDbLine
 10
237.321512
 20
99.61957400000001
 30
0.0
 11
237.321512
 21
130.6217859999998
 31
0.0
  0
LINE
  5
A086
330
A012
100
AcDbEntity
  8
1
  6
Continuous
100
AcDbLine
 10
229.4215029999997
 20
109.840861
 30
0.0
 11
229.4215029999997
 21
120.393556
 31
0.0
  0
LINE
  5
A087
330
A012
100
AcDbEntity
  8
1
  6
Continuous
100
AcDbLine
 10
245.2215059999999
 20
109.8408379999999
 30
0.0
 11
245.2215059999999
 21
120.393579
 31
0.0
  0
LINE
  5
A088
330
A012
100
AcDbEntity
  8
4
  6
CENTER
100
AcDbLine
 10
223.135004
 20
115.1172089999999
 30
0.0
 11
251.3725990000001
 21
115.1172089999999
 31
0.0
  0
LINE
  5
A089
330
A012
100
AcDbEntity
  8
1
  6
Continuous
100
AcDbLine
 10
234.6165039999999
 20
117.3382289999999
 30
0.0
 11
234.6165039999999
 21
112.896188
 31
0.0
  0
LINE
  5
A08A
330
A012
100
AcDbEntity
  8
1
  6
Continuous
100
AcDbLine
 10
240.0265049999999
 20
117.3382479999997
 30
0.0
 11
240.0265049999999
 21
112.896169
 31
0.0
  0
LINE
  5
A08B
330
A012
100
AcDbEntity
  8
1
  6
Continuous
100
AcDbLine
 10
90.70449999999999
 20
193.739004
 30
0.0
 11
90.70449999999999
 21
176.495306
 31
0.0
  0
LINE
  5
A08C
330
A012
100
AcDbEntity
  8
1
  6
Continuous
100
AcDbLine
 10
97.00450299999999
 20
196.1172089999998
 30
0.0
 11
95.804506
 21
196.1172089999998
 31
0.0
  0
LINE
  5
A08D
330
A012
100
AcDbEntity
  8
1
  6
Continuous
100
AcDbLine
 10
95.804506
 20
196.1172239999999
 30
0.0
 11
90.70449999999999
 21
193.7390189999999
 31
0.0
  0
LINE
  5
A08E
330
A012
100
AcDbEntity
  8
1
  6
Continuous
100
AcDbLine
 10
112.3045139999997
 20
193.017202
 30
0.0
 11
112.3045139999997
 21
177.2172149999999
 31
0.0
  0
LINE
  5
A08F
330
A012
100
AcDbEntity
  8
1
  6
Continuous
100
AcDbLine
 10
97.00450299999999
 20
174.117209
 30
0.0
 11
95.804506
 21
174.117209
 31
0.0
  0
LINE
  5
A090
330
A012
100
AcDbEntity
  8
1
  6
Continuous
100
AcDbLine
 10
95.80451399999999
 20
174.117209
 30
0.0
 11
90.70449999999999
 21
176.4953209999999
 31
0.0
  0
LINE
  5
A091
330
A012
100
AcDbEntity
  8
1
  6
Continuous
100
AcDbLine
 10
97.00450299999999
 20
174.117209
 30
0.0
 11
97.00450299999999
 21
196.1172089999998
 31
0.0
  0
LINE
  5
A092
330
A012
100
AcDbEntity
  8
1
  6
Continuous
100
AcDbLine
 10
95.804506
 20
196.1172089999998
 30
0.0
 11
95.804506
 21
174.117209
 31
0.0
  0
LINE
  5
A093
330
A012
100
AcDbEntity
  8
1
  6
Continuous
100
AcDbLine
 10
112.804502
 20
189.017218
 30
0.0
 11
112.454493
 21
189.017218
 31
0.0
  0
LINE
  5
A094
330
A012
100
AcDbEntity
  8
1
  6
Continuous
100
AcDbLine
 10
112.804502
 20
188.322012
 30
0.0
 11
112.454493
 21
188.322012
 31
0.0
  0
LINE
  5
A095
330
A012
100
AcDbEntity
  8
1
  6
Continuous
100
AcDbLine
 10
112.804502
 20
181.912405
 30
0.0
 11
112.454493
 21
181.912405
 31
0.0
  0
LINE
  5
A096
330
A012
100
AcDbEntity
  8
1
  6
Continuous
100
AcDbLine
 10
112.804502
 20
181.2172149999999
 30
0.0
 11
112.454493
 21
181.2172149999999
 31
0.0
  0
LINE
  5
A097
330
A012
100
AcDbEntity
  8
1
  6
Continuous
100
AcDbLine
 10
124.3044899999999
 20
186.822201
 30
0.0
 11
124.3044899999999
 21
183.412185
 31
0.0
  0
LINE
  5
A098
330
A012
100
AcDbEntity
  8
4
  6
CENTER
100
AcDbLine
 10
88.97010999999997
 20
185.117209
 30
0.0
 11
126.1960909999999
 21
185.117209
 31
0.0
  0
LINE
  5
A099
330
A012
100
AcDbEntity
  8
1
  6
Continuous
100
AcDbLine
 10
112.454493
 20
187.7972159999999
 30
0.0
 11
112.804502
 21
187.7972159999999
 31
0.0
  0
LINE
  5
A09A
330
A012
100
AcDbEntity
  8
1
  6
Continuous
100
AcDbLine
 10
112.454493
 20
182.4372009999999
 30
0.0
 11
112.804502
 21
182.4372009999999
 31
0.0
  0
LINE
  5
A09B
330
A012
100
AcDbEntity
  8
1
  6
Continuous
100
AcDbLine
 10
112.454508
 20
178.6172089999998
 30
0.0
 11
112.454508
 21
191.617209
 31
0.0
  0
LINE
  5
A09C
330
A012
100
AcDbEntity
  8
1
  6
Continuous
100
AcDbLine
 10
112.3045139999997
 20
191.7672019999999
 30
0.0
 11
112.454508
 21
191.617209
 31
0.0
  0
LINE
  5
A09D
330
A012
100
AcDbEntity
  8
1
  6
Continuous
100
AcDbLine
 10
112.454508
 20
178.6172089999998
 30
0.0
 11
112.3044989999997
 21
178.4671989999999
 31
0.0
  0
LINE
  5
A09E
330
A012
100
AcDbEntity
  8
1
  6
Continuous
100
AcDbLine
 10
112.804502
 20
192.8171899999999
 30
0.0
 11
112.804502
 21
177.5954649999999
 31
0.0
  0
LINE
  5
A09F
330
A012
100
AcDbEntity
  8
1
  6
Continuous
100
AcDbLine
 10
114.404508
 20
192.8171899999999
 30
0.0
 11
114.404508
 21
177.5954649999999
 31
0.0
  0
LINE
  5
A0A0
330
A012
100
AcDbEntity
  8
1
  6
Continuous
100
AcDbLine
 10
175.1705879999999
 20
188.771612
 30
0.0
 11
175.1705879999999
 21
188.3864039999999
 31
0.0
  0
LINE
  5
A0A1
330
A012
100
AcDbEntity
  8
1
  6
Continuous
100
AcDbLine
 10
177.1705879999999
 20
188.4139
 30
0.0
 11
177.1705879999999
 21
188.028708
 31
0.0
  0
LINE
  5
A0A2
330
A012
100
AcDbEntity
  8
1
  6
Continuous
100
AcDbLine
 10
175.7705939999999
 20
191.617209
 30
0.0
 11
175.7705939999999
 21
178.6172089999998
 31
0.0
  0
LINE
  5
A0A3
330
A012
100
AcDbEntity
  8
1
  6
Continuous
100
AcDbLine
 10
176.5705969999999
 20
191.617209
 30
0.0
 11
176.5705969999999
 21
178.6172089999998
 31
0.0
  0
LINE
  5
A0A4
330
A012
100
AcDbEntity
  8
1
  6
Continuous
100
AcDbLine
 10
175.7705939999999
 20
191.617209
 30
0.0
 11
176.5705969999999
 21
191.617209
 31
0.0
  0
LINE
  5
A0A5
330
A012
100
AcDbEntity
  8
1
  6
Continuous
100
AcDbLine
 10
175.7705939999999
 20
178.6172089999998
 30
0.0
 11
176.5705969999999
 21
178.6172089999998
 31
0.0
  0
LINE
  5
A0A6
330
A012
100
AcDbEntity
  8
1
  6
Continuous
100
AcDbLine
 10
175.1705879999999
 20
188.7715969999999
 30
0.0
 11
175.770578
 21
188.664312
 31
0.0
  0
LINE
  5
A0A7
330
A012
100
AcDbEntity
  8
1
  6
Continuous
100
AcDbLine
 10
175.569498
 20
187.634497
 30
0.0
 11
175.7705939999999
 21
187.5403039999999
 31
0.0
  0
LINE
  5
A0A8
330
A012
100
AcDbEntity
  8
1
  6
Continuous
100
AcDbLine
 10
175.649302
 20
185.815908
 30
0.0
 11
175.7705939999999
 21
185.7457029999999
 31
0.0
  0
LINE
  5
A0A9
330
A012
100
AcDbEntity
  8
1
  6
Continuous
100
AcDbLine
 10
175.170603
 20
183.437429
 30
0.0
 11
175.7705939999999
 21
183.1564239999999
 31
0.0
  0
LINE
  5
A0AA
330
A012
100
AcDbEntity
  8
1
  6
Continuous
100
AcDbLine
 10
175.1705879999999
 20
181.82041
 30
0.0
 11
175.7705939999999
 21
181.71311
 31
0.0
  0
LINE
  5
A0AB
330
A012
100
AcDbEntity
  8
1
  6
Continuous
100
AcDbLine
 10
175.1705879999999
 20
188.3864039999999
 30
0.0
 11
175.770578
 21
188.2791039999999
 31
0.0
  0
LINE
  5
A0AC
330
A012
100
AcDbEntity
  8
1
  6
Continuous
100
AcDbLine
 10
175.173594
 20
187.1893059999999
 30
0.0
 11
175.7705939999999
 21
186.9097039999997
 31
0.0
  0
LINE
  5
A0AD
330
A012
100
AcDbEntity
  8
1
  6
Continuous
100
AcDbLine
 10
175.2499939999999
 20
185.1227019999998
 30
0.0
 11
175.7705939999999
 21
184.82131
 31
0.0
  0
LINE
  5
A0AE
330
A012
100
AcDbEntity
  8
1
  6
Continuous
100
AcDbLine
 10
175.1705879999999
 20
182.9761099999998
 30
0.0
 11
175.7705939999999
 21
182.695211
 31
0.0
  0
LINE
  5
A0AF
330
A012
100
AcDbEntity
  8
1
  6
Continuous
100
AcDbLine
 10
175.1705879999999
 20
181.442404
 30
0.0
 11
175.7705939999999
 21
181.335104
 31
0.0
  0
LINE
  5
A0B0
330
A012
100
AcDbEntity
  8
1
  6
Continuous
100
AcDbLine
 10
175.1705879999999
 20
183.4374139999999
 30
0.0
 11
175.1705879999999
 21
182.9761099999998
 31
0.0
  0
LINE
  5
A0B1
330
A012
100
AcDbEntity
  8
1
  6
Continuous
100
AcDbLine
 10
175.1705879999999
 20
181.82041
 30
0.0
 11
175.1705879999999
 21
181.442404
 31
0.0
  0
LINE
  5
A0B2
330
A012
100
AcDbEntity
  8
1
  6
Continuous
100
AcDbLine
 10
175.1852969999999
 20
187.2025049999997
 30
0.0
 11
175.581202
 21
187.6476189999999
 31
0.0
  0
LINE
  5
A0B3
330
A012
100
AcDbEntity
  8
1
  6
Continuous
100
AcDbLine
 10
176.7747139999999
 20
186.439611
 30
0.0
 11
177.1706179999999
 21
186.884726
 31
0.0
  0
LINE
  5
A0B4
330
A012
100
AcDbEntity
  8
1
  6
Continuous
100
AcDbLine
 10
175.2499939999999
 20
185.1227169999999
 30
0.0
 11
175.649302
 21
185.8159239999999
 31
0.0
  0
LINE
  5
A0B5
330
A012
100
AcDbEntity
  8
1
  6
Continuous
100
AcDbLine
 10
177.2499789999999
 20
184.88941
 30
0.0
 11
176.9454899999999
 21
184.1413169999999
 31
0.0
  0
LINE
  5
A0B6
330
A012
100
AcDbEntity
  8
1
  6
Continuous
100
AcDbLine
 10
176.5705819999998
 20
188.5211999999999
 30
0.0
 11
177.1705879999999
 21
188.4139
 31
0.0
  0
LINE
  5
A0B7
330
A012
100
AcDbEntity
  8
1
  6
Continuous
100
AcDbLine
 10
176.5705819999998
 20
188.136007
 30
0.0
 11
177.1705879999999
 21
188.028708
 31
0.0
  0
LINE
  5
A0B8
330
A012
100
AcDbEntity
  8
1
  6
Continuous
100
AcDbLine
 10
176.5705969999999
 20
187.1657159999998
 30
0.0
 11
177.1705879999999
 21
186.88471
 31
0.0
  0
LINE
  5
A0B9
330
A012
100
AcDbEntity
  8
1
  6
Continuous
100
AcDbLine
 10
176.5705969999999
 20
186.5351159999999
 30
0.0
 11
176.774698
 21
186.439611
 31
0.0
  0
LINE
  5
A0BA
330
A012
100
AcDbEntity
  8
1
  6
Continuous
100
AcDbLine
 10
176.5705969999999
 20
185.282599
 30
0.0
 11
177.2499939999999
 21
184.88941
 31
0.0
  0
LINE
  5
A0BB
330
A012
100
AcDbEntity
  8
1
  6
Continuous
100
AcDbLine
 10
176.5705819999998
 20
184.3582969999999
 30
0.0
 11
176.9454899999999
 21
184.141287
 31
0.0
  0
LINE
  5
A0BC
330
A012
100
AcDbEntity
  8
1
  6
Continuous
100
AcDbLine
 10
176.5705969999999
 20
182.7818199999999
 30
0.0
 11
177.1706029999998
 21
182.500921
 31
0.0
  0
LINE
  5
A0BD
330
A012
100
AcDbEntity
  8
1
  6
Continuous
100
AcDbLine
 10
176.5705969999999
 20
182.320608
 30
0.0
 11
176.7838989999999
 21
182.220709
 31
0.0
  0
LINE
  5
A0BE
330
A012
100
AcDbEntity
  8
1
  6
Continuous
100
AcDbLine
 10
176.5705819999998
 20
181.5699979999999
 30
0.0
 11
177.1705879999999
 21
181.4626979999999
 31
0.0
  0
LINE
  5
A0BF
330
A012
100
AcDbEntity
  8
1
  6
Continuous
100
AcDbLine
 10
176.570612
 20
181.191992
 30
0.0
 11
176.761515
 21
181.1579039999998
 31
0.0
  0
LINE
  5
A0C0
330
A012
100
AcDbEntity
  8
1
  6
Continuous
100
AcDbLine
 10
97.00450299999999
 20
193.0172179999999
 30
0.0
 11
112.3044989999997
 21
193.0172179999999
 31
0.0
  0
LINE
  5
A0C1
330
A012
100
AcDbEntity
  8
1
  6
Continuous
100
AcDbLine
 10
97.00450299999999
 20
177.2172149999999
 30
0.0
 11
112.3044989999997
 21
177.2172149999999
 31
0.0
  0
LINE
  5
A0C2
330
A012
100
AcDbEntity
  8
1
  6
Continuous
100
AcDbLine
 10
186.959604
 20
190.617209
 30
0.0
 11
186.959604
 21
179.6172089999998
 31
0.0
  0
LINE
  5
A0C3
330
A012
100
AcDbEntity
  8
1
  6
Continuous
100
AcDbLine
 10
191.159601
 20
190.617209
 30
0.0
 11
191.159601
 21
179.6172089999998
 31
0.0
  0
LINE
  5
A0C4
330
A012
100
AcDbEntity
  8
1
  6
Continuous
100
AcDbLine
 10
114.404508
 20
182.4122159999998
 30
0.0
 11
123.3044899999999
 21
182.4122159999998
 31
0.0
  0
LINE
  5
A0C5
330
A012
100
AcDbEntity
  8
1
  6
Continuous
100
AcDbLine
 10
124.3044899999999
 20
112.6171919999999
 30
0.0
 11
123.3044899999999
 21
111.6172069999998
 31
0.0
  0
LINE
  5
A0C6
330
A012
100
AcDbEntity
  8
1
  6
Continuous
100
AcDbLine
 10
123.304505
 20
118.617195
 30
0.0
 11
123.304505
 21
117.3382289999999
 31
0.0
  0
LINE
  5
A0C7
330
A012
100
AcDbEntity
  8
1
  6
Continuous
100
AcDbLine
 10
123.3044899999999
 20
187.8222009999998
 30
0.0
 11
124.3044899999999
 21
186.822201
 31
0.0
  0
LINE
  5
A0C8
330
A012
100
AcDbEntity
  8
1
  6
Continuous
100
AcDbLine
 10
124.3044899999999
 20
183.412185
 30
0.0
 11
123.3044899999999
 21
182.412201
 31
0.0
  0
LINE
  5
A0C9
330
A012
100
AcDbEntity
  8
1
  6
Continuous
100
AcDbLine
 10
123.3044899999999
 20
187.8222009999998
 30
0.0
 11
123.3044899999999
 21
182.4122159999998
 31
0.0
  0
LINE
  5
A0CA
330
A012
100
AcDbEntity
  8
4
  6
CENTER
100
AcDbLine
 10
154.484202
 20
115.1172089999999
 30
0.0
 11
194.6802619999999
 21
115.1172089999999
 31
0.0
  0
LINE
  5
A0CB
330
A012
100
AcDbEntity
  8
1
  6
Continuous
100
AcDbLine
 10
90.70449999999999
 20
36.495409
 30
0.0
 11
90.70449999999999
 21
53.739111
 31
0.0
  0
LINE
  5
A0CC
330
A012
100
AcDbEntity
  8
1
  6
Continuous
100
AcDbLine
 10
97.00450299999999
 20
34.11720900000001
 30
0.0
 11
95.804506
 21
34.11720900000001
 31
0.0
  0
LINE
  5
A0CD
330
A012
100
AcDbEntity
  8
1
  6
Continuous
100
AcDbLine
 10
95.80449900000001
 20
34.11720499999999
 30
0.0
 11
90.70449299999998
 21
36.495405
 31
0.0
  0
LINE
  5
A0CE
330
A012
100
AcDbEntity
  8
1
  6
Continuous
100
AcDbLine
 10
112.3045139999997
 20
37.217207
 30
0.0
 11
112.3045139999997
 21
41.217207
 31
0.0
  0
LINE
  5
A0CF
330
A012
100
AcDbEntity
  8
1
  6
Continuous
100
AcDbLine
 10
97.00450299999999
 20
56.11720899999999
 30
0.0
 11
95.804506
 21
56.11720899999999
 31
0.0
  0
LINE
  5
A0D0
330
A012
100
AcDbEntity
  8
1
  6
Continuous
100
AcDbLine
 10
95.80452200000001
 20
56.117216
 30
0.0
 11
90.70449999999999
 21
53.739103
 31
0.0
  0
LINE
  5
A0D1
330
A012
100
AcDbEntity
  8
1
  6
Continuous
100
AcDbLine
 10
97.00450299999999
 20
56.11720899999999
 30
0.0
 11
97.00450299999999
 21
34.11720900000001
 31
0.0
  0
LINE
  5
A0D2
330
A012
100
AcDbEntity
  8
1
  6
Continuous
100
AcDbLine
 10
95.804506
 20
34.11720900000001
 30
0.0
 11
95.804506
 21
56.11720899999999
 31
0.0
  0
LINE
  5
A0D3
330
A012
100
AcDbEntity
  8
1
  6
Continuous
100
AcDbLine
 10
114.1045019999999
 20
41.217207
 30
0.0
 11
112.3045139999997
 21
41.217207
 31
0.0
  0
LINE
  5
A0D4
330
A012
100
AcDbEntity
  8
1
  6
Continuous
100
AcDbLine
 10
114.1045019999999
 20
49.017206
 30
0.0
 11
112.3045139999997
 21
49.017206
 31
0.0
  0
LINE
  5
A0D5
330
A012
100
AcDbEntity
  8
4
  6
CENTER
100
AcDbLine
 10
88.97010999999997
 20
45.117209
 30
0.0
 11
126.1960909999999
 21
45.117209
 31
0.0
  0
LINE
  5
A0D6
330
A012
100
AcDbEntity
  8
1
  6
Continuous
100
AcDbLine
 10
112.454508
 20
51.617209
 30
0.0
 11
112.454508
 21
49.017206
 31
0.0
  0
LINE
  5
A0D7
330
A012
100
AcDbEntity
  8
1
  6
Continuous
100
AcDbLine
 10
112.3045139999997
 20
38.467218
 30
0.0
 11
112.454508
 21
38.617216
 31
0.0
  0
LINE
  5
A0D8
330
A012
100
AcDbEntity
  8
1
  6
Continuous
100
AcDbLine
 10
112.454508
 20
51.617209
 30
0.0
 11
112.3044989999997
 21
51.76721
 31
0.0
  0
LINE
  5
A0D9
330
A012
100
AcDbEntity
  8
1
  6
Continuous
100
AcDbLine
 10
175.1705879999999
 20
41.46280899999999
 30
0.0
 11
175.1705879999999
 21
41.84800899999999
 31
0.0
  0
LINE
  5
A0DA
330
A012
100
AcDbEntity
  8
1
  6
Continuous
100
AcDbLine
 10
177.1705879999999
 20
41.820509
 30
0.0
 11
177.1705879999999
 21
42.205706
 31
0.0
  0
LINE
  5
A0DB
330
A012
100
AcDbEntity
  8
1
  6
Continuous
100
AcDbLine
 10
175.7705939999999
 20
38.617209
 30
0.0
 11
175.7705939999999
 21
51.617209
 31
0.0
  0
LINE
  5
A0DC
330
A012
100
AcDbEntity
  8
1
  6
Continuous
100
AcDbLine
 10
176.5705969999999
 20
38.617209
 30
0.0
 11
176.5705969999999
 21
51.617209
 31
0.0
  0
LINE
  5
A0DD
330
A012
100
AcDbEntity
  8
1
  6
Continuous
100
AcDbLine
 10
175.7705939999999
 20
38.617209
 30
0.0
 11
176.5705969999999
 21
38.617209
 31
0.0
  0
LINE
  5
A0DE
330
A012
100
AcDbEntity
  8
1
  6
Continuous
100
AcDbLine
 10
175.7705939999999
 20
51.617209
 30
0.0
 11
176.5705969999999
 21
51.617209
 31
0.0
  0
LINE
  5
A0DF
330
A012
100
AcDbEntity
  8
1
  6
Continuous
100
AcDbLine
 10
175.170603
 20
41.46280899999999
 30
0.0
 11
175.7705939999999
 21
41.57010800000001
 31
0.0
  0
LINE
  5
A0E0
330
A012
100
AcDbEntity
  8
1
  6
Continuous
100
AcDbLine
 10
175.569498
 20
42.599913
 30
0.0
 11
175.7705939999999
 21
42.69410899999999
 31
0.0
  0
LINE
  5
A0E1
330
A012
100
AcDbEntity
  8
1
  6
Continuous
100
AcDbLine
 10
175.649302
 20
44.418509
 30
0.0
 11
175.7705939999999
 21
44.488703
 31
0.0
  0
LINE
  5
A0E2
330
A012
100
AcDbEntity
  8
1
  6
Continuous
100
AcDbLine
 10
175.1705879999999
 20
46.79700299999999
 30
0.0
 11
175.7705939999999
 21
47.078001
 31
0.0
  0
LINE
  5
A0E3
330
A012
100
AcDbEntity
  8
1
  6
Continuous
100
AcDbLine
 10
175.170603
 20
48.414007
 30
0.0
 11
175.7705939999999
 21
48.521307
 31
0.0
  0
LINE
  5
A0E4
330
A012
100
AcDbEntity
  8
1
  6
Continuous
100
AcDbLine
 10
175.170603
 20
41.84800899999999
 30
0.0
 11
175.7705939999999
 21
41.95530499999999
 31
0.0
  0
LINE
  5
A0E5
330
A012
100
AcDbEntity
  8
1
  6
Continuous
100
AcDbLine
 10
175.173609
 20
43.045107
 30
0.0
 11
175.770609
 21
43.32470899999999
 31
0.0
  0
LINE
  5
A0E6
330
A012
100
AcDbEntity
  8
1
  6
Continuous
100
AcDbLine
 10
175.2499939999999
 20
45.111704
 30
0.0
 11
175.770578
 21
45.413099
 31
0.0
  0
LINE
  5
A0E7
330
A012
100
AcDbEntity
  8
1
  6
Continuous
100
AcDbLine
 10
175.1705879999999
 20
47.25830300000001
 30
0.0
 11
175.7705939999999
 21
47.53920599999999
 31
0.0
  0
LINE
  5
A0E8
330
A012
100
AcDbEntity
  8
1
  6
Continuous
100
AcDbLine
 10
175.170603
 20
48.792009
 30
0.0
 11
175.7705939999999
 21
48.899309
 31
0.0
  0
LINE
  5
A0E9
330
A012
100
AcDbEntity
  8
1
  6
Continuous
100
AcDbLine
 10
175.1705879999999
 20
46.797007
 30
0.0
 11
175.1705879999999
 21
47.258307
 31
0.0
  0
LINE
  5
A0EA
330
A012
100
AcDbEntity
  8
1
  6
Continuous
100
AcDbLine
 10
175.1705879999999
 20
48.414007
 30
0.0
 11
175.1705879999999
 21
48.792009
 31
0.0
  0
LINE
  5
A0EB
330
A012
100
AcDbEntity
  8
1
  6
Continuous
100
AcDbLine
 10
175.1852969999999
 20
43.031908
 30
0.0
 11
175.581202
 21
42.58680499999999
 31
0.0
  0
LINE
  5
A0EC
330
A012
100
AcDbEntity
  8
1
  6
Continuous
100
AcDbLine
 10
176.774698
 20
43.794813
 30
0.0
 11
177.1706029999998
 21
43.34970999999998
 31
0.0
  0
LINE
  5
A0ED
330
A012
100
AcDbEntity
  8
1
  6
Continuous
100
AcDbLine
 10
175.2499939999999
 20
45.11171199999998
 30
0.0
 11
175.6492859999999
 21
44.418509
 31
0.0
  0
LINE
  5
A0EE
330
A012
100
AcDbEntity
  8
1
  6
Continuous
100
AcDbLine
 10
177.2499939999999
 20
45.345007
 30
0.0
 11
176.9455049999999
 21
46.093107
 31
0.0
  0
LINE
  5
A0EF
330
A012
100
AcDbEntity
  8
1
  6
Continuous
100
AcDbLine
 10
176.5705969999999
 20
41.713209
 30
0.0
 11
177.1706029999998
 21
41.820509
 31
0.0
  0
LINE
  5
A0F0
330
A012
100
AcDbEntity
  8
1
  6
Continuous
100
AcDbLine
 10
176.5705969999999
 20
42.09840599999997
 30
0.0
 11
177.1706029999998
 21
42.20570900000001
 31
0.0
  0
LINE
  5
A0F1
330
A012
100
AcDbEntity
  8
1
  6
Continuous
100
AcDbLine
 10
176.5705969999999
 20
43.068708
 30
0.0
 11
177.1705879999999
 21
43.349707
 31
0.0
  0
LINE
  5
A0F2
330
A012
100
AcDbEntity
  8
1
  6
Continuous
100
AcDbLine
 10
176.5705819999998
 20
43.699301
 30
0.0
 11
176.774683
 21
43.79480599999999
 31
0.0
  0
LINE
  5
A0F3
330
A012
100
AcDbEntity
  8
1
  6
Continuous
100
AcDbLine
 10
176.5705969999999
 20
44.951803
 30
0.0
 11
177.2499939999999
 21
45.345003
 31
0.0
  0
LINE
  5
A0F4
330
A012
100
AcDbEntity
  8
1
  6
Continuous
100
AcDbLine
 10
176.5705969999999
 20
45.876108
 30
0.0
 11
176.9455049999999
 21
46.09311499999999
 31
0.0
  0
LINE
  5
A0F5
330
A012
100
AcDbEntity
  8
1
  6
Continuous
100
AcDbLine
 10
176.5705819999998
 20
47.452601
 30
0.0
 11
177.1705879999999
 21
47.73350299999999
 31
0.0
  0
LINE
  5
A0F6
330
A012
100
AcDbEntity
  8
1
  6
Continuous
100
AcDbLine
 10
176.5705969999999
 20
47.91380499999998
 30
0.0
 11
176.783884
 21
48.01370399999999
 31
0.0
  0
LINE
  5
A0F7
330
A012
100
AcDbEntity
  8
1
  6
Continuous
100
AcDbLine
 10
176.5705969999999
 20
48.664408
 30
0.0
 11
177.1706029999998
 21
48.771708
 31
0.0
  0
LINE
  5
A0F8
330
A012
100
AcDbEntity
  8
1
  6
Continuous
100
AcDbLine
 10
176.5705819999998
 20
49.042402
 30
0.0
 11
176.761484
 21
49.07650199999999
 31
0.0
  0
LINE
  5
A0F9
330
A012
100
AcDbEntity
  8
1
  6
Continuous
100
AcDbLine
 10
158.3333989999998
 20
34.11720900000001
 30
0.0
 11
158.3333989999998
 21
56.11720899999999
 31
0.0
  0
LINE
  5
A0FA
330
A012
100
AcDbEntity
  8
1
  6
Continuous
100
AcDbLine
 10
162.8333989999999
 20
34.11720900000001
 30
0.0
 11
162.8333989999999
 21
56.11720899999999
 31
0.0
  0
LINE
  5
A0FB
330
A012
100
AcDbEntity
  8
1
  6
Continuous
100
AcDbLine
 10
161.871103
 20
45.117209
 30
0.0
 11
158.3333989999998
 21
45.117209
 31
0.0
  0
LINE
  5
A0FC
330
A012
100
AcDbEntity
  8
1
  6
Continuous
100
AcDbLine
 10
97.00450299999999
 20
37.217207
 30
0.0
 11
112.3044989999997
 21
37.217207
 31
0.0
  0
LINE
  5
A0FD
330
A012
100
AcDbEntity
  8
1
  6
Continuous
100
AcDbLine
 10
97.00450299999999
 20
53.017202
 30
0.0
 11
112.3044989999997
 21
53.017202
 31
0.0
  0
LINE
  5
A0FE
330
A012
100
AcDbEntity
  8
1
  6
Continuous
100
AcDbLine
 10
114.1045019999999
 20
49.017206
 30
0.0
 11
114.1045019999999
 21
41.217207
 31
0.0
  0
LINE
  5
A0FF
330
A012
100
AcDbEntity
  8
1
  6
Continuous
100
AcDbLine
 10
112.454508
 20
41.217207
 30
0.0
 11
112.454508
 21
38.617209
 31
0.0
  0
LINE
  5
A100
330
A012
100
AcDbEntity
  8
1
  6
Continuous
100
AcDbLine
 10
112.3045139999997
 20
49.017206
 30
0.0
 11
112.3045139999997
 21
53.017202
 31
0.0
  0
LINE
  5
A101
330
A012
100
AcDbEntity
  8
1
  6
Continuous
100
AcDbLine
 10
237.3214819999998
 20
127.818914
 30
0.0
 11
226.3214969999999
 21
121.468069
 31
0.0
  0
LINE
  5
A102
330
A012
100
AcDbEntity
  8
1
  6
Continuous
100
AcDbLine
 10
248.3214819999997
 20
108.7663559999999
 30
0.0
 11
237.321512
 21
102.4155099999999
 31
0.0
  0
LINE
  5
A103
330
A012
100
AcDbEntity
  8
1
  6
Continuous
100
AcDbLine
 10
226.3214969999999
 20
108.7663559999999
 30
0.0
 11
226.3214969999999
 21
121.468054
 31
0.0
  0
LINE
  5
A104
330
A012
100
AcDbEntity
  8
1
  6
Continuous
100
AcDbLine
 10
248.321512
 20
108.7663559999999
 30
0.0
 11
248.321512
 21
121.468054
 31
0.0
  0
LINE
  5
A105
330
A012
100
AcDbEntity
  8
1
  6
Continuous
100
AcDbLine
 10
237.321512
 20
102.4155029999999
 30
0.0
 11
226.321512
 21
108.7663559999999
 31
0.0
  0
LINE
  5
A106
330
A012
100
AcDbEntity
  8
1
  6
Continuous
100
AcDbLine
 10
248.321512
 20
121.468069
 30
0.0
 11
237.321512
 21
127.818914
 31
0.0
  0
LINE
  5
A107
330
A012
100
AcDbEntity
  8
1
  6
Continuous
100
AcDbLine
 10
158.3333989999998
 20
102.4155029999999
 30
0.0
 11
161.8509159999999
 21
102.4155029999999
 31
0.0
  0
LINE
  5
A108
330
A012
100
AcDbEntity
  8
1
  6
Continuous
100
AcDbLine
 10
158.3333989999998
 20
127.818914
 30
0.0
 11
161.8509159999999
 21
127.818914
 31
0.0
  0
LINE
  5
A109
330
A012
100
AcDbEntity
  8
1
  6
Continuous
100
AcDbLine
 10
158.3333989999998
 20
121.468054
 30
0.0
 11
161.8509159999999
 21
121.468054
 31
0.0
  0
LINE
  5
A10A
330
A012
100
AcDbEntity
  8
1
  6
Continuous
100
AcDbLine
 10
158.3333989999998
 20
108.7663559999999
 30
0.0
 11
161.8509159999999
 21
108.7663559999999
 31
0.0
  0
LINE
  5
A10B
330
A012
100
AcDbEntity
  8
1
  6
Continuous
100
AcDbLine
 10
161.850931
 20
102.4155029999999
 30
0.0
 11
162.8333989999999
 21
104.1172009999997
 31
0.0
  0
LINE
  5
A10C
330
A012
100
AcDbEntity
  8
1
  6
Continuous
100
AcDbLine
 10
161.8509159999999
 20
127.818914
 30
0.0
 11
162.8333989999999
 21
126.117209
 31
0.0
  0
LINE
  5
A10D
330
A012
100
AcDbEntity
  8
1
  6
Continuous
100
AcDbLine
 10
158.3333989999998
 20
56.11720899999999
 30
0.0
 11
162.8333989999999
 21
56.11720899999999
 31
0.0
  0
LINE
  5
A10E
330
A012
100
AcDbEntity
  8
1
  6
Continuous
100
AcDbLine
 10
158.3333989999998
 20
34.11720900000001
 30
0.0
 11
162.8333989999999
 21
34.11720900000001
 31
0.0
  0
LINE
  5
A10F
330
A012
100
AcDbEntity
  8
1
  6
Continuous
100
AcDbLine
 10
158.3333989999998
 20
196.1172089999998
 30
0.0
 11
158.3333989999998
 21
174.117209
 31
0.0
  0
LINE
  5
A110
330
A012
100
AcDbEntity
  8
1
  6
Continuous
100
AcDbLine
 10
162.8333989999999
 20
196.1172089999998
 30
0.0
 11
162.8333989999999
 21
174.117209
 31
0.0
  0
LINE
  5
A111
330
A012
100
AcDbEntity
  8
1
  6
Continuous
100
AcDbLine
 10
161.871103
 20
185.117209
 30
0.0
 11
158.3333989999998
 21
185.117209
 31
0.0
  0
LINE
  5
A112
330
A012
100
AcDbEntity
  8
1
  6
Continuous
100
AcDbLine
 10
158.3333989999998
 20
174.117209
 30
0.0
 11
162.8333989999999
 21
174.117209
 31
0.0
  0
LINE
  5
A113
330
A012
100
AcDbEntity
  8
1
  6
Continuous
100
AcDbLine
 10
158.3333989999998
 20
196.1172089999998
 30
0.0
 11
162.8333989999999
 21
196.1172089999998
 31
0.0
  0
LINE
  5
A114
330
A012
100
AcDbEntity
  8
1
  6
Continuous
100
AcDbLine
 10
233.491404
 20
122.8172049999999
 30
0.0
 11
241.151713
 21
122.8172049999999
 31
0.0
  0
LINE
  5
A115
330
A012
100
AcDbEntity
  8
1
  6
Continuous
100
AcDbLine
 10
229.7997689999998
 20
119.286566
 30
0.0
 11
231.6365
 21
118.268499
 31
0.0
  0
LINE
  5
A116
330
A012
100
AcDbEntity
  8
1
  6
Continuous
100
AcDbLine
 10
241.4908849999999
 20
107.595495
 30
0.0
 11
240.4727879999998
 21
109.43218
 31
0.0
  0
LINE
  5
A117
330
A012
100
AcDbEntity
  8
1
  6
Continuous
100
AcDbLine
 10
245.0214939999999
 20
118.9473019999998
 30
0.0
 11
245.0214939999999
 21
111.287008
 31
0.0
  0
LINE
  5
A118
330
A012
100
AcDbEntity
  8
1
  6
Continuous
100
AcDbLine
 10
237.321512
 20
108.7663629999999
 30
0.0
 11
242.821512
 21
111.941778
 31
0.0
  0
LINE
  5
A119
330
A012
100
AcDbEntity
  8
1
  6
Continuous
100
AcDbLine
 10
231.8215279999999
 20
118.2926389999997
 30
0.0
 11
237.321512
 21
121.468054
 31
0.0
  0
LINE
  5
A11A
330
A012
100
AcDbEntity
  8
1
  6
Continuous
100
AcDbLine
 10
231.821512
 20
118.2926389999997
 30
0.0
 11
231.821512
 21
111.9417859999998
 31
0.0
  0
LINE
  5
A11B
330
A012
100
AcDbEntity
  8
1
  6
Continuous
100
AcDbLine
 10
242.821512
 20
118.2926389999997
 30
0.0
 11
242.821512
 21
111.9417859999998
 31
0.0
  0
LINE
  5
A11C
330
A012
100
AcDbEntity
  8
1
  6
Continuous
100
AcDbLine
 10
231.821512
 20
111.941778
 30
0.0
 11
237.321512
 21
108.766348
 31
0.0
  0
LINE
  5
A11D
330
A012
100
AcDbEntity
  8
1
  6
Continuous
100
AcDbLine
 10
237.321512
 20
121.468054
 30
0.0
 11
242.821512
 21
118.292624
 31
0.0
  0
LINE
  5
A11E
330
A012
100
AcDbEntity
  8
1
  6
Continuous
100
AcDbLine
 10
187.4508459999999
 20
121.468054
 30
0.0
 11
190.66836
 21
121.468054
 31
0.0
  0
LINE
  5
A11F
330
A012
100
AcDbEntity
  8
1
  6
Continuous
100
AcDbLine
 10
187.4508459999999
 20
118.2926389999997
 30
0.0
 11
190.66836
 21
118.2926389999997
 31
0.0
  0
LINE
  5
A120
330
A012
100
AcDbEntity
  8
1
  6
Continuous
100
AcDbLine
 10
187.4508459999999
 20
111.941778
 30
0.0
 11
190.66836
 21
111.941778
 31
0.0
  0
LINE
  5
A121
330
A012
100
AcDbEntity
  8
1
  6
Continuous
100
AcDbLine
 10
187.4508459999999
 20
108.766348
 30
0.0
 11
190.66836
 21
108.766348
 31
0.0
  0
LINE
  5
A122
330
A012
100
AcDbEntity
  8
1
  6
Continuous
100
AcDbLine
 10
190.66836
 20
121.468069
 30
0.0
 11
191.159601
 21
120.617209
 31
0.0
  0
LINE
  5
A123
330
A012
100
AcDbEntity
  8
1
  6
Continuous
100
AcDbLine
 10
186.959604
 20
120.617209
 30
0.0
 11
187.450861
 21
121.468069
 31
0.0
  0
LINE
  5
A124
330
A012
100
AcDbEntity
  8
1
  6
Continuous
100
AcDbLine
 10
186.959604
 20
109.617209
 30
0.0
 11
187.4508459999999
 21
108.766348
 31
0.0
  0
LINE
  5
A125
330
A012
100
AcDbEntity
  8
1
  6
Continuous
100
AcDbLine
 10
190.66836
 20
108.766348
 30
0.0
 11
191.1596169999999
 21
109.6172159999997
 31
0.0
  0
LINE
  5
A126
330
A012
100
AcDbEntity
  8
1
  6
Continuous
100
AcDbLine
 10
186.959604
 20
190.617209
 30
0.0
 11
191.159601
 21
190.617209
 31
0.0
  0
LINE
  5
A127
330
A012
100
AcDbEntity
  8
1
  6
Continuous
100
AcDbLine
 10
186.959604
 20
179.6172089999998
 30
0.0
 11
191.159601
 21
179.6172089999998
 31
0.0
  0
LINE
  5
A128
330
A012
100
AcDbEntity
  8
1
  6
Continuous
100
AcDbLine
 10
190.66836
 20
185.117209
 30
0.0
 11
187.4508459999999
 21
185.117209
 31
0.0
  0
LINE
  5
A129
330
A012
100
AcDbEntity
  8
4
  6
CENTER
100
AcDbLine
 10
154.484202
 20
45.117209
 30
0.0
 11
194.6802619999999
 21
45.117209
 31
0.0
  0
LINE
  5
A12A
330
A012
100
AcDbEntity
  8
1
  6
Continuous
100
AcDbLine
 10
186.959604
 20
39.617209
 30
0.0
 11
186.959604
 21
50.617209
 31
0.0
  0
LINE
  5
A12B
330
A012
100
AcDbEntity
  8
1
  6
Continuous
100
AcDbLine
 10
191.159601
 20
39.617209
 30
0.0
 11
191.159601
 21
50.617209
 31
0.0
  0
LINE
  5
A12C
330
A012
100
AcDbEntity
  8
1
  6
Continuous
100
AcDbLine
 10
186.959604
 20
39.617209
 30
0.0
 11
191.159601
 21
39.617209
 31
0.0
  0
LINE
  5
A12D
330
A012
100
AcDbEntity
  8
1
  6
Continuous
100
AcDbLine
 10
186.959604
 20
50.617209
 30
0.0
 11
191.159601
 21
50.617209
 31
0.0
  0
LINE
  5
A12E
330
A012
100
AcDbEntity
  8
1
  6
Continuous
100
AcDbLine
 10
190.66836
 20
45.117209
 30
0.0
 11
187.4508459999999
 21
45.117209
 31
0.0
  0
LINE
  5
A12F
330
A012
100
AcDbEntity
  8
2
  6
Continuous
100
AcDbLine
 10
97.534503
 20
106.1587049999999
 30
0.0
 11
111.2102889999997
 21
106.1587049999999
 31
0.0
  0
LINE
  5
A130
330
A012
100
AcDbEntity
  8
2
  6
Continuous
100
AcDbLine
 10
97.00450299999999
 20
105.8527149999999
 30
0.0
 11
97.534503
 21
106.1587049999999
 31
0.0
  0
LINE
  5
A131
330
A012
100
AcDbEntity
  8
2
  6
Continuous
100
AcDbLine
 10
115.4323219999999
 20
118.211203
 30
0.0
 11
123.710503
 21
118.211203
 31
0.0
  0
LINE
  5
A132
330
A012
100
AcDbEntity
  8
2
  6
Continuous
100
AcDbLine
 10
115.4323219999999
 20
112.023207
 30
0.0
 11
123.7104959999999
 21
112.023207
 31
0.0
  0
LINE
  5
A133
330
A012
100
AcDbEntity
  8
2
  6
Continuous
100
AcDbLine
 10
115.1045019999999
 20
118.539039
 30
0.0
 11
115.4323219999999
 21
118.211203
 31
0.0
  0
LINE
  5
A134
330
A012
100
AcDbEntity
  8
2
  6
Continuous
100
AcDbLine
 10
115.1045019999999
 20
111.6953949999999
 30
0.0
 11
115.4323219999999
 21
112.023207
 31
0.0
  0
LINE
  5
A135
330
A012
100
AcDbEntity
  8
1
  6
Continuous
100
AcDbLine
 10
299.472422
 20
118.771612
 30
0.0
 11
299.472422
 21
118.3864189999999
 31
0.0
  0
LINE
  5
A136
330
A012
100
AcDbEntity
  8
1
  6
Continuous
100
AcDbLine
 10
297.472422
 20
118.4139159999999
 30
0.0
 11
297.472422
 21
118.028708
 31
0.0
  0
LINE
  5
A137
330
A012
100
AcDbEntity
  8
1
  6
Continuous
100
AcDbLine
 10
298.8724159999998
 20
121.617209
 30
0.0
 11
298.8724159999998
 21
108.617209
 31
0.0
  0
LINE
  5
A138
330
A012
100
AcDbEntity
  8
1
  6
Continuous
100
AcDbLine
 10
298.072428
 20
121.617209
 30
0.0
 11
298.072428
 21
108.617209
 31
0.0
  0
LINE
  5
A139
330
A012
100
AcDbEntity
  8
1
  6
Continuous
100
AcDbLine
 10
298.8724159999998
 20
121.617209
 30
0.0
 11
298.072428
 21
121.617209
 31
0.0
  0
LINE
  5
A13A
330
A012
100
AcDbEntity
  8
1
  6
Continuous
100
AcDbLine
 10
298.8724159999998
 20
108.617209
 30
0.0
 11
298.072428
 21
108.617209
 31
0.0
  0
LINE
  5
A13B
330
A012
100
AcDbEntity
  8
1
  6
Continuous
100
AcDbLine
 10
299.472422
 20
118.771612
 30
0.0
 11
298.8724159999998
 21
118.664312
 31
0.0
  0
LINE
  5
A13C
330
A012
100
AcDbEntity
  8
1
  6
Continuous
100
AcDbLine
 10
299.073618
 20
117.634512
 30
0.0
 11
298.8724159999998
 21
117.540304
 31
0.0
  0
LINE
  5
A13D
330
A012
100
AcDbEntity
  8
1
  6
Continuous
100
AcDbLine
 10
298.9937229999998
 20
115.815931
 30
0.0
 11
298.8724159999998
 21
115.7457179999999
 31
0.0
  0
LINE
  5
A13E
330
A012
100
AcDbEntity
  8
1
  6
Continuous
100
AcDbLine
 10
299.472422
 20
113.437399
 30
0.0
 11
298.8724159999998
 21
113.1564999999997
 31
0.0
  0
LINE
  5
A13F
330
A012
100
AcDbEntity
  8
1
  6
Continuous
100
AcDbLine
 10
299.472422
 20
111.820501
 30
0.0
 11
298.8724159999998
 21
111.713102
 31
0.0
  0
LINE
  5
A140
330
A012
100
AcDbEntity
  8
1
  6
Continuous
100
AcDbLine
 10
299.472391
 20
118.3864189999999
 30
0.0
 11
298.8724159999998
 21
118.27912
 31
0.0
  0
LINE
  5
A141
330
A012
100
AcDbEntity
  8
1
  6
Continuous
100
AcDbLine
 10
299.4695229999999
 20
117.189306
 30
0.0
 11
298.8724159999998
 21
116.909704
 31
0.0
  0
LINE
  5
A142
330
A012
100
AcDbEntity
  8
1
  6
Continuous
100
AcDbLine
 10
299.393107
 20
115.122709
 30
0.0
 11
298.8724159999998
 21
114.8213179999999
 31
0.0
  0
LINE
  5
A143
330
A012
100
AcDbEntity
  8
1
  6
Continuous
100
AcDbLine
 10
299.472422
 20
112.976103
 30
0.0
 11
298.8724159999998
 21
112.6951959999999
 31
0.0
  0
LINE
  5
A144
330
A012
100
AcDbEntity
  8
1
  6
Continuous
100
AcDbLine
 10
299.472422
 20
111.442419
 30
0.0
 11
298.8723849999999
 21
111.335112
 31
0.0
  0
LINE
  5
A145
330
A012
100
AcDbEntity
  8
1
  6
Continuous
100
AcDbLine
 10
299.472422
 20
113.437407
 30
0.0
 11
299.472422
 21
112.97611
 31
0.0
  0
LINE
  5
A146
330
A012
100
AcDbEntity
  8
1
  6
Continuous
100
AcDbLine
 10
299.472422
 20
111.820509
 30
0.0
 11
299.472422
 21
111.442411
 31
0.0
  0
LINE
  5
A147
330
A012
100
AcDbEntity
  8
1
  6
Continuous
100
AcDbLine
 10
299.457712
 20
117.2025199999997
 30
0.0
 11
299.0618079999999
 21
117.647619
 31
0.0
  0
LINE
  5
A148
330
A012
100
AcDbEntity
  8
1
  6
Continuous
100
AcDbLine
 10
297.868326
 20
116.439627
 30
0.0
 11
297.472422
 21
116.8847259999999
 31
0.0
  0
LINE
  5
A149
330
A012
100
AcDbEntity
  8
1
  6
Continuous
100
AcDbLine
 10
299.393137
 20
115.122717
 30
0.0
 11
298.9937229999998
 21
115.815924
 31
0.0
  0
LINE
  5
A14A
330
A012
100
AcDbEntity
  8
1
  6
Continuous
100
AcDbLine
 10
297.393137
 20
114.8893949999997
 30
0.0
 11
297.697519
 21
114.14131
 31
0.0
  0
LINE
  5
A14B
330
A012
100
AcDbEntity
  8
1
  6
Continuous
100
AcDbLine
 10
298.072397
 20
118.5212149999999
 30
0.0
 11
297.472422
 21
118.4139159999999
 31
0.0
  0
LINE
  5
A14C
330
A012
100
AcDbEntity
  8
1
  6
Continuous
100
AcDbLine
 10
298.072397
 20
118.1360229999997
 30
0.0
 11
297.472422
 21
118.028723
 31
0.0
  0
LINE
  5
A14D
330
A012
100
AcDbEntity
  8
1
  6
Continuous
100
AcDbLine
 10
298.072428
 20
117.1657159999997
 30
0.0
 11
297.472422
 21
116.8847259999999
 31
0.0
  0
LINE
  5
A14E
330
A012
100
AcDbEntity
  8
1
  6
Continuous
100
AcDbLine
 10
298.072428
 20
116.5350859999997
 30
0.0
 11
297.868326
 21
116.439581
 31
0.0
  0
LINE
  5
A14F
330
A012
100
AcDbEntity
  8
1
  6
Continuous
100
AcDbLine
 10
298.072428
 20
115.2826139999999
 30
0.0
 11
297.393137
 21
114.8894179999999
 31
0.0
  0
LINE
  5
A150
330
A012
100
AcDbEntity
  8
1
  6
Continuous
100
AcDbLine
 10
298.072428
 20
114.3583049999999
 30
0.0
 11
297.697519
 21
114.141295
 31
0.0
  0
LINE
  5
A151
330
A012
100
AcDbEntity
  8
1
  6
Continuous
100
AcDbLine
 10
298.072428
 20
112.7817969999999
 30
0.0
 11
297.472422
 21
112.500898
 31
0.0
  0
LINE
  5
A152
330
A012
100
AcDbEntity
  8
1
  6
Continuous
100
AcDbLine
 10
298.072428
 20
112.3205929999999
 30
0.0
 11
297.8592319999999
 21
112.2206939999999
 31
0.0
  0
LINE
  5
A153
330
A012
100
AcDbEntity
  8
1
  6
Continuous
100
AcDbLine
 10
298.072397
 20
111.570005
 30
0.0
 11
297.472422
 21
111.4627129999997
 31
0.0
  0
LINE
  5
A154
330
A012
100
AcDbEntity
  8
1
  6
Continuous
100
AcDbLine
 10
298.072428
 20
111.191992
 30
0.0
 11
297.8816319999999
 21
111.1578959999997
 31
0.0
  0
LINE
  5
A155
330
A012
100
AcDbEntity
  8
1
  6
Continuous
100
AcDbLine
 10
316.30961
 20
127.818914
 30
0.0
 11
316.30961
 21
102.4155029999999
 31
0.0
  0
LINE
  5
A156
330
A012
100
AcDbEntity
  8
1
  6
Continuous
100
AcDbLine
 10
311.80961
 20
126.117209
 30
0.0
 11
311.80961
 21
104.117209
 31
0.0
  0
LINE
  5
A157
330
A012
100
AcDbEntity
  8
1
  6
Continuous
100
AcDbLine
 10
287.68342
 20
120.617209
 30
0.0
 11
287.68342
 21
109.617209
 31
0.0
  0
LINE
  5
A158
330
A012
100
AcDbEntity
  8
1
  6
Continuous
100
AcDbLine
 10
283.4834389999999
 20
120.617209
 30
0.0
 11
283.4834389999999
 21
109.617209
 31
0.0
  0
LINE
  5
A159
330
A012
100
AcDbEntity
  8
4
  6
CENTER
100
AcDbLine
 10
320.158823
 20
115.1172089999999
 30
0.0
 11
279.9627479999999
 21
115.1172089999999
 31
0.0
  0
LINE
  5
A15A
330
A012
100
AcDbEntity
  8
1
  6
Continuous
100
AcDbLine
 10
316.30961
 20
102.4155029999999
 30
0.0
 11
312.792093
 21
102.4155029999999
 31
0.0
  0
LINE
  5
A15B
330
A012
100
AcDbEntity
  8
1
  6
Continuous
100
AcDbLine
 10
316.30961
 20
127.818914
 30
0.0
 11
312.792093
 21
127.818914
 31
0.0
  0
LINE
  5
A15C
330
A012
100
AcDbEntity
  8
1
  6
Continuous
100
AcDbLine
 10
316.30961
 20
121.468054
 30
0.0
 11
312.792093
 21
121.468054
 31
0.0
  0
LINE
  5
A15D
330
A012
100
AcDbEntity
  8
1
  6
Continuous
100
AcDbLine
 10
316.30961
 20
108.7663559999999
 30
0.0
 11
312.792093
 21
108.7663559999999
 31
0.0
  0
LINE
  5
A15E
330
A012
100
AcDbEntity
  8
1
  6
Continuous
100
AcDbLine
 10
312.792124
 20
102.4155099999999
 30
0.0
 11
311.809641
 21
104.117209
 31
0.0
  0
LINE
  5
A15F
330
A012
100
AcDbEntity
  8
1
  6
Continuous
100
AcDbLine
 10
312.792124
 20
127.818914
 30
0.0
 11
311.809641
 21
126.117209
 31
0.0
  0
LINE
  5
A160
330
A012
100
AcDbEntity
  8
1
  6
Continuous
100
AcDbLine
 10
287.192179
 20
121.468054
 30
0.0
 11
283.97465
 21
121.468054
 31
0.0
  0
LINE
  5
A161
330
A012
100
AcDbEntity
  8
1
  6
Continuous
100
AcDbLine
 10
287.192179
 20
118.2926389999997
 30
0.0
 11
283.97465
 21
118.2926389999997
 31
0.0
  0
LINE
  5
A162
330
A012
100
AcDbEntity
  8
1
  6
Continuous
100
AcDbLine
 10
287.192179
 20
111.941778
 30
0.0
 11
283.97465
 21
111.941778
 31
0.0
  0
LINE
  5
A163
330
A012
100
AcDbEntity
  8
1
  6
Continuous
100
AcDbLine
 10
287.192179
 20
108.766348
 30
0.0
 11
283.97465
 21
108.766348
 31
0.0
  0
LINE
  5
A164
330
A012
100
AcDbEntity
  8
1
  6
Continuous
100
AcDbLine
 10
283.9746799999998
 20
121.468069
 30
0.0
 11
283.4834389999999
 21
120.617209
 31
0.0
  0
LINE
  5
A165
330
A012
100
AcDbEntity
  8
1
  6
Continuous
100
AcDbLine
 10
287.68342
 20
120.617193
 30
0.0
 11
287.192179
 21
121.468069
 31
0.0
  0
LINE
  5
A166
330
A012
100
AcDbEntity
  8
1
  6
Continuous
100
AcDbLine
 10
287.683451
 20
109.6172159999997
 30
0.0
 11
287.192179
 21
108.766333
 31
0.0
  0
LINE
  5
A167
330
A012
100
AcDbEntity
  8
1
  6
Continuous
100
AcDbLine
 10
283.9746799999998
 20
108.766348
 30
0.0
 11
283.4834079999998
 21
109.6172159999997
 31
0.0
  0
LINE
  5
A168
330
A012
100
AcDbEntity
  8
1
  6
Continuous
100
AcDbLine
 10
115.1045019999999
 20
187.8222009999998
 30
0.0
 11
115.1045019999999
 21
182.4122159999998
 31
0.0
  0
LINE
  5
A169
330
A012
100
AcDbEntity
  8
1
  6
Continuous
100
AcDbLine
 10
115.4323219999999
 20
187.8222009999998
 30
0.0
 11
115.4323219999999
 21
182.4122159999998
 31
0.0
  0
LINE
  5
A16A
330
A012
100
AcDbEntity
  8
1
  6
Continuous
100
AcDbLine
 10
114.404508
 20
187.8222009999998
 30
0.0
 11
123.3044899999999
 21
187.8222009999998
 31
0.0
  0
ARC
  5
A16B
330
A012
100
AcDbEntity
  8
1
  6
Continuous
100
AcDbCircle
 10
174.733698
 20
120.556006
 30
0.0
 40
1.837099999999999
100
AcDbArc
 50
283.756367
 51
304.360767
  0
ARC
  5
A16C
330
A012
100
AcDbEntity
  8
1
  6
Continuous
100
AcDbCircle
 10
177.349695
 20
119.4180049999998
 30
0.0
 40
1.02
100
AcDbArc
 50
220.1979809999999
 51
259.8874719999999
  0
ARC
  5
A16D
330
A012
100
AcDbEntity
  8
1
  6
Continuous
100
AcDbCircle
 10
174.704798
 20
120.6102049999998
 30
0.0
 40
3.0987
100
AcDbArc
 50
286.2014659999999
 51
290.116366
  0
ARC
  5
A16E
330
A012
100
AcDbEntity
  8
1
  6
Continuous
100
AcDbCircle
 10
171.7313019999999
 20
119.777716
 30
0.0
 40
4.3083
100
AcDbArc
 50
323.293064
 51
339.645761
  0
ARC
  5
A16F
330
A012
100
AcDbEntity
  8
1
  6
Continuous
100
AcDbCircle
 10
175.6375069999999
 20
116.404608
 30
0.0
 40
0.9421000000000001
100
AcDbArc
 50
352.03316
 51
7.966799
  0
ARC
  5
A170
330
A012
100
AcDbEntity
  8
1
  6
Continuous
100
AcDbCircle
 10
171.4834079999999
 20
116.9596
 30
0.0
 40
4.287499999999996
100
AcDbArc
 50
342.65496
 51
359.3338589999997
  0
ARC
  5
A171
330
A012
100
AcDbEntity
  8
1
  6
Continuous
100
AcDbCircle
 10
174.549204
 20
111.906912
 30
0.0
 40
1.236599999999999
100
AcDbArc
 50
350.98286
 51
59.83789399999999
  0
ARC
  5
A172
330
A012
100
AcDbEntity
  8
1
  6
Continuous
100
AcDbCircle
 10
177.512705
 20
111.621511
 30
0.0
 40
0.9435999999999999
100
AcDbArc
 50
111.260886
 51
183.128778
  0
ARC
  5
A173
330
A012
100
AcDbEntity
  8
1
  6
Continuous
100
AcDbCircle
 10
177.5022979999999
 20
110.5905059999999
 30
0.0
 40
0.9332
100
AcDbArc
 50
110.826185
 51
183.1239829999999
  0
ARC
  5
A174
330
A012
100
AcDbEntity
  8
1
  6
Continuous
100
AcDbCircle
 10
177.838907
 20
109.3703059999999
 30
0.0
 40
2.0872
100
AcDbArc
 50
121.08099
 51
127.4232849999997
  0
ARC
  5
A175
330
A012
100
AcDbEntity
  8
1
  6
Continuous
100
AcDbCircle
 10
173.3630009999999
 20
109.840704
 30
0.0
 40
2.415099999999998
100
AcDbArc
 50
355.467259
 51
41.54479600000001
  0
ARC
  5
A176
330
A012
100
AcDbEntity
  8
1
  6
Continuous
100
AcDbCircle
 10
176.8039039999999
 20
113.116911
 30
0.0
 40
1.0341
100
AcDbArc
 50
82.131392
 51
103.040487
  0
ARC
  5
A177
330
A012
100
AcDbEntity
  8
1
  6
Continuous
100
AcDbCircle
 10
237.321512
 20
115.1172089999999
 30
0.0
 40
7.299999999999998
100
AcDbArc
 50
150.999882
 51
299.00011
  0
ARC
  5
A178
330
A012
100
AcDbEntity
  8
1
  6
Continuous
100
AcDbCircle
 10
237.321512
 20
115.1172089999999
 30
0.0
 40
8.699999999999997
100
AcDbArc
 50
204.763283
 51
335.2366609999999
  0
ARC
  5
A179
330
A012
100
AcDbEntity
  8
1
  6
Continuous
100
AcDbCircle
 10
237.321512
 20
115.1172089999999
 30
0.0
 40
8.699999999999997
100
AcDbArc
 50
24.763297
 51
155.2366759999999
  0
ARC
  5
A17A
330
A012
100
AcDbEntity
  8
1
  6
Continuous
100
AcDbCircle
 10
237.321512
 20
105.9217049999999
 30
0.0
 40
4.15
100
AcDbArc
 50
140.55569
 51
160.011088
  0
ARC
  5
A17B
330
A012
100
AcDbEntity
  8
1
  6
Continuous
100
AcDbCircle
 10
237.321512
 20
105.9217049999999
 30
0.0
 40
4.15
100
AcDbArc
 50
19.988897
 51
39.444295
  0
ARC
  5
A17C
330
A012
100
AcDbEntity
  8
1
  6
Continuous
100
AcDbCircle
 10
237.321512
 20
115.1172089999999
 30
0.0
 40
7.0
100
AcDbArc
 50
150.999828
 51
299.0000819999999
  0
CIRCLE
  5
A17D
330
A012
100
AcDbEntity
  8
1
  6
Continuous
100
AcDbCircle
 10
105.7044929999999
 20
185.117209
 30
0.0
 40
1.5
  0
ARC
  5
A17E
330
A012
100
AcDbEntity
  8
1
  6
Continuous
100
AcDbCircle
 10
174.7337899999999
 20
190.556006
 30
0.0
 40
1.837099999999999
100
AcDbArc
 50
283.7564009999999
 51
304.360797
  0
ARC
  5
A17F
330
A012
100
AcDbEntity
  8
1
  6
Continuous
100
AcDbCircle
 10
177.349695
 20
189.4180049999999
 30
0.0
 40
1.02
100
AcDbArc
 50
220.197967
 51
259.8874579999999
  0
ARC
  5
A180
330
A012
100
AcDbEntity
  8
1
  6
Continuous
100
AcDbCircle
 10
174.7048889999998
 20
190.610205
 30
0.0
 40
3.0987
100
AcDbArc
 50
286.2014999999999
 51
290.1163999999998
  0
ARC
  5
A181
330
A012
100
AcDbEntity
  8
1
  6
Continuous
100
AcDbCircle
 10
171.731287
 20
189.7776999999999
 30
0.0
 40
4.3083
100
AcDbArc
 50
323.293095
 51
339.6457919999999
  0
ARC
  5
A182
330
A012
100
AcDbEntity
  8
1
  6
Continuous
100
AcDbCircle
 10
175.637583
 20
186.4046079999999
 30
0.0
 40
0.9421000000000001
100
AcDbArc
 50
352.033188
 51
7.966789999999995
  0
ARC
  5
A183
330
A012
100
AcDbEntity
  8
1
  6
Continuous
100
AcDbCircle
 10
171.483393
 20
186.9595999999999
 30
0.0
 40
4.287499999999996
100
AcDbArc
 50
342.6549889999999
 51
359.333888
  0
ARC
  5
A184
330
A012
100
AcDbEntity
  8
1
  6
Continuous
100
AcDbCircle
 10
174.5492959999999
 20
181.9069119999998
 30
0.0
 40
1.236599999999999
100
AcDbArc
 50
350.982889
 51
59.83788700000001
  0
ARC
  5
A185
330
A012
100
AcDbEntity
  8
1
  6
Continuous
100
AcDbCircle
 10
177.5127969999998
 20
181.6215109999999
 30
0.0
 40
0.9435999999999999
100
AcDbArc
 50
111.260872
 51
183.128764
  0
ARC
  5
A186
330
A012
100
AcDbEntity
  8
1
  6
Continuous
100
AcDbCircle
 10
177.5023899999999
 20
180.590506
 30
0.0
 40
0.9332
100
AcDbArc
 50
110.826171
 51
183.12397
  0
ARC
  5
A187
330
A012
100
AcDbEntity
  8
1
  6
Continuous
100
AcDbCircle
 10
177.838984
 20
179.370306
 30
0.0
 40
2.0872
100
AcDbArc
 50
121.080976
 51
127.4232709999999
  0
ARC
  5
A188
330
A012
100
AcDbEntity
  8
1
  6
Continuous
100
AcDbCircle
 10
173.3630929999999
 20
179.8407039999999
 30
0.0
 40
2.415099999999998
100
AcDbArc
 50
355.4672909999999
 51
41.544786
  0
ARC
  5
A189
330
A012
100
AcDbEntity
  8
1
  6
Continuous
100
AcDbCircle
 10
176.8039949999999
 20
183.116903
 30
0.0
 40
1.0341
100
AcDbArc
 50
82.13137900000003
 51
103.0404729999999
  0
ARC
  5
A18A
330
A012
100
AcDbEntity
  8
1
  6
Continuous
100
AcDbCircle
 10
174.7337899999999
 20
39.67840799999999
 30
0.0
 40
1.837099999999999
100
AcDbArc
 50
55.639203
 51
76.243599
  0
ARC
  5
A18B
330
A012
100
AcDbEntity
  8
1
  6
Continuous
100
AcDbCircle
 10
177.349695
 20
40.816408
 30
0.0
 40
1.02
100
AcDbArc
 50
100.1125419999999
 51
139.802033
  0
ARC
  5
A18C
330
A012
100
AcDbEntity
  8
1
  6
Continuous
100
AcDbCircle
 10
174.7048889999998
 20
39.624208
 30
0.0
 40
3.0987
100
AcDbArc
 50
69.8836
 51
73.79850000000002
  0
ARC
  5
A18D
330
A012
100
AcDbEntity
  8
1
  6
Continuous
100
AcDbCircle
 10
171.731287
 20
40.456709
 30
0.0
 40
4.3083
100
AcDbArc
 50
20.354208
 51
36.706905
  0
ARC
  5
A18E
330
A012
100
AcDbEntity
  8
1
  6
Continuous
100
AcDbCircle
 10
175.637583
 20
43.82980899999998
 30
0.0
 40
0.9421000000000001
100
AcDbArc
 50
352.03321
 51
7.966812
  0
ARC
  5
A18F
330
A012
100
AcDbEntity
  8
1
  6
Continuous
100
AcDbCircle
 10
171.483393
 20
43.274809
 30
0.0
 40
4.287499999999996
100
AcDbArc
 50
0.6661120000000002
 51
17.345011
  0
ARC
  5
A190
330
A012
100
AcDbEntity
  8
1
  6
Continuous
100
AcDbCircle
 10
174.5492959999999
 20
48.327509
 30
0.0
 40
1.236599999999999
100
AcDbArc
 50
300.1621129999999
 51
9.017110999999999
  0
ARC
  5
A191
330
A012
100
AcDbEntity
  8
1
  6
Continuous
100
AcDbCircle
 10
177.5127969999998
 20
48.612909
 30
0.0
 40
0.9435999999999999
100
AcDbArc
 50
176.8712319999999
 51
248.739124
  0
ARC
  5
A192
330
A012
100
AcDbEntity
  8
1
  6
Continuous
100
AcDbCircle
 10
177.5023899999999
 20
49.643908
 30
0.0
 40
0.9332
100
AcDbArc
 50
176.876027
 51
249.173825
  0
ARC
  5
A193
330
A012
100
AcDbEntity
  8
1
  6
Continuous
100
AcDbCircle
 10
177.838984
 20
50.864107
 30
0.0
 40
2.0872
100
AcDbArc
 50
232.5767289999999
 51
238.9190240000001
  0
ARC
  5
A194
330
A012
100
AcDbEntity
  8
1
  6
Continuous
100
AcDbCircle
 10
173.3630929999999
 20
50.393709
 30
0.0
 40
2.415099999999998
100
AcDbArc
 50
318.455214
 51
4.532708999999996
  0
ARC
  5
A195
330
A012
100
AcDbEntity
  8
1
  6
Continuous
100
AcDbCircle
 10
176.8039949999999
 20
47.117506
 30
0.0
 40
1.0341
100
AcDbArc
 50
256.9595269999999
 51
277.868621
  0
CIRCLE
  5
A196
330
A012
100
AcDbEntity
  8
1
  6
Continuous
100
AcDbCircle
 10
237.321512
 20
115.1172089999999
 30
0.0
 40
11.0
  0
ARC
  5
A197
330
A012
100
AcDbEntity
  8
1
  6
Continuous
100
AcDbCircle
 10
157.210596
 20
124.643484
 30
0.0
 40
5.622809999999999
100
AcDbArc
 50
325.6157519999998
 51
25.615752
  0
ARC
  5
A198
330
A012
100
AcDbEntity
  8
1
  6
Continuous
100
AcDbCircle
 10
141.8158819999999
 20
115.1172089999999
 30
0.0
 40
21.017519
100
AcDbArc
 50
342.4120459999999
 51
17.587954
  0
ARC
  5
A199
330
A012
100
AcDbEntity
  8
1
  6
Continuous
100
AcDbCircle
 10
157.210596
 20
105.5909329999997
 30
0.0
 40
5.622809999999999
100
AcDbArc
 50
334.384248
 51
34.38424799999999
  0
ARC
  5
A19A
330
A012
100
AcDbEntity
  8
1
  6
Continuous
100
AcDbCircle
 10
146.792719
 20
50.58956
 30
0.0
 40
16.04068599999999
100
AcDbArc
 50
340.0528149999999
 51
20.157459
  0
ARC
  5
A19B
330
A012
100
AcDbEntity
  8
1
  6
Continuous
100
AcDbCircle
 10
146.792719
 20
39.644857
 30
0.0
 40
16.04068599999999
100
AcDbArc
 50
339.8425409999999
 51
19.947185
  0
ARC
  5
A19C
330
A012
100
AcDbEntity
  8
1
  6
Continuous
100
AcDbCircle
 10
146.792719
 20
190.58956
 30
0.0
 40
16.04068599999999
100
AcDbArc
 50
340.0528149999999
 51
20.157459
  0
ARC
  5
A19D
330
A012
100
AcDbEntity
  8
1
  6
Continuous
100
AcDbCircle
 10
146.792719
 20
179.644857
 30
0.0
 40
16.04068599999999
100
AcDbArc
 50
339.8425409999999
 51
19.947185
  0
ARC
  5
A19E
330
A012
100
AcDbEntity
  8
1
  6
Continuous
100
AcDbCircle
 10
237.321512
 20
115.1172089999999
 30
0.0
 40
8.599999999999997
100
AcDbArc
 50
116.446693
 51
151.000074
  0
ARC
  5
A19F
330
A012
100
AcDbEntity
  8
1
  6
Continuous
100
AcDbCircle
 10
237.321512
 20
115.1172089999999
 30
0.0
 40
8.599999999999997
100
AcDbArc
 50
299.0001819999998
 51
333.553262
  0
ARC
  5
A1A0
330
A012
100
AcDbEntity
  8
1
  6
Continuous
100
AcDbCircle
 10
237.321512
 20
115.1172089999999
 30
0.0
 40
8.599999999999997
100
AcDbArc
 50
26.44669699999999
 51
63.553291
  0
CIRCLE
  5
A1A1
330
A012
100
AcDbEntity
  8
1
  6
Continuous
100
AcDbCircle
 10
237.321512
 20
115.1172089999999
 30
0.0
 40
6.5
  0
CIRCLE
  5
A1A2
330
A012
100
AcDbEntity
  8
1
  6
Continuous
100
AcDbCircle
 10
237.321512
 20
115.1172089999999
 30
0.0
 40
5.5
  0
ARC
  5
A1A3
330
A012
100
AcDbEntity
  8
1
  6
Continuous
100
AcDbCircle
 10
180.6508889999999
 20
115.1172089999999
 30
0.0
 40
10.50871499999999
100
AcDbArc
 50
342.411937
 51
17.58806299999999
  0
ARC
  5
A1A4
330
A012
100
AcDbEntity
  8
1
  6
Continuous
100
AcDbCircle
 10
188.3482149999999
 20
110.3540629999999
 30
0.0
 40
2.811392999999998
100
AcDbArc
 50
334.3844680000001
 51
34.384467
  0
ARC
  5
A1A5
330
A012
100
AcDbEntity
  8
1
  6
Continuous
100
AcDbCircle
 10
188.3482149999999
 20
119.880346
 30
0.0
 40
2.811392999999998
100
AcDbArc
 50
325.615533
 51
25.615532
  0
ARC
  5
A1A6
330
A012
100
AcDbEntity
  8
1
  6
Continuous
100
AcDbCircle
 10
189.7709899999999
 20
110.3540629999999
 30
0.0
 40
2.811392999999998
100
AcDbArc
 50
145.6155349999999
 51
205.615537
  0
ARC
  5
A1A7
330
A012
100
AcDbEntity
  8
1
  6
Continuous
100
AcDbCircle
 10
189.7709899999999
 20
119.880346
 30
0.0
 40
2.811392999999998
100
AcDbArc
 50
154.3844729999999
 51
214.3844749999999
  0
ARC
  5
A1A8
330
A012
100
AcDbEntity
  8
1
  6
Continuous
100
AcDbCircle
 10
197.4683169999999
 20
115.1172089999999
 30
0.0
 40
10.50871499999999
100
AcDbArc
 50
162.4119399999998
 51
197.5880699999999
  0
ARC
  5
A1A9
330
A012
100
AcDbEntity
  8
1
  6
Continuous
100
AcDbCircle
 10
183.216684
 20
187.867209
 30
0.0
 40
7.942914999999997
100
AcDbArc
 50
339.7436819999999
 51
20.256318
  0
ARC
  5
A1AA
330
A012
100
AcDbEntity
  8
1
  6
Continuous
100
AcDbCircle
 10
183.216684
 20
182.367209
 30
0.0
 40
7.942914999999997
100
AcDbArc
 50
339.7436819999999
 51
20.256318
  0
ARC
  5
A1AB
330
A012
100
AcDbEntity
  8
1
  6
Continuous
100
AcDbCircle
 10
194.902521
 20
182.367209
 30
0.0
 40
7.942914999999997
100
AcDbArc
 50
159.743686
 51
200.256311
  0
ARC
  5
A1AC
330
A012
100
AcDbEntity
  8
1
  6
Continuous
100
AcDbCircle
 10
194.902521
 20
187.867209
 30
0.0
 40
7.942914999999997
100
AcDbArc
 50
159.743686
 51
200.256311
  0
ARC
  5
A1AD
330
A012
100
AcDbEntity
  8
1
  6
Continuous
100
AcDbCircle
 10
183.216684
 20
42.367209
 30
0.0
 40
7.942914999999997
100
AcDbArc
 50
339.7436819999999
 51
20.256318
  0
ARC
  5
A1AE
330
A012
100
AcDbEntity
  8
1
  6
Continuous
100
AcDbCircle
 10
183.216684
 20
47.867209
 30
0.0
 40
7.942914999999997
100
AcDbArc
 50
339.7436819999999
 51
20.256318
  0
ARC
  5
A1AF
330
A012
100
AcDbEntity
  8
1
  6
Continuous
100
AcDbCircle
 10
194.902521
 20
47.867209
 30
0.0
 40
7.942914999999997
100
AcDbArc
 50
159.743686
 51
200.256311
  0
ARC
  5
A1B0
330
A012
100
AcDbEntity
  8
1
  6
Continuous
100
AcDbCircle
 10
194.902521
 20
42.367209
 30
0.0
 40
7.942914999999997
100
AcDbArc
 50
159.743686
 51
200.256311
  0
ARC
  5
A1B1
330
A012
100
AcDbEntity
  8
1
  6
Continuous
100
AcDbCircle
 10
237.321512
 20
115.1172089999999
 30
0.0
 40
3.093999999999998
100
AcDbArc
 50
330.9587439999999
 51
29.041256
  0
ARC
  5
A1B2
330
A012
100
AcDbEntity
  8
1
  6
Continuous
100
AcDbCircle
 10
237.321512
 20
115.1172089999999
 30
0.0
 40
8.9585
100
AcDbArc
 50
331.8655359999999
 51
28.134464
  0
ARC
  5
A1B3
330
A012
100
AcDbEntity
  8
2
  6
Continuous
100
AcDbCircle
 10
237.321512
 20
115.1172089999999
 30
0.0
 40
8.9585
100
AcDbArc
 50
28.134464
 51
151.865745
  0
ARC
  5
A1B4
330
A012
100
AcDbEntity
  8
1
  6
Continuous
100
AcDbCircle
 10
237.321512
 20
115.1172089999999
 30
0.0
 40
8.9585
100
AcDbArc
 50
151.865745
 51
208.1342649999998
  0
ARC
  5
A1B5
330
A012
100
AcDbEntity
  8
2
  6
Continuous
100
AcDbCircle
 10
237.321512
 20
115.1172089999999
 30
0.0
 40
8.9585
100
AcDbArc
 50
208.134255
 51
331.8655359999999
  0
ARC
  5
A1B6
330
A012
100
AcDbEntity
  8
2
  6
Continuous
100
AcDbCircle
 10
237.321512
 20
115.1172089999999
 30
0.0
 40
3.093999999999998
100
AcDbArc
 50
209.040674
 51
330.9587439999999
  0
ARC
  5
A1B7
330
A012
100
AcDbEntity
  8
2
  6
Continuous
100
AcDbCircle
 10
237.321512
 20
115.1172089999999
 30
0.0
 40
3.093999999999998
100
AcDbArc
 50
29.041256
 51
150.959326
  0
ARC
  5
A1B8
330
A012
100
AcDbEntity
  8
1
  6
Continuous
100
AcDbCircle
 10
299.9093419999999
 20
120.556006
 30
0.0
 40
1.837099999999999
100
AcDbArc
 50
235.639235
 51
256.243635
  0
ARC
  5
A1B9
330
A012
100
AcDbEntity
  8
1
  6
Continuous
100
AcDbCircle
 10
297.293314
 20
119.4180049999998
 30
0.0
 40
1.02
100
AcDbArc
 50
280.1125299999999
 51
319.8020179999998
  0
ARC
  5
A1BA
330
A012
100
AcDbEntity
  8
1
  6
Continuous
100
AcDbCircle
 10
299.938212
 20
120.6102049999998
 30
0.0
 40
3.0987
100
AcDbArc
 50
249.8836359999998
 51
253.7985359999999
  0
ARC
  5
A1BB
330
A012
100
AcDbEntity
  8
1
  6
Continuous
100
AcDbCircle
 10
302.9117219999998
 20
119.777716
 30
0.0
 40
4.3083
100
AcDbArc
 50
200.3542319999999
 51
216.7069339999999
  0
ARC
  5
A1BC
330
A012
100
AcDbEntity
  8
1
  6
Continuous
100
AcDbCircle
 10
299.005533
 20
116.404608
 30
0.0
 40
0.9421000000000001
100
AcDbArc
 50
172.033204
 51
187.966847
  0
ARC
  5
A1BD
330
A012
100
AcDbEntity
  8
1
  6
Continuous
100
AcDbCircle
 10
303.1596169999999
 20
116.9596
 30
0.0
 40
4.287499999999996
100
AcDbArc
 50
180.666143
 51
197.3450419999999
  0
ARC
  5
A1BE
330
A012
100
AcDbEntity
  8
1
  6
Continuous
100
AcDbCircle
 10
300.093821
 20
111.906912
 30
0.0
 40
1.236599999999999
100
AcDbArc
 50
120.162111
 51
189.0171389999999
  0
ARC
  5
A1BF
330
A012
100
AcDbEntity
  8
1
  6
Continuous
100
AcDbCircle
 10
297.1303199999999
 20
111.621511
 30
0.0
 40
0.9435999999999999
100
AcDbArc
 50
356.871222
 51
68.739113
  0
ARC
  5
A1C0
330
A012
100
AcDbEntity
  8
1
  6
Continuous
100
AcDbCircle
 10
297.1407259999999
 20
110.5905059999999
 30
0.0
 40
0.9332
100
AcDbArc
 50
356.876017
 51
69.17381299999999
  0
ARC
  5
A1C1
330
A012
100
AcDbEntity
  8
1
  6
Continuous
100
AcDbCircle
 10
296.804117
 20
109.3703059999999
 30
0.0
 40
2.0872
100
AcDbArc
 50
52.576716
 51
58.919008
  0
ARC
  5
A1C2
330
A012
100
AcDbEntity
  8
1
  6
Continuous
100
AcDbCircle
 10
301.280008
 20
109.840704
 30
0.0
 40
2.415099999999998
100
AcDbArc
 50
138.455202
 51
184.532737
  0
ARC
  5
A1C3
330
A012
100
AcDbEntity
  8
1
  6
Continuous
100
AcDbCircle
 10
297.8391209999998
 20
113.116911
 30
0.0
 40
1.0341
100
AcDbArc
 50
76.959512
 51
97.868606
  0
ARC
  5
A1C4
330
A012
100
AcDbEntity
  8
1
  6
Continuous
100
AcDbCircle
 10
317.432413
 20
124.643484
 30
0.0
 40
5.622809999999999
100
AcDbArc
 50
154.3842549999999
 51
214.384243
  0
ARC
  5
A1C5
330
A012
100
AcDbEntity
  8
1
  6
Continuous
100
AcDbCircle
 10
332.8271279999999
 20
115.1172089999999
 30
0.0
 40
21.017519
100
AcDbArc
 50
162.4120489999999
 51
197.5879609999998
  0
ARC
  5
A1C6
330
A012
100
AcDbEntity
  8
1
  6
Continuous
100
AcDbCircle
 10
317.432413
 20
105.5909329999997
 30
0.0
 40
5.622809999999999
100
AcDbArc
 50
145.615754
 51
205.615755
  0
ARC
  5
A1C7
330
A012
100
AcDbEntity
  8
1
  6
Continuous
100
AcDbCircle
 10
293.9921359999999
 20
115.1172089999999
 30
0.0
 40
10.50871499999999
100
AcDbArc
 50
162.4119399999998
 51
197.5880699999999
  0
ARC
  5
A1C8
330
A012
100
AcDbEntity
  8
1
  6
Continuous
100
AcDbCircle
 10
286.2948089999998
 20
110.3540629999999
 30
0.0
 40
2.811392999999998
100
AcDbArc
 50
145.6155349999999
 51
205.615537
  0
ARC
  5
A1C9
330
A012
100
AcDbEntity
  8
1
  6
Continuous
100
AcDbCircle
 10
286.2948089999998
 20
119.880346
 30
0.0
 40
2.811392999999998
100
AcDbArc
 50
154.3844729999999
 51
214.384461
  0
ARC
  5
A1CA
330
A012
100
AcDbEntity
  8
1
  6
Continuous
100
AcDbCircle
 10
284.872049
 20
110.3540629999999
 30
0.0
 40
2.811392999999998
100
AcDbArc
 50
334.3844629999999
 51
34.384467
  0
ARC
  5
A1CB
330
A012
100
AcDbEntity
  8
1
  6
Continuous
100
AcDbCircle
 10
284.872049
 20
119.880346
 30
0.0
 40
2.811392999999998
100
AcDbArc
 50
325.6155269999998
 51
25.615527
  0
ARC
  5
A1CC
330
A012
100
AcDbEntity
  8
1
  6
Continuous
100
AcDbCircle
 10
277.1747229999999
 20
115.1172089999999
 30
0.0
 40
10.50871499999999
100
AcDbArc
 50
342.41193
 51
17.58805999999999
  0
ARC
  5
A1CD
330
A012
100
AcDbEntity
  8
1
  6
Continuous
100
AcDbCircle
 10
19.85280399999998
 20
180.117209
 30
0.0
 40
5.5
100
AcDbArc
 50
180.0
 51
270.0
  0
ARC
  5
A1CE
330
A012
100
AcDbEntity
  8
1
  6
Continuous
100
AcDbCircle
 10
33.852804
 20
180.117209
 30
0.0
 40
5.5
100
AcDbArc
 50
270.0
 51
0.0
  0
LINE
  5
A1CF
330
A012
100
AcDbEntity
  8
1
  6
Continuous
100
AcDbLine
 10
19.85280399999998
 20
174.6172089999998
 30
0.0
 11
33.852804
 21
174.6172089999998
 31
0.0
  0
LINE
  5
A1D0
330
A012
100
AcDbEntity
  8
1
  6
Continuous
100
AcDbLine
 10
19.85280399999998
 20
195.617209
 30
0.0
 11
35.317104
 21
195.617209
 31
0.0
  0
LINE
  5
A1D1
330
A012
100
AcDbEntity
  8
4
  6
CENTER
100
AcDbLine
 10
11.94520399999998
 20
185.117209
 30
0.0
 11
57.649186
 21
185.117209
 31
0.0
  0
ARC
  5
A1D2
330
A012
100
AcDbEntity
  8
1
  6
Continuous
100
AcDbCircle
 10
19.85280399999998
 20
190.117209
 30
0.0
 40
5.5
100
AcDbArc
 50
90.0
 51
180.0
  0
LINE
  5
A1D3
330
A012
100
AcDbEntity
  8
1
  6
Continuous
100
AcDbLine
 10
14.352804
 20
180.117209
 30
0.0
 11
14.352804
 21
190.117209
 31
0.0
  0
LINE
  5
A1D4
330
A012
100
AcDbEntity
  8
1
  6
Continuous
100
AcDbLine
 10
24.43053900000001
 20
188.2280529999999
 30
0.0
 11
29.995413
 21
188.2280529999999
 31
0.0
  0
LINE
  5
A1D5
330
A012
100
AcDbEntity
  8
1
  6
Continuous
100
AcDbLine
 10
29.86188499999999
 20
187.340271
 30
0.0
 11
27.35191699999999
 21
187.340271
 31
0.0
  0
LINE
  5
A1D6
330
A012
100
AcDbEntity
  8
1
  6
Continuous
100
AcDbLine
 10
24.42693
 20
186.4506849999999
 30
0.0
 11
30.27870899999999
 21
186.4506849999999
 31
0.0
  0
ARC
  5
A1D7
330
A012
100
AcDbEntity
  8
1
  6
Continuous
100
AcDbCircle
 10
19.88697399999999
 20
185.117209
 30
0.0
 40
10.57705099999999
100
AcDbArc
 50
7.792999999999999
 51
10.10399999999999
  0
ARC
  5
A1D8
330
A012
100
AcDbEntity
  8
1
  6
Continuous
100
AcDbCircle
 10
30.27870899999999
 20
186.540907
 30
0.0
 40
0.088904
100
AcDbArc
 50
270.0
 51
7.792999999999999
  0
ARC
  5
A1D9
330
A012
100
AcDbEntity
  8
1
  6
Continuous
100
AcDbCircle
 10
29.86188499999999
 20
186.8963799999999
 30
0.0
 40
0.444522
100
AcDbArc
 50
10.10399999999999
 51
90.0
  0
ARC
  5
A1DA
330
A012
100
AcDbEntity
  8
1
  6
Continuous
100
AcDbCircle
 10
24.42693
 20
186.540907
 30
0.0
 40
0.088904
100
AcDbArc
 50
172.2069999999999
 51
270.0
  0
ARC
  5
A1DB
330
A012
100
AcDbEntity
  8
1
  6
Continuous
100
AcDbCircle
 10
34.81866500000001
 20
185.117209
 30
0.0
 40
10.57705099999999
100
AcDbArc
 50
169.896
 51
172.2069999999999
  0
ARC
  5
A1DC
330
A012
100
AcDbEntity
  8
1
  6
Continuous
100
AcDbCircle
 10
24.843754
 20
186.8963799999999
 30
0.0
 40
0.444522
100
AcDbArc
 50
90.0
 51
169.896
  0
ARC
  5
A1DD
330
A012
100
AcDbEntity
  8
1
  6
Continuous
100
AcDbCircle
 10
27.35191699999999
 20
190.4511149999999
 30
0.0
 40
2.290639
100
AcDbArc
 50
35.53799999999998
 51
45.69899999999999
  0
ARC
  5
A1DE
330
A012
100
AcDbEntity
  8
1
  6
Continuous
100
AcDbCircle
 10
27.35191699999999
 20
190.4511149999999
 30
0.0
 40
2.290639
100
AcDbArc
 50
62.24999999999999
 51
144.462
  0
ARC
  5
A1DF
330
A012
100
AcDbEntity
  8
1
  6
Continuous
100
AcDbCircle
 10
26.908026
 20
189.561529
 30
0.0
 40
0.444522
100
AcDbArc
 50
270.0
 51
90.0
  0
LINE
  5
A1E0
330
A012
100
AcDbEntity
  8
1
  6
Continuous
100
AcDbLine
 10
27.35191699999999
 20
192.740942
 30
0.0
 11
27.35191699999999
 21
190.904028
 31
0.0
  0
LINE
  5
A1E1
330
A012
100
AcDbEntity
  8
1
  6
Continuous
100
AcDbLine
 10
29.015605
 20
190.458333
 30
0.0
 11
25.2696
 21
191.463403
 31
0.0
  0
LINE
  5
A1E2
330
A012
100
AcDbEntity
  8
1
  6
Continuous
100
AcDbLine
 10
27.35191699999999
 20
189.561529
 30
0.0
 11
29.48475800000001
 21
189.561529
 31
0.0
  0
LINE
  5
A1E3
330
A012
100
AcDbEntity
  8
1
  6
Continuous
100
AcDbLine
 10
26.908026
 20
190.007225
 30
0.0
 11
25.009762
 21
190.007225
 31
0.0
  0
LINE
  5
A1E4
330
A012
100
AcDbEntity
  8
1
  6
Continuous
100
AcDbLine
 10
24.849167
 20
189.117639
 30
0.0
 11
26.908026
 21
189.117639
 31
0.0
  0
LINE
  5
A1E5
330
A012
100
AcDbEntity
  8
1
  6
Continuous
100
AcDbLine
 10
27.35191699999999
 20
187.340271
 30
0.0
 11
27.35191699999999
 21
186.8963799999999
 31
0.0
  0
LINE
  5
A1E6
330
A012
100
AcDbEntity
  8
1
  6
Continuous
100
AcDbLine
 10
26.28549699999998
 20
187.340271
 30
0.0
 11
24.843754
 21
187.340271
 31
0.0
  0
ARC
  5
A1E7
330
A012
100
AcDbEntity
  8
1
  6
Continuous
100
AcDbCircle
 10
19.88697399999999
 20
185.117209
 30
0.0
 40
10.57705099999999
100
AcDbArc
 50
333.9859999999998
 51
337.0559999999999
  0
ARC
  5
A1E8
330
A012
100
AcDbEntity
  8
1
  6
Continuous
100
AcDbCircle
 10
29.54430499999999
 20
181.0301649999999
 30
0.0
 40
0.088904
100
AcDbArc
 50
337.0559999999999
 51
90.0
  0
LINE
  5
A1E9
330
A012
100
AcDbEntity
  8
1
  6
Continuous
100
AcDbLine
 10
24.2519
 20
184.673318
 30
0.0
 11
30.45373899999999
 21
184.673318
 31
0.0
  0
LINE
  5
A1EA
330
A012
100
AcDbEntity
  8
1
  6
Continuous
100
AcDbLine
 10
24.325881
 20
183.785536
 30
0.0
 11
30.379757
 21
183.785536
 31
0.0
  0
LINE
  5
A1EB
330
A012
100
AcDbEntity
  8
1
  6
Continuous
100
AcDbLine
 10
30.11630999999999
 20
182.89595
 30
0.0
 11
28.41833799999999
 21
182.89595
 31
0.0
  0
LINE
  5
A1EC
330
A012
100
AcDbEntity
  8
1
  6
Continuous
100
AcDbLine
 10
25.04404599999999
 20
182.0063639999999
 30
0.0
 11
29.661593
 21
182.0063639999999
 31
0.0
  0
ARC
  5
A1ED
330
A012
100
AcDbEntity
  8
1
  6
Continuous
100
AcDbCircle
 10
30.11630999999999
 20
182.807533
 30
0.0
 40
0.088904
100
AcDbArc
 50
347.2709999999997
 51
90.0
  0
ARC
  5
A1EE
330
A012
100
AcDbEntity
  8
1
  6
Continuous
100
AcDbCircle
 10
19.88697399999999
 20
185.117209
 30
0.0
 40
10.57705099999999
100
AcDbArc
 50
344.794
 51
347.2709999999997
  0
ARC
  5
A1EF
330
A012
100
AcDbEntity
  8
1
  6
Continuous
100
AcDbCircle
 10
19.88697399999999
 20
185.117209
 30
0.0
 40
10.57705099999999
100
AcDbArc
 50
344.7419999999997
 51
344.794
  0
ARC
  5
A1F0
330
A012
100
AcDbEntity
  8
1
  6
Continuous
100
AcDbCircle
 10
29.661593
 20
182.4520589999999
 30
0.0
 40
0.444522
100
AcDbArc
 50
270.0
 51
344.7419999999997
  0
ARC
  5
A1F1
330
A012
100
AcDbEntity
  8
1
  6
Continuous
100
AcDbCircle
 10
25.04404599999999
 20
182.4520589999999
 30
0.0
 40
0.444522
100
AcDbArc
 50
195.2574999999999
 51
270.0
  0
ARC
  5
A1F2
330
A012
100
AcDbEntity
  8
1
  6
Continuous
100
AcDbCircle
 10
34.81866500000001
 20
185.117209
 30
0.0
 40
10.57705099999999
100
AcDbArc
 50
193.2680999999999
 51
195.2574999999999
  0
ARC
  5
A1F3
330
A012
100
AcDbEntity
  8
1
  6
Continuous
100
AcDbCircle
 10
34.81866500000001
 20
185.117209
 30
0.0
 40
10.57705099999999
100
AcDbArc
 50
192.7289
 51
193.2680999999999
  0
ARC
  5
A1F4
330
A012
100
AcDbEntity
  8
1
  6
Continuous
100
AcDbCircle
 10
24.589329
 20
182.807533
 30
0.0
 40
0.088904
100
AcDbArc
 50
90.0
 51
192.7289
  0
ARC
  5
A1F5
330
A012
100
AcDbEntity
  8
1
  6
Continuous
100
AcDbCircle
 10
28.99214799999999
 20
180.6746919999999
 30
0.0
 40
0.444522
100
AcDbArc
 50
270.0
 51
333.9859999999998
  0
ARC
  5
A1F6
330
A012
100
AcDbEntity
  8
1
  6
Continuous
100
AcDbCircle
 10
25.15953
 20
181.0301649999999
 30
0.0
 40
0.088904
100
AcDbArc
 50
90.0
 51
202.944
  0
ARC
  5
A1F7
330
A012
100
AcDbEntity
  8
1
  6
Continuous
100
AcDbCircle
 10
34.81866500000001
 20
185.117209
 30
0.0
 40
10.57705099999999
100
AcDbArc
 50
202.944
 51
206.0144
  0
ARC
  5
A1F8
330
A012
100
AcDbEntity
  8
1
  6
Continuous
100
AcDbCircle
 10
25.713491
 20
180.6746919999999
 30
0.0
 40
0.444522
100
AcDbArc
 50
206.0144
 51
270.0
  0
LINE
  5
A1F9
330
A012
100
AcDbEntity
  8
1
  6
Continuous
100
AcDbLine
 10
27.35191699999999
 20
184.673318
 30
0.0
 11
27.35191699999999
 21
183.785536
 31
0.0
  0
LINE
  5
A1FA
330
A012
100
AcDbEntity
  8
1
  6
Continuous
100
AcDbLine
 10
26.28549699999998
 20
182.89595
 30
0.0
 11
24.589329
 21
182.89595
 31
0.0
  0
LINE
  5
A1FB
330
A012
100
AcDbEntity
  8
1
  6
Continuous
100
AcDbLine
 10
25.15953
 20
181.118583
 30
0.0
 11
29.54430499999999
 21
181.118583
 31
0.0
  0
LINE
  5
A1FC
330
A012
100
AcDbEntity
  8
1
  6
Continuous
100
AcDbLine
 10
28.99214799999999
 20
180.2289969999999
 30
0.0
 11
25.713491
 21
180.2289969999999
 31
0.0
  0
LINE
  5
A1FD
330
A012
100
AcDbEntity
  8
1
  6
Continuous
100
AcDbLine
 10
24.914127
 20
179.3412149999998
 30
0.0
 11
28.746745
 21
179.3412149999998
 31
0.0
  0
LINE
  5
A1FE
330
A012
100
AcDbEntity
  8
1
  6
Continuous
100
AcDbLine
 10
24.2519
 20
185.562904
 30
0.0
 11
30.45373899999999
 21
185.562904
 31
0.0
  0
ARC
  5
A1FF
330
A012
100
AcDbEntity
  8
1
  6
Continuous
100
AcDbCircle
 10
27.35191699999999
 20
179.785106
 30
0.0
 40
2.290639
100
AcDbArc
 50
270.0
 51
324.4619999999998
  0
ARC
  5
A200
330
A012
100
AcDbEntity
  8
1
  6
Continuous
100
AcDbCircle
 10
27.35191699999999
 20
179.785106
 30
0.0
 40
2.290639
100
AcDbArc
 50
215.5377
 51
256.5374
  0
ARC
  5
A201
330
A012
100
AcDbEntity
  8
1
  6
Continuous
100
AcDbCircle
 10
34.81866500000001
 20
185.117209
 30
0.0
 40
11.465861
100
AcDbArc
 50
144.462
 51
215.5377
  0
ARC
  5
A202
330
A012
100
AcDbEntity
  8
1
  6
Continuous
100
AcDbCircle
 10
19.88697399999999
 20
185.117209
 30
0.0
 40
11.465861
100
AcDbArc
 50
324.4619999999998
 51
35.53799999999998
  0
ARC
  5
A203
330
A012
100
AcDbEntity
  8
1
  6
Continuous
100
AcDbCircle
 10
18.852804
 20
187.617209
 30
0.0
 40
2.5
100
AcDbArc
 50
0.0
 51
180.0
  0
ARC
  5
A204
330
A012
100
AcDbEntity
  8
1
  6
Continuous
100
AcDbCircle
 10
18.852804
 20
182.617209
 30
0.0
 40
2.5
100
AcDbArc
 50
180.0
 51
0.00001
  0
LINE
  5
A205
330
A012
100
AcDbEntity
  8
1
  6
Continuous
100
AcDbLine
 10
16.352804
 20
182.617209
 30
0.0
 11
16.352804
 21
187.617209
 31
0.0
  0
LINE
  5
A206
330
A012
100
AcDbEntity
  8
1
  6
Continuous
100
AcDbLine
 10
21.352804
 20
182.617209
 30
0.0
 11
21.352804
 21
187.617209
 31
0.0
  0
LINE
  5
A207
330
A012
100
AcDbEntity
  8
1
  6
Continuous
100
AcDbLine
 10
53.35280400000001
 20
190.017209
 30
0.0
 11
45.352804
 21
190.017209
 31
0.0
  0
LINE
  5
A208
330
A012
100
AcDbEntity
  8
1
  6
Continuous
100
AcDbLine
 10
45.352804
 20
180.217209
 30
0.0
 11
53.35280400000001
 21
180.217209
 31
0.0
  0
LINE
  5
A209
330
A012
100
AcDbEntity
  8
1
  6
Continuous
100
AcDbLine
 10
40.352804
 20
189.617209
 30
0.0
 11
45.352804
 21
189.617209
 31
0.0
  0
LINE
  5
A20A
330
A012
100
AcDbEntity
  8
1
  6
Continuous
100
AcDbLine
 10
39.35280399999999
 20
190.117209
 30
0.0
 11
45.352804
 21
190.117209
 31
0.0
  0
LINE
  5
A20B
330
A012
100
AcDbEntity
  8
1
  6
Continuous
100
AcDbLine
 10
46.85280399999999
 20
190.017209
 30
0.0
 11
46.85280399999999
 21
190.1512089999999
 31
0.0
  0
LINE
  5
A20C
330
A012
100
AcDbEntity
  8
1
  6
Continuous
100
AcDbLine
 10
39.35280399999999
 20
188.8172089999999
 30
0.0
 11
39.35280399999999
 21
190.117209
 31
0.0
  0
ARC
  5
A20D
330
A012
100
AcDbEntity
  8
1
  6
Continuous
100
AcDbCircle
 10
44.85280399999999
 20
190.1512089999999
 30
0.0
 40
2.0
100
AcDbArc
 50
0.0
 51
68.6705
  0
ARC
  5
A20E
330
A012
100
AcDbEntity
  8
1
  6
Continuous
100
AcDbCircle
 10
45.42150399999999
 20
190.4652089999999
 30
0.0
 40
1.5
100
AcDbArc
 50
342.598
 51
68.6705
  0
ARC
  5
A20F
330
A012
100
AcDbEntity
  8
1
  6
Continuous
100
AcDbCircle
 10
36.211804
 20
184.8192089999997
 30
0.0
 40
4.0
100
AcDbArc
 50
87.98
 51
135.6229999999999
  0
ARC
  5
A210
330
A012
100
AcDbEntity
  8
1
  6
Continuous
100
AcDbCircle
 10
36.56000399999999
 20
185.824209
 30
0.0
 40
3.0
100
AcDbArc
 50
93.9591
 51
154.472
  0
ARC
  5
A211
330
A012
100
AcDbEntity
  8
1
  6
Continuous
100
AcDbCircle
 10
35.317104
 20
190.117209
 30
0.0
 40
5.5
100
AcDbArc
 50
68.6705
 51
90.0
  0
ARC
  5
A212
330
A012
100
AcDbEntity
  8
1
  6
Continuous
100
AcDbCircle
 10
35.317104
 20
190.117209
 30
0.0
 40
5.5
100
AcDbArc
 50
68.6705
 51
90.0
  0
ARC
  5
A213
330
A012
100
AcDbEntity
  8
1
  6
Continuous
100
AcDbCircle
 10
35.317104
 20
190.117209
 30
0.0
 40
5.5
100
AcDbArc
 50
68.6705
 51
90.0
  0
ARC
  5
A214
330
A012
100
AcDbEntity
  8
1
  6
Continuous
100
AcDbCircle
 10
35.317104
 20
190.117209
 30
0.0
 40
5.5
100
AcDbArc
 50
68.6705
 51
90.0
  0
LINE
  5
A215
330
A012
100
AcDbEntity
  8
1
  6
Continuous
100
AcDbLine
 10
36.352804
 20
188.8172089999999
 30
0.0
 11
40.352804
 21
188.8172089999999
 31
0.0
  0
LINE
  5
A216
330
A012
100
AcDbEntity
  8
1
  6
Continuous
100
AcDbLine
 10
45.967104
 20
191.863209
 30
0.0
 11
37.31760399999997
 21
195.2402089999999
 31
0.0
  0
LINE
  5
A217
330
A012
100
AcDbEntity
  8
1
  6
Continuous
100
AcDbLine
 10
40.352804
 20
180.617209
 30
0.0
 11
45.352804
 21
180.617209
 31
0.0
  0
LINE
  5
A218
330
A012
100
AcDbEntity
  8
1
  6
Continuous
100
AcDbLine
 10
39.35280399999999
 20
180.117209
 30
0.0
 11
39.35280399999999
 21
181.417209
 31
0.0
  0
LINE
  5
A219
330
A012
100
AcDbEntity
  8
1
  6
Continuous
100
AcDbLine
 10
36.352804
 20
181.714209
 30
0.0
 11
36.352804
 21
184.923209
 31
0.0
  0
ARC
  5
A21A
330
A012
100
AcDbEntity
  8
1
  6
Continuous
100
AcDbCircle
 10
36.211804
 20
185.414209
 30
0.0
 40
4.0
100
AcDbArc
 50
224.377
 51
272.0199999999999
  0
ARC
  5
A21B
330
A012
100
AcDbEntity
  8
1
  6
Continuous
100
AcDbCircle
 10
36.56000399999999
 20
184.4102089999999
 30
0.0
 40
3.0
100
AcDbArc
 50
205.528
 51
266.041
  0
LINE
  5
A21C
330
A012
100
AcDbEntity
  8
1
  6
Continuous
100
AcDbLine
 10
36.352804
 20
181.417209
 30
0.0
 11
40.352804
 21
181.417209
 31
0.0
  0
LINE
  5
A21D
330
A012
100
AcDbEntity
  8
1
  6
Continuous
100
AcDbLine
 10
45.352804
 20
180.217209
 30
0.0
 11
45.352804
 21
190.017209
 31
0.0
  0
LINE
  5
A21E
330
A012
100
AcDbEntity
  8
1
  6
Continuous
100
AcDbLine
 10
40.352804
 20
180.617209
 30
0.0
 11
40.352804
 21
189.617209
 31
0.0
  0
LINE
  5
A21F
330
A012
100
AcDbEntity
  8
1
  6
Continuous
100
AcDbLine
 10
33.852804
 20
183.117209
 30
0.0
 11
33.852804
 21
187.1172089999998
 31
0.0
  0
LINE
  5
A220
330
A012
100
AcDbEntity
  8
1
  6
Continuous
100
AcDbLine
 10
33.352804
 20
182.617209
 30
0.0
 11
33.352804
 21
187.617209
 31
0.0
  0
LINE
  5
A221
330
A012
100
AcDbEntity
  8
1
  6
Continuous
100
AcDbLine
 10
36.352804
 20
185.413209
 30
0.0
 11
36.352804
 21
188.563209
 31
0.0
  0
LINE
  5
A222
330
A012
100
AcDbEntity
  8
1
  6
Continuous
100
AcDbLine
 10
51.85280399999999
 20
190.017209
 30
0.0
 11
51.85280399999999
 21
191.017209
 31
0.0
  0
LINE
  5
A223
330
A012
100
AcDbEntity
  8
1
  6
Continuous
100
AcDbLine
 10
50.352804
 20
190.017209
 30
0.0
 11
50.352804
 21
191.017209
 31
0.0
  0
LINE
  5
A224
330
A012
100
AcDbEntity
  8
1
  6
Continuous
100
AcDbLine
 10
50.352804
 20
191.017209
 30
0.0
 11
51.85280399999999
 21
191.017209
 31
0.0
  0
LINE
  5
A225
330
A012
100
AcDbEntity
  8
1
  6
Continuous
100
AcDbLine
 10
53.35280400000001
 20
180.217209
 30
0.0
 11
53.35280400000001
 21
190.017209
 31
0.0
  0
ARC
  5
A226
330
A012
100
AcDbEntity
  8
2
  6
Continuous
100
AcDbCircle
 10
237.321512
 20
115.1172089999999
 30
0.0
 40
9.5
100
AcDbArc
 50
326.2612149999998
 51
33.738785
  0
ARC
  5
A227
330
A012
100
AcDbEntity
  8
1
  6
Continuous
100
AcDbCircle
 10
237.321512
 20
115.1172089999999
 30
0.0
 40
9.5
100
AcDbArc
 50
33.738785
 51
146.2613799999997
  0
ARC
  5
A228
330
A012
100
AcDbEntity
  8
1
  6
Continuous
100
AcDbCircle
 10
237.321512
 20
115.1172089999999
 30
0.0
 40
9.5
100
AcDbArc
 50
213.73862
 51
326.2612149999998
  0
ARC
  5
A229
330
A012
100
AcDbEntity
  8
2
  6
Continuous
100
AcDbCircle
 10
237.321512
 20
115.1172089999999
 30
0.0
 40
9.5
100
AcDbArc
 50
146.2613799999997
 51
213.73862
  0
ARC
  5
A22A
330
A012
100
AcDbEntity
  8
2
  6
Continuous
100
AcDbCircle
 10
237.321512
 20
115.1172089999999
 30
0.0
 40
3.5
100
AcDbArc
 50
320.6109649999999
 51
39.389035
  0
ARC
  5
A22B
330
A012
100
AcDbEntity
  8
1
  6
Continuous
100
AcDbCircle
 10
237.321512
 20
115.1172089999999
 30
0.0
 40
3.5
100
AcDbArc
 50
39.389035
 51
140.6113579999999
  0
ARC
  5
A22C
330
A012
100
AcDbEntity
  8
1
  6
Continuous
100
AcDbCircle
 10
237.321512
 20
115.1172089999999
 30
0.0
 40
3.5
100
AcDbArc
 50
219.388642
 51
320.6109649999999
  0
ARC
  5
A22D
330
A012
100
AcDbEntity
  8
2
  6
Continuous
100
AcDbCircle
 10
237.321512
 20
115.1172089999999
 30
0.0
 40
3.5
100
AcDbArc
 50
140.6109649999999
 51
219.389035
  0
ARC
  5
A22E
330
A012
100
AcDbEntity
  8
1
  6
Continuous
100
AcDbCircle
 10
237.321512
 20
115.1172089999999
 30
0.0
 40
3.093999999999998
100
AcDbArc
 50
150.9587439999999
 51
209.0412559999998
  0
LINE
  5
A22F
330
A012
100
AcDbEntity
  8
1
  6
Continuous
100
AcDbLine
 10
124.3044899999999
 20
117.617225
 30
0.0
 11
123.3044899999999
 21
118.61721
 31
0.0
  0
LINE
  5
A230
330
A012
100
AcDbEntity
  8
1
  6
Continuous
100
AcDbLine
 10
123.3044899999999
 20
118.61721
 30
0.0
 11
115.1045019999999
 21
118.61721
 31
0.0
  0
LINE
  5
A231
330
A012
100
AcDbEntity
  8
1
  6
Continuous
100
AcDbLine
 10
115.4323219999999
 20
117.3382289999999
 30
0.0
 11
115.4323219999999
 21
118.61721
 31
0.0
  0
LINE
  5
A232
330
A012
100
AcDbEntity
  8
1
  6
Continuous
100
AcDbLine
 10
110.384502
 20
120.393556
 30
0.0
 11
97.00450299999999
 21
120.393556
 31
0.0
  0
LINE
  5
A233
330
A012
100
AcDbEntity
  8
1
  6
Continuous
100
AcDbLine
 10
110.384502
 20
109.840861
 30
0.0
 11
97.00450299999999
 21
109.840861
 31
0.0
  0
LINE
  5
A234
330
A012
100
AcDbEntity
  8
1
  6
Continuous
100
AcDbLine
 10
112.3044989999997
 20
111.4730369999999
 30
0.0
 11
111.604502
 21
111.4730369999999
 31
0.0
  0
LINE
  5
A235
330
A012
100
AcDbEntity
  8
1
  6
Continuous
100
AcDbLine
 10
112.3044989999997
 20
118.7613849999999
 30
0.0
 11
111.604502
 21
118.7613849999999
 31
0.0
  0
LINE
  5
A236
330
A012
100
AcDbEntity
  8
1
  6
Continuous
100
AcDbLine
 10
124.3044899999999
 20
117.3382289999999
 30
0.0
 11
114.404508
 21
117.3382289999999
 31
0.0
  0
LINE
  5
A237
330
A012
100
AcDbEntity
  8
1
  6
Continuous
100
AcDbLine
 10
124.3044899999999
 20
112.896169
 30
0.0
 11
114.404508
 21
112.896169
 31
0.0
  0
LINE
  5
A238
330
A012
100
AcDbEntity
  8
1
  6
Continuous
100
AcDbLine
 10
115.4323219999999
 20
112.896188
 30
0.0
 11
115.4323219999999
 21
111.6172069999998
 31
0.0
  0
LINE
  5
A239
330
A012
100
AcDbEntity
  8
1
  6
Continuous
100
AcDbLine
 10
115.1045019999999
 20
111.542212
 30
0.0
 11
115.1045019999999
 21
112.896188
 31
0.0
  0
LINE
  5
A23A
330
A012
100
AcDbEntity
  8
1
  6
Continuous
100
AcDbLine
 10
123.304505
 20
111.6172219999999
 30
0.0
 11
123.304505
 21
112.896188
 31
0.0
  0
LINE
  5
A23B
330
A012
100
AcDbEntity
  8
1
  6
Continuous
100
AcDbLine
 10
110.384502
 20
105.6172069999998
 30
0.0
 11
110.384502
 21
109.840861
 31
0.0
  0
LINE
  5
A23C
330
A012
100
AcDbEntity
  8
1
  6
Continuous
100
AcDbLine
 10
114.404508
 20
122.8172049999999
 30
0.0
 11
112.804502
 21
122.8172049999999
 31
0.0
  0
LINE
  5
A23D
330
A012
100
AcDbEntity
  8
1
  6
Continuous
100
AcDbLine
 10
114.404508
 20
119.286566
 30
0.0
 11
112.804502
 21
119.286566
 31
0.0
  0
LINE
  5
A23E
330
A012
100
AcDbEntity
  8
1
  6
Continuous
100
AcDbLine
 10
114.404508
 20
118.268499
 30
0.0
 11
112.804502
 21
118.268499
 31
0.0
  0
LINE
  5
A23F
330
A012
100
AcDbEntity
  8
1
  6
Continuous
100
AcDbLine
 10
114.404508
 20
109.43218
 30
0.0
 11
112.804502
 21
109.43218
 31
0.0
  0
LINE
  5
A240
330
A012
100
AcDbEntity
  8
1
  6
Continuous
100
AcDbLine
 10
114.404508
 20
107.595495
 30
0.0
 11
114.1045019999999
 21
107.595495
 31
0.0
  0
LINE
  5
A241
330
A012
100
AcDbEntity
  8
1
  6
Continuous
100
AcDbLine
 10
97.00450299999999
 20
124.61721
 30
0.0
 11
110.384502
 21
124.61721
 31
0.0
  0
LINE
  5
A242
330
A012
100
AcDbEntity
  8
1
  6
Continuous
100
AcDbLine
 10
111.604502
 20
123.8172129999999
 30
0.0
 11
110.384502
 21
124.61721
 31
0.0
  0
LINE
  5
A243
330
A012
100
AcDbEntity
  8
1
  6
Continuous
100
AcDbLine
 10
110.384502
 20
124.61721
 30
0.0
 11
110.384502
 21
120.393556
 31
0.0
  0
LINE
  5
A244
330
A012
100
AcDbEntity
  8
1
  6
Continuous
100
AcDbLine
 10
111.604502
 20
123.8172129999999
 30
0.0
 11
111.604502
 21
118.76138
 31
0.0
  0
LINE
  5
A245
330
A012
100
AcDbEntity
  8
4
  6
CENTER
100
AcDbLine
 10
386.6868149999999
 20
115.1172089999999
 30
0.0
 11
348.665416
 21
115.1172089999999
 31
0.0
  0
LINE
  5
A246
330
A012
100
AcDbEntity
  8
1
  6
Continuous
100
AcDbLine
 10
351.338527
 20
111.6172069999998
 30
0.0
 11
359.538515
 21
111.6172069999998
 31
0.0
  0
LINE
  5
A247
330
A012
100
AcDbEntity
  8
2
  6
Continuous
100
AcDbLine
 10
359.2106949999999
 20
118.211203
 30
0.0
 11
350.932514
 21
118.211203
 31
0.0
  0
LINE
  5
A248
330
A012
100
AcDbEntity
  8
2
  6
Continuous
100
AcDbLine
 10
359.2106949999999
 20
112.023207
 30
0.0
 11
350.932521
 21
112.023207
 31
0.0
  0
LINE
  5
A249
330
A012
100
AcDbEntity
  8
1
  6
Continuous
100
AcDbLine
 10
351.338527
 20
118.61721
 30
0.0
 11
359.538515
 21
118.61721
 31
0.0
  0
LINE
  5
A24A
330
A012
100
AcDbEntity
  8
1
  6
Continuous
100
AcDbLine
 10
350.3385269999997
 20
117.3382289999999
 30
0.0
 11
360.2385089999998
 21
117.3382289999999
 31
0.0
  0
LINE
  5
A24B
330
A012
100
AcDbEntity
  8
2
  6
Continuous
100
AcDbLine
 10
360.2385089999998
 20
116.8271929999997
 30
0.0
 11
350.3385269999997
 21
112.896169
 31
0.0
  0
LINE
  5
A24C
330
A012
100
AcDbEntity
  8
2
  6
Continuous
100
AcDbLine
 10
350.3385269999997
 20
117.3382289999999
 30
0.0
 11
360.2385089999998
 21
113.407206
 31
0.0
  0
LINE
  5
A24D
330
A012
100
AcDbEntity
  8
1
  6
Continuous
100
AcDbLine
 10
350.3385269999997
 20
112.896169
 30
0.0
 11
360.2385089999998
 21
112.896169
 31
0.0
  0
LINE
  5
A24E
330
A012
100
AcDbEntity
  8
1
  6
Continuous
100
AcDbLine
 10
378.838518
 20
126.117209
 30
0.0
 11
383.9385169999998
 21
123.7390039999998
 31
0.0
  0
LINE
  5
A24F
330
A012
100
AcDbEntity
  8
1
  6
Continuous
100
AcDbLine
 10
378.838511
 20
104.117209
 30
0.0
 11
383.9385169999998
 21
106.4953139999997
 31
0.0
  0
LINE
  5
A250
330
A012
100
AcDbEntity
  8
1
  6
Continuous
100
AcDbLine
 10
383.9385169999998
 20
106.495306
 30
0.0
 11
383.9385169999998
 21
123.7390189999999
 31
0.0
  0
LINE
  5
A251
330
A012
100
AcDbEntity
  8
1
  6
Continuous
100
AcDbLine
 10
360.2385089999998
 20
122.8172049999999
 30
0.0
 11
360.2385089999998
 21
107.595495
 31
0.0
  0
LINE
  5
A252
330
A012
100
AcDbEntity
  8
1
  6
Continuous
100
AcDbLine
 10
361.8385149999999
 20
122.8172049999999
 30
0.0
 11
361.8385149999999
 21
107.595495
 31
0.0
  0
LINE
  5
A253
330
A012
100
AcDbEntity
  8
1
  6
Continuous
100
AcDbLine
 10
363.038515
 20
111.4730369999999
 30
0.0
 11
364.2585149999999
 21
109.840861
 31
0.0
  0
LINE
  5
A254
330
A012
100
AcDbEntity
  8
1
  6
Continuous
100
AcDbLine
 10
363.038515
 20
106.417204
 30
0.0
 11
363.038515
 21
111.4730369999999
 31
0.0
  0
LINE
  5
A255
330
A012
100
AcDbEntity
  8
1
  6
Continuous
100
AcDbLine
 10
378.838518
 20
126.117209
 30
0.0
 11
378.838518
 21
104.117209
 31
0.0
  0
LINE
  5
A256
330
A012
100
AcDbEntity
  8
1
  6
Continuous
100
AcDbLine
 10
362.188509
 20
108.617209
 30
0.0
 11
362.188509
 21
121.617209
 31
0.0
  0
LINE
  5
A257
330
A012
100
AcDbEntity
  8
1
  6
Continuous
100
AcDbLine
 10
362.338518
 20
107.340307
 30
0.0
 11
362.338518
 21
123.8172049999999
 31
0.0
  0
LINE
  5
A258
330
A012
100
AcDbEntity
  8
1
  6
Continuous
100
AcDbLine
 10
377.6385139999999
 20
126.117209
 30
0.0
 11
377.6385139999999
 21
104.117209
 31
0.0
  0
LINE
  5
A259
330
A012
100
AcDbEntity
  8
1
  6
Continuous
100
AcDbLine
 10
364.2585149999999
 20
109.840861
 30
0.0
 11
377.6385139999999
 21
109.840861
 31
0.0
  0
LINE
  5
A25A
330
A012
100
AcDbEntity
  8
1
  6
Continuous
100
AcDbLine
 10
377.6385139999999
 20
105.6172069999998
 30
0.0
 11
364.2585149999999
 21
105.6172069999998
 31
0.0
  0
LINE
  5
A25B
330
A012
100
AcDbEntity
  8
1
  6
Continuous
100
AcDbLine
 10
377.6385139999999
 20
104.117209
 30
0.0
 11
378.838518
 21
104.117209
 31
0.0
  0
LINE
  5
A25C
330
A012
100
AcDbEntity
  8
1
  6
Continuous
100
AcDbLine
 10
360.2385089999998
 20
107.595495
 30
0.0
 11
361.8385149999999
 21
107.595495
 31
0.0
  0
LINE
  5
A25D
330
A012
100
AcDbEntity
  8
1
  6
Continuous
100
AcDbLine
 10
364.2585149999999
 20
105.6172069999998
 30
0.0
 11
364.2585149999999
 21
109.840861
 31
0.0
  0
LINE
  5
A25E
330
A012
100
AcDbEntity
  8
1
  6
Continuous
100
AcDbLine
 10
361.8385149999999
 20
108.55831
 30
0.0
 11
362.338518
 21
108.55831
 31
0.0
  0
LINE
  5
A25F
330
A012
100
AcDbEntity
  8
1
  6
Continuous
100
AcDbLine
 10
362.338518
 20
107.340307
 30
0.0
 11
360.538515
 21
107.340307
 31
0.0
  0
LINE
  5
A260
330
A012
100
AcDbEntity
  8
1
  6
Continuous
100
AcDbLine
 10
363.038515
 20
106.417204
 30
0.0
 11
361.038515
 21
106.417204
 31
0.0
  0
LINE
  5
A261
330
A012
100
AcDbEntity
  8
1
  6
Continuous
100
AcDbLine
 10
363.038515
 20
106.417204
 30
0.0
 11
364.2585149999999
 21
105.6172069999998
 31
0.0
  0
LINE
  5
A262
330
A012
100
AcDbEntity
  8
1
  6
Continuous
100
AcDbLine
 10
361.038515
 20
106.417204
 30
0.0
 11
360.538515
 21
106.9172039999999
 31
0.0
  0
LINE
  5
A263
330
A012
100
AcDbEntity
  8
1
  6
Continuous
100
AcDbLine
 10
360.538515
 20
106.9172039999999
 30
0.0
 11
360.538515
 21
107.595495
 31
0.0
  0
LINE
  5
A264
330
A012
100
AcDbEntity
  8
1
  6
Continuous
100
AcDbLine
 10
377.6385139999999
 20
124.61721
 30
0.0
 11
364.2585149999999
 21
124.61721
 31
0.0
  0
LINE
  5
A265
330
A012
100
AcDbEntity
  8
1
  6
Continuous
100
AcDbLine
 10
364.2585149999999
 20
120.393556
 30
0.0
 11
377.6385139999999
 21
120.393556
 31
0.0
  0
LINE
  5
A266
330
A012
100
AcDbEntity
  8
2
  6
Continuous
100
AcDbLine
 10
377.6385139999999
 20
120.211309
 30
0.0
 11
362.338518
 21
111.4730369999999
 31
0.0
  0
LINE
  5
A267
330
A012
100
AcDbEntity
  8
2
  6
Continuous
100
AcDbLine
 10
362.338518
 20
118.7613849999999
 30
0.0
 11
377.6385059999999
 21
110.0231079999998
 31
0.0
  0
LINE
  5
A268
330
A012
100
AcDbEntity
  8
1
  6
Continuous
100
AcDbLine
 10
377.6385139999999
 20
126.117209
 30
0.0
 11
378.838518
 21
126.117209
 31
0.0
  0
LINE
  5
A269
330
A012
100
AcDbEntity
  8
1
  6
Continuous
100
AcDbLine
 10
363.038515
 20
123.8172129999999
 30
0.0
 11
363.038515
 21
118.76138
 31
0.0
  0
LINE
  5
A26A
330
A012
100
AcDbEntity
  8
1
  6
Continuous
100
AcDbLine
 10
364.2585149999999
 20
124.61721
 30
0.0
 11
364.2585149999999
 21
120.393556
 31
0.0
  0
LINE
  5
A26B
330
A012
100
AcDbEntity
  8
1
  6
Continuous
100
AcDbLine
 10
363.038515
 20
123.8172129999999
 30
0.0
 11
364.2585149999999
 21
124.61721
 31
0.0
  0
LINE
  5
A26C
330
A012
100
AcDbEntity
  8
1
  6
Continuous
100
AcDbLine
 10
360.2385089999998
 20
111.542212
 30
0.0
 11
359.538515
 21
111.542212
 31
0.0
  0
LINE
  5
A26D
330
A012
100
AcDbEntity
  8
1
  6
Continuous
100
AcDbLine
 10
360.2385089999998
 20
118.6922049999999
 30
0.0
 11
359.538515
 21
118.6922049999999
 31
0.0
  0
LINE
  5
A26E
330
A012
100
AcDbEntity
  8
1
  6
Continuous
100
AcDbLine
 10
362.188509
 20
111.542212
 30
0.0
 11
361.8385149999999
 21
111.542212
 31
0.0
  0
LINE
  5
A26F
330
A012
100
AcDbEntity
  8
1
  6
Continuous
100
AcDbLine
 10
362.188509
 20
118.6922049999999
 30
0.0
 11
361.8385149999999
 21
118.6922049999999
 31
0.0
  0
LINE
  5
A270
330
A012
100
AcDbEntity
  8
1
  6
Continuous
100
AcDbLine
 10
360.2385089999998
 20
122.8172049999999
 30
0.0
 11
361.8385149999999
 21
122.8172049999999
 31
0.0
  0
LINE
  5
A271
330
A012
100
AcDbEntity
  8
1
  6
Continuous
100
AcDbLine
 10
359.538515
 20
111.542212
 30
0.0
 11
359.538515
 21
112.896188
 31
0.0
  0
LINE
  5
A272
330
A012
100
AcDbEntity
  8
1
  6
Continuous
100
AcDbLine
 10
359.2106949999999
 20
112.896188
 30
0.0
 11
359.2106949999999
 21
111.6172069999998
 31
0.0
  0
LINE
  5
A273
330
A012
100
AcDbEntity
  8
1
  6
Continuous
100
AcDbLine
 10
362.338518
 20
118.7613849999999
 30
0.0
 11
363.038515
 21
118.7613849999999
 31
0.0
  0
LINE
  5
A274
330
A012
100
AcDbEntity
  8
1
  6
Continuous
100
AcDbLine
 10
362.338518
 20
111.4730369999999
 30
0.0
 11
363.038515
 21
111.4730369999999
 31
0.0
  0
LINE
  5
A275
330
A012
100
AcDbEntity
  8
1
  6
Continuous
100
AcDbLine
 10
359.2106949999999
 20
117.3382289999999
 30
0.0
 11
359.2106949999999
 21
118.61721
 31
0.0
  0
LINE
  5
A276
330
A012
100
AcDbEntity
  8
2
  6
Continuous
100
AcDbLine
 10
359.538515
 20
111.6953949999999
 30
0.0
 11
359.2106949999999
 21
112.023207
 31
0.0
  0
LINE
  5
A277
330
A012
100
AcDbEntity
  8
2
  6
Continuous
100
AcDbLine
 10
359.538515
 20
118.539039
 30
0.0
 11
359.2106949999999
 21
118.211203
 31
0.0
  0
LINE
  5
A278
330
A012
100
AcDbEntity
  8
1
  6
Continuous
100
AcDbLine
 10
363.038515
 20
118.7613849999999
 30
0.0
 11
364.2585149999999
 21
120.393556
 31
0.0
  0
LINE
  5
A279
330
A012
100
AcDbEntity
  8
1
  6
Continuous
100
AcDbLine
 10
362.338503
 20
121.767218
 30
0.0
 11
362.188509
 21
121.617209
 31
0.0
  0
LINE
  5
A27A
330
A012
100
AcDbEntity
  8
1
  6
Continuous
100
AcDbLine
 10
359.538515
 20
118.6922049999999
 30
0.0
 11
359.538515
 21
117.3382289999999
 31
0.0
  0
LINE
  5
A27B
330
A012
100
AcDbEntity
  8
1
  6
Continuous
100
AcDbLine
 10
363.038515
 20
123.8172049999999
 30
0.0
 11
362.338518
 21
123.8172049999999
 31
0.0
  0
LINE
  5
A27C
330
A012
100
AcDbEntity
  8
1
  6
Continuous
100
AcDbLine
 10
350.3385269999997
 20
117.617225
 30
0.0
 11
350.3385269999997
 21
112.6171919999999
 31
0.0
  0
LINE
  5
A27D
330
A012
100
AcDbEntity
  8
1
  6
Continuous
100
AcDbLine
 10
350.3385269999997
 20
112.6171919999999
 30
0.0
 11
351.338527
 21
111.6172069999998
 31
0.0
  0
LINE
  5
A27E
330
A012
100
AcDbEntity
  8
1
  6
Continuous
100
AcDbLine
 10
351.3385119999999
 20
118.617195
 30
0.0
 11
351.3385119999999
 21
117.3382289999999
 31
0.0
  0
LINE
  5
A27F
330
A012
100
AcDbEntity
  8
1
  6
Continuous
100
AcDbLine
 10
350.3385269999997
 20
117.617225
 30
0.0
 11
351.338527
 21
118.61721
 31
0.0
  0
LINE
  5
A280
330
A012
100
AcDbEntity
  8
1
  6
Continuous
100
AcDbLine
 10
351.3385119999999
 20
111.6172219999999
 30
0.0
 11
351.3385119999999
 21
112.896188
 31
0.0
  0
LINE
  5
A281
330
A012
100
AcDbEntity
  8
1
  6
Continuous
100
AcDbLine
 10
360.2385089999998
 20
118.9473019999998
 30
0.0
 11
361.8385149999999
 21
118.9473019999998
 31
0.0
  0
LINE
  5
A282
330
A012
100
AcDbEntity
  8
1
  6
Continuous
100
AcDbLine
 10
360.2385089999998
 20
111.287008
 30
0.0
 11
361.8385149999999
 21
111.287008
 31
0.0
  0
LINE
  5
A283
330
A012
100
AcDbEntity
  8
1
  6
Continuous
100
AcDbLine
 10
110.384502
 20
177.2172149999999
 30
0.0
 11
110.384502
 21
193.0172179999999
 31
0.0
  0
LINE
  5
A284
330
A012
100
AcDbEntity
  8
1
  6
Continuous
100
AcDbLine
 10
111.604502
 20
177.2172149999999
 30
0.0
 11
111.604502
 21
193.0172179999999
 31
0.0
  0
LINE
  5
A285
330
A012
100
AcDbEntity
  8
1
  6
Continuous
100
AcDbLine
 10
114.404508
 20
192.8171899999999
 30
0.0
 11
112.804502
 21
192.8171899999999
 31
0.0
  0
LINE
  5
A286
330
A012
100
AcDbEntity
  8
1
  6
Continuous
100
AcDbLine
 10
114.404508
 20
188.947409
 30
0.0
 11
112.804502
 21
188.947409
 31
0.0
  0
LINE
  5
A287
330
A012
100
AcDbEntity
  8
1
  6
Continuous
100
AcDbLine
 10
114.404508
 20
181.2871
 30
0.0
 11
112.804502
 21
181.2871
 31
0.0
  0
LINE
  5
A288
330
A012
100
AcDbEntity
  8
1
  6
Continuous
100
AcDbLine
 10
114.404508
 20
177.5954649999999
 30
0.0
 11
112.804502
 21
177.5954649999999
 31
0.0
  0
LINE
  5
A289
330
A012
100
AcDbEntity
  8
1
  6
Continuous
100
AcDbLine
 10
112.3956149999999
 20
108.55831
 30
0.0
 11
112.454508
 21
108.617209
 31
0.0
  0
LINE
  5
A28A
330
A012
100
AcDbEntity
  8
1
  6
Continuous
100
AcDbLine
 10
362.247402
 20
108.55831
 30
0.0
 11
362.188509
 21
108.617209
 31
0.0
  0
LINE
  5
A28B
330
A012
100
AcDbEntity
  8
1
  6
Continuous
100
AcDbLine
 10
110.384502
 20
53.017202
 30
0.0
 11
110.384502
 21
37.217199
 31
0.0
  0
LINE
  5
A28C
330
A012
100
AcDbEntity
  8
1
  6
Continuous
100
AcDbLine
 10
111.604502
 20
53.017202
 30
0.0
 11
111.604502
 21
37.217199
 31
0.0
  0
LINE
  5
A28D
330
A012
100
AcDbEntity
  8
1
  6
Continuous
100
AcDbLine
 10
114.404508
 20
37.41722699999999
 30
0.0
 11
112.804502
 21
37.41722699999999
 31
0.0
  0
LINE
  5
A28E
330
A012
100
AcDbEntity
  8
1
  6
Continuous
100
AcDbLine
 10
114.404508
 20
37.41722699999999
 30
0.0
 11
114.404508
 21
52.638952
 31
0.0
  0
LINE
  5
A28F
330
A012
100
AcDbEntity
  8
1
  6
Continuous
100
AcDbLine
 10
112.804502
 20
37.41722699999999
 30
0.0
 11
112.804502
 21
41.217207
 31
0.0
  0
LINE
  5
A290
330
A012
100
AcDbEntity
  8
1
  6
Continuous
100
AcDbLine
 10
114.404508
 20
52.638952
 30
0.0
 11
112.804502
 21
52.638952
 31
0.0
  0
LINE
  5
A291
330
A012
100
AcDbEntity
  8
1
  6
Continuous
100
AcDbLine
 10
112.804502
 20
49.017206
 30
0.0
 11
112.804502
 21
52.638952
 31
0.0
  0
LINE
  5
A292
330
A012
100
AcDbEntity
  8
1
  6
Continuous
100
AcDbLine
 10
123.3044899999999
 20
42.412216
 30
0.0
 11
123.3044899999999
 21
47.82220099999999
 31
0.0
  0
LINE
  5
A293
330
A012
100
AcDbEntity
  8
1
  6
Continuous
100
AcDbLine
 10
124.3044899999999
 20
46.822232
 30
0.0
 11
123.3044899999999
 21
47.82221599999998
 31
0.0
  0
LINE
  5
A294
330
A012
100
AcDbEntity
  8
1
  6
Continuous
100
AcDbLine
 10
123.3044899999999
 20
42.412216
 30
0.0
 11
124.3044899999999
 21
43.41221599999999
 31
0.0
  0
LINE
  5
A295
330
A012
100
AcDbEntity
  8
1
  6
Continuous
100
AcDbLine
 10
124.3044899999999
 20
43.41221599999999
 30
0.0
 11
124.3044899999999
 21
46.822232
 31
0.0
  0
LINE
  5
A296
330
A012
100
AcDbEntity
  8
1
  6
Continuous
100
AcDbLine
 10
114.404508
 20
42.412216
 30
0.0
 11
123.3044899999999
 21
42.412216
 31
0.0
  0
LINE
  5
A297
330
A012
100
AcDbEntity
  8
1
  6
Continuous
100
AcDbLine
 10
115.4323219999999
 20
42.412216
 30
0.0
 11
115.4323219999999
 21
47.82220099999999
 31
0.0
  0
LINE
  5
A298
330
A012
100
AcDbEntity
  8
1
  6
Continuous
100
AcDbLine
 10
115.1045019999999
 20
42.412216
 30
0.0
 11
115.1045019999999
 21
47.82220099999999
 31
0.0
  0
LINE
  5
A299
330
A012
100
AcDbEntity
  8
1
  6
Continuous
100
AcDbLine
 10
114.404508
 20
47.82220099999999
 30
0.0
 11
123.3044899999999
 21
47.82220099999999
 31
0.0
  0
LINE
  5
A29A
330
A012
100
AcDbEntity
  8
1
  6
Continuous
100
AcDbLine
 10
114.404508
 20
50.802221
 30
0.0
 11
112.804502
 21
50.802221
 31
0.0
  0
LINE
  5
A29B
330
A012
100
AcDbEntity
  8
1
  6
Continuous
100
AcDbLine
 10
114.404508
 20
40.94783599999997
 30
0.0
 11
112.804502
 21
40.94783599999997
 31
0.0
  0
LINE
  5
A29C
330
A012
100
AcDbEntity
  8
1
  6
Continuous
100
AcDbLine
 10
114.404508
 20
41.96593299999999
 30
0.0
 11
114.1045019999999
 21
41.96593299999999
 31
0.0
  0
LINE
  5
A29D
330
A012
100
AcDbEntity
  8
1
  6
Continuous
100
AcDbLine
 10
97.534503
 20
124.61721
 30
0.0
 11
97.534503
 21
120.393556
 31
0.0
  0
LINE
  5
A29E
330
A012
100
AcDbEntity
  8
1
  6
Continuous
100
AcDbLine
 10
97.534503
 20
109.840861
 30
0.0
 11
97.534503
 21
105.6172069999998
 31
0.0
  0
LINE
  5
A29F
330
A012
100
AcDbEntity
  8
2
  6
Continuous
100
AcDbLine
 10
97.534503
 20
124.075712
 30
0.0
 11
111.2102889999997
 21
124.075712
 31
0.0
  0
LINE
  5
A2A0
330
A012
100
AcDbEntity
  8
2
  6
Continuous
100
AcDbLine
 10
97.00450299999999
 20
124.381702
 30
0.0
 11
97.534503
 21
124.075712
 31
0.0
  0
LINE
  5
A2A1
330
A012
100
AcDbEntity
  8
1
  6
Continuous
100
AcDbLine
 10
97.534503
 20
177.2172149999999
 30
0.0
 11
97.534503
 21
193.0172179999999
 31
0.0
  0
LINE
  5
A2A2
330
A012
100
AcDbEntity
  8
1
  6
Continuous
100
AcDbLine
 10
97.534503
 20
53.017202
 30
0.0
 11
97.534503
 21
37.217207
 31
0.0
  0
LINE
  5
A2A3
330
A012
100
AcDbEntity
  8
2
  6
Continuous
100
AcDbLine
 10
377.6385139999999
 20
124.381702
 30
0.0
 11
377.108514
 21
124.075712
 31
0.0
  0
LINE
  5
A2A4
330
A012
100
AcDbEntity
  8
2
  6
Continuous
100
AcDbLine
 10
377.108514
 20
124.075712
 30
0.0
 11
363.4327279999998
 21
124.075712
 31
0.0
  0
LINE
  5
A2A5
330
A012
100
AcDbEntity
  8
1
  6
Continuous
100
AcDbLine
 10
377.108514
 20
124.61721
 30
0.0
 11
377.108514
 21
120.393556
 31
0.0
  0
LINE
  5
A2A6
330
A012
100
AcDbEntity
  8
2
  6
Continuous
100
AcDbLine
 10
377.6385139999999
 20
105.8527149999999
 30
0.0
 11
377.108514
 21
106.1587049999999
 31
0.0
  0
LINE
  5
A2A7
330
A012
100
AcDbEntity
  8
1
  6
Continuous
100
AcDbLine
 10
377.108514
 20
109.840861
 30
0.0
 11
377.108514
 21
105.6172069999998
 31
0.0
  0
LINE
  5
A2A8
330
A012
100
AcDbEntity
  8
2
  6
Continuous
100
AcDbLine
 10
377.108514
 20
106.1587049999999
 30
0.0
 11
363.4327279999998
 21
106.1587049999999
 31
0.0
  0
ARC
  5
A2A9
330
A012
100
AcDbEntity
  8
1
  6
Continuous
100
AcDbCircle
 10
35.90280400000001
 20
115.1172089999999
 30
0.0
 40
1.05
100
AcDbArc
 50
109.52739
 51
250.4725720000001
  0
LINE
  5
A2AA
330
A012
100
AcDbEntity
  8
1
  6
Continuous
100
AcDbLine
 10
41.75282100000001
 20
108.7663559999999
 30
0.0
 11
41.75282100000001
 21
121.468054
 31
0.0
  0
ARC
  5
A2AB
330
A012
100
AcDbEntity
  8
1
  6
Continuous
100
AcDbCircle
 10
25.60280399999999
 20
115.1172089999999
 30
0.0
 40
1.05
100
AcDbArc
 50
289.5273649999999
 51
70.47259400000001
  0
LINE
  5
A2AC
330
A012
100
AcDbEntity
  8
1
  6
Continuous
100
AcDbLine
 10
19.75280599999997
 20
108.7663559999999
 30
0.0
 11
19.75280599999997
 21
121.468054
 31
0.0
  0
ARC
  5
A2AD
330
A012
100
AcDbEntity
  8
1
  6
Continuous
100
AcDbCircle
 10
30.752806
 20
115.1172089999999
 30
0.0
 40
4.9
100
AcDbArc
 50
99.98959823027949
 51
80.01040176972027
  0
ARC
  5
A2AE
330
A012
100
AcDbEntity
  8
1
  6
Continuous
100
AcDbCircle
 10
30.752806
 20
115.1172089999999
 30
0.0
 40
3.9
100
AcDbArc
 50
102.5885798412581
 51
77.41142015878648
  0
CIRCLE
  5
A2AF
330
A012
100
AcDbEntity
  8
1
  6
Continuous
100
AcDbCircle
 10
30.752806
 20
115.1172089999999
 30
0.0
 40
8.619999999999999
  0
CIRCLE
  5
A2B0
330
A012
100
AcDbEntity
  8
1
  6
Continuous
100
AcDbCircle
 10
30.752806
 20
115.1172089999999
 30
0.0
 40
11.0
  0
ARC
  5
A2B1
330
A012
100
AcDbEntity
  8
1
  6
Continuous
100
AcDbCircle
 10
27.111204
 20
111.475607
 30
0.0
 40
1.05
100
AcDbArc
 50
334.527361
 51
115.472585
  0
LINE
  5
A2B2
330
A012
100
AcDbEntity
  8
1
  6
Continuous
100
AcDbLine
 10
19.75283299999999
 20
108.7663559999999
 30
0.0
 11
30.75281699999999
 21
102.4155099999999
 31
0.0
  0
LINE
  5
A2B3
330
A012
100
AcDbEntity
  8
1
  6
Continuous
100
AcDbLine
 10
30.752813
 20
102.4155029999999
 30
0.0
 11
41.752813
 21
108.7663559999999
 31
0.0
  0
ARC
  5
A2B4
330
A012
100
AcDbEntity
  8
1
  6
Continuous
100
AcDbCircle
 10
30.752806
 20
109.967207
 30
0.0
 40
1.05
100
AcDbArc
 50
19.527398
 51
160.472576
  0
ARC
  5
A2B5
330
A012
100
AcDbEntity
  8
1
  6
Continuous
100
AcDbCircle
 10
34.39440399999998
 20
111.475607
 30
0.0
 40
1.05
100
AcDbArc
 50
64.52739300000001
 51
205.4725809999999
  0
ARC
  5
A2B6
330
A012
100
AcDbEntity
  8
1
  6
Continuous
100
AcDbCircle
 10
27.111204
 20
118.75881
 30
0.0
 40
1.05
100
AcDbArc
 50
244.527374
 51
25.47259599999998
  0
LINE
  5
A2B7
330
A012
100
AcDbEntity
  8
1
  6
Continuous
100
AcDbLine
 10
19.75281299999998
 20
121.468054
 30
0.0
 11
30.752813
 21
127.818914
 31
0.0
  0
LINE
  5
A2B8
330
A012
100
AcDbEntity
  8
1
  6
Continuous
100
AcDbLine
 10
30.75282899999999
 20
127.818914
 30
0.0
 11
41.752813
 21
121.468069
 31
0.0
  0
LINE
  5
A2B9
330
A012
100
AcDbEntity
  8
1
  6
Continuous
100
AcDbLine
 10
29.902806
 20
121.2672089999997
 30
0.0
 11
29.902806
 21
119.9429213826435
 31
0.0
  0
LINE
  5
A2BA
330
A012
100
AcDbEntity
  8
1
  6
Continuous
100
AcDbLine
 10
31.602806
 20
121.2672089999997
 30
0.0
 11
31.602806
 21
119.9429213826435
 31
0.0
  0
ARC
  5
A2BB
330
A012
100
AcDbEntity
  8
1
  6
Continuous
100
AcDbCircle
 10
30.75280599999997
 20
121.2672089999997
 30
0.0
 40
0.85
100
AcDbArc
 50
359.9999999999997
 51
179.9999999999998
  0
LINE
  5
A2BC
330
A012
100
AcDbEntity
  8
1
  6
Continuous
100
AcDbLine
 10
29.90280599999762
 20
118.923453868633
 30
0.0
 11
29.90280599999421
 21
117.5172089999964
 31
0.0
  0
LINE
  5
A2BD
330
A012
100
AcDbEntity
  8
1
  6
Continuous
100
AcDbLine
 10
31.60280599999939
 20
118.9234538686336
 30
0.0
 11
31.6028059999986
 21
117.5172089999964
 31
0.0
  0
LINE
  5
A2BE
330
A012
100
AcDbEntity
  8
1
  6
Continuous
100
AcDbLine
 10
31.6028059999986
 20
117.5172089999998
 30
0.0
 11
29.90280599999421
 21
117.5172089999998
 31
0.0
  0
ARC
  5
A2BF
330
A012
100
AcDbEntity
  8
1
  6
Continuous
100
AcDbCircle
 10
34.39440399999998
 20
118.75881
 30
0.0
 40
1.05
100
AcDbArc
 50
154.527388
 51
295.472563
  0
LINE
  5
A2C0
330
A012
100
AcDbEntity
  8
1
  6
Continuous
100
AcDbLine
 10
29.902806
 20
121.2672089999997
 30
0.0
 11
31.602806
 21
121.2672089999997
 31
0.0
  0
ENDSEC
  0
SECTION
  2
OBJECTS
  0
DICTIONARY
  5
A000
330
0
100
AcDbDictionary
281
     1
  3
ACAD_CIP_PREVIOUS_PRODUCT_INFO
350
A324
  3
ACAD_COLOR
350
A306
  3
ACAD_DETAILVIEWSTYLE
350
A31F
  3
ACAD_GROUP
350
A001
  3
ACAD_LAYOUT
350
A00D
  3
ACAD_MATERIAL
350
A2D4
  3
ACAD_MLEADERSTYLE
350
A31B
  3
ACAD_MLINESTYLE
350
A00A
  3
ACAD_PLOTSETTINGS
350
A00C
  3
ACAD_PLOTSTYLENAME
350
A2D2
  3
ACAD_SCALELIST
350
A309
  3
ACAD_SECTIONVIEWSTYLE
350
A31D
  3
ACAD_TABLESTYLE
350
A307
  3
ACAD_VISUALSTYLE
350
A2ED
  3
ACDB_RECOMPOSE_DATA
350
A342
  3
AcDbVariableDictionary
350
A335
  3
DWGPROPS
350
A343
  0
DICTIONARY
  5
A325
330
A004
100
AcDbDictionary
280
     1
281
     1
  3
ADSK_XREC_LAYER_RECONCILED
360
A326
  0
DICTIONARY
  5
A327
330
A01A
100
AcDbDictionary
280
     1
281
     1
  3
ADSK_XREC_LAYER_RECONCILED
360
A328
  0
DICTIONARY
  5
A329
330
A01B
100
AcDbDictionary
280
     1
281
     1
  3
ADSK_XREC_LAYER_RECONCILED
360
A32A
  0
DICTIONARY
  5
A32B
330
A01C
100
AcDbDictionary
280
     1
281
     1
  3
ADSK_XREC_LAYER_RECONCILED
360
A32C
  0
DICTIONARY
  5
A32D
330
A01D
100
AcDbDictionary
280
     1
281
     1
  3
ADSK_XREC_LAYER_RECONCILED
360
A32E
  0
DICTIONARY
  5
A32F
330
A01E
100
AcDbDictionary
280
     1
281
     1
  3
ADSK_XREC_LAYER_RECONCILED
360
A330
  0
DICTIONARY
  5
A331
330
A01F
100
AcDbDictionary
280
     1
281
     1
  3
ADSK_XREC_LAYER_RECONCILED
360
A332
  0
DICTIONARY
  5
A333
330
A020
100
AcDbDictionary
280
     1
281
     1
  3
ADSK_XREC_LAYER_RECONCILED
360
A334
  0
DICTIONARY
  5
A2CD
330
A012
100
AcDbDictionary
281
     1
  3
ACAD_LAYOUTSELFREF
350
A2CE
  0
DICTIONARY
  5
A2CB
330
A00E
100
AcDbDictionary
281
     1
  3
ACAD_LAYOUTSELFREF
350
A2CC
  0
XRECORD
  5
A324
102
{ACAD_REACTORS
330
A000
102
}
330
A000
100
AcDbXrecord
280
     1
300
ACDLT
300
2014
300
ACDLT_F_S
  0
DICTIONARY
  5
A306
102
{ACAD_REACTORS
330
A000
102
}
330
A000
100
AcDbDictionary
281
     1
  0
DICTIONARY
  5
A31F
102
{ACAD_REACTORS
330
A000
102
}
330
A000
100
AcDbDictionary
281
     1
  3
Imperial24
350
A320
  0
DICTIONARY
  5
A001
102
{ACAD_REACTORS
330
A000
102
}
330
A000
100
AcDbDictionary
281
     1
  0
DICTIONARY
  5
A00D
102
{ACAD_REACTORS
330
A000
102
}
330
A000
100
AcDbDictionary
281
     1
  3
Model
350
A321
  3
レイアウト1
350
A322
  0
DICTIONARY
  5
A2D4
102
{ACAD_REACTORS
330
A000
102
}
330
A000
100
AcDbDictionary
281
     1
  3
ByBlock
350
A2DD
  3
ByLayer
350
A2D5
  3
Global
350
A2E5
  0
DICTIONARY
  5
A31B
102
{ACAD_REACTORS
330
A000
102
}
330
A000
100
AcDbDictionary
281
     1
  3
Standard
350
A31C
  0
DICTIONARY
  5
A00A
102
{ACAD_REACTORS
330
A000
102
}
330
A000
100
AcDbDictionary
281
     1
  3
STANDARD
350
A00B
  0
DICTIONARY
  5
A00C
102
{ACAD_REACTORS
330
A000
102
}
330
A000
100
AcDbDictionary
281
     1
  0
ACDBDICTIONARYWDFLT
  5
A2D2
102
{ACAD_REACTORS
330
A000
102
}
330
A000
100
AcDbDictionary
281
     1
  3
Normal
350
A2D3
100
AcDbDictionaryWithDefault
340
A2D3
  0
DICTIONARY
  5
A309
102
{ACAD_REACTORS
330
A000
102
}
330
A000
100
AcDbDictionary
281
     1
  3
A0
350
A30A
  3
A1
350
A30B
  3
A2
350
A30C
  3
A3
350
A30D
  3
A4
350
A30E
  3
A5
350
A30F
  3
A6
350
A310
  3
A7
350
A311
  3
A8
350
A312
  3
A9
350
A313
  3
B0
350
A314
  3
B1
350
A315
  3
B2
350
A316
  3
B3
350
A317
  3
B4
350
A318
  3
B5
350
A319
  3
B6
350
A31A
  0
DICTIONARY
  5
A31D
102
{ACAD_REACTORS
330
A000
102
}
330
A000
100
AcDbDictionary
281
     1
  3
Imperial24
350
A31E
  0
DICTIONARY
  5
A307
102
{ACAD_REACTORS
330
A000
102
}
330
A000
100
AcDbDictionary
281
     1
  3
Standard
350
A308
  0
DICTIONARY
  5
A2ED
102
{ACAD_REACTORS
330
A000
102
}
330
A000
100
AcDbDictionary
281
     1
  3
2dWireframe
350
A2F3
  3
Basic
350
A2F2
  3
Brighten
350
A2F9
  3
ColorChange
350
A2FD
  3
Conceptual
350
A2F6
  3
Dim
350
A2F8
  3
EdgeColorOff
350
A305
  3
Facepattern
350
A2FC
  3
Flat
350
A2EE
  3
FlatWithEdges
350
A2EF
  3
Gouraud
350
A2F0
  3
GouraudWithEdges
350
A2F1
  3
Hidden
350
A2F5
  3
JitterOff
350
A303
  3
Linepattern
350
A2FB
  3
OverhangOff
350
A304
  3
Realistic
350
A2F7
  3
Shaded
350
A302
  3
Shaded with edges
350
A301
  3
Shades of Gray
350
A2FE
  3
Sketchy
350
A2FF
  3
Thicken
350
A2FA
  3
Wireframe
350
A2F4
  3
X-Ray
350
A300
  0
XRECORD
  5
A342
102
{ACAD_REACTORS
330
A000
102
}
330
A000
100
AcDbXrecord
280
     1
 90
        1
330
A308
  0
DICTIONARY
  5
A335
102
{ACAD_REACTORS
330
A000
102
}
330
A000
100
AcDbDictionary
281
     1
  3
CANNOSCALE
350
A33A
  3
CMLEADERSTYLE
350
A337
  3
CTABLESTYLE
350
A336
  3
CVIEWDETAILSTYLE
350
A338
  3
CVIEWSECTIONSTYLE
350
A339
  3
DIMASSOC
350
A33D
  3
INDEXCTL
350
A33C
  3
SORTENTS
350
A33B
  3
XCLIPFRAME
350
A33E
  0
XRECORD
  5
A343
102
{ACAD_REACTORS
330
A000
102
}
330
A000
100
AcDbXrecord
280
     1
  1
DWGPROPS COOKIE
  2

  3

  4

  6

  7

  8
Yoshitsune
  9

300
=
301
=
302
=
303
=
304
=
305
=
306
=
307
=
308
=
309
=
 40
0.0006747337962963
 41
2450950.407545139
 42
2457192.603818299
  1

 90
        0
  0
XRECORD
  5
A326
102
{ACAD_REACTORS
330
A325
102
}
330
A325
100
AcDbXrecord
280
     1
290
     1
  0
XRECORD
  5
A328
102
{ACAD_REACTORS
330
A327
102
}
330
A327
100
AcDbXrecord
280
     1
290
     1
  0
XRECORD
  5
A32A
102
{ACAD_REACTORS
330
A329
102
}
330
A329
100
AcDbXrecord
280
     1
290
     1
  0
XRECORD
  5
A32C
102
{ACAD_REACTORS
330
A32B
102
}
330
A32B
100
AcDbXrecord
280
     1
290
     1
  0
XRECORD
  5
A32E
102
{ACAD_REACTORS
330
A32D
102
}
330
A32D
100
AcDbXrecord
280
     1
290
     1
  0
XRECORD
  5
A330
102
{ACAD_REACTORS
330
A32F
102
}
330
A32F
100
AcDbXrecord
280
     1
290
     1
  0
XRECORD
  5
A332
102
{ACAD_REACTORS
330
A331
102
}
330
A331
100
AcDbXrecord
280
     1
290
     1
  0
XRECORD
  5
A334
102
{ACAD_REACTORS
330
A333
102
}
330
A333
100
AcDbXrecord
280
     1
290
     1
  0
XRECORD
  5
A2CE
102
{ACAD_REACTORS
330
A2CD
102
}
330
A2CD
100
AcDbXrecord
280
     1
340
A012
  0
XRECORD
  5
A2CC
102
{ACAD_REACTORS
330
A2CB
102
}
330
A2CB
100
AcDbXrecord
280
     1
340
A00E
  0
ACDBDETAILVIEWSTYLE
  5
A320
102
{ACAD_XDICTIONARY
360
A37B
102
}
102
{ACAD_REACTORS
330
A31F
102
}
330
A31F
100
AcDbModelDocViewStyle
 70
     0
  3
Imperial24
290
     0
100
AcDbDetailViewStyle
 70
     0
 71
     0
 90
        3
 71
     1
340
A005
 40
0.24
340
0
 40
0.24
300

 40
0.36
280
     3
 71
     2
340
A009
 90
       25
 71
     3
340
A005
 40
0.24
 90
        1
 40
0.75
 90
        1
300
%<\AcVar ViewType \f "%tc1">% %<\AcVar ViewDetailId>%\PSCALE %<\AcVar ViewScale \f "%sn">%
 71
     4
340
A009
 90
       25
340
A009
 90
       25
280
     0
  0
LAYOUT
  5
A321
102
{ACAD_XDICTIONARY
360
A37D
102
}
102
{ACAD_REACTORS
330
A00D
102
}
330
A00D
100
AcDbPlotSettings
  1

  2
Canon LBP9100C
  4

  6

 40
0.0
 41
0.0
 42
0.0
 43
0.0
 44
0.0
 45
0.0
 46
0.0
 47
0.0
 48
0.0
 49
0.0
140
0.0
141
0.0
142
1.0
143
1.0
 70
  1712
 72
     0
 73
     0
 74
     0
  7

 75
     0
147
1.0
148
0.0
149
0.0
100
AcDbLayout
  1
Model
 70
     1
 71
     0
 10
0.0
 20
0.0
 11
12.0
 21
9.0
 12
0.0
 22
0.0
 32
0.0
 14
0.0
 24
0.0
 34
0.0
 15
0.0
 25
0.0
 35
0.0
146
0.0
 13
0.0
 23
0.0
 33
0.0
 16
1.0
 26
0.0
 36
0.0
 17
0.0
 27
1.0
 37
0.0
 76
     0
330
A012
331
A2CA
  0
LAYOUT
  5
A322
102
{ACAD_XDICTIONARY
360
A37F
102
}
102
{ACAD_REACTORS
330
A00D
102
}
330
A00D
100
AcDbPlotSettings
  1

  2
Canon LBP9100C
  4

  6

 40
0.0
 41
0.0
 42
0.0
 43
0.0
 44
0.0
 45
0.0
 46
0.0
 47
0.0
 48
0.0
 49
0.0
140
0.0
141
0.0
142
1.0
143
1.0
 70
   688
 72
     0
 73
     0
 74
     5
  7

 75
    16
147
1.0
148
0.0
149
0.0
100
AcDbLayout
  1
レイアウト1
 70
     0
 71
     1
 10
0.0
 20
0.0
 11
420.0
 21
297.0
 12
0.0
 22
0.0
 32
0.0
 14
1.000000000000000E+20
 24
1.000000000000000E+20
 34
1.000000000000000E+20
 15
-1.000000000000000E+20
 25
-1.000000000000000E+20
 35
-1.000000000000000E+20
146
0.0
 13
0.0
 23
0.0
 33
0.0
 16
1.0
 26
0.0
 36
0.0
 17
0.0
 27
1.0
 37
0.0
 76
     0
330
A00E
  0
MATERIAL
  5
A2DD
102
{ACAD_XDICTIONARY
360
A2DE
102
}
102
{ACAD_REACTORS
330
A2D4
102
}
330
A2D4
100
AcDbMaterial
  1
ByBlock
 72
     0
 43
0.0208333333333333
 43
0.0
 43
0.0
 43
0.0
 43
0.0
 43
0.0208333333333333
 43
0.0
 43
0.0
 43
0.0
 43
0.0
 43
1.0
 43
0.0
 43
0.0
 43
0.0
 43
0.0
 43
1.0
 77
     0
 47
0.0208333333333333
 47
0.0
 47
0.0
 47
0.0
 47
0.0
 47
0.0208333333333333
 47
0.0
 47
0.0
 47
0.0
 47
0.0
 47
1.0
 47
0.0
 47
0.0
 47
0.0
 47
0.0
 47
1.0
171
     0
 49
0.0208333333333333
 49
0.0
 49
0.0
 49
0.0
 49
0.0
 49
0.0208333333333333
 49
0.0
 49
0.0
 49
0.0
 49
0.0
 49
1.0
 49
0.0
 49
0.0
 49
0.0
 49
0.0
 49
1.0
175
     0
142
0.0208333333333333
142
0.0
142
0.0
142
0.0
142
0.0
142
0.0208333333333333
142
0.0
142
0.0
142
0.0
142
0.0
142
1.0
142
0.0
142
0.0
142
0.0
142
0.0
142
1.0
179
     0
144
0.0208333333333333
144
0.0
144
0.0
144
0.0
144
0.0
144
0.0208333333333333
144
0.0
144
0.0
144
0.0
144
0.0
144
1.0
144
0.0
144
0.0
144
0.0
144
0.0
144
1.0
147
0.0208333333333333
147
0.0
147
0.0
147
0.0
147
0.0
147
0.0208333333333333
147
0.0
147
0.0
147
0.0
147
0.0
147
1.0
147
0.0
147
0.0
147
0.0
147
0.0
147
1.0
  0
MATERIAL
  5
A2D5
102
{ACAD_XDICTIONARY
360
A2D6
102
}
102
{ACAD_REACTORS
330
A2D4
102
}
330
A2D4
100
AcDbMaterial
  1
ByLayer
 72
     0
 43
0.0208333333333333
 43
0.0
 43
0.0
 43
0.0
 43
0.0
 43
0.0208333333333333
 43
0.0
 43
0.0
 43
0.0
 43
0.0
 43
1.0
 43
0.0
 43
0.0
 43
0.0
 43
0.0
 43
1.0
 77
     0
 47
0.0208333333333333
 47
0.0
 47
0.0
 47
0.0
 47
0.0
 47
0.0208333333333333
 47
0.0
 47
0.0
 47
0.0
 47
0.0
 47
1.0
 47
0.0
 47
0.0
 47
0.0
 47
0.0
 47
1.0
171
     0
 49
0.0208333333333333
 49
0.0
 49
0.0
 49
0.0
 49
0.0
 49
0.0208333333333333
 49
0.0
 49
0.0
 49
0.0
 49
0.0
 49
1.0
 49
0.0
 49
0.0
 49
0.0
 49
0.0
 49
1.0
175
     0
142
0.0208333333333333
142
0.0
142
0.0
142
0.0
142
0.0
142
0.0208333333333333
142
0.0
142
0.0
142
0.0
142
0.0
142
1.0
142
0.0
142
0.0
142
0.0
142
0.0
142
1.0
179
     0
144
0.0208333333333333
144
0.0
144
0.0
144
0.0
144
0.0
144
0.0208333333333333
144
0.0
144
0.0
144
0.0
144
0.0
144
1.0
144
0.0
144
0.0
144
0.0
144
0.0
144
1.0
147
0.0208333333333333
147
0.0
147
0.0
147
0.0
147
0.0
147
0.0208333333333333
147
0.0
147
0.0
147
0.0
147
0.0
147
1.0
147
0.0
147
0.0
147
0.0
147
0.0
147
1.0
  0
MATERIAL
  5
A2E5
102
{ACAD_XDICTIONARY
360
A2E6
102
}
102
{ACAD_REACTORS
330
A2D4
102
}
330
A2D4
100
AcDbMaterial
  1
Global
 72
     0
 43
0.0208333333333333
 43
0.0
 43
0.0
 43
0.0
 43
0.0
 43
0.0208333333333333
 43
0.0
 43
0.0
 43
0.0
 43
0.0
 43
1.0
 43
0.0
 43
0.0
 43
0.0
 43
0.0
 43
1.0
 77
     0
 47
0.0208333333333333
 47
0.0
 47
0.0
 47
0.0
 47
0.0
 47
0.0208333333333333
 47
0.0
 47
0.0
 47
0.0
 47
0.0
 47
1.0
 47
0.0
 47
0.0
 47
0.0
 47
0.0
 47
1.0
171
     0
 49
0.0208333333333333
 49
0.0
 49
0.0
 49
0.0
 49
0.0
 49
0.0208333333333333
 49
0.0
 49
0.0
 49
0.0
 49
0.0
 49
1.0
 49
0.0
 49
0.0
 49
0.0
 49
0.0
 49
1.0
175
     0
142
0.0208333333333333
142
0.0
142
0.0
142
0.0
142
0.0
142
0.0208333333333333
142
0.0
142
0.0
142
0.0
142
0.0
142
1.0
142
0.0
142
0.0
142
0.0
142
0.0
142
1.0
179
     0
144
0.0208333333333333
144
0.0
144
0.0
144
0.0
144
0.0
144
0.0208333333333333
144
0.0
144
0.0
144
0.0
144
0.0
144
1.0
144
0.0
144
0.0
144
0.0
144
0.0
144
1.0
147
0.0208333333333333
147
0.0
147
0.0
147
0.0
147
0.0
147
0.0208333333333333
147
0.0
147
0.0
147
0.0
147
0.0
147
1.0
147
0.0
147
0.0
147
0.0
147
0.0
147
1.0
  0
MLEADERSTYLE
  5
A31C
102
{ACAD_REACTORS
330
A31B
102
}
330
A31B
100
AcDbMLeaderStyle
170
     2
171
     1
172
     0
 90
        2
 40
0.0
 41
0.0
173
     1
 91
-1056964608
340
A007
 92
       -2
290
     1
 42
0.09
291
     1
 43
0.36
  3
Standard
 44
0.18
300

342
A005
174
     1
178
     6
175
     1
176
     0
 93
-1056964608
 45
0.18
292
     0
297
     0
 46
0.18
 94
-1056964608
 47
1.0
 49
1.0
140
1.0
293
     1
141
0.0
294
     1
177
     0
142
1.0
295
     0
296
     0
143
0.125
1001
ACAD_MLEADERVER
1070
     2
  0
MLINESTYLE
  5
A00B
102
{ACAD_REACTORS
330
A00A
102
}
330
A00A
100
AcDbMlineStyle
  2
STANDARD
 70
     0
  3

 62
   256
 51
90.0
 52
90.0
 71
     2
 49
0.5
 62
   256
  6
BYLAYER
 49
-0.5
 62
   256
  6
BYLAYER
  0
ACDBPLACEHOLDER
  5
A2D3
102
{ACAD_REACTORS
330
A2D2
102
}
330
A2D2
  0
SCALE
  5
A30A
102
{ACAD_REACTORS
330
A309
102
}
330
A309
100
AcDbScale
 70
     0
300
1:1
140
1.0
141
1.0
290
     1
  0
SCALE
  5
A30B
102
{ACAD_REACTORS
330
A309
102
}
330
A309
100
AcDbScale
 70
     0
300
1/128" = 1'-0"
140
0.0078125
141
12.0
290
     0
  0
SCALE
  5
A30C
102
{ACAD_REACTORS
330
A309
102
}
330
A309
100
AcDbScale
 70
     0
300
1/64" = 1'-0"
140
0.015625
141
12.0
290
     0
  0
SCALE
  5
A30D
102
{ACAD_REACTORS
330
A309
102
}
330
A309
100
AcDbScale
 70
     0
300
1/32" = 1'-0"
140
0.03125
141
12.0
290
     0
  0
SCALE
  5
A30E
102
{ACAD_REACTORS
330
A309
102
}
330
A309
100
AcDbScale
 70
     0
300
1/16" = 1'-0"
140
0.0625
141
12.0
290
     0
  0
SCALE
  5
A30F
102
{ACAD_REACTORS
330
A309
102
}
330
A309
100
AcDbScale
 70
     0
300
3/32" = 1'-0"
140
0.09375
141
12.0
290
     0
  0
SCALE
  5
A310
102
{ACAD_REACTORS
330
A309
102
}
330
A309
100
AcDbScale
 70
     0
300
1/8" = 1'-0"
140
0.125
141
12.0
290
     0
  0
SCALE
  5
A311
102
{ACAD_REACTORS
330
A309
102
}
330
A309
100
AcDbScale
 70
     0
300
3/16" = 1'-0"
140
0.1875
141
12.0
290
     0
  0
SCALE
  5
A312
102
{ACAD_REACTORS
330
A309
102
}
330
A309
100
AcDbScale
 70
     0
300
1/4" = 1'-0"
140
0.25
141
12.0
290
     0
  0
SCALE
  5
A313
102
{ACAD_REACTORS
330
A309
102
}
330
A309
100
AcDbScale
 70
     0
300
3/8" = 1'-0"
140
0.375
141
12.0
290
     0
  0
SCALE
  5
A314
102
{ACAD_REACTORS
330
A309
102
}
330
A309
100
AcDbScale
 70
     0
300
1/2" = 1'-0"
140
0.5
141
12.0
290
     0
  0
SCALE
  5
A315
102
{ACAD_REACTORS
330
A309
102
}
330
A309
100
AcDbScale
 70
     0
300
3/4" = 1'-0"
140
0.75
141
12.0
290
     0
  0
SCALE
  5
A316
102
{ACAD_REACTORS
330
A309
102
}
330
A309
100
AcDbScale
 70
     0
300
1" = 1'-0"
140
1.0
141
12.0
290
     0
  0
SCALE
  5
A317
102
{ACAD_REACTORS
330
A309
102
}
330
A309
100
AcDbScale
 70
     0
300
1-1/2" = 1'-0"
140
1.5
141
12.0
290
     0
  0
SCALE
  5
A318
102
{ACAD_REACTORS
330
A309
102
}
330
A309
100
AcDbScale
 70
     0
300
3" = 1'-0"
140
3.0
141
12.0
290
     0
  0
SCALE
  5
A319
102
{ACAD_REACTORS
330
A309
102
}
330
A309
100
AcDbScale
 70
     0
300
6" = 1'-0"
140
6.0
141
12.0
290
     0
  0
SCALE
  5
A31A
102
{ACAD_REACTORS
330
A309
102
}
330
A309
100
AcDbScale
 70
     0
300
1'-0" = 1'-0"
140
12.0
141
12.0
290
     0
  0
ACDBSECTIONVIEWSTYLE
  5
A31E
102
{ACAD_XDICTIONARY
360
A379
102
}
102
{ACAD_REACTORS
330
A31D
102
}
330
A31D
100
AcDbModelDocViewStyle
 70
     0
  3
Imperial24
290
     0
100
AcDbSectionViewStyle
 70
     0
 71
     0
 90
       78
 71
     1
340
A005
 40
0.24
340
0
340
0
 40
0.24
300
I, O, Q, S, X, Z
 40
0.48
 90
        3
 40
0.18
 90
        1
 71
     2
340
A009
 90
       25
340
A009
 90
       50
 40
0.24
 40
0.0
 40
0.24
 71
     3
340
A005
 40
0.24
 90
        1
 40
0.75
 90
        1
300
%<\AcVar ViewType \f "%tc1">% %<\AcVar ViewSectionStartId>%-%<\AcVar ViewSectionEndId>%\PSCALE %<\AcVar ViewScale \f "%sn">%
 71
     4
300
ANSI31
 40
1.0
 90
        0
290
     0
290
     0
 90
        6
 40
0.0
 40
1.570796326794896
 40
0.2617993877991494
 40
1.308996938995747
 40
-0.2617993877991494
 40
1.832595714594046
  0
TABLESTYLE
  5
A308
102
{ACAD_XDICTIONARY
360
A340
102
}
102
{ACAD_REACTORS
330
A307
102
}
330
A307
100
AcDbTableStyle
  3
Standard
 70
     0
 71
     0
 40
0.06
 41
0.06
280
     0
281
     0
  7
STANDARD
140
0.18
170
     2
 62
     0
 63
     7
283
     0
274
    -2
284
     1
 64
     0
275
    -2
285
     1
 65
     0
276
    -2
286
     1
 66
     0
277
    -2
287
     1
 67
     0
278
    -2
288
     1
 68
     0
279
    -2
289
     1
 69
     0
  7
STANDARD
140
0.25
170
     5
 62
     0
 63
     7
283
     0
274
    -2
284
     1
 64
     0
275
    -2
285
     1
 65
     0
276
    -2
286
     1
 66
     0
277
    -2
287
     1
 67
     0
278
    -2
288
     1
 68
     0
279
    -2
289
     1
 69
     0
  7
STANDARD
140
0.18
170
     5
 62
     0
 63
     7
283
     0
274
    -2
284
     1
 64
     0
275
    -2
285
     1
 65
     0
276
    -2
286
     1
 66
     0
277
    -2
287
     1
 67
     0
278
    -2
288
     1
 68
     0
279
    -2
289
     1
 69
     0
  0
VISUALSTYLE
  5
A2F3
102
{ACAD_XDICTIONARY
360
A351
102
}
102
{ACAD_REACTORS
330
A2ED
102
}
330
A2ED
100
AcDbVisualStyle
  2
2dWireframe
 70
     4
 71
     0
 72
     2
 73
     0
 90
        0
 40
-0.6
 41
-30.0
 62
     5
 63
     7
 74
     1
 91
        4
 64
     7
 65
   257
 75
     1
175
     1
 42
1.0
 92
        0
 66
   257
 43
1.0
 76
     1
 77
     6
 78
     2
 67
     7
 79
     5
170
     0
171
     0
290
     0
174
     0
 93
        1
 44
0.0
173
     0
291
     0
 45
0.0
1001
ACAD
1000
AcDbSavedByObjectVersion
1070
     0
  0
VISUALSTYLE
  5
A2F2
102
{ACAD_XDICTIONARY
360
A34F
102
}
102
{ACAD_REACTORS
330
A2ED
102
}
330
A2ED
100
AcDbVisualStyle
  2
Basic
 70
     7
 71
     1
 72
     0
 73
     1
 90
        0
 40
-0.6
 41
-30.0
 62
     5
 63
     7
 74
     0
 91
        4
 64
     7
 65
   257
 75
     1
175
     1
 42
1.0
 92
        8
 66
     7
 43
1.0
 76
     1
 77
     6
 78
     2
 67
     7
 79
     5
170
     0
171
     0
290
     0
174
     0
 93
        1
 44
0.0
173
     0
291
     1
 45
0.0
1001
ACAD
1000
AcDbSavedByObjectVersion
1070
     0
  0
VISUALSTYLE
  5
A2F9
102
{ACAD_XDICTIONARY
360
A35D
102
}
102
{ACAD_REACTORS
330
A2ED
102
}
330
A2ED
100
AcDbVisualStyle
  2
Brighten
 70
    12
 71
     2
 72
     2
 73
     0
 90
        0
 40
-0.6
 41
-30.0
 62
     5
 63
     7
 74
     1
 91
        4
 64
     7
 65
   257
 75
     1
175
     1
 42
1.0
 92
        8
 66
     7
 43
1.0
 76
     1
 77
     6
 78
     2
 67
     7
 79
     5
170
     0
171
     0
290
     0
174
     0
 93
        1
 44
50.0
173
     0
291
     1
 45
0.0
1001
ACAD
1000
AcDbSavedByObjectVersion
1070
     0
  0
VISUALSTYLE
  5
A2FD
102
{ACAD_XDICTIONARY
360
A365
102
}
102
{ACAD_REACTORS
330
A2ED
102
}
330
A2ED
100
AcDbVisualStyle
  2
ColorChange
 70
    16
 71
     2
 72
     2
 73
     3
 90
        0
 40
-0.6
 41
-30.0
 62
     5
 63
     8
 74
     1
 91
        4
 64
     7
 65
   257
 75
     1
175
     1
 42
1.0
 92
        8
 66
     8
 43
1.0
 76
     1
 77
     6
 78
     2
 67
     7
 79
     5
170
     0
171
     0
290
     0
174
     0
 93
        1
 44
0.0
173
     0
291
     1
 45
0.0
1001
ACAD
1000
AcDbSavedByObjectVersion
1070
     0
  0
VISUALSTYLE
  5
A2F6
102
{ACAD_XDICTIONARY
360
A357
102
}
102
{ACAD_REACTORS
330
A2ED
102
}
330
A2ED
100
AcDbVisualStyle
  2
Conceptual
 70
     9
 71
     3
 72
     2
 73
     0
 90
        0
 40
-0.6
 41
-30.0
 62
     5
 63
     7
 74
     2
 91
        2
 64
     7
 65
   257
 75
     1
175
     1
 42
179.0
 92
        8
 66
     7
 43
1.0
 76
     1
 77
     6
 78
     2
 67
     7
 79
     3
170
     0
171
     0
290
     0
174
     0
 93
        1
 44
0.0
173
     0
291
     0
 45
0.0
1001
ACAD
1000
AcDbSavedByObjectVersion
1070
     0
  0
VISUALSTYLE
  5
A2F8
102
{ACAD_XDICTIONARY
360
A35B
102
}
102
{ACAD_REACTORS
330
A2ED
102
}
330
A2ED
100
AcDbVisualStyle
  2
Dim
 70
    11
 71
     2
 72
     2
 73
     0
 90
        0
 40
-0.6
 41
-30.0
 62
     5
 63
     7
 74
     1
 91
        4
 64
     7
 65
   257
 75
     1
175
     1
 42
1.0
 92
        8
 66
     7
 43
1.0
 76
     1
 77
     6
 78
     2
 67
     7
 79
     5
170
     0
171
     0
290
     0
174
     0
 93
        1
 44
-50.0
173
     0
291
     1
 45
0.0
1001
ACAD
1000
AcDbSavedByObjectVersion
1070
     0
  0
VISUALSTYLE
  5
A305
102
{ACAD_XDICTIONARY
360
A375
102
}
102
{ACAD_REACTORS
330
A2ED
102
}
330
A2ED
100
AcDbVisualStyle
  2
EdgeColorOff
 70
    22
 71
     2
 72
     2
 73
     0
 90
        0
 40
-0.6
 41
-30.0
 62
     5
 63
     7
 74
     1
 91
        4
 64
     7
 65
   257
 75
     1
175
     1
 42
1.0
 92
        8
 66
     7
 43
1.0
 76
     1
 77
     6
 78
     2
 67
     7
 79
     5
170
     0
171
     0
290
     0
174
     0
 93
        1
 44
0.0
173
     0
291
     1
 45
0.0
1001
ACAD
1000
AcDbSavedByObjectVersion
1070
     0
  0
VISUALSTYLE
  5
A2FC
102
{ACAD_XDICTIONARY
360
A363
102
}
102
{ACAD_REACTORS
330
A2ED
102
}
330
A2ED
100
AcDbVisualStyle
  2
Facepattern
 70
    15
 71
     2
 72
     2
 73
     0
 90
        0
 40
-0.6
 41
-30.0
 62
     5
 63
     7
 74
     1
 91
        4
 64
     7
 65
   257
 75
     1
175
     1
 42
1.0
 92
        8
 66
     7
 43
1.0
 76
     1
 77
     6
 78
     2
 67
     7
 79
     5
170
     0
171
     0
290
     0
174
     0
 93
        1
 44
0.0
173
     0
291
     1
 45
0.0
1001
ACAD
1000
AcDbSavedByObjectVersion
1070
     0
  0
VISUALSTYLE
  5
A2EE
102
{ACAD_XDICTIONARY
360
A347
102
}
102
{ACAD_REACTORS
330
A2ED
102
}
330
A2ED
100
AcDbVisualStyle
  2
Flat
 70
     0
 71
     2
 72
     1
 73
     1
 90
        2
 40
-0.6
 41
30.0
 62
     5
 63
     7
 74
     0
 91
        0
 64
     7
 65
   257
 75
     1
175
     1
 42
1.0
 92
        8
 66
     7
 43
1.0
 76
     1
 77
     6
 78
     2
 67
     7
 79
     5
170
     0
171
     0
290
     0
174
     0
 93
       13
 44
0.0
173
     0
291
     1
 45
0.0
1001
ACAD
1000
AcDbSavedByObjectVersion
1070
     0
  0
VISUALSTYLE
  5
A2EF
102
{ACAD_XDICTIONARY
360
A349
102
}
102
{ACAD_REACTORS
330
A2ED
102
}
330
A2ED
100
AcDbVisualStyle
  2
FlatWithEdges
 70
     1
 71
     2
 72
     1
 73
     1
 90
        2
 40
-0.6
 41
30.0
 62
     5
 63
     7
 74
     1
 91
        0
 64
     7
 65
   257
 75
     1
175
     1
 42
1.0
 92
        0
 66
   257
 43
1.0
 76
     1
 77
     6
 78
     2
 67
     7
 79
     5
170
     0
171
     0
290
     0
174
     0
 93
       13
 44
0.0
173
     0
291
     1
 45
0.0
1001
ACAD
1000
AcDbSavedByObjectVersion
1070
     0
  0
VISUALSTYLE
  5
A2F0
102
{ACAD_XDICTIONARY
360
A34B
102
}
102
{ACAD_REACTORS
330
A2ED
102
}
330
A2ED
100
AcDbVisualStyle
  2
Gouraud
 70
     2
 71
     2
 72
     2
 73
     1
 90
        2
 40
-0.6
 41
30.0
 62
     5
 63
     7
 74
     0
 91
        0
 64
     7
 65
   257
 75
     1
175
     1
 42
1.0
 92
        0
 66
     7
 43
1.0
 76
     1
 77
     6
 78
     2
 67
     7
 79
     5
170
     0
171
     0
290
     0
174
     0
 93
       13
 44
0.0
173
     0
291
     1
 45
0.0
1001
ACAD
1000
AcDbSavedByObjectVersion
1070
     0
  0
VISUALSTYLE
  5
A2F1
102
{ACAD_XDICTIONARY
360
A34D
102
}
102
{ACAD_REACTORS
330
A2ED
102
}
330
A2ED
100
AcDbVisualStyle
  2
GouraudWithEdges
 70
     3
 71
     2
 72
     2
 73
     1
 90
        2
 40
-0.6
 41
30.0
 62
     5
 63
     7
 74
     1
 91
        0
 64
     7
 65
   257
 75
     1
175
     1
 42
1.0
 92
        0
 66
   257
 43
1.0
 76
     1
 77
     6
 78
     2
 67
     7
 79
     5
170
     0
171
     0
290
     0
174
     0
 93
       13
 44
0.0
173
     0
291
     1
 45
0.0
1001
ACAD
1000
AcDbSavedByObjectVersion
1070
     0
  0
VISUALSTYLE
  5
A2F5
102
{ACAD_XDICTIONARY
360
A355
102
}
102
{ACAD_REACTORS
330
A2ED
102
}
330
A2ED
100
AcDbVisualStyle
  2
Hidden
 70
     6
 71
     1
 72
     2
 73
     2
 90
        0
 40
-0.6
 41
-30.0
 62
     5
 63
     7
 74
     2
 91
        2
 64
     7
 65
   257
 75
     2
175
     1
 42
40.0
 92
        0
 66
   257
 43
1.0
 76
     1
 77
     6
 78
     2
 67
     7
 79
     3
170
     0
171
     0
290
     0
174
     0
 93
        1
 44
0.0
173
     0
291
     0
 45
0.0
1001
ACAD
1000
AcDbSavedByObjectVersion
1070
     0
  0
VISUALSTYLE
  5
A303
102
{ACAD_XDICTIONARY
360
A371
102
}
102
{ACAD_REACTORS
330
A2ED
102
}
330
A2ED
100
AcDbVisualStyle
  2
JitterOff
 70
    20
 71
     2
 72
     2
 73
     0
 90
        0
 40
-0.6
 41
-30.0
 62
     5
 63
     7
 74
     1
 91
        4
 64
     7
 65
   257
 75
     1
175
     1
 42
1.0
 92
       10
 66
     7
 43
1.0
 76
     1
 77
     6
 78
     2
 67
     7
 79
     5
170
     0
171
     0
290
     0
174
     0
 93
        1
 44
0.0
173
     0
291
     1
 45
0.0
1001
ACAD
1000
AcDbSavedByObjectVersion
1070
     0
  0
VISUALSTYLE
  5
A2FB
102
{ACAD_XDICTIONARY
360
A361
102
}
102
{ACAD_REACTORS
330
A2ED
102
}
330
A2ED
100
AcDbVisualStyle
  2
Linepattern
 70
    14
 71
     2
 72
     2
 73
     0
 90
        0
 40
-0.6
 41
-30.0
 62
     5
 63
     7
 74
     1
 91
        4
 64
     7
 65
   257
 75
     7
175
     7
 42
1.0
 92
        8
 66
     7
 43
1.0
 76
     1
 77
     6
 78
     2
 67
     7
 79
     5
170
     0
171
     0
290
     0
174
     0
 93
        1
 44
0.0
173
     0
291
     1
 45
0.0
1001
ACAD
1000
AcDbSavedByObjectVersion
1070
     0
  0
VISUALSTYLE
  5
A304
102
{ACAD_XDICTIONARY
360
A373
102
}
102
{ACAD_REACTORS
330
A2ED
102
}
330
A2ED
100
AcDbVisualStyle
  2
OverhangOff
 70
    21
 71
     2
 72
     2
 73
     0
 90
        0
 40
-0.6
 41
-30.0
 62
     5
 63
     7
 74
     1
 91
        4
 64
     7
 65
   257
 75
     1
175
     1
 42
1.0
 92
        9
 66
     7
 43
1.0
 76
     1
 77
     6
 78
     2
 67
     7
 79
     5
170
     0
171
     0
290
     0
174
     0
 93
        1
 44
0.0
173
     0
291
     1
 45
0.0
1001
ACAD
1000
AcDbSavedByObjectVersion
1070
     0
  0
VISUALSTYLE
  5
A2F7
102
{ACAD_XDICTIONARY
360
A359
102
}
102
{ACAD_REACTORS
330
A2ED
102
}
330
A2ED
100
AcDbVisualStyle
  2
Realistic
 70
     8
 71
     2
 72
     3
 73
     0
 90
        2
 40
-0.6
 41
30.0
 62
     5
 63
     7
 74
     0
 91
        0
 64
     7
 65
   257
 75
     1
175
     1
 42
1.0
 92
        8
 66
   257
 43
1.0
 76
     1
 77
     6
 78
     2
 67
     7
 79
     3
170
     0
171
     0
290
     0
174
     0
 93
       13
 44
0.0
173
     0
291
     0
 45
0.0
1001
ACAD
1000
AcDbSavedByObjectVersion
1070
     0
  0
VISUALSTYLE
  5
A302
102
{ACAD_XDICTIONARY
360
A36F
102
}
102
{ACAD_REACTORS
330
A2ED
102
}
330
A2ED
100
AcDbVisualStyle
  2
Shaded
 70
    27
 71
     2
 72
     2
 73
     1
 90
        2
 40
-0.6
 41
30.0
 62
     5
 63
     7
 74
     0
 91
        4
 64
     7
 65
   257
 75
     1
175
     1
 42
1.0
 92
        8
 66
   257
 43
1.0
 76
     1
 77
     6
 78
     2
 67
     8
 79
     3
170
     0
171
     0
290
     0
174
     0
 93
        5
 44
0.0
173
     0
291
     0
 45
0.0
1001
ACAD
1000
AcDbSavedByObjectVersion
1070
     0
  0
VISUALSTYLE
  5
A301
102
{ACAD_XDICTIONARY
360
A36D
102
}
102
{ACAD_REACTORS
330
A2ED
102
}
330
A2ED
100
AcDbVisualStyle
  2
Shaded with edges
 70
    26
 71
     2
 72
     2
 73
     1
 90
        2
 40
-0.6
 41
30.0
 62
     5
 63
     7
 74
     1
 91
       10
 64
     7
 65
   257
 75
     2
175
     1
 42
1.0
 92
        8
 66
   257
 43
1.0
 76
     1
 77
     6
 78
     2
 67
     7
 79
     3
170
     0
171
     0
290
     0
174
     0
 93
        5
 44
0.0
173
     0
291
     0
 45
0.0
1001
ACAD
1000
AcDbSavedByObjectVersion
1070
     0
  0
VISUALSTYLE
  5
A2FE
102
{ACAD_XDICTIONARY
360
A367
102
}
102
{ACAD_REACTORS
330
A2ED
102
}
330
A2ED
100
AcDbVisualStyle
  2
Shades of Gray
 70
    23
 71
     2
 72
     2
 73
     3
 90
        0
 40
-0.6
 41
-30.0
 62
     5
 63
     7
 74
     2
 91
        2
 64
     7
 65
     7
 75
     1
175
     1
 42
40.0
 92
        8
 66
     7
 43
1.0
 76
     1
 77
     6
 78
     2
 67
     7
 79
     3
170
     0
171
     0
290
     0
174
     0
 93
        1
 44
0.0
173
     0
291
     0
 45
0.0
1001
ACAD
1000
AcDbSavedByObjectVersion
1070
     0
  0
VISUALSTYLE
  5
A2FF
102
{ACAD_XDICTIONARY
360
A369
102
}
102
{ACAD_REACTORS
330
A2ED
102
}
330
A2ED
100
AcDbVisualStyle
  2
Sketchy
 70
    24
 71
     1
 72
     2
 73
     2
 90
        0
 40
-0.6
 41
-30.0
 62
     5
 63
     7
 74
     2
 91
        2
 64
     7
 65
     7
 75
     1
175
     1
 42
40.0
 92
       11
 66
     7
 43
1.0
 76
     1
 77
     6
 78
     2
 67
     7
 79
     6
170
     0
171
     0
290
     0
174
     0
 93
        1
 44
0.0
173
     0
291
     0
 45
0.0
1001
ACAD
1000
AcDbSavedByObjectVersion
1070
     0
  0
VISUALSTYLE
  5
A2FA
102
{ACAD_XDICTIONARY
360
A35F
102
}
102
{ACAD_REACTORS
330
A2ED
102
}
330
A2ED
100
AcDbVisualStyle
  2
Thicken
 70
    13
 71
     2
 72
     2
 73
     0
 90
        0
 40
-0.6
 41
-30.0
 62
     5
 63
     7
 74
     1
 91
        4
 64
     7
 65
   257
 75
     1
175
     1
 42
1.0
 92
       12
 66
     7
 43
1.0
 76
     1
 77
     6
 78
     2
 67
     7
 79
     5
170
     0
171
     0
290
     0
174
     0
 93
        1
 44
0.0
173
     0
291
     1
 45
0.0
1001
ACAD
1000
AcDbSavedByObjectVersion
1070
     0
  0
VISUALSTYLE
  5
A2F4
102
{ACAD_XDICTIONARY
360
A353
102
}
102
{ACAD_REACTORS
330
A2ED
102
}
330
A2ED
100
AcDbVisualStyle
  2
Wireframe
 70
     5
 71
     0
 72
     2
 73
     0
 90
        0
 40
-0.6
 41
-30.0
 62
     5
 63
     7
 74
     1
 91
        4
 64
     7
 65
   257
 75
     1
175
     1
 42
1.0
 92
        0
 66
   257
 43
1.0
 76
     1
 77
     6
 78
     2
 67
     7
 79
     3
170
     0
171
     0
290
     0
174
     0
 93
        1
 44
0.0
173
     0
291
     0
 45
0.0
1001
ACAD
1000
AcDbSavedByObjectVersion
1070
     0
  0
VISUALSTYLE
  5
A300
102
{ACAD_XDICTIONARY
360
A36B
102
}
102
{ACAD_REACTORS
330
A2ED
102
}
330
A2ED
100
AcDbVisualStyle
  2
X-Ray
 70
    25
 71
     2
 72
     2
 73
     1
 90
        1
 40
0.5
 41
-30.0
 62
     5
 63
     7
 74
     1
 91
        0
 64
     7
 65
   257
 75
     1
175
     1
 42
1.0
 92
        8
 66
     7
 43
1.0
 76
     1
 77
     6
 78
     2
 67
     7
 79
     3
170
     0
171
     0
290
     0
174
     0
 93
       13
 44
0.0
173
     0
291
     0
 45
0.0
1001
ACAD
1000
AcDbSavedByObjectVersion
1070
     0
  0
DICTIONARYVAR
  5
A33A
102
{ACAD_REACTORS
330
A335
102
}
330
A335
100
DictionaryVariables
280
     0
  1
1:1
  0
DICTIONARYVAR
  5
A337
102
{ACAD_REACTORS
330
A335
102
}
330
A335
100
DictionaryVariables
280
     0
  1
STANDARD
  0
DICTIONARYVAR
  5
A336
102
{ACAD_REACTORS
330
A335
102
}
330
A335
100
DictionaryVariables
280
     0
  1
STANDARD
  0
DICTIONARYVAR
  5
A338
102
{ACAD_REACTORS
330
A335
102
}
330
A335
100
DictionaryVariables
280
     0
  1
Imperial24
  0
DICTIONARYVAR
  5
A339
102
{ACAD_REACTORS
330
A335
102
}
330
A335
100
DictionaryVariables
280
     0
  1
Imperial24
  0
DICTIONARYVAR
  5
A33D
102
{ACAD_REACTORS
330
A335
102
}
330
A335
100
DictionaryVariables
280
     0
  1
1
  0
DICTIONARYVAR
  5
A33C
102
{ACAD_REACTORS
330
A335
102
}
330
A335
100
DictionaryVariables
280
     0
  1
0
  0
DICTIONARYVAR
  5
A33B
102
{ACAD_REACTORS
330
A335
102
}
330
A335
100
DictionaryVariables
280
     0
  1
127
  0
DICTIONARYVAR
  5
A33E
102
{ACAD_REACTORS
330
A335
102
}
330
A335
100
DictionaryVariables
280
     0
  1
2
  0
DICTIONARY
  5
A37B
330
A320
100
AcDbDictionary
280
     1
281
     1
  3
ACAD_XREC_ROUNDTRIP
360
A37C
  0
DICTIONARY
  5
A37D
330
A321
100
AcDbDictionary
280
     1
281
     1
  3
ACAD_XREC_ROUNDTRIP
360
A37E
  0
DICTIONARY
  5
A37F
330
A322
100
AcDbDictionary
280
     1
281
     1
  3
ACAD_XREC_ROUNDTRIP
360
A380
  0
DICTIONARY
  5
A2DE
330
A2DD
100
AcDbDictionary
280
     1
281
     1
  3
ACAD_XREC_ROUNDTRIP
360
A345
  3
BUMPTILE
360
A2E0
  3
DIFFUSETILE
360
A2DF
  3
OPACITYTILE
360
A2E3
  3
REFLECTIONTILE
360
A2E2
  3
REFRACTIONTILE
360
A2E4
  3
SPECULARTILE
360
A2E1
  0
DICTIONARY
  5
A2D6
330
A2D5
100
AcDbDictionary
280
     1
281
     1
  3
ACAD_XREC_ROUNDTRIP
360
A344
  3
BUMPTILE
360
A2D8
  3
DIFFUSETILE
360
A2D7
  3
OPACITYTILE
360
A2DB
  3
REFLECTIONTILE
360
A2DA
  3
REFRACTIONTILE
360
A2DC
  3
SPECULARTILE
360
A2D9
  0
DICTIONARY
  5
A2E6
330
A2E5
100
AcDbDictionary
280
     1
281
     1
  3
ACAD_XREC_ROUNDTRIP
360
A346
  3
BUMPTILE
360
A2E8
  3
DIFFUSETILE
360
A2E7
  3
OPACITYTILE
360
A2EB
  3
REFLECTIONTILE
360
A2EA
  3
REFRACTIONTILE
360
A2EC
  3
SPECULARTILE
360
A2E9
  0
DICTIONARY
  5
A379
330
A31E
100
AcDbDictionary
280
     1
281
     1
  3
ACAD_XREC_ROUNDTRIP
360
A37A
  0
DICTIONARY
  5
A340
330
A308
100
AcDbDictionary
280
     1
281
     1
  3
ACAD_ROUNDTRIP_2008_TABLESTYLE_CELLSTYLEMAP
360
A341
  3
ACAD_XREC_ROUNDTRIP
360
A377
  0
DICTIONARY
  5
A351
330
A2F3
100
AcDbDictionary
280
     1
281
     1
  3
ACAD_XREC_ROUNDTRIP
360
A352
  0
DICTIONARY
  5
A34F
330
A2F2
100
AcDbDictionary
280
     1
281
     1
  3
ACAD_XREC_ROUNDTRIP
360
A350
  0
DICTIONARY
  5
A35D
330
A2F9
100
AcDbDictionary
280
     1
281
     1
  3
ACAD_XREC_ROUNDTRIP
360
A35E
  0
DICTIONARY
  5
A365
330
A2FD
100
AcDbDictionary
280
     1
281
     1
  3
ACAD_XREC_ROUNDTRIP
360
A366
  0
DICTIONARY
  5
A357
330
A2F6
100
AcDbDictionary
280
     1
281
     1
  3
ACAD_XREC_ROUNDTRIP
360
A358
  0
DICTIONARY
  5
A35B
330
A2F8
100
AcDbDictionary
280
     1
281
     1
  3
ACAD_XREC_ROUNDTRIP
360
A35C
  0
DICTIONARY
  5
A375
330
A305
100
AcDbDictionary
280
     1
281
     1
  3
ACAD_XREC_ROUNDTRIP
360
A376
  0
DICTIONARY
  5
A363
330
A2FC
100
AcDbDictionary
280
     1
281
     1
  3
ACAD_XREC_ROUNDTRIP
360
A364
  0
DICTIONARY
  5
A347
330
A2EE
100
AcDbDictionary
280
     1
281
     1
  3
ACAD_XREC_ROUNDTRIP
360
A348
  0
DICTIONARY
  5
A349
330
A2EF
100
AcDbDictionary
280
     1
281
     1
  3
ACAD_XREC_ROUNDTRIP
360
A34A
  0
DICTIONARY
  5
A34B
330
A2F0
100
AcDbDictionary
280
     1
281
     1
  3
ACAD_XREC_ROUNDTRIP
360
A34C
  0
DICTIONARY
  5
A34D
330
A2F1
100
AcDbDictionary
280
     1
281
     1
  3
ACAD_XREC_ROUNDTRIP
360
A34E
  0
DICTIONARY
  5
A355
330
A2F5
100
AcDbDictionary
280
     1
281
     1
  3
ACAD_XREC_ROUNDTRIP
360
A356
  0
DICTIONARY
  5
A371
330
A303
100
AcDbDictionary
280
     1
281
     1
  3
ACAD_XREC_ROUNDTRIP
360
A372
  0
DICTIONARY
  5
A361
330
A2FB
100
AcDbDictionary
280
     1
281
     1
  3
ACAD_XREC_ROUNDTRIP
360
A362
  0
DICTIONARY
  5
A373
330
A304
100
AcDbDictionary
280
     1
281
     1
  3
ACAD_XREC_ROUNDTRIP
360
A374
  0
DICTIONARY
  5
A359
330
A2F7
100
AcDbDictionary
280
     1
281
     1
  3
ACAD_XREC_ROUNDTRIP
360
A35A
  0
DICTIONARY
  5
A36F
330
A302
100
AcDbDictionary
280
     1
281
     1
  3
ACAD_XREC_ROUNDTRIP
360
A370
  0
DICTIONARY
  5
A36D
330
A301
100
AcDbDictionary
280
     1
281
     1
  3
ACAD_XREC_ROUNDTRIP
360
A36E
  0
DICTIONARY
  5
A367
330
A2FE
100
AcDbDictionary
280
     1
281
     1
  3
ACAD_XREC_ROUNDTRIP
360
A368
  0
DICTIONARY
  5
A369
330
A2FF
100
AcDbDictionary
280
     1
281
     1
  3
ACAD_XREC_ROUNDTRIP
360
A36A
  0
DICTIONARY
  5
A35F
330
A2FA
100
AcDbDictionary
280
     1
281
     1
  3
ACAD_XREC_ROUNDTRIP
360
A360
  0
DICTIONARY
  5
A353
330
A2F4
100
AcDbDictionary
280
     1
281
     1
  3
ACAD_XREC_ROUNDTRIP
360
A354
  0
DICTIONARY
  5
A36B
330
A300
100
AcDbDictionary
280
     1
281
     1
  3
ACAD_XREC_ROUNDTRIP
360
A36C
  0
XRECORD
  5
A37C
102
{ACAD_REACTORS
330
A37B
102
}
330
A37B
100
AcDbXrecord
280
     1
102
DISPLAYNAME
  1
Imperial24
102
FLAGS
 90
        0
  0
XRECORD
  5
A37E
102
{ACAD_REACTORS
330
A37D
102
}
330
A37D
100
AcDbXrecord
280
     1
102
SHADEPLOT
 70
     0
102
SHADEPLOTRESLEVEL
 70
     2
102
SHADEPLOTCUSTOMDPI
 70
   300
  0
XRECORD
  5
A380
102
{ACAD_REACTORS
330
A37F
102
}
330
A37F
100
AcDbXrecord
280
     1
102
SHADEPLOT
 70
     0
102
SHADEPLOTRESLEVEL
 70
     2
102
SHADEPLOTCUSTOMDPI
 70
   300
  0
XRECORD
  5
A345
102
{ACAD_REACTORS
330
A2DE
102
}
330
A2DE
100
AcDbXrecord
280
     1
102
MATERIAL
148
0.0
149
0.0
149
0.0
 93
        0
 94
      127
282
     0
 72
     0
 77
     0
171
     0
175
     0
179
     0
273
     0
  0
XRECORD
  5
A2E0
102
{ACAD_REACTORS
330
A2DE
102
}
330
A2DE
100
AcDbXrecord
280
     1
270
     1
271
     1
  0
XRECORD
  5
A2DF
102
{ACAD_REACTORS
330
A2DE
102
}
330
A2DE
100
AcDbXrecord
280
     1
270
     1
271
     1
  0
XRECORD
  5
A2E3
102
{ACAD_REACTORS
330
A2DE
102
}
330
A2DE
100
AcDbXrecord
280
     1
270
     1
271
     1
  0
XRECORD
  5
A2E2
102
{ACAD_REACTORS
330
A2DE
102
}
330
A2DE
100
AcDbXrecord
280
     1
270
     1
271
     1
  0
XRECORD
  5
A2E4
102
{ACAD_REACTORS
330
A2DE
102
}
330
A2DE
100
AcDbXrecord
280
     1
270
     1
271
     1
  0
XRECORD
  5
A2E1
102
{ACAD_REACTORS
330
A2DE
102
}
330
A2DE
100
AcDbXrecord
280
     1
270
     1
271
     1
  0
XRECORD
  5
A344
102
{ACAD_REACTORS
330
A2D6
102
}
330
A2D6
100
AcDbXrecord
280
     1
102
MATERIAL
148
0.0
149
0.0
149
0.0
 93
        0
 94
      127
282
     0
 72
     0
 77
     0
171
     0
175
     0
179
     0
273
     0
  0
XRECORD
  5
A2D8
102
{ACAD_REACTORS
330
A2D6
102
}
330
A2D6
100
AcDbXrecord
280
     1
270
     1
271
     1
  0
XRECORD
  5
A2D7
102
{ACAD_REACTORS
330
A2D6
102
}
330
A2D6
100
AcDbXrecord
280
     1
270
     1
271
     1
  0
XRECORD
  5
A2DB
102
{ACAD_REACTORS
330
A2D6
102
}
330
A2D6
100
AcDbXrecord
280
     1
270
     1
271
     1
  0
XRECORD
  5
A2DA
102
{ACAD_REACTORS
330
A2D6
102
}
330
A2D6
100
AcDbXrecord
280
     1
270
     1
271
     1
  0
XRECORD
  5
A2DC
102
{ACAD_REACTORS
330
A2D6
102
}
330
A2D6
100
AcDbXrecord
280
     1
270
     1
271
     1
  0
XRECORD
  5
A2D9
102
{ACAD_REACTORS
330
A2D6
102
}
330
A2D6
100
AcDbXrecord
280
     1
270
     1
271
     1
  0
XRECORD
  5
A346
102
{ACAD_REACTORS
330
A2E6
102
}
330
A2E6
100
AcDbXrecord
280
     1
102
MATERIAL
148
0.0
149
0.0
149
0.0
 93
        0
 94
      127
282
     0
 72
     0
 77
     0
171
     0
175
     0
179
     0
273
     0
  0
XRECORD
  5
A2E8
102
{ACAD_REACTORS
330
A2E6
102
}
330
A2E6
100
AcDbXrecord
280
     1
270
     1
271
     1
  0
XRECORD
  5
A2E7
102
{ACAD_REACTORS
330
A2E6
102
}
330
A2E6
100
AcDbXrecord
280
     1
270
     1
271
     1
  0
XRECORD
  5
A2EB
102
{ACAD_REACTORS
330
A2E6
102
}
330
A2E6
100
AcDbXrecord
280
     1
270
     1
271
     1
  0
XRECORD
  5
A2EA
102
{ACAD_REACTORS
330
A2E6
102
}
330
A2E6
100
AcDbXrecord
280
     1
270
     1
271
     1
  0
XRECORD
  5
A2EC
102
{ACAD_REACTORS
330
A2E6
102
}
330
A2E6
100
AcDbXrecord
280
     1
270
     1
271
     1
  0
XRECORD
  5
A2E9
102
{ACAD_REACTORS
330
A2E6
102
}
330
A2E6
100
AcDbXrecord
280
     1
270
     1
271
     1
  0
XRECORD
  5
A37A
102
{ACAD_REACTORS
330
A379
102
}
330
A379
100
AcDbXrecord
280
     1
102
DISPLAYNAME
  1
Imperial24
102
FLAGS
 90
        0
  0
CELLSTYLEMAP
  5
A341
102
{ACAD_REACTORS
330
A340
102
}
330
A340
100
AcDbCellStyleMap
 90
        3
300
CELLSTYLE
  1
TABLEFORMAT_BEGIN
 90
        5
170
     1
 91
        0
 92
    32768
 62
   257
 93
        1
300
CONTENTFORMAT
  1
CONTENTFORMAT_BEGIN
 90
        0
 91
        0
 92
      512
 93
        0
300

 40
0.0
140
1.0
 94
        5
 62
     0
340
A005
144
0.25
309
CONTENTFORMAT_END
171
     0
 94
        0
309
TABLEFORMAT_END
  1
CELLSTYLE_BEGIN
 90
        1
 91
        1
300
_TITLE
309
CELLSTYLE_END
300
CELLSTYLE
  1
TABLEFORMAT_BEGIN
 90
        5
170
     1
 91
        0
 92
        0
 62
   257
 93
        1
300
CONTENTFORMAT
  1
CONTENTFORMAT_BEGIN
 90
        0
 91
        0
 92
      512
 93
        0
300

 40
0.0
140
1.0
 94
        5
 62
     0
340
A005
144
0.18
309
CONTENTFORMAT_END
171
     0
 94
        0
309
TABLEFORMAT_END
  1
CELLSTYLE_BEGIN
 90
        2
 91
        1
300
_HEADER
309
CELLSTYLE_END
300
CELLSTYLE
  1
TABLEFORMAT_BEGIN
 90
        5
170
     1
 91
        0
 92
        0
 62
   257
 93
        1
300
CONTENTFORMAT
  1
CONTENTFORMAT_BEGIN
 90
        0
 91
        0
 92
      512
 93
        0
300

 40
0.0
140
1.0
 94
        2
 62
     0
340
A005
144
0.18
309
CONTENTFORMAT_END
171
     0
 94
        0
309
TABLEFORMAT_END
  1
CELLSTYLE_BEGIN
 90
        3
 91
        2
300
_DATA
309
CELLSTYLE_END
  0
XRECORD
  5
A377
102
{ACAD_REACTORS
330
A340
102
}
330
A340
100
AcDbXrecord
280
     1
102
ACAD_ROUNDTRIP_PRE2007_TABLESTYLE
 90
      512
 91
        0
  1

 92
      512
 93
        0
  2

 94
      512
 95
        0
  3

  0
XRECORD
  5
A352
102
{ACAD_REACTORS
330
A351
102
}
330
A351
100
AcDbXrecord
280
     1
102
RTVSPost2010Prop28
280
     1
102
RTVSPost2010PropOp28
 70
     1
102
RTVSPost2010Prop29
280
     1
102
RTVSPost2010PropOp29
 70
     1
102
RTVSPost2010Prop30
280
     0
102
RTVSPost2010PropOp30
 70
     1
102
RTVSPost2010Prop31
280
     0
102
RTVSPost2010PropOp31
 70
     1
102
RTVSPost2010Prop32
280
     0
102
RTVSPost2010PropOp32
 70
     1
102
RTVSPost2010Prop33
280
     0
102
RTVSPost2010PropOp33
 70
     1
102
RTVSPost2010Prop34
280
     0
102
RTVSPost2010PropOp34
 70
     1
102
RTVSPost2010Prop35
280
     0
102
RTVSPost2010PropOp35
 70
     1
102
RTVSPost2010Prop36
280
     0
102
RTVSPost2010PropOp36
 70
     1
102
RTVSPost2010Prop37
 90
       50
102
RTVSPost2010PropOp37
 70
     1
102
RTVSPost2010Prop38
140
0.0
102
RTVSPost2010PropOp38
 70
     1
102
RTVSPost2010Prop39
140
1.0
102
RTVSPost2010PropOp39
 70
     1
102
RTVSPost2010Prop40
 90
        0
102
RTVSPost2010PropOp40
 70
     1
102
RTVSPost2010Prop41ColorIndex
 90
       18
102
RTVSPost2010Prop41ColorRGB
 90
        0
102
RTVSPost2010PropOp41
 70
     1
102
RTVSPost2010Prop42
 90
       50
102
RTVSPost2010PropOp42
 70
     1
102
RTVSPost2010Prop43
 90
        3
102
RTVSPost2010PropOp43
 70
     1
102
RTVSPost2010Prop44ColorIndex
 90
        5
102
RTVSPost2010Prop44ColorRGB
 90
      255
102
RTVSPost2010PropOp44
 70
     1
102
RTVSPost2010Prop45
280
     0
102
RTVSPost2010PropOp45
 70
     1
102
RTVSPost2010Prop46
 90
       50
102
RTVSPost2010PropOp46
 70
     1
102
RTVSPost2010Prop47
 90
       50
102
RTVSPost2010PropOp47
 70
     1
102
RTVSPost2010Prop48
 90
       50
102
RTVSPost2010PropOp48
 70
     1
102
RTVSPost2010Prop49
280
     0
102
RTVSPost2010PropOp49
 70
     1
102
RTVSPost2010Prop50
 90
       50
102
RTVSPost2010PropOp50
 70
     1
102
RTVSPost2010Prop51ColorIndex
 90
      256
102
RTVSPost2010Prop51ColorRGB
 90
-16777216
102
RTVSPost2010PropOp51
 70
     0
102
RTVSPost2010Prop52
140
1.0
102
RTVSPost2010PropOp52
 70
     0
102
RTVSPost2010Prop53
 90
        2
102
RTVSPost2010PropOp53
 70
     1
102
RTVSPost2010Prop54
  1
strokes_ogs.tif
102
RTVSPost2010PropOp54
 70
     1
102
RTVSPost2010Prop55
280
     0
102
RTVSPost2010PropOp55
 70
     1
102
RTVSPost2010Prop56
140
1.0
102
RTVSPost2010PropOp56
 70
     1
102
RTVSPost2010Prop57
140
1.0
102
RTVSPost2010PropOp57
 70
     1
102
RTVSPropertyOp0
 70
     1
102
RTVSPropertyOp1
 70
     1
102
RTVSPropertyOp2
 70
     1
102
RTVSPropertyOp3
 70
     1
102
RTVSPropertyOp4
 70
     1
102
RTVSPropertyOp5
 70
     1
102
RTVSPropertyOp6
 70
     1
102
RTVSPropertyOp7
 70
     1
102
RTVSPropertyOp8
 70
     1
102
RTVSPropertyOp9
 70
     1
102
RTVSPropertyOp10
 70
     1
102
RTVSPropertyOp11
 70
     1
102
RTVSPropertyOp12
 70
     1
102
RTVSPropertyOp13
 70
     1
102
RTVSPropertyOp14
 70
     1
102
RTVSPropertyOp15
 70
     1
102
RTVSPropertyOp16
 70
     1
102
RTVSPropertyOp17
 70
     1
102
RTVSPropertyOp18
 70
     1
102
RTVSPropertyOp19
 70
     1
102
RTVSPropertyOp20
 70
     1
102
RTVSPropertyOp21
 70
     1
102
RTVSPropertyOp22
 70
     1
102
RTVSPropertyOp23
 70
     1
102
RTVSPropertyOp24
 70
     1
102
RTVSPropertyOp25
 70
     1
102
RTVSPropertyOp26
 70
     1
102
RTVSPropertyOp27
 70
     1
102
RTVSPropertyOp28
 70
     1
102
RTVSPropertyOp29
 70
     1
102
RTVSPropertyOp30
 70
     1
102
RTVSPropertyOp31
 70
     1
102
RTVSPropertyOp32
 70
     1
102
RTVSPropertyOp33
 70
     1
102
RTVSPropertyOp34
 70
     1
102
RTVSPropertyOp35
 70
     1
102
RTVSPropertyOp36
 70
     1
102
RTVSPropertyOp37
 70
     1
102
RTVSPropertyOp38
 70
     1
102
RTVSPropertyOp39
 70
     1
102
RTVSPropertyOp40
 70
     1
102
RTVSPropertyOp41
 70
     1
102
RTVSPropertyOp42
 70
     1
102
RTVSPropertyOp43
 70
     1
102
RTVSPropertyOp44
 70
     1
102
RTVSPropertyOp45
 70
     1
102
RTVSPropertyOp46
 70
     1
102
RTVSPropertyOp47
 70
     1
102
RTVSPropertyOp48
 70
     1
102
RTVSPropertyOp49
 70
     1
102
RTVSPropertyOp50
 70
     1
102
RTVSPropertyOp51
 70
     0
102
RTVSPropertyOp52
 70
     0
102
RTVSPropertyOp53
 70
     1
102
RTVSPropertyOp54
 70
     1
102
RTVSPropertyOp55
 70
     1
102
RTVSPropertyOp56
 70
     1
102
RTVSPropertyOp57
 70
     1
102
RTVSPropertyOp58
 70
     1
102
RTVSPropertyOp59
 70
     1
102
RTVSPropertyOp60
 70
     1
102
RTVSPropertyOp61
 70
     1
102
RTVSPropertyOp62
 70
     1
  0
XRECORD
  5
A350
102
{ACAD_REACTORS
330
A34F
102
}
330
A34F
100
AcDbXrecord
280
     1
102
RTVSPost2010Prop28
280
     0
102
RTVSPost2010PropOp28
 70
     1
102
RTVSPost2010Prop29
280
     1
102
RTVSPost2010PropOp29
 70
     1
102
RTVSPost2010Prop30
280
     1
102
RTVSPost2010PropOp30
 70
     1
102
RTVSPost2010Prop31
280
     0
102
RTVSPost2010PropOp31
 70
     1
102
RTVSPost2010Prop32
280
     0
102
RTVSPost2010PropOp32
 70
     1
102
RTVSPost2010Prop33
280
     0
102
RTVSPost2010PropOp33
 70
     1
102
RTVSPost2010Prop34
280
     0
102
RTVSPost2010PropOp34
 70
     1
102
RTVSPost2010Prop35
280
     0
102
RTVSPost2010PropOp35
 70
     1
102
RTVSPost2010Prop36
280
     0
102
RTVSPost2010PropOp36
 70
     1
102
RTVSPost2010Prop37
 90
       50
102
RTVSPost2010PropOp37
 70
     1
102
RTVSPost2010Prop38
140
0.0
102
RTVSPost2010PropOp38
 70
     1
102
RTVSPost2010Prop39
140
1.0
102
RTVSPost2010PropOp39
 70
     1
102
RTVSPost2010Prop40
 90
        0
102
RTVSPost2010PropOp40
 70
     1
102
RTVSPost2010Prop41ColorIndex
 90
       18
102
RTVSPost2010Prop41ColorRGB
 90
        0
102
RTVSPost2010PropOp41
 70
     1
102
RTVSPost2010Prop42
 90
       50
102
RTVSPost2010PropOp42
 70
     1
102
RTVSPost2010Prop43
 90
        3
102
RTVSPost2010PropOp43
 70
     1
102
RTVSPost2010Prop44ColorIndex
 90
        5
102
RTVSPost2010Prop44ColorRGB
 90
      255
102
RTVSPost2010PropOp44
 70
     1
102
RTVSPost2010Prop45
280
     0
102
RTVSPost2010PropOp45
 70
     1
102
RTVSPost2010Prop46
 90
       50
102
RTVSPost2010PropOp46
 70
     1
102
RTVSPost2010Prop47
 90
       50
102
RTVSPost2010PropOp47
 70
     1
102
RTVSPost2010Prop48
 90
       50
102
RTVSPost2010PropOp48
 70
     1
102
RTVSPost2010Prop49
280
     0
102
RTVSPost2010PropOp49
 70
     1
102
RTVSPost2010Prop50
 90
       50
102
RTVSPost2010PropOp50
 70
     1
102
RTVSPost2010Prop51ColorIndex
 90
      256
102
RTVSPost2010Prop51ColorRGB
 90
-16777216
102
RTVSPost2010PropOp51
 70
     0
102
RTVSPost2010Prop52
140
1.0
102
RTVSPost2010PropOp52
 70
     0
102
RTVSPost2010Prop53
 90
        2
102
RTVSPost2010PropOp53
 70
     1
102
RTVSPost2010Prop54
  1
strokes_ogs.tif
102
RTVSPost2010PropOp54
 70
     1
102
RTVSPost2010Prop55
280
     0
102
RTVSPost2010PropOp55
 70
     1
102
RTVSPost2010Prop56
140
1.0
102
RTVSPost2010PropOp56
 70
     1
102
RTVSPost2010Prop57
140
1.0
102
RTVSPost2010PropOp57
 70
     1
102
RTVSPropertyOp0
 70
     1
102
RTVSPropertyOp1
 70
     1
102
RTVSPropertyOp2
 70
     1
102
RTVSPropertyOp3
 70
     1
102
RTVSPropertyOp4
 70
     1
102
RTVSPropertyOp5
 70
     1
102
RTVSPropertyOp6
 70
     1
102
RTVSPropertyOp7
 70
     1
102
RTVSPropertyOp8
 70
     1
102
RTVSPropertyOp9
 70
     1
102
RTVSPropertyOp10
 70
     1
102
RTVSPropertyOp11
 70
     1
102
RTVSPropertyOp12
 70
     1
102
RTVSPropertyOp13
 70
     1
102
RTVSPropertyOp14
 70
     1
102
RTVSPropertyOp15
 70
     1
102
RTVSPropertyOp16
 70
     1
102
RTVSPropertyOp17
 70
     1
102
RTVSPropertyOp18
 70
     1
102
RTVSPropertyOp19
 70
     1
102
RTVSPropertyOp20
 70
     1
102
RTVSPropertyOp21
 70
     1
102
RTVSPropertyOp22
 70
     1
102
RTVSPropertyOp23
 70
     1
102
RTVSPropertyOp24
 70
     1
102
RTVSPropertyOp25
 70
     1
102
RTVSPropertyOp26
 70
     1
102
RTVSPropertyOp27
 70
     1
102
RTVSPropertyOp28
 70
     1
102
RTVSPropertyOp29
 70
     1
102
RTVSPropertyOp30
 70
     1
102
RTVSPropertyOp31
 70
     1
102
RTVSPropertyOp32
 70
     1
102
RTVSPropertyOp33
 70
     1
102
RTVSPropertyOp34
 70
     1
102
RTVSPropertyOp35
 70
     1
102
RTVSPropertyOp36
 70
     1
102
RTVSPropertyOp37
 70
     1
102
RTVSPropertyOp38
 70
     1
102
RTVSPropertyOp39
 70
     1
102
RTVSPropertyOp40
 70
     1
102
RTVSPropertyOp41
 70
     1
102
RTVSPropertyOp42
 70
     1
102
RTVSPropertyOp43
 70
     1
102
RTVSPropertyOp44
 70
     1
102
RTVSPropertyOp45
 70
     1
102
RTVSPropertyOp46
 70
     1
102
RTVSPropertyOp47
 70
     1
102
RTVSPropertyOp48
 70
     1
102
RTVSPropertyOp49
 70
     1
102
RTVSPropertyOp50
 70
     1
102
RTVSPropertyOp51
 70
     0
102
RTVSPropertyOp52
 70
     0
102
RTVSPropertyOp53
 70
     1
102
RTVSPropertyOp54
 70
     1
102
RTVSPropertyOp55
 70
     1
102
RTVSPropertyOp56
 70
     1
102
RTVSPropertyOp57
 70
     1
102
RTVSPropertyOp58
 70
     1
102
RTVSPropertyOp59
 70
     1
102
RTVSPropertyOp60
 70
     1
102
RTVSPropertyOp61
 70
     1
102
RTVSPropertyOp62
 70
     1
  0
XRECORD
  5
A35E
102
{ACAD_REACTORS
330
A35D
102
}
330
A35D
100
AcDbXrecord
280
     1
102
RTVSPost2010Prop28
280
     0
102
RTVSPost2010PropOp28
 70
     1
102
RTVSPost2010Prop29
280
     1
102
RTVSPost2010PropOp29
 70
     1
102
RTVSPost2010Prop30
280
     1
102
RTVSPost2010PropOp30
 70
     1
102
RTVSPost2010Prop31
280
     0
102
RTVSPost2010PropOp31
 70
     1
102
RTVSPost2010Prop32
280
     0
102
RTVSPost2010PropOp32
 70
     1
102
RTVSPost2010Prop33
280
     0
102
RTVSPost2010PropOp33
 70
     1
102
RTVSPost2010Prop34
280
     0
102
RTVSPost2010PropOp34
 70
     1
102
RTVSPost2010Prop35
280
     0
102
RTVSPost2010PropOp35
 70
     1
102
RTVSPost2010Prop36
280
     0
102
RTVSPost2010PropOp36
 70
     1
102
RTVSPost2010Prop37
 90
       50
102
RTVSPost2010PropOp37
 70
     1
102
RTVSPost2010Prop38
140
0.0
102
RTVSPost2010PropOp38
 70
     1
102
RTVSPost2010Prop39
140
1.0
102
RTVSPost2010PropOp39
 70
     1
102
RTVSPost2010Prop40
 90
        0
102
RTVSPost2010PropOp40
 70
     1
102
RTVSPost2010Prop41ColorIndex
 90
       18
102
RTVSPost2010Prop41ColorRGB
 90
        0
102
RTVSPost2010PropOp41
 70
     1
102
RTVSPost2010Prop42
 90
       50
102
RTVSPost2010PropOp42
 70
     1
102
RTVSPost2010Prop43
 90
        3
102
RTVSPost2010PropOp43
 70
     1
102
RTVSPost2010Prop44ColorIndex
 90
        5
102
RTVSPost2010Prop44ColorRGB
 90
      255
102
RTVSPost2010PropOp44
 70
     1
102
RTVSPost2010Prop45
280
     0
102
RTVSPost2010PropOp45
 70
     1
102
RTVSPost2010Prop46
 90
       50
102
RTVSPost2010PropOp46
 70
     1
102
RTVSPost2010Prop47
 90
       50
102
RTVSPost2010PropOp47
 70
     1
102
RTVSPost2010Prop48
 90
       50
102
RTVSPost2010PropOp48
 70
     1
102
RTVSPost2010Prop49
280
     0
102
RTVSPost2010PropOp49
 70
     1
102
RTVSPost2010Prop50
 90
       50
102
RTVSPost2010PropOp50
 70
     1
102
RTVSPost2010Prop51ColorIndex
 90
      256
102
RTVSPost2010Prop51ColorRGB
 90
-16777216
102
RTVSPost2010PropOp51
 70
     0
102
RTVSPost2010Prop52
140
1.0
102
RTVSPost2010PropOp52
 70
     0
102
RTVSPost2010Prop53
 90
        2
102
RTVSPost2010PropOp53
 70
     1
102
RTVSPost2010Prop54
  1
strokes_ogs.tif
102
RTVSPost2010PropOp54
 70
     1
102
RTVSPost2010Prop55
280
     0
102
RTVSPost2010PropOp55
 70
     1
102
RTVSPost2010Prop56
140
1.0
102
RTVSPost2010PropOp56
 70
     1
102
RTVSPost2010Prop57
140
1.0
102
RTVSPost2010PropOp57
 70
     1
102
RTVSPropertyOp0
 70
     1
102
RTVSPropertyOp1
 70
     1
102
RTVSPropertyOp2
 70
     1
102
RTVSPropertyOp3
 70
     1
102
RTVSPropertyOp4
 70
     1
102
RTVSPropertyOp5
 70
     1
102
RTVSPropertyOp6
 70
     1
102
RTVSPropertyOp7
 70
     1
102
RTVSPropertyOp8
 70
     1
102
RTVSPropertyOp9
 70
     1
102
RTVSPropertyOp10
 70
     1
102
RTVSPropertyOp11
 70
     1
102
RTVSPropertyOp12
 70
     1
102
RTVSPropertyOp13
 70
     1
102
RTVSPropertyOp14
 70
     1
102
RTVSPropertyOp15
 70
     1
102
RTVSPropertyOp16
 70
     1
102
RTVSPropertyOp17
 70
     1
102
RTVSPropertyOp18
 70
     1
102
RTVSPropertyOp19
 70
     1
102
RTVSPropertyOp20
 70
     1
102
RTVSPropertyOp21
 70
     1
102
RTVSPropertyOp22
 70
     1
102
RTVSPropertyOp23
 70
     1
102
RTVSPropertyOp24
 70
     1
102
RTVSPropertyOp25
 70
     1
102
RTVSPropertyOp26
 70
     1
102
RTVSPropertyOp27
 70
     1
102
RTVSPropertyOp28
 70
     1
102
RTVSPropertyOp29
 70
     1
102
RTVSPropertyOp30
 70
     1
102
RTVSPropertyOp31
 70
     1
102
RTVSPropertyOp32
 70
     1
102
RTVSPropertyOp33
 70
     1
102
RTVSPropertyOp34
 70
     1
102
RTVSPropertyOp35
 70
     1
102
RTVSPropertyOp36
 70
     1
102
RTVSPropertyOp37
 70
     1
102
RTVSPropertyOp38
 70
     1
102
RTVSPropertyOp39
 70
     1
102
RTVSPropertyOp40
 70
     1
102
RTVSPropertyOp41
 70
     1
102
RTVSPropertyOp42
 70
     1
102
RTVSPropertyOp43
 70
     1
102
RTVSPropertyOp44
 70
     1
102
RTVSPropertyOp45
 70
     1
102
RTVSPropertyOp46
 70
     1
102
RTVSPropertyOp47
 70
     1
102
RTVSPropertyOp48
 70
     1
102
RTVSPropertyOp49
 70
     1
102
RTVSPropertyOp50
 70
     1
102
RTVSPropertyOp51
 70
     0
102
RTVSPropertyOp52
 70
     0
102
RTVSPropertyOp53
 70
     1
102
RTVSPropertyOp54
 70
     1
102
RTVSPropertyOp55
 70
     1
102
RTVSPropertyOp56
 70
     1
102
RTVSPropertyOp57
 70
     1
102
RTVSPropertyOp58
 70
     1
102
RTVSPropertyOp59
 70
     1
102
RTVSPropertyOp60
 70
     1
102
RTVSPropertyOp61
 70
     1
102
RTVSPropertyOp62
 70
     1
  0
XRECORD
  5
A366
102
{ACAD_REACTORS
330
A365
102
}
330
A365
100
AcDbXrecord
280
     1
102
RTVSPost2010Prop28
280
     0
102
RTVSPost2010PropOp28
 70
     1
102
RTVSPost2010Prop29
280
     1
102
RTVSPost2010PropOp29
 70
     1
102
RTVSPost2010Prop30
280
     1
102
RTVSPost2010PropOp30
 70
     1
102
RTVSPost2010Prop31
280
     0
102
RTVSPost2010PropOp31
 70
     1
102
RTVSPost2010Prop32
280
     0
102
RTVSPost2010PropOp32
 70
     1
102
RTVSPost2010Prop33
280
     0
102
RTVSPost2010PropOp33
 70
     1
102
RTVSPost2010Prop34
280
     0
102
RTVSPost2010PropOp34
 70
     1
102
RTVSPost2010Prop35
280
     0
102
RTVSPost2010PropOp35
 70
     1
102
RTVSPost2010Prop36
280
     0
102
RTVSPost2010PropOp36
 70
     1
102
RTVSPost2010Prop37
 90
       50
102
RTVSPost2010PropOp37
 70
     1
102
RTVSPost2010Prop38
140
0.0
102
RTVSPost2010PropOp38
 70
     1
102
RTVSPost2010Prop39
140
1.0
102
RTVSPost2010PropOp39
 70
     1
102
RTVSPost2010Prop40
 90
        0
102
RTVSPost2010PropOp40
 70
     1
102
RTVSPost2010Prop41ColorIndex
 90
       18
102
RTVSPost2010Prop41ColorRGB
 90
        0
102
RTVSPost2010PropOp41
 70
     1
102
RTVSPost2010Prop42
 90
       50
102
RTVSPost2010PropOp42
 70
     1
102
RTVSPost2010Prop43
 90
        3
102
RTVSPost2010PropOp43
 70
     1
102
RTVSPost2010Prop44ColorIndex
 90
        5
102
RTVSPost2010Prop44ColorRGB
 90
      255
102
RTVSPost2010PropOp44
 70
     1
102
RTVSPost2010Prop45
280
     0
102
RTVSPost2010PropOp45
 70
     1
102
RTVSPost2010Prop46
 90
       50
102
RTVSPost2010PropOp46
 70
     1
102
RTVSPost2010Prop47
 90
       50
102
RTVSPost2010PropOp47
 70
     1
102
RTVSPost2010Prop48
 90
       50
102
RTVSPost2010PropOp48
 70
     1
102
RTVSPost2010Prop49
280
     0
102
RTVSPost2010PropOp49
 70
     1
102
RTVSPost2010Prop50
 90
       50
102
RTVSPost2010PropOp50
 70
     1
102
RTVSPost2010Prop51ColorIndex
 90
      256
102
RTVSPost2010Prop51ColorRGB
 90
-16777216
102
RTVSPost2010PropOp51
 70
     0
102
RTVSPost2010Prop52
140
1.0
102
RTVSPost2010PropOp52
 70
     0
102
RTVSPost2010Prop53
 90
        2
102
RTVSPost2010PropOp53
 70
     1
102
RTVSPost2010Prop54
  1
strokes_ogs.tif
102
RTVSPost2010PropOp54
 70
     1
102
RTVSPost2010Prop55
280
     0
102
RTVSPost2010PropOp55
 70
     1
102
RTVSPost2010Prop56
140
1.0
102
RTVSPost2010PropOp56
 70
     1
102
RTVSPost2010Prop57
140
1.0
102
RTVSPost2010PropOp57
 70
     1
102
RTVSPropertyOp0
 70
     1
102
RTVSPropertyOp1
 70
     1
102
RTVSPropertyOp2
 70
     1
102
RTVSPropertyOp3
 70
     1
102
RTVSPropertyOp4
 70
     1
102
RTVSPropertyOp5
 70
     1
102
RTVSPropertyOp6
 70
     1
102
RTVSPropertyOp7
 70
     1
102
RTVSPropertyOp8
 70
     1
102
RTVSPropertyOp9
 70
     1
102
RTVSPropertyOp10
 70
     1
102
RTVSPropertyOp11
 70
     1
102
RTVSPropertyOp12
 70
     1
102
RTVSPropertyOp13
 70
     1
102
RTVSPropertyOp14
 70
     1
102
RTVSPropertyOp15
 70
     1
102
RTVSPropertyOp16
 70
     1
102
RTVSPropertyOp17
 70
     1
102
RTVSPropertyOp18
 70
     1
102
RTVSPropertyOp19
 70
     1
102
RTVSPropertyOp20
 70
     1
102
RTVSPropertyOp21
 70
     1
102
RTVSPropertyOp22
 70
     1
102
RTVSPropertyOp23
 70
     1
102
RTVSPropertyOp24
 70
     1
102
RTVSPropertyOp25
 70
     1
102
RTVSPropertyOp26
 70
     1
102
RTVSPropertyOp27
 70
     1
102
RTVSPropertyOp28
 70
     1
102
RTVSPropertyOp29
 70
     1
102
RTVSPropertyOp30
 70
     1
102
RTVSPropertyOp31
 70
     1
102
RTVSPropertyOp32
 70
     1
102
RTVSPropertyOp33
 70
     1
102
RTVSPropertyOp34
 70
     1
102
RTVSPropertyOp35
 70
     1
102
RTVSPropertyOp36
 70
     1
102
RTVSPropertyOp37
 70
     1
102
RTVSPropertyOp38
 70
     1
102
RTVSPropertyOp39
 70
     1
102
RTVSPropertyOp40
 70
     1
102
RTVSPropertyOp41
 70
     1
102
RTVSPropertyOp42
 70
     1
102
RTVSPropertyOp43
 70
     1
102
RTVSPropertyOp44
 70
     1
102
RTVSPropertyOp45
 70
     1
102
RTVSPropertyOp46
 70
     1
102
RTVSPropertyOp47
 70
     1
102
RTVSPropertyOp48
 70
     1
102
RTVSPropertyOp49
 70
     1
102
RTVSPropertyOp50
 70
     1
102
RTVSPropertyOp51
 70
     0
102
RTVSPropertyOp52
 70
     0
102
RTVSPropertyOp53
 70
     1
102
RTVSPropertyOp54
 70
     1
102
RTVSPropertyOp55
 70
     1
102
RTVSPropertyOp56
 70
     1
102
RTVSPropertyOp57
 70
     1
102
RTVSPropertyOp58
 70
     1
102
RTVSPropertyOp59
 70
     1
102
RTVSPropertyOp60
 70
     1
102
RTVSPropertyOp61
 70
     1
102
RTVSPropertyOp62
 70
     1
  0
XRECORD
  5
A358
102
{ACAD_REACTORS
330
A357
102
}
330
A357
100
AcDbXrecord
280
     1
102
RTVSPost2010Prop28
280
     0
102
RTVSPost2010PropOp28
 70
     1
102
RTVSPost2010Prop29
280
     1
102
RTVSPost2010PropOp29
 70
     1
102
RTVSPost2010Prop30
280
     1
102
RTVSPost2010PropOp30
 70
     1
102
RTVSPost2010Prop31
280
     0
102
RTVSPost2010PropOp31
 70
     1
102
RTVSPost2010Prop32
280
     0
102
RTVSPost2010PropOp32
 70
     1
102
RTVSPost2010Prop33
280
     0
102
RTVSPost2010PropOp33
 70
     1
102
RTVSPost2010Prop34
280
     0
102
RTVSPost2010PropOp34
 70
     1
102
RTVSPost2010Prop35
280
     0
102
RTVSPost2010PropOp35
 70
     1
102
RTVSPost2010Prop36
280
     0
102
RTVSPost2010PropOp36
 70
     1
102
RTVSPost2010Prop37
 90
       50
102
RTVSPost2010PropOp37
 70
     1
102
RTVSPost2010Prop38
140
0.0
102
RTVSPost2010PropOp38
 70
     1
102
RTVSPost2010Prop39
140
1.0
102
RTVSPost2010PropOp39
 70
     1
102
RTVSPost2010Prop40
 90
        0
102
RTVSPost2010PropOp40
 70
     1
102
RTVSPost2010Prop41ColorIndex
 90
       18
102
RTVSPost2010Prop41ColorRGB
 90
        0
102
RTVSPost2010PropOp41
 70
     1
102
RTVSPost2010Prop42
 90
       50
102
RTVSPost2010PropOp42
 70
     1
102
RTVSPost2010Prop43
 90
        3
102
RTVSPost2010PropOp43
 70
     1
102
RTVSPost2010Prop44ColorIndex
 90
        5
102
RTVSPost2010Prop44ColorRGB
 90
      255
102
RTVSPost2010PropOp44
 70
     1
102
RTVSPost2010Prop45
280
     0
102
RTVSPost2010PropOp45
 70
     1
102
RTVSPost2010Prop46
 90
       50
102
RTVSPost2010PropOp46
 70
     1
102
RTVSPost2010Prop47
 90
       50
102
RTVSPost2010PropOp47
 70
     1
102
RTVSPost2010Prop48
 90
       50
102
RTVSPost2010PropOp48
 70
     1
102
RTVSPost2010Prop49
280
     0
102
RTVSPost2010PropOp49
 70
     1
102
RTVSPost2010Prop50
 90
       50
102
RTVSPost2010PropOp50
 70
     1
102
RTVSPost2010Prop51ColorIndex
 90
      256
102
RTVSPost2010Prop51ColorRGB
 90
-16777216
102
RTVSPost2010PropOp51
 70
     0
102
RTVSPost2010Prop52
140
1.0
102
RTVSPost2010PropOp52
 70
     0
102
RTVSPost2010Prop53
 90
        2
102
RTVSPost2010PropOp53
 70
     1
102
RTVSPost2010Prop54
  1
strokes_ogs.tif
102
RTVSPost2010PropOp54
 70
     1
102
RTVSPost2010Prop55
280
     0
102
RTVSPost2010PropOp55
 70
     1
102
RTVSPost2010Prop56
140
1.0
102
RTVSPost2010PropOp56
 70
     1
102
RTVSPost2010Prop57
140
1.0
102
RTVSPost2010PropOp57
 70
     1
102
RTVSPropertyOp0
 70
     1
102
RTVSPropertyOp1
 70
     1
102
RTVSPropertyOp2
 70
     1
102
RTVSPropertyOp3
 70
     1
102
RTVSPropertyOp4
 70
     1
102
RTVSPropertyOp5
 70
     1
102
RTVSPropertyOp6
 70
     1
102
RTVSPropertyOp7
 70
     1
102
RTVSPropertyOp8
 70
     1
102
RTVSPropertyOp9
 70
     1
102
RTVSPropertyOp10
 70
     1
102
RTVSPropertyOp11
 70
     1
102
RTVSPropertyOp12
 70
     1
102
RTVSPropertyOp13
 70
     1
102
RTVSPropertyOp14
 70
     1
102
RTVSPropertyOp15
 70
     1
102
RTVSPropertyOp16
 70
     1
102
RTVSPropertyOp17
 70
     1
102
RTVSPropertyOp18
 70
     1
102
RTVSPropertyOp19
 70
     1
102
RTVSPropertyOp20
 70
     1
102
RTVSPropertyOp21
 70
     1
102
RTVSPropertyOp22
 70
     1
102
RTVSPropertyOp23
 70
     1
102
RTVSPropertyOp24
 70
     1
102
RTVSPropertyOp25
 70
     1
102
RTVSPropertyOp26
 70
     1
102
RTVSPropertyOp27
 70
     1
102
RTVSPropertyOp28
 70
     1
102
RTVSPropertyOp29
 70
     1
102
RTVSPropertyOp30
 70
     1
102
RTVSPropertyOp31
 70
     1
102
RTVSPropertyOp32
 70
     1
102
RTVSPropertyOp33
 70
     1
102
RTVSPropertyOp34
 70
     1
102
RTVSPropertyOp35
 70
     1
102
RTVSPropertyOp36
 70
     1
102
RTVSPropertyOp37
 70
     1
102
RTVSPropertyOp38
 70
     1
102
RTVSPropertyOp39
 70
     1
102
RTVSPropertyOp40
 70
     1
102
RTVSPropertyOp41
 70
     1
102
RTVSPropertyOp42
 70
     1
102
RTVSPropertyOp43
 70
     1
102
RTVSPropertyOp44
 70
     1
102
RTVSPropertyOp45
 70
     1
102
RTVSPropertyOp46
 70
     1
102
RTVSPropertyOp47
 70
     1
102
RTVSPropertyOp48
 70
     1
102
RTVSPropertyOp49
 70
     1
102
RTVSPropertyOp50
 70
     1
102
RTVSPropertyOp51
 70
     0
102
RTVSPropertyOp52
 70
     0
102
RTVSPropertyOp53
 70
     1
102
RTVSPropertyOp54
 70
     1
102
RTVSPropertyOp55
 70
     1
102
RTVSPropertyOp56
 70
     1
102
RTVSPropertyOp57
 70
     1
102
RTVSPropertyOp58
 70
     1
102
RTVSPropertyOp59
 70
     1
102
RTVSPropertyOp60
 70
     1
102
RTVSPropertyOp61
 70
     1
102
RTVSPropertyOp62
 70
     1
  0
XRECORD
  5
A35C
102
{ACAD_REACTORS
330
A35B
102
}
330
A35B
100
AcDbXrecord
280
     1
102
RTVSPost2010Prop28
280
     0
102
RTVSPost2010PropOp28
 70
     1
102
RTVSPost2010Prop29
280
     1
102
RTVSPost2010PropOp29
 70
     1
102
RTVSPost2010Prop30
280
     1
102
RTVSPost2010PropOp30
 70
     1
102
RTVSPost2010Prop31
280
     0
102
RTVSPost2010PropOp31
 70
     1
102
RTVSPost2010Prop32
280
     0
102
RTVSPost2010PropOp32
 70
     1
102
RTVSPost2010Prop33
280
     0
102
RTVSPost2010PropOp33
 70
     1
102
RTVSPost2010Prop34
280
     0
102
RTVSPost2010PropOp34
 70
     1
102
RTVSPost2010Prop35
280
     0
102
RTVSPost2010PropOp35
 70
     1
102
RTVSPost2010Prop36
280
     0
102
RTVSPost2010PropOp36
 70
     1
102
RTVSPost2010Prop37
 90
       50
102
RTVSPost2010PropOp37
 70
     1
102
RTVSPost2010Prop38
140
0.0
102
RTVSPost2010PropOp38
 70
     1
102
RTVSPost2010Prop39
140
1.0
102
RTVSPost2010PropOp39
 70
     1
102
RTVSPost2010Prop40
 90
        0
102
RTVSPost2010PropOp40
 70
     1
102
RTVSPost2010Prop41ColorIndex
 90
       18
102
RTVSPost2010Prop41ColorRGB
 90
        0
102
RTVSPost2010PropOp41
 70
     1
102
RTVSPost2010Prop42
 90
       50
102
RTVSPost2010PropOp42
 70
     1
102
RTVSPost2010Prop43
 90
        3
102
RTVSPost2010PropOp43
 70
     1
102
RTVSPost2010Prop44ColorIndex
 90
        5
102
RTVSPost2010Prop44ColorRGB
 90
      255
102
RTVSPost2010PropOp44
 70
     1
102
RTVSPost2010Prop45
280
     0
102
RTVSPost2010PropOp45
 70
     1
102
RTVSPost2010Prop46
 90
       50
102
RTVSPost2010PropOp46
 70
     1
102
RTVSPost2010Prop47
 90
       50
102
RTVSPost2010PropOp47
 70
     1
102
RTVSPost2010Prop48
 90
       50
102
RTVSPost2010PropOp48
 70
     1
102
RTVSPost2010Prop49
280
     0
102
RTVSPost2010PropOp49
 70
     1
102
RTVSPost2010Prop50
 90
       50
102
RTVSPost2010PropOp50
 70
     1
102
RTVSPost2010Prop51ColorIndex
 90
      256
102
RTVSPost2010Prop51ColorRGB
 90
-16777216
102
RTVSPost2010PropOp51
 70
     0
102
RTVSPost2010Prop52
140
1.0
102
RTVSPost2010PropOp52
 70
     0
102
RTVSPost2010Prop53
 90
        2
102
RTVSPost2010PropOp53
 70
     1
102
RTVSPost2010Prop54
  1
strokes_ogs.tif
102
RTVSPost2010PropOp54
 70
     1
102
RTVSPost2010Prop55
280
     0
102
RTVSPost2010PropOp55
 70
     1
102
RTVSPost2010Prop56
140
1.0
102
RTVSPost2010PropOp56
 70
     1
102
RTVSPost2010Prop57
140
1.0
102
RTVSPost2010PropOp57
 70
     1
102
RTVSPropertyOp0
 70
     1
102
RTVSPropertyOp1
 70
     1
102
RTVSPropertyOp2
 70
     1
102
RTVSPropertyOp3
 70
     1
102
RTVSPropertyOp4
 70
     1
102
RTVSPropertyOp5
 70
     1
102
RTVSPropertyOp6
 70
     1
102
RTVSPropertyOp7
 70
     1
102
RTVSPropertyOp8
 70
     1
102
RTVSPropertyOp9
 70
     1
102
RTVSPropertyOp10
 70
     1
102
RTVSPropertyOp11
 70
     1
102
RTVSPropertyOp12
 70
     1
102
RTVSPropertyOp13
 70
     1
102
RTVSPropertyOp14
 70
     1
102
RTVSPropertyOp15
 70
     1
102
RTVSPropertyOp16
 70
     1
102
RTVSPropertyOp17
 70
     1
102
RTVSPropertyOp18
 70
     1
102
RTVSPropertyOp19
 70
     1
102
RTVSPropertyOp20
 70
     1
102
RTVSPropertyOp21
 70
     1
102
RTVSPropertyOp22
 70
     1
102
RTVSPropertyOp23
 70
     1
102
RTVSPropertyOp24
 70
     1
102
RTVSPropertyOp25
 70
     1
102
RTVSPropertyOp26
 70
     1
102
RTVSPropertyOp27
 70
     1
102
RTVSPropertyOp28
 70
     1
102
RTVSPropertyOp29
 70
     1
102
RTVSPropertyOp30
 70
     1
102
RTVSPropertyOp31
 70
     1
102
RTVSPropertyOp32
 70
     1
102
RTVSPropertyOp33
 70
     1
102
RTVSPropertyOp34
 70
     1
102
RTVSPropertyOp35
 70
     1
102
RTVSPropertyOp36
 70
     1
102
RTVSPropertyOp37
 70
     1
102
RTVSPropertyOp38
 70
     1
102
RTVSPropertyOp39
 70
     1
102
RTVSPropertyOp40
 70
     1
102
RTVSPropertyOp41
 70
     1
102
RTVSPropertyOp42
 70
     1
102
RTVSPropertyOp43
 70
     1
102
RTVSPropertyOp44
 70
     1
102
RTVSPropertyOp45
 70
     1
102
RTVSPropertyOp46
 70
     1
102
RTVSPropertyOp47
 70
     1
102
RTVSPropertyOp48
 70
     1
102
RTVSPropertyOp49
 70
     1
102
RTVSPropertyOp50
 70
     1
102
RTVSPropertyOp51
 70
     0
102
RTVSPropertyOp52
 70
     0
102
RTVSPropertyOp53
 70
     1
102
RTVSPropertyOp54
 70
     1
102
RTVSPropertyOp55
 70
     1
102
RTVSPropertyOp56
 70
     1
102
RTVSPropertyOp57
 70
     1
102
RTVSPropertyOp58
 70
     1
102
RTVSPropertyOp59
 70
     1
102
RTVSPropertyOp60
 70
     1
102
RTVSPropertyOp61
 70
     1
102
RTVSPropertyOp62
 70
     1
  0
XRECORD
  5
A376
102
{ACAD_REACTORS
330
A375
102
}
330
A375
100
AcDbXrecord
280
     1
102
RTVSPost2010Prop28
280
     0
102
RTVSPost2010PropOp28
 70
     1
102
RTVSPost2010Prop29
280
     1
102
RTVSPost2010PropOp29
 70
     1
102
RTVSPost2010Prop30
280
     1
102
RTVSPost2010PropOp30
 70
     1
102
RTVSPost2010Prop31
280
     0
102
RTVSPost2010PropOp31
 70
     1
102
RTVSPost2010Prop32
280
     0
102
RTVSPost2010PropOp32
 70
     1
102
RTVSPost2010Prop33
280
     0
102
RTVSPost2010PropOp33
 70
     1
102
RTVSPost2010Prop34
280
     0
102
RTVSPost2010PropOp34
 70
     1
102
RTVSPost2010Prop35
280
     0
102
RTVSPost2010PropOp35
 70
     1
102
RTVSPost2010Prop36
280
     0
102
RTVSPost2010PropOp36
 70
     1
102
RTVSPost2010Prop37
 90
       50
102
RTVSPost2010PropOp37
 70
     0
102
RTVSPost2010Prop38
140
0.0
102
RTVSPost2010PropOp38
 70
     0
102
RTVSPost2010Prop39
140
1.0
102
RTVSPost2010PropOp39
 70
     0
102
RTVSPost2010Prop40
 90
        0
102
RTVSPost2010PropOp40
 70
     0
102
RTVSPost2010Prop41ColorIndex
 90
       18
102
RTVSPost2010Prop41ColorRGB
 90
        0
102
RTVSPost2010PropOp41
 70
     0
102
RTVSPost2010Prop42
 90
       50
102
RTVSPost2010PropOp42
 70
     0
102
RTVSPost2010Prop43
 90
        3
102
RTVSPost2010PropOp43
 70
     0
102
RTVSPost2010Prop44ColorIndex
 90
        5
102
RTVSPost2010Prop44ColorRGB
 90
      255
102
RTVSPost2010PropOp44
 70
     0
102
RTVSPost2010Prop45
280
     0
102
RTVSPost2010PropOp45
 70
     1
102
RTVSPost2010Prop46
 90
       50
102
RTVSPost2010PropOp46
 70
     0
102
RTVSPost2010Prop47
 90
       50
102
RTVSPost2010PropOp47
 70
     0
102
RTVSPost2010Prop48
 90
       50
102
RTVSPost2010PropOp48
 70
     0
102
RTVSPost2010Prop49
280
     0
102
RTVSPost2010PropOp49
 70
     1
102
RTVSPost2010Prop50
 90
       50
102
RTVSPost2010PropOp50
 70
     0
102
RTVSPost2010Prop51ColorIndex
 90
      256
102
RTVSPost2010Prop51ColorRGB
 90
-16777216
102
RTVSPost2010PropOp51
 70
     0
102
RTVSPost2010Prop52
140
1.0
102
RTVSPost2010PropOp52
 70
     0
102
RTVSPost2010Prop53
 90
        2
102
RTVSPost2010PropOp53
 70
     0
102
RTVSPost2010Prop54
  1
strokes_ogs.tif
102
RTVSPost2010PropOp54
 70
     0
102
RTVSPost2010Prop55
280
     0
102
RTVSPost2010PropOp55
 70
     1
102
RTVSPost2010Prop56
140
1.0
102
RTVSPost2010PropOp56
 70
     0
102
RTVSPost2010Prop57
140
1.0
102
RTVSPost2010PropOp57
 70
     0
102
RTVSPropertyOp0
 70
     0
102
RTVSPropertyOp1
 70
     0
102
RTVSPropertyOp2
 70
     0
102
RTVSPropertyOp3
 70
     0
102
RTVSPropertyOp4
 70
     0
102
RTVSPropertyOp5
 70
     0
102
RTVSPropertyOp6
 70
     0
102
RTVSPropertyOp7
 70
     0
102
RTVSPropertyOp8
 70
     0
102
RTVSPropertyOp9
 70
     0
102
RTVSPropertyOp10
 70
     0
102
RTVSPropertyOp11
 70
     0
102
RTVSPropertyOp12
 70
     0
102
RTVSPropertyOp13
 70
     0
102
RTVSPropertyOp14
 70
     2
102
RTVSPropertyOp15
 70
     0
102
RTVSPropertyOp16
 70
     0
102
RTVSPropertyOp17
 70
     0
102
RTVSPropertyOp18
 70
     0
102
RTVSPropertyOp19
 70
     0
102
RTVSPropertyOp20
 70
     0
102
RTVSPropertyOp21
 70
     0
102
RTVSPropertyOp22
 70
     0
102
RTVSPropertyOp23
 70
     0
102
RTVSPropertyOp24
 70
     0
102
RTVSPropertyOp25
 70
     0
102
RTVSPropertyOp26
 70
     0
102
RTVSPropertyOp27
 70
     0
102
RTVSPropertyOp28
 70
     1
102
RTVSPropertyOp29
 70
     1
102
RTVSPropertyOp30
 70
     1
102
RTVSPropertyOp31
 70
     1
102
RTVSPropertyOp32
 70
     1
102
RTVSPropertyOp33
 70
     1
102
RTVSPropertyOp34
 70
     1
102
RTVSPropertyOp35
 70
     1
102
RTVSPropertyOp36
 70
     1
102
RTVSPropertyOp37
 70
     0
102
RTVSPropertyOp38
 70
     0
102
RTVSPropertyOp39
 70
     0
102
RTVSPropertyOp40
 70
     0
102
RTVSPropertyOp41
 70
     0
102
RTVSPropertyOp42
 70
     0
102
RTVSPropertyOp43
 70
     0
102
RTVSPropertyOp44
 70
     0
102
RTVSPropertyOp45
 70
     1
102
RTVSPropertyOp46
 70
     0
102
RTVSPropertyOp47
 70
     0
102
RTVSPropertyOp48
 70
     0
102
RTVSPropertyOp49
 70
     1
102
RTVSPropertyOp50
 70
     0
102
RTVSPropertyOp51
 70
     0
102
RTVSPropertyOp52
 70
     0
102
RTVSPropertyOp53
 70
     0
102
RTVSPropertyOp54
 70
     0
102
RTVSPropertyOp55
 70
     1
102
RTVSPropertyOp56
 70
     0
102
RTVSPropertyOp57
 70
     0
102
RTVSPropertyOp58
 70
     0
102
RTVSPropertyOp59
 70
     0
102
RTVSPropertyOp60
 70
     0
102
RTVSPropertyOp61
 70
     0
102
RTVSPropertyOp62
 70
     0
  0
XRECORD
  5
A364
102
{ACAD_REACTORS
330
A363
102
}
330
A363
100
AcDbXrecord
280
     1
102
RTVSPost2010Prop28
280
     0
102
RTVSPost2010PropOp28
 70
     1
102
RTVSPost2010Prop29
280
     1
102
RTVSPost2010PropOp29
 70
     1
102
RTVSPost2010Prop30
280
     1
102
RTVSPost2010PropOp30
 70
     1
102
RTVSPost2010Prop31
280
     0
102
RTVSPost2010PropOp31
 70
     1
102
RTVSPost2010Prop32
280
     0
102
RTVSPost2010PropOp32
 70
     1
102
RTVSPost2010Prop33
280
     0
102
RTVSPost2010PropOp33
 70
     1
102
RTVSPost2010Prop34
280
     0
102
RTVSPost2010PropOp34
 70
     1
102
RTVSPost2010Prop35
280
     0
102
RTVSPost2010PropOp35
 70
     1
102
RTVSPost2010Prop36
280
     0
102
RTVSPost2010PropOp36
 70
     1
102
RTVSPost2010Prop37
 90
       50
102
RTVSPost2010PropOp37
 70
     1
102
RTVSPost2010Prop38
140
0.0
102
RTVSPost2010PropOp38
 70
     1
102
RTVSPost2010Prop39
140
1.0
102
RTVSPost2010PropOp39
 70
     1
102
RTVSPost2010Prop40
 90
        0
102
RTVSPost2010PropOp40
 70
     1
102
RTVSPost2010Prop41ColorIndex
 90
       18
102
RTVSPost2010Prop41ColorRGB
 90
        0
102
RTVSPost2010PropOp41
 70
     1
102
RTVSPost2010Prop42
 90
       50
102
RTVSPost2010PropOp42
 70
     1
102
RTVSPost2010Prop43
 90
        3
102
RTVSPost2010PropOp43
 70
     1
102
RTVSPost2010Prop44ColorIndex
 90
        5
102
RTVSPost2010Prop44ColorRGB
 90
      255
102
RTVSPost2010PropOp44
 70
     1
102
RTVSPost2010Prop45
280
     0
102
RTVSPost2010PropOp45
 70
     1
102
RTVSPost2010Prop46
 90
       50
102
RTVSPost2010PropOp46
 70
     1
102
RTVSPost2010Prop47
 90
       50
102
RTVSPost2010PropOp47
 70
     1
102
RTVSPost2010Prop48
 90
       50
102
RTVSPost2010PropOp48
 70
     1
102
RTVSPost2010Prop49
280
     0
102
RTVSPost2010PropOp49
 70
     1
102
RTVSPost2010Prop50
 90
       50
102
RTVSPost2010PropOp50
 70
     1
102
RTVSPost2010Prop51ColorIndex
 90
      256
102
RTVSPost2010Prop51ColorRGB
 90
-16777216
102
RTVSPost2010PropOp51
 70
     0
102
RTVSPost2010Prop52
140
1.0
102
RTVSPost2010PropOp52
 70
     0
102
RTVSPost2010Prop53
 90
        2
102
RTVSPost2010PropOp53
 70
     1
102
RTVSPost2010Prop54
  1
strokes_ogs.tif
102
RTVSPost2010PropOp54
 70
     1
102
RTVSPost2010Prop55
280
     0
102
RTVSPost2010PropOp55
 70
     1
102
RTVSPost2010Prop56
140
1.0
102
RTVSPost2010PropOp56
 70
     1
102
RTVSPost2010Prop57
140
1.0
102
RTVSPost2010PropOp57
 70
     1
102
RTVSPropertyOp0
 70
     1
102
RTVSPropertyOp1
 70
     1
102
RTVSPropertyOp2
 70
     1
102
RTVSPropertyOp3
 70
     1
102
RTVSPropertyOp4
 70
     1
102
RTVSPropertyOp5
 70
     1
102
RTVSPropertyOp6
 70
     1
102
RTVSPropertyOp7
 70
     1
102
RTVSPropertyOp8
 70
     1
102
RTVSPropertyOp9
 70
     1
102
RTVSPropertyOp10
 70
     1
102
RTVSPropertyOp11
 70
     1
102
RTVSPropertyOp12
 70
     1
102
RTVSPropertyOp13
 70
     1
102
RTVSPropertyOp14
 70
     1
102
RTVSPropertyOp15
 70
     1
102
RTVSPropertyOp16
 70
     1
102
RTVSPropertyOp17
 70
     1
102
RTVSPropertyOp18
 70
     1
102
RTVSPropertyOp19
 70
     1
102
RTVSPropertyOp20
 70
     1
102
RTVSPropertyOp21
 70
     1
102
RTVSPropertyOp22
 70
     1
102
RTVSPropertyOp23
 70
     1
102
RTVSPropertyOp24
 70
     1
102
RTVSPropertyOp25
 70
     1
102
RTVSPropertyOp26
 70
     1
102
RTVSPropertyOp27
 70
     1
102
RTVSPropertyOp28
 70
     1
102
RTVSPropertyOp29
 70
     1
102
RTVSPropertyOp30
 70
     1
102
RTVSPropertyOp31
 70
     1
102
RTVSPropertyOp32
 70
     1
102
RTVSPropertyOp33
 70
     1
102
RTVSPropertyOp34
 70
     1
102
RTVSPropertyOp35
 70
     1
102
RTVSPropertyOp36
 70
     1
102
RTVSPropertyOp37
 70
     1
102
RTVSPropertyOp38
 70
     1
102
RTVSPropertyOp39
 70
     1
102
RTVSPropertyOp40
 70
     1
102
RTVSPropertyOp41
 70
     1
102
RTVSPropertyOp42
 70
     1
102
RTVSPropertyOp43
 70
     1
102
RTVSPropertyOp44
 70
     1
102
RTVSPropertyOp45
 70
     1
102
RTVSPropertyOp46
 70
     1
102
RTVSPropertyOp47
 70
     1
102
RTVSPropertyOp48
 70
     1
102
RTVSPropertyOp49
 70
     1
102
RTVSPropertyOp50
 70
     1
102
RTVSPropertyOp51
 70
     0
102
RTVSPropertyOp52
 70
     0
102
RTVSPropertyOp53
 70
     1
102
RTVSPropertyOp54
 70
     1
102
RTVSPropertyOp55
 70
     1
102
RTVSPropertyOp56
 70
     1
102
RTVSPropertyOp57
 70
     1
102
RTVSPropertyOp58
 70
     1
102
RTVSPropertyOp59
 70
     1
102
RTVSPropertyOp60
 70
     1
102
RTVSPropertyOp61
 70
     1
102
RTVSPropertyOp62
 70
     1
  0
XRECORD
  5
A348
102
{ACAD_REACTORS
330
A347
102
}
330
A347
100
AcDbXrecord
280
     1
102
RTVSPost2010Prop28
280
     0
102
RTVSPost2010PropOp28
 70
     1
102
RTVSPost2010Prop29
280
     1
102
RTVSPost2010PropOp29
 70
     1
102
RTVSPost2010Prop30
280
     1
102
RTVSPost2010PropOp30
 70
     1
102
RTVSPost2010Prop31
280
     0
102
RTVSPost2010PropOp31
 70
     1
102
RTVSPost2010Prop32
280
     0
102
RTVSPost2010PropOp32
 70
     1
102
RTVSPost2010Prop33
280
     0
102
RTVSPost2010PropOp33
 70
     1
102
RTVSPost2010Prop34
280
     0
102
RTVSPost2010PropOp34
 70
     1
102
RTVSPost2010Prop35
280
     0
102
RTVSPost2010PropOp35
 70
     1
102
RTVSPost2010Prop36
280
     0
102
RTVSPost2010PropOp36
 70
     1
102
RTVSPost2010Prop37
 90
       50
102
RTVSPost2010PropOp37
 70
     1
102
RTVSPost2010Prop38
140
0.0
102
RTVSPost2010PropOp38
 70
     1
102
RTVSPost2010Prop39
140
1.0
102
RTVSPost2010PropOp39
 70
     1
102
RTVSPost2010Prop40
 90
        0
102
RTVSPost2010PropOp40
 70
     1
102
RTVSPost2010Prop41ColorIndex
 90
       18
102
RTVSPost2010Prop41ColorRGB
 90
        0
102
RTVSPost2010PropOp41
 70
     1
102
RTVSPost2010Prop42
 90
       50
102
RTVSPost2010PropOp42
 70
     1
102
RTVSPost2010Prop43
 90
        3
102
RTVSPost2010PropOp43
 70
     1
102
RTVSPost2010Prop44ColorIndex
 90
        5
102
RTVSPost2010Prop44ColorRGB
 90
      255
102
RTVSPost2010PropOp44
 70
     1
102
RTVSPost2010Prop45
280
     0
102
RTVSPost2010PropOp45
 70
     1
102
RTVSPost2010Prop46
 90
       50
102
RTVSPost2010PropOp46
 70
     1
102
RTVSPost2010Prop47
 90
       50
102
RTVSPost2010PropOp47
 70
     1
102
RTVSPost2010Prop48
 90
       50
102
RTVSPost2010PropOp48
 70
     1
102
RTVSPost2010Prop49
280
     0
102
RTVSPost2010PropOp49
 70
     1
102
RTVSPost2010Prop50
 90
       50
102
RTVSPost2010PropOp50
 70
     1
102
RTVSPost2010Prop51ColorIndex
 90
      256
102
RTVSPost2010Prop51ColorRGB
 90
-16777216
102
RTVSPost2010PropOp51
 70
     0
102
RTVSPost2010Prop52
140
1.0
102
RTVSPost2010PropOp52
 70
     0
102
RTVSPost2010Prop53
 90
        2
102
RTVSPost2010PropOp53
 70
     1
102
RTVSPost2010Prop54
  1
strokes_ogs.tif
102
RTVSPost2010PropOp54
 70
     1
102
RTVSPost2010Prop55
280
     0
102
RTVSPost2010PropOp55
 70
     1
102
RTVSPost2010Prop56
140
1.0
102
RTVSPost2010PropOp56
 70
     1
102
RTVSPost2010Prop57
140
1.0
102
RTVSPost2010PropOp57
 70
     1
102
RTVSPropertyOp0
 70
     1
102
RTVSPropertyOp1
 70
     1
102
RTVSPropertyOp2
 70
     1
102
RTVSPropertyOp3
 70
     1
102
RTVSPropertyOp4
 70
     1
102
RTVSPropertyOp5
 70
     1
102
RTVSPropertyOp6
 70
     1
102
RTVSPropertyOp7
 70
     1
102
RTVSPropertyOp8
 70
     1
102
RTVSPropertyOp9
 70
     1
102
RTVSPropertyOp10
 70
     1
102
RTVSPropertyOp11
 70
     1
102
RTVSPropertyOp12
 70
     1
102
RTVSPropertyOp13
 70
     1
102
RTVSPropertyOp14
 70
     1
102
RTVSPropertyOp15
 70
     1
102
RTVSPropertyOp16
 70
     1
102
RTVSPropertyOp17
 70
     1
102
RTVSPropertyOp18
 70
     1
102
RTVSPropertyOp19
 70
     1
102
RTVSPropertyOp20
 70
     1
102
RTVSPropertyOp21
 70
     1
102
RTVSPropertyOp22
 70
     1
102
RTVSPropertyOp23
 70
     1
102
RTVSPropertyOp24
 70
     1
102
RTVSPropertyOp25
 70
     1
102
RTVSPropertyOp26
 70
     1
102
RTVSPropertyOp27
 70
     1
102
RTVSPropertyOp28
 70
     1
102
RTVSPropertyOp29
 70
     1
102
RTVSPropertyOp30
 70
     1
102
RTVSPropertyOp31
 70
     1
102
RTVSPropertyOp32
 70
     1
102
RTVSPropertyOp33
 70
     1
102
RTVSPropertyOp34
 70
     1
102
RTVSPropertyOp35
 70
     1
102
RTVSPropertyOp36
 70
     1
102
RTVSPropertyOp37
 70
     1
102
RTVSPropertyOp38
 70
     1
102
RTVSPropertyOp39
 70
     1
102
RTVSPropertyOp40
 70
     1
102
RTVSPropertyOp41
 70
     1
102
RTVSPropertyOp42
 70
     1
102
RTVSPropertyOp43
 70
     1
102
RTVSPropertyOp44
 70
     1
102
RTVSPropertyOp45
 70
     1
102
RTVSPropertyOp46
 70
     1
102
RTVSPropertyOp47
 70
     1
102
RTVSPropertyOp48
 70
     1
102
RTVSPropertyOp49
 70
     1
102
RTVSPropertyOp50
 70
     1
102
RTVSPropertyOp51
 70
     0
102
RTVSPropertyOp52
 70
     0
102
RTVSPropertyOp53
 70
     1
102
RTVSPropertyOp54
 70
     1
102
RTVSPropertyOp55
 70
     1
102
RTVSPropertyOp56
 70
     1
102
RTVSPropertyOp57
 70
     1
102
RTVSPropertyOp58
 70
     1
102
RTVSPropertyOp59
 70
     1
102
RTVSPropertyOp60
 70
     1
102
RTVSPropertyOp61
 70
     1
102
RTVSPropertyOp62
 70
     1
  0
XRECORD
  5
A34A
102
{ACAD_REACTORS
330
A349
102
}
330
A349
100
AcDbXrecord
280
     1
102
RTVSPost2010Prop28
280
     0
102
RTVSPost2010PropOp28
 70
     1
102
RTVSPost2010Prop29
280
     1
102
RTVSPost2010PropOp29
 70
     1
102
RTVSPost2010Prop30
280
     1
102
RTVSPost2010PropOp30
 70
     1
102
RTVSPost2010Prop31
280
     0
102
RTVSPost2010PropOp31
 70
     1
102
RTVSPost2010Prop32
280
     0
102
RTVSPost2010PropOp32
 70
     1
102
RTVSPost2010Prop33
280
     0
102
RTVSPost2010PropOp33
 70
     1
102
RTVSPost2010Prop34
280
     0
102
RTVSPost2010PropOp34
 70
     1
102
RTVSPost2010Prop35
280
     0
102
RTVSPost2010PropOp35
 70
     1
102
RTVSPost2010Prop36
280
     0
102
RTVSPost2010PropOp36
 70
     1
102
RTVSPost2010Prop37
 90
       50
102
RTVSPost2010PropOp37
 70
     1
102
RTVSPost2010Prop38
140
0.0
102
RTVSPost2010PropOp38
 70
     1
102
RTVSPost2010Prop39
140
1.0
102
RTVSPost2010PropOp39
 70
     1
102
RTVSPost2010Prop40
 90
        0
102
RTVSPost2010PropOp40
 70
     1
102
RTVSPost2010Prop41ColorIndex
 90
       18
102
RTVSPost2010Prop41ColorRGB
 90
        0
102
RTVSPost2010PropOp41
 70
     1
102
RTVSPost2010Prop42
 90
       50
102
RTVSPost2010PropOp42
 70
     1
102
RTVSPost2010Prop43
 90
        3
102
RTVSPost2010PropOp43
 70
     1
102
RTVSPost2010Prop44ColorIndex
 90
        5
102
RTVSPost2010Prop44ColorRGB
 90
      255
102
RTVSPost2010PropOp44
 70
     1
102
RTVSPost2010Prop45
280
     0
102
RTVSPost2010PropOp45
 70
     1
102
RTVSPost2010Prop46
 90
       50
102
RTVSPost2010PropOp46
 70
     1
102
RTVSPost2010Prop47
 90
       50
102
RTVSPost2010PropOp47
 70
     1
102
RTVSPost2010Prop48
 90
       50
102
RTVSPost2010PropOp48
 70
     1
102
RTVSPost2010Prop49
280
     0
102
RTVSPost2010PropOp49
 70
     1
102
RTVSPost2010Prop50
 90
       50
102
RTVSPost2010PropOp50
 70
     1
102
RTVSPost2010Prop51ColorIndex
 90
      256
102
RTVSPost2010Prop51ColorRGB
 90
-16777216
102
RTVSPost2010PropOp51
 70
     0
102
RTVSPost2010Prop52
140
1.0
102
RTVSPost2010PropOp52
 70
     0
102
RTVSPost2010Prop53
 90
        2
102
RTVSPost2010PropOp53
 70
     1
102
RTVSPost2010Prop54
  1
strokes_ogs.tif
102
RTVSPost2010PropOp54
 70
     1
102
RTVSPost2010Prop55
280
     0
102
RTVSPost2010PropOp55
 70
     1
102
RTVSPost2010Prop56
140
1.0
102
RTVSPost2010PropOp56
 70
     1
102
RTVSPost2010Prop57
140
1.0
102
RTVSPost2010PropOp57
 70
     1
102
RTVSPropertyOp0
 70
     1
102
RTVSPropertyOp1
 70
     1
102
RTVSPropertyOp2
 70
     1
102
RTVSPropertyOp3
 70
     1
102
RTVSPropertyOp4
 70
     1
102
RTVSPropertyOp5
 70
     1
102
RTVSPropertyOp6
 70
     1
102
RTVSPropertyOp7
 70
     1
102
RTVSPropertyOp8
 70
     1
102
RTVSPropertyOp9
 70
     1
102
RTVSPropertyOp10
 70
     1
102
RTVSPropertyOp11
 70
     1
102
RTVSPropertyOp12
 70
     1
102
RTVSPropertyOp13
 70
     1
102
RTVSPropertyOp14
 70
     1
102
RTVSPropertyOp15
 70
     1
102
RTVSPropertyOp16
 70
     1
102
RTVSPropertyOp17
 70
     1
102
RTVSPropertyOp18
 70
     1
102
RTVSPropertyOp19
 70
     1
102
RTVSPropertyOp20
 70
     1
102
RTVSPropertyOp21
 70
     1
102
RTVSPropertyOp22
 70
     1
102
RTVSPropertyOp23
 70
     1
102
RTVSPropertyOp24
 70
     1
102
RTVSPropertyOp25
 70
     1
102
RTVSPropertyOp26
 70
     1
102
RTVSPropertyOp27
 70
     1
102
RTVSPropertyOp28
 70
     1
102
RTVSPropertyOp29
 70
     1
102
RTVSPropertyOp30
 70
     1
102
RTVSPropertyOp31
 70
     1
102
RTVSPropertyOp32
 70
     1
102
RTVSPropertyOp33
 70
     1
102
RTVSPropertyOp34
 70
     1
102
RTVSPropertyOp35
 70
     1
102
RTVSPropertyOp36
 70
     1
102
RTVSPropertyOp37
 70
     1
102
RTVSPropertyOp38
 70
     1
102
RTVSPropertyOp39
 70
     1
102
RTVSPropertyOp40
 70
     1
102
RTVSPropertyOp41
 70
     1
102
RTVSPropertyOp42
 70
     1
102
RTVSPropertyOp43
 70
     1
102
RTVSPropertyOp44
 70
     1
102
RTVSPropertyOp45
 70
     1
102
RTVSPropertyOp46
 70
     1
102
RTVSPropertyOp47
 70
     1
102
RTVSPropertyOp48
 70
     1
102
RTVSPropertyOp49
 70
     1
102
RTVSPropertyOp50
 70
     1
102
RTVSPropertyOp51
 70
     0
102
RTVSPropertyOp52
 70
     0
102
RTVSPropertyOp53
 70
     1
102
RTVSPropertyOp54
 70
     1
102
RTVSPropertyOp55
 70
     1
102
RTVSPropertyOp56
 70
     1
102
RTVSPropertyOp57
 70
     1
102
RTVSPropertyOp58
 70
     1
102
RTVSPropertyOp59
 70
     1
102
RTVSPropertyOp60
 70
     1
102
RTVSPropertyOp61
 70
     1
102
RTVSPropertyOp62
 70
     1
  0
XRECORD
  5
A34C
102
{ACAD_REACTORS
330
A34B
102
}
330
A34B
100
AcDbXrecord
280
     1
102
RTVSPost2010Prop28
280
     0
102
RTVSPost2010PropOp28
 70
     1
102
RTVSPost2010Prop29
280
     1
102
RTVSPost2010PropOp29
 70
     1
102
RTVSPost2010Prop30
280
     1
102
RTVSPost2010PropOp30
 70
     1
102
RTVSPost2010Prop31
280
     0
102
RTVSPost2010PropOp31
 70
     1
102
RTVSPost2010Prop32
280
     0
102
RTVSPost2010PropOp32
 70
     1
102
RTVSPost2010Prop33
280
     0
102
RTVSPost2010PropOp33
 70
     1
102
RTVSPost2010Prop34
280
     0
102
RTVSPost2010PropOp34
 70
     1
102
RTVSPost2010Prop35
280
     0
102
RTVSPost2010PropOp35
 70
     1
102
RTVSPost2010Prop36
280
     0
102
RTVSPost2010PropOp36
 70
     1
102
RTVSPost2010Prop37
 90
       50
102
RTVSPost2010PropOp37
 70
     1
102
RTVSPost2010Prop38
140
0.0
102
RTVSPost2010PropOp38
 70
     1
102
RTVSPost2010Prop39
140
1.0
102
RTVSPost2010PropOp39
 70
     1
102
RTVSPost2010Prop40
 90
        0
102
RTVSPost2010PropOp40
 70
     1
102
RTVSPost2010Prop41ColorIndex
 90
       18
102
RTVSPost2010Prop41ColorRGB
 90
        0
102
RTVSPost2010PropOp41
 70
     1
102
RTVSPost2010Prop42
 90
       50
102
RTVSPost2010PropOp42
 70
     1
102
RTVSPost2010Prop43
 90
        3
102
RTVSPost2010PropOp43
 70
     1
102
RTVSPost2010Prop44ColorIndex
 90
        5
102
RTVSPost2010Prop44ColorRGB
 90
      255
102
RTVSPost2010PropOp44
 70
     1
102
RTVSPost2010Prop45
280
     0
102
RTVSPost2010PropOp45
 70
     1
102
RTVSPost2010Prop46
 90
       50
102
RTVSPost2010PropOp46
 70
     1
102
RTVSPost2010Prop47
 90
       50
102
RTVSPost2010PropOp47
 70
     1
102
RTVSPost2010Prop48
 90
       50
102
RTVSPost2010PropOp48
 70
     1
102
RTVSPost2010Prop49
280
     0
102
RTVSPost2010PropOp49
 70
     1
102
RTVSPost2010Prop50
 90
       50
102
RTVSPost2010PropOp50
 70
     1
102
RTVSPost2010Prop51ColorIndex
 90
      256
102
RTVSPost2010Prop51ColorRGB
 90
-16777216
102
RTVSPost2010PropOp51
 70
     0
102
RTVSPost2010Prop52
140
1.0
102
RTVSPost2010PropOp52
 70
     0
102
RTVSPost2010Prop53
 90
        2
102
RTVSPost2010PropOp53
 70
     1
102
RTVSPost2010Prop54
  1
strokes_ogs.tif
102
RTVSPost2010PropOp54
 70
     1
102
RTVSPost2010Prop55
280
     0
102
RTVSPost2010PropOp55
 70
     1
102
RTVSPost2010Prop56
140
1.0
102
RTVSPost2010PropOp56
 70
     1
102
RTVSPost2010Prop57
140
1.0
102
RTVSPost2010PropOp57
 70
     1
102
RTVSPropertyOp0
 70
     1
102
RTVSPropertyOp1
 70
     1
102
RTVSPropertyOp2
 70
     1
102
RTVSPropertyOp3
 70
     1
102
RTVSPropertyOp4
 70
     1
102
RTVSPropertyOp5
 70
     1
102
RTVSPropertyOp6
 70
     1
102
RTVSPropertyOp7
 70
     1
102
RTVSPropertyOp8
 70
     1
102
RTVSPropertyOp9
 70
     1
102
RTVSPropertyOp10
 70
     1
102
RTVSPropertyOp11
 70
     1
102
RTVSPropertyOp12
 70
     1
102
RTVSPropertyOp13
 70
     1
102
RTVSPropertyOp14
 70
     1
102
RTVSPropertyOp15
 70
     1
102
RTVSPropertyOp16
 70
     1
102
RTVSPropertyOp17
 70
     1
102
RTVSPropertyOp18
 70
     1
102
RTVSPropertyOp19
 70
     1
102
RTVSPropertyOp20
 70
     1
102
RTVSPropertyOp21
 70
     1
102
RTVSPropertyOp22
 70
     1
102
RTVSPropertyOp23
 70
     1
102
RTVSPropertyOp24
 70
     1
102
RTVSPropertyOp25
 70
     1
102
RTVSPropertyOp26
 70
     1
102
RTVSPropertyOp27
 70
     1
102
RTVSPropertyOp28
 70
     1
102
RTVSPropertyOp29
 70
     1
102
RTVSPropertyOp30
 70
     1
102
RTVSPropertyOp31
 70
     1
102
RTVSPropertyOp32
 70
     1
102
RTVSPropertyOp33
 70
     1
102
RTVSPropertyOp34
 70
     1
102
RTVSPropertyOp35
 70
     1
102
RTVSPropertyOp36
 70
     1
102
RTVSPropertyOp37
 70
     1
102
RTVSPropertyOp38
 70
     1
102
RTVSPropertyOp39
 70
     1
102
RTVSPropertyOp40
 70
     1
102
RTVSPropertyOp41
 70
     1
102
RTVSPropertyOp42
 70
     1
102
RTVSPropertyOp43
 70
     1
102
RTVSPropertyOp44
 70
     1
102
RTVSPropertyOp45
 70
     1
102
RTVSPropertyOp46
 70
     1
102
RTVSPropertyOp47
 70
     1
102
RTVSPropertyOp48
 70
     1
102
RTVSPropertyOp49
 70
     1
102
RTVSPropertyOp50
 70
     1
102
RTVSPropertyOp51
 70
     0
102
RTVSPropertyOp52
 70
     0
102
RTVSPropertyOp53
 70
     1
102
RTVSPropertyOp54
 70
     1
102
RTVSPropertyOp55
 70
     1
102
RTVSPropertyOp56
 70
     1
102
RTVSPropertyOp57
 70
     1
102
RTVSPropertyOp58
 70
     1
102
RTVSPropertyOp59
 70
     1
102
RTVSPropertyOp60
 70
     1
102
RTVSPropertyOp61
 70
     1
102
RTVSPropertyOp62
 70
     1
  0
XRECORD
  5
A34E
102
{ACAD_REACTORS
330
A34D
102
}
330
A34D
100
AcDbXrecord
280
     1
102
RTVSPost2010Prop28
280
     0
102
RTVSPost2010PropOp28
 70
     1
102
RTVSPost2010Prop29
280
     1
102
RTVSPost2010PropOp29
 70
     1
102
RTVSPost2010Prop30
280
     1
102
RTVSPost2010PropOp30
 70
     1
102
RTVSPost2010Prop31
280
     0
102
RTVSPost2010PropOp31
 70
     1
102
RTVSPost2010Prop32
280
     0
102
RTVSPost2010PropOp32
 70
     1
102
RTVSPost2010Prop33
280
     0
102
RTVSPost2010PropOp33
 70
     1
102
RTVSPost2010Prop34
280
     0
102
RTVSPost2010PropOp34
 70
     1
102
RTVSPost2010Prop35
280
     0
102
RTVSPost2010PropOp35
 70
     1
102
RTVSPost2010Prop36
280
     0
102
RTVSPost2010PropOp36
 70
     1
102
RTVSPost2010Prop37
 90
       50
102
RTVSPost2010PropOp37
 70
     1
102
RTVSPost2010Prop38
140
0.0
102
RTVSPost2010PropOp38
 70
     1
102
RTVSPost2010Prop39
140
1.0
102
RTVSPost2010PropOp39
 70
     1
102
RTVSPost2010Prop40
 90
        0
102
RTVSPost2010PropOp40
 70
     1
102
RTVSPost2010Prop41ColorIndex
 90
       18
102
RTVSPost2010Prop41ColorRGB
 90
        0
102
RTVSPost2010PropOp41
 70
     1
102
RTVSPost2010Prop42
 90
       50
102
RTVSPost2010PropOp42
 70
     1
102
RTVSPost2010Prop43
 90
        3
102
RTVSPost2010PropOp43
 70
     1
102
RTVSPost2010Prop44ColorIndex
 90
        5
102
RTVSPost2010Prop44ColorRGB
 90
      255
102
RTVSPost2010PropOp44
 70
     1
102
RTVSPost2010Prop45
280
     0
102
RTVSPost2010PropOp45
 70
     1
102
RTVSPost2010Prop46
 90
       50
102
RTVSPost2010PropOp46
 70
     1
102
RTVSPost2010Prop47
 90
       50
102
RTVSPost2010PropOp47
 70
     1
102
RTVSPost2010Prop48
 90
       50
102
RTVSPost2010PropOp48
 70
     1
102
RTVSPost2010Prop49
280
     0
102
RTVSPost2010PropOp49
 70
     1
102
RTVSPost2010Prop50
 90
       50
102
RTVSPost2010PropOp50
 70
     1
102
RTVSPost2010Prop51ColorIndex
 90
      256
102
RTVSPost2010Prop51ColorRGB
 90
-16777216
102
RTVSPost2010PropOp51
 70
     0
102
RTVSPost2010Prop52
140
1.0
102
RTVSPost2010PropOp52
 70
     0
102
RTVSPost2010Prop53
 90
        2
102
RTVSPost2010PropOp53
 70
     1
102
RTVSPost2010Prop54
  1
strokes_ogs.tif
102
RTVSPost2010PropOp54
 70
     1
102
RTVSPost2010Prop55
280
     0
102
RTVSPost2010PropOp55
 70
     1
102
RTVSPost2010Prop56
140
1.0
102
RTVSPost2010PropOp56
 70
     1
102
RTVSPost2010Prop57
140
1.0
102
RTVSPost2010PropOp57
 70
     1
102
RTVSPropertyOp0
 70
     1
102
RTVSPropertyOp1
 70
     1
102
RTVSPropertyOp2
 70
     1
102
RTVSPropertyOp3
 70
     1
102
RTVSPropertyOp4
 70
     1
102
RTVSPropertyOp5
 70
     1
102
RTVSPropertyOp6
 70
     1
102
RTVSPropertyOp7
 70
     1
102
RTVSPropertyOp8
 70
     1
102
RTVSPropertyOp9
 70
     1
102
RTVSPropertyOp10
 70
     1
102
RTVSPropertyOp11
 70
     1
102
RTVSPropertyOp12
 70
     1
102
RTVSPropertyOp13
 70
     1
102
RTVSPropertyOp14
 70
     1
102
RTVSPropertyOp15
 70
     1
102
RTVSPropertyOp16
 70
     1
102
RTVSPropertyOp17
 70
     1
102
RTVSPropertyOp18
 70
     1
102
RTVSPropertyOp19
 70
     1
102
RTVSPropertyOp20
 70
     1
102
RTVSPropertyOp21
 70
     1
102
RTVSPropertyOp22
 70
     1
102
RTVSPropertyOp23
 70
     1
102
RTVSPropertyOp24
 70
     1
102
RTVSPropertyOp25
 70
     1
102
RTVSPropertyOp26
 70
     1
102
RTVSPropertyOp27
 70
     1
102
RTVSPropertyOp28
 70
     1
102
RTVSPropertyOp29
 70
     1
102
RTVSPropertyOp30
 70
     1
102
RTVSPropertyOp31
 70
     1
102
RTVSPropertyOp32
 70
     1
102
RTVSPropertyOp33
 70
     1
102
RTVSPropertyOp34
 70
     1
102
RTVSPropertyOp35
 70
     1
102
RTVSPropertyOp36
 70
     1
102
RTVSPropertyOp37
 70
     1
102
RTVSPropertyOp38
 70
     1
102
RTVSPropertyOp39
 70
     1
102
RTVSPropertyOp40
 70
     1
102
RTVSPropertyOp41
 70
     1
102
RTVSPropertyOp42
 70
     1
102
RTVSPropertyOp43
 70
     1
102
RTVSPropertyOp44
 70
     1
102
RTVSPropertyOp45
 70
     1
102
RTVSPropertyOp46
 70
     1
102
RTVSPropertyOp47
 70
     1
102
RTVSPropertyOp48
 70
     1
102
RTVSPropertyOp49
 70
     1
102
RTVSPropertyOp50
 70
     1
102
RTVSPropertyOp51
 70
     0
102
RTVSPropertyOp52
 70
     0
102
RTVSPropertyOp53
 70
     1
102
RTVSPropertyOp54
 70
     1
102
RTVSPropertyOp55
 70
     1
102
RTVSPropertyOp56
 70
     1
102
RTVSPropertyOp57
 70
     1
102
RTVSPropertyOp58
 70
     1
102
RTVSPropertyOp59
 70
     1
102
RTVSPropertyOp60
 70
     1
102
RTVSPropertyOp61
 70
     1
102
RTVSPropertyOp62
 70
     1
  0
XRECORD
  5
A356
102
{ACAD_REACTORS
330
A355
102
}
330
A355
100
AcDbXrecord
280
     1
102
RTVSPost2010Prop28
280
     0
102
RTVSPost2010PropOp28
 70
     1
102
RTVSPost2010Prop29
280
     1
102
RTVSPost2010PropOp29
 70
     1
102
RTVSPost2010Prop30
280
     1
102
RTVSPost2010PropOp30
 70
     1
102
RTVSPost2010Prop31
280
     0
102
RTVSPost2010PropOp31
 70
     1
102
RTVSPost2010Prop32
280
     0
102
RTVSPost2010PropOp32
 70
     1
102
RTVSPost2010Prop33
280
     0
102
RTVSPost2010PropOp33
 70
     1
102
RTVSPost2010Prop34
280
     0
102
RTVSPost2010PropOp34
 70
     1
102
RTVSPost2010Prop35
280
     0
102
RTVSPost2010PropOp35
 70
     1
102
RTVSPost2010Prop36
280
     0
102
RTVSPost2010PropOp36
 70
     1
102
RTVSPost2010Prop37
 90
       50
102
RTVSPost2010PropOp37
 70
     1
102
RTVSPost2010Prop38
140
0.0
102
RTVSPost2010PropOp38
 70
     1
102
RTVSPost2010Prop39
140
1.0
102
RTVSPost2010PropOp39
 70
     1
102
RTVSPost2010Prop40
 90
        0
102
RTVSPost2010PropOp40
 70
     1
102
RTVSPost2010Prop41ColorIndex
 90
       18
102
RTVSPost2010Prop41ColorRGB
 90
        0
102
RTVSPost2010PropOp41
 70
     1
102
RTVSPost2010Prop42
 90
       50
102
RTVSPost2010PropOp42
 70
     1
102
RTVSPost2010Prop43
 90
        3
102
RTVSPost2010PropOp43
 70
     1
102
RTVSPost2010Prop44ColorIndex
 90
        5
102
RTVSPost2010Prop44ColorRGB
 90
      255
102
RTVSPost2010PropOp44
 70
     1
102
RTVSPost2010Prop45
280
     0
102
RTVSPost2010PropOp45
 70
     1
102
RTVSPost2010Prop46
 90
       50
102
RTVSPost2010PropOp46
 70
     1
102
RTVSPost2010Prop47
 90
       50
102
RTVSPost2010PropOp47
 70
     1
102
RTVSPost2010Prop48
 90
       50
102
RTVSPost2010PropOp48
 70
     1
102
RTVSPost2010Prop49
280
     0
102
RTVSPost2010PropOp49
 70
     1
102
RTVSPost2010Prop50
 90
       50
102
RTVSPost2010PropOp50
 70
     1
102
RTVSPost2010Prop51ColorIndex
 90
      256
102
RTVSPost2010Prop51ColorRGB
 90
-16777216
102
RTVSPost2010PropOp51
 70
     0
102
RTVSPost2010Prop52
140
1.0
102
RTVSPost2010PropOp52
 70
     0
102
RTVSPost2010Prop53
 90
        2
102
RTVSPost2010PropOp53
 70
     1
102
RTVSPost2010Prop54
  1
strokes_ogs.tif
102
RTVSPost2010PropOp54
 70
     1
102
RTVSPost2010Prop55
280
     0
102
RTVSPost2010PropOp55
 70
     1
102
RTVSPost2010Prop56
140
1.0
102
RTVSPost2010PropOp56
 70
     1
102
RTVSPost2010Prop57
140
1.0
102
RTVSPost2010PropOp57
 70
     1
102
RTVSPropertyOp0
 70
     1
102
RTVSPropertyOp1
 70
     1
102
RTVSPropertyOp2
 70
     1
102
RTVSPropertyOp3
 70
     1
102
RTVSPropertyOp4
 70
     1
102
RTVSPropertyOp5
 70
     1
102
RTVSPropertyOp6
 70
     1
102
RTVSPropertyOp7
 70
     1
102
RTVSPropertyOp8
 70
     1
102
RTVSPropertyOp9
 70
     1
102
RTVSPropertyOp10
 70
     1
102
RTVSPropertyOp11
 70
     1
102
RTVSPropertyOp12
 70
     1
102
RTVSPropertyOp13
 70
     1
102
RTVSPropertyOp14
 70
     1
102
RTVSPropertyOp15
 70
     1
102
RTVSPropertyOp16
 70
     1
102
RTVSPropertyOp17
 70
     1
102
RTVSPropertyOp18
 70
     1
102
RTVSPropertyOp19
 70
     1
102
RTVSPropertyOp20
 70
     1
102
RTVSPropertyOp21
 70
     1
102
RTVSPropertyOp22
 70
     1
102
RTVSPropertyOp23
 70
     1
102
RTVSPropertyOp24
 70
     1
102
RTVSPropertyOp25
 70
     1
102
RTVSPropertyOp26
 70
     1
102
RTVSPropertyOp27
 70
     1
102
RTVSPropertyOp28
 70
     1
102
RTVSPropertyOp29
 70
     1
102
RTVSPropertyOp30
 70
     1
102
RTVSPropertyOp31
 70
     1
102
RTVSPropertyOp32
 70
     1
102
RTVSPropertyOp33
 70
     1
102
RTVSPropertyOp34
 70
     1
102
RTVSPropertyOp35
 70
     1
102
RTVSPropertyOp36
 70
     1
102
RTVSPropertyOp37
 70
     1
102
RTVSPropertyOp38
 70
     1
102
RTVSPropertyOp39
 70
     1
102
RTVSPropertyOp40
 70
     1
102
RTVSPropertyOp41
 70
     1
102
RTVSPropertyOp42
 70
     1
102
RTVSPropertyOp43
 70
     1
102
RTVSPropertyOp44
 70
     1
102
RTVSPropertyOp45
 70
     1
102
RTVSPropertyOp46
 70
     1
102
RTVSPropertyOp47
 70
     1
102
RTVSPropertyOp48
 70
     1
102
RTVSPropertyOp49
 70
     1
102
RTVSPropertyOp50
 70
     1
102
RTVSPropertyOp51
 70
     0
102
RTVSPropertyOp52
 70
     0
102
RTVSPropertyOp53
 70
     1
102
RTVSPropertyOp54
 70
     1
102
RTVSPropertyOp55
 70
     1
102
RTVSPropertyOp56
 70
     1
102
RTVSPropertyOp57
 70
     1
102
RTVSPropertyOp58
 70
     1
102
RTVSPropertyOp59
 70
     1
102
RTVSPropertyOp60
 70
     1
102
RTVSPropertyOp61
 70
     1
102
RTVSPropertyOp62
 70
     1
  0
XRECORD
  5
A372
102
{ACAD_REACTORS
330
A371
102
}
330
A371
100
AcDbXrecord
280
     1
102
RTVSPost2010Prop28
280
     0
102
RTVSPost2010PropOp28
 70
     1
102
RTVSPost2010Prop29
280
     1
102
RTVSPost2010PropOp29
 70
     1
102
RTVSPost2010Prop30
280
     1
102
RTVSPost2010PropOp30
 70
     1
102
RTVSPost2010Prop31
280
     0
102
RTVSPost2010PropOp31
 70
     1
102
RTVSPost2010Prop32
280
     0
102
RTVSPost2010PropOp32
 70
     1
102
RTVSPost2010Prop33
280
     0
102
RTVSPost2010PropOp33
 70
     1
102
RTVSPost2010Prop34
280
     0
102
RTVSPost2010PropOp34
 70
     1
102
RTVSPost2010Prop35
280
     0
102
RTVSPost2010PropOp35
 70
     1
102
RTVSPost2010Prop36
280
     0
102
RTVSPost2010PropOp36
 70
     1
102
RTVSPost2010Prop37
 90
       50
102
RTVSPost2010PropOp37
 70
     0
102
RTVSPost2010Prop38
140
0.0
102
RTVSPost2010PropOp38
 70
     0
102
RTVSPost2010Prop39
140
1.0
102
RTVSPost2010PropOp39
 70
     0
102
RTVSPost2010Prop40
 90
        0
102
RTVSPost2010PropOp40
 70
     0
102
RTVSPost2010Prop41ColorIndex
 90
       18
102
RTVSPost2010Prop41ColorRGB
 90
        0
102
RTVSPost2010PropOp41
 70
     0
102
RTVSPost2010Prop42
 90
       50
102
RTVSPost2010PropOp42
 70
     0
102
RTVSPost2010Prop43
 90
        3
102
RTVSPost2010PropOp43
 70
     0
102
RTVSPost2010Prop44ColorIndex
 90
        5
102
RTVSPost2010Prop44ColorRGB
 90
      255
102
RTVSPost2010PropOp44
 70
     0
102
RTVSPost2010Prop45
280
     0
102
RTVSPost2010PropOp45
 70
     1
102
RTVSPost2010Prop46
 90
       50
102
RTVSPost2010PropOp46
 70
     0
102
RTVSPost2010Prop47
 90
       50
102
RTVSPost2010PropOp47
 70
     0
102
RTVSPost2010Prop48
 90
       50
102
RTVSPost2010PropOp48
 70
     0
102
RTVSPost2010Prop49
280
     0
102
RTVSPost2010PropOp49
 70
     1
102
RTVSPost2010Prop50
 90
       50
102
RTVSPost2010PropOp50
 70
     0
102
RTVSPost2010Prop51ColorIndex
 90
      256
102
RTVSPost2010Prop51ColorRGB
 90
-16777216
102
RTVSPost2010PropOp51
 70
     0
102
RTVSPost2010Prop52
140
1.0
102
RTVSPost2010PropOp52
 70
     0
102
RTVSPost2010Prop53
 90
        2
102
RTVSPost2010PropOp53
 70
     0
102
RTVSPost2010Prop54
  1
strokes_ogs.tif
102
RTVSPost2010PropOp54
 70
     0
102
RTVSPost2010Prop55
280
     0
102
RTVSPost2010PropOp55
 70
     1
102
RTVSPost2010Prop56
140
1.0
102
RTVSPost2010PropOp56
 70
     0
102
RTVSPost2010Prop57
140
1.0
102
RTVSPost2010PropOp57
 70
     0
102
RTVSPropertyOp0
 70
     0
102
RTVSPropertyOp1
 70
     0
102
RTVSPropertyOp2
 70
     0
102
RTVSPropertyOp3
 70
     0
102
RTVSPropertyOp4
 70
     0
102
RTVSPropertyOp5
 70
     0
102
RTVSPropertyOp6
 70
     0
102
RTVSPropertyOp7
 70
     0
102
RTVSPropertyOp8
 70
     0
102
RTVSPropertyOp9
 70
     0
102
RTVSPropertyOp10
 70
     0
102
RTVSPropertyOp11
 70
     0
102
RTVSPropertyOp12
 70
     0
102
RTVSPropertyOp13
 70
     0
102
RTVSPropertyOp14
 70
     2
102
RTVSPropertyOp15
 70
     0
102
RTVSPropertyOp16
 70
     0
102
RTVSPropertyOp17
 70
     0
102
RTVSPropertyOp18
 70
     0
102
RTVSPropertyOp19
 70
     0
102
RTVSPropertyOp20
 70
     0
102
RTVSPropertyOp21
 70
     0
102
RTVSPropertyOp22
 70
     0
102
RTVSPropertyOp23
 70
     0
102
RTVSPropertyOp24
 70
     0
102
RTVSPropertyOp25
 70
     0
102
RTVSPropertyOp26
 70
     0
102
RTVSPropertyOp27
 70
     0
102
RTVSPropertyOp28
 70
     1
102
RTVSPropertyOp29
 70
     1
102
RTVSPropertyOp30
 70
     1
102
RTVSPropertyOp31
 70
     1
102
RTVSPropertyOp32
 70
     1
102
RTVSPropertyOp33
 70
     1
102
RTVSPropertyOp34
 70
     1
102
RTVSPropertyOp35
 70
     1
102
RTVSPropertyOp36
 70
     1
102
RTVSPropertyOp37
 70
     0
102
RTVSPropertyOp38
 70
     0
102
RTVSPropertyOp39
 70
     0
102
RTVSPropertyOp40
 70
     0
102
RTVSPropertyOp41
 70
     0
102
RTVSPropertyOp42
 70
     0
102
RTVSPropertyOp43
 70
     0
102
RTVSPropertyOp44
 70
     0
102
RTVSPropertyOp45
 70
     1
102
RTVSPropertyOp46
 70
     0
102
RTVSPropertyOp47
 70
     0
102
RTVSPropertyOp48
 70
     0
102
RTVSPropertyOp49
 70
     1
102
RTVSPropertyOp50
 70
     0
102
RTVSPropertyOp51
 70
     0
102
RTVSPropertyOp52
 70
     0
102
RTVSPropertyOp53
 70
     0
102
RTVSPropertyOp54
 70
     0
102
RTVSPropertyOp55
 70
     1
102
RTVSPropertyOp56
 70
     0
102
RTVSPropertyOp57
 70
     0
102
RTVSPropertyOp58
 70
     0
102
RTVSPropertyOp59
 70
     0
102
RTVSPropertyOp60
 70
     0
102
RTVSPropertyOp61
 70
     0
102
RTVSPropertyOp62
 70
     0
  0
XRECORD
  5
A362
102
{ACAD_REACTORS
330
A361
102
}
330
A361
100
AcDbXrecord
280
     1
102
RTVSPost2010Prop28
280
     0
102
RTVSPost2010PropOp28
 70
     1
102
RTVSPost2010Prop29
280
     1
102
RTVSPost2010PropOp29
 70
     1
102
RTVSPost2010Prop30
280
     1
102
RTVSPost2010PropOp30
 70
     1
102
RTVSPost2010Prop31
280
     0
102
RTVSPost2010PropOp31
 70
     1
102
RTVSPost2010Prop32
280
     0
102
RTVSPost2010PropOp32
 70
     1
102
RTVSPost2010Prop33
280
     0
102
RTVSPost2010PropOp33
 70
     1
102
RTVSPost2010Prop34
280
     0
102
RTVSPost2010PropOp34
 70
     1
102
RTVSPost2010Prop35
280
     0
102
RTVSPost2010PropOp35
 70
     1
102
RTVSPost2010Prop36
280
     0
102
RTVSPost2010PropOp36
 70
     1
102
RTVSPost2010Prop37
 90
       50
102
RTVSPost2010PropOp37
 70
     1
102
RTVSPost2010Prop38
140
0.0
102
RTVSPost2010PropOp38
 70
     1
102
RTVSPost2010Prop39
140
1.0
102
RTVSPost2010PropOp39
 70
     1
102
RTVSPost2010Prop40
 90
        0
102
RTVSPost2010PropOp40
 70
     1
102
RTVSPost2010Prop41ColorIndex
 90
       18
102
RTVSPost2010Prop41ColorRGB
 90
        0
102
RTVSPost2010PropOp41
 70
     1
102
RTVSPost2010Prop42
 90
       50
102
RTVSPost2010PropOp42
 70
     1
102
RTVSPost2010Prop43
 90
        3
102
RTVSPost2010PropOp43
 70
     1
102
RTVSPost2010Prop44ColorIndex
 90
        5
102
RTVSPost2010Prop44ColorRGB
 90
      255
102
RTVSPost2010PropOp44
 70
     1
102
RTVSPost2010Prop45
280
     0
102
RTVSPost2010PropOp45
 70
     1
102
RTVSPost2010Prop46
 90
       50
102
RTVSPost2010PropOp46
 70
     1
102
RTVSPost2010Prop47
 90
       50
102
RTVSPost2010PropOp47
 70
     1
102
RTVSPost2010Prop48
 90
       50
102
RTVSPost2010PropOp48
 70
     1
102
RTVSPost2010Prop49
280
     0
102
RTVSPost2010PropOp49
 70
     1
102
RTVSPost2010Prop50
 90
       50
102
RTVSPost2010PropOp50
 70
     1
102
RTVSPost2010Prop51ColorIndex
 90
      256
102
RTVSPost2010Prop51ColorRGB
 90
-16777216
102
RTVSPost2010PropOp51
 70
     0
102
RTVSPost2010Prop52
140
1.0
102
RTVSPost2010PropOp52
 70
     0
102
RTVSPost2010Prop53
 90
        2
102
RTVSPost2010PropOp53
 70
     1
102
RTVSPost2010Prop54
  1
strokes_ogs.tif
102
RTVSPost2010PropOp54
 70
     1
102
RTVSPost2010Prop55
280
     0
102
RTVSPost2010PropOp55
 70
     1
102
RTVSPost2010Prop56
140
1.0
102
RTVSPost2010PropOp56
 70
     1
102
RTVSPost2010Prop57
140
1.0
102
RTVSPost2010PropOp57
 70
     1
102
RTVSPropertyOp0
 70
     1
102
RTVSPropertyOp1
 70
     1
102
RTVSPropertyOp2
 70
     1
102
RTVSPropertyOp3
 70
     1
102
RTVSPropertyOp4
 70
     1
102
RTVSPropertyOp5
 70
     1
102
RTVSPropertyOp6
 70
     1
102
RTVSPropertyOp7
 70
     1
102
RTVSPropertyOp8
 70
     1
102
RTVSPropertyOp9
 70
     1
102
RTVSPropertyOp10
 70
     1
102
RTVSPropertyOp11
 70
     1
102
RTVSPropertyOp12
 70
     1
102
RTVSPropertyOp13
 70
     1
102
RTVSPropertyOp14
 70
     1
102
RTVSPropertyOp15
 70
     1
102
RTVSPropertyOp16
 70
     1
102
RTVSPropertyOp17
 70
     1
102
RTVSPropertyOp18
 70
     1
102
RTVSPropertyOp19
 70
     1
102
RTVSPropertyOp20
 70
     1
102
RTVSPropertyOp21
 70
     1
102
RTVSPropertyOp22
 70
     1
102
RTVSPropertyOp23
 70
     1
102
RTVSPropertyOp24
 70
     1
102
RTVSPropertyOp25
 70
     1
102
RTVSPropertyOp26
 70
     1
102
RTVSPropertyOp27
 70
     1
102
RTVSPropertyOp28
 70
     1
102
RTVSPropertyOp29
 70
     1
102
RTVSPropertyOp30
 70
     1
102
RTVSPropertyOp31
 70
     1
102
RTVSPropertyOp32
 70
     1
102
RTVSPropertyOp33
 70
     1
102
RTVSPropertyOp34
 70
     1
102
RTVSPropertyOp35
 70
     1
102
RTVSPropertyOp36
 70
     1
102
RTVSPropertyOp37
 70
     1
102
RTVSPropertyOp38
 70
     1
102
RTVSPropertyOp39
 70
     1
102
RTVSPropertyOp40
 70
     1
102
RTVSPropertyOp41
 70
     1
102
RTVSPropertyOp42
 70
     1
102
RTVSPropertyOp43
 70
     1
102
RTVSPropertyOp44
 70
     1
102
RTVSPropertyOp45
 70
     1
102
RTVSPropertyOp46
 70
     1
102
RTVSPropertyOp47
 70
     1
102
RTVSPropertyOp48
 70
     1
102
RTVSPropertyOp49
 70
     1
102
RTVSPropertyOp50
 70
     1
102
RTVSPropertyOp51
 70
     0
102
RTVSPropertyOp52
 70
     0
102
RTVSPropertyOp53
 70
     1
102
RTVSPropertyOp54
 70
     1
102
RTVSPropertyOp55
 70
     1
102
RTVSPropertyOp56
 70
     1
102
RTVSPropertyOp57
 70
     1
102
RTVSPropertyOp58
 70
     1
102
RTVSPropertyOp59
 70
     1
102
RTVSPropertyOp60
 70
     1
102
RTVSPropertyOp61
 70
     1
102
RTVSPropertyOp62
 70
     1
  0
XRECORD
  5
A374
102
{ACAD_REACTORS
330
A373
102
}
330
A373
100
AcDbXrecord
280
     1
102
RTVSPost2010Prop28
280
     0
102
RTVSPost2010PropOp28
 70
     1
102
RTVSPost2010Prop29
280
     1
102
RTVSPost2010PropOp29
 70
     1
102
RTVSPost2010Prop30
280
     1
102
RTVSPost2010PropOp30
 70
     1
102
RTVSPost2010Prop31
280
     0
102
RTVSPost2010PropOp31
 70
     1
102
RTVSPost2010Prop32
280
     0
102
RTVSPost2010PropOp32
 70
     1
102
RTVSPost2010Prop33
280
     0
102
RTVSPost2010PropOp33
 70
     1
102
RTVSPost2010Prop34
280
     0
102
RTVSPost2010PropOp34
 70
     1
102
RTVSPost2010Prop35
280
     0
102
RTVSPost2010PropOp35
 70
     1
102
RTVSPost2010Prop36
280
     0
102
RTVSPost2010PropOp36
 70
     1
102
RTVSPost2010Prop37
 90
       50
102
RTVSPost2010PropOp37
 70
     0
102
RTVSPost2010Prop38
140
0.0
102
RTVSPost2010PropOp38
 70
     0
102
RTVSPost2010Prop39
140
1.0
102
RTVSPost2010PropOp39
 70
     0
102
RTVSPost2010Prop40
 90
        0
102
RTVSPost2010PropOp40
 70
     0
102
RTVSPost2010Prop41ColorIndex
 90
       18
102
RTVSPost2010Prop41ColorRGB
 90
        0
102
RTVSPost2010PropOp41
 70
     0
102
RTVSPost2010Prop42
 90
       50
102
RTVSPost2010PropOp42
 70
     0
102
RTVSPost2010Prop43
 90
        3
102
RTVSPost2010PropOp43
 70
     0
102
RTVSPost2010Prop44ColorIndex
 90
        5
102
RTVSPost2010Prop44ColorRGB
 90
      255
102
RTVSPost2010PropOp44
 70
     0
102
RTVSPost2010Prop45
280
     0
102
RTVSPost2010PropOp45
 70
     1
102
RTVSPost2010Prop46
 90
       50
102
RTVSPost2010PropOp46
 70
     0
102
RTVSPost2010Prop47
 90
       50
102
RTVSPost2010PropOp47
 70
     0
102
RTVSPost2010Prop48
 90
       50
102
RTVSPost2010PropOp48
 70
     0
102
RTVSPost2010Prop49
280
     0
102
RTVSPost2010PropOp49
 70
     1
102
RTVSPost2010Prop50
 90
       50
102
RTVSPost2010PropOp50
 70
     0
102
RTVSPost2010Prop51ColorIndex
 90
      256
102
RTVSPost2010Prop51ColorRGB
 90
-16777216
102
RTVSPost2010PropOp51
 70
     0
102
RTVSPost2010Prop52
140
1.0
102
RTVSPost2010PropOp52
 70
     0
102
RTVSPost2010Prop53
 90
        2
102
RTVSPost2010PropOp53
 70
     0
102
RTVSPost2010Prop54
  1
strokes_ogs.tif
102
RTVSPost2010PropOp54
 70
     0
102
RTVSPost2010Prop55
280
     0
102
RTVSPost2010PropOp55
 70
     1
102
RTVSPost2010Prop56
140
1.0
102
RTVSPost2010PropOp56
 70
     0
102
RTVSPost2010Prop57
140
1.0
102
RTVSPost2010PropOp57
 70
     0
102
RTVSPropertyOp0
 70
     0
102
RTVSPropertyOp1
 70
     0
102
RTVSPropertyOp2
 70
     0
102
RTVSPropertyOp3
 70
     0
102
RTVSPropertyOp4
 70
     0
102
RTVSPropertyOp5
 70
     0
102
RTVSPropertyOp6
 70
     0
102
RTVSPropertyOp7
 70
     0
102
RTVSPropertyOp8
 70
     0
102
RTVSPropertyOp9
 70
     0
102
RTVSPropertyOp10
 70
     0
102
RTVSPropertyOp11
 70
     0
102
RTVSPropertyOp12
 70
     0
102
RTVSPropertyOp13
 70
     0
102
RTVSPropertyOp14
 70
     2
102
RTVSPropertyOp15
 70
     0
102
RTVSPropertyOp16
 70
     0
102
RTVSPropertyOp17
 70
     0
102
RTVSPropertyOp18
 70
     0
102
RTVSPropertyOp19
 70
     0
102
RTVSPropertyOp20
 70
     0
102
RTVSPropertyOp21
 70
     0
102
RTVSPropertyOp22
 70
     0
102
RTVSPropertyOp23
 70
     0
102
RTVSPropertyOp24
 70
     0
102
RTVSPropertyOp25
 70
     0
102
RTVSPropertyOp26
 70
     0
102
RTVSPropertyOp27
 70
     0
102
RTVSPropertyOp28
 70
     1
102
RTVSPropertyOp29
 70
     1
102
RTVSPropertyOp30
 70
     1
102
RTVSPropertyOp31
 70
     1
102
RTVSPropertyOp32
 70
     1
102
RTVSPropertyOp33
 70
     1
102
RTVSPropertyOp34
 70
     1
102
RTVSPropertyOp35
 70
     1
102
RTVSPropertyOp36
 70
     1
102
RTVSPropertyOp37
 70
     0
102
RTVSPropertyOp38
 70
     0
102
RTVSPropertyOp39
 70
     0
102
RTVSPropertyOp40
 70
     0
102
RTVSPropertyOp41
 70
     0
102
RTVSPropertyOp42
 70
     0
102
RTVSPropertyOp43
 70
     0
102
RTVSPropertyOp44
 70
     0
102
RTVSPropertyOp45
 70
     1
102
RTVSPropertyOp46
 70
     0
102
RTVSPropertyOp47
 70
     0
102
RTVSPropertyOp48
 70
     0
102
RTVSPropertyOp49
 70
     1
102
RTVSPropertyOp50
 70
     0
102
RTVSPropertyOp51
 70
     0
102
RTVSPropertyOp52
 70
     0
102
RTVSPropertyOp53
 70
     0
102
RTVSPropertyOp54
 70
     0
102
RTVSPropertyOp55
 70
     1
102
RTVSPropertyOp56
 70
     0
102
RTVSPropertyOp57
 70
     0
102
RTVSPropertyOp58
 70
     0
102
RTVSPropertyOp59
 70
     0
102
RTVSPropertyOp60
 70
     0
102
RTVSPropertyOp61
 70
     0
102
RTVSPropertyOp62
 70
     0
  0
XRECORD
  5
A35A
102
{ACAD_REACTORS
330
A359
102
}
330
A359
100
AcDbXrecord
280
     1
102
RTVSPost2010Prop28
280
     0
102
RTVSPost2010PropOp28
 70
     1
102
RTVSPost2010Prop29
280
     1
102
RTVSPost2010PropOp29
 70
     1
102
RTVSPost2010Prop30
280
     1
102
RTVSPost2010PropOp30
 70
     1
102
RTVSPost2010Prop31
280
     0
102
RTVSPost2010PropOp31
 70
     1
102
RTVSPost2010Prop32
280
     0
102
RTVSPost2010PropOp32
 70
     1
102
RTVSPost2010Prop33
280
     0
102
RTVSPost2010PropOp33
 70
     1
102
RTVSPost2010Prop34
280
     0
102
RTVSPost2010PropOp34
 70
     1
102
RTVSPost2010Prop35
280
     0
102
RTVSPost2010PropOp35
 70
     1
102
RTVSPost2010Prop36
280
     0
102
RTVSPost2010PropOp36
 70
     1
102
RTVSPost2010Prop37
 90
       50
102
RTVSPost2010PropOp37
 70
     1
102
RTVSPost2010Prop38
140
0.0
102
RTVSPost2010PropOp38
 70
     1
102
RTVSPost2010Prop39
140
1.0
102
RTVSPost2010PropOp39
 70
     1
102
RTVSPost2010Prop40
 90
        0
102
RTVSPost2010PropOp40
 70
     1
102
RTVSPost2010Prop41ColorIndex
 90
       18
102
RTVSPost2010Prop41ColorRGB
 90
        0
102
RTVSPost2010PropOp41
 70
     1
102
RTVSPost2010Prop42
 90
       50
102
RTVSPost2010PropOp42
 70
     1
102
RTVSPost2010Prop43
 90
        3
102
RTVSPost2010PropOp43
 70
     1
102
RTVSPost2010Prop44ColorIndex
 90
        5
102
RTVSPost2010Prop44ColorRGB
 90
      255
102
RTVSPost2010PropOp44
 70
     1
102
RTVSPost2010Prop45
280
     0
102
RTVSPost2010PropOp45
 70
     1
102
RTVSPost2010Prop46
 90
       50
102
RTVSPost2010PropOp46
 70
     1
102
RTVSPost2010Prop47
 90
       50
102
RTVSPost2010PropOp47
 70
     1
102
RTVSPost2010Prop48
 90
       50
102
RTVSPost2010PropOp48
 70
     1
102
RTVSPost2010Prop49
280
     0
102
RTVSPost2010PropOp49
 70
     1
102
RTVSPost2010Prop50
 90
       50
102
RTVSPost2010PropOp50
 70
     1
102
RTVSPost2010Prop51ColorIndex
 90
      256
102
RTVSPost2010Prop51ColorRGB
 90
-16777216
102
RTVSPost2010PropOp51
 70
     0
102
RTVSPost2010Prop52
140
1.0
102
RTVSPost2010PropOp52
 70
     0
102
RTVSPost2010Prop53
 90
        2
102
RTVSPost2010PropOp53
 70
     1
102
RTVSPost2010Prop54
  1
strokes_ogs.tif
102
RTVSPost2010PropOp54
 70
     1
102
RTVSPost2010Prop55
280
     0
102
RTVSPost2010PropOp55
 70
     1
102
RTVSPost2010Prop56
140
1.0
102
RTVSPost2010PropOp56
 70
     1
102
RTVSPost2010Prop57
140
1.0
102
RTVSPost2010PropOp57
 70
     1
102
RTVSPropertyOp0
 70
     1
102
RTVSPropertyOp1
 70
     1
102
RTVSPropertyOp2
 70
     1
102
RTVSPropertyOp3
 70
     1
102
RTVSPropertyOp4
 70
     1
102
RTVSPropertyOp5
 70
     1
102
RTVSPropertyOp6
 70
     1
102
RTVSPropertyOp7
 70
     1
102
RTVSPropertyOp8
 70
     1
102
RTVSPropertyOp9
 70
     1
102
RTVSPropertyOp10
 70
     1
102
RTVSPropertyOp11
 70
     1
102
RTVSPropertyOp12
 70
     1
102
RTVSPropertyOp13
 70
     1
102
RTVSPropertyOp14
 70
     1
102
RTVSPropertyOp15
 70
     1
102
RTVSPropertyOp16
 70
     1
102
RTVSPropertyOp17
 70
     1
102
RTVSPropertyOp18
 70
     1
102
RTVSPropertyOp19
 70
     1
102
RTVSPropertyOp20
 70
     1
102
RTVSPropertyOp21
 70
     1
102
RTVSPropertyOp22
 70
     1
102
RTVSPropertyOp23
 70
     1
102
RTVSPropertyOp24
 70
     1
102
RTVSPropertyOp25
 70
     1
102
RTVSPropertyOp26
 70
     1
102
RTVSPropertyOp27
 70
     1
102
RTVSPropertyOp28
 70
     1
102
RTVSPropertyOp29
 70
     1
102
RTVSPropertyOp30
 70
     1
102
RTVSPropertyOp31
 70
     1
102
RTVSPropertyOp32
 70
     1
102
RTVSPropertyOp33
 70
     1
102
RTVSPropertyOp34
 70
     1
102
RTVSPropertyOp35
 70
     1
102
RTVSPropertyOp36
 70
     1
102
RTVSPropertyOp37
 70
     1
102
RTVSPropertyOp38
 70
     1
102
RTVSPropertyOp39
 70
     1
102
RTVSPropertyOp40
 70
     1
102
RTVSPropertyOp41
 70
     1
102
RTVSPropertyOp42
 70
     1
102
RTVSPropertyOp43
 70
     1
102
RTVSPropertyOp44
 70
     1
102
RTVSPropertyOp45
 70
     1
102
RTVSPropertyOp46
 70
     1
102
RTVSPropertyOp47
 70
     1
102
RTVSPropertyOp48
 70
     1
102
RTVSPropertyOp49
 70
     1
102
RTVSPropertyOp50
 70
     1
102
RTVSPropertyOp51
 70
     0
102
RTVSPropertyOp52
 70
     0
102
RTVSPropertyOp53
 70
     1
102
RTVSPropertyOp54
 70
     1
102
RTVSPropertyOp55
 70
     1
102
RTVSPropertyOp56
 70
     1
102
RTVSPropertyOp57
 70
     1
102
RTVSPropertyOp58
 70
     1
102
RTVSPropertyOp59
 70
     1
102
RTVSPropertyOp60
 70
     1
102
RTVSPropertyOp61
 70
     1
102
RTVSPropertyOp62
 70
     1
  0
XRECORD
  5
A370
102
{ACAD_REACTORS
330
A36F
102
}
330
A36F
100
AcDbXrecord
280
     1
102
RTVSPost2010Prop28
280
     0
102
RTVSPost2010PropOp28
 70
     1
102
RTVSPost2010Prop29
280
     1
102
RTVSPost2010PropOp29
 70
     1
102
RTVSPost2010Prop30
280
     1
102
RTVSPost2010PropOp30
 70
     1
102
RTVSPost2010Prop31
280
     0
102
RTVSPost2010PropOp31
 70
     1
102
RTVSPost2010Prop32
280
     0
102
RTVSPost2010PropOp32
 70
     1
102
RTVSPost2010Prop33
280
     0
102
RTVSPost2010PropOp33
 70
     1
102
RTVSPost2010Prop34
280
     0
102
RTVSPost2010PropOp34
 70
     1
102
RTVSPost2010Prop35
280
     0
102
RTVSPost2010PropOp35
 70
     1
102
RTVSPost2010Prop36
280
     0
102
RTVSPost2010PropOp36
 70
     1
102
RTVSPost2010Prop37
 90
       50
102
RTVSPost2010PropOp37
 70
     1
102
RTVSPost2010Prop38
140
0.0
102
RTVSPost2010PropOp38
 70
     1
102
RTVSPost2010Prop39
140
1.0
102
RTVSPost2010PropOp39
 70
     1
102
RTVSPost2010Prop40
 90
        0
102
RTVSPost2010PropOp40
 70
     1
102
RTVSPost2010Prop41ColorIndex
 90
       18
102
RTVSPost2010Prop41ColorRGB
 90
        0
102
RTVSPost2010PropOp41
 70
     1
102
RTVSPost2010Prop42
 90
       50
102
RTVSPost2010PropOp42
 70
     1
102
RTVSPost2010Prop43
 90
        3
102
RTVSPost2010PropOp43
 70
     1
102
RTVSPost2010Prop44ColorIndex
 90
        5
102
RTVSPost2010Prop44ColorRGB
 90
      255
102
RTVSPost2010PropOp44
 70
     1
102
RTVSPost2010Prop45
280
     0
102
RTVSPost2010PropOp45
 70
     1
102
RTVSPost2010Prop46
 90
       50
102
RTVSPost2010PropOp46
 70
     1
102
RTVSPost2010Prop47
 90
       50
102
RTVSPost2010PropOp47
 70
     1
102
RTVSPost2010Prop48
 90
       50
102
RTVSPost2010PropOp48
 70
     1
102
RTVSPost2010Prop49
280
     0
102
RTVSPost2010PropOp49
 70
     1
102
RTVSPost2010Prop50
 90
       50
102
RTVSPost2010PropOp50
 70
     1
102
RTVSPost2010Prop51ColorIndex
 90
      256
102
RTVSPost2010Prop51ColorRGB
 90
-16777216
102
RTVSPost2010PropOp51
 70
     0
102
RTVSPost2010Prop52
140
1.0
102
RTVSPost2010PropOp52
 70
     0
102
RTVSPost2010Prop53
 90
        2
102
RTVSPost2010PropOp53
 70
     1
102
RTVSPost2010Prop54
  1
strokes_ogs.tif
102
RTVSPost2010PropOp54
 70
     1
102
RTVSPost2010Prop55
280
     0
102
RTVSPost2010PropOp55
 70
     1
102
RTVSPost2010Prop56
140
1.0
102
RTVSPost2010PropOp56
 70
     1
102
RTVSPost2010Prop57
140
1.0
102
RTVSPost2010PropOp57
 70
     1
102
RTVSPropertyOp0
 70
     1
102
RTVSPropertyOp1
 70
     1
102
RTVSPropertyOp2
 70
     1
102
RTVSPropertyOp3
 70
     1
102
RTVSPropertyOp4
 70
     1
102
RTVSPropertyOp5
 70
     1
102
RTVSPropertyOp6
 70
     1
102
RTVSPropertyOp7
 70
     1
102
RTVSPropertyOp8
 70
     1
102
RTVSPropertyOp9
 70
     1
102
RTVSPropertyOp10
 70
     1
102
RTVSPropertyOp11
 70
     1
102
RTVSPropertyOp12
 70
     1
102
RTVSPropertyOp13
 70
     1
102
RTVSPropertyOp14
 70
     1
102
RTVSPropertyOp15
 70
     1
102
RTVSPropertyOp16
 70
     1
102
RTVSPropertyOp17
 70
     1
102
RTVSPropertyOp18
 70
     1
102
RTVSPropertyOp19
 70
     1
102
RTVSPropertyOp20
 70
     1
102
RTVSPropertyOp21
 70
     1
102
RTVSPropertyOp22
 70
     1
102
RTVSPropertyOp23
 70
     1
102
RTVSPropertyOp24
 70
     1
102
RTVSPropertyOp25
 70
     1
102
RTVSPropertyOp26
 70
     1
102
RTVSPropertyOp27
 70
     1
102
RTVSPropertyOp28
 70
     1
102
RTVSPropertyOp29
 70
     1
102
RTVSPropertyOp30
 70
     1
102
RTVSPropertyOp31
 70
     1
102
RTVSPropertyOp32
 70
     1
102
RTVSPropertyOp33
 70
     1
102
RTVSPropertyOp34
 70
     1
102
RTVSPropertyOp35
 70
     1
102
RTVSPropertyOp36
 70
     1
102
RTVSPropertyOp37
 70
     1
102
RTVSPropertyOp38
 70
     1
102
RTVSPropertyOp39
 70
     1
102
RTVSPropertyOp40
 70
     1
102
RTVSPropertyOp41
 70
     1
102
RTVSPropertyOp42
 70
     1
102
RTVSPropertyOp43
 70
     1
102
RTVSPropertyOp44
 70
     1
102
RTVSPropertyOp45
 70
     1
102
RTVSPropertyOp46
 70
     1
102
RTVSPropertyOp47
 70
     1
102
RTVSPropertyOp48
 70
     1
102
RTVSPropertyOp49
 70
     1
102
RTVSPropertyOp50
 70
     1
102
RTVSPropertyOp51
 70
     0
102
RTVSPropertyOp52
 70
     0
102
RTVSPropertyOp53
 70
     1
102
RTVSPropertyOp54
 70
     1
102
RTVSPropertyOp55
 70
     1
102
RTVSPropertyOp56
 70
     1
102
RTVSPropertyOp57
 70
     1
102
RTVSPropertyOp58
 70
     1
102
RTVSPropertyOp59
 70
     1
102
RTVSPropertyOp60
 70
     1
102
RTVSPropertyOp61
 70
     1
102
RTVSPropertyOp62
 70
     1
  0
XRECORD
  5
A36E
102
{ACAD_REACTORS
330
A36D
102
}
330
A36D
100
AcDbXrecord
280
     1
102
RTVSPost2010Prop28
280
     0
102
RTVSPost2010PropOp28
 70
     1
102
RTVSPost2010Prop29
280
     1
102
RTVSPost2010PropOp29
 70
     1
102
RTVSPost2010Prop30
280
     1
102
RTVSPost2010PropOp30
 70
     1
102
RTVSPost2010Prop31
280
     0
102
RTVSPost2010PropOp31
 70
     1
102
RTVSPost2010Prop32
280
     0
102
RTVSPost2010PropOp32
 70
     1
102
RTVSPost2010Prop33
280
     0
102
RTVSPost2010PropOp33
 70
     1
102
RTVSPost2010Prop34
280
     0
102
RTVSPost2010PropOp34
 70
     1
102
RTVSPost2010Prop35
280
     0
102
RTVSPost2010PropOp35
 70
     1
102
RTVSPost2010Prop36
280
     0
102
RTVSPost2010PropOp36
 70
     1
102
RTVSPost2010Prop37
 90
       50
102
RTVSPost2010PropOp37
 70
     1
102
RTVSPost2010Prop38
140
0.0
102
RTVSPost2010PropOp38
 70
     1
102
RTVSPost2010Prop39
140
1.0
102
RTVSPost2010PropOp39
 70
     1
102
RTVSPost2010Prop40
 90
        0
102
RTVSPost2010PropOp40
 70
     1
102
RTVSPost2010Prop41ColorIndex
 90
       18
102
RTVSPost2010Prop41ColorRGB
 90
        0
102
RTVSPost2010PropOp41
 70
     1
102
RTVSPost2010Prop42
 90
       50
102
RTVSPost2010PropOp42
 70
     1
102
RTVSPost2010Prop43
 90
        3
102
RTVSPost2010PropOp43
 70
     1
102
RTVSPost2010Prop44ColorIndex
 90
        5
102
RTVSPost2010Prop44ColorRGB
 90
      255
102
RTVSPost2010PropOp44
 70
     1
102
RTVSPost2010Prop45
280
     0
102
RTVSPost2010PropOp45
 70
     1
102
RTVSPost2010Prop46
 90
       50
102
RTVSPost2010PropOp46
 70
     1
102
RTVSPost2010Prop47
 90
       50
102
RTVSPost2010PropOp47
 70
     1
102
RTVSPost2010Prop48
 90
       50
102
RTVSPost2010PropOp48
 70
     1
102
RTVSPost2010Prop49
280
     0
102
RTVSPost2010PropOp49
 70
     1
102
RTVSPost2010Prop50
 90
       50
102
RTVSPost2010PropOp50
 70
     1
102
RTVSPost2010Prop51ColorIndex
 90
      256
102
RTVSPost2010Prop51ColorRGB
 90
-16777216
102
RTVSPost2010PropOp51
 70
     0
102
RTVSPost2010Prop52
140
1.0
102
RTVSPost2010PropOp52
 70
     0
102
RTVSPost2010Prop53
 90
        2
102
RTVSPost2010PropOp53
 70
     1
102
RTVSPost2010Prop54
  1
strokes_ogs.tif
102
RTVSPost2010PropOp54
 70
     1
102
RTVSPost2010Prop55
280
     0
102
RTVSPost2010PropOp55
 70
     1
102
RTVSPost2010Prop56
140
1.0
102
RTVSPost2010PropOp56
 70
     1
102
RTVSPost2010Prop57
140
1.0
102
RTVSPost2010PropOp57
 70
     1
102
RTVSPropertyOp0
 70
     1
102
RTVSPropertyOp1
 70
     1
102
RTVSPropertyOp2
 70
     1
102
RTVSPropertyOp3
 70
     1
102
RTVSPropertyOp4
 70
     1
102
RTVSPropertyOp5
 70
     1
102
RTVSPropertyOp6
 70
     1
102
RTVSPropertyOp7
 70
     1
102
RTVSPropertyOp8
 70
     1
102
RTVSPropertyOp9
 70
     1
102
RTVSPropertyOp10
 70
     1
102
RTVSPropertyOp11
 70
     1
102
RTVSPropertyOp12
 70
     1
102
RTVSPropertyOp13
 70
     1
102
RTVSPropertyOp14
 70
     1
102
RTVSPropertyOp15
 70
     1
102
RTVSPropertyOp16
 70
     1
102
RTVSPropertyOp17
 70
     1
102
RTVSPropertyOp18
 70
     1
102
RTVSPropertyOp19
 70
     1
102
RTVSPropertyOp20
 70
     1
102
RTVSPropertyOp21
 70
     1
102
RTVSPropertyOp22
 70
     1
102
RTVSPropertyOp23
 70
     1
102
RTVSPropertyOp24
 70
     1
102
RTVSPropertyOp25
 70
     1
102
RTVSPropertyOp26
 70
     1
102
RTVSPropertyOp27
 70
     1
102
RTVSPropertyOp28
 70
     1
102
RTVSPropertyOp29
 70
     1
102
RTVSPropertyOp30
 70
     1
102
RTVSPropertyOp31
 70
     1
102
RTVSPropertyOp32
 70
     1
102
RTVSPropertyOp33
 70
     1
102
RTVSPropertyOp34
 70
     1
102
RTVSPropertyOp35
 70
     1
102
RTVSPropertyOp36
 70
     1
102
RTVSPropertyOp37
 70
     1
102
RTVSPropertyOp38
 70
     1
102
RTVSPropertyOp39
 70
     1
102
RTVSPropertyOp40
 70
     1
102
RTVSPropertyOp41
 70
     1
102
RTVSPropertyOp42
 70
     1
102
RTVSPropertyOp43
 70
     1
102
RTVSPropertyOp44
 70
     1
102
RTVSPropertyOp45
 70
     1
102
RTVSPropertyOp46
 70
     1
102
RTVSPropertyOp47
 70
     1
102
RTVSPropertyOp48
 70
     1
102
RTVSPropertyOp49
 70
     1
102
RTVSPropertyOp50
 70
     1
102
RTVSPropertyOp51
 70
     0
102
RTVSPropertyOp52
 70
     0
102
RTVSPropertyOp53
 70
     1
102
RTVSPropertyOp54
 70
     1
102
RTVSPropertyOp55
 70
     1
102
RTVSPropertyOp56
 70
     1
102
RTVSPropertyOp57
 70
     1
102
RTVSPropertyOp58
 70
     1
102
RTVSPropertyOp59
 70
     1
102
RTVSPropertyOp60
 70
     1
102
RTVSPropertyOp61
 70
     1
102
RTVSPropertyOp62
 70
     1
  0
XRECORD
  5
A368
102
{ACAD_REACTORS
330
A367
102
}
330
A367
100
AcDbXrecord
280
     1
102
RTVSPost2010Prop28
280
     0
102
RTVSPost2010PropOp28
 70
     1
102
RTVSPost2010Prop29
280
     1
102
RTVSPost2010PropOp29
 70
     1
102
RTVSPost2010Prop30
280
     1
102
RTVSPost2010PropOp30
 70
     1
102
RTVSPost2010Prop31
280
     0
102
RTVSPost2010PropOp31
 70
     1
102
RTVSPost2010Prop32
280
     0
102
RTVSPost2010PropOp32
 70
     1
102
RTVSPost2010Prop33
280
     0
102
RTVSPost2010PropOp33
 70
     1
102
RTVSPost2010Prop34
280
     0
102
RTVSPost2010PropOp34
 70
     1
102
RTVSPost2010Prop35
280
     0
102
RTVSPost2010PropOp35
 70
     1
102
RTVSPost2010Prop36
280
     0
102
RTVSPost2010PropOp36
 70
     1
102
RTVSPost2010Prop37
 90
       50
102
RTVSPost2010PropOp37
 70
     1
102
RTVSPost2010Prop38
140
0.0
102
RTVSPost2010PropOp38
 70
     1
102
RTVSPost2010Prop39
140
1.0
102
RTVSPost2010PropOp39
 70
     1
102
RTVSPost2010Prop40
 90
        0
102
RTVSPost2010PropOp40
 70
     1
102
RTVSPost2010Prop41ColorIndex
 90
       18
102
RTVSPost2010Prop41ColorRGB
 90
        0
102
RTVSPost2010PropOp41
 70
     1
102
RTVSPost2010Prop42
 90
       50
102
RTVSPost2010PropOp42
 70
     1
102
RTVSPost2010Prop43
 90
        3
102
RTVSPost2010PropOp43
 70
     1
102
RTVSPost2010Prop44ColorIndex
 90
        5
102
RTVSPost2010Prop44ColorRGB
 90
      255
102
RTVSPost2010PropOp44
 70
     1
102
RTVSPost2010Prop45
280
     0
102
RTVSPost2010PropOp45
 70
     1
102
RTVSPost2010Prop46
 90
       50
102
RTVSPost2010PropOp46
 70
     1
102
RTVSPost2010Prop47
 90
       50
102
RTVSPost2010PropOp47
 70
     1
102
RTVSPost2010Prop48
 90
       50
102
RTVSPost2010PropOp48
 70
     1
102
RTVSPost2010Prop49
280
     0
102
RTVSPost2010PropOp49
 70
     1
102
RTVSPost2010Prop50
 90
       50
102
RTVSPost2010PropOp50
 70
     1
102
RTVSPost2010Prop51ColorIndex
 90
      256
102
RTVSPost2010Prop51ColorRGB
 90
-16777216
102
RTVSPost2010PropOp51
 70
     0
102
RTVSPost2010Prop52
140
1.0
102
RTVSPost2010PropOp52
 70
     0
102
RTVSPost2010Prop53
 90
        2
102
RTVSPost2010PropOp53
 70
     1
102
RTVSPost2010Prop54
  1
strokes_ogs.tif
102
RTVSPost2010PropOp54
 70
     1
102
RTVSPost2010Prop55
280
     0
102
RTVSPost2010PropOp55
 70
     1
102
RTVSPost2010Prop56
140
1.0
102
RTVSPost2010PropOp56
 70
     1
102
RTVSPost2010Prop57
140
1.0
102
RTVSPost2010PropOp57
 70
     1
102
RTVSPropertyOp0
 70
     1
102
RTVSPropertyOp1
 70
     1
102
RTVSPropertyOp2
 70
     1
102
RTVSPropertyOp3
 70
     1
102
RTVSPropertyOp4
 70
     1
102
RTVSPropertyOp5
 70
     1
102
RTVSPropertyOp6
 70
     1
102
RTVSPropertyOp7
 70
     1
102
RTVSPropertyOp8
 70
     1
102
RTVSPropertyOp9
 70
     1
102
RTVSPropertyOp10
 70
     1
102
RTVSPropertyOp11
 70
     1
102
RTVSPropertyOp12
 70
     1
102
RTVSPropertyOp13
 70
     1
102
RTVSPropertyOp14
 70
     1
102
RTVSPropertyOp15
 70
     1
102
RTVSPropertyOp16
 70
     1
102
RTVSPropertyOp17
 70
     1
102
RTVSPropertyOp18
 70
     1
102
RTVSPropertyOp19
 70
     1
102
RTVSPropertyOp20
 70
     1
102
RTVSPropertyOp21
 70
     1
102
RTVSPropertyOp22
 70
     1
102
RTVSPropertyOp23
 70
     1
102
RTVSPropertyOp24
 70
     1
102
RTVSPropertyOp25
 70
     1
102
RTVSPropertyOp26
 70
     1
102
RTVSPropertyOp27
 70
     1
102
RTVSPropertyOp28
 70
     1
102
RTVSPropertyOp29
 70
     1
102
RTVSPropertyOp30
 70
     1
102
RTVSPropertyOp31
 70
     1
102
RTVSPropertyOp32
 70
     1
102
RTVSPropertyOp33
 70
     1
102
RTVSPropertyOp34
 70
     1
102
RTVSPropertyOp35
 70
     1
102
RTVSPropertyOp36
 70
     1
102
RTVSPropertyOp37
 70
     1
102
RTVSPropertyOp38
 70
     1
102
RTVSPropertyOp39
 70
     1
102
RTVSPropertyOp40
 70
     1
102
RTVSPropertyOp41
 70
     1
102
RTVSPropertyOp42
 70
     1
102
RTVSPropertyOp43
 70
     1
102
RTVSPropertyOp44
 70
     1
102
RTVSPropertyOp45
 70
     1
102
RTVSPropertyOp46
 70
     1
102
RTVSPropertyOp47
 70
     1
102
RTVSPropertyOp48
 70
     1
102
RTVSPropertyOp49
 70
     1
102
RTVSPropertyOp50
 70
     1
102
RTVSPropertyOp51
 70
     0
102
RTVSPropertyOp52
 70
     0
102
RTVSPropertyOp53
 70
     1
102
RTVSPropertyOp54
 70
     1
102
RTVSPropertyOp55
 70
     1
102
RTVSPropertyOp56
 70
     1
102
RTVSPropertyOp57
 70
     1
102
RTVSPropertyOp58
 70
     1
102
RTVSPropertyOp59
 70
     1
102
RTVSPropertyOp60
 70
     1
102
RTVSPropertyOp61
 70
     1
102
RTVSPropertyOp62
 70
     1
  0
XRECORD
  5
A36A
102
{ACAD_REACTORS
330
A369
102
}
330
A369
100
AcDbXrecord
280
     1
102
RTVSPost2010Prop28
280
     0
102
RTVSPost2010PropOp28
 70
     1
102
RTVSPost2010Prop29
280
     1
102
RTVSPost2010PropOp29
 70
     1
102
RTVSPost2010Prop30
280
     1
102
RTVSPost2010PropOp30
 70
     1
102
RTVSPost2010Prop31
280
     0
102
RTVSPost2010PropOp31
 70
     1
102
RTVSPost2010Prop32
280
     0
102
RTVSPost2010PropOp32
 70
     1
102
RTVSPost2010Prop33
280
     0
102
RTVSPost2010PropOp33
 70
     1
102
RTVSPost2010Prop34
280
     0
102
RTVSPost2010PropOp34
 70
     1
102
RTVSPost2010Prop35
280
     0
102
RTVSPost2010PropOp35
 70
     1
102
RTVSPost2010Prop36
280
     0
102
RTVSPost2010PropOp36
 70
     1
102
RTVSPost2010Prop37
 90
       50
102
RTVSPost2010PropOp37
 70
     1
102
RTVSPost2010Prop38
140
0.0
102
RTVSPost2010PropOp38
 70
     1
102
RTVSPost2010Prop39
140
1.0
102
RTVSPost2010PropOp39
 70
     1
102
RTVSPost2010Prop40
 90
        0
102
RTVSPost2010PropOp40
 70
     1
102
RTVSPost2010Prop41ColorIndex
 90
       18
102
RTVSPost2010Prop41ColorRGB
 90
        0
102
RTVSPost2010PropOp41
 70
     1
102
RTVSPost2010Prop42
 90
       50
102
RTVSPost2010PropOp42
 70
     1
102
RTVSPost2010Prop43
 90
        3
102
RTVSPost2010PropOp43
 70
     1
102
RTVSPost2010Prop44ColorIndex
 90
        5
102
RTVSPost2010Prop44ColorRGB
 90
      255
102
RTVSPost2010PropOp44
 70
     1
102
RTVSPost2010Prop45
280
     0
102
RTVSPost2010PropOp45
 70
     1
102
RTVSPost2010Prop46
 90
       50
102
RTVSPost2010PropOp46
 70
     1
102
RTVSPost2010Prop47
 90
       50
102
RTVSPost2010PropOp47
 70
     1
102
RTVSPost2010Prop48
 90
       50
102
RTVSPost2010PropOp48
 70
     1
102
RTVSPost2010Prop49
280
     0
102
RTVSPost2010PropOp49
 70
     1
102
RTVSPost2010Prop50
 90
       50
102
RTVSPost2010PropOp50
 70
     1
102
RTVSPost2010Prop51ColorIndex
 90
      256
102
RTVSPost2010Prop51ColorRGB
 90
-16777216
102
RTVSPost2010PropOp51
 70
     0
102
RTVSPost2010Prop52
140
1.0
102
RTVSPost2010PropOp52
 70
     0
102
RTVSPost2010Prop53
 90
        2
102
RTVSPost2010PropOp53
 70
     1
102
RTVSPost2010Prop54
  1
strokes_ogs.tif
102
RTVSPost2010PropOp54
 70
     1
102
RTVSPost2010Prop55
280
     0
102
RTVSPost2010PropOp55
 70
     1
102
RTVSPost2010Prop56
140
1.0
102
RTVSPost2010PropOp56
 70
     1
102
RTVSPost2010Prop57
140
1.0
102
RTVSPost2010PropOp57
 70
     1
102
RTVSPropertyOp0
 70
     1
102
RTVSPropertyOp1
 70
     1
102
RTVSPropertyOp2
 70
     1
102
RTVSPropertyOp3
 70
     1
102
RTVSPropertyOp4
 70
     1
102
RTVSPropertyOp5
 70
     1
102
RTVSPropertyOp6
 70
     1
102
RTVSPropertyOp7
 70
     1
102
RTVSPropertyOp8
 70
     1
102
RTVSPropertyOp9
 70
     1
102
RTVSPropertyOp10
 70
     1
102
RTVSPropertyOp11
 70
     1
102
RTVSPropertyOp12
 70
     1
102
RTVSPropertyOp13
 70
     1
102
RTVSPropertyOp14
 70
     1
102
RTVSPropertyOp15
 70
     1
102
RTVSPropertyOp16
 70
     1
102
RTVSPropertyOp17
 70
     1
102
RTVSPropertyOp18
 70
     1
102
RTVSPropertyOp19
 70
     1
102
RTVSPropertyOp20
 70
     1
102
RTVSPropertyOp21
 70
     1
102
RTVSPropertyOp22
 70
     1
102
RTVSPropertyOp23
 70
     1
102
RTVSPropertyOp24
 70
     1
102
RTVSPropertyOp25
 70
     1
102
RTVSPropertyOp26
 70
     1
102
RTVSPropertyOp27
 70
     1
102
RTVSPropertyOp28
 70
     1
102
RTVSPropertyOp29
 70
     1
102
RTVSPropertyOp30
 70
     1
102
RTVSPropertyOp31
 70
     1
102
RTVSPropertyOp32
 70
     1
102
RTVSPropertyOp33
 70
     1
102
RTVSPropertyOp34
 70
     1
102
RTVSPropertyOp35
 70
     1
102
RTVSPropertyOp36
 70
     1
102
RTVSPropertyOp37
 70
     1
102
RTVSPropertyOp38
 70
     1
102
RTVSPropertyOp39
 70
     1
102
RTVSPropertyOp40
 70
     1
102
RTVSPropertyOp41
 70
     1
102
RTVSPropertyOp42
 70
     1
102
RTVSPropertyOp43
 70
     1
102
RTVSPropertyOp44
 70
     1
102
RTVSPropertyOp45
 70
     1
102
RTVSPropertyOp46
 70
     1
102
RTVSPropertyOp47
 70
     1
102
RTVSPropertyOp48
 70
     1
102
RTVSPropertyOp49
 70
     1
102
RTVSPropertyOp50
 70
     1
102
RTVSPropertyOp51
 70
     0
102
RTVSPropertyOp52
 70
     0
102
RTVSPropertyOp53
 70
     1
102
RTVSPropertyOp54
 70
     1
102
RTVSPropertyOp55
 70
     1
102
RTVSPropertyOp56
 70
     1
102
RTVSPropertyOp57
 70
     1
102
RTVSPropertyOp58
 70
     1
102
RTVSPropertyOp59
 70
     1
102
RTVSPropertyOp60
 70
     1
102
RTVSPropertyOp61
 70
     1
102
RTVSPropertyOp62
 70
     1
  0
XRECORD
  5
A360
102
{ACAD_REACTORS
330
A35F
102
}
330
A35F
100
AcDbXrecord
280
     1
102
RTVSPost2010Prop28
280
     0
102
RTVSPost2010PropOp28
 70
     1
102
RTVSPost2010Prop29
280
     1
102
RTVSPost2010PropOp29
 70
     1
102
RTVSPost2010Prop30
280
     1
102
RTVSPost2010PropOp30
 70
     1
102
RTVSPost2010Prop31
280
     0
102
RTVSPost2010PropOp31
 70
     1
102
RTVSPost2010Prop32
280
     0
102
RTVSPost2010PropOp32
 70
     1
102
RTVSPost2010Prop33
280
     0
102
RTVSPost2010PropOp33
 70
     1
102
RTVSPost2010Prop34
280
     0
102
RTVSPost2010PropOp34
 70
     1
102
RTVSPost2010Prop35
280
     0
102
RTVSPost2010PropOp35
 70
     1
102
RTVSPost2010Prop36
280
     0
102
RTVSPost2010PropOp36
 70
     1
102
RTVSPost2010Prop37
 90
       50
102
RTVSPost2010PropOp37
 70
     1
102
RTVSPost2010Prop38
140
0.0
102
RTVSPost2010PropOp38
 70
     1
102
RTVSPost2010Prop39
140
1.0
102
RTVSPost2010PropOp39
 70
     1
102
RTVSPost2010Prop40
 90
        0
102
RTVSPost2010PropOp40
 70
     1
102
RTVSPost2010Prop41ColorIndex
 90
       18
102
RTVSPost2010Prop41ColorRGB
 90
        0
102
RTVSPost2010PropOp41
 70
     1
102
RTVSPost2010Prop42
 90
       50
102
RTVSPost2010PropOp42
 70
     1
102
RTVSPost2010Prop43
 90
        3
102
RTVSPost2010PropOp43
 70
     1
102
RTVSPost2010Prop44ColorIndex
 90
        5
102
RTVSPost2010Prop44ColorRGB
 90
      255
102
RTVSPost2010PropOp44
 70
     1
102
RTVSPost2010Prop45
280
     0
102
RTVSPost2010PropOp45
 70
     1
102
RTVSPost2010Prop46
 90
       50
102
RTVSPost2010PropOp46
 70
     1
102
RTVSPost2010Prop47
 90
       50
102
RTVSPost2010PropOp47
 70
     1
102
RTVSPost2010Prop48
 90
       50
102
RTVSPost2010PropOp48
 70
     1
102
RTVSPost2010Prop49
280
     0
102
RTVSPost2010PropOp49
 70
     1
102
RTVSPost2010Prop50
 90
       50
102
RTVSPost2010PropOp50
 70
     1
102
RTVSPost2010Prop51ColorIndex
 90
      256
102
RTVSPost2010Prop51ColorRGB
 90
-16777216
102
RTVSPost2010PropOp51
 70
     0
102
RTVSPost2010Prop52
140
1.0
102
RTVSPost2010PropOp52
 70
     0
102
RTVSPost2010Prop53
 90
        2
102
RTVSPost2010PropOp53
 70
     1
102
RTVSPost2010Prop54
  1
strokes_ogs.tif
102
RTVSPost2010PropOp54
 70
     1
102
RTVSPost2010Prop55
280
     0
102
RTVSPost2010PropOp55
 70
     1
102
RTVSPost2010Prop56
140
1.0
102
RTVSPost2010PropOp56
 70
     1
102
RTVSPost2010Prop57
140
1.0
102
RTVSPost2010PropOp57
 70
     1
102
RTVSPropertyOp0
 70
     1
102
RTVSPropertyOp1
 70
     1
102
RTVSPropertyOp2
 70
     1
102
RTVSPropertyOp3
 70
     1
102
RTVSPropertyOp4
 70
     1
102
RTVSPropertyOp5
 70
     1
102
RTVSPropertyOp6
 70
     1
102
RTVSPropertyOp7
 70
     1
102
RTVSPropertyOp8
 70
     1
102
RTVSPropertyOp9
 70
     1
102
RTVSPropertyOp10
 70
     1
102
RTVSPropertyOp11
 70
     1
102
RTVSPropertyOp12
 70
     1
102
RTVSPropertyOp13
 70
     1
102
RTVSPropertyOp14
 70
     1
102
RTVSPropertyOp15
 70
     1
102
RTVSPropertyOp16
 70
     1
102
RTVSPropertyOp17
 70
     1
102
RTVSPropertyOp18
 70
     1
102
RTVSPropertyOp19
 70
     1
102
RTVSPropertyOp20
 70
     1
102
RTVSPropertyOp21
 70
     1
102
RTVSPropertyOp22
 70
     1
102
RTVSPropertyOp23
 70
     1
102
RTVSPropertyOp24
 70
     1
102
RTVSPropertyOp25
 70
     1
102
RTVSPropertyOp26
 70
     1
102
RTVSPropertyOp27
 70
     1
102
RTVSPropertyOp28
 70
     1
102
RTVSPropertyOp29
 70
     1
102
RTVSPropertyOp30
 70
     1
102
RTVSPropertyOp31
 70
     1
102
RTVSPropertyOp32
 70
     1
102
RTVSPropertyOp33
 70
     1
102
RTVSPropertyOp34
 70
     1
102
RTVSPropertyOp35
 70
     1
102
RTVSPropertyOp36
 70
     1
102
RTVSPropertyOp37
 70
     1
102
RTVSPropertyOp38
 70
     1
102
RTVSPropertyOp39
 70
     1
102
RTVSPropertyOp40
 70
     1
102
RTVSPropertyOp41
 70
     1
102
RTVSPropertyOp42
 70
     1
102
RTVSPropertyOp43
 70
     1
102
RTVSPropertyOp44
 70
     1
102
RTVSPropertyOp45
 70
     1
102
RTVSPropertyOp46
 70
     1
102
RTVSPropertyOp47
 70
     1
102
RTVSPropertyOp48
 70
     1
102
RTVSPropertyOp49
 70
     1
102
RTVSPropertyOp50
 70
     1
102
RTVSPropertyOp51
 70
     0
102
RTVSPropertyOp52
 70
     0
102
RTVSPropertyOp53
 70
     1
102
RTVSPropertyOp54
 70
     1
102
RTVSPropertyOp55
 70
     1
102
RTVSPropertyOp56
 70
     1
102
RTVSPropertyOp57
 70
     1
102
RTVSPropertyOp58
 70
     1
102
RTVSPropertyOp59
 70
     1
102
RTVSPropertyOp60
 70
     1
102
RTVSPropertyOp61
 70
     1
102
RTVSPropertyOp62
 70
     1
  0
XRECORD
  5
A354
102
{ACAD_REACTORS
330
A353
102
}
330
A353
100
AcDbXrecord
280
     1
102
RTVSPost2010Prop28
280
     0
102
RTVSPost2010PropOp28
 70
     1
102
RTVSPost2010Prop29
280
     1
102
RTVSPost2010PropOp29
 70
     1
102
RTVSPost2010Prop30
280
     1
102
RTVSPost2010PropOp30
 70
     1
102
RTVSPost2010Prop31
280
     0
102
RTVSPost2010PropOp31
 70
     1
102
RTVSPost2010Prop32
280
     0
102
RTVSPost2010PropOp32
 70
     1
102
RTVSPost2010Prop33
280
     0
102
RTVSPost2010PropOp33
 70
     1
102
RTVSPost2010Prop34
280
     0
102
RTVSPost2010PropOp34
 70
     1
102
RTVSPost2010Prop35
280
     0
102
RTVSPost2010PropOp35
 70
     1
102
RTVSPost2010Prop36
280
     0
102
RTVSPost2010PropOp36
 70
     1
102
RTVSPost2010Prop37
 90
       50
102
RTVSPost2010PropOp37
 70
     1
102
RTVSPost2010Prop38
140
0.0
102
RTVSPost2010PropOp38
 70
     1
102
RTVSPost2010Prop39
140
1.0
102
RTVSPost2010PropOp39
 70
     1
102
RTVSPost2010Prop40
 90
        0
102
RTVSPost2010PropOp40
 70
     1
102
RTVSPost2010Prop41ColorIndex
 90
       18
102
RTVSPost2010Prop41ColorRGB
 90
        0
102
RTVSPost2010PropOp41
 70
     1
102
RTVSPost2010Prop42
 90
       50
102
RTVSPost2010PropOp42
 70
     1
102
RTVSPost2010Prop43
 90
        3
102
RTVSPost2010PropOp43
 70
     1
102
RTVSPost2010Prop44ColorIndex
 90
        5
102
RTVSPost2010Prop44ColorRGB
 90
      255
102
RTVSPost2010PropOp44
 70
     1
102
RTVSPost2010Prop45
280
     0
102
RTVSPost2010PropOp45
 70
     1
102
RTVSPost2010Prop46
 90
       50
102
RTVSPost2010PropOp46
 70
     1
102
RTVSPost2010Prop47
 90
       50
102
RTVSPost2010PropOp47
 70
     1
102
RTVSPost2010Prop48
 90
       50
102
RTVSPost2010PropOp48
 70
     1
102
RTVSPost2010Prop49
280
     0
102
RTVSPost2010PropOp49
 70
     1
102
RTVSPost2010Prop50
 90
       50
102
RTVSPost2010PropOp50
 70
     1
102
RTVSPost2010Prop51ColorIndex
 90
      256
102
RTVSPost2010Prop51ColorRGB
 90
-16777216
102
RTVSPost2010PropOp51
 70
     0
102
RTVSPost2010Prop52
140
1.0
102
RTVSPost2010PropOp52
 70
     0
102
RTVSPost2010Prop53
 90
        2
102
RTVSPost2010PropOp53
 70
     1
102
RTVSPost2010Prop54
  1
strokes_ogs.tif
102
RTVSPost2010PropOp54
 70
     1
102
RTVSPost2010Prop55
280
     0
102
RTVSPost2010PropOp55
 70
     1
102
RTVSPost2010Prop56
140
1.0
102
RTVSPost2010PropOp56
 70
     1
102
RTVSPost2010Prop57
140
1.0
102
RTVSPost2010PropOp57
 70
     1
102
RTVSPropertyOp0
 70
     1
102
RTVSPropertyOp1
 70
     1
102
RTVSPropertyOp2
 70
     1
102
RTVSPropertyOp3
 70
     1
102
RTVSPropertyOp4
 70
     1
102
RTVSPropertyOp5
 70
     1
102
RTVSPropertyOp6
 70
     1
102
RTVSPropertyOp7
 70
     1
102
RTVSPropertyOp8
 70
     1
102
RTVSPropertyOp9
 70
     1
102
RTVSPropertyOp10
 70
     1
102
RTVSPropertyOp11
 70
     1
102
RTVSPropertyOp12
 70
     1
102
RTVSPropertyOp13
 70
     1
102
RTVSPropertyOp14
 70
     1
102
RTVSPropertyOp15
 70
     1
102
RTVSPropertyOp16
 70
     1
102
RTVSPropertyOp17
 70
     1
102
RTVSPropertyOp18
 70
     1
102
RTVSPropertyOp19
 70
     1
102
RTVSPropertyOp20
 70
     1
102
RTVSPropertyOp21
 70
     1
102
RTVSPropertyOp22
 70
     1
102
RTVSPropertyOp23
 70
     1
102
RTVSPropertyOp24
 70
     1
102
RTVSPropertyOp25
 70
     1
102
RTVSPropertyOp26
 70
     1
102
RTVSPropertyOp27
 70
     1
102
RTVSPropertyOp28
 70
     1
102
RTVSPropertyOp29
 70
     1
102
RTVSPropertyOp30
 70
     1
102
RTVSPropertyOp31
 70
     1
102
RTVSPropertyOp32
 70
     1
102
RTVSPropertyOp33
 70
     1
102
RTVSPropertyOp34
 70
     1
102
RTVSPropertyOp35
 70
     1
102
RTVSPropertyOp36
 70
     1
102
RTVSPropertyOp37
 70
     1
102
RTVSPropertyOp38
 70
     1
102
RTVSPropertyOp39
 70
     1
102
RTVSPropertyOp40
 70
     1
102
RTVSPropertyOp41
 70
     1
102
RTVSPropertyOp42
 70
     1
102
RTVSPropertyOp43
 70
     1
102
RTVSPropertyOp44
 70
     1
102
RTVSPropertyOp45
 70
     1
102
RTVSPropertyOp46
 70
     1
102
RTVSPropertyOp47
 70
     1
102
RTVSPropertyOp48
 70
     1
102
RTVSPropertyOp49
 70
     1
102
RTVSPropertyOp50
 70
     1
102
RTVSPropertyOp51
 70
     0
102
RTVSPropertyOp52
 70
     0
102
RTVSPropertyOp53
 70
     1
102
RTVSPropertyOp54
 70
     1
102
RTVSPropertyOp55
 70
     1
102
RTVSPropertyOp56
 70
     1
102
RTVSPropertyOp57
 70
     1
102
RTVSPropertyOp58
 70
     1
102
RTVSPropertyOp59
 70
     1
102
RTVSPropertyOp60
 70
     1
102
RTVSPropertyOp61
 70
     1
102
RTVSPropertyOp62
 70
     1
  0
XRECORD
  5
A36C
102
{ACAD_REACTORS
330
A36B
102
}
330
A36B
100
AcDbXrecord
280
     1
102
RTVSPost2010Prop28
280
     0
102
RTVSPost2010PropOp28
 70
     1
102
RTVSPost2010Prop29
280
     1
102
RTVSPost2010PropOp29
 70
     1
102
RTVSPost2010Prop30
280
     1
102
RTVSPost2010PropOp30
 70
     1
102
RTVSPost2010Prop31
280
     0
102
RTVSPost2010PropOp31
 70
     1
102
RTVSPost2010Prop32
280
     0
102
RTVSPost2010PropOp32
 70
     1
102
RTVSPost2010Prop33
280
     0
102
RTVSPost2010PropOp33
 70
     1
102
RTVSPost2010Prop34
280
     0
102
RTVSPost2010PropOp34
 70
     1
102
RTVSPost2010Prop35
280
     0
102
RTVSPost2010PropOp35
 70
     1
102
RTVSPost2010Prop36
280
     0
102
RTVSPost2010PropOp36
 70
     1
102
RTVSPost2010Prop37
 90
       50
102
RTVSPost2010PropOp37
 70
     1
102
RTVSPost2010Prop38
140
0.0
102
RTVSPost2010PropOp38
 70
     1
102
RTVSPost2010Prop39
140
1.0
102
RTVSPost2010PropOp39
 70
     1
102
RTVSPost2010Prop40
 90
        0
102
RTVSPost2010PropOp40
 70
     1
102
RTVSPost2010Prop41ColorIndex
 90
       18
102
RTVSPost2010Prop41ColorRGB
 90
        0
102
RTVSPost2010PropOp41
 70
     1
102
RTVSPost2010Prop42
 90
       50
102
RTVSPost2010PropOp42
 70
     1
102
RTVSPost2010Prop43
 90
        3
102
RTVSPost2010PropOp43
 70
     1
102
RTVSPost2010Prop44ColorIndex
 90
        5
102
RTVSPost2010Prop44ColorRGB
 90
      255
102
RTVSPost2010PropOp44
 70
     1
102
RTVSPost2010Prop45
280
     0
102
RTVSPost2010PropOp45
 70
     1
102
RTVSPost2010Prop46
 90
       50
102
RTVSPost2010PropOp46
 70
     1
102
RTVSPost2010Prop47
 90
       50
102
RTVSPost2010PropOp47
 70
     1
102
RTVSPost2010Prop48
 90
       50
102
RTVSPost2010PropOp48
 70
     1
102
RTVSPost2010Prop49
280
     0
102
RTVSPost2010PropOp49
 70
     1
102
RTVSPost2010Prop50
 90
       50
102
RTVSPost2010PropOp50
 70
     1
102
RTVSPost2010Prop51ColorIndex
 90
      256
102
RTVSPost2010Prop51ColorRGB
 90
-16777216
102
RTVSPost2010PropOp51
 70
     0
102
RTVSPost2010Prop52
140
1.0
102
RTVSPost2010PropOp52
 70
     0
102
RTVSPost2010Prop53
 90
        2
102
RTVSPost2010PropOp53
 70
     1
102
RTVSPost2010Prop54
  1
strokes_ogs.tif
102
RTVSPost2010PropOp54
 70
     1
102
RTVSPost2010Prop55
280
     0
102
RTVSPost2010PropOp55
 70
     1
102
RTVSPost2010Prop56
140
1.0
102
RTVSPost2010PropOp56
 70
     1
102
RTVSPost2010Prop57
140
1.0
102
RTVSPost2010PropOp57
 70
     1
102
RTVSPropertyOp0
 70
     1
102
RTVSPropertyOp1
 70
     1
102
RTVSPropertyOp2
 70
     1
102
RTVSPropertyOp3
 70
     1
102
RTVSPropertyOp4
 70
     1
102
RTVSPropertyOp5
 70
     1
102
RTVSPropertyOp6
 70
     1
102
RTVSPropertyOp7
 70
     1
102
RTVSPropertyOp8
 70
     1
102
RTVSPropertyOp9
 70
     1
102
RTVSPropertyOp10
 70
     1
102
RTVSPropertyOp11
 70
     1
102
RTVSPropertyOp12
 70
     1
102
RTVSPropertyOp13
 70
     1
102
RTVSPropertyOp14
 70
     1
102
RTVSPropertyOp15
 70
     1
102
RTVSPropertyOp16
 70
     1
102
RTVSPropertyOp17
 70
     1
102
RTVSPropertyOp18
 70
     1
102
RTVSPropertyOp19
 70
     1
102
RTVSPropertyOp20
 70
     1
102
RTVSPropertyOp21
 70
     1
102
RTVSPropertyOp22
 70
     1
102
RTVSPropertyOp23
 70
     1
102
RTVSPropertyOp24
 70
     1
102
RTVSPropertyOp25
 70
     1
102
RTVSPropertyOp26
 70
     1
102
RTVSPropertyOp27
 70
     1
102
RTVSPropertyOp28
 70
     1
102
RTVSPropertyOp29
 70
     1
102
RTVSPropertyOp30
 70
     1
102
RTVSPropertyOp31
 70
     1
102
RTVSPropertyOp32
 70
     1
102
RTVSPropertyOp33
 70
     1
102
RTVSPropertyOp34
 70
     1
102
RTVSPropertyOp35
 70
     1
102
RTVSPropertyOp36
 70
     1
102
RTVSPropertyOp37
 70
     1
102
RTVSPropertyOp38
 70
     1
102
RTVSPropertyOp39
 70
     1
102
RTVSPropertyOp40
 70
     1
102
RTVSPropertyOp41
 70
     1
102
RTVSPropertyOp42
 70
     1
102
RTVSPropertyOp43
 70
     1
102
RTVSPropertyOp44
 70
     1
102
RTVSPropertyOp45
 70
     1
102
RTVSPropertyOp46
 70
     1
102
RTVSPropertyOp47
 70
     1
102
RTVSPropertyOp48
 70
     1
102
RTVSPropertyOp49
 70
     1
102
RTVSPropertyOp50
 70
     1
102
RTVSPropertyOp51
 70
     0
102
RTVSPropertyOp52
 70
     0
102
RTVSPropertyOp53
 70
     1
102
RTVSPropertyOp54
 70
     1
102
RTVSPropertyOp55
 70
     1
102
RTVSPropertyOp56
 70
     1
102
RTVSPropertyOp57
 70
     1
102
RTVSPropertyOp58
 70
     1
102
RTVSPropertyOp59
 70
     1
102
RTVSPropertyOp60
 70
     1
102
RTVSPropertyOp61
 70
     1
102
RTVSPropertyOp62
 70
     1
  0
ENDSEC
  0
EOF
