  0
SECTION
  2
HEADER
  9
$ACADVER
  1
AC1015
  9
$ACADMAINTVER
 70
    20
  9
$DWGCODEPAGE
  3
ANSI_932
  9
$INSBASE
 10
0.0
 20
0.0
 30
0.0
  9
$EXTMIN
 10
9.99995
 20
9.999999999999998
 30
0.0
  9
$EXTMAX
 10
359.295222
 20
92.39999999999998
 30
0.0
  9
$LIMMIN
 10
0.0
 20
0.0
  9
$LIMMAX
 10
396.0
 20
273.0
  9
$ORTHOMODE
 70
     1
  9
$REGENMODE
 70
     1
  9
$FILLMODE
 70
     1
  9
$QTEXTMODE
 70
     0
  9
$MIRRTEXT
 70
     1
  9
$LTSCALE
 40
20.0
  9
$ATTMODE
 70
     1
  9
$TEXTSIZE
 40
5.0
  9
$TRACEWID
 40
1.0
  9
$TEXTSTYLE
  7
STANDARD
  9
$CLAYER
  8
0
  9
$CELTYPE
  6
BYLAYER
  9
$CECOLOR
 62
   256
  9
$CELTSCALE
 40
1.0
  9
$DISPSILH
 70
     0
  9
$DIMSCALE
 40
1.0
  9
$DIMASZ
 40
3.0
  9
$DIMEXO
 40
1.0
  9
$DIMDLI
 40
10.0
  9
$DIMRND
 40
0.0
  9
$DIMDLE
 40
0.0
  9
$DIMEXE
 40
1.0
  9
$DIMTP
 40
0.0
  9
$DIMTM
 40
0.0
  9
$DIMTXT
 40
3.2
  9
$DIMCEN
 40
0.0
  9
$DIMTSZ
 40
0.0
  9
$DIMTOL
 70
     0
  9
$DIMLIM
 70
     0
  9
$DIMTIH
 70
     0
  9
$DIMTOH
 70
     0
  9
$DIMSE1
 70
     0
  9
$DIMSE2
 70
     0
  9
$DIMTAD
 70
     3
  9
$DIMZIN
 70
     8
  9
$DIMBLK
  1

  9
$DIMASO
 70
     1
  9
$DIMSHO
 70
     1
  9
$DIMPOST
  1

  9
$DIMAPOST
  1

  9
$DIMALT
 70
     0
  9
$DIMALTD
 70
     2
  9
$DIMALTF
 40
25.4
  9
$DIMLFAC
 40
1.0
  9
$DIMTOFL
 70
     1
  9
$DIMTVP
 40
0.0
  9
$DIMTIX
 70
     0
  9
$DIMSOXD
 70
     0
  9
$DIMSAH
 70
     1
  9
$DIMBLK1
  1

  9
$DIMBLK2
  1

  9
$DIMSTYLE
  2
STANDARD
  9
$DIMCLRD
 70
     0
  9
$DIMCLRE
 70
     0
  9
$DIMCLRT
 70
     0
  9
$DIMTFAC
 40
1.0
  9
$DIMGAP
 40
1.0
  9
$DIMJUST
 70
     0
  9
$DIMSD1
 70
     0
  9
$DIMSD2
 70
     0
  9
$DIMTOLJ
 70
     1
  9
$DIMTZIN
 70
     0
  9
$DIMALTZ
 70
     0
  9
$DIMALTTZ
 70
     0
  9
$DIMUPT
 70
     0
  9
$DIMDEC
 70
     4
  9
$DIMTDEC
 70
     4
  9
$DIMALTU
 70
     2
  9
$DIMALTTD
 70
     2
  9
$DIMTXSTY
  7
STANDARD
  9
$DIMAUNIT
 70
     0
  9
$DIMADEC
 70
     0
  9
$DIMALTRND
 40
0.0
  9
$DIMAZIN
 70
     0
  9
$DIMDSEP
 70
    46
  9
$DIMATFIT
 70
     3
  9
$DIMFRAC
 70
     0
  9
$DIMLDRBLK
  1

  9
$DIMLUNIT
 70
     2
  9
$DIMLWD
 70
    -2
  9
$DIMLWE
 70
    -2
  9
$DIMTMOVE
 70
     0
  9
$LUNITS
 70
     2
  9
$LUPREC
 70
     4
  9
$SKETCHINC
 40
1.0
  9
$FILLETRAD
 40
0.3
  9
$AUNITS
 70
     0
  9
$AUPREC
 70
     2
  9
$MENU
  1
.
  9
$ELEVATION
 40
0.0
  9
$PELEVATION
 40
0.0
  9
$THICKNESS
 40
0.0
  9
$LIMCHECK
 70
     0
  9
$CHAMFERA
 40
10.0
  9
$CHAMFERB
 40
10.0
  9
$CHAMFERC
 40
0.0
  9
$CHAMFERD
 40
0.0
  9
$SKPOLY
 70
     0
  9
$TDCREATE
 40
2451285.443188310
  9
$TDUCREATE
 40
2451285.068188310
  9
$TDUPDATE
 40
2457192.656807407
  9
$TDUUPDATE
 40
2457192.281807408
  9
$TDINDWG
 40
0.0000123727
  9
$TDUSRTIMER
 40
0.0000118866
  9
$USRTIMER
 70
     1
  9
$ANGBASE
 50
0.0
  9
$ANGDIR
 70
     0
  9
$PDMODE
 70
    34
  9
$PDSIZE
 40
0.0
  9
$PLINEWID
 40
0.0
  9
$SPLFRAME
 70
     0
  9
$SPLINETYPE
 70
     6
  9
$SPLINESEGS
 70
     8
  9
$HANDSEED
  5
1DEB4
  9
$SURFTAB1
 70
     6
  9
$SURFTAB2
 70
     6
  9
$SURFTYPE
 70
     6
  9
$SURFU
 70
     6
  9
$SURFV
 70
     6
  9
$UCSBASE
  2

  9
$UCSNAME
  2

  9
$UCSORG
 10
0.0
 20
0.0
 30
0.0
  9
$UCSXDIR
 10
1.0
 20
0.0
 30
0.0
  9
$UCSYDIR
 10
0.0
 20
1.0
 30
0.0
  9
$UCSORTHOREF
  2

  9
$UCSORTHOVIEW
 70
     0
  9
$UCSORGTOP
 10
0.0
 20
0.0
 30
0.0
  9
$UCSORGBOTTOM
 10
0.0
 20
0.0
 30
0.0
  9
$UCSORGLEFT
 10
0.0
 20
0.0
 30
0.0
  9
$UCSORGRIGHT
 10
0.0
 20
0.0
 30
0.0
  9
$UCSORGFRONT
 10
0.0
 20
0.0
 30
0.0
  9
$UCSORGBACK
 10
0.0
 20
0.0
 30
0.0
  9
$PUCSBASE
  2

  9
$PUCSNAME
  2

  9
$PUCSORG
 10
0.0
 20
0.0
 30
0.0
  9
$PUCSXDIR
 10
1.0
 20
0.0
 30
0.0
  9
$PUCSYDIR
 10
0.0
 20
1.0
 30
0.0
  9
$PUCSORTHOREF
  2

  9
$PUCSORTHOVIEW
 70
     0
  9
$PUCSORGTOP
 10
0.0
 20
0.0
 30
0.0
  9
$PUCSORGBOTTOM
 10
0.0
 20
0.0
 30
0.0
  9
$PUCSORGLEFT
 10
0.0
 20
0.0
 30
0.0
  9
$PUCSORGRIGHT
 10
0.0
 20
0.0
 30
0.0
  9
$PUCSORGFRONT
 10
0.0
 20
0.0
 30
0.0
  9
$PUCSORGBACK
 10
0.0
 20
0.0
 30
0.0
  9
$USERI1
 70
     0
  9
$USERI2
 70
     0
  9
$USERI3
 70
     0
  9
$USERI4
 70
     0
  9
$USERI5
 70
     0
  9
$USERR1
 40
0.0
  9
$USERR2
 40
0.0
  9
$USERR3
 40
0.0
  9
$USERR4
 40
0.0
  9
$USERR5
 40
0.0
  9
$WORLDVIEW
 70
     1
  9
$SHADEDGE
 70
     3
  9
$SHADEDIF
 70
    70
  9
$TILEMODE
 70
     1
  9
$MAXACTVP
 70
    16
  9
$PINSBASE
 10
0.0
 20
0.0
 30
0.0
  9
$PLIMCHECK
 70
     0
  9
$PEXTMIN
 10
1.000000000000000E+20
 20
1.000000000000000E+20
 30
1.000000000000000E+20
  9
$PEXTMAX
 10
-1.000000000000000E+20
 20
-1.000000000000000E+20
 30
-1.000000000000000E+20
  9
$PLIMMIN
 10
0.0
 20
0.0
  9
$PLIMMAX
 10
420.0
 20
297.0
  9
$UNITMODE
 70
     0
  9
$VISRETAIN
 70
     0
  9
$PLINEGEN
 70
     0
  9
$PSLTSCALE
 70
     0
  9
$TREEDEPTH
 70
  3020
  9
$CMLSTYLE
  2
STANDARD
  9
$CMLJUST
 70
     0
  9
$CMLSCALE
 40
1.0
  9
$PROXYGRAPHICS
 70
     1
  9
$MEASUREMENT
 70
     0
  9
$CELWEIGHT
370
    -1
  9
$ENDCAPS
280
     0
  9
$JOINSTYLE
280
     0
  9
$LWDISPLAY
290
     0
  9
$INSUNITS
 70
     0
  9
$HYPERLINKBASE
  1

  9
$STYLESHEET
  1

  9
$XEDIT
290
     1
  9
$CEPSNTYPE
380
     0
  9
$PSTYLEMODE
290
     1
  9
$FINGERPRINTGUID
  2
{A3D33EE0-E1E3-4BBD-BC99-C50049493110}
  9
$VERSIONGUID
  2
{FAC5BA38-D81B-40F1-833A-114C8E06C89F}
  9
$EXTNAMES
290
     1
  9
$PSVPSCALE
 40
0.0
  9
$OLESTARTUP
290
     0
  0
ENDSEC
  0
SECTION
  2
CLASSES
  0
CLASS
  1
ACDBDICTIONARYWDFLT
  2
AcDbDictionaryWithDefault
  3
ObjectDBX Classes
 90
        0
280
     0
281
     0
  0
CLASS
  1
ACDBPLACEHOLDER
  2
AcDbPlaceHolder
  3
ObjectDBX Classes
 90
        0
280
     0
281
     0
  0
CLASS
  1
LAYOUT
  2
AcDbLayout
  3
ObjectDBX Classes
 90
        0
280
     0
281
     0
  0
CLASS
  1
DICTIONARYVAR
  2
AcDbDictionaryVar
  3
ObjectDBX Classes
 90
        0
280
     0
281
     0
  0
CLASS
  1
MATERIAL
  2
AcDbMaterial
  3
ObjectDBX Classes
 90
     1153
280
     0
281
     0
  0
CLASS
  1
VISUALSTYLE
  2
AcDbVisualStyle
  3
ObjectDBX Classes
 90
     4095
280
     0
281
     0
  0
CLASS
  1
TABLESTYLE
  2
AcDbTableStyle
  3
ObjectDBX Classes
 90
     4095
280
     0
281
     0
  0
CLASS
  1
SCALE
  2
AcDbScale
  3
ObjectDBX Classes
 90
     1153
280
     0
281
     0
  0
CLASS
  1
MLEADERSTYLE
  2
AcDbMLeaderStyle
  3
ACDB_MLEADERSTYLE_CLASS
 90
     4095
280
     0
281
     0
  0
CLASS
  1
ACDBSECTIONVIEWSTYLE
  2
AcDbSectionViewStyle
  3
ObjectDBX Classes
 90
     1025
280
     0
281
     0
  0
CLASS
  1
ACDBDETAILVIEWSTYLE
  2
AcDbDetailViewStyle
  3
ObjectDBX Classes
 90
     1025
280
     0
281
     0
  0
CLASS
  1
CELLSTYLEMAP
  2
AcDbCellStyleMap
  3
ObjectDBX Classes
 90
     1152
280
     0
281
     0
  0
ENDSEC
  0
SECTION
  2
TABLES
  0
TABLE
  2
VPORT
  5
1DAB0
330
0
100
AcDbSymbolTable
 70
     1
  0
VPORT
  5
1DDFD
330
1DAB0
100
AcDbSymbolTableRecord
100
AcDbViewportTableRecord
  2
*ACTIVE
 70
     0
 10
0.0
 20
0.0
 11
1.0
 21
1.0
 12
244.7890126625371
 22
51.09377342438524
 13
0.0
 23
0.0
 14
10.0
 24
10.0
 15
10.0
 25
10.0
 16
0.0
 26
0.0
 36
1.0
 17
0.0
 27
0.0
 37
0.0
 40
200.789633290315
 41
1.899603698811096
 42
50.0
 43
0.0
 44
0.0
 50
0.0
 51
0.0
 71
     0
 72
   100
 73
     1
 74
     0
 75
     0
 76
     0
 77
     0
 78
     1
281
     0
 65
     1
110
0.0
120
0.0
130
0.0
111
1.0
121
0.0
131
0.0
112
0.0
122
1.0
132
0.0
 79
     0
146
0.0
1001
ACAD_NAV_VCDISPLAY
1070
     3
  0
ENDTAB
  0
TABLE
  2
LTYPE
  5
1DAAD
330
0
100
AcDbSymbolTable
 70
     4
  0
LTYPE
  5
1DABB
330
1DAAD
100
AcDbSymbolTableRecord
100
AcDbLinetypeTableRecord
  2
BYBLOCK
 70
     0
  3

 72
    65
 73
     0
 40
0.0
  0
LTYPE
  5
1DABC
330
1DAAD
100
AcDbSymbolTableRecord
100
AcDbLinetypeTableRecord
  2
BYLAYER
 70
     0
  3

 72
    65
 73
     0
 40
0.0
  0
LTYPE
  5
1DABD
330
1DAAD
100
AcDbSymbolTableRecord
100
AcDbLinetypeTableRecord
  2
CONTINUOUS
 70
     0
  3
Solid line
 72
    65
 73
     0
 40
0.0
  0
LTYPE
  5
1DACB
330
1DAAD
100
AcDbSymbolTableRecord
100
AcDbLinetypeTableRecord
  2
DASHED
 70
     0
  3
__ __ __ __ __ __ __ __ __ __ __ __ __ __ __ __
 72
    65
 73
     2
 40
0.75
 49
0.5
 74
     0
 49
-0.25
 74
     0
  0
LTYPE
  5
1DACC
330
1DAAD
100
AcDbSymbolTableRecord
100
AcDbLinetypeTableRecord
  2
CENTER
 70
     0
  3
____ _ ____ _ ____ _ ____ _ ____ _ ____ _ ____ 
 72
    65
 73
     4
 40
2.0
 49
1.25
 74
     0
 49
-0.25
 74
     0
 49
0.25
 74
     0
 49
-0.25
 74
     0
  0
LTYPE
  5
1DACD
330
1DAAD
100
AcDbSymbolTableRecord
100
AcDbLinetypeTableRecord
  2
PHANTOM
 70
     0
  3
______  __  __  ______  __  __  ______  __  __ 
 72
    65
 73
     6
 40
2.5
 49
1.25
 74
     0
 49
-0.25
 74
     0
 49
0.25
 74
     0
 49
-0.25
 74
     0
 49
0.25
 74
     0
 49
-0.25
 74
     0
  0
ENDTAB
  0
TABLE
  2
LAYER
  5
1DAAA
330
0
100
AcDbSymbolTable
 70
     8
  0
LAYER
  5
1DAB8
102
{ACAD_XDICTIONARY
360
1DE58
102
}
330
1DAAA
100
AcDbSymbolTableRecord
100
AcDbLayerTableRecord
  2
0
 70
     0
 62
     7
  6
CONTINUOUS
370
    -3
390
1DE06
  0
LAYER
  5
1DACE
102
{ACAD_XDICTIONARY
360
1DE5A
102
}
330
1DAAA
100
AcDbSymbolTableRecord
100
AcDbLayerTableRecord
  2
4
 70
     0
 62
     1
  6
CENTER
370
    -3
390
1DE06
  0
LAYER
  5
1DACF
102
{ACAD_XDICTIONARY
360
1DE5C
102
}
330
1DAAA
100
AcDbSymbolTableRecord
100
AcDbLayerTableRecord
  2
5
 70
     0
 62
     6
  6
PHANTOM
370
    -3
390
1DE06
  0
LAYER
  5
1DAD0
102
{ACAD_XDICTIONARY
360
1DE5E
102
}
330
1DAAA
100
AcDbSymbolTableRecord
100
AcDbLayerTableRecord
  2
1
 70
     0
 62
     7
  6
CONTINUOUS
370
    -3
390
1DE06
  0
LAYER
  5
1DAD1
102
{ACAD_XDICTIONARY
360
1DE60
102
}
330
1DAAA
100
AcDbSymbolTableRecord
100
AcDbLayerTableRecord
  2
2
 70
     0
 62
     4
  6
CONTINUOUS
370
    -3
390
1DE06
  0
LAYER
  5
1DAD2
102
{ACAD_XDICTIONARY
360
1DE62
102
}
330
1DAAA
100
AcDbSymbolTableRecord
100
AcDbLayerTableRecord
  2
3
 70
     0
 62
     2
  6
DASHED
370
    -3
390
1DE06
  0
LAYER
  5
1DAD3
102
{ACAD_XDICTIONARY
360
1DE64
102
}
330
1DAAA
100
AcDbSymbolTableRecord
100
AcDbLayerTableRecord
  2
6
 70
     0
 62
     5
  6
CONTINUOUS
370
    -3
390
1DE06
  0
LAYER
  5
1DAD4
102
{ACAD_XDICTIONARY
360
1DE66
102
}
330
1DAAA
100
AcDbSymbolTableRecord
100
AcDbLayerTableRecord
  2
7
 70
     0
 62
     3
  6
CONTINUOUS
370
    -3
390
1DE06
  0
ENDTAB
  0
TABLE
  2
STYLE
  5
1DAAB
330
0
100
AcDbSymbolTable
 70
     1
  0
STYLE
  5
1DAB9
330
1DAAB
100
AcDbSymbolTableRecord
100
AcDbTextStyleTableRecord
  2
STANDARD
 70
     0
 40
0.0
 41
1.0
 50
0.0
 71
     0
 42
5.0
  3
txt
  4

  0
ENDTAB
  0
TABLE
  2
VIEW
  5
1DAAE
330
0
100
AcDbSymbolTable
 70
     2
  0
VIEW
  5
1DAD5
330
1DAAE
100
AcDbSymbolTableRecord
100
AcDbViewTableRecord
  2
7
 70
     0
 40
194.906239
 10
187.7486649999999
 20
97.453119
 41
375.4973299999999
 11
0.0
 21
0.0
 31
1.0
 12
0.0
 22
0.0
 32
0.0
 42
50.0
 43
0.0
 44
0.0
 50
0.0
 71
     0
281
     0
 72
     0
  0
VIEW
  5
1DAD6
330
1DAAE
100
AcDbSymbolTableRecord
100
AcDbViewTableRecord
  2
1
 70
     0
 40
249.466496
 10
136.846708
 20
233.977284
 41
487.485198
 11
0.0
 21
0.0
 31
1.0
 12
0.0
 22
0.0
 32
0.0
 42
50.0
 43
0.0
 44
0.0
 50
0.0
 71
     0
281
     0
 72
     0
  0
ENDTAB
  0
TABLE
  2
UCS
  5
1DAAF
330
0
100
AcDbSymbolTable
 70
     0
  0
ENDTAB
  0
TABLE
  2
APPID
  5
1DAB1
330
0
100
AcDbSymbolTable
 70
     3
  0
APPID
  5
1DABA
330
1DAB1
100
AcDbSymbolTableRecord
100
AcDbRegAppTableRecord
  2
ACAD
 70
     0
  0
APPID
  5
1DE72
330
1DAB1
100
AcDbSymbolTableRecord
100
AcDbRegAppTableRecord
  2
ACAD_NAV_VCDISPLAY
 70
     0
  0
APPID
  5
1DEAB
330
1DAB1
100
AcDbSymbolTableRecord
100
AcDbRegAppTableRecord
  2
ACAD_MLEADERVER
 70
     0
  0
ENDTAB
  0
TABLE
  2
DIMSTYLE
  5
1DAB2
330
0
100
AcDbSymbolTable
 70
     1
100
AcDbDimStyleTable
 71
     0
  0
DIMSTYLE
105
1DAD8
330
1DAB2
100
AcDbSymbolTableRecord
100
AcDbDimStyleTableRecord
  2
STANDARD
 70
     0
 41
3.0
 42
1.0
 43
10.0
 44
1.0
 73
     0
 74
     0
 77
     3
 78
     8
140
3.2
141
0.0
147
1.0
172
     1
173
     1
284
     8
285
     8
286
     8
340
1DAB9
  0
ENDTAB
  0
TABLE
  2
BLOCK_RECORD
  5
1DAA9
330
0
100
AcDbSymbolTable
 70
     0
  0
BLOCK_RECORD
  5
1DAC6
102
{ACAD_XDICTIONARY
360
1DE00
102
}
330
1DAA9
100
AcDbSymbolTableRecord
100
AcDbBlockTableRecord
  2
*MODEL_SPACE
340
1DE54
  0
BLOCK_RECORD
  5
1DAC2
102
{ACAD_XDICTIONARY
360
1DDFE
102
}
330
1DAA9
100
AcDbSymbolTableRecord
100
AcDbBlockTableRecord
  2
*PAPER_SPACE
340
1DE55
  0
ENDTAB
  0
ENDSEC
  0
SECTION
  2
BLOCKS
  0
BLOCK
  5
1DAC7
330
1DAC6
100
AcDbEntity
  8
0
100
AcDbBlockBegin
  2
*MODEL_SPACE
 70
     0
 10
0.0
 20
0.0
 30
0.0
  3
*MODEL_SPACE
  1

  0
ENDBLK
  5
1DAC8
330
1DAC6
100
AcDbEntity
  8
0
100
AcDbBlockEnd
  0
BLOCK
  5
1DAC3
330
1DAC2
100
AcDbEntity
 67
     1
  8
0
100
AcDbBlockBegin
  2
*PAPER_SPACE
 70
     0
 10
0.0
 20
0.0
 30
0.0
  3
*PAPER_SPACE
  1

  0
ENDBLK
  5
1DAC4
330
1DAC2
100
AcDbEntity
 67
     1
  8
0
100
AcDbBlockEnd
  0
ENDSEC
  0
SECTION
  2
ENTITIES
  0
TEXT
  5
1DAE0
330
1DAC6
100
AcDbEntity
  8
6
  6
Continuous
100
AcDbText
 10
27.97945
 20
10.0487
 30
0.0
 40
1.399999999999999
  1
6
 41
1.069393
100
AcDbText
  0
TEXT
  5
1DAE1
330
1DAC6
100
AcDbEntity
  8
1
  6
Continuous
100
AcDbText
 10
17.97945
 20
10.0487
 30
0.0
 40
1.399999999999999
  1
1
 41
1.069393
100
AcDbText
  0
TEXT
  5
1DAE2
330
1DAC6
100
AcDbEntity
  8
1
  6
Continuous
100
AcDbText
 10
9.99995
 20
10.0
 30
0.0
 40
1.399999999999999
  1
LAYER
 41
1.009912999999997
100
AcDbText
  0
TEXT
  5
1DAE3
330
1DAC6
100
AcDbEntity
  8
2
  6
Continuous
100
AcDbText
 10
19.97944999999998
 20
10.0487
 30
0.0
 40
1.399999999999999
  1
2
 41
1.069393
100
AcDbText
  0
TEXT
  5
1DAE4
330
1DAC6
100
AcDbEntity
  8
3
  6
DASHED
100
AcDbText
 10
21.97945
 20
10.0487
 30
0.0
 40
1.399999999999999
  1
3
 41
1.069393
100
AcDbText
  0
TEXT
  5
1DAE5
330
1DAC6
100
AcDbEntity
  8
4
  6
CENTER
100
AcDbText
 10
23.97944999999999
 20
10.0487
 30
0.0
 40
1.399999999999999
  1
4
 41
1.069393
100
AcDbText
  0
TEXT
  5
1DAE6
330
1DAC6
100
AcDbEntity
  8
5
  6
PHANTOM
100
AcDbText
 10
25.97945
 20
10.0487
 30
0.0
 40
1.399999999999999
  1
5
 41
1.069393
100
AcDbText
  0
TEXT
  5
1DAE7
330
1DAC6
100
AcDbEntity
  8
7
  6
Continuous
100
AcDbText
 10
10.00005
 20
26.0
 30
0.0
 40
3.0
  1
CODE No.5451
 41
1.003962999999999
100
AcDbText
  0
TEXT
  5
1DAE8
330
1DAC6
100
AcDbEntity
  8
7
  6
Continuous
100
AcDbText
 10
10.00005
 20
18.0
 30
0.0
 40
3.0
  1
TYPE No.TM-104SUS-17
 41
1.002350999999998
100
AcDbText
  0
TEXT
  5
1DAE9
330
1DAC6
100
AcDbEntity
  8
7
  6
Continuous
100
AcDbText
 10
29.97944999999999
 20
10.0487
 30
0.0
 40
1.399999999999999
  1
7
 41
1.069393
100
AcDbText
  0
ARC
  5
1DAEA
330
1DAC6
100
AcDbEntity
  8
1
  6
Continuous
100
AcDbCircle
 10
287.8
 20
43.85
 30
0.0
 40
2.85
100
AcDbArc
 50
246.607213
 51
113.392787
  0
ARC
  5
1DAEB
330
1DAC6
100
AcDbEntity
  8
1
  6
Continuous
100
AcDbCircle
 10
281.85
 20
43.85
 30
0.0
 40
0.8
100
AcDbArc
 50
90.0
 51
270.0
  0
ARC
  5
1DAEC
330
1DAC6
100
AcDbEntity
  8
1
  6
Continuous
100
AcDbCircle
 10
281.85
 20
47.64999999999999
 30
0.0
 40
3.0
100
AcDbArc
 50
270.0
 51
293.392787
  0
LINE
  5
1DAED
330
1DAC6
100
AcDbEntity
  8
1
  6
Continuous
100
AcDbLine
 10
283.0410969999999
 20
44.896586
 30
0.0
 11
286.6684579999999
 21
46.465743
 31
0.0
  0
LINE
  5
1DAEE
330
1DAC6
100
AcDbEntity
  8
1
  6
Continuous
100
AcDbLine
 10
283.676349
 20
43.42809899999998
 30
0.0
 11
287.30371
 21
44.997256
 31
0.0
  0
ARC
  5
1DAEF
330
1DAC6
100
AcDbEntity
  8
1
  6
Continuous
100
AcDbCircle
 10
281.85
 20
47.64999999999999
 30
0.0
 40
4.599999999999997
100
AcDbArc
 50
270.0
 51
293.392787
  0
ARC
  5
1DAF0
330
1DAC6
100
AcDbEntity
  8
1
  6
Continuous
100
AcDbCircle
 10
287.8
 20
43.85
 30
0.0
 40
1.25
100
AcDbArc
 50
246.607213
 51
113.392787
  0
ARC
  5
1DAF1
330
1DAC6
100
AcDbEntity
  8
1
  6
Continuous
100
AcDbCircle
 10
281.85
 20
40.04999999999999
 30
0.0
 40
3.0
100
AcDbArc
 50
80.84520799999998
 51
90.0
  0
LINE
  5
1DAF2
330
1DAC6
100
AcDbEntity
  8
1
  6
Continuous
100
AcDbLine
 10
283.8776439999999
 20
42.44153299999999
 30
0.0
 11
286.6684579999999
 21
41.234257
 31
0.0
  0
LINE
  5
1DAF3
330
1DAC6
100
AcDbEntity
  8
1
  6
Continuous
100
AcDbLine
 10
284.651642
 20
43.85
 30
0.0
 11
287.30371
 21
42.702744
 31
0.0
  0
ARC
  5
1DAF4
330
1DAC6
100
AcDbEntity
  8
1
  6
Continuous
100
AcDbCircle
 10
275.4499999999998
 20
43.85
 30
0.0
 40
0.8
100
AcDbArc
 50
90.0
 51
270.0
  0
LINE
  5
1DAF5
330
1DAC6
100
AcDbEntity
  8
1
  6
Continuous
100
AcDbLine
 10
278.2516419999998
 20
43.85
 30
0.0
 11
280.9037099999999
 21
42.702744
 31
0.0
  0
LINE
  5
1DAF6
330
1DAC6
100
AcDbEntity
  8
1
  6
Continuous
100
AcDbLine
 10
277.477644
 20
42.44153299999999
 30
0.0
 11
280.268458
 21
41.234257
 31
0.0
  0
ARC
  5
1DAF7
330
1DAC6
100
AcDbEntity
  8
1
  6
Continuous
100
AcDbCircle
 10
275.4499999999998
 20
40.04999999999999
 30
0.0
 40
3.0
100
AcDbArc
 50
80.84520799999998
 51
90.0
  0
ARC
  5
1DAF8
330
1DAC6
100
AcDbEntity
  8
1
  6
Continuous
100
AcDbCircle
 10
281.3999999999999
 20
43.85
 30
0.0
 40
1.25
100
AcDbArc
 50
246.607213
 51
322.0509289999998
  0
ARC
  5
1DAF9
330
1DAC6
100
AcDbEntity
  8
1
  6
Continuous
100
AcDbCircle
 10
275.4499999999998
 20
47.64999999999999
 30
0.0
 40
4.599999999999997
100
AcDbArc
 50
270.0
 51
293.392787
  0
LINE
  5
1DAFA
330
1DAC6
100
AcDbEntity
  8
1
  6
Continuous
100
AcDbLine
 10
277.2763489999999
 20
43.42809899999998
 30
0.0
 11
280.9037099999999
 21
44.997256
 31
0.0
  0
LINE
  5
1DAFB
330
1DAC6
100
AcDbEntity
  8
1
  6
Continuous
100
AcDbLine
 10
276.6410969999999
 20
44.896586
 30
0.0
 11
280.268458
 21
46.465743
 31
0.0
  0
ARC
  5
1DAFC
330
1DAC6
100
AcDbEntity
  8
1
  6
Continuous
100
AcDbCircle
 10
275.4499999999998
 20
47.64999999999999
 30
0.0
 40
3.0
100
AcDbArc
 50
270.0
 51
293.392787
  0
ARC
  5
1DAFD
330
1DAC6
100
AcDbEntity
  8
1
  6
Continuous
100
AcDbCircle
 10
281.3999999999999
 20
43.85
 30
0.0
 40
2.85
100
AcDbArc
 50
246.607213
 51
356.4574319999999
  0
ARC
  5
1DAFE
330
1DAC6
100
AcDbEntity
  8
1
  6
Continuous
100
AcDbCircle
 10
281.3999999999999
 20
43.85
 30
0.0
 40
2.85
100
AcDbArc
 50
29.61694899999999
 51
113.392787
  0
ARC
  5
1DAFF
330
1DAC6
100
AcDbEntity
  8
1
  6
Continuous
100
AcDbCircle
 10
281.3999999999999
 20
43.85
 30
0.0
 40
1.25
100
AcDbArc
 50
42.11114499999999
 51
113.392787
  0
ARC
  5
1DB00
330
1DAC6
100
AcDbEntity
  8
1
  6
Continuous
100
AcDbCircle
 10
269.05
 20
47.64999999999999
 30
0.0
 40
4.599999999999997
100
AcDbArc
 50
270.0
 51
293.392787
  0
ARC
  5
1DB01
330
1DAC6
100
AcDbEntity
  8
1
  6
Continuous
100
AcDbCircle
 10
269.05
 20
47.64999999999999
 30
0.0
 40
3.0
100
AcDbArc
 50
270.0
 51
293.392787
  0
ARC
  5
1DB02
330
1DAC6
100
AcDbEntity
  8
1
  6
Continuous
100
AcDbCircle
 10
268.6
 20
43.85
 30
0.0
 40
2.85
100
AcDbArc
 50
29.61694899999999
 51
113.392787
  0
ARC
  5
1DB03
330
1DAC6
100
AcDbEntity
  8
1
  6
Continuous
100
AcDbCircle
 10
268.6
 20
43.85
 30
0.0
 40
2.85
100
AcDbArc
 50
246.607213
 51
356.4574319999999
  0
ARC
  5
1DB04
330
1DAC6
100
AcDbEntity
  8
1
  6
Continuous
100
AcDbCircle
 10
269.05
 20
40.04999999999999
 30
0.0
 40
3.0
100
AcDbArc
 50
80.84520799999998
 51
90.0
  0
ARC
  5
1DB05
330
1DAC6
100
AcDbEntity
  8
1
  6
Continuous
100
AcDbCircle
 10
269.05
 20
43.85
 30
0.0
 40
0.8
100
AcDbArc
 50
90.0
 51
270.0
  0
ARC
  5
1DB06
330
1DAC6
100
AcDbEntity
  8
1
  6
Continuous
100
AcDbCircle
 10
268.6
 20
43.85
 30
0.0
 40
1.25
100
AcDbArc
 50
42.11114499999999
 51
113.392787
  0
ARC
  5
1DB07
330
1DAC6
100
AcDbEntity
  8
1
  6
Continuous
100
AcDbCircle
 10
268.6
 20
43.85
 30
0.0
 40
1.25
100
AcDbArc
 50
246.607213
 51
322.0509289999998
  0
LINE
  5
1DB08
330
1DAC6
100
AcDbEntity
  8
1
  6
Continuous
100
AcDbLine
 10
263.8410969999999
 20
44.896586
 30
0.0
 11
267.468458
 21
46.465743
 31
0.0
  0
LINE
  5
1DB09
330
1DAC6
100
AcDbEntity
  8
1
  6
Continuous
100
AcDbLine
 10
264.677644
 20
42.44153299999999
 30
0.0
 11
267.468458
 21
41.234257
 31
0.0
  0
ARC
  5
1DB0A
330
1DAC6
100
AcDbEntity
  8
1
  6
Continuous
100
AcDbCircle
 10
262.6499999999999
 20
47.64999999999999
 30
0.0
 40
3.0
100
AcDbArc
 50
270.0
 51
293.392787
  0
ARC
  5
1DB0B
330
1DAC6
100
AcDbEntity
  8
1
  6
Continuous
100
AcDbCircle
 10
262.6499999999999
 20
47.64999999999999
 30
0.0
 40
4.599999999999997
100
AcDbArc
 50
270.0
 51
293.392787
  0
ARC
  5
1DB0C
330
1DAC6
100
AcDbEntity
  8
1
  6
Continuous
100
AcDbCircle
 10
262.6499999999999
 20
40.04999999999999
 30
0.0
 40
3.0
100
AcDbArc
 50
80.84520799999998
 51
90.0
  0
ARC
  5
1DB0D
330
1DAC6
100
AcDbEntity
  8
1
  6
Continuous
100
AcDbCircle
 10
262.6499999999999
 20
43.85
 30
0.0
 40
0.8
100
AcDbArc
 50
90.0
 51
270.0
  0
LINE
  5
1DB0E
330
1DAC6
100
AcDbEntity
  8
1
  6
Continuous
100
AcDbLine
 10
264.476349
 20
43.42809899999998
 30
0.0
 11
268.1037099999999
 21
44.997256
 31
0.0
  0
LINE
  5
1DB0F
330
1DAC6
100
AcDbEntity
  8
1
  6
Continuous
100
AcDbLine
 10
265.4516419999998
 20
43.85
 30
0.0
 11
268.1037099999999
 21
42.702744
 31
0.0
  0
LINE
  5
1DB10
330
1DAC6
100
AcDbEntity
  8
1
  6
Continuous
100
AcDbLine
 10
271.077644
 20
42.44153299999999
 30
0.0
 11
273.8684579999999
 21
41.234257
 31
0.0
  0
LINE
  5
1DB11
330
1DAC6
100
AcDbEntity
  8
1
  6
Continuous
100
AcDbLine
 10
271.8516419999999
 20
43.85
 30
0.0
 11
274.50371
 21
42.702744
 31
0.0
  0
ARC
  5
1DB12
330
1DAC6
100
AcDbEntity
  8
1
  6
Continuous
100
AcDbCircle
 10
275.0
 20
43.85
 30
0.0
 40
1.25
100
AcDbArc
 50
246.607213
 51
322.0509289999998
  0
LINE
  5
1DB13
330
1DAC6
100
AcDbEntity
  8
1
  6
Continuous
100
AcDbLine
 10
270.8763489999999
 20
43.42809899999998
 30
0.0
 11
274.50371
 21
44.997256
 31
0.0
  0
LINE
  5
1DB14
330
1DAC6
100
AcDbEntity
  8
1
  6
Continuous
100
AcDbLine
 10
270.241097
 20
44.896586
 30
0.0
 11
273.8684579999999
 21
46.465743
 31
0.0
  0
ARC
  5
1DB15
330
1DAC6
100
AcDbEntity
  8
1
  6
Continuous
100
AcDbCircle
 10
275.0
 20
43.85
 30
0.0
 40
2.85
100
AcDbArc
 50
246.607213
 51
356.4574319999999
  0
ARC
  5
1DB16
330
1DAC6
100
AcDbEntity
  8
1
  6
Continuous
100
AcDbCircle
 10
256.25
 20
47.64999999999999
 30
0.0
 40
4.599999999999997
100
AcDbArc
 50
270.0
 51
293.392787
  0
ARC
  5
1DB17
330
1DAC6
100
AcDbEntity
  8
1
  6
Continuous
100
AcDbCircle
 10
256.25
 20
47.64999999999999
 30
0.0
 40
3.0
100
AcDbArc
 50
270.0
 51
293.392787
  0
ARC
  5
1DB18
330
1DAC6
100
AcDbEntity
  8
1
  6
Continuous
100
AcDbCircle
 10
255.8
 20
43.85
 30
0.0
 40
2.85
100
AcDbArc
 50
29.61694899999999
 51
113.392787
  0
ARC
  5
1DB19
330
1DAC6
100
AcDbEntity
  8
1
  6
Continuous
100
AcDbCircle
 10
255.8
 20
43.85
 30
0.0
 40
2.85
100
AcDbArc
 50
246.607213
 51
356.4574319999999
  0
ARC
  5
1DB1A
330
1DAC6
100
AcDbEntity
  8
1
  6
Continuous
100
AcDbCircle
 10
256.25
 20
40.04999999999999
 30
0.0
 40
3.0
100
AcDbArc
 50
80.84520799999998
 51
90.0
  0
ARC
  5
1DB1B
330
1DAC6
100
AcDbEntity
  8
1
  6
Continuous
100
AcDbCircle
 10
256.25
 20
43.85
 30
0.0
 40
0.8
100
AcDbArc
 50
90.0
 51
270.0
  0
ARC
  5
1DB1C
330
1DAC6
100
AcDbEntity
  8
1
  6
Continuous
100
AcDbCircle
 10
255.8
 20
43.85
 30
0.0
 40
1.25
100
AcDbArc
 50
42.11114499999999
 51
113.392787
  0
ARC
  5
1DB1D
330
1DAC6
100
AcDbEntity
  8
1
  6
Continuous
100
AcDbCircle
 10
255.8
 20
43.85
 30
0.0
 40
1.25
100
AcDbArc
 50
246.607213
 51
322.0509289999998
  0
LINE
  5
1DB1E
330
1DAC6
100
AcDbEntity
  8
1
  6
Continuous
100
AcDbLine
 10
251.041097
 20
44.896586
 30
0.0
 11
254.6684579999999
 21
46.465743
 31
0.0
  0
LINE
  5
1DB1F
330
1DAC6
100
AcDbEntity
  8
1
  6
Continuous
100
AcDbLine
 10
251.8776439999999
 20
42.44153299999999
 30
0.0
 11
254.6684579999999
 21
41.234257
 31
0.0
  0
ARC
  5
1DB20
330
1DAC6
100
AcDbEntity
  8
1
  6
Continuous
100
AcDbCircle
 10
249.8499999999999
 20
47.64999999999999
 30
0.0
 40
3.0
100
AcDbArc
 50
270.0
 51
293.392787
  0
ARC
  5
1DB21
330
1DAC6
100
AcDbEntity
  8
1
  6
Continuous
100
AcDbCircle
 10
249.8499999999999
 20
47.64999999999999
 30
0.0
 40
4.599999999999997
100
AcDbArc
 50
270.0
 51
293.392787
  0
ARC
  5
1DB22
330
1DAC6
100
AcDbEntity
  8
1
  6
Continuous
100
AcDbCircle
 10
249.8499999999999
 20
40.04999999999999
 30
0.0
 40
3.0
100
AcDbArc
 50
80.84520799999998
 51
90.0
  0
ARC
  5
1DB23
330
1DAC6
100
AcDbEntity
  8
1
  6
Continuous
100
AcDbCircle
 10
249.8499999999999
 20
43.85
 30
0.0
 40
0.8
100
AcDbArc
 50
90.0
 51
270.0
  0
LINE
  5
1DB24
330
1DAC6
100
AcDbEntity
  8
1
  6
Continuous
100
AcDbLine
 10
251.6763489999999
 20
43.42809899999998
 30
0.0
 11
255.30371
 21
44.997256
 31
0.0
  0
LINE
  5
1DB25
330
1DAC6
100
AcDbEntity
  8
1
  6
Continuous
100
AcDbLine
 10
252.6516419999999
 20
43.85
 30
0.0
 11
255.30371
 21
42.702744
 31
0.0
  0
LINE
  5
1DB26
330
1DAC6
100
AcDbEntity
  8
1
  6
Continuous
100
AcDbLine
 10
258.2776439999999
 20
42.44153299999999
 30
0.0
 11
261.068458
 21
41.234257
 31
0.0
  0
LINE
  5
1DB27
330
1DAC6
100
AcDbEntity
  8
1
  6
Continuous
100
AcDbLine
 10
259.051642
 20
43.85
 30
0.0
 11
261.70371
 21
42.702744
 31
0.0
  0
ARC
  5
1DB28
330
1DAC6
100
AcDbEntity
  8
1
  6
Continuous
100
AcDbCircle
 10
262.1999999999998
 20
43.85
 30
0.0
 40
1.25
100
AcDbArc
 50
246.607213
 51
322.0509289999998
  0
LINE
  5
1DB29
330
1DAC6
100
AcDbEntity
  8
1
  6
Continuous
100
AcDbLine
 10
258.0763489999999
 20
43.42809899999998
 30
0.0
 11
261.70371
 21
44.997256
 31
0.0
  0
LINE
  5
1DB2A
330
1DAC6
100
AcDbEntity
  8
1
  6
Continuous
100
AcDbLine
 10
257.441097
 20
44.896586
 30
0.0
 11
261.068458
 21
46.465743
 31
0.0
  0
ARC
  5
1DB2B
330
1DAC6
100
AcDbEntity
  8
1
  6
Continuous
100
AcDbCircle
 10
262.1999999999998
 20
43.85
 30
0.0
 40
2.85
100
AcDbArc
 50
246.607213
 51
356.4574319999999
  0
ARC
  5
1DB2C
330
1DAC6
100
AcDbEntity
  8
1
  6
Continuous
100
AcDbCircle
 10
243.4499999999999
 20
47.64999999999999
 30
0.0
 40
4.599999999999997
100
AcDbArc
 50
270.0
 51
293.392787
  0
ARC
  5
1DB2D
330
1DAC6
100
AcDbEntity
  8
1
  6
Continuous
100
AcDbCircle
 10
243.4499999999999
 20
47.64999999999999
 30
0.0
 40
3.0
100
AcDbArc
 50
270.0
 51
293.392787
  0
ARC
  5
1DB2E
330
1DAC6
100
AcDbEntity
  8
1
  6
Continuous
100
AcDbCircle
 10
243.0
 20
43.85
 30
0.0
 40
2.85
100
AcDbArc
 50
29.61694899999999
 51
113.392787
  0
ARC
  5
1DB2F
330
1DAC6
100
AcDbEntity
  8
1
  6
Continuous
100
AcDbCircle
 10
243.0
 20
43.85
 30
0.0
 40
2.85
100
AcDbArc
 50
246.607213
 51
356.4574319999999
  0
ARC
  5
1DB30
330
1DAC6
100
AcDbEntity
  8
1
  6
Continuous
100
AcDbCircle
 10
243.4499999999999
 20
40.04999999999999
 30
0.0
 40
3.0
100
AcDbArc
 50
80.84520799999998
 51
90.0
  0
ARC
  5
1DB31
330
1DAC6
100
AcDbEntity
  8
1
  6
Continuous
100
AcDbCircle
 10
243.4499999999999
 20
43.85
 30
0.0
 40
0.8
100
AcDbArc
 50
90.0
 51
270.0
  0
ARC
  5
1DB32
330
1DAC6
100
AcDbEntity
  8
1
  6
Continuous
100
AcDbCircle
 10
243.0
 20
43.85
 30
0.0
 40
1.25
100
AcDbArc
 50
42.11114499999999
 51
113.392787
  0
ARC
  5
1DB33
330
1DAC6
100
AcDbEntity
  8
1
  6
Continuous
100
AcDbCircle
 10
243.0
 20
43.85
 30
0.0
 40
1.25
100
AcDbArc
 50
246.607213
 51
322.0509289999998
  0
LINE
  5
1DB34
330
1DAC6
100
AcDbEntity
  8
1
  6
Continuous
100
AcDbLine
 10
238.241097
 20
44.896586
 30
0.0
 11
241.868458
 21
46.465743
 31
0.0
  0
LINE
  5
1DB35
330
1DAC6
100
AcDbEntity
  8
1
  6
Continuous
100
AcDbLine
 10
239.0776439999999
 20
42.44153299999999
 30
0.0
 11
241.868458
 21
41.234257
 31
0.0
  0
ARC
  5
1DB36
330
1DAC6
100
AcDbEntity
  8
1
  6
Continuous
100
AcDbCircle
 10
237.05
 20
47.64999999999999
 30
0.0
 40
3.0
100
AcDbArc
 50
270.0
 51
293.392787
  0
ARC
  5
1DB37
330
1DAC6
100
AcDbEntity
  8
1
  6
Continuous
100
AcDbCircle
 10
237.05
 20
47.64999999999999
 30
0.0
 40
4.599999999999997
100
AcDbArc
 50
270.0
 51
293.392787
  0
ARC
  5
1DB38
330
1DAC6
100
AcDbEntity
  8
1
  6
Continuous
100
AcDbCircle
 10
237.05
 20
40.04999999999999
 30
0.0
 40
3.0
100
AcDbArc
 50
80.84520799999998
 51
90.0
  0
ARC
  5
1DB39
330
1DAC6
100
AcDbEntity
  8
1
  6
Continuous
100
AcDbCircle
 10
237.05
 20
43.85
 30
0.0
 40
0.8
100
AcDbArc
 50
90.0
 51
270.0
  0
LINE
  5
1DB3A
330
1DAC6
100
AcDbEntity
  8
1
  6
Continuous
100
AcDbLine
 10
238.876349
 20
43.42809899999998
 30
0.0
 11
242.50371
 21
44.997256
 31
0.0
  0
LINE
  5
1DB3B
330
1DAC6
100
AcDbEntity
  8
1
  6
Continuous
100
AcDbLine
 10
239.8516419999999
 20
43.85
 30
0.0
 11
242.50371
 21
42.702744
 31
0.0
  0
LINE
  5
1DB3C
330
1DAC6
100
AcDbEntity
  8
1
  6
Continuous
100
AcDbLine
 10
245.4776439999999
 20
42.44153299999999
 30
0.0
 11
248.268458
 21
41.234257
 31
0.0
  0
LINE
  5
1DB3D
330
1DAC6
100
AcDbEntity
  8
1
  6
Continuous
100
AcDbLine
 10
246.251642
 20
43.85
 30
0.0
 11
248.90371
 21
42.702744
 31
0.0
  0
ARC
  5
1DB3E
330
1DAC6
100
AcDbEntity
  8
1
  6
Continuous
100
AcDbCircle
 10
249.4
 20
43.85
 30
0.0
 40
1.25
100
AcDbArc
 50
246.607213
 51
322.0509289999998
  0
LINE
  5
1DB3F
330
1DAC6
100
AcDbEntity
  8
1
  6
Continuous
100
AcDbLine
 10
245.276349
 20
43.42809899999998
 30
0.0
 11
248.90371
 21
44.997256
 31
0.0
  0
LINE
  5
1DB40
330
1DAC6
100
AcDbEntity
  8
1
  6
Continuous
100
AcDbLine
 10
244.641097
 20
44.896586
 30
0.0
 11
248.268458
 21
46.465743
 31
0.0
  0
ARC
  5
1DB41
330
1DAC6
100
AcDbEntity
  8
1
  6
Continuous
100
AcDbCircle
 10
249.4
 20
43.85
 30
0.0
 40
2.85
100
AcDbArc
 50
246.607213
 51
356.4574319999999
  0
ARC
  5
1DB42
330
1DAC6
100
AcDbEntity
  8
1
  6
Continuous
100
AcDbCircle
 10
230.65
 20
47.64999999999999
 30
0.0
 40
4.599999999999997
100
AcDbArc
 50
270.0
 51
293.392787
  0
ARC
  5
1DB43
330
1DAC6
100
AcDbEntity
  8
1
  6
Continuous
100
AcDbCircle
 10
230.65
 20
47.64999999999999
 30
0.0
 40
3.0
100
AcDbArc
 50
270.0
 51
293.392787
  0
ARC
  5
1DB44
330
1DAC6
100
AcDbEntity
  8
1
  6
Continuous
100
AcDbCircle
 10
230.2
 20
43.85
 30
0.0
 40
2.85
100
AcDbArc
 50
29.61694899999999
 51
113.392787
  0
ARC
  5
1DB45
330
1DAC6
100
AcDbEntity
  8
1
  6
Continuous
100
AcDbCircle
 10
230.2
 20
43.85
 30
0.0
 40
2.85
100
AcDbArc
 50
246.607213
 51
356.4574319999999
  0
ARC
  5
1DB46
330
1DAC6
100
AcDbEntity
  8
1
  6
Continuous
100
AcDbCircle
 10
230.65
 20
40.04999999999999
 30
0.0
 40
3.0
100
AcDbArc
 50
80.84520799999998
 51
90.0
  0
ARC
  5
1DB47
330
1DAC6
100
AcDbEntity
  8
1
  6
Continuous
100
AcDbCircle
 10
230.65
 20
43.85
 30
0.0
 40
0.8
100
AcDbArc
 50
90.0
 51
270.0
  0
ARC
  5
1DB48
330
1DAC6
100
AcDbEntity
  8
1
  6
Continuous
100
AcDbCircle
 10
230.2
 20
43.85
 30
0.0
 40
1.25
100
AcDbArc
 50
42.11114499999999
 51
113.392787
  0
ARC
  5
1DB49
330
1DAC6
100
AcDbEntity
  8
1
  6
Continuous
100
AcDbCircle
 10
230.2
 20
43.85
 30
0.0
 40
1.25
100
AcDbArc
 50
246.607213
 51
322.0509289999998
  0
LINE
  5
1DB4A
330
1DAC6
100
AcDbEntity
  8
1
  6
Continuous
100
AcDbLine
 10
225.441097
 20
44.896586
 30
0.0
 11
229.068458
 21
46.465743
 31
0.0
  0
LINE
  5
1DB4B
330
1DAC6
100
AcDbEntity
  8
1
  6
Continuous
100
AcDbLine
 10
226.2776439999999
 20
42.44153299999999
 30
0.0
 11
229.068458
 21
41.234257
 31
0.0
  0
ARC
  5
1DB4C
330
1DAC6
100
AcDbEntity
  8
1
  6
Continuous
100
AcDbCircle
 10
224.25
 20
47.64999999999999
 30
0.0
 40
3.0
100
AcDbArc
 50
270.0
 51
293.392787
  0
ARC
  5
1DB4D
330
1DAC6
100
AcDbEntity
  8
1
  6
Continuous
100
AcDbCircle
 10
224.25
 20
47.64999999999999
 30
0.0
 40
4.599999999999997
100
AcDbArc
 50
270.0
 51
293.392787
  0
ARC
  5
1DB4E
330
1DAC6
100
AcDbEntity
  8
1
  6
Continuous
100
AcDbCircle
 10
224.25
 20
40.04999999999999
 30
0.0
 40
3.0
100
AcDbArc
 50
80.84520799999998
 51
90.0
  0
ARC
  5
1DB4F
330
1DAC6
100
AcDbEntity
  8
1
  6
Continuous
100
AcDbCircle
 10
224.25
 20
43.85
 30
0.0
 40
0.8
100
AcDbArc
 50
90.0
 51
270.0
  0
LINE
  5
1DB50
330
1DAC6
100
AcDbEntity
  8
1
  6
Continuous
100
AcDbLine
 10
226.0763489999999
 20
43.42809899999998
 30
0.0
 11
229.70371
 21
44.997256
 31
0.0
  0
LINE
  5
1DB51
330
1DAC6
100
AcDbEntity
  8
1
  6
Continuous
100
AcDbLine
 10
227.0516419999999
 20
43.85
 30
0.0
 11
229.70371
 21
42.702744
 31
0.0
  0
LINE
  5
1DB52
330
1DAC6
100
AcDbEntity
  8
1
  6
Continuous
100
AcDbLine
 10
232.6776439999999
 20
42.44153299999999
 30
0.0
 11
235.468458
 21
41.234257
 31
0.0
  0
LINE
  5
1DB53
330
1DAC6
100
AcDbEntity
  8
1
  6
Continuous
100
AcDbLine
 10
233.4516419999999
 20
43.85
 30
0.0
 11
236.10371
 21
42.702744
 31
0.0
  0
ARC
  5
1DB54
330
1DAC6
100
AcDbEntity
  8
1
  6
Continuous
100
AcDbCircle
 10
236.6
 20
43.85
 30
0.0
 40
1.25
100
AcDbArc
 50
246.607213
 51
322.0509289999998
  0
LINE
  5
1DB55
330
1DAC6
100
AcDbEntity
  8
1
  6
Continuous
100
AcDbLine
 10
232.476349
 20
43.42809899999998
 30
0.0
 11
236.10371
 21
44.997256
 31
0.0
  0
LINE
  5
1DB56
330
1DAC6
100
AcDbEntity
  8
1
  6
Continuous
100
AcDbLine
 10
231.8410969999999
 20
44.896586
 30
0.0
 11
235.468458
 21
46.465743
 31
0.0
  0
ARC
  5
1DB57
330
1DAC6
100
AcDbEntity
  8
1
  6
Continuous
100
AcDbCircle
 10
236.6
 20
43.85
 30
0.0
 40
2.85
100
AcDbArc
 50
246.607213
 51
356.4574319999999
  0
ARC
  5
1DB58
330
1DAC6
100
AcDbEntity
  8
1
  6
Continuous
100
AcDbCircle
 10
217.85
 20
47.64999999999999
 30
0.0
 40
4.599999999999997
100
AcDbArc
 50
270.0
 51
293.392787
  0
ARC
  5
1DB59
330
1DAC6
100
AcDbEntity
  8
1
  6
Continuous
100
AcDbCircle
 10
217.85
 20
47.64999999999999
 30
0.0
 40
3.0
100
AcDbArc
 50
270.0
 51
293.392787
  0
ARC
  5
1DB5A
330
1DAC6
100
AcDbEntity
  8
1
  6
Continuous
100
AcDbCircle
 10
217.3999999999999
 20
43.85
 30
0.0
 40
2.85
100
AcDbArc
 50
29.61694899999999
 51
113.392787
  0
ARC
  5
1DB5B
330
1DAC6
100
AcDbEntity
  8
1
  6
Continuous
100
AcDbCircle
 10
217.3999999999999
 20
43.85
 30
0.0
 40
2.85
100
AcDbArc
 50
246.607213
 51
356.4574319999999
  0
ARC
  5
1DB5C
330
1DAC6
100
AcDbEntity
  8
1
  6
Continuous
100
AcDbCircle
 10
217.85
 20
40.04999999999999
 30
0.0
 40
3.0
100
AcDbArc
 50
80.84520799999998
 51
90.0
  0
ARC
  5
1DB5D
330
1DAC6
100
AcDbEntity
  8
1
  6
Continuous
100
AcDbCircle
 10
217.85
 20
43.85
 30
0.0
 40
0.8
100
AcDbArc
 50
90.0
 51
270.0
  0
ARC
  5
1DB5E
330
1DAC6
100
AcDbEntity
  8
1
  6
Continuous
100
AcDbCircle
 10
217.3999999999999
 20
43.85
 30
0.0
 40
1.25
100
AcDbArc
 50
42.11114499999999
 51
113.392787
  0
ARC
  5
1DB5F
330
1DAC6
100
AcDbEntity
  8
1
  6
Continuous
100
AcDbCircle
 10
217.3999999999999
 20
43.85
 30
0.0
 40
1.25
100
AcDbArc
 50
246.607213
 51
322.0509289999998
  0
LINE
  5
1DB60
330
1DAC6
100
AcDbEntity
  8
1
  6
Continuous
100
AcDbLine
 10
212.641097
 20
44.896586
 30
0.0
 11
216.268458
 21
46.465743
 31
0.0
  0
LINE
  5
1DB61
330
1DAC6
100
AcDbEntity
  8
1
  6
Continuous
100
AcDbLine
 10
213.4776439999999
 20
42.44153299999999
 30
0.0
 11
216.268458
 21
41.234257
 31
0.0
  0
ARC
  5
1DB62
330
1DAC6
100
AcDbEntity
  8
1
  6
Continuous
100
AcDbCircle
 10
211.45
 20
47.64999999999999
 30
0.0
 40
3.0
100
AcDbArc
 50
270.0
 51
293.392787
  0
ARC
  5
1DB63
330
1DAC6
100
AcDbEntity
  8
1
  6
Continuous
100
AcDbCircle
 10
211.45
 20
47.64999999999999
 30
0.0
 40
4.599999999999997
100
AcDbArc
 50
270.0
 51
293.392787
  0
ARC
  5
1DB64
330
1DAC6
100
AcDbEntity
  8
1
  6
Continuous
100
AcDbCircle
 10
211.45
 20
40.04999999999999
 30
0.0
 40
3.0
100
AcDbArc
 50
80.84520799999998
 51
90.0
  0
ARC
  5
1DB65
330
1DAC6
100
AcDbEntity
  8
1
  6
Continuous
100
AcDbCircle
 10
211.45
 20
43.85
 30
0.0
 40
0.8
100
AcDbArc
 50
90.0
 51
270.0
  0
LINE
  5
1DB66
330
1DAC6
100
AcDbEntity
  8
1
  6
Continuous
100
AcDbLine
 10
213.276349
 20
43.42809899999998
 30
0.0
 11
216.90371
 21
44.997256
 31
0.0
  0
LINE
  5
1DB67
330
1DAC6
100
AcDbEntity
  8
1
  6
Continuous
100
AcDbLine
 10
214.251642
 20
43.85
 30
0.0
 11
216.90371
 21
42.702744
 31
0.0
  0
LINE
  5
1DB68
330
1DAC6
100
AcDbEntity
  8
1
  6
Continuous
100
AcDbLine
 10
219.877644
 20
42.44153299999999
 30
0.0
 11
222.668458
 21
41.234257
 31
0.0
  0
LINE
  5
1DB69
330
1DAC6
100
AcDbEntity
  8
1
  6
Continuous
100
AcDbLine
 10
220.6516419999999
 20
43.85
 30
0.0
 11
223.30371
 21
42.702744
 31
0.0
  0
ARC
  5
1DB6A
330
1DAC6
100
AcDbEntity
  8
1
  6
Continuous
100
AcDbCircle
 10
223.7999999999999
 20
43.85
 30
0.0
 40
1.25
100
AcDbArc
 50
246.607213
 51
322.0509289999998
  0
LINE
  5
1DB6B
330
1DAC6
100
AcDbEntity
  8
1
  6
Continuous
100
AcDbLine
 10
219.6763489999999
 20
43.42809899999998
 30
0.0
 11
223.30371
 21
44.997256
 31
0.0
  0
LINE
  5
1DB6C
330
1DAC6
100
AcDbEntity
  8
1
  6
Continuous
100
AcDbLine
 10
219.041097
 20
44.896586
 30
0.0
 11
222.668458
 21
46.465743
 31
0.0
  0
ARC
  5
1DB6D
330
1DAC6
100
AcDbEntity
  8
1
  6
Continuous
100
AcDbCircle
 10
223.7999999999999
 20
43.85
 30
0.0
 40
2.85
100
AcDbArc
 50
246.607213
 51
356.4574319999999
  0
ARC
  5
1DB6E
330
1DAC6
100
AcDbEntity
  8
1
  6
Continuous
100
AcDbCircle
 10
205.0499999999999
 20
47.64999999999999
 30
0.0
 40
4.599999999999997
100
AcDbArc
 50
270.0
 51
293.392787
  0
ARC
  5
1DB6F
330
1DAC6
100
AcDbEntity
  8
1
  6
Continuous
100
AcDbCircle
 10
205.0499999999999
 20
47.64999999999999
 30
0.0
 40
3.0
100
AcDbArc
 50
270.0
 51
293.392787
  0
ARC
  5
1DB70
330
1DAC6
100
AcDbEntity
  8
1
  6
Continuous
100
AcDbCircle
 10
204.5999999999999
 20
43.85
 30
0.0
 40
2.85
100
AcDbArc
 50
29.61694899999999
 51
113.392787
  0
ARC
  5
1DB71
330
1DAC6
100
AcDbEntity
  8
1
  6
Continuous
100
AcDbCircle
 10
204.5999999999999
 20
43.85
 30
0.0
 40
2.85
100
AcDbArc
 50
246.607213
 51
356.4574319999999
  0
ARC
  5
1DB72
330
1DAC6
100
AcDbEntity
  8
1
  6
Continuous
100
AcDbCircle
 10
205.0499999999999
 20
40.04999999999999
 30
0.0
 40
3.0
100
AcDbArc
 50
80.84520799999998
 51
90.0
  0
ARC
  5
1DB73
330
1DAC6
100
AcDbEntity
  8
1
  6
Continuous
100
AcDbCircle
 10
205.0499999999999
 20
43.85
 30
0.0
 40
0.8
100
AcDbArc
 50
90.0
 51
270.0
  0
ARC
  5
1DB74
330
1DAC6
100
AcDbEntity
  8
1
  6
Continuous
100
AcDbCircle
 10
204.5999999999999
 20
43.85
 30
0.0
 40
1.25
100
AcDbArc
 50
42.11114499999999
 51
113.392787
  0
ARC
  5
1DB75
330
1DAC6
100
AcDbEntity
  8
1
  6
Continuous
100
AcDbCircle
 10
204.5999999999999
 20
43.85
 30
0.0
 40
1.25
100
AcDbArc
 50
246.607213
 51
322.0509289999998
  0
LINE
  5
1DB76
330
1DAC6
100
AcDbEntity
  8
1
  6
Continuous
100
AcDbLine
 10
199.8410969999999
 20
44.896586
 30
0.0
 11
203.4684579999999
 21
46.465743
 31
0.0
  0
LINE
  5
1DB77
330
1DAC6
100
AcDbEntity
  8
1
  6
Continuous
100
AcDbLine
 10
200.6776439999999
 20
42.44153299999999
 30
0.0
 11
203.4684579999999
 21
41.234257
 31
0.0
  0
ARC
  5
1DB78
330
1DAC6
100
AcDbEntity
  8
1
  6
Continuous
100
AcDbCircle
 10
198.65
 20
47.64999999999999
 30
0.0
 40
3.0
100
AcDbArc
 50
270.0
 51
293.392787
  0
ARC
  5
1DB79
330
1DAC6
100
AcDbEntity
  8
1
  6
Continuous
100
AcDbCircle
 10
198.65
 20
47.64999999999999
 30
0.0
 40
4.599999999999997
100
AcDbArc
 50
270.0
 51
293.392787
  0
ARC
  5
1DB7A
330
1DAC6
100
AcDbEntity
  8
1
  6
Continuous
100
AcDbCircle
 10
198.65
 20
40.04999999999999
 30
0.0
 40
3.0
100
AcDbArc
 50
80.84520799999998
 51
90.0
  0
ARC
  5
1DB7B
330
1DAC6
100
AcDbEntity
  8
1
  6
Continuous
100
AcDbCircle
 10
198.65
 20
43.85
 30
0.0
 40
0.8
100
AcDbArc
 50
90.0
 51
270.0
  0
LINE
  5
1DB7C
330
1DAC6
100
AcDbEntity
  8
1
  6
Continuous
100
AcDbLine
 10
200.476349
 20
43.42809899999998
 30
0.0
 11
204.10371
 21
44.997256
 31
0.0
  0
LINE
  5
1DB7D
330
1DAC6
100
AcDbEntity
  8
1
  6
Continuous
100
AcDbLine
 10
201.451642
 20
43.85
 30
0.0
 11
204.10371
 21
42.702744
 31
0.0
  0
LINE
  5
1DB7E
330
1DAC6
100
AcDbEntity
  8
1
  6
Continuous
100
AcDbLine
 10
207.0776439999999
 20
42.44153299999999
 30
0.0
 11
209.868458
 21
41.234257
 31
0.0
  0
LINE
  5
1DB7F
330
1DAC6
100
AcDbEntity
  8
1
  6
Continuous
100
AcDbLine
 10
207.851642
 20
43.85
 30
0.0
 11
210.50371
 21
42.702744
 31
0.0
  0
ARC
  5
1DB80
330
1DAC6
100
AcDbEntity
  8
1
  6
Continuous
100
AcDbCircle
 10
211.0
 20
43.85
 30
0.0
 40
1.25
100
AcDbArc
 50
246.607213
 51
322.0509289999998
  0
LINE
  5
1DB81
330
1DAC6
100
AcDbEntity
  8
1
  6
Continuous
100
AcDbLine
 10
206.876349
 20
43.42809899999998
 30
0.0
 11
210.50371
 21
44.997256
 31
0.0
  0
LINE
  5
1DB82
330
1DAC6
100
AcDbEntity
  8
1
  6
Continuous
100
AcDbLine
 10
206.241097
 20
44.896586
 30
0.0
 11
209.868458
 21
46.465743
 31
0.0
  0
ARC
  5
1DB83
330
1DAC6
100
AcDbEntity
  8
1
  6
Continuous
100
AcDbCircle
 10
211.0
 20
43.85
 30
0.0
 40
2.85
100
AcDbArc
 50
246.607213
 51
356.4574319999999
  0
ARC
  5
1DB84
330
1DAC6
100
AcDbEntity
  8
1
  6
Continuous
100
AcDbCircle
 10
192.25
 20
47.64999999999999
 30
0.0
 40
4.599999999999997
100
AcDbArc
 50
270.0
 51
293.392787
  0
ARC
  5
1DB85
330
1DAC6
100
AcDbEntity
  8
1
  6
Continuous
100
AcDbCircle
 10
192.25
 20
47.64999999999999
 30
0.0
 40
3.0
100
AcDbArc
 50
270.0
 51
293.392787
  0
ARC
  5
1DB86
330
1DAC6
100
AcDbEntity
  8
1
  6
Continuous
100
AcDbCircle
 10
191.8
 20
43.85
 30
0.0
 40
2.85
100
AcDbArc
 50
29.61694899999999
 51
113.392787
  0
ARC
  5
1DB87
330
1DAC6
100
AcDbEntity
  8
1
  6
Continuous
100
AcDbCircle
 10
191.8
 20
43.85
 30
0.0
 40
2.85
100
AcDbArc
 50
246.607213
 51
356.4574319999999
  0
ARC
  5
1DB88
330
1DAC6
100
AcDbEntity
  8
1
  6
Continuous
100
AcDbCircle
 10
192.25
 20
40.04999999999999
 30
0.0
 40
3.0
100
AcDbArc
 50
80.84520799999998
 51
90.0
  0
ARC
  5
1DB89
330
1DAC6
100
AcDbEntity
  8
1
  6
Continuous
100
AcDbCircle
 10
192.25
 20
43.85
 30
0.0
 40
0.8
100
AcDbArc
 50
90.0
 51
270.0
  0
ARC
  5
1DB8A
330
1DAC6
100
AcDbEntity
  8
1
  6
Continuous
100
AcDbCircle
 10
191.8
 20
43.85
 30
0.0
 40
1.25
100
AcDbArc
 50
42.11114499999999
 51
113.392787
  0
ARC
  5
1DB8B
330
1DAC6
100
AcDbEntity
  8
1
  6
Continuous
100
AcDbCircle
 10
191.8
 20
43.85
 30
0.0
 40
1.25
100
AcDbArc
 50
246.607213
 51
322.0509289999998
  0
LINE
  5
1DB8C
330
1DAC6
100
AcDbEntity
  8
1
  6
Continuous
100
AcDbLine
 10
187.041097
 20
44.896586
 30
0.0
 11
190.6684579999999
 21
46.465743
 31
0.0
  0
LINE
  5
1DB8D
330
1DAC6
100
AcDbEntity
  8
1
  6
Continuous
100
AcDbLine
 10
187.877644
 20
42.44153299999999
 30
0.0
 11
190.6684579999999
 21
41.234257
 31
0.0
  0
ARC
  5
1DB8E
330
1DAC6
100
AcDbEntity
  8
1
  6
Continuous
100
AcDbCircle
 10
185.85
 20
47.64999999999999
 30
0.0
 40
3.0
100
AcDbArc
 50
270.0
 51
293.392787
  0
ARC
  5
1DB8F
330
1DAC6
100
AcDbEntity
  8
1
  6
Continuous
100
AcDbCircle
 10
185.85
 20
47.64999999999999
 30
0.0
 40
4.599999999999997
100
AcDbArc
 50
270.0
 51
293.392787
  0
ARC
  5
1DB90
330
1DAC6
100
AcDbEntity
  8
1
  6
Continuous
100
AcDbCircle
 10
185.85
 20
40.04999999999999
 30
0.0
 40
3.0
100
AcDbArc
 50
80.84520799999998
 51
90.0
  0
ARC
  5
1DB91
330
1DAC6
100
AcDbEntity
  8
1
  6
Continuous
100
AcDbCircle
 10
185.85
 20
43.85
 30
0.0
 40
0.8
100
AcDbArc
 50
90.0
 51
270.0
  0
LINE
  5
1DB92
330
1DAC6
100
AcDbEntity
  8
1
  6
Continuous
100
AcDbLine
 10
187.6763489999999
 20
43.42809899999998
 30
0.0
 11
191.30371
 21
44.997256
 31
0.0
  0
LINE
  5
1DB93
330
1DAC6
100
AcDbEntity
  8
1
  6
Continuous
100
AcDbLine
 10
188.6516419999999
 20
43.85
 30
0.0
 11
191.30371
 21
42.702744
 31
0.0
  0
LINE
  5
1DB94
330
1DAC6
100
AcDbEntity
  8
1
  6
Continuous
100
AcDbLine
 10
194.2776439999999
 20
42.44153299999999
 30
0.0
 11
197.0684579999999
 21
41.234257
 31
0.0
  0
LINE
  5
1DB95
330
1DAC6
100
AcDbEntity
  8
1
  6
Continuous
100
AcDbLine
 10
195.0516419999999
 20
43.85
 30
0.0
 11
197.70371
 21
42.702744
 31
0.0
  0
ARC
  5
1DB96
330
1DAC6
100
AcDbEntity
  8
1
  6
Continuous
100
AcDbCircle
 10
198.2
 20
43.85
 30
0.0
 40
1.25
100
AcDbArc
 50
246.607213
 51
322.0509289999998
  0
LINE
  5
1DB97
330
1DAC6
100
AcDbEntity
  8
1
  6
Continuous
100
AcDbLine
 10
194.0763489999999
 20
43.42809899999998
 30
0.0
 11
197.70371
 21
44.997256
 31
0.0
  0
LINE
  5
1DB98
330
1DAC6
100
AcDbEntity
  8
1
  6
Continuous
100
AcDbLine
 10
193.4410969999999
 20
44.896586
 30
0.0
 11
197.0684579999999
 21
46.465743
 31
0.0
  0
ARC
  5
1DB99
330
1DAC6
100
AcDbEntity
  8
1
  6
Continuous
100
AcDbCircle
 10
198.2
 20
43.85
 30
0.0
 40
2.85
100
AcDbArc
 50
246.607213
 51
356.4574319999999
  0
ARC
  5
1DB9A
330
1DAC6
100
AcDbEntity
  8
1
  6
Continuous
100
AcDbCircle
 10
179.45
 20
47.64999999999999
 30
0.0
 40
4.599999999999997
100
AcDbArc
 50
270.0
 51
293.392787
  0
ARC
  5
1DB9B
330
1DAC6
100
AcDbEntity
  8
1
  6
Continuous
100
AcDbCircle
 10
179.45
 20
47.64999999999999
 30
0.0
 40
3.0
100
AcDbArc
 50
270.0
 51
293.392787
  0
ARC
  5
1DB9C
330
1DAC6
100
AcDbEntity
  8
1
  6
Continuous
100
AcDbCircle
 10
179.0
 20
43.85
 30
0.0
 40
2.85
100
AcDbArc
 50
29.61694899999999
 51
113.392787
  0
ARC
  5
1DB9D
330
1DAC6
100
AcDbEntity
  8
1
  6
Continuous
100
AcDbCircle
 10
179.0
 20
43.85
 30
0.0
 40
2.85
100
AcDbArc
 50
246.607213
 51
356.4574319999999
  0
ARC
  5
1DB9E
330
1DAC6
100
AcDbEntity
  8
1
  6
Continuous
100
AcDbCircle
 10
179.45
 20
40.04999999999999
 30
0.0
 40
3.0
100
AcDbArc
 50
80.84520799999998
 51
90.0
  0
ARC
  5
1DB9F
330
1DAC6
100
AcDbEntity
  8
1
  6
Continuous
100
AcDbCircle
 10
179.45
 20
43.85
 30
0.0
 40
0.8
100
AcDbArc
 50
90.0
 51
270.0
  0
ARC
  5
1DBA0
330
1DAC6
100
AcDbEntity
  8
1
  6
Continuous
100
AcDbCircle
 10
179.0
 20
43.85
 30
0.0
 40
1.25
100
AcDbArc
 50
42.11114499999999
 51
113.392787
  0
ARC
  5
1DBA1
330
1DAC6
100
AcDbEntity
  8
1
  6
Continuous
100
AcDbCircle
 10
179.0
 20
43.85
 30
0.0
 40
1.25
100
AcDbArc
 50
246.607213
 51
322.0509289999998
  0
LINE
  5
1DBA2
330
1DAC6
100
AcDbEntity
  8
1
  6
Continuous
100
AcDbLine
 10
174.2410969999999
 20
44.896586
 30
0.0
 11
177.868458
 21
46.465743
 31
0.0
  0
LINE
  5
1DBA3
330
1DAC6
100
AcDbEntity
  8
1
  6
Continuous
100
AcDbLine
 10
175.0776439999999
 20
42.44153299999999
 30
0.0
 11
177.868458
 21
41.234257
 31
0.0
  0
ARC
  5
1DBA4
330
1DAC6
100
AcDbEntity
  8
1
  6
Continuous
100
AcDbCircle
 10
173.05
 20
47.64999999999999
 30
0.0
 40
3.0
100
AcDbArc
 50
270.0
 51
293.392787
  0
ARC
  5
1DBA5
330
1DAC6
100
AcDbEntity
  8
1
  6
Continuous
100
AcDbCircle
 10
173.05
 20
47.64999999999999
 30
0.0
 40
4.599999999999997
100
AcDbArc
 50
270.0
 51
293.392787
  0
ARC
  5
1DBA6
330
1DAC6
100
AcDbEntity
  8
1
  6
Continuous
100
AcDbCircle
 10
173.05
 20
40.04999999999999
 30
0.0
 40
3.0
100
AcDbArc
 50
80.84520799999998
 51
90.0
  0
ARC
  5
1DBA7
330
1DAC6
100
AcDbEntity
  8
1
  6
Continuous
100
AcDbCircle
 10
173.05
 20
43.85
 30
0.0
 40
0.8
100
AcDbArc
 50
90.0
 51
270.0
  0
LINE
  5
1DBA8
330
1DAC6
100
AcDbEntity
  8
1
  6
Continuous
100
AcDbLine
 10
174.8763489999998
 20
43.42809899999998
 30
0.0
 11
178.50371
 21
44.997256
 31
0.0
  0
LINE
  5
1DBA9
330
1DAC6
100
AcDbEntity
  8
1
  6
Continuous
100
AcDbLine
 10
175.851642
 20
43.85
 30
0.0
 11
178.50371
 21
42.702744
 31
0.0
  0
LINE
  5
1DBAA
330
1DAC6
100
AcDbEntity
  8
1
  6
Continuous
100
AcDbLine
 10
181.4776439999999
 20
42.44153299999999
 30
0.0
 11
184.268458
 21
41.234257
 31
0.0
  0
LINE
  5
1DBAB
330
1DAC6
100
AcDbEntity
  8
1
  6
Continuous
100
AcDbLine
 10
182.251642
 20
43.85
 30
0.0
 11
184.9037099999999
 21
42.702744
 31
0.0
  0
ARC
  5
1DBAC
330
1DAC6
100
AcDbEntity
  8
1
  6
Continuous
100
AcDbCircle
 10
185.4
 20
43.85
 30
0.0
 40
1.25
100
AcDbArc
 50
246.607213
 51
322.0509289999998
  0
LINE
  5
1DBAD
330
1DAC6
100
AcDbEntity
  8
1
  6
Continuous
100
AcDbLine
 10
181.276349
 20
43.42809899999998
 30
0.0
 11
184.9037099999999
 21
44.997256
 31
0.0
  0
LINE
  5
1DBAE
330
1DAC6
100
AcDbEntity
  8
1
  6
Continuous
100
AcDbLine
 10
180.6410969999998
 20
44.896586
 30
0.0
 11
184.268458
 21
46.465743
 31
0.0
  0
ARC
  5
1DBAF
330
1DAC6
100
AcDbEntity
  8
1
  6
Continuous
100
AcDbCircle
 10
185.4
 20
43.85
 30
0.0
 40
2.85
100
AcDbArc
 50
246.607213
 51
356.4574319999999
  0
ARC
  5
1DBB0
330
1DAC6
100
AcDbEntity
  8
1
  6
Continuous
100
AcDbCircle
 10
166.65
 20
47.64999999999999
 30
0.0
 40
4.599999999999997
100
AcDbArc
 50
270.0
 51
293.392787
  0
ARC
  5
1DBB1
330
1DAC6
100
AcDbEntity
  8
1
  6
Continuous
100
AcDbCircle
 10
166.65
 20
47.64999999999999
 30
0.0
 40
3.0
100
AcDbArc
 50
270.0
 51
293.392787
  0
ARC
  5
1DBB2
330
1DAC6
100
AcDbEntity
  8
1
  6
Continuous
100
AcDbCircle
 10
166.1999999999999
 20
43.85
 30
0.0
 40
2.85
100
AcDbArc
 50
29.61694899999999
 51
113.392787
  0
ARC
  5
1DBB3
330
1DAC6
100
AcDbEntity
  8
1
  6
Continuous
100
AcDbCircle
 10
166.1999999999999
 20
43.85
 30
0.0
 40
2.85
100
AcDbArc
 50
246.607213
 51
356.4574319999999
  0
ARC
  5
1DBB4
330
1DAC6
100
AcDbEntity
  8
1
  6
Continuous
100
AcDbCircle
 10
166.65
 20
40.04999999999999
 30
0.0
 40
3.0
100
AcDbArc
 50
80.84520799999998
 51
90.0
  0
ARC
  5
1DBB5
330
1DAC6
100
AcDbEntity
  8
1
  6
Continuous
100
AcDbCircle
 10
166.65
 20
43.85
 30
0.0
 40
0.8
100
AcDbArc
 50
90.0
 51
270.0
  0
ARC
  5
1DBB6
330
1DAC6
100
AcDbEntity
  8
1
  6
Continuous
100
AcDbCircle
 10
166.1999999999999
 20
43.85
 30
0.0
 40
1.25
100
AcDbArc
 50
42.11114499999999
 51
113.392787
  0
ARC
  5
1DBB7
330
1DAC6
100
AcDbEntity
  8
1
  6
Continuous
100
AcDbCircle
 10
166.1999999999999
 20
43.85
 30
0.0
 40
1.25
100
AcDbArc
 50
246.607213
 51
322.0509289999998
  0
LINE
  5
1DBB8
330
1DAC6
100
AcDbEntity
  8
1
  6
Continuous
100
AcDbLine
 10
161.4410969999999
 20
44.896586
 30
0.0
 11
165.068458
 21
46.465743
 31
0.0
  0
LINE
  5
1DBB9
330
1DAC6
100
AcDbEntity
  8
1
  6
Continuous
100
AcDbLine
 10
162.2776439999999
 20
42.44153299999999
 30
0.0
 11
165.068458
 21
41.234257
 31
0.0
  0
ARC
  5
1DBBA
330
1DAC6
100
AcDbEntity
  8
1
  6
Continuous
100
AcDbCircle
 10
160.25
 20
47.64999999999999
 30
0.0
 40
3.0
100
AcDbArc
 50
270.0
 51
293.392787
  0
ARC
  5
1DBBB
330
1DAC6
100
AcDbEntity
  8
1
  6
Continuous
100
AcDbCircle
 10
160.25
 20
47.64999999999999
 30
0.0
 40
4.599999999999997
100
AcDbArc
 50
270.0
 51
293.392787
  0
ARC
  5
1DBBC
330
1DAC6
100
AcDbEntity
  8
1
  6
Continuous
100
AcDbCircle
 10
160.25
 20
40.04999999999999
 30
0.0
 40
3.0
100
AcDbArc
 50
80.84520799999998
 51
90.0
  0
ARC
  5
1DBBD
330
1DAC6
100
AcDbEntity
  8
1
  6
Continuous
100
AcDbCircle
 10
160.25
 20
43.85
 30
0.0
 40
0.8
100
AcDbArc
 50
90.0
 51
270.0
  0
LINE
  5
1DBBE
330
1DAC6
100
AcDbEntity
  8
1
  6
Continuous
100
AcDbLine
 10
162.0763489999999
 20
43.42809899999998
 30
0.0
 11
165.70371
 21
44.997256
 31
0.0
  0
LINE
  5
1DBBF
330
1DAC6
100
AcDbEntity
  8
1
  6
Continuous
100
AcDbLine
 10
163.051642
 20
43.85
 30
0.0
 11
165.70371
 21
42.702744
 31
0.0
  0
LINE
  5
1DBC0
330
1DAC6
100
AcDbEntity
  8
1
  6
Continuous
100
AcDbLine
 10
168.6776439999999
 20
42.44153299999999
 30
0.0
 11
171.468458
 21
41.234257
 31
0.0
  0
LINE
  5
1DBC1
330
1DAC6
100
AcDbEntity
  8
1
  6
Continuous
100
AcDbLine
 10
169.451642
 20
43.85
 30
0.0
 11
172.10371
 21
42.702744
 31
0.0
  0
ARC
  5
1DBC2
330
1DAC6
100
AcDbEntity
  8
1
  6
Continuous
100
AcDbCircle
 10
172.5999999999999
 20
43.85
 30
0.0
 40
1.25
100
AcDbArc
 50
246.607213
 51
322.0509289999998
  0
LINE
  5
1DBC3
330
1DAC6
100
AcDbEntity
  8
1
  6
Continuous
100
AcDbLine
 10
168.4763489999999
 20
43.42809899999998
 30
0.0
 11
172.10371
 21
44.997256
 31
0.0
  0
LINE
  5
1DBC4
330
1DAC6
100
AcDbEntity
  8
1
  6
Continuous
100
AcDbLine
 10
167.8410969999999
 20
44.896586
 30
0.0
 11
171.468458
 21
46.465743
 31
0.0
  0
ARC
  5
1DBC5
330
1DAC6
100
AcDbEntity
  8
1
  6
Continuous
100
AcDbCircle
 10
172.5999999999999
 20
43.85
 30
0.0
 40
2.85
100
AcDbArc
 50
246.607213
 51
356.4574319999999
  0
ARC
  5
1DBC6
330
1DAC6
100
AcDbEntity
  8
1
  6
Continuous
100
AcDbCircle
 10
153.8499999999999
 20
47.64999999999999
 30
0.0
 40
4.599999999999997
100
AcDbArc
 50
270.0
 51
293.392787
  0
ARC
  5
1DBC7
330
1DAC6
100
AcDbEntity
  8
1
  6
Continuous
100
AcDbCircle
 10
153.8499999999999
 20
47.64999999999999
 30
0.0
 40
3.0
100
AcDbArc
 50
270.0
 51
293.392787
  0
ARC
  5
1DBC8
330
1DAC6
100
AcDbEntity
  8
1
  6
Continuous
100
AcDbCircle
 10
153.3999999999998
 20
43.85
 30
0.0
 40
2.85
100
AcDbArc
 50
29.61694899999999
 51
113.392787
  0
ARC
  5
1DBC9
330
1DAC6
100
AcDbEntity
  8
1
  6
Continuous
100
AcDbCircle
 10
153.3999999999998
 20
43.85
 30
0.0
 40
2.85
100
AcDbArc
 50
246.607213
 51
356.4574319999999
  0
ARC
  5
1DBCA
330
1DAC6
100
AcDbEntity
  8
1
  6
Continuous
100
AcDbCircle
 10
153.8499999999999
 20
40.04999999999999
 30
0.0
 40
3.0
100
AcDbArc
 50
80.84520799999998
 51
90.0
  0
ARC
  5
1DBCB
330
1DAC6
100
AcDbEntity
  8
1
  6
Continuous
100
AcDbCircle
 10
153.8499999999999
 20
43.85
 30
0.0
 40
0.8
100
AcDbArc
 50
90.0
 51
270.0
  0
ARC
  5
1DBCC
330
1DAC6
100
AcDbEntity
  8
1
  6
Continuous
100
AcDbCircle
 10
153.3999999999998
 20
43.85
 30
0.0
 40
1.25
100
AcDbArc
 50
42.11114499999999
 51
113.392787
  0
ARC
  5
1DBCD
330
1DAC6
100
AcDbEntity
  8
1
  6
Continuous
100
AcDbCircle
 10
153.3999999999998
 20
43.85
 30
0.0
 40
1.25
100
AcDbArc
 50
246.607213
 51
322.0509289999998
  0
LINE
  5
1DBCE
330
1DAC6
100
AcDbEntity
  8
1
  6
Continuous
100
AcDbLine
 10
148.641097
 20
44.896586
 30
0.0
 11
152.268458
 21
46.465743
 31
0.0
  0
LINE
  5
1DBCF
330
1DAC6
100
AcDbEntity
  8
1
  6
Continuous
100
AcDbLine
 10
149.477644
 20
42.44153299999999
 30
0.0
 11
152.268458
 21
41.234257
 31
0.0
  0
ARC
  5
1DBD0
330
1DAC6
100
AcDbEntity
  8
1
  6
Continuous
100
AcDbCircle
 10
147.4499999999999
 20
47.64999999999999
 30
0.0
 40
3.0
100
AcDbArc
 50
270.0
 51
293.392787
  0
ARC
  5
1DBD1
330
1DAC6
100
AcDbEntity
  8
1
  6
Continuous
100
AcDbCircle
 10
147.4499999999999
 20
47.64999999999999
 30
0.0
 40
4.599999999999997
100
AcDbArc
 50
270.0
 51
293.392787
  0
ARC
  5
1DBD2
330
1DAC6
100
AcDbEntity
  8
1
  6
Continuous
100
AcDbCircle
 10
147.4499999999999
 20
40.04999999999999
 30
0.0
 40
3.0
100
AcDbArc
 50
80.84520799999998
 51
90.0
  0
ARC
  5
1DBD3
330
1DAC6
100
AcDbEntity
  8
1
  6
Continuous
100
AcDbCircle
 10
147.4499999999999
 20
43.85
 30
0.0
 40
0.8
100
AcDbArc
 50
90.0
 51
270.0
  0
LINE
  5
1DBD4
330
1DAC6
100
AcDbEntity
  8
1
  6
Continuous
100
AcDbLine
 10
149.276349
 20
43.42809899999998
 30
0.0
 11
152.90371
 21
44.997256
 31
0.0
  0
LINE
  5
1DBD5
330
1DAC6
100
AcDbEntity
  8
1
  6
Continuous
100
AcDbLine
 10
150.251642
 20
43.85
 30
0.0
 11
152.90371
 21
42.702744
 31
0.0
  0
LINE
  5
1DBD6
330
1DAC6
100
AcDbEntity
  8
1
  6
Continuous
100
AcDbLine
 10
155.877644
 20
42.44153299999999
 30
0.0
 11
158.668458
 21
41.234257
 31
0.0
  0
LINE
  5
1DBD7
330
1DAC6
100
AcDbEntity
  8
1
  6
Continuous
100
AcDbLine
 10
156.6516419999999
 20
43.85
 30
0.0
 11
159.30371
 21
42.702744
 31
0.0
  0
ARC
  5
1DBD8
330
1DAC6
100
AcDbEntity
  8
1
  6
Continuous
100
AcDbCircle
 10
159.8
 20
43.85
 30
0.0
 40
1.25
100
AcDbArc
 50
246.607213
 51
322.0509289999998
  0
LINE
  5
1DBD9
330
1DAC6
100
AcDbEntity
  8
1
  6
Continuous
100
AcDbLine
 10
155.6763489999999
 20
43.42809899999998
 30
0.0
 11
159.30371
 21
44.997256
 31
0.0
  0
LINE
  5
1DBDA
330
1DAC6
100
AcDbEntity
  8
1
  6
Continuous
100
AcDbLine
 10
155.041097
 20
44.896586
 30
0.0
 11
158.668458
 21
46.465743
 31
0.0
  0
ARC
  5
1DBDB
330
1DAC6
100
AcDbEntity
  8
1
  6
Continuous
100
AcDbCircle
 10
159.8
 20
43.85
 30
0.0
 40
2.85
100
AcDbArc
 50
246.607213
 51
356.4574319999999
  0
ARC
  5
1DBDC
330
1DAC6
100
AcDbEntity
  8
1
  6
Continuous
100
AcDbCircle
 10
141.05
 20
47.64999999999999
 30
0.0
 40
4.599999999999997
100
AcDbArc
 50
270.0
 51
293.392787
  0
ARC
  5
1DBDD
330
1DAC6
100
AcDbEntity
  8
1
  6
Continuous
100
AcDbCircle
 10
141.05
 20
47.64999999999999
 30
0.0
 40
3.0
100
AcDbArc
 50
270.0
 51
293.392787
  0
ARC
  5
1DBDE
330
1DAC6
100
AcDbEntity
  8
1
  6
Continuous
100
AcDbCircle
 10
140.5999999999999
 20
43.85
 30
0.0
 40
2.85
100
AcDbArc
 50
29.61694899999999
 51
113.392787
  0
ARC
  5
1DBDF
330
1DAC6
100
AcDbEntity
  8
1
  6
Continuous
100
AcDbCircle
 10
140.5999999999999
 20
43.85
 30
0.0
 40
2.85
100
AcDbArc
 50
246.607213
 51
356.4574319999999
  0
ARC
  5
1DBE0
330
1DAC6
100
AcDbEntity
  8
1
  6
Continuous
100
AcDbCircle
 10
141.05
 20
40.04999999999999
 30
0.0
 40
3.0
100
AcDbArc
 50
80.84520799999998
 51
90.0
  0
ARC
  5
1DBE1
330
1DAC6
100
AcDbEntity
  8
1
  6
Continuous
100
AcDbCircle
 10
141.05
 20
43.85
 30
0.0
 40
0.8
100
AcDbArc
 50
90.0
 51
270.0
  0
ARC
  5
1DBE2
330
1DAC6
100
AcDbEntity
  8
1
  6
Continuous
100
AcDbCircle
 10
140.5999999999999
 20
43.85
 30
0.0
 40
1.25
100
AcDbArc
 50
42.11114499999999
 51
113.392787
  0
ARC
  5
1DBE3
330
1DAC6
100
AcDbEntity
  8
1
  6
Continuous
100
AcDbCircle
 10
140.5999999999999
 20
43.85
 30
0.0
 40
1.25
100
AcDbArc
 50
246.607213
 51
322.0509289999998
  0
LINE
  5
1DBE4
330
1DAC6
100
AcDbEntity
  8
1
  6
Continuous
100
AcDbLine
 10
135.8410969999999
 20
44.896586
 30
0.0
 11
139.468458
 21
46.465743
 31
0.0
  0
LINE
  5
1DBE5
330
1DAC6
100
AcDbEntity
  8
1
  6
Continuous
100
AcDbLine
 10
136.6776439999999
 20
42.44153299999999
 30
0.0
 11
139.468458
 21
41.234257
 31
0.0
  0
ARC
  5
1DBE6
330
1DAC6
100
AcDbEntity
  8
1
  6
Continuous
100
AcDbCircle
 10
134.65
 20
47.64999999999999
 30
0.0
 40
3.0
100
AcDbArc
 50
270.0
 51
293.392787
  0
ARC
  5
1DBE7
330
1DAC6
100
AcDbEntity
  8
1
  6
Continuous
100
AcDbCircle
 10
134.65
 20
47.64999999999999
 30
0.0
 40
4.599999999999997
100
AcDbArc
 50
270.0
 51
293.392787
  0
ARC
  5
1DBE8
330
1DAC6
100
AcDbEntity
  8
1
  6
Continuous
100
AcDbCircle
 10
134.65
 20
40.04999999999999
 30
0.0
 40
3.0
100
AcDbArc
 50
80.84520799999998
 51
90.0
  0
ARC
  5
1DBE9
330
1DAC6
100
AcDbEntity
  8
1
  6
Continuous
100
AcDbCircle
 10
134.65
 20
43.85
 30
0.0
 40
0.8
100
AcDbArc
 50
90.0
 51
270.0
  0
LINE
  5
1DBEA
330
1DAC6
100
AcDbEntity
  8
1
  6
Continuous
100
AcDbLine
 10
136.476349
 20
43.42809899999998
 30
0.0
 11
140.10371
 21
44.997256
 31
0.0
  0
LINE
  5
1DBEB
330
1DAC6
100
AcDbEntity
  8
1
  6
Continuous
100
AcDbLine
 10
137.4516419999999
 20
43.85
 30
0.0
 11
140.10371
 21
42.702744
 31
0.0
  0
LINE
  5
1DBEC
330
1DAC6
100
AcDbEntity
  8
1
  6
Continuous
100
AcDbLine
 10
143.0776439999999
 20
42.44153299999999
 30
0.0
 11
145.868458
 21
41.234257
 31
0.0
  0
LINE
  5
1DBED
330
1DAC6
100
AcDbEntity
  8
1
  6
Continuous
100
AcDbLine
 10
143.851642
 20
43.85
 30
0.0
 11
146.50371
 21
42.702744
 31
0.0
  0
ARC
  5
1DBEE
330
1DAC6
100
AcDbEntity
  8
1
  6
Continuous
100
AcDbCircle
 10
147.0
 20
43.85
 30
0.0
 40
1.25
100
AcDbArc
 50
246.607213
 51
322.0509289999998
  0
LINE
  5
1DBEF
330
1DAC6
100
AcDbEntity
  8
1
  6
Continuous
100
AcDbLine
 10
142.876349
 20
43.42809899999998
 30
0.0
 11
146.50371
 21
44.997256
 31
0.0
  0
LINE
  5
1DBF0
330
1DAC6
100
AcDbEntity
  8
1
  6
Continuous
100
AcDbLine
 10
142.241097
 20
44.896586
 30
0.0
 11
145.868458
 21
46.465743
 31
0.0
  0
ARC
  5
1DBF1
330
1DAC6
100
AcDbEntity
  8
1
  6
Continuous
100
AcDbCircle
 10
147.0
 20
43.85
 30
0.0
 40
2.85
100
AcDbArc
 50
246.607213
 51
356.4574319999999
  0
ARC
  5
1DBF2
330
1DAC6
100
AcDbEntity
  8
1
  6
Continuous
100
AcDbCircle
 10
128.2499999999998
 20
47.64999999999999
 30
0.0
 40
4.599999999999997
100
AcDbArc
 50
270.0
 51
293.392787
  0
ARC
  5
1DBF3
330
1DAC6
100
AcDbEntity
  8
1
  6
Continuous
100
AcDbCircle
 10
128.2499999999998
 20
47.64999999999999
 30
0.0
 40
3.0
100
AcDbArc
 50
270.0
 51
293.392787
  0
ARC
  5
1DBF4
330
1DAC6
100
AcDbEntity
  8
1
  6
Continuous
100
AcDbCircle
 10
127.8
 20
43.85
 30
0.0
 40
2.85
100
AcDbArc
 50
29.61694899999999
 51
113.392787
  0
ARC
  5
1DBF5
330
1DAC6
100
AcDbEntity
  8
1
  6
Continuous
100
AcDbCircle
 10
127.8
 20
43.85
 30
0.0
 40
2.85
100
AcDbArc
 50
246.607213
 51
356.4574319999999
  0
ARC
  5
1DBF6
330
1DAC6
100
AcDbEntity
  8
1
  6
Continuous
100
AcDbCircle
 10
128.2499999999998
 20
40.04999999999999
 30
0.0
 40
3.0
100
AcDbArc
 50
80.84520799999998
 51
90.0
  0
ARC
  5
1DBF7
330
1DAC6
100
AcDbEntity
  8
1
  6
Continuous
100
AcDbCircle
 10
128.2499999999998
 20
43.85
 30
0.0
 40
0.8
100
AcDbArc
 50
90.0
 51
270.0
  0
ARC
  5
1DBF8
330
1DAC6
100
AcDbEntity
  8
1
  6
Continuous
100
AcDbCircle
 10
127.8
 20
43.85
 30
0.0
 40
1.25
100
AcDbArc
 50
42.11114499999999
 51
113.392787
  0
ARC
  5
1DBF9
330
1DAC6
100
AcDbEntity
  8
1
  6
Continuous
100
AcDbCircle
 10
127.8
 20
43.85
 30
0.0
 40
1.25
100
AcDbArc
 50
246.607213
 51
322.0509289999998
  0
LINE
  5
1DBFA
330
1DAC6
100
AcDbEntity
  8
1
  6
Continuous
100
AcDbLine
 10
123.0410969999998
 20
44.896586
 30
0.0
 11
126.6684579999999
 21
46.465743
 31
0.0
  0
LINE
  5
1DBFB
330
1DAC6
100
AcDbEntity
  8
1
  6
Continuous
100
AcDbLine
 10
123.8776439999998
 20
42.44153299999999
 30
0.0
 11
126.6684579999999
 21
41.234257
 31
0.0
  0
ARC
  5
1DBFC
330
1DAC6
100
AcDbEntity
  8
1
  6
Continuous
100
AcDbCircle
 10
121.8499999999998
 20
47.64999999999999
 30
0.0
 40
3.0
100
AcDbArc
 50
270.0
 51
293.392787
  0
ARC
  5
1DBFD
330
1DAC6
100
AcDbEntity
  8
1
  6
Continuous
100
AcDbCircle
 10
121.8499999999998
 20
47.64999999999999
 30
0.0
 40
4.599999999999997
100
AcDbArc
 50
270.0
 51
293.392787
  0
ARC
  5
1DBFE
330
1DAC6
100
AcDbEntity
  8
1
  6
Continuous
100
AcDbCircle
 10
121.8499999999998
 20
40.04999999999999
 30
0.0
 40
3.0
100
AcDbArc
 50
80.84520799999998
 51
90.0
  0
ARC
  5
1DBFF
330
1DAC6
100
AcDbEntity
  8
1
  6
Continuous
100
AcDbCircle
 10
121.8499999999998
 20
43.85
 30
0.0
 40
0.8
100
AcDbArc
 50
90.0
 51
270.0
  0
LINE
  5
1DC00
330
1DAC6
100
AcDbEntity
  8
1
  6
Continuous
100
AcDbLine
 10
123.6763489999999
 20
43.42809899999998
 30
0.0
 11
127.30371
 21
44.997256
 31
0.0
  0
LINE
  5
1DC01
330
1DAC6
100
AcDbEntity
  8
1
  6
Continuous
100
AcDbLine
 10
124.651642
 20
43.85
 30
0.0
 11
127.30371
 21
42.702744
 31
0.0
  0
LINE
  5
1DC02
330
1DAC6
100
AcDbEntity
  8
1
  6
Continuous
100
AcDbLine
 10
130.2776439999999
 20
42.44153299999999
 30
0.0
 11
133.068458
 21
41.234257
 31
0.0
  0
LINE
  5
1DC03
330
1DAC6
100
AcDbEntity
  8
1
  6
Continuous
100
AcDbLine
 10
131.0516419999999
 20
43.85
 30
0.0
 11
133.70371
 21
42.702744
 31
0.0
  0
ARC
  5
1DC04
330
1DAC6
100
AcDbEntity
  8
1
  6
Continuous
100
AcDbCircle
 10
134.1999999999998
 20
43.85
 30
0.0
 40
1.25
100
AcDbArc
 50
246.607213
 51
322.0509289999998
  0
LINE
  5
1DC05
330
1DAC6
100
AcDbEntity
  8
1
  6
Continuous
100
AcDbLine
 10
130.076349
 20
43.42809899999998
 30
0.0
 11
133.70371
 21
44.997256
 31
0.0
  0
LINE
  5
1DC06
330
1DAC6
100
AcDbEntity
  8
1
  6
Continuous
100
AcDbLine
 10
129.4410969999999
 20
44.896586
 30
0.0
 11
133.068458
 21
46.465743
 31
0.0
  0
ARC
  5
1DC07
330
1DAC6
100
AcDbEntity
  8
1
  6
Continuous
100
AcDbCircle
 10
134.1999999999998
 20
43.85
 30
0.0
 40
2.85
100
AcDbArc
 50
246.607213
 51
356.4574319999999
  0
ARC
  5
1DC08
330
1DAC6
100
AcDbEntity
  8
1
  6
Continuous
100
AcDbCircle
 10
115.45
 20
47.64999999999999
 30
0.0
 40
4.599999999999997
100
AcDbArc
 50
270.0
 51
293.392787
  0
ARC
  5
1DC09
330
1DAC6
100
AcDbEntity
  8
1
  6
Continuous
100
AcDbCircle
 10
115.45
 20
47.64999999999999
 30
0.0
 40
3.0
100
AcDbArc
 50
270.0
 51
293.392787
  0
ARC
  5
1DC0A
330
1DAC6
100
AcDbEntity
  8
1
  6
Continuous
100
AcDbCircle
 10
115.0
 20
43.85
 30
0.0
 40
2.85
100
AcDbArc
 50
29.61694899999999
 51
113.392787
  0
ARC
  5
1DC0B
330
1DAC6
100
AcDbEntity
  8
1
  6
Continuous
100
AcDbCircle
 10
115.0
 20
43.85
 30
0.0
 40
2.85
100
AcDbArc
 50
246.607213
 51
356.4574319999999
  0
ARC
  5
1DC0C
330
1DAC6
100
AcDbEntity
  8
1
  6
Continuous
100
AcDbCircle
 10
115.45
 20
40.04999999999999
 30
0.0
 40
3.0
100
AcDbArc
 50
80.84520799999998
 51
90.0
  0
ARC
  5
1DC0D
330
1DAC6
100
AcDbEntity
  8
1
  6
Continuous
100
AcDbCircle
 10
115.45
 20
43.85
 30
0.0
 40
0.8
100
AcDbArc
 50
90.0
 51
270.0
  0
ARC
  5
1DC0E
330
1DAC6
100
AcDbEntity
  8
1
  6
Continuous
100
AcDbCircle
 10
115.0
 20
43.85
 30
0.0
 40
1.25
100
AcDbArc
 50
42.11114499999999
 51
113.392787
  0
ARC
  5
1DC0F
330
1DAC6
100
AcDbEntity
  8
1
  6
Continuous
100
AcDbCircle
 10
115.0
 20
43.85
 30
0.0
 40
1.25
100
AcDbArc
 50
246.607213
 51
322.0509289999998
  0
LINE
  5
1DC10
330
1DAC6
100
AcDbEntity
  8
1
  6
Continuous
100
AcDbLine
 10
110.2410969999999
 20
44.896586
 30
0.0
 11
113.868458
 21
46.465743
 31
0.0
  0
LINE
  5
1DC11
330
1DAC6
100
AcDbEntity
  8
1
  6
Continuous
100
AcDbLine
 10
111.0776439999999
 20
42.44153299999999
 30
0.0
 11
113.868458
 21
41.234257
 31
0.0
  0
ARC
  5
1DC12
330
1DAC6
100
AcDbEntity
  8
1
  6
Continuous
100
AcDbCircle
 10
109.05
 20
47.64999999999999
 30
0.0
 40
3.0
100
AcDbArc
 50
270.0
 51
293.392787
  0
ARC
  5
1DC13
330
1DAC6
100
AcDbEntity
  8
1
  6
Continuous
100
AcDbCircle
 10
109.05
 20
47.64999999999999
 30
0.0
 40
4.599999999999997
100
AcDbArc
 50
270.0
 51
293.392787
  0
ARC
  5
1DC14
330
1DAC6
100
AcDbEntity
  8
1
  6
Continuous
100
AcDbCircle
 10
109.05
 20
40.04999999999999
 30
0.0
 40
3.0
100
AcDbArc
 50
80.84520799999998
 51
90.0
  0
ARC
  5
1DC15
330
1DAC6
100
AcDbEntity
  8
1
  6
Continuous
100
AcDbCircle
 10
109.05
 20
43.85
 30
0.0
 40
0.8
100
AcDbArc
 50
90.0
 51
270.0
  0
LINE
  5
1DC16
330
1DAC6
100
AcDbEntity
  8
1
  6
Continuous
100
AcDbLine
 10
110.876349
 20
43.42809899999998
 30
0.0
 11
114.50371
 21
44.997256
 31
0.0
  0
LINE
  5
1DC17
330
1DAC6
100
AcDbEntity
  8
1
  6
Continuous
100
AcDbLine
 10
111.8516419999999
 20
43.85
 30
0.0
 11
114.50371
 21
42.702744
 31
0.0
  0
LINE
  5
1DC18
330
1DAC6
100
AcDbEntity
  8
1
  6
Continuous
100
AcDbLine
 10
117.477644
 20
42.44153299999999
 30
0.0
 11
120.268458
 21
41.234257
 31
0.0
  0
LINE
  5
1DC19
330
1DAC6
100
AcDbEntity
  8
1
  6
Continuous
100
AcDbLine
 10
118.251642
 20
43.85
 30
0.0
 11
120.9037099999999
 21
42.702744
 31
0.0
  0
ARC
  5
1DC1A
330
1DAC6
100
AcDbEntity
  8
1
  6
Continuous
100
AcDbCircle
 10
121.4
 20
43.85
 30
0.0
 40
1.25
100
AcDbArc
 50
246.607213
 51
322.0509289999998
  0
LINE
  5
1DC1B
330
1DAC6
100
AcDbEntity
  8
1
  6
Continuous
100
AcDbLine
 10
117.2763489999999
 20
43.42809899999998
 30
0.0
 11
120.9037099999999
 21
44.997256
 31
0.0
  0
LINE
  5
1DC1C
330
1DAC6
100
AcDbEntity
  8
1
  6
Continuous
100
AcDbLine
 10
116.641097
 20
44.896586
 30
0.0
 11
120.268458
 21
46.465743
 31
0.0
  0
ARC
  5
1DC1D
330
1DAC6
100
AcDbEntity
  8
1
  6
Continuous
100
AcDbCircle
 10
121.4
 20
43.85
 30
0.0
 40
2.85
100
AcDbArc
 50
246.607213
 51
356.4574319999999
  0
ARC
  5
1DC1E
330
1DAC6
100
AcDbEntity
  8
1
  6
Continuous
100
AcDbCircle
 10
102.6499999999999
 20
47.64999999999999
 30
0.0
 40
4.599999999999997
100
AcDbArc
 50
270.0
 51
293.392787
  0
ARC
  5
1DC1F
330
1DAC6
100
AcDbEntity
  8
1
  6
Continuous
100
AcDbCircle
 10
102.6499999999999
 20
47.64999999999999
 30
0.0
 40
3.0
100
AcDbArc
 50
270.0
 51
293.392787
  0
ARC
  5
1DC20
330
1DAC6
100
AcDbEntity
  8
1
  6
Continuous
100
AcDbCircle
 10
102.2
 20
43.85
 30
0.0
 40
2.85
100
AcDbArc
 50
29.61694899999999
 51
113.392787
  0
ARC
  5
1DC21
330
1DAC6
100
AcDbEntity
  8
1
  6
Continuous
100
AcDbCircle
 10
102.2
 20
43.85
 30
0.0
 40
2.85
100
AcDbArc
 50
246.607213
 51
356.4574319999999
  0
ARC
  5
1DC22
330
1DAC6
100
AcDbEntity
  8
1
  6
Continuous
100
AcDbCircle
 10
102.6499999999999
 20
40.04999999999999
 30
0.0
 40
3.0
100
AcDbArc
 50
80.84520799999998
 51
90.0
  0
ARC
  5
1DC23
330
1DAC6
100
AcDbEntity
  8
1
  6
Continuous
100
AcDbCircle
 10
102.6499999999999
 20
43.85
 30
0.0
 40
0.8
100
AcDbArc
 50
90.0
 51
270.0
  0
ARC
  5
1DC24
330
1DAC6
100
AcDbEntity
  8
1
  6
Continuous
100
AcDbCircle
 10
102.2
 20
43.85
 30
0.0
 40
1.25
100
AcDbArc
 50
42.11114499999999
 51
113.392787
  0
ARC
  5
1DC25
330
1DAC6
100
AcDbEntity
  8
1
  6
Continuous
100
AcDbCircle
 10
102.2
 20
43.85
 30
0.0
 40
1.25
100
AcDbArc
 50
246.607213
 51
322.0509289999998
  0
LINE
  5
1DC26
330
1DAC6
100
AcDbEntity
  8
1
  6
Continuous
100
AcDbLine
 10
97.44109700000002
 20
44.896586
 30
0.0
 11
101.0684579999998
 21
46.465743
 31
0.0
  0
LINE
  5
1DC27
330
1DAC6
100
AcDbEntity
  8
1
  6
Continuous
100
AcDbLine
 10
98.27764399999999
 20
42.44153299999999
 30
0.0
 11
101.0684579999998
 21
41.234257
 31
0.0
  0
ARC
  5
1DC28
330
1DAC6
100
AcDbEntity
  8
1
  6
Continuous
100
AcDbCircle
 10
96.25
 20
47.64999999999999
 30
0.0
 40
3.0
100
AcDbArc
 50
270.0
 51
293.392787
  0
ARC
  5
1DC29
330
1DAC6
100
AcDbEntity
  8
1
  6
Continuous
100
AcDbCircle
 10
96.25
 20
47.64999999999999
 30
0.0
 40
4.599999999999997
100
AcDbArc
 50
270.0
 51
293.392787
  0
ARC
  5
1DC2A
330
1DAC6
100
AcDbEntity
  8
1
  6
Continuous
100
AcDbCircle
 10
96.25
 20
40.04999999999999
 30
0.0
 40
3.0
100
AcDbArc
 50
80.84520799999998
 51
90.0
  0
ARC
  5
1DC2B
330
1DAC6
100
AcDbEntity
  8
1
  6
Continuous
100
AcDbCircle
 10
96.25
 20
43.85
 30
0.0
 40
0.8
100
AcDbArc
 50
90.0
 51
270.0
  0
LINE
  5
1DC2C
330
1DAC6
100
AcDbEntity
  8
1
  6
Continuous
100
AcDbLine
 10
98.076349
 20
43.42809899999998
 30
0.0
 11
101.70371
 21
44.997256
 31
0.0
  0
LINE
  5
1DC2D
330
1DAC6
100
AcDbEntity
  8
1
  6
Continuous
100
AcDbLine
 10
99.05164200000001
 20
43.85
 30
0.0
 11
101.70371
 21
42.702744
 31
0.0
  0
LINE
  5
1DC2E
330
1DAC6
100
AcDbEntity
  8
1
  6
Continuous
100
AcDbLine
 10
104.6776439999999
 20
42.44153299999999
 30
0.0
 11
107.468458
 21
41.234257
 31
0.0
  0
LINE
  5
1DC2F
330
1DAC6
100
AcDbEntity
  8
1
  6
Continuous
100
AcDbLine
 10
105.4516419999998
 20
43.85
 30
0.0
 11
108.10371
 21
42.702744
 31
0.0
  0
ARC
  5
1DC30
330
1DAC6
100
AcDbEntity
  8
1
  6
Continuous
100
AcDbCircle
 10
108.6
 20
43.85
 30
0.0
 40
1.25
100
AcDbArc
 50
246.607213
 51
322.0509289999998
  0
LINE
  5
1DC31
330
1DAC6
100
AcDbEntity
  8
1
  6
Continuous
100
AcDbLine
 10
104.476349
 20
43.42809899999998
 30
0.0
 11
108.10371
 21
44.997256
 31
0.0
  0
LINE
  5
1DC32
330
1DAC6
100
AcDbEntity
  8
1
  6
Continuous
100
AcDbLine
 10
103.8410969999999
 20
44.896586
 30
0.0
 11
107.468458
 21
46.465743
 31
0.0
  0
ARC
  5
1DC33
330
1DAC6
100
AcDbEntity
  8
1
  6
Continuous
100
AcDbCircle
 10
108.6
 20
43.85
 30
0.0
 40
2.85
100
AcDbArc
 50
246.607213
 51
356.4574319999999
  0
ARC
  5
1DC34
330
1DAC6
100
AcDbEntity
  8
1
  6
Continuous
100
AcDbCircle
 10
89.84999999999997
 20
47.64999999999999
 30
0.0
 40
4.599999999999997
100
AcDbArc
 50
270.0
 51
293.392787
  0
ARC
  5
1DC35
330
1DAC6
100
AcDbEntity
  8
1
  6
Continuous
100
AcDbCircle
 10
89.84999999999997
 20
47.64999999999999
 30
0.0
 40
3.0
100
AcDbArc
 50
270.0
 51
293.392787
  0
ARC
  5
1DC36
330
1DAC6
100
AcDbEntity
  8
1
  6
Continuous
100
AcDbCircle
 10
89.84999999999997
 20
40.04999999999999
 30
0.0
 40
3.0
100
AcDbArc
 50
66.607213
 51
90.0
  0
ARC
  5
1DC37
330
1DAC6
100
AcDbEntity
  8
1
  6
Continuous
100
AcDbCircle
 10
89.84999999999997
 20
43.85
 30
0.0
 40
0.8
100
AcDbArc
 50
90.0
 51
270.0
  0
LINE
  5
1DC38
330
1DAC6
100
AcDbEntity
  8
1
  6
Continuous
100
AcDbLine
 10
91.041097
 20
42.803414
 30
0.0
 11
94.66845799999999
 21
41.234257
 31
0.0
  0
LINE
  5
1DC39
330
1DAC6
100
AcDbEntity
  8
1
  6
Continuous
100
AcDbLine
 10
92.65164199999999
 20
43.85
 30
0.0
 11
95.30371
 21
42.702744
 31
0.0
  0
ARC
  5
1DC3A
330
1DAC6
100
AcDbEntity
  8
1
  6
Continuous
100
AcDbCircle
 10
95.8
 20
43.85
 30
0.0
 40
1.25
100
AcDbArc
 50
246.607213
 51
322.0509289999998
  0
LINE
  5
1DC3B
330
1DAC6
100
AcDbEntity
  8
1
  6
Continuous
100
AcDbLine
 10
91.67634900000001
 20
43.42809899999998
 30
0.0
 11
95.30371
 21
44.997256
 31
0.0
  0
LINE
  5
1DC3C
330
1DAC6
100
AcDbEntity
  8
1
  6
Continuous
100
AcDbLine
 10
91.041097
 20
44.896586
 30
0.0
 11
94.66845799999999
 21
46.465743
 31
0.0
  0
ARC
  5
1DC3D
330
1DAC6
100
AcDbEntity
  8
1
  6
Continuous
100
AcDbCircle
 10
95.8
 20
43.85
 30
0.0
 40
2.85
100
AcDbArc
 50
246.607213
 51
356.4574319999999
  0
ARC
  5
1DC3E
330
1DAC6
100
AcDbEntity
  8
1
  6
Continuous
100
AcDbCircle
 10
275.0
 20
43.85
 30
0.0
 40
2.85
100
AcDbArc
 50
29.61694899999999
 51
113.392787
  0
ARC
  5
1DC3F
330
1DAC6
100
AcDbEntity
  8
1
  6
Continuous
100
AcDbCircle
 10
275.0
 20
43.85
 30
0.0
 40
1.25
100
AcDbArc
 50
42.11114499999999
 51
113.392787
  0
ARC
  5
1DC40
330
1DAC6
100
AcDbEntity
  8
1
  6
Continuous
100
AcDbCircle
 10
262.1999999999998
 20
43.85
 30
0.0
 40
2.85
100
AcDbArc
 50
29.61694899999999
 51
113.392787
  0
ARC
  5
1DC41
330
1DAC6
100
AcDbEntity
  8
1
  6
Continuous
100
AcDbCircle
 10
262.1999999999998
 20
43.85
 30
0.0
 40
1.25
100
AcDbArc
 50
42.11114499999999
 51
113.392787
  0
ARC
  5
1DC42
330
1DAC6
100
AcDbEntity
  8
1
  6
Continuous
100
AcDbCircle
 10
249.4
 20
43.85
 30
0.0
 40
2.85
100
AcDbArc
 50
29.61694899999999
 51
113.392787
  0
ARC
  5
1DC43
330
1DAC6
100
AcDbEntity
  8
1
  6
Continuous
100
AcDbCircle
 10
249.4
 20
43.85
 30
0.0
 40
1.25
100
AcDbArc
 50
42.11114499999999
 51
113.392787
  0
ARC
  5
1DC44
330
1DAC6
100
AcDbEntity
  8
1
  6
Continuous
100
AcDbCircle
 10
236.6
 20
43.85
 30
0.0
 40
2.85
100
AcDbArc
 50
29.61694899999999
 51
113.392787
  0
ARC
  5
1DC45
330
1DAC6
100
AcDbEntity
  8
1
  6
Continuous
100
AcDbCircle
 10
236.6
 20
43.85
 30
0.0
 40
1.25
100
AcDbArc
 50
42.11114499999999
 51
113.392787
  0
ARC
  5
1DC46
330
1DAC6
100
AcDbEntity
  8
1
  6
Continuous
100
AcDbCircle
 10
223.7999999999999
 20
43.85
 30
0.0
 40
2.85
100
AcDbArc
 50
29.61694899999999
 51
113.392787
  0
ARC
  5
1DC47
330
1DAC6
100
AcDbEntity
  8
1
  6
Continuous
100
AcDbCircle
 10
223.7999999999999
 20
43.85
 30
0.0
 40
1.25
100
AcDbArc
 50
42.11114499999999
 51
113.392787
  0
ARC
  5
1DC48
330
1DAC6
100
AcDbEntity
  8
1
  6
Continuous
100
AcDbCircle
 10
211.0
 20
43.85
 30
0.0
 40
2.85
100
AcDbArc
 50
29.61694899999999
 51
113.392787
  0
ARC
  5
1DC49
330
1DAC6
100
AcDbEntity
  8
1
  6
Continuous
100
AcDbCircle
 10
211.0
 20
43.85
 30
0.0
 40
1.25
100
AcDbArc
 50
42.11114499999999
 51
113.392787
  0
ARC
  5
1DC4A
330
1DAC6
100
AcDbEntity
  8
1
  6
Continuous
100
AcDbCircle
 10
198.2
 20
43.85
 30
0.0
 40
2.85
100
AcDbArc
 50
29.61694899999999
 51
113.392787
  0
ARC
  5
1DC4B
330
1DAC6
100
AcDbEntity
  8
1
  6
Continuous
100
AcDbCircle
 10
198.2
 20
43.85
 30
0.0
 40
1.25
100
AcDbArc
 50
42.11114499999999
 51
113.392787
  0
ARC
  5
1DC4C
330
1DAC6
100
AcDbEntity
  8
1
  6
Continuous
100
AcDbCircle
 10
185.4
 20
43.85
 30
0.0
 40
2.85
100
AcDbArc
 50
29.61694899999999
 51
113.392787
  0
ARC
  5
1DC4D
330
1DAC6
100
AcDbEntity
  8
1
  6
Continuous
100
AcDbCircle
 10
185.4
 20
43.85
 30
0.0
 40
1.25
100
AcDbArc
 50
42.11114499999999
 51
113.392787
  0
ARC
  5
1DC4E
330
1DAC6
100
AcDbEntity
  8
1
  6
Continuous
100
AcDbCircle
 10
172.5999999999999
 20
43.85
 30
0.0
 40
2.85
100
AcDbArc
 50
29.61694899999999
 51
113.392787
  0
ARC
  5
1DC4F
330
1DAC6
100
AcDbEntity
  8
1
  6
Continuous
100
AcDbCircle
 10
172.5999999999999
 20
43.85
 30
0.0
 40
1.25
100
AcDbArc
 50
42.11114499999999
 51
113.392787
  0
ARC
  5
1DC50
330
1DAC6
100
AcDbEntity
  8
1
  6
Continuous
100
AcDbCircle
 10
159.8
 20
43.85
 30
0.0
 40
2.85
100
AcDbArc
 50
29.61694899999999
 51
113.392787
  0
ARC
  5
1DC51
330
1DAC6
100
AcDbEntity
  8
1
  6
Continuous
100
AcDbCircle
 10
159.8
 20
43.85
 30
0.0
 40
1.25
100
AcDbArc
 50
42.11114499999999
 51
113.392787
  0
ARC
  5
1DC52
330
1DAC6
100
AcDbEntity
  8
1
  6
Continuous
100
AcDbCircle
 10
147.0
 20
43.85
 30
0.0
 40
2.85
100
AcDbArc
 50
29.61694899999999
 51
113.392787
  0
ARC
  5
1DC53
330
1DAC6
100
AcDbEntity
  8
1
  6
Continuous
100
AcDbCircle
 10
147.0
 20
43.85
 30
0.0
 40
1.25
100
AcDbArc
 50
42.11114499999999
 51
113.392787
  0
ARC
  5
1DC54
330
1DAC6
100
AcDbEntity
  8
1
  6
Continuous
100
AcDbCircle
 10
134.1999999999998
 20
43.85
 30
0.0
 40
2.85
100
AcDbArc
 50
29.61694899999999
 51
113.392787
  0
ARC
  5
1DC55
330
1DAC6
100
AcDbEntity
  8
1
  6
Continuous
100
AcDbCircle
 10
134.1999999999998
 20
43.85
 30
0.0
 40
1.25
100
AcDbArc
 50
42.11114499999999
 51
113.392787
  0
ARC
  5
1DC56
330
1DAC6
100
AcDbEntity
  8
1
  6
Continuous
100
AcDbCircle
 10
121.4
 20
43.85
 30
0.0
 40
2.85
100
AcDbArc
 50
29.61694899999999
 51
113.392787
  0
ARC
  5
1DC57
330
1DAC6
100
AcDbEntity
  8
1
  6
Continuous
100
AcDbCircle
 10
121.4
 20
43.85
 30
0.0
 40
1.25
100
AcDbArc
 50
42.11114499999999
 51
113.392787
  0
ARC
  5
1DC58
330
1DAC6
100
AcDbEntity
  8
1
  6
Continuous
100
AcDbCircle
 10
108.6
 20
43.85
 30
0.0
 40
2.85
100
AcDbArc
 50
29.61694899999999
 51
113.392787
  0
ARC
  5
1DC59
330
1DAC6
100
AcDbEntity
  8
1
  6
Continuous
100
AcDbCircle
 10
108.6
 20
43.85
 30
0.0
 40
1.25
100
AcDbArc
 50
42.11114499999999
 51
113.392787
  0
ARC
  5
1DC5A
330
1DAC6
100
AcDbEntity
  8
1
  6
Continuous
100
AcDbCircle
 10
95.8
 20
43.85
 30
0.0
 40
2.85
100
AcDbArc
 50
29.61694899999999
 51
113.392787
  0
ARC
  5
1DC5B
330
1DAC6
100
AcDbEntity
  8
1
  6
Continuous
100
AcDbCircle
 10
95.8
 20
43.85
 30
0.0
 40
1.25
100
AcDbArc
 50
42.11114499999999
 51
113.392787
  0
LINE
  5
1DC5C
330
1DAC6
100
AcDbEntity
  8
1
  6
Continuous
100
AcDbLine
 10
354.3
 20
42.57907
 30
0.0
 11
354.3
 21
45.7
 31
0.0
  0
LINE
  5
1DC5D
330
1DAC6
100
AcDbEntity
  8
1
  6
Continuous
100
AcDbLine
 10
352.7
 20
45.12093
 30
0.0
 11
352.7
 21
42.0
 31
0.0
  0
LINE
  5
1DC5E
330
1DAC6
100
AcDbEntity
  8
1
  6
Continuous
100
AcDbLine
 10
354.3
 20
43.04999999999998
 30
0.0
 11
354.550806
 21
43.04999999999998
 31
0.0
  0
LINE
  5
1DC5F
330
1DAC6
100
AcDbEntity
  8
1
  6
Continuous
100
AcDbLine
 10
352.1499999999999
 20
43.04999999999998
 30
0.0
 11
352.7
 21
43.04999999999998
 31
0.0
  0
LINE
  5
1DC60
330
1DAC6
100
AcDbEntity
  8
4
  6
CENTER
100
AcDbLine
 10
347.7047779999999
 20
43.85
 30
0.0
 11
359.295222
 21
43.85
 31
0.0
  0
LINE
  5
1DC61
330
1DAC6
100
AcDbEntity
  8
1
  6
Continuous
100
AcDbLine
 10
354.3
 20
44.64999999999998
 30
0.0
 11
354.8999999999999
 21
44.64999999999998
 31
0.0
  0
LINE
  5
1DC62
330
1DAC6
100
AcDbEntity
  8
1
  6
Continuous
100
AcDbLine
 10
352.7
 20
44.64999999999998
 30
0.0
 11
352.4491939999998
 21
44.64999999999998
 31
0.0
  0
LINE
  5
1DC63
330
1DAC6
100
AcDbEntity
  8
4
  6
CENTER
100
AcDbLine
 10
295.6499999999999
 20
43.85
 30
0.0
 11
84.04999999999999
 21
43.85
 31
0.0
  0
ARC
  5
1DC64
330
1DAC6
100
AcDbEntity
  8
1
  6
Continuous
100
AcDbCircle
 10
353.3
 20
45.7
 30
0.0
 40
1.0
100
AcDbArc
 50
0.0
 51
105.5597229999999
  0
ARC
  5
1DC65
330
1DAC6
100
AcDbEntity
  8
1
  6
Continuous
100
AcDbCircle
 10
352.1499999999999
 20
44.55
 30
0.0
 40
1.5
100
AcDbArc
 50
129.4299599999999
 51
270.0
  0
ARC
  5
1DC66
330
1DAC6
100
AcDbEntity
  8
1
  6
Continuous
100
AcDbCircle
 10
354.372971
 20
41.846595
 30
0.0
 40
5.0
100
AcDbArc
 50
105.5597229999999
 51
129.4299599999999
  0
ARC
  5
1DC67
330
1DAC6
100
AcDbEntity
  8
1
  6
Continuous
100
AcDbCircle
 10
354.372971
 20
41.846595
 30
0.0
 40
3.399999999999999
100
AcDbArc
 50
119.475425
 51
131.251958
  0
ARC
  5
1DC68
330
1DAC6
100
AcDbEntity
  8
1
  6
Continuous
100
AcDbCircle
 10
352.4
 20
45.12093
 30
0.0
 40
0.3
100
AcDbArc
 50
0.0
 51
90.0
  0
ARC
  5
1DC69
330
1DAC6
100
AcDbEntity
  8
1
  6
Continuous
100
AcDbCircle
 10
352.481687
 20
44.00304199999999
 30
0.0
 40
0.531687
100
AcDbArc
 50
131.251958
 51
238.439173
  0
ARC
  5
1DC6A
330
1DAC6
100
AcDbEntity
  8
1
  6
Continuous
100
AcDbCircle
 10
353.6999999999999
 20
42.0
 30
0.0
 40
1.0
100
AcDbArc
 50
180.0
 51
285.559723
  0
ARC
  5
1DC6B
330
1DAC6
100
AcDbEntity
  8
1
  6
Continuous
100
AcDbCircle
 10
352.6270289999998
 20
45.853405
 30
0.0
 40
5.0
100
AcDbArc
 50
285.559723
 51
309.4299599999998
  0
ARC
  5
1DC6C
330
1DAC6
100
AcDbEntity
  8
1
  6
Continuous
100
AcDbCircle
 10
354.6
 20
42.57907
 30
0.0
 40
0.3
100
AcDbArc
 50
180.0
 51
270.0
  0
ARC
  5
1DC6D
330
1DAC6
100
AcDbEntity
  8
1
  6
Continuous
100
AcDbCircle
 10
354.85
 20
43.15
 30
0.0
 40
1.5
100
AcDbArc
 50
309.4299599999998
 51
90.0
  0
ARC
  5
1DC6E
330
1DAC6
100
AcDbEntity
  8
1
  6
Continuous
100
AcDbCircle
 10
352.6270289999998
 20
45.853405
 30
0.0
 40
3.399999999999999
100
AcDbArc
 50
299.4754249999999
 51
311.251958
  0
ARC
  5
1DC6F
330
1DAC6
100
AcDbEntity
  8
1
  6
Continuous
100
AcDbCircle
 10
354.5183129999998
 20
43.696958
 30
0.0
 40
0.531687
100
AcDbArc
 50
311.251958
 51
58.43917300000001
  0
LINE
  5
1DC70
330
1DAC6
100
AcDbEntity
  8
1
  6
Continuous
100
AcDbLine
 10
27.0
 20
44.80652199999999
 30
0.0
 11
27.0
 21
44.64999999999998
 31
0.0
  0
ARC
  5
1DC71
330
1DAC6
100
AcDbEntity
  8
1
  6
Continuous
100
AcDbCircle
 10
24.85
 20
43.15
 30
0.0
 40
1.5
100
AcDbArc
 50
90.0
 51
230.5700399999999
  0
ARC
  5
1DC72
330
1DAC6
100
AcDbEntity
  8
1
  6
Continuous
100
AcDbCircle
 10
26.0
 20
42.0
 30
0.0
 40
1.0
100
AcDbArc
 50
254.440277
 51
0.0
  0
ARC
  5
1DC73
330
1DAC6
100
AcDbEntity
  8
1
  6
Continuous
100
AcDbCircle
 10
27.07297099999999
 20
45.853405
 30
0.0
 40
5.0
100
AcDbArc
 50
230.5700399999999
 51
254.440277
  0
LINE
  5
1DC74
330
1DAC6
100
AcDbEntity
  8
1
  6
Continuous
100
AcDbLine
 10
27.55
 20
43.04999999999998
 30
0.0
 11
24.81430299999999
 21
43.04999999999998
 31
0.0
  0
ARC
  5
1DC75
330
1DAC6
100
AcDbEntity
  8
1
  6
Continuous
100
AcDbCircle
 10
25.327029
 20
41.846595
 30
0.0
 40
3.399999999999999
100
AcDbArc
 50
55.540973
 51
73.64407299999998
  0
LINE
  5
1DC76
330
1DAC6
100
AcDbEntity
  8
1
  6
Continuous
100
AcDbLine
 10
24.85
 20
44.64999999999998
 30
0.0
 11
27.58569699999998
 21
44.64999999999998
 31
0.0
  0
ARC
  5
1DC77
330
1DAC6
100
AcDbEntity
  8
1
  6
Continuous
100
AcDbCircle
 10
26.4
 20
45.7
 30
0.0
 40
1.0
100
AcDbArc
 50
74.44027700000003
 51
180.0
  0
ARC
  5
1DC78
330
1DAC6
100
AcDbEntity
  8
1
  6
Continuous
100
AcDbCircle
 10
27.55
 20
44.55
 30
0.0
 40
1.5
100
AcDbArc
 50
270.0
 51
50.57004
  0
ARC
  5
1DC79
330
1DAC6
100
AcDbEntity
  8
1
  6
Continuous
100
AcDbCircle
 10
25.327029
 20
41.846595
 30
0.0
 40
5.0
100
AcDbArc
 50
50.57004
 51
74.44027700000003
  0
LINE
  5
1DC7A
330
1DAC6
100
AcDbEntity
  8
4
  6
CENTER
100
AcDbLine
 10
31.995222
 20
43.85
 30
0.0
 11
20.404778
 21
43.85
 31
0.0
  0
LINE
  5
1DC7B
330
1DAC6
100
AcDbEntity
  8
4
  6
CENTER
100
AcDbLine
 10
353.5
 20
38.005003
 30
0.0
 11
353.5
 21
49.694997
 31
0.0
  0
LINE
  5
1DC7C
330
1DAC6
100
AcDbEntity
  8
4
  6
CENTER
100
AcDbLine
 10
26.2
 20
38.005003
 30
0.0
 11
26.2
 21
49.694997
 31
0.0
  0
LINE
  5
1DC7D
330
1DAC6
100
AcDbEntity
  8
1
  6
Continuous
100
AcDbLine
 10
27.0
 20
43.04999999999998
 30
0.0
 11
27.0
 21
42.0
 31
0.0
  0
LINE
  5
1DC7E
330
1DAC6
100
AcDbEntity
  8
1
  6
Continuous
100
AcDbLine
 10
25.4
 20
42.893478
 30
0.0
 11
25.4
 21
43.04999999999998
 31
0.0
  0
ARC
  5
1DC7F
330
1DAC6
100
AcDbEntity
  8
1
  6
Continuous
100
AcDbCircle
 10
27.58569699999998
 20
44.95
 30
0.0
 40
0.3
100
AcDbArc
 50
270.0
 51
0.0
  0
ARC
  5
1DC80
330
1DAC6
100
AcDbEntity
  8
1
  6
Continuous
100
AcDbCircle
 10
26.2
 20
44.82114
 30
0.0
 40
0.3
100
AcDbArc
 50
73.64407299999998
 51
180.0
  0
ARC
  5
1DC81
330
1DAC6
100
AcDbEntity
  8
1
  6
Continuous
100
AcDbCircle
 10
27.07297099999999
 20
45.853405
 30
0.0
 40
3.399999999999999
100
AcDbArc
 50
235.540973
 51
253.6440729999999
  0
ARC
  5
1DC82
330
1DAC6
100
AcDbEntity
  8
1
  6
Continuous
100
AcDbCircle
 10
26.2
 20
42.87885999999999
 30
0.0
 40
0.3
100
AcDbArc
 50
253.6440729999999
 51
0.0
  0
ARC
  5
1DC83
330
1DAC6
100
AcDbEntity
  8
1
  6
Continuous
100
AcDbCircle
 10
24.81430299999999
 20
42.75
 30
0.0
 40
0.3
100
AcDbArc
 50
90.0
 51
180.0
  0
LINE
  5
1DC84
330
1DAC6
100
AcDbEntity
  8
1
  6
Continuous
100
AcDbLine
 10
25.4
 20
44.64999999999998
 30
0.0
 11
25.4
 21
45.7
 31
0.0
  0
LINE
  5
1DC85
330
1DAC6
100
AcDbEntity
  8
1
  6
Continuous
100
AcDbLine
 10
121.4223559999999
 20
90.958467
 30
0.0
 11
118.6315419999999
 21
92.16574300000001
 31
0.0
  0
LINE
  5
1DC86
330
1DAC6
100
AcDbEntity
  8
1
  6
Continuous
100
AcDbLine
 10
120.6483579999999
 20
89.54999999999998
 30
0.0
 11
117.9962899999999
 21
90.69725599999999
 31
0.0
  0
LINE
  5
1DC87
330
1DAC6
100
AcDbEntity
  8
1
  6
Continuous
100
AcDbLine
 10
121.6236509999999
 20
89.971901
 30
0.0
 11
117.9962899999999
 21
88.402744
 31
0.0
  0
LINE
  5
1DC88
330
1DAC6
100
AcDbEntity
  8
1
  6
Continuous
100
AcDbLine
 10
122.2589029999999
 20
88.50341400000003
 30
0.0
 11
118.6315419999999
 21
86.93425699999997
 31
0.0
  0
LINE
  5
1DC89
330
1DAC6
100
AcDbEntity
  8
1
  6
Continuous
100
AcDbLine
 10
249.422356
 20
90.958467
 30
0.0
 11
246.6315419999999
 21
92.16574300000001
 31
0.0
  0
LINE
  5
1DC8A
330
1DAC6
100
AcDbEntity
  8
1
  6
Continuous
100
AcDbLine
 10
248.648358
 20
89.54999999999998
 30
0.0
 11
245.9962899999999
 21
90.69725599999999
 31
0.0
  0
LINE
  5
1DC8B
330
1DAC6
100
AcDbEntity
  8
1
  6
Continuous
100
AcDbLine
 10
249.6236509999999
 20
89.971901
 30
0.0
 11
245.9962899999999
 21
88.402744
 31
0.0
  0
LINE
  5
1DC8C
330
1DAC6
100
AcDbEntity
  8
1
  6
Continuous
100
AcDbLine
 10
250.2589029999998
 20
88.50341400000003
 30
0.0
 11
246.6315419999999
 21
86.93425699999997
 31
0.0
  0
ARC
  5
1DC8D
330
1DAC6
100
AcDbEntity
  8
1
  6
Continuous
100
AcDbCircle
 10
251.4499999999999
 20
89.54999999999998
 30
0.0
 40
0.8
100
AcDbArc
 50
270.0
 51
90.0
  0
LINE
  5
1DC8E
330
1DAC6
100
AcDbEntity
  8
1
  6
Continuous
100
AcDbLine
 10
256.0236509999999
 20
89.971901
 30
0.0
 11
252.3962899999999
 21
88.402744
 31
0.0
  0
ARC
  5
1DC8F
330
1DAC6
100
AcDbEntity
  8
1
  6
Continuous
100
AcDbCircle
 10
257.85
 20
89.54999999999998
 30
0.0
 40
0.8
100
AcDbArc
 50
270.0
 51
90.0
  0
ARC
  5
1DC90
330
1DAC6
100
AcDbEntity
  8
1
  6
Continuous
100
AcDbCircle
 10
264.25
 20
89.54999999999998
 30
0.0
 40
0.8
100
AcDbArc
 50
270.0
 51
90.0
  0
ARC
  5
1DC91
330
1DAC6
100
AcDbEntity
  8
1
  6
Continuous
100
AcDbCircle
 10
270.6499999999999
 20
89.54999999999998
 30
0.0
 40
0.8
100
AcDbArc
 50
270.0
 51
90.0
  0
LINE
  5
1DC92
330
1DAC6
100
AcDbEntity
  8
1
  6
Continuous
100
AcDbLine
 10
268.8236509999999
 20
89.971901
 30
0.0
 11
265.19629
 21
88.402744
 31
0.0
  0
LINE
  5
1DC93
330
1DAC6
100
AcDbEntity
  8
1
  6
Continuous
100
AcDbLine
 10
262.4236509999998
 20
89.971901
 30
0.0
 11
258.7962899999999
 21
88.402744
 31
0.0
  0
ARC
  5
1DC94
330
1DAC6
100
AcDbEntity
  8
1
  6
Continuous
100
AcDbCircle
 10
277.05
 20
89.54999999999998
 30
0.0
 40
0.8
100
AcDbArc
 50
270.0
 51
90.0
  0
ARC
  5
1DC95
330
1DAC6
100
AcDbEntity
  8
1
  6
Continuous
100
AcDbCircle
 10
283.4499999999998
 20
89.54999999999998
 30
0.0
 40
0.8
100
AcDbArc
 50
270.0
 51
90.0
  0
LINE
  5
1DC96
330
1DAC6
100
AcDbEntity
  8
1
  6
Continuous
100
AcDbLine
 10
281.6236509999999
 20
89.971901
 30
0.0
 11
277.99629
 21
88.402744
 31
0.0
  0
LINE
  5
1DC97
330
1DAC6
100
AcDbEntity
  8
1
  6
Continuous
100
AcDbLine
 10
288.0236509999999
 20
89.971901
 30
0.0
 11
284.3962899999999
 21
88.402744
 31
0.0
  0
ARC
  5
1DC98
330
1DAC6
100
AcDbEntity
  8
1
  6
Continuous
100
AcDbCircle
 10
289.85
 20
89.54999999999998
 30
0.0
 40
0.8
100
AcDbArc
 50
270.0
 51
90.0
  0
LINE
  5
1DC99
330
1DAC6
100
AcDbEntity
  8
1
  6
Continuous
100
AcDbLine
 10
275.2236509999999
 20
89.971901
 30
0.0
 11
271.59629
 21
88.402744
 31
0.0
  0
LINE
  5
1DC9A
330
1DAC6
100
AcDbEntity
  8
1
  6
Continuous
100
AcDbLine
 10
281.4223559999999
 20
90.958467
 30
0.0
 11
278.6315419999999
 21
92.16574300000001
 31
0.0
  0
LINE
  5
1DC9B
330
1DAC6
100
AcDbEntity
  8
1
  6
Continuous
100
AcDbLine
 10
280.6483579999999
 20
89.54999999999998
 30
0.0
 11
277.99629
 21
90.69725599999999
 31
0.0
  0
ARC
  5
1DC9C
330
1DAC6
100
AcDbEntity
  8
1
  6
Continuous
100
AcDbCircle
 10
283.4499999999998
 20
85.75000000000001
 30
0.0
 40
4.599999999999997
100
AcDbArc
 50
90.0
 51
113.392787
  0
ARC
  5
1DC9D
330
1DAC6
100
AcDbEntity
  8
1
  6
Continuous
100
AcDbCircle
 10
283.4499999999998
 20
93.34999999999999
 30
0.0
 40
3.0
100
AcDbArc
 50
260.845208
 51
270.0
  0
LINE
  5
1DC9E
330
1DAC6
100
AcDbEntity
  8
1
  6
Continuous
100
AcDbLine
 10
288.6589029999999
 20
90.596586
 30
0.0
 11
285.031542
 21
92.16574300000001
 31
0.0
  0
LINE
  5
1DC9F
330
1DAC6
100
AcDbEntity
  8
1
  6
Continuous
100
AcDbLine
 10
287.048358
 20
89.54999999999998
 30
0.0
 11
284.3962899999999
 21
90.69725599999999
 31
0.0
  0
ARC
  5
1DCA0
330
1DAC6
100
AcDbEntity
  8
1
  6
Continuous
100
AcDbCircle
 10
283.9
 20
89.54999999999998
 30
0.0
 40
1.25
100
AcDbArc
 50
66.607213
 51
142.050929
  0
ARC
  5
1DCA1
330
1DAC6
100
AcDbEntity
  8
1
  6
Continuous
100
AcDbCircle
 10
283.9
 20
89.54999999999998
 30
0.0
 40
2.85
100
AcDbArc
 50
66.607213
 51
176.457432
  0
ARC
  5
1DCA2
330
1DAC6
100
AcDbEntity
  8
1
  6
Continuous
100
AcDbCircle
 10
289.85
 20
85.75000000000001
 30
0.0
 40
4.599999999999997
100
AcDbArc
 50
90.0
 51
113.392787
  0
ARC
  5
1DCA3
330
1DAC6
100
AcDbEntity
  8
1
  6
Continuous
100
AcDbCircle
 10
289.85
 20
93.34999999999999
 30
0.0
 40
3.0
100
AcDbArc
 50
246.607213
 51
270.0
  0
ARC
  5
1DCA4
330
1DAC6
100
AcDbEntity
  8
1
  6
Continuous
100
AcDbCircle
 10
264.25
 20
85.75000000000001
 30
0.0
 40
4.599999999999997
100
AcDbArc
 50
90.0
 51
113.392787
  0
ARC
  5
1DCA5
330
1DAC6
100
AcDbEntity
  8
1
  6
Continuous
100
AcDbCircle
 10
264.6999999999998
 20
89.54999999999998
 30
0.0
 40
2.85
100
AcDbArc
 50
66.607213
 51
176.457432
  0
ARC
  5
1DCA6
330
1DAC6
100
AcDbEntity
  8
1
  6
Continuous
100
AcDbCircle
 10
264.25
 20
93.34999999999999
 30
0.0
 40
3.0
100
AcDbArc
 50
260.845208
 51
270.0
  0
ARC
  5
1DCA7
330
1DAC6
100
AcDbEntity
  8
1
  6
Continuous
100
AcDbCircle
 10
264.6999999999998
 20
89.54999999999998
 30
0.0
 40
1.25
100
AcDbArc
 50
66.607213
 51
142.050929
  0
LINE
  5
1DCA8
330
1DAC6
100
AcDbEntity
  8
1
  6
Continuous
100
AcDbLine
 10
268.622356
 20
90.958467
 30
0.0
 11
265.831542
 21
92.16574300000001
 31
0.0
  0
ARC
  5
1DCA9
330
1DAC6
100
AcDbEntity
  8
1
  6
Continuous
100
AcDbCircle
 10
270.6499999999999
 20
85.75000000000001
 30
0.0
 40
4.599999999999997
100
AcDbArc
 50
90.0
 51
113.392787
  0
ARC
  5
1DCAA
330
1DAC6
100
AcDbEntity
  8
1
  6
Continuous
100
AcDbCircle
 10
270.6499999999999
 20
93.34999999999999
 30
0.0
 40
3.0
100
AcDbArc
 50
260.845208
 51
270.0
  0
LINE
  5
1DCAB
330
1DAC6
100
AcDbEntity
  8
1
  6
Continuous
100
AcDbLine
 10
267.848358
 20
89.54999999999998
 30
0.0
 11
265.19629
 21
90.69725599999999
 31
0.0
  0
ARC
  5
1DCAC
330
1DAC6
100
AcDbEntity
  8
1
  6
Continuous
100
AcDbCircle
 10
271.1
 20
89.54999999999998
 30
0.0
 40
1.25
100
AcDbArc
 50
66.607213
 51
142.050929
  0
ARC
  5
1DCAD
330
1DAC6
100
AcDbEntity
  8
1
  6
Continuous
100
AcDbCircle
 10
271.1
 20
89.54999999999998
 30
0.0
 40
2.85
100
AcDbArc
 50
66.607213
 51
176.457432
  0
ARC
  5
1DCAE
330
1DAC6
100
AcDbEntity
  8
1
  6
Continuous
100
AcDbCircle
 10
277.05
 20
85.75000000000001
 30
0.0
 40
4.599999999999997
100
AcDbArc
 50
90.0
 51
113.392787
  0
ARC
  5
1DCAF
330
1DAC6
100
AcDbEntity
  8
1
  6
Continuous
100
AcDbCircle
 10
277.4999999999999
 20
89.54999999999998
 30
0.0
 40
2.85
100
AcDbArc
 50
66.607213
 51
176.457432
  0
ARC
  5
1DCB0
330
1DAC6
100
AcDbEntity
  8
1
  6
Continuous
100
AcDbCircle
 10
277.05
 20
93.34999999999999
 30
0.0
 40
3.0
100
AcDbArc
 50
260.845208
 51
270.0
  0
ARC
  5
1DCB1
330
1DAC6
100
AcDbEntity
  8
1
  6
Continuous
100
AcDbCircle
 10
277.4999999999999
 20
89.54999999999998
 30
0.0
 40
1.25
100
AcDbArc
 50
66.607213
 51
142.050929
  0
LINE
  5
1DCB2
330
1DAC6
100
AcDbEntity
  8
1
  6
Continuous
100
AcDbLine
 10
275.022356
 20
90.958467
 30
0.0
 11
272.231542
 21
92.16574300000001
 31
0.0
  0
LINE
  5
1DCB3
330
1DAC6
100
AcDbEntity
  8
1
  6
Continuous
100
AcDbLine
 10
274.248358
 20
89.54999999999998
 30
0.0
 11
271.59629
 21
90.69725599999999
 31
0.0
  0
ARC
  5
1DCB4
330
1DAC6
100
AcDbEntity
  8
1
  6
Continuous
100
AcDbCircle
 10
251.4499999999999
 20
85.75000000000001
 30
0.0
 40
4.599999999999997
100
AcDbArc
 50
90.0
 51
113.392787
  0
ARC
  5
1DCB5
330
1DAC6
100
AcDbEntity
  8
1
  6
Continuous
100
AcDbCircle
 10
251.9
 20
89.54999999999998
 30
0.0
 40
2.85
100
AcDbArc
 50
66.607213
 51
176.457432
  0
ARC
  5
1DCB6
330
1DAC6
100
AcDbEntity
  8
1
  6
Continuous
100
AcDbCircle
 10
251.4499999999999
 20
93.34999999999999
 30
0.0
 40
3.0
100
AcDbArc
 50
260.845208
 51
270.0
  0
ARC
  5
1DCB7
330
1DAC6
100
AcDbEntity
  8
1
  6
Continuous
100
AcDbCircle
 10
251.9
 20
89.54999999999998
 30
0.0
 40
1.25
100
AcDbArc
 50
66.607213
 51
142.050929
  0
LINE
  5
1DCB8
330
1DAC6
100
AcDbEntity
  8
1
  6
Continuous
100
AcDbLine
 10
255.822356
 20
90.958467
 30
0.0
 11
253.0315419999999
 21
92.16574300000001
 31
0.0
  0
LINE
  5
1DCB9
330
1DAC6
100
AcDbEntity
  8
1
  6
Continuous
100
AcDbLine
 10
255.048358
 20
89.54999999999998
 30
0.0
 11
252.3962899999999
 21
90.69725599999999
 31
0.0
  0
ARC
  5
1DCBA
330
1DAC6
100
AcDbEntity
  8
1
  6
Continuous
100
AcDbCircle
 10
257.85
 20
93.34999999999999
 30
0.0
 40
3.0
100
AcDbArc
 50
260.845208
 51
270.0
  0
LINE
  5
1DCBB
330
1DAC6
100
AcDbEntity
  8
1
  6
Continuous
100
AcDbLine
 10
262.222356
 20
90.958467
 30
0.0
 11
259.431542
 21
92.16574300000001
 31
0.0
  0
LINE
  5
1DCBC
330
1DAC6
100
AcDbEntity
  8
1
  6
Continuous
100
AcDbLine
 10
261.4483579999999
 20
89.54999999999998
 30
0.0
 11
258.7962899999999
 21
90.69725599999999
 31
0.0
  0
ARC
  5
1DCBD
330
1DAC6
100
AcDbEntity
  8
1
  6
Continuous
100
AcDbCircle
 10
258.3
 20
89.54999999999998
 30
0.0
 40
1.25
100
AcDbArc
 50
66.607213
 51
142.050929
  0
ARC
  5
1DCBE
330
1DAC6
100
AcDbEntity
  8
1
  6
Continuous
100
AcDbCircle
 10
257.85
 20
85.75000000000001
 30
0.0
 40
4.599999999999997
100
AcDbArc
 50
90.0
 51
113.392787
  0
ARC
  5
1DCBF
330
1DAC6
100
AcDbEntity
  8
1
  6
Continuous
100
AcDbCircle
 10
258.3
 20
89.54999999999998
 30
0.0
 40
2.85
100
AcDbArc
 50
66.607213
 51
176.457432
  0
LINE
  5
1DCC0
330
1DAC6
100
AcDbEntity
  8
1
  6
Continuous
100
AcDbLine
 10
282.2589029999999
 20
88.50341400000003
 30
0.0
 11
278.6315419999999
 21
86.93425699999997
 31
0.0
  0
ARC
  5
1DCC1
330
1DAC6
100
AcDbEntity
  8
1
  6
Continuous
100
AcDbCircle
 10
283.4499999999998
 20
85.75000000000001
 30
0.0
 40
3.0
100
AcDbArc
 50
90.0
 51
113.392787
  0
LINE
  5
1DCC2
330
1DAC6
100
AcDbEntity
  8
1
  6
Continuous
100
AcDbLine
 10
288.6589029999999
 20
88.50341400000003
 30
0.0
 11
285.031542
 21
86.93425699999997
 31
0.0
  0
ARC
  5
1DCC3
330
1DAC6
100
AcDbEntity
  8
1
  6
Continuous
100
AcDbCircle
 10
283.9
 20
89.54999999999998
 30
0.0
 40
2.85
100
AcDbArc
 50
209.6169489999998
 51
293.392787
  0
ARC
  5
1DCC4
330
1DAC6
100
AcDbEntity
  8
1
  6
Continuous
100
AcDbCircle
 10
283.9
 20
89.54999999999998
 30
0.0
 40
1.25
100
AcDbArc
 50
222.1111449999999
 51
293.392787
  0
ARC
  5
1DCC5
330
1DAC6
100
AcDbEntity
  8
1
  6
Continuous
100
AcDbCircle
 10
289.85
 20
85.75000000000001
 30
0.0
 40
3.0
100
AcDbArc
 50
90.0
 51
113.392787
  0
ARC
  5
1DCC6
330
1DAC6
100
AcDbEntity
  8
1
  6
Continuous
100
AcDbCircle
 10
264.25
 20
85.75000000000001
 30
0.0
 40
3.0
100
AcDbArc
 50
90.0
 51
113.392787
  0
ARC
  5
1DCC7
330
1DAC6
100
AcDbEntity
  8
1
  6
Continuous
100
AcDbCircle
 10
264.6999999999998
 20
89.54999999999998
 30
0.0
 40
2.85
100
AcDbArc
 50
209.6169489999998
 51
293.392787
  0
ARC
  5
1DCC8
330
1DAC6
100
AcDbEntity
  8
1
  6
Continuous
100
AcDbCircle
 10
264.6999999999998
 20
89.54999999999998
 30
0.0
 40
1.25
100
AcDbArc
 50
222.1111449999999
 51
293.392787
  0
LINE
  5
1DCC9
330
1DAC6
100
AcDbEntity
  8
1
  6
Continuous
100
AcDbLine
 10
269.4589029999999
 20
88.50341400000003
 30
0.0
 11
265.831542
 21
86.93425699999997
 31
0.0
  0
ARC
  5
1DCCA
330
1DAC6
100
AcDbEntity
  8
1
  6
Continuous
100
AcDbCircle
 10
270.6499999999999
 20
85.75000000000001
 30
0.0
 40
3.0
100
AcDbArc
 50
90.0
 51
113.392787
  0
ARC
  5
1DCCB
330
1DAC6
100
AcDbEntity
  8
1
  6
Continuous
100
AcDbCircle
 10
271.1
 20
89.54999999999998
 30
0.0
 40
2.85
100
AcDbArc
 50
209.6169489999998
 51
293.392787
  0
ARC
  5
1DCCC
330
1DAC6
100
AcDbEntity
  8
1
  6
Continuous
100
AcDbCircle
 10
271.1
 20
89.54999999999998
 30
0.0
 40
1.25
100
AcDbArc
 50
222.1111449999999
 51
293.392787
  0
ARC
  5
1DCCD
330
1DAC6
100
AcDbEntity
  8
1
  6
Continuous
100
AcDbCircle
 10
277.05
 20
85.75000000000001
 30
0.0
 40
3.0
100
AcDbArc
 50
90.0
 51
113.392787
  0
ARC
  5
1DCCE
330
1DAC6
100
AcDbEntity
  8
1
  6
Continuous
100
AcDbCircle
 10
277.4999999999999
 20
89.54999999999998
 30
0.0
 40
2.85
100
AcDbArc
 50
209.6169489999998
 51
293.392787
  0
ARC
  5
1DCCF
330
1DAC6
100
AcDbEntity
  8
1
  6
Continuous
100
AcDbCircle
 10
277.4999999999999
 20
89.54999999999998
 30
0.0
 40
1.25
100
AcDbArc
 50
222.1111449999999
 51
293.392787
  0
LINE
  5
1DCD0
330
1DAC6
100
AcDbEntity
  8
1
  6
Continuous
100
AcDbLine
 10
275.8589029999999
 20
88.50341400000003
 30
0.0
 11
272.231542
 21
86.93425699999997
 31
0.0
  0
ARC
  5
1DCD1
330
1DAC6
100
AcDbEntity
  8
1
  6
Continuous
100
AcDbCircle
 10
251.4499999999999
 20
85.75000000000001
 30
0.0
 40
3.0
100
AcDbArc
 50
90.0
 51
113.392787
  0
ARC
  5
1DCD2
330
1DAC6
100
AcDbEntity
  8
1
  6
Continuous
100
AcDbCircle
 10
251.9
 20
89.54999999999998
 30
0.0
 40
2.85
100
AcDbArc
 50
209.6169489999998
 51
293.392787
  0
ARC
  5
1DCD3
330
1DAC6
100
AcDbEntity
  8
1
  6
Continuous
100
AcDbCircle
 10
251.9
 20
89.54999999999998
 30
0.0
 40
1.25
100
AcDbArc
 50
222.1111449999999
 51
293.392787
  0
LINE
  5
1DCD4
330
1DAC6
100
AcDbEntity
  8
1
  6
Continuous
100
AcDbLine
 10
256.6589029999998
 20
88.50341400000003
 30
0.0
 11
253.0315419999999
 21
86.93425699999997
 31
0.0
  0
LINE
  5
1DCD5
330
1DAC6
100
AcDbEntity
  8
1
  6
Continuous
100
AcDbLine
 10
263.0589029999998
 20
88.50341400000003
 30
0.0
 11
259.431542
 21
86.93425699999997
 31
0.0
  0
ARC
  5
1DCD6
330
1DAC6
100
AcDbEntity
  8
1
  6
Continuous
100
AcDbCircle
 10
258.3
 20
89.54999999999998
 30
0.0
 40
1.25
100
AcDbArc
 50
222.1111449999999
 51
293.392787
  0
ARC
  5
1DCD7
330
1DAC6
100
AcDbEntity
  8
1
  6
Continuous
100
AcDbCircle
 10
257.85
 20
85.75000000000001
 30
0.0
 40
3.0
100
AcDbArc
 50
90.0
 51
113.392787
  0
ARC
  5
1DCD8
330
1DAC6
100
AcDbEntity
  8
1
  6
Continuous
100
AcDbCircle
 10
258.3
 20
89.54999999999998
 30
0.0
 40
2.85
100
AcDbArc
 50
209.6169489999998
 51
293.392787
  0
LINE
  5
1DCD9
330
1DAC6
100
AcDbEntity
  8
1
  6
Continuous
100
AcDbLine
 10
185.422356
 20
90.958467
 30
0.0
 11
182.631542
 21
92.16574300000001
 31
0.0
  0
LINE
  5
1DCDA
330
1DAC6
100
AcDbEntity
  8
1
  6
Continuous
100
AcDbLine
 10
184.648358
 20
89.54999999999998
 30
0.0
 11
181.9962899999999
 21
90.69725599999999
 31
0.0
  0
LINE
  5
1DCDB
330
1DAC6
100
AcDbEntity
  8
1
  6
Continuous
100
AcDbLine
 10
185.623651
 20
89.971901
 30
0.0
 11
181.9962899999999
 21
88.402744
 31
0.0
  0
LINE
  5
1DCDC
330
1DAC6
100
AcDbEntity
  8
1
  6
Continuous
100
AcDbLine
 10
186.258903
 20
88.50341400000003
 30
0.0
 11
182.631542
 21
86.93425699999997
 31
0.0
  0
ARC
  5
1DCDD
330
1DAC6
100
AcDbEntity
  8
1
  6
Continuous
100
AcDbCircle
 10
187.4499999999999
 20
89.54999999999998
 30
0.0
 40
0.8
100
AcDbArc
 50
270.0
 51
90.0
  0
LINE
  5
1DCDE
330
1DAC6
100
AcDbEntity
  8
1
  6
Continuous
100
AcDbLine
 10
192.023651
 20
89.971901
 30
0.0
 11
188.39629
 21
88.402744
 31
0.0
  0
ARC
  5
1DCDF
330
1DAC6
100
AcDbEntity
  8
1
  6
Continuous
100
AcDbCircle
 10
193.8499999999999
 20
89.54999999999998
 30
0.0
 40
0.8
100
AcDbArc
 50
270.0
 51
90.0
  0
ARC
  5
1DCE0
330
1DAC6
100
AcDbEntity
  8
1
  6
Continuous
100
AcDbCircle
 10
200.2499999999999
 20
89.54999999999998
 30
0.0
 40
0.8
100
AcDbArc
 50
270.0
 51
90.0
  0
ARC
  5
1DCE1
330
1DAC6
100
AcDbEntity
  8
1
  6
Continuous
100
AcDbCircle
 10
206.65
 20
89.54999999999998
 30
0.0
 40
0.8
100
AcDbArc
 50
270.0
 51
90.0
  0
LINE
  5
1DCE2
330
1DAC6
100
AcDbEntity
  8
1
  6
Continuous
100
AcDbLine
 10
204.823651
 20
89.971901
 30
0.0
 11
201.1962899999998
 21
88.402744
 31
0.0
  0
LINE
  5
1DCE3
330
1DAC6
100
AcDbEntity
  8
1
  6
Continuous
100
AcDbLine
 10
198.423651
 20
89.971901
 30
0.0
 11
194.79629
 21
88.402744
 31
0.0
  0
ARC
  5
1DCE4
330
1DAC6
100
AcDbEntity
  8
1
  6
Continuous
100
AcDbCircle
 10
213.05
 20
89.54999999999998
 30
0.0
 40
0.8
100
AcDbArc
 50
270.0
 51
90.0
  0
ARC
  5
1DCE5
330
1DAC6
100
AcDbEntity
  8
1
  6
Continuous
100
AcDbCircle
 10
219.45
 20
89.54999999999998
 30
0.0
 40
0.8
100
AcDbArc
 50
270.0
 51
90.0
  0
LINE
  5
1DCE6
330
1DAC6
100
AcDbEntity
  8
1
  6
Continuous
100
AcDbLine
 10
217.6236509999998
 20
89.971901
 30
0.0
 11
213.99629
 21
88.402744
 31
0.0
  0
LINE
  5
1DCE7
330
1DAC6
100
AcDbEntity
  8
1
  6
Continuous
100
AcDbLine
 10
224.0236509999999
 20
89.971901
 30
0.0
 11
220.39629
 21
88.402744
 31
0.0
  0
ARC
  5
1DCE8
330
1DAC6
100
AcDbEntity
  8
1
  6
Continuous
100
AcDbCircle
 10
225.85
 20
89.54999999999998
 30
0.0
 40
0.8
100
AcDbArc
 50
270.0
 51
90.0
  0
ARC
  5
1DCE9
330
1DAC6
100
AcDbEntity
  8
1
  6
Continuous
100
AcDbCircle
 10
232.25
 20
89.54999999999998
 30
0.0
 40
0.8
100
AcDbArc
 50
270.0
 51
90.0
  0
LINE
  5
1DCEA
330
1DAC6
100
AcDbEntity
  8
1
  6
Continuous
100
AcDbLine
 10
230.4236509999999
 20
89.971901
 30
0.0
 11
226.79629
 21
88.402744
 31
0.0
  0
ARC
  5
1DCEB
330
1DAC6
100
AcDbEntity
  8
1
  6
Continuous
100
AcDbCircle
 10
238.65
 20
89.54999999999998
 30
0.0
 40
0.8
100
AcDbArc
 50
270.0
 51
90.0
  0
LINE
  5
1DCEC
330
1DAC6
100
AcDbEntity
  8
1
  6
Continuous
100
AcDbLine
 10
236.823651
 20
89.971901
 30
0.0
 11
233.19629
 21
88.402744
 31
0.0
  0
ARC
  5
1DCED
330
1DAC6
100
AcDbEntity
  8
1
  6
Continuous
100
AcDbCircle
 10
245.05
 20
89.54999999999998
 30
0.0
 40
0.8
100
AcDbArc
 50
270.0
 51
90.0
  0
LINE
  5
1DCEE
330
1DAC6
100
AcDbEntity
  8
1
  6
Continuous
100
AcDbLine
 10
243.223651
 20
89.971901
 30
0.0
 11
239.5962899999999
 21
88.402744
 31
0.0
  0
LINE
  5
1DCEF
330
1DAC6
100
AcDbEntity
  8
1
  6
Continuous
100
AcDbLine
 10
211.2236509999999
 20
89.971901
 30
0.0
 11
207.5962899999999
 21
88.402744
 31
0.0
  0
LINE
  5
1DCF0
330
1DAC6
100
AcDbEntity
  8
1
  6
Continuous
100
AcDbLine
 10
217.422356
 20
90.958467
 30
0.0
 11
214.631542
 21
92.16574300000001
 31
0.0
  0
LINE
  5
1DCF1
330
1DAC6
100
AcDbEntity
  8
1
  6
Continuous
100
AcDbLine
 10
216.6483579999999
 20
89.54999999999998
 30
0.0
 11
213.99629
 21
90.69725599999999
 31
0.0
  0
ARC
  5
1DCF2
330
1DAC6
100
AcDbEntity
  8
1
  6
Continuous
100
AcDbCircle
 10
232.25
 20
85.75000000000001
 30
0.0
 40
4.599999999999997
100
AcDbArc
 50
90.0
 51
113.392787
  0
ARC
  5
1DCF3
330
1DAC6
100
AcDbEntity
  8
1
  6
Continuous
100
AcDbCircle
 10
232.25
 20
93.34999999999999
 30
0.0
 40
3.0
100
AcDbArc
 50
260.845208
 51
270.0
  0
ARC
  5
1DCF4
330
1DAC6
100
AcDbEntity
  8
1
  6
Continuous
100
AcDbCircle
 10
232.6999999999999
 20
89.54999999999998
 30
0.0
 40
1.25
100
AcDbArc
 50
66.607213
 51
142.050929
  0
ARC
  5
1DCF5
330
1DAC6
100
AcDbEntity
  8
1
  6
Continuous
100
AcDbCircle
 10
232.6999999999999
 20
89.54999999999998
 30
0.0
 40
2.85
100
AcDbArc
 50
66.607213
 51
176.457432
  0
ARC
  5
1DCF6
330
1DAC6
100
AcDbEntity
  8
1
  6
Continuous
100
AcDbCircle
 10
238.65
 20
85.75000000000001
 30
0.0
 40
4.599999999999997
100
AcDbArc
 50
90.0
 51
113.392787
  0
ARC
  5
1DCF7
330
1DAC6
100
AcDbEntity
  8
1
  6
Continuous
100
AcDbCircle
 10
239.1
 20
89.54999999999998
 30
0.0
 40
2.85
100
AcDbArc
 50
66.607213
 51
176.457432
  0
ARC
  5
1DCF8
330
1DAC6
100
AcDbEntity
  8
1
  6
Continuous
100
AcDbCircle
 10
238.65
 20
93.34999999999999
 30
0.0
 40
3.0
100
AcDbArc
 50
260.845208
 51
270.0
  0
ARC
  5
1DCF9
330
1DAC6
100
AcDbEntity
  8
1
  6
Continuous
100
AcDbCircle
 10
239.1
 20
89.54999999999998
 30
0.0
 40
1.25
100
AcDbArc
 50
66.607213
 51
142.050929
  0
LINE
  5
1DCFA
330
1DAC6
100
AcDbEntity
  8
1
  6
Continuous
100
AcDbLine
 10
236.6223559999999
 20
90.958467
 30
0.0
 11
233.8315419999999
 21
92.16574300000001
 31
0.0
  0
LINE
  5
1DCFB
330
1DAC6
100
AcDbEntity
  8
1
  6
Continuous
100
AcDbLine
 10
235.848358
 20
89.54999999999998
 30
0.0
 11
233.19629
 21
90.69725599999999
 31
0.0
  0
ARC
  5
1DCFC
330
1DAC6
100
AcDbEntity
  8
1
  6
Continuous
100
AcDbCircle
 10
245.05
 20
85.75000000000001
 30
0.0
 40
4.599999999999997
100
AcDbArc
 50
90.0
 51
113.392787
  0
ARC
  5
1DCFD
330
1DAC6
100
AcDbEntity
  8
1
  6
Continuous
100
AcDbCircle
 10
245.05
 20
93.34999999999999
 30
0.0
 40
3.0
100
AcDbArc
 50
260.845208
 51
270.0
  0
ARC
  5
1DCFE
330
1DAC6
100
AcDbEntity
  8
1
  6
Continuous
100
AcDbCircle
 10
245.5
 20
89.54999999999998
 30
0.0
 40
1.25
100
AcDbArc
 50
66.607213
 51
142.050929
  0
ARC
  5
1DCFF
330
1DAC6
100
AcDbEntity
  8
1
  6
Continuous
100
AcDbCircle
 10
245.5
 20
89.54999999999998
 30
0.0
 40
2.85
100
AcDbArc
 50
66.607213
 51
176.457432
  0
LINE
  5
1DD00
330
1DAC6
100
AcDbEntity
  8
1
  6
Continuous
100
AcDbLine
 10
243.0223559999999
 20
90.958467
 30
0.0
 11
240.2315419999999
 21
92.16574300000001
 31
0.0
  0
LINE
  5
1DD01
330
1DAC6
100
AcDbEntity
  8
1
  6
Continuous
100
AcDbLine
 10
242.248358
 20
89.54999999999998
 30
0.0
 11
239.5962899999999
 21
90.69725599999999
 31
0.0
  0
ARC
  5
1DD02
330
1DAC6
100
AcDbEntity
  8
1
  6
Continuous
100
AcDbCircle
 10
219.45
 20
85.75000000000001
 30
0.0
 40
4.599999999999997
100
AcDbArc
 50
90.0
 51
113.392787
  0
ARC
  5
1DD03
330
1DAC6
100
AcDbEntity
  8
1
  6
Continuous
100
AcDbCircle
 10
219.45
 20
93.34999999999999
 30
0.0
 40
3.0
100
AcDbArc
 50
260.845208
 51
270.0
  0
LINE
  5
1DD04
330
1DAC6
100
AcDbEntity
  8
1
  6
Continuous
100
AcDbLine
 10
223.822356
 20
90.958467
 30
0.0
 11
221.031542
 21
92.16574300000001
 31
0.0
  0
LINE
  5
1DD05
330
1DAC6
100
AcDbEntity
  8
1
  6
Continuous
100
AcDbLine
 10
223.048358
 20
89.54999999999998
 30
0.0
 11
220.39629
 21
90.69725599999999
 31
0.0
  0
ARC
  5
1DD06
330
1DAC6
100
AcDbEntity
  8
1
  6
Continuous
100
AcDbCircle
 10
219.9
 20
89.54999999999998
 30
0.0
 40
1.25
100
AcDbArc
 50
66.607213
 51
142.050929
  0
ARC
  5
1DD07
330
1DAC6
100
AcDbEntity
  8
1
  6
Continuous
100
AcDbCircle
 10
219.9
 20
89.54999999999998
 30
0.0
 40
2.85
100
AcDbArc
 50
66.607213
 51
176.457432
  0
ARC
  5
1DD08
330
1DAC6
100
AcDbEntity
  8
1
  6
Continuous
100
AcDbCircle
 10
225.85
 20
93.34999999999999
 30
0.0
 40
3.0
100
AcDbArc
 50
260.845208
 51
270.0
  0
ARC
  5
1DD09
330
1DAC6
100
AcDbEntity
  8
1
  6
Continuous
100
AcDbCircle
 10
226.3
 20
89.54999999999998
 30
0.0
 40
1.25
100
AcDbArc
 50
66.607213
 51
142.050929
  0
LINE
  5
1DD0A
330
1DAC6
100
AcDbEntity
  8
1
  6
Continuous
100
AcDbLine
 10
230.2223559999999
 20
90.958467
 30
0.0
 11
227.4315419999998
 21
92.16574300000001
 31
0.0
  0
LINE
  5
1DD0B
330
1DAC6
100
AcDbEntity
  8
1
  6
Continuous
100
AcDbLine
 10
229.448358
 20
89.54999999999998
 30
0.0
 11
226.79629
 21
90.69725599999999
 31
0.0
  0
ARC
  5
1DD0C
330
1DAC6
100
AcDbEntity
  8
1
  6
Continuous
100
AcDbCircle
 10
225.85
 20
85.75000000000001
 30
0.0
 40
4.599999999999997
100
AcDbArc
 50
90.0
 51
113.392787
  0
ARC
  5
1DD0D
330
1DAC6
100
AcDbEntity
  8
1
  6
Continuous
100
AcDbCircle
 10
226.3
 20
89.54999999999998
 30
0.0
 40
2.85
100
AcDbArc
 50
66.607213
 51
176.457432
  0
ARC
  5
1DD0E
330
1DAC6
100
AcDbEntity
  8
1
  6
Continuous
100
AcDbCircle
 10
200.2499999999999
 20
85.75000000000001
 30
0.0
 40
4.599999999999997
100
AcDbArc
 50
90.0
 51
113.392787
  0
ARC
  5
1DD0F
330
1DAC6
100
AcDbEntity
  8
1
  6
Continuous
100
AcDbCircle
 10
200.7
 20
89.54999999999998
 30
0.0
 40
2.85
100
AcDbArc
 50
66.607213
 51
176.457432
  0
ARC
  5
1DD10
330
1DAC6
100
AcDbEntity
  8
1
  6
Continuous
100
AcDbCircle
 10
200.2499999999999
 20
93.34999999999999
 30
0.0
 40
3.0
100
AcDbArc
 50
260.845208
 51
270.0
  0
ARC
  5
1DD11
330
1DAC6
100
AcDbEntity
  8
1
  6
Continuous
100
AcDbCircle
 10
200.7
 20
89.54999999999998
 30
0.0
 40
1.25
100
AcDbArc
 50
66.607213
 51
142.050929
  0
LINE
  5
1DD12
330
1DAC6
100
AcDbEntity
  8
1
  6
Continuous
100
AcDbLine
 10
204.622356
 20
90.958467
 30
0.0
 11
201.8315419999999
 21
92.16574300000001
 31
0.0
  0
ARC
  5
1DD13
330
1DAC6
100
AcDbEntity
  8
1
  6
Continuous
100
AcDbCircle
 10
206.65
 20
85.75000000000001
 30
0.0
 40
4.599999999999997
100
AcDbArc
 50
90.0
 51
113.392787
  0
ARC
  5
1DD14
330
1DAC6
100
AcDbEntity
  8
1
  6
Continuous
100
AcDbCircle
 10
206.65
 20
93.34999999999999
 30
0.0
 40
3.0
100
AcDbArc
 50
260.845208
 51
270.0
  0
LINE
  5
1DD15
330
1DAC6
100
AcDbEntity
  8
1
  6
Continuous
100
AcDbLine
 10
203.8483579999999
 20
89.54999999999998
 30
0.0
 11
201.1962899999998
 21
90.69725599999999
 31
0.0
  0
ARC
  5
1DD16
330
1DAC6
100
AcDbEntity
  8
1
  6
Continuous
100
AcDbCircle
 10
207.1
 20
89.54999999999998
 30
0.0
 40
1.25
100
AcDbArc
 50
66.607213
 51
142.050929
  0
ARC
  5
1DD17
330
1DAC6
100
AcDbEntity
  8
1
  6
Continuous
100
AcDbCircle
 10
207.1
 20
89.54999999999998
 30
0.0
 40
2.85
100
AcDbArc
 50
66.607213
 51
176.457432
  0
ARC
  5
1DD18
330
1DAC6
100
AcDbEntity
  8
1
  6
Continuous
100
AcDbCircle
 10
213.05
 20
85.75000000000001
 30
0.0
 40
4.599999999999997
100
AcDbArc
 50
90.0
 51
113.392787
  0
ARC
  5
1DD19
330
1DAC6
100
AcDbEntity
  8
1
  6
Continuous
100
AcDbCircle
 10
213.5
 20
89.54999999999998
 30
0.0
 40
2.85
100
AcDbArc
 50
66.607213
 51
176.457432
  0
ARC
  5
1DD1A
330
1DAC6
100
AcDbEntity
  8
1
  6
Continuous
100
AcDbCircle
 10
213.05
 20
93.34999999999999
 30
0.0
 40
3.0
100
AcDbArc
 50
260.845208
 51
270.0
  0
ARC
  5
1DD1B
330
1DAC6
100
AcDbEntity
  8
1
  6
Continuous
100
AcDbCircle
 10
213.5
 20
89.54999999999998
 30
0.0
 40
1.25
100
AcDbArc
 50
66.607213
 51
142.050929
  0
LINE
  5
1DD1C
330
1DAC6
100
AcDbEntity
  8
1
  6
Continuous
100
AcDbLine
 10
211.022356
 20
90.958467
 30
0.0
 11
208.231542
 21
92.16574300000001
 31
0.0
  0
LINE
  5
1DD1D
330
1DAC6
100
AcDbEntity
  8
1
  6
Continuous
100
AcDbLine
 10
210.2483579999999
 20
89.54999999999998
 30
0.0
 11
207.5962899999999
 21
90.69725599999999
 31
0.0
  0
ARC
  5
1DD1E
330
1DAC6
100
AcDbEntity
  8
1
  6
Continuous
100
AcDbCircle
 10
187.4499999999999
 20
85.75000000000001
 30
0.0
 40
4.599999999999997
100
AcDbArc
 50
90.0
 51
113.392787
  0
ARC
  5
1DD1F
330
1DAC6
100
AcDbEntity
  8
1
  6
Continuous
100
AcDbCircle
 10
187.8999999999998
 20
89.54999999999998
 30
0.0
 40
2.85
100
AcDbArc
 50
66.607213
 51
176.457432
  0
ARC
  5
1DD20
330
1DAC6
100
AcDbEntity
  8
1
  6
Continuous
100
AcDbCircle
 10
187.4499999999999
 20
93.34999999999999
 30
0.0
 40
3.0
100
AcDbArc
 50
260.845208
 51
270.0
  0
ARC
  5
1DD21
330
1DAC6
100
AcDbEntity
  8
1
  6
Continuous
100
AcDbCircle
 10
187.8999999999998
 20
89.54999999999998
 30
0.0
 40
1.25
100
AcDbArc
 50
66.607213
 51
142.050929
  0
LINE
  5
1DD22
330
1DAC6
100
AcDbEntity
  8
1
  6
Continuous
100
AcDbLine
 10
191.822356
 20
90.958467
 30
0.0
 11
189.031542
 21
92.16574300000001
 31
0.0
  0
LINE
  5
1DD23
330
1DAC6
100
AcDbEntity
  8
1
  6
Continuous
100
AcDbLine
 10
191.048358
 20
89.54999999999998
 30
0.0
 11
188.39629
 21
90.69725599999999
 31
0.0
  0
ARC
  5
1DD24
330
1DAC6
100
AcDbEntity
  8
1
  6
Continuous
100
AcDbCircle
 10
193.8499999999999
 20
93.34999999999999
 30
0.0
 40
3.0
100
AcDbArc
 50
260.845208
 51
270.0
  0
LINE
  5
1DD25
330
1DAC6
100
AcDbEntity
  8
1
  6
Continuous
100
AcDbLine
 10
198.2223559999999
 20
90.958467
 30
0.0
 11
195.431542
 21
92.16574300000001
 31
0.0
  0
LINE
  5
1DD26
330
1DAC6
100
AcDbEntity
  8
1
  6
Continuous
100
AcDbLine
 10
197.448358
 20
89.54999999999998
 30
0.0
 11
194.79629
 21
90.69725599999999
 31
0.0
  0
ARC
  5
1DD27
330
1DAC6
100
AcDbEntity
  8
1
  6
Continuous
100
AcDbCircle
 10
194.2999999999999
 20
89.54999999999998
 30
0.0
 40
1.25
100
AcDbArc
 50
66.607213
 51
142.050929
  0
ARC
  5
1DD28
330
1DAC6
100
AcDbEntity
  8
1
  6
Continuous
100
AcDbCircle
 10
193.8499999999999
 20
85.75000000000001
 30
0.0
 40
4.599999999999997
100
AcDbArc
 50
90.0
 51
113.392787
  0
ARC
  5
1DD29
330
1DAC6
100
AcDbEntity
  8
1
  6
Continuous
100
AcDbCircle
 10
194.2999999999999
 20
89.54999999999998
 30
0.0
 40
2.85
100
AcDbArc
 50
66.607213
 51
176.457432
  0
LINE
  5
1DD2A
330
1DAC6
100
AcDbEntity
  8
1
  6
Continuous
100
AcDbLine
 10
218.2589029999999
 20
88.50341400000003
 30
0.0
 11
214.631542
 21
86.93425699999997
 31
0.0
  0
ARC
  5
1DD2B
330
1DAC6
100
AcDbEntity
  8
1
  6
Continuous
100
AcDbCircle
 10
232.25
 20
85.75000000000001
 30
0.0
 40
3.0
100
AcDbArc
 50
90.0
 51
113.392787
  0
ARC
  5
1DD2C
330
1DAC6
100
AcDbEntity
  8
1
  6
Continuous
100
AcDbCircle
 10
232.6999999999999
 20
89.54999999999998
 30
0.0
 40
2.85
100
AcDbArc
 50
209.6169489999998
 51
293.392787
  0
ARC
  5
1DD2D
330
1DAC6
100
AcDbEntity
  8
1
  6
Continuous
100
AcDbCircle
 10
232.6999999999999
 20
89.54999999999998
 30
0.0
 40
1.25
100
AcDbArc
 50
222.1111449999999
 51
293.392787
  0
ARC
  5
1DD2E
330
1DAC6
100
AcDbEntity
  8
1
  6
Continuous
100
AcDbCircle
 10
238.65
 20
85.75000000000001
 30
0.0
 40
3.0
100
AcDbArc
 50
90.0
 51
113.392787
  0
ARC
  5
1DD2F
330
1DAC6
100
AcDbEntity
  8
1
  6
Continuous
100
AcDbCircle
 10
239.1
 20
89.54999999999998
 30
0.0
 40
2.85
100
AcDbArc
 50
209.6169489999998
 51
293.392787
  0
ARC
  5
1DD30
330
1DAC6
100
AcDbEntity
  8
1
  6
Continuous
100
AcDbCircle
 10
239.1
 20
89.54999999999998
 30
0.0
 40
1.25
100
AcDbArc
 50
222.1111449999999
 51
293.392787
  0
LINE
  5
1DD31
330
1DAC6
100
AcDbEntity
  8
1
  6
Continuous
100
AcDbLine
 10
237.458903
 20
88.50341400000003
 30
0.0
 11
233.8315419999999
 21
86.93425699999997
 31
0.0
  0
ARC
  5
1DD32
330
1DAC6
100
AcDbEntity
  8
1
  6
Continuous
100
AcDbCircle
 10
245.05
 20
85.75000000000001
 30
0.0
 40
3.0
100
AcDbArc
 50
90.0
 51
113.392787
  0
ARC
  5
1DD33
330
1DAC6
100
AcDbEntity
  8
1
  6
Continuous
100
AcDbCircle
 10
245.5
 20
89.54999999999998
 30
0.0
 40
2.85
100
AcDbArc
 50
209.6169489999998
 51
293.392787
  0
ARC
  5
1DD34
330
1DAC6
100
AcDbEntity
  8
1
  6
Continuous
100
AcDbCircle
 10
245.5
 20
89.54999999999998
 30
0.0
 40
1.25
100
AcDbArc
 50
222.1111449999999
 51
293.392787
  0
LINE
  5
1DD35
330
1DAC6
100
AcDbEntity
  8
1
  6
Continuous
100
AcDbLine
 10
243.8589029999999
 20
88.50341400000003
 30
0.0
 11
240.2315419999999
 21
86.93425699999997
 31
0.0
  0
ARC
  5
1DD36
330
1DAC6
100
AcDbEntity
  8
1
  6
Continuous
100
AcDbCircle
 10
219.45
 20
85.75000000000001
 30
0.0
 40
3.0
100
AcDbArc
 50
90.0
 51
113.392787
  0
LINE
  5
1DD37
330
1DAC6
100
AcDbEntity
  8
1
  6
Continuous
100
AcDbLine
 10
224.6589029999999
 20
88.50341400000003
 30
0.0
 11
221.031542
 21
86.93425699999997
 31
0.0
  0
ARC
  5
1DD38
330
1DAC6
100
AcDbEntity
  8
1
  6
Continuous
100
AcDbCircle
 10
219.9
 20
89.54999999999998
 30
0.0
 40
2.85
100
AcDbArc
 50
209.6169489999998
 51
293.392787
  0
ARC
  5
1DD39
330
1DAC6
100
AcDbEntity
  8
1
  6
Continuous
100
AcDbCircle
 10
219.9
 20
89.54999999999998
 30
0.0
 40
1.25
100
AcDbArc
 50
222.1111449999999
 51
293.392787
  0
ARC
  5
1DD3A
330
1DAC6
100
AcDbEntity
  8
1
  6
Continuous
100
AcDbCircle
 10
226.3
 20
89.54999999999998
 30
0.0
 40
1.25
100
AcDbArc
 50
222.1111449999999
 51
293.392787
  0
LINE
  5
1DD3B
330
1DAC6
100
AcDbEntity
  8
1
  6
Continuous
100
AcDbLine
 10
231.058903
 20
88.50341400000003
 30
0.0
 11
227.4315419999998
 21
86.93425699999997
 31
0.0
  0
ARC
  5
1DD3C
330
1DAC6
100
AcDbEntity
  8
1
  6
Continuous
100
AcDbCircle
 10
225.85
 20
85.75000000000001
 30
0.0
 40
3.0
100
AcDbArc
 50
90.0
 51
113.392787
  0
ARC
  5
1DD3D
330
1DAC6
100
AcDbEntity
  8
1
  6
Continuous
100
AcDbCircle
 10
226.3
 20
89.54999999999998
 30
0.0
 40
2.85
100
AcDbArc
 50
209.6169489999998
 51
293.392787
  0
ARC
  5
1DD3E
330
1DAC6
100
AcDbEntity
  8
1
  6
Continuous
100
AcDbCircle
 10
200.2499999999999
 20
85.75000000000001
 30
0.0
 40
3.0
100
AcDbArc
 50
90.0
 51
113.392787
  0
ARC
  5
1DD3F
330
1DAC6
100
AcDbEntity
  8
1
  6
Continuous
100
AcDbCircle
 10
200.7
 20
89.54999999999998
 30
0.0
 40
2.85
100
AcDbArc
 50
209.6169489999998
 51
293.392787
  0
ARC
  5
1DD40
330
1DAC6
100
AcDbEntity
  8
1
  6
Continuous
100
AcDbCircle
 10
200.7
 20
89.54999999999998
 30
0.0
 40
1.25
100
AcDbArc
 50
222.1111449999999
 51
293.392787
  0
LINE
  5
1DD41
330
1DAC6
100
AcDbEntity
  8
1
  6
Continuous
100
AcDbLine
 10
205.4589029999999
 20
88.50341400000003
 30
0.0
 11
201.8315419999999
 21
86.93425699999997
 31
0.0
  0
ARC
  5
1DD42
330
1DAC6
100
AcDbEntity
  8
1
  6
Continuous
100
AcDbCircle
 10
206.65
 20
85.75000000000001
 30
0.0
 40
3.0
100
AcDbArc
 50
90.0
 51
113.392787
  0
ARC
  5
1DD43
330
1DAC6
100
AcDbEntity
  8
1
  6
Continuous
100
AcDbCircle
 10
207.1
 20
89.54999999999998
 30
0.0
 40
2.85
100
AcDbArc
 50
209.6169489999998
 51
293.392787
  0
ARC
  5
1DD44
330
1DAC6
100
AcDbEntity
  8
1
  6
Continuous
100
AcDbCircle
 10
207.1
 20
89.54999999999998
 30
0.0
 40
1.25
100
AcDbArc
 50
222.1111449999999
 51
293.392787
  0
ARC
  5
1DD45
330
1DAC6
100
AcDbEntity
  8
1
  6
Continuous
100
AcDbCircle
 10
213.05
 20
85.75000000000001
 30
0.0
 40
3.0
100
AcDbArc
 50
90.0
 51
113.392787
  0
ARC
  5
1DD46
330
1DAC6
100
AcDbEntity
  8
1
  6
Continuous
100
AcDbCircle
 10
213.5
 20
89.54999999999998
 30
0.0
 40
2.85
100
AcDbArc
 50
209.6169489999998
 51
293.392787
  0
ARC
  5
1DD47
330
1DAC6
100
AcDbEntity
  8
1
  6
Continuous
100
AcDbCircle
 10
213.5
 20
89.54999999999998
 30
0.0
 40
1.25
100
AcDbArc
 50
222.1111449999999
 51
293.392787
  0
LINE
  5
1DD48
330
1DAC6
100
AcDbEntity
  8
1
  6
Continuous
100
AcDbLine
 10
211.8589029999998
 20
88.50341400000003
 30
0.0
 11
208.231542
 21
86.93425699999997
 31
0.0
  0
ARC
  5
1DD49
330
1DAC6
100
AcDbEntity
  8
1
  6
Continuous
100
AcDbCircle
 10
187.4499999999999
 20
85.75000000000001
 30
0.0
 40
3.0
100
AcDbArc
 50
90.0
 51
113.392787
  0
ARC
  5
1DD4A
330
1DAC6
100
AcDbEntity
  8
1
  6
Continuous
100
AcDbCircle
 10
187.8999999999998
 20
89.54999999999998
 30
0.0
 40
2.85
100
AcDbArc
 50
209.6169489999998
 51
293.392787
  0
ARC
  5
1DD4B
330
1DAC6
100
AcDbEntity
  8
1
  6
Continuous
100
AcDbCircle
 10
187.8999999999998
 20
89.54999999999998
 30
0.0
 40
1.25
100
AcDbArc
 50
222.1111449999999
 51
293.392787
  0
LINE
  5
1DD4C
330
1DAC6
100
AcDbEntity
  8
1
  6
Continuous
100
AcDbLine
 10
192.658903
 20
88.50341400000003
 30
0.0
 11
189.031542
 21
86.93425699999997
 31
0.0
  0
LINE
  5
1DD4D
330
1DAC6
100
AcDbEntity
  8
1
  6
Continuous
100
AcDbLine
 10
199.0589029999999
 20
88.50341400000003
 30
0.0
 11
195.431542
 21
86.93425699999997
 31
0.0
  0
ARC
  5
1DD4E
330
1DAC6
100
AcDbEntity
  8
1
  6
Continuous
100
AcDbCircle
 10
194.2999999999999
 20
89.54999999999998
 30
0.0
 40
1.25
100
AcDbArc
 50
222.1111449999999
 51
293.392787
  0
ARC
  5
1DD4F
330
1DAC6
100
AcDbEntity
  8
1
  6
Continuous
100
AcDbCircle
 10
193.8499999999999
 20
85.75000000000001
 30
0.0
 40
3.0
100
AcDbArc
 50
90.0
 51
113.392787
  0
ARC
  5
1DD50
330
1DAC6
100
AcDbEntity
  8
1
  6
Continuous
100
AcDbCircle
 10
194.2999999999999
 20
89.54999999999998
 30
0.0
 40
2.85
100
AcDbArc
 50
209.6169489999998
 51
293.392787
  0
ARC
  5
1DD51
330
1DAC6
100
AcDbEntity
  8
1
  6
Continuous
100
AcDbCircle
 10
123.45
 20
89.54999999999998
 30
0.0
 40
0.8
100
AcDbArc
 50
270.0
 51
90.0
  0
LINE
  5
1DD52
330
1DAC6
100
AcDbEntity
  8
1
  6
Continuous
100
AcDbLine
 10
128.0236509999998
 20
89.971901
 30
0.0
 11
124.3962899999998
 21
88.402744
 31
0.0
  0
ARC
  5
1DD53
330
1DAC6
100
AcDbEntity
  8
1
  6
Continuous
100
AcDbCircle
 10
129.8499999999999
 20
89.54999999999998
 30
0.0
 40
0.8
100
AcDbArc
 50
270.0
 51
90.0
  0
ARC
  5
1DD54
330
1DAC6
100
AcDbEntity
  8
1
  6
Continuous
100
AcDbCircle
 10
136.25
 20
89.54999999999998
 30
0.0
 40
0.8
100
AcDbArc
 50
270.0
 51
90.0
  0
ARC
  5
1DD55
330
1DAC6
100
AcDbEntity
  8
1
  6
Continuous
100
AcDbCircle
 10
142.65
 20
89.54999999999998
 30
0.0
 40
0.8
100
AcDbArc
 50
270.0
 51
90.0
  0
LINE
  5
1DD56
330
1DAC6
100
AcDbEntity
  8
1
  6
Continuous
100
AcDbLine
 10
140.823651
 20
89.971901
 30
0.0
 11
137.1962899999997
 21
88.402744
 31
0.0
  0
LINE
  5
1DD57
330
1DAC6
100
AcDbEntity
  8
1
  6
Continuous
100
AcDbLine
 10
134.4236509999997
 20
89.971901
 30
0.0
 11
130.7962899999999
 21
88.402744
 31
0.0
  0
ARC
  5
1DD58
330
1DAC6
100
AcDbEntity
  8
1
  6
Continuous
100
AcDbCircle
 10
149.05
 20
89.54999999999998
 30
0.0
 40
0.8
100
AcDbArc
 50
270.0
 51
90.0
  0
ARC
  5
1DD59
330
1DAC6
100
AcDbEntity
  8
1
  6
Continuous
100
AcDbCircle
 10
155.4499999999999
 20
89.54999999999998
 30
0.0
 40
0.8
100
AcDbArc
 50
270.0
 51
90.0
  0
LINE
  5
1DD5A
330
1DAC6
100
AcDbEntity
  8
1
  6
Continuous
100
AcDbLine
 10
153.6236509999999
 20
89.971901
 30
0.0
 11
149.9962899999998
 21
88.402744
 31
0.0
  0
LINE
  5
1DD5B
330
1DAC6
100
AcDbEntity
  8
1
  6
Continuous
100
AcDbLine
 10
160.023651
 20
89.971901
 30
0.0
 11
156.3962899999999
 21
88.402744
 31
0.0
  0
ARC
  5
1DD5C
330
1DAC6
100
AcDbEntity
  8
1
  6
Continuous
100
AcDbCircle
 10
161.85
 20
89.54999999999998
 30
0.0
 40
0.8
100
AcDbArc
 50
270.0
 51
90.0
  0
ARC
  5
1DD5D
330
1DAC6
100
AcDbEntity
  8
1
  6
Continuous
100
AcDbCircle
 10
168.25
 20
89.54999999999998
 30
0.0
 40
0.8
100
AcDbArc
 50
270.0
 51
90.0
  0
LINE
  5
1DD5E
330
1DAC6
100
AcDbEntity
  8
1
  6
Continuous
100
AcDbLine
 10
166.423651
 20
89.971901
 30
0.0
 11
162.7962899999999
 21
88.402744
 31
0.0
  0
ARC
  5
1DD5F
330
1DAC6
100
AcDbEntity
  8
1
  6
Continuous
100
AcDbCircle
 10
174.65
 20
89.54999999999998
 30
0.0
 40
0.8
100
AcDbArc
 50
270.0
 51
90.0
  0
LINE
  5
1DD60
330
1DAC6
100
AcDbEntity
  8
1
  6
Continuous
100
AcDbLine
 10
172.823651
 20
89.971901
 30
0.0
 11
169.19629
 21
88.402744
 31
0.0
  0
ARC
  5
1DD61
330
1DAC6
100
AcDbEntity
  8
1
  6
Continuous
100
AcDbCircle
 10
181.05
 20
89.54999999999998
 30
0.0
 40
0.8
100
AcDbArc
 50
270.0
 51
90.0
  0
LINE
  5
1DD62
330
1DAC6
100
AcDbEntity
  8
1
  6
Continuous
100
AcDbLine
 10
179.2236509999999
 20
89.971901
 30
0.0
 11
175.5962899999999
 21
88.402744
 31
0.0
  0
LINE
  5
1DD63
330
1DAC6
100
AcDbEntity
  8
1
  6
Continuous
100
AcDbLine
 10
147.2236509999999
 20
89.971901
 30
0.0
 11
143.5962899999998
 21
88.402744
 31
0.0
  0
LINE
  5
1DD64
330
1DAC6
100
AcDbEntity
  8
1
  6
Continuous
100
AcDbLine
 10
153.422356
 20
90.958467
 30
0.0
 11
150.6315419999999
 21
92.16574300000001
 31
0.0
  0
LINE
  5
1DD65
330
1DAC6
100
AcDbEntity
  8
1
  6
Continuous
100
AcDbLine
 10
152.648358
 20
89.54999999999998
 30
0.0
 11
149.9962899999998
 21
90.69725599999999
 31
0.0
  0
ARC
  5
1DD66
330
1DAC6
100
AcDbEntity
  8
1
  6
Continuous
100
AcDbCircle
 10
168.25
 20
85.75000000000001
 30
0.0
 40
4.599999999999997
100
AcDbArc
 50
90.0
 51
113.392787
  0
ARC
  5
1DD67
330
1DAC6
100
AcDbEntity
  8
1
  6
Continuous
100
AcDbCircle
 10
168.25
 20
93.34999999999999
 30
0.0
 40
3.0
100
AcDbArc
 50
260.845208
 51
270.0
  0
ARC
  5
1DD68
330
1DAC6
100
AcDbEntity
  8
1
  6
Continuous
100
AcDbCircle
 10
168.6999999999999
 20
89.54999999999998
 30
0.0
 40
1.25
100
AcDbArc
 50
66.607213
 51
142.050929
  0
ARC
  5
1DD69
330
1DAC6
100
AcDbEntity
  8
1
  6
Continuous
100
AcDbCircle
 10
168.6999999999999
 20
89.54999999999998
 30
0.0
 40
2.85
100
AcDbArc
 50
66.607213
 51
176.457432
  0
ARC
  5
1DD6A
330
1DAC6
100
AcDbEntity
  8
1
  6
Continuous
100
AcDbCircle
 10
174.65
 20
85.75000000000001
 30
0.0
 40
4.599999999999997
100
AcDbArc
 50
90.0
 51
113.392787
  0
ARC
  5
1DD6B
330
1DAC6
100
AcDbEntity
  8
1
  6
Continuous
100
AcDbCircle
 10
175.0999999999999
 20
89.54999999999998
 30
0.0
 40
2.85
100
AcDbArc
 50
66.607213
 51
176.457432
  0
ARC
  5
1DD6C
330
1DAC6
100
AcDbEntity
  8
1
  6
Continuous
100
AcDbCircle
 10
174.65
 20
93.34999999999999
 30
0.0
 40
3.0
100
AcDbArc
 50
260.845208
 51
270.0
  0
ARC
  5
1DD6D
330
1DAC6
100
AcDbEntity
  8
1
  6
Continuous
100
AcDbCircle
 10
175.0999999999999
 20
89.54999999999998
 30
0.0
 40
1.25
100
AcDbArc
 50
66.607213
 51
142.050929
  0
LINE
  5
1DD6E
330
1DAC6
100
AcDbEntity
  8
1
  6
Continuous
100
AcDbLine
 10
172.622356
 20
90.958467
 30
0.0
 11
169.8315419999999
 21
92.16574300000001
 31
0.0
  0
LINE
  5
1DD6F
330
1DAC6
100
AcDbEntity
  8
1
  6
Continuous
100
AcDbLine
 10
171.848358
 20
89.54999999999998
 30
0.0
 11
169.19629
 21
90.69725599999999
 31
0.0
  0
ARC
  5
1DD70
330
1DAC6
100
AcDbEntity
  8
1
  6
Continuous
100
AcDbCircle
 10
181.05
 20
85.75000000000001
 30
0.0
 40
4.599999999999997
100
AcDbArc
 50
90.0
 51
113.392787
  0
ARC
  5
1DD71
330
1DAC6
100
AcDbEntity
  8
1
  6
Continuous
100
AcDbCircle
 10
181.05
 20
93.34999999999999
 30
0.0
 40
3.0
100
AcDbArc
 50
260.845208
 51
270.0
  0
ARC
  5
1DD72
330
1DAC6
100
AcDbEntity
  8
1
  6
Continuous
100
AcDbCircle
 10
181.4999999999998
 20
89.54999999999998
 30
0.0
 40
1.25
100
AcDbArc
 50
66.607213
 51
142.050929
  0
ARC
  5
1DD73
330
1DAC6
100
AcDbEntity
  8
1
  6
Continuous
100
AcDbCircle
 10
181.4999999999998
 20
89.54999999999998
 30
0.0
 40
2.85
100
AcDbArc
 50
66.607213
 51
176.457432
  0
LINE
  5
1DD74
330
1DAC6
100
AcDbEntity
  8
1
  6
Continuous
100
AcDbLine
 10
179.022356
 20
90.958467
 30
0.0
 11
176.231542
 21
92.16574300000001
 31
0.0
  0
LINE
  5
1DD75
330
1DAC6
100
AcDbEntity
  8
1
  6
Continuous
100
AcDbLine
 10
178.248358
 20
89.54999999999998
 30
0.0
 11
175.5962899999999
 21
90.69725599999999
 31
0.0
  0
ARC
  5
1DD76
330
1DAC6
100
AcDbEntity
  8
1
  6
Continuous
100
AcDbCircle
 10
155.4499999999999
 20
85.75000000000001
 30
0.0
 40
4.599999999999997
100
AcDbArc
 50
90.0
 51
113.392787
  0
ARC
  5
1DD77
330
1DAC6
100
AcDbEntity
  8
1
  6
Continuous
100
AcDbCircle
 10
155.4499999999999
 20
93.34999999999999
 30
0.0
 40
3.0
100
AcDbArc
 50
260.845208
 51
270.0
  0
LINE
  5
1DD78
330
1DAC6
100
AcDbEntity
  8
1
  6
Continuous
100
AcDbLine
 10
159.822356
 20
90.958467
 30
0.0
 11
157.031542
 21
92.16574300000001
 31
0.0
  0
LINE
  5
1DD79
330
1DAC6
100
AcDbEntity
  8
1
  6
Continuous
100
AcDbLine
 10
159.048358
 20
89.54999999999998
 30
0.0
 11
156.3962899999999
 21
90.69725599999999
 31
0.0
  0
ARC
  5
1DD7A
330
1DAC6
100
AcDbEntity
  8
1
  6
Continuous
100
AcDbCircle
 10
155.9
 20
89.54999999999998
 30
0.0
 40
1.25
100
AcDbArc
 50
66.607213
 51
142.050929
  0
ARC
  5
1DD7B
330
1DAC6
100
AcDbEntity
  8
1
  6
Continuous
100
AcDbCircle
 10
155.9
 20
89.54999999999998
 30
0.0
 40
2.85
100
AcDbArc
 50
66.607213
 51
176.457432
  0
ARC
  5
1DD7C
330
1DAC6
100
AcDbEntity
  8
1
  6
Continuous
100
AcDbCircle
 10
161.85
 20
93.34999999999999
 30
0.0
 40
3.0
100
AcDbArc
 50
260.845208
 51
270.0
  0
ARC
  5
1DD7D
330
1DAC6
100
AcDbEntity
  8
1
  6
Continuous
100
AcDbCircle
 10
162.3
 20
89.54999999999998
 30
0.0
 40
1.25
100
AcDbArc
 50
66.607213
 51
142.050929
  0
LINE
  5
1DD7E
330
1DAC6
100
AcDbEntity
  8
1
  6
Continuous
100
AcDbLine
 10
166.2223559999999
 20
90.958467
 30
0.0
 11
163.4315419999998
 21
92.16574300000001
 31
0.0
  0
LINE
  5
1DD7F
330
1DAC6
100
AcDbEntity
  8
1
  6
Continuous
100
AcDbLine
 10
165.448358
 20
89.54999999999998
 30
0.0
 11
162.7962899999999
 21
90.69725599999999
 31
0.0
  0
ARC
  5
1DD80
330
1DAC6
100
AcDbEntity
  8
1
  6
Continuous
100
AcDbCircle
 10
161.85
 20
85.75000000000001
 30
0.0
 40
4.599999999999997
100
AcDbArc
 50
90.0
 51
113.392787
  0
ARC
  5
1DD81
330
1DAC6
100
AcDbEntity
  8
1
  6
Continuous
100
AcDbCircle
 10
162.3
 20
89.54999999999998
 30
0.0
 40
2.85
100
AcDbArc
 50
66.607213
 51
176.457432
  0
ARC
  5
1DD82
330
1DAC6
100
AcDbEntity
  8
1
  6
Continuous
100
AcDbCircle
 10
136.6999999999999
 20
89.54999999999998
 30
0.0
 40
2.85
100
AcDbArc
 50
66.607213
 51
176.457432
  0
ARC
  5
1DD83
330
1DAC6
100
AcDbEntity
  8
1
  6
Continuous
100
AcDbCircle
 10
136.6999999999999
 20
89.54999999999998
 30
0.0
 40
1.25
100
AcDbArc
 50
66.607213
 51
142.050929
  0
LINE
  5
1DD84
330
1DAC6
100
AcDbEntity
  8
1
  6
Continuous
100
AcDbLine
 10
140.6223559999999
 20
90.958467
 30
0.0
 11
137.8315419999998
 21
92.16574300000001
 31
0.0
  0
ARC
  5
1DD85
330
1DAC6
100
AcDbEntity
  8
1
  6
Continuous
100
AcDbCircle
 10
142.65
 20
85.75000000000001
 30
0.0
 40
4.599999999999997
100
AcDbArc
 50
90.0
 51
113.392787
  0
ARC
  5
1DD86
330
1DAC6
100
AcDbEntity
  8
1
  6
Continuous
100
AcDbCircle
 10
142.65
 20
93.34999999999999
 30
0.0
 40
3.0
100
AcDbArc
 50
260.845208
 51
270.0
  0
LINE
  5
1DD87
330
1DAC6
100
AcDbEntity
  8
1
  6
Continuous
100
AcDbLine
 10
139.8483579999999
 20
89.54999999999998
 30
0.0
 11
137.1962899999997
 21
90.69725599999999
 31
0.0
  0
ARC
  5
1DD88
330
1DAC6
100
AcDbEntity
  8
1
  6
Continuous
100
AcDbCircle
 10
143.1
 20
89.54999999999998
 30
0.0
 40
1.25
100
AcDbArc
 50
66.607213
 51
142.050929
  0
ARC
  5
1DD89
330
1DAC6
100
AcDbEntity
  8
1
  6
Continuous
100
AcDbCircle
 10
143.1
 20
89.54999999999998
 30
0.0
 40
2.85
100
AcDbArc
 50
66.607213
 51
176.457432
  0
ARC
  5
1DD8A
330
1DAC6
100
AcDbEntity
  8
1
  6
Continuous
100
AcDbCircle
 10
149.05
 20
85.75000000000001
 30
0.0
 40
4.599999999999997
100
AcDbArc
 50
90.0
 51
113.392787
  0
ARC
  5
1DD8B
330
1DAC6
100
AcDbEntity
  8
1
  6
Continuous
100
AcDbCircle
 10
149.5
 20
89.54999999999998
 30
0.0
 40
2.85
100
AcDbArc
 50
66.607213
 51
176.457432
  0
ARC
  5
1DD8C
330
1DAC6
100
AcDbEntity
  8
1
  6
Continuous
100
AcDbCircle
 10
149.05
 20
93.34999999999999
 30
0.0
 40
3.0
100
AcDbArc
 50
260.845208
 51
270.0
  0
ARC
  5
1DD8D
330
1DAC6
100
AcDbEntity
  8
1
  6
Continuous
100
AcDbCircle
 10
149.5
 20
89.54999999999998
 30
0.0
 40
1.25
100
AcDbArc
 50
66.607213
 51
142.050929
  0
LINE
  5
1DD8E
330
1DAC6
100
AcDbEntity
  8
1
  6
Continuous
100
AcDbLine
 10
147.0223559999998
 20
90.958467
 30
0.0
 11
144.2315419999999
 21
92.16574300000001
 31
0.0
  0
LINE
  5
1DD8F
330
1DAC6
100
AcDbEntity
  8
1
  6
Continuous
100
AcDbLine
 10
146.2483579999999
 20
89.54999999999998
 30
0.0
 11
143.5962899999998
 21
90.69725599999999
 31
0.0
  0
ARC
  5
1DD90
330
1DAC6
100
AcDbEntity
  8
1
  6
Continuous
100
AcDbCircle
 10
123.45
 20
85.75000000000001
 30
0.0
 40
4.599999999999997
100
AcDbArc
 50
90.0
 51
113.392787
  0
ARC
  5
1DD91
330
1DAC6
100
AcDbEntity
  8
1
  6
Continuous
100
AcDbCircle
 10
123.9
 20
89.54999999999998
 30
0.0
 40
2.85
100
AcDbArc
 50
66.607213
 51
176.457432
  0
ARC
  5
1DD92
330
1DAC6
100
AcDbEntity
  8
1
  6
Continuous
100
AcDbCircle
 10
123.45
 20
93.34999999999999
 30
0.0
 40
3.0
100
AcDbArc
 50
260.845208
 51
270.0
  0
ARC
  5
1DD93
330
1DAC6
100
AcDbEntity
  8
1
  6
Continuous
100
AcDbCircle
 10
123.9
 20
89.54999999999998
 30
0.0
 40
1.25
100
AcDbArc
 50
66.607213
 51
142.050929
  0
LINE
  5
1DD94
330
1DAC6
100
AcDbEntity
  8
1
  6
Continuous
100
AcDbLine
 10
127.822356
 20
90.958467
 30
0.0
 11
125.0315419999999
 21
92.16574300000001
 31
0.0
  0
LINE
  5
1DD95
330
1DAC6
100
AcDbEntity
  8
1
  6
Continuous
100
AcDbLine
 10
127.048358
 20
89.54999999999998
 30
0.0
 11
124.3962899999998
 21
90.69725599999999
 31
0.0
  0
ARC
  5
1DD96
330
1DAC6
100
AcDbEntity
  8
1
  6
Continuous
100
AcDbCircle
 10
129.8499999999999
 20
93.34999999999999
 30
0.0
 40
3.0
100
AcDbArc
 50
260.845208
 51
270.0
  0
ARC
  5
1DD97
330
1DAC6
100
AcDbEntity
  8
1
  6
Continuous
100
AcDbCircle
 10
136.25
 20
85.75000000000001
 30
0.0
 40
4.599999999999997
100
AcDbArc
 50
90.0
 51
113.392787
  0
ARC
  5
1DD98
330
1DAC6
100
AcDbEntity
  8
1
  6
Continuous
100
AcDbCircle
 10
136.25
 20
93.34999999999999
 30
0.0
 40
3.0
100
AcDbArc
 50
260.845208
 51
270.0
  0
LINE
  5
1DD99
330
1DAC6
100
AcDbEntity
  8
1
  6
Continuous
100
AcDbLine
 10
134.2223559999999
 20
90.958467
 30
0.0
 11
131.4315419999998
 21
92.16574300000001
 31
0.0
  0
LINE
  5
1DD9A
330
1DAC6
100
AcDbEntity
  8
1
  6
Continuous
100
AcDbLine
 10
133.448358
 20
89.54999999999998
 30
0.0
 11
130.7962899999999
 21
90.69725599999999
 31
0.0
  0
ARC
  5
1DD9B
330
1DAC6
100
AcDbEntity
  8
1
  6
Continuous
100
AcDbCircle
 10
130.3
 20
89.54999999999998
 30
0.0
 40
1.25
100
AcDbArc
 50
66.607213
 51
142.050929
  0
ARC
  5
1DD9C
330
1DAC6
100
AcDbEntity
  8
1
  6
Continuous
100
AcDbCircle
 10
129.8499999999999
 20
85.75000000000001
 30
0.0
 40
4.599999999999997
100
AcDbArc
 50
90.0
 51
113.392787
  0
ARC
  5
1DD9D
330
1DAC6
100
AcDbEntity
  8
1
  6
Continuous
100
AcDbCircle
 10
130.3
 20
89.54999999999998
 30
0.0
 40
2.85
100
AcDbArc
 50
66.607213
 51
176.457432
  0
LINE
  5
1DD9E
330
1DAC6
100
AcDbEntity
  8
1
  6
Continuous
100
AcDbLine
 10
154.258903
 20
88.50341400000003
 30
0.0
 11
150.6315419999999
 21
86.93425699999997
 31
0.0
  0
ARC
  5
1DD9F
330
1DAC6
100
AcDbEntity
  8
1
  6
Continuous
100
AcDbCircle
 10
168.25
 20
85.75000000000001
 30
0.0
 40
3.0
100
AcDbArc
 50
90.0
 51
113.392787
  0
ARC
  5
1DDA0
330
1DAC6
100
AcDbEntity
  8
1
  6
Continuous
100
AcDbCircle
 10
168.6999999999999
 20
89.54999999999998
 30
0.0
 40
2.85
100
AcDbArc
 50
209.6169489999998
 51
293.392787
  0
ARC
  5
1DDA1
330
1DAC6
100
AcDbEntity
  8
1
  6
Continuous
100
AcDbCircle
 10
168.6999999999999
 20
89.54999999999998
 30
0.0
 40
1.25
100
AcDbArc
 50
222.1111449999999
 51
293.392787
  0
ARC
  5
1DDA2
330
1DAC6
100
AcDbEntity
  8
1
  6
Continuous
100
AcDbCircle
 10
174.65
 20
85.75000000000001
 30
0.0
 40
3.0
100
AcDbArc
 50
90.0
 51
113.392787
  0
ARC
  5
1DDA3
330
1DAC6
100
AcDbEntity
  8
1
  6
Continuous
100
AcDbCircle
 10
175.0999999999999
 20
89.54999999999998
 30
0.0
 40
2.85
100
AcDbArc
 50
209.6169489999998
 51
293.392787
  0
ARC
  5
1DDA4
330
1DAC6
100
AcDbEntity
  8
1
  6
Continuous
100
AcDbCircle
 10
175.0999999999999
 20
89.54999999999998
 30
0.0
 40
1.25
100
AcDbArc
 50
222.1111449999999
 51
293.392787
  0
LINE
  5
1DDA5
330
1DAC6
100
AcDbEntity
  8
1
  6
Continuous
100
AcDbLine
 10
173.4589029999999
 20
88.50341400000003
 30
0.0
 11
169.8315419999999
 21
86.93425699999997
 31
0.0
  0
ARC
  5
1DDA6
330
1DAC6
100
AcDbEntity
  8
1
  6
Continuous
100
AcDbCircle
 10
181.05
 20
85.75000000000001
 30
0.0
 40
3.0
100
AcDbArc
 50
90.0
 51
113.392787
  0
ARC
  5
1DDA7
330
1DAC6
100
AcDbEntity
  8
1
  6
Continuous
100
AcDbCircle
 10
181.4999999999998
 20
89.54999999999998
 30
0.0
 40
2.85
100
AcDbArc
 50
209.6169489999998
 51
293.392787
  0
ARC
  5
1DDA8
330
1DAC6
100
AcDbEntity
  8
1
  6
Continuous
100
AcDbCircle
 10
181.4999999999998
 20
89.54999999999998
 30
0.0
 40
1.25
100
AcDbArc
 50
222.1111449999999
 51
293.392787
  0
LINE
  5
1DDA9
330
1DAC6
100
AcDbEntity
  8
1
  6
Continuous
100
AcDbLine
 10
179.858903
 20
88.50341400000003
 30
0.0
 11
176.231542
 21
86.93425699999997
 31
0.0
  0
ARC
  5
1DDAA
330
1DAC6
100
AcDbEntity
  8
1
  6
Continuous
100
AcDbCircle
 10
155.4499999999999
 20
85.75000000000001
 30
0.0
 40
3.0
100
AcDbArc
 50
90.0
 51
113.392787
  0
LINE
  5
1DDAB
330
1DAC6
100
AcDbEntity
  8
1
  6
Continuous
100
AcDbLine
 10
160.658903
 20
88.50341400000003
 30
0.0
 11
157.031542
 21
86.93425699999997
 31
0.0
  0
ARC
  5
1DDAC
330
1DAC6
100
AcDbEntity
  8
1
  6
Continuous
100
AcDbCircle
 10
155.9
 20
89.54999999999998
 30
0.0
 40
2.85
100
AcDbArc
 50
209.6169489999998
 51
293.392787
  0
ARC
  5
1DDAD
330
1DAC6
100
AcDbEntity
  8
1
  6
Continuous
100
AcDbCircle
 10
155.9
 20
89.54999999999998
 30
0.0
 40
1.25
100
AcDbArc
 50
222.1111449999999
 51
293.392787
  0
ARC
  5
1DDAE
330
1DAC6
100
AcDbEntity
  8
1
  6
Continuous
100
AcDbCircle
 10
162.3
 20
89.54999999999998
 30
0.0
 40
1.25
100
AcDbArc
 50
222.1111449999999
 51
293.392787
  0
LINE
  5
1DDAF
330
1DAC6
100
AcDbEntity
  8
1
  6
Continuous
100
AcDbLine
 10
167.0589029999999
 20
88.50341400000003
 30
0.0
 11
163.4315419999998
 21
86.93425699999997
 31
0.0
  0
ARC
  5
1DDB0
330
1DAC6
100
AcDbEntity
  8
1
  6
Continuous
100
AcDbCircle
 10
161.85
 20
85.75000000000001
 30
0.0
 40
3.0
100
AcDbArc
 50
90.0
 51
113.392787
  0
ARC
  5
1DDB1
330
1DAC6
100
AcDbEntity
  8
1
  6
Continuous
100
AcDbCircle
 10
162.3
 20
89.54999999999998
 30
0.0
 40
2.85
100
AcDbArc
 50
209.6169489999998
 51
293.392787
  0
ARC
  5
1DDB2
330
1DAC6
100
AcDbEntity
  8
1
  6
Continuous
100
AcDbCircle
 10
136.6999999999999
 20
89.54999999999998
 30
0.0
 40
2.85
100
AcDbArc
 50
209.6169489999998
 51
293.392787
  0
ARC
  5
1DDB3
330
1DAC6
100
AcDbEntity
  8
1
  6
Continuous
100
AcDbCircle
 10
136.6999999999999
 20
89.54999999999998
 30
0.0
 40
1.25
100
AcDbArc
 50
222.1111449999999
 51
293.392787
  0
LINE
  5
1DDB4
330
1DAC6
100
AcDbEntity
  8
1
  6
Continuous
100
AcDbLine
 10
141.4589029999999
 20
88.50341400000003
 30
0.0
 11
137.8315419999998
 21
86.93425699999997
 31
0.0
  0
ARC
  5
1DDB5
330
1DAC6
100
AcDbEntity
  8
1
  6
Continuous
100
AcDbCircle
 10
142.65
 20
85.75000000000001
 30
0.0
 40
3.0
100
AcDbArc
 50
90.0
 51
113.392787
  0
ARC
  5
1DDB6
330
1DAC6
100
AcDbEntity
  8
1
  6
Continuous
100
AcDbCircle
 10
143.1
 20
89.54999999999998
 30
0.0
 40
2.85
100
AcDbArc
 50
209.6169489999998
 51
293.392787
  0
ARC
  5
1DDB7
330
1DAC6
100
AcDbEntity
  8
1
  6
Continuous
100
AcDbCircle
 10
143.1
 20
89.54999999999998
 30
0.0
 40
1.25
100
AcDbArc
 50
222.1111449999999
 51
293.392787
  0
ARC
  5
1DDB8
330
1DAC6
100
AcDbEntity
  8
1
  6
Continuous
100
AcDbCircle
 10
149.05
 20
85.75000000000001
 30
0.0
 40
3.0
100
AcDbArc
 50
90.0
 51
113.392787
  0
ARC
  5
1DDB9
330
1DAC6
100
AcDbEntity
  8
1
  6
Continuous
100
AcDbCircle
 10
149.5
 20
89.54999999999998
 30
0.0
 40
2.85
100
AcDbArc
 50
209.6169489999998
 51
293.392787
  0
ARC
  5
1DDBA
330
1DAC6
100
AcDbEntity
  8
1
  6
Continuous
100
AcDbCircle
 10
149.5
 20
89.54999999999998
 30
0.0
 40
1.25
100
AcDbArc
 50
222.1111449999999
 51
293.392787
  0
LINE
  5
1DDBB
330
1DAC6
100
AcDbEntity
  8
1
  6
Continuous
100
AcDbLine
 10
147.858903
 20
88.50341400000003
 30
0.0
 11
144.2315419999999
 21
86.93425699999997
 31
0.0
  0
ARC
  5
1DDBC
330
1DAC6
100
AcDbEntity
  8
1
  6
Continuous
100
AcDbCircle
 10
123.45
 20
85.75000000000001
 30
0.0
 40
3.0
100
AcDbArc
 50
90.0
 51
113.392787
  0
ARC
  5
1DDBD
330
1DAC6
100
AcDbEntity
  8
1
  6
Continuous
100
AcDbCircle
 10
123.9
 20
89.54999999999998
 30
0.0
 40
2.85
100
AcDbArc
 50
209.6169489999998
 51
293.392787
  0
ARC
  5
1DDBE
330
1DAC6
100
AcDbEntity
  8
1
  6
Continuous
100
AcDbCircle
 10
123.9
 20
89.54999999999998
 30
0.0
 40
1.25
100
AcDbArc
 50
222.1111449999999
 51
293.392787
  0
LINE
  5
1DDBF
330
1DAC6
100
AcDbEntity
  8
1
  6
Continuous
100
AcDbLine
 10
128.658903
 20
88.50341400000003
 30
0.0
 11
125.0315419999999
 21
86.93425699999997
 31
0.0
  0
ARC
  5
1DDC0
330
1DAC6
100
AcDbEntity
  8
1
  6
Continuous
100
AcDbCircle
 10
136.25
 20
85.75000000000001
 30
0.0
 40
3.0
100
AcDbArc
 50
90.0
 51
113.392787
  0
LINE
  5
1DDC1
330
1DAC6
100
AcDbEntity
  8
1
  6
Continuous
100
AcDbLine
 10
135.0589029999999
 20
88.50341400000003
 30
0.0
 11
131.4315419999998
 21
86.93425699999997
 31
0.0
  0
ARC
  5
1DDC2
330
1DAC6
100
AcDbEntity
  8
1
  6
Continuous
100
AcDbCircle
 10
130.3
 20
89.54999999999998
 30
0.0
 40
1.25
100
AcDbArc
 50
222.1111449999999
 51
293.392787
  0
ARC
  5
1DDC3
330
1DAC6
100
AcDbEntity
  8
1
  6
Continuous
100
AcDbCircle
 10
129.8499999999999
 20
85.75000000000001
 30
0.0
 40
3.0
100
AcDbArc
 50
90.0
 51
113.392787
  0
ARC
  5
1DDC4
330
1DAC6
100
AcDbEntity
  8
1
  6
Continuous
100
AcDbCircle
 10
130.3
 20
89.54999999999998
 30
0.0
 40
2.85
100
AcDbArc
 50
209.6169489999998
 51
293.392787
  0
ARC
  5
1DDC5
330
1DAC6
100
AcDbEntity
  8
1
  6
Continuous
100
AcDbCircle
 10
91.90000000000001
 20
89.54999999999998
 30
0.0
 40
2.85
100
AcDbArc
 50
66.607213
 51
293.392787
  0
LINE
  5
1DDC6
330
1DAC6
100
AcDbEntity
  8
1
  6
Continuous
100
AcDbLine
 10
96.023651
 20
89.971901
 30
0.0
 11
92.39628999999998
 21
88.402744
 31
0.0
  0
ARC
  5
1DDC7
330
1DAC6
100
AcDbEntity
  8
1
  6
Continuous
100
AcDbCircle
 10
91.90000000000001
 20
89.54999999999998
 30
0.0
 40
1.25
100
AcDbArc
 50
66.607213
 51
293.392787
  0
ARC
  5
1DDC8
330
1DAC6
100
AcDbEntity
  8
1
  6
Continuous
100
AcDbCircle
 10
97.85
 20
89.54999999999998
 30
0.0
 40
0.8
100
AcDbArc
 50
270.0
 51
90.0
  0
ARC
  5
1DDC9
330
1DAC6
100
AcDbEntity
  8
1
  6
Continuous
100
AcDbCircle
 10
104.2499999999999
 20
89.54999999999998
 30
0.0
 40
0.8
100
AcDbArc
 50
270.0
 51
90.0
  0
LINE
  5
1DDCA
330
1DAC6
100
AcDbEntity
  8
1
  6
Continuous
100
AcDbLine
 10
102.423651
 20
89.971901
 30
0.0
 11
98.79629000000001
 21
88.402744
 31
0.0
  0
ARC
  5
1DDCB
330
1DAC6
100
AcDbEntity
  8
1
  6
Continuous
100
AcDbCircle
 10
110.65
 20
89.54999999999998
 30
0.0
 40
0.8
100
AcDbArc
 50
270.0
 51
90.0
  0
LINE
  5
1DDCC
330
1DAC6
100
AcDbEntity
  8
1
  6
Continuous
100
AcDbLine
 10
108.8236509999999
 20
89.971901
 30
0.0
 11
105.1962899999999
 21
88.402744
 31
0.0
  0
ARC
  5
1DDCD
330
1DAC6
100
AcDbEntity
  8
1
  6
Continuous
100
AcDbCircle
 10
117.05
 20
89.54999999999998
 30
0.0
 40
0.8
100
AcDbArc
 50
270.0
 51
90.0
  0
LINE
  5
1DDCE
330
1DAC6
100
AcDbEntity
  8
1
  6
Continuous
100
AcDbLine
 10
115.223651
 20
89.971901
 30
0.0
 11
111.5962899999999
 21
88.402744
 31
0.0
  0
ARC
  5
1DDCF
330
1DAC6
100
AcDbEntity
  8
1
  6
Continuous
100
AcDbCircle
 10
104.7
 20
89.54999999999998
 30
0.0
 40
1.25
100
AcDbArc
 50
66.607213
 51
142.050929
  0
ARC
  5
1DDD0
330
1DAC6
100
AcDbEntity
  8
1
  6
Continuous
100
AcDbCircle
 10
104.7
 20
89.54999999999998
 30
0.0
 40
2.85
100
AcDbArc
 50
66.607213
 51
176.457432
  0
ARC
  5
1DDD1
330
1DAC6
100
AcDbEntity
  8
1
  6
Continuous
100
AcDbCircle
 10
110.65
 20
85.75000000000001
 30
0.0
 40
4.599999999999997
100
AcDbArc
 50
90.0
 51
113.392787
  0
ARC
  5
1DDD2
330
1DAC6
100
AcDbEntity
  8
1
  6
Continuous
100
AcDbCircle
 10
111.0999999999998
 20
89.54999999999998
 30
0.0
 40
2.85
100
AcDbArc
 50
66.607213
 51
176.457432
  0
ARC
  5
1DDD3
330
1DAC6
100
AcDbEntity
  8
1
  6
Continuous
100
AcDbCircle
 10
110.65
 20
93.34999999999999
 30
0.0
 40
3.0
100
AcDbArc
 50
260.845208
 51
270.0
  0
ARC
  5
1DDD4
330
1DAC6
100
AcDbEntity
  8
1
  6
Continuous
100
AcDbCircle
 10
111.0999999999998
 20
89.54999999999998
 30
0.0
 40
1.25
100
AcDbArc
 50
66.607213
 51
142.050929
  0
LINE
  5
1DDD5
330
1DAC6
100
AcDbEntity
  8
1
  6
Continuous
100
AcDbLine
 10
108.622356
 20
90.958467
 30
0.0
 11
105.831542
 21
92.16574300000001
 31
0.0
  0
LINE
  5
1DDD6
330
1DAC6
100
AcDbEntity
  8
1
  6
Continuous
100
AcDbLine
 10
107.848358
 20
89.54999999999998
 30
0.0
 11
105.1962899999999
 21
90.69725599999999
 31
0.0
  0
ARC
  5
1DDD7
330
1DAC6
100
AcDbEntity
  8
1
  6
Continuous
100
AcDbCircle
 10
117.05
 20
85.75000000000001
 30
0.0
 40
4.599999999999997
100
AcDbArc
 50
90.0
 51
113.392787
  0
ARC
  5
1DDD8
330
1DAC6
100
AcDbEntity
  8
1
  6
Continuous
100
AcDbCircle
 10
117.05
 20
93.34999999999999
 30
0.0
 40
3.0
100
AcDbArc
 50
260.845208
 51
270.0
  0
ARC
  5
1DDD9
330
1DAC6
100
AcDbEntity
  8
1
  6
Continuous
100
AcDbCircle
 10
117.5
 20
89.54999999999998
 30
0.0
 40
1.25
100
AcDbArc
 50
66.607213
 51
142.050929
  0
ARC
  5
1DDDA
330
1DAC6
100
AcDbEntity
  8
1
  6
Continuous
100
AcDbCircle
 10
117.5
 20
89.54999999999998
 30
0.0
 40
2.85
100
AcDbArc
 50
66.607213
 51
176.457432
  0
LINE
  5
1DDDB
330
1DAC6
100
AcDbEntity
  8
1
  6
Continuous
100
AcDbLine
 10
115.022356
 20
90.958467
 30
0.0
 11
112.2315419999999
 21
92.16574300000001
 31
0.0
  0
LINE
  5
1DDDC
330
1DAC6
100
AcDbEntity
  8
1
  6
Continuous
100
AcDbLine
 10
114.248358
 20
89.54999999999998
 30
0.0
 11
111.5962899999999
 21
90.69725599999999
 31
0.0
  0
LINE
  5
1DDDD
330
1DAC6
100
AcDbEntity
  8
1
  6
Continuous
100
AcDbLine
 10
95.82235600000002
 20
90.958467
 30
0.0
 11
93.03154199999999
 21
92.16574300000001
 31
0.0
  0
LINE
  5
1DDDE
330
1DAC6
100
AcDbEntity
  8
1
  6
Continuous
100
AcDbLine
 10
95.048358
 20
89.54999999999998
 30
0.0
 11
92.39628999999998
 21
90.69725599999999
 31
0.0
  0
ARC
  5
1DDDF
330
1DAC6
100
AcDbEntity
  8
1
  6
Continuous
100
AcDbCircle
 10
97.85
 20
93.34999999999999
 30
0.0
 40
3.0
100
AcDbArc
 50
260.845208
 51
270.0
  0
LINE
  5
1DDE0
330
1DAC6
100
AcDbEntity
  8
1
  6
Continuous
100
AcDbLine
 10
101.448358
 20
89.54999999999998
 30
0.0
 11
98.79629000000001
 21
90.69725599999999
 31
0.0
  0
LINE
  5
1DDE1
330
1DAC6
100
AcDbEntity
  8
1
  6
Continuous
100
AcDbLine
 10
102.222356
 20
90.958467
 30
0.0
 11
99.43154200000002
 21
92.16574300000001
 31
0.0
  0
ARC
  5
1DDE2
330
1DAC6
100
AcDbEntity
  8
1
  6
Continuous
100
AcDbCircle
 10
104.2499999999999
 20
93.34999999999999
 30
0.0
 40
3.0
100
AcDbArc
 50
260.845208
 51
270.0
  0
ARC
  5
1DDE3
330
1DAC6
100
AcDbEntity
  8
1
  6
Continuous
100
AcDbCircle
 10
98.3
 20
89.54999999999998
 30
0.0
 40
1.25
100
AcDbArc
 50
66.607213
 51
142.050929
  0
ARC
  5
1DDE4
330
1DAC6
100
AcDbEntity
  8
1
  6
Continuous
100
AcDbCircle
 10
104.2499999999999
 20
85.75000000000001
 30
0.0
 40
4.599999999999997
100
AcDbArc
 50
90.0
 51
113.392787
  0
ARC
  5
1DDE5
330
1DAC6
100
AcDbEntity
  8
1
  6
Continuous
100
AcDbCircle
 10
97.85
 20
85.75000000000001
 30
0.0
 40
4.599999999999997
100
AcDbArc
 50
90.0
 51
113.392787
  0
ARC
  5
1DDE6
330
1DAC6
100
AcDbEntity
  8
1
  6
Continuous
100
AcDbCircle
 10
98.3
 20
89.54999999999998
 30
0.0
 40
2.85
100
AcDbArc
 50
66.607213
 51
176.457432
  0
ARC
  5
1DDE7
330
1DAC6
100
AcDbEntity
  8
1
  6
Continuous
100
AcDbCircle
 10
104.7
 20
89.54999999999998
 30
0.0
 40
2.85
100
AcDbArc
 50
209.6169489999998
 51
293.392787
  0
ARC
  5
1DDE8
330
1DAC6
100
AcDbEntity
  8
1
  6
Continuous
100
AcDbCircle
 10
104.7
 20
89.54999999999998
 30
0.0
 40
1.25
100
AcDbArc
 50
222.1111449999999
 51
293.392787
  0
ARC
  5
1DDE9
330
1DAC6
100
AcDbEntity
  8
1
  6
Continuous
100
AcDbCircle
 10
110.65
 20
85.75000000000001
 30
0.0
 40
3.0
100
AcDbArc
 50
90.0
 51
113.392787
  0
ARC
  5
1DDEA
330
1DAC6
100
AcDbEntity
  8
1
  6
Continuous
100
AcDbCircle
 10
111.0999999999998
 20
89.54999999999998
 30
0.0
 40
2.85
100
AcDbArc
 50
209.6169489999998
 51
293.392787
  0
ARC
  5
1DDEB
330
1DAC6
100
AcDbEntity
  8
1
  6
Continuous
100
AcDbCircle
 10
111.0999999999998
 20
89.54999999999998
 30
0.0
 40
1.25
100
AcDbArc
 50
222.1111449999999
 51
293.392787
  0
LINE
  5
1DDEC
330
1DAC6
100
AcDbEntity
  8
1
  6
Continuous
100
AcDbLine
 10
109.458903
 20
88.50341400000003
 30
0.0
 11
105.831542
 21
86.93425699999997
 31
0.0
  0
ARC
  5
1DDED
330
1DAC6
100
AcDbEntity
  8
1
  6
Continuous
100
AcDbCircle
 10
117.05
 20
85.75000000000001
 30
0.0
 40
3.0
100
AcDbArc
 50
90.0
 51
113.392787
  0
ARC
  5
1DDEE
330
1DAC6
100
AcDbEntity
  8
1
  6
Continuous
100
AcDbCircle
 10
117.5
 20
89.54999999999998
 30
0.0
 40
2.85
100
AcDbArc
 50
209.6169489999998
 51
293.392787
  0
ARC
  5
1DDEF
330
1DAC6
100
AcDbEntity
  8
1
  6
Continuous
100
AcDbCircle
 10
117.5
 20
89.54999999999998
 30
0.0
 40
1.25
100
AcDbArc
 50
222.1111449999999
 51
293.392787
  0
LINE
  5
1DDF0
330
1DAC6
100
AcDbEntity
  8
1
  6
Continuous
100
AcDbLine
 10
115.8589029999999
 20
88.50341400000003
 30
0.0
 11
112.2315419999999
 21
86.93425699999997
 31
0.0
  0
LINE
  5
1DDF1
330
1DAC6
100
AcDbEntity
  8
1
  6
Continuous
100
AcDbLine
 10
96.658903
 20
88.50341400000003
 30
0.0
 11
93.03154199999999
 21
86.93425699999997
 31
0.0
  0
LINE
  5
1DDF2
330
1DAC6
100
AcDbEntity
  8
1
  6
Continuous
100
AcDbLine
 10
103.058903
 20
88.50341400000003
 30
0.0
 11
99.43154200000002
 21
86.93425699999997
 31
0.0
  0
ARC
  5
1DDF3
330
1DAC6
100
AcDbEntity
  8
1
  6
Continuous
100
AcDbCircle
 10
104.2499999999999
 20
85.75000000000001
 30
0.0
 40
3.0
100
AcDbArc
 50
90.0
 51
113.392787
  0
ARC
  5
1DDF4
330
1DAC6
100
AcDbEntity
  8
1
  6
Continuous
100
AcDbCircle
 10
98.3
 20
89.54999999999998
 30
0.0
 40
1.25
100
AcDbArc
 50
222.1111449999999
 51
293.392787
  0
ARC
  5
1DDF5
330
1DAC6
100
AcDbEntity
  8
1
  6
Continuous
100
AcDbCircle
 10
97.85
 20
85.75000000000001
 30
0.0
 40
3.0
100
AcDbArc
 50
90.0
 51
113.392787
  0
ARC
  5
1DDF6
330
1DAC6
100
AcDbEntity
  8
1
  6
Continuous
100
AcDbCircle
 10
98.3
 20
89.54999999999998
 30
0.0
 40
2.85
100
AcDbArc
 50
209.6169489999998
 51
293.392787
  0
LINE
  5
1DDF7
330
1DAC6
100
AcDbEntity
  8
4
  6
CENTER
100
AcDbLine
 10
295.6499999999999
 20
89.54999999999998
 30
0.0
 11
84.04999999999999
 21
89.54999999999998
 31
0.0
  0
ENDSEC
  0
SECTION
  2
OBJECTS
  0
DICTIONARY
  5
1DAB4
330
0
100
AcDbDictionary
281
     1
  3
ACAD_CIP_PREVIOUS_PRODUCT_INFO
350
1DE57
  3
ACAD_COLOR
350
1DE39
  3
ACAD_DETAILVIEWSTYLE
350
1DE52
  3
ACAD_GROUP
350
1DAB5
  3
ACAD_LAYOUT
350
1DAC1
  3
ACAD_MATERIAL
350
1DE07
  3
ACAD_MLEADERSTYLE
350
1DE4E
  3
ACAD_MLINESTYLE
350
1DABE
  3
ACAD_PLOTSETTINGS
350
1DAC0
  3
ACAD_PLOTSTYLENAME
350
1DE05
  3
ACAD_SCALELIST
350
1DE3C
  3
ACAD_SECTIONVIEWSTYLE
350
1DE50
  3
ACAD_TABLESTYLE
350
1DE3A
  3
ACAD_VISUALSTYLE
350
1DE20
  3
ACDB_RECOMPOSE_DATA
350
1DE75
  3
AcDbVariableDictionary
350
1DE68
  3
DWGPROPS
350
1DE76
  0
DICTIONARY
  5
1DE58
330
1DAB8
100
AcDbDictionary
280
     1
281
     1
  3
ADSK_XREC_LAYER_RECONCILED
360
1DE59
  0
DICTIONARY
  5
1DE5A
330
1DACE
100
AcDbDictionary
280
     1
281
     1
  3
ADSK_XREC_LAYER_RECONCILED
360
1DE5B
  0
DICTIONARY
  5
1DE5C
330
1DACF
100
AcDbDictionary
280
     1
281
     1
  3
ADSK_XREC_LAYER_RECONCILED
360
1DE5D
  0
DICTIONARY
  5
1DE5E
330
1DAD0
100
AcDbDictionary
280
     1
281
     1
  3
ADSK_XREC_LAYER_RECONCILED
360
1DE5F
  0
DICTIONARY
  5
1DE60
330
1DAD1
100
AcDbDictionary
280
     1
281
     1
  3
ADSK_XREC_LAYER_RECONCILED
360
1DE61
  0
DICTIONARY
  5
1DE62
330
1DAD2
100
AcDbDictionary
280
     1
281
     1
  3
ADSK_XREC_LAYER_RECONCILED
360
1DE63
  0
DICTIONARY
  5
1DE64
330
1DAD3
100
AcDbDictionary
280
     1
281
     1
  3
ADSK_XREC_LAYER_RECONCILED
360
1DE65
  0
DICTIONARY
  5
1DE66
330
1DAD4
100
AcDbDictionary
280
     1
281
     1
  3
ADSK_XREC_LAYER_RECONCILED
360
1DE67
  0
DICTIONARY
  5
1DE00
330
1DAC6
100
AcDbDictionary
281
     1
  3
ACAD_LAYOUTSELFREF
350
1DE01
  0
DICTIONARY
  5
1DDFE
330
1DAC2
100
AcDbDictionary
281
     1
  3
ACAD_LAYOUTSELFREF
350
1DDFF
  0
XRECORD
  5
1DE57
102
{ACAD_REACTORS
330
1DAB4
102
}
330
1DAB4
100
AcDbXrecord
280
     1
300
ACDLT
300
2014
300
ACDLT_F_S
  0
DICTIONARY
  5
1DE39
102
{ACAD_REACTORS
330
1DAB4
102
}
330
1DAB4
100
AcDbDictionary
281
     1
  0
DICTIONARY
  5
1DE52
102
{ACAD_REACTORS
330
1DAB4
102
}
330
1DAB4
100
AcDbDictionary
281
     1
  3
Imperial24
350
1DE53
  0
DICTIONARY
  5
1DAB5
102
{ACAD_REACTORS
330
1DAB4
102
}
330
1DAB4
100
AcDbDictionary
281
     1
  0
DICTIONARY
  5
1DAC1
102
{ACAD_REACTORS
330
1DAB4
102
}
330
1DAB4
100
AcDbDictionary
281
     1
  3
Model
350
1DE54
  3
レイアウト1
350
1DE55
  0
DICTIONARY
  5
1DE07
102
{ACAD_REACTORS
330
1DAB4
102
}
330
1DAB4
100
AcDbDictionary
281
     1
  3
ByBlock
350
1DE10
  3
ByLayer
350
1DE08
  3
Global
350
1DE18
  0
DICTIONARY
  5
1DE4E
102
{ACAD_REACTORS
330
1DAB4
102
}
330
1DAB4
100
AcDbDictionary
281
     1
  3
Standard
350
1DE4F
  0
DICTIONARY
  5
1DABE
102
{ACAD_REACTORS
330
1DAB4
102
}
330
1DAB4
100
AcDbDictionary
281
     1
  3
STANDARD
350
1DABF
  0
DICTIONARY
  5
1DAC0
102
{ACAD_REACTORS
330
1DAB4
102
}
330
1DAB4
100
AcDbDictionary
281
     1
  0
ACDBDICTIONARYWDFLT
  5
1DE05
102
{ACAD_REACTORS
330
1DAB4
102
}
330
1DAB4
100
AcDbDictionary
281
     1
  3
Normal
350
1DE06
100
AcDbDictionaryWithDefault
340
1DE06
  0
DICTIONARY
  5
1DE3C
102
{ACAD_REACTORS
330
1DAB4
102
}
330
1DAB4
100
AcDbDictionary
281
     1
  3
A0
350
1DE3D
  3
A1
350
1DE3E
  3
A2
350
1DE3F
  3
A3
350
1DE40
  3
A4
350
1DE41
  3
A5
350
1DE42
  3
A6
350
1DE43
  3
A7
350
1DE44
  3
A8
350
1DE45
  3
A9
350
1DE46
  3
B0
350
1DE47
  3
B1
350
1DE48
  3
B2
350
1DE49
  3
B3
350
1DE4A
  3
B4
350
1DE4B
  3
B5
350
1DE4C
  3
B6
350
1DE4D
  0
DICTIONARY
  5
1DE50
102
{ACAD_REACTORS
330
1DAB4
102
}
330
1DAB4
100
AcDbDictionary
281
     1
  3
Imperial24
350
1DE51
  0
DICTIONARY
  5
1DE3A
102
{ACAD_REACTORS
330
1DAB4
102
}
330
1DAB4
100
AcDbDictionary
281
     1
  3
Standard
350
1DE3B
  0
DICTIONARY
  5
1DE20
102
{ACAD_REACTORS
330
1DAB4
102
}
330
1DAB4
100
AcDbDictionary
281
     1
  3
2dWireframe
350
1DE26
  3
Basic
350
1DE25
  3
Brighten
350
1DE2C
  3
ColorChange
350
1DE30
  3
Conceptual
350
1DE29
  3
Dim
350
1DE2B
  3
EdgeColorOff
350
1DE38
  3
Facepattern
350
1DE2F
  3
Flat
350
1DE21
  3
FlatWithEdges
350
1DE22
  3
Gouraud
350
1DE23
  3
GouraudWithEdges
350
1DE24
  3
Hidden
350
1DE28
  3
JitterOff
350
1DE36
  3
Linepattern
350
1DE2E
  3
OverhangOff
350
1DE37
  3
Realistic
350
1DE2A
  3
Shaded
350
1DE35
  3
Shaded with edges
350
1DE34
  3
Shades of Gray
350
1DE31
  3
Sketchy
350
1DE32
  3
Thicken
350
1DE2D
  3
Wireframe
350
1DE27
  3
X-Ray
350
1DE33
  0
XRECORD
  5
1DE75
102
{ACAD_REACTORS
330
1DAB4
102
}
330
1DAB4
100
AcDbXrecord
280
     1
 90
        1
330
1DE3B
  0
DICTIONARY
  5
1DE68
102
{ACAD_REACTORS
330
1DAB4
102
}
330
1DAB4
100
AcDbDictionary
281
     1
  3
CANNOSCALE
350
1DE6D
  3
CMLEADERSTYLE
350
1DE6A
  3
CTABLESTYLE
350
1DE69
  3
CVIEWDETAILSTYLE
350
1DE6B
  3
CVIEWSECTIONSTYLE
350
1DE6C
  3
DIMASSOC
350
1DE70
  3
INDEXCTL
350
1DE6F
  3
SORTENTS
350
1DE6E
  3
XCLIPFRAME
350
1DE71
  0
XRECORD
  5
1DE76
102
{ACAD_REACTORS
330
1DAB4
102
}
330
1DAB4
100
AcDbXrecord
280
     1
  1
DWGPROPS COOKIE
  2

  3

  4

  6

  7

  8
Yoshitsune
  9

300
=
301
=
302
=
303
=
304
=
305
=
306
=
307
=
308
=
309
=
 40
0.0000117013888889
 41
2451285.44318831
 42
2457192.656807407
  1

 90
        0
  0
XRECORD
  5
1DE59
102
{ACAD_REACTORS
330
1DE58
102
}
330
1DE58
100
AcDbXrecord
280
     1
290
     1
  0
XRECORD
  5
1DE5B
102
{ACAD_REACTORS
330
1DE5A
102
}
330
1DE5A
100
AcDbXrecord
280
     1
290
     1
  0
XRECORD
  5
1DE5D
102
{ACAD_REACTORS
330
1DE5C
102
}
330
1DE5C
100
AcDbXrecord
280
     1
290
     1
  0
XRECORD
  5
1DE5F
102
{ACAD_REACTORS
330
1DE5E
102
}
330
1DE5E
100
AcDbXrecord
280
     1
290
     1
  0
XRECORD
  5
1DE61
102
{ACAD_REACTORS
330
1DE60
102
}
330
1DE60
100
AcDbXrecord
280
     1
290
     1
  0
XRECORD
  5
1DE63
102
{ACAD_REACTORS
330
1DE62
102
}
330
1DE62
100
AcDbXrecord
280
     1
290
     1
  0
XRECORD
  5
1DE65
102
{ACAD_REACTORS
330
1DE64
102
}
330
1DE64
100
AcDbXrecord
280
     1
290
     1
  0
XRECORD
  5
1DE67
102
{ACAD_REACTORS
330
1DE66
102
}
330
1DE66
100
AcDbXrecord
280
     1
290
     1
  0
XRECORD
  5
1DE01
102
{ACAD_REACTORS
330
1DE00
102
}
330
1DE00
100
AcDbXrecord
280
     1
340
1DAC6
  0
XRECORD
  5
1DDFF
102
{ACAD_REACTORS
330
1DDFE
102
}
330
1DDFE
100
AcDbXrecord
280
     1
340
1DAC2
  0
ACDBDETAILVIEWSTYLE
  5
1DE53
102
{ACAD_XDICTIONARY
360
1DEAE
102
}
102
{ACAD_REACTORS
330
1DE52
102
}
330
1DE52
100
AcDbModelDocViewStyle
 70
     0
  3
Imperial24
290
     0
100
AcDbDetailViewStyle
 70
     0
 71
     0
 90
        3
 71
     1
340
1DAB9
 40
0.24
340
0
 40
0.24
300

 40
0.36
280
     3
 71
     2
340
1DABD
 90
       25
 71
     3
340
1DAB9
 40
0.24
 90
        1
 40
0.75
 90
        1
300
%<\AcVar ViewType \f "%tc1">% %<\AcVar ViewDetailId>%\PSCALE %<\AcVar ViewScale \f "%sn">%
 71
     4
340
1DABD
 90
       25
340
1DABD
 90
       25
280
     0
  0
LAYOUT
  5
1DE54
102
{ACAD_XDICTIONARY
360
1DEB0
102
}
102
{ACAD_REACTORS
330
1DAC1
102
}
330
1DAC1
100
AcDbPlotSettings
  1

  2
Canon LBP9100C
  4

  6

 40
0.0
 41
0.0
 42
0.0
 43
0.0
 44
0.0
 45
0.0
 46
0.0
 47
0.0
 48
0.0
 49
0.0
140
0.0
141
0.0
142
1.0
143
1.0
 70
  1712
 72
     0
 73
     0
 74
     0
  7

 75
     0
147
1.0
148
0.0
149
0.0
100
AcDbLayout
  1
Model
 70
     1
 71
     0
 10
0.0
 20
0.0
 11
12.0
 21
9.0
 12
0.0
 22
0.0
 32
0.0
 14
0.0
 24
0.0
 34
0.0
 15
0.0
 25
0.0
 35
0.0
146
0.0
 13
0.0
 23
0.0
 33
0.0
 16
1.0
 26
0.0
 36
0.0
 17
0.0
 27
1.0
 37
0.0
 76
     0
330
1DAC6
331
1DDFD
  0
LAYOUT
  5
1DE55
102
{ACAD_XDICTIONARY
360
1DEB2
102
}
102
{ACAD_REACTORS
330
1DAC1
102
}
330
1DAC1
100
AcDbPlotSettings
  1

  2
Canon LBP9100C
  4

  6

 40
0.0
 41
0.0
 42
0.0
 43
0.0
 44
0.0
 45
0.0
 46
0.0
 47
0.0
 48
0.0
 49
0.0
140
0.0
141
0.0
142
1.0
143
1.0
 70
   688
 72
     0
 73
     0
 74
     5
  7

 75
    16
147
1.0
148
0.0
149
0.0
100
AcDbLayout
  1
レイアウト1
 70
     0
 71
     1
 10
0.0
 20
0.0
 11
420.0
 21
297.0
 12
0.0
 22
0.0
 32
0.0
 14
1.000000000000000E+20
 24
1.000000000000000E+20
 34
1.000000000000000E+20
 15
-1.000000000000000E+20
 25
-1.000000000000000E+20
 35
-1.000000000000000E+20
146
0.0
 13
0.0
 23
0.0
 33
0.0
 16
1.0
 26
0.0
 36
0.0
 17
0.0
 27
1.0
 37
0.0
 76
     0
330
1DAC2
  0
MATERIAL
  5
1DE10
102
{ACAD_XDICTIONARY
360
1DE11
102
}
102
{ACAD_REACTORS
330
1DE07
102
}
330
1DE07
100
AcDbMaterial
  1
ByBlock
 72
     0
 43
0.0208333333333333
 43
0.0
 43
0.0
 43
0.0
 43
0.0
 43
0.0208333333333333
 43
0.0
 43
0.0
 43
0.0
 43
0.0
 43
1.0
 43
0.0
 43
0.0
 43
0.0
 43
0.0
 43
1.0
 77
     0
 47
0.0208333333333333
 47
0.0
 47
0.0
 47
0.0
 47
0.0
 47
0.0208333333333333
 47
0.0
 47
0.0
 47
0.0
 47
0.0
 47
1.0
 47
0.0
 47
0.0
 47
0.0
 47
0.0
 47
1.0
171
     0
 49
0.0208333333333333
 49
0.0
 49
0.0
 49
0.0
 49
0.0
 49
0.0208333333333333
 49
0.0
 49
0.0
 49
0.0
 49
0.0
 49
1.0
 49
0.0
 49
0.0
 49
0.0
 49
0.0
 49
1.0
175
     0
142
0.0208333333333333
142
0.0
142
0.0
142
0.0
142
0.0
142
0.0208333333333333
142
0.0
142
0.0
142
0.0
142
0.0
142
1.0
142
0.0
142
0.0
142
0.0
142
0.0
142
1.0
179
     0
144
0.0208333333333333
144
0.0
144
0.0
144
0.0
144
0.0
144
0.0208333333333333
144
0.0
144
0.0
144
0.0
144
0.0
144
1.0
144
0.0
144
0.0
144
0.0
144
0.0
144
1.0
147
0.0208333333333333
147
0.0
147
0.0
147
0.0
147
0.0
147
0.0208333333333333
147
0.0
147
0.0
147
0.0
147
0.0
147
1.0
147
0.0
147
0.0
147
0.0
147
0.0
147
1.0
  0
MATERIAL
  5
1DE08
102
{ACAD_XDICTIONARY
360
1DE09
102
}
102
{ACAD_REACTORS
330
1DE07
102
}
330
1DE07
100
AcDbMaterial
  1
ByLayer
 72
     0
 43
0.0208333333333333
 43
0.0
 43
0.0
 43
0.0
 43
0.0
 43
0.0208333333333333
 43
0.0
 43
0.0
 43
0.0
 43
0.0
 43
1.0
 43
0.0
 43
0.0
 43
0.0
 43
0.0
 43
1.0
 77
     0
 47
0.0208333333333333
 47
0.0
 47
0.0
 47
0.0
 47
0.0
 47
0.0208333333333333
 47
0.0
 47
0.0
 47
0.0
 47
0.0
 47
1.0
 47
0.0
 47
0.0
 47
0.0
 47
0.0
 47
1.0
171
     0
 49
0.0208333333333333
 49
0.0
 49
0.0
 49
0.0
 49
0.0
 49
0.0208333333333333
 49
0.0
 49
0.0
 49
0.0
 49
0.0
 49
1.0
 49
0.0
 49
0.0
 49
0.0
 49
0.0
 49
1.0
175
     0
142
0.0208333333333333
142
0.0
142
0.0
142
0.0
142
0.0
142
0.0208333333333333
142
0.0
142
0.0
142
0.0
142
0.0
142
1.0
142
0.0
142
0.0
142
0.0
142
0.0
142
1.0
179
     0
144
0.0208333333333333
144
0.0
144
0.0
144
0.0
144
0.0
144
0.0208333333333333
144
0.0
144
0.0
144
0.0
144
0.0
144
1.0
144
0.0
144
0.0
144
0.0
144
0.0
144
1.0
147
0.0208333333333333
147
0.0
147
0.0
147
0.0
147
0.0
147
0.0208333333333333
147
0.0
147
0.0
147
0.0
147
0.0
147
1.0
147
0.0
147
0.0
147
0.0
147
0.0
147
1.0
  0
MATERIAL
  5
1DE18
102
{ACAD_XDICTIONARY
360
1DE19
102
}
102
{ACAD_REACTORS
330
1DE07
102
}
330
1DE07
100
AcDbMaterial
  1
Global
 72
     0
 43
0.0208333333333333
 43
0.0
 43
0.0
 43
0.0
 43
0.0
 43
0.0208333333333333
 43
0.0
 43
0.0
 43
0.0
 43
0.0
 43
1.0
 43
0.0
 43
0.0
 43
0.0
 43
0.0
 43
1.0
 77
     0
 47
0.0208333333333333
 47
0.0
 47
0.0
 47
0.0
 47
0.0
 47
0.0208333333333333
 47
0.0
 47
0.0
 47
0.0
 47
0.0
 47
1.0
 47
0.0
 47
0.0
 47
0.0
 47
0.0
 47
1.0
171
     0
 49
0.0208333333333333
 49
0.0
 49
0.0
 49
0.0
 49
0.0
 49
0.0208333333333333
 49
0.0
 49
0.0
 49
0.0
 49
0.0
 49
1.0
 49
0.0
 49
0.0
 49
0.0
 49
0.0
 49
1.0
175
     0
142
0.0208333333333333
142
0.0
142
0.0
142
0.0
142
0.0
142
0.0208333333333333
142
0.0
142
0.0
142
0.0
142
0.0
142
1.0
142
0.0
142
0.0
142
0.0
142
0.0
142
1.0
179
     0
144
0.0208333333333333
144
0.0
144
0.0
144
0.0
144
0.0
144
0.0208333333333333
144
0.0
144
0.0
144
0.0
144
0.0
144
1.0
144
0.0
144
0.0
144
0.0
144
0.0
144
1.0
147
0.0208333333333333
147
0.0
147
0.0
147
0.0
147
0.0
147
0.0208333333333333
147
0.0
147
0.0
147
0.0
147
0.0
147
1.0
147
0.0
147
0.0
147
0.0
147
0.0
147
1.0
  0
MLEADERSTYLE
  5
1DE4F
102
{ACAD_REACTORS
330
1DE4E
102
}
330
1DE4E
100
AcDbMLeaderStyle
170
     2
171
     1
172
     0
 90
        2
 40
0.0
 41
0.0
173
     1
 91
-1056964608
340
1DABB
 92
       -2
290
     1
 42
0.09
291
     1
 43
0.36
  3
Standard
 44
0.18
300

342
1DAB9
174
     1
178
     6
175
     1
176
     0
 93
-1056964608
 45
0.18
292
     0
297
     0
 46
0.18
 94
-1056964608
 47
1.0
 49
1.0
140
1.0
293
     1
141
0.0
294
     1
177
     0
142
1.0
295
     0
296
     0
143
0.125
1001
ACAD_MLEADERVER
1070
     2
  0
MLINESTYLE
  5
1DABF
102
{ACAD_REACTORS
330
1DABE
102
}
330
1DABE
100
AcDbMlineStyle
  2
STANDARD
 70
     0
  3

 62
   256
 51
90.0
 52
90.0
 71
     2
 49
0.5
 62
   256
  6
BYLAYER
 49
-0.5
 62
   256
  6
BYLAYER
  0
ACDBPLACEHOLDER
  5
1DE06
102
{ACAD_REACTORS
330
1DE05
102
}
330
1DE05
  0
SCALE
  5
1DE3D
102
{ACAD_REACTORS
330
1DE3C
102
}
330
1DE3C
100
AcDbScale
 70
     0
300
1:1
140
1.0
141
1.0
290
     1
  0
SCALE
  5
1DE3E
102
{ACAD_REACTORS
330
1DE3C
102
}
330
1DE3C
100
AcDbScale
 70
     0
300
1/128" = 1'-0"
140
0.0078125
141
12.0
290
     0
  0
SCALE
  5
1DE3F
102
{ACAD_REACTORS
330
1DE3C
102
}
330
1DE3C
100
AcDbScale
 70
     0
300
1/64" = 1'-0"
140
0.015625
141
12.0
290
     0
  0
SCALE
  5
1DE40
102
{ACAD_REACTORS
330
1DE3C
102
}
330
1DE3C
100
AcDbScale
 70
     0
300
1/32" = 1'-0"
140
0.03125
141
12.0
290
     0
  0
SCALE
  5
1DE41
102
{ACAD_REACTORS
330
1DE3C
102
}
330
1DE3C
100
AcDbScale
 70
     0
300
1/16" = 1'-0"
140
0.0625
141
12.0
290
     0
  0
SCALE
  5
1DE42
102
{ACAD_REACTORS
330
1DE3C
102
}
330
1DE3C
100
AcDbScale
 70
     0
300
3/32" = 1'-0"
140
0.09375
141
12.0
290
     0
  0
SCALE
  5
1DE43
102
{ACAD_REACTORS
330
1DE3C
102
}
330
1DE3C
100
AcDbScale
 70
     0
300
1/8" = 1'-0"
140
0.125
141
12.0
290
     0
  0
SCALE
  5
1DE44
102
{ACAD_REACTORS
330
1DE3C
102
}
330
1DE3C
100
AcDbScale
 70
     0
300
3/16" = 1'-0"
140
0.1875
141
12.0
290
     0
  0
SCALE
  5
1DE45
102
{ACAD_REACTORS
330
1DE3C
102
}
330
1DE3C
100
AcDbScale
 70
     0
300
1/4" = 1'-0"
140
0.25
141
12.0
290
     0
  0
SCALE
  5
1DE46
102
{ACAD_REACTORS
330
1DE3C
102
}
330
1DE3C
100
AcDbScale
 70
     0
300
3/8" = 1'-0"
140
0.375
141
12.0
290
     0
  0
SCALE
  5
1DE47
102
{ACAD_REACTORS
330
1DE3C
102
}
330
1DE3C
100
AcDbScale
 70
     0
300
1/2" = 1'-0"
140
0.5
141
12.0
290
     0
  0
SCALE
  5
1DE48
102
{ACAD_REACTORS
330
1DE3C
102
}
330
1DE3C
100
AcDbScale
 70
     0
300
3/4" = 1'-0"
140
0.75
141
12.0
290
     0
  0
SCALE
  5
1DE49
102
{ACAD_REACTORS
330
1DE3C
102
}
330
1DE3C
100
AcDbScale
 70
     0
300
1" = 1'-0"
140
1.0
141
12.0
290
     0
  0
SCALE
  5
1DE4A
102
{ACAD_REACTORS
330
1DE3C
102
}
330
1DE3C
100
AcDbScale
 70
     0
300
1-1/2" = 1'-0"
140
1.5
141
12.0
290
     0
  0
SCALE
  5
1DE4B
102
{ACAD_REACTORS
330
1DE3C
102
}
330
1DE3C
100
AcDbScale
 70
     0
300
3" = 1'-0"
140
3.0
141
12.0
290
     0
  0
SCALE
  5
1DE4C
102
{ACAD_REACTORS
330
1DE3C
102
}
330
1DE3C
100
AcDbScale
 70
     0
300
6" = 1'-0"
140
6.0
141
12.0
290
     0
  0
SCALE
  5
1DE4D
102
{ACAD_REACTORS
330
1DE3C
102
}
330
1DE3C
100
AcDbScale
 70
     0
300
1'-0" = 1'-0"
140
12.0
141
12.0
290
     0
  0
ACDBSECTIONVIEWSTYLE
  5
1DE51
102
{ACAD_XDICTIONARY
360
1DEAC
102
}
102
{ACAD_REACTORS
330
1DE50
102
}
330
1DE50
100
AcDbModelDocViewStyle
 70
     0
  3
Imperial24
290
     0
100
AcDbSectionViewStyle
 70
     0
 71
     0
 90
       78
 71
     1
340
1DAB9
 40
0.24
340
0
340
0
 40
0.24
300
I, O, Q, S, X, Z
 40
0.48
 90
        3
 40
0.18
 90
        1
 71
     2
340
1DABD
 90
       25
340
1DABD
 90
       50
 40
0.24
 40
0.0
 40
0.24
 71
     3
340
1DAB9
 40
0.24
 90
        1
 40
0.75
 90
        1
300
%<\AcVar ViewType \f "%tc1">% %<\AcVar ViewSectionStartId>%-%<\AcVar ViewSectionEndId>%\PSCALE %<\AcVar ViewScale \f "%sn">%
 71
     4
300
ANSI31
 40
1.0
 90
        0
290
     0
290
     0
 90
        6
 40
0.0
 40
1.570796326794896
 40
0.2617993877991494
 40
1.308996938995747
 40
-0.2617993877991494
 40
1.832595714594046
  0
TABLESTYLE
  5
1DE3B
102
{ACAD_XDICTIONARY
360
1DE73
102
}
102
{ACAD_REACTORS
330
1DE3A
102
}
330
1DE3A
100
AcDbTableStyle
  3
Standard
 70
     0
 71
     0
 40
0.06
 41
0.06
280
     0
281
     0
  7
STANDARD
140
0.18
170
     2
 62
     0
 63
     7
283
     0
274
    -2
284
     1
 64
     0
275
    -2
285
     1
 65
     0
276
    -2
286
     1
 66
     0
277
    -2
287
     1
 67
     0
278
    -2
288
     1
 68
     0
279
    -2
289
     1
 69
     0
  7
STANDARD
140
0.25
170
     5
 62
     0
 63
     7
283
     0
274
    -2
284
     1
 64
     0
275
    -2
285
     1
 65
     0
276
    -2
286
     1
 66
     0
277
    -2
287
     1
 67
     0
278
    -2
288
     1
 68
     0
279
    -2
289
     1
 69
     0
  7
STANDARD
140
0.18
170
     5
 62
     0
 63
     7
283
     0
274
    -2
284
     1
 64
     0
275
    -2
285
     1
 65
     0
276
    -2
286
     1
 66
     0
277
    -2
287
     1
 67
     0
278
    -2
288
     1
 68
     0
279
    -2
289
     1
 69
     0
  0
VISUALSTYLE
  5
1DE26
102
{ACAD_XDICTIONARY
360
1DE84
102
}
102
{ACAD_REACTORS
330
1DE20
102
}
330
1DE20
100
AcDbVisualStyle
  2
2dWireframe
 70
     4
 71
     0
 72
     2
 73
     0
 90
        0
 40
-0.6
 41
-30.0
 62
     5
 63
     7
 74
     1
 91
        4
 64
     7
 65
   257
 75
     1
175
     1
 42
1.0
 92
        0
 66
   257
 43
1.0
 76
     1
 77
     6
 78
     2
 67
     7
 79
     5
170
     0
171
     0
290
     0
174
     0
 93
        1
 44
0.0
173
     0
291
     0
 45
0.0
1001
ACAD
1000
AcDbSavedByObjectVersion
1070
     0
  0
VISUALSTYLE
  5
1DE25
102
{ACAD_XDICTIONARY
360
1DE82
102
}
102
{ACAD_REACTORS
330
1DE20
102
}
330
1DE20
100
AcDbVisualStyle
  2
Basic
 70
     7
 71
     1
 72
     0
 73
     1
 90
        0
 40
-0.6
 41
-30.0
 62
     5
 63
     7
 74
     0
 91
        4
 64
     7
 65
   257
 75
     1
175
     1
 42
1.0
 92
        8
 66
     7
 43
1.0
 76
     1
 77
     6
 78
     2
 67
     7
 79
     5
170
     0
171
     0
290
     0
174
     0
 93
        1
 44
0.0
173
     0
291
     1
 45
0.0
1001
ACAD
1000
AcDbSavedByObjectVersion
1070
     0
  0
VISUALSTYLE
  5
1DE2C
102
{ACAD_XDICTIONARY
360
1DE90
102
}
102
{ACAD_REACTORS
330
1DE20
102
}
330
1DE20
100
AcDbVisualStyle
  2
Brighten
 70
    12
 71
     2
 72
     2
 73
     0
 90
        0
 40
-0.6
 41
-30.0
 62
     5
 63
     7
 74
     1
 91
        4
 64
     7
 65
   257
 75
     1
175
     1
 42
1.0
 92
        8
 66
     7
 43
1.0
 76
     1
 77
     6
 78
     2
 67
     7
 79
     5
170
     0
171
     0
290
     0
174
     0
 93
        1
 44
50.0
173
     0
291
     1
 45
0.0
1001
ACAD
1000
AcDbSavedByObjectVersion
1070
     0
  0
VISUALSTYLE
  5
1DE30
102
{ACAD_XDICTIONARY
360
1DE98
102
}
102
{ACAD_REACTORS
330
1DE20
102
}
330
1DE20
100
AcDbVisualStyle
  2
ColorChange
 70
    16
 71
     2
 72
     2
 73
     3
 90
        0
 40
-0.6
 41
-30.0
 62
     5
 63
     8
 74
     1
 91
        4
 64
     7
 65
   257
 75
     1
175
     1
 42
1.0
 92
        8
 66
     8
 43
1.0
 76
     1
 77
     6
 78
     2
 67
     7
 79
     5
170
     0
171
     0
290
     0
174
     0
 93
        1
 44
0.0
173
     0
291
     1
 45
0.0
1001
ACAD
1000
AcDbSavedByObjectVersion
1070
     0
  0
VISUALSTYLE
  5
1DE29
102
{ACAD_XDICTIONARY
360
1DE8A
102
}
102
{ACAD_REACTORS
330
1DE20
102
}
330
1DE20
100
AcDbVisualStyle
  2
Conceptual
 70
     9
 71
     3
 72
     2
 73
     0
 90
        0
 40
-0.6
 41
-30.0
 62
     5
 63
     7
 74
     2
 91
        2
 64
     7
 65
   257
 75
     1
175
     1
 42
179.0
 92
        8
 66
     7
 43
1.0
 76
     1
 77
     6
 78
     2
 67
     7
 79
     3
170
     0
171
     0
290
     0
174
     0
 93
        1
 44
0.0
173
     0
291
     0
 45
0.0
1001
ACAD
1000
AcDbSavedByObjectVersion
1070
     0
  0
VISUALSTYLE
  5
1DE2B
102
{ACAD_XDICTIONARY
360
1DE8E
102
}
102
{ACAD_REACTORS
330
1DE20
102
}
330
1DE20
100
AcDbVisualStyle
  2
Dim
 70
    11
 71
     2
 72
     2
 73
     0
 90
        0
 40
-0.6
 41
-30.0
 62
     5
 63
     7
 74
     1
 91
        4
 64
     7
 65
   257
 75
     1
175
     1
 42
1.0
 92
        8
 66
     7
 43
1.0
 76
     1
 77
     6
 78
     2
 67
     7
 79
     5
170
     0
171
     0
290
     0
174
     0
 93
        1
 44
-50.0
173
     0
291
     1
 45
0.0
1001
ACAD
1000
AcDbSavedByObjectVersion
1070
     0
  0
VISUALSTYLE
  5
1DE38
102
{ACAD_XDICTIONARY
360
1DEA8
102
}
102
{ACAD_REACTORS
330
1DE20
102
}
330
1DE20
100
AcDbVisualStyle
  2
EdgeColorOff
 70
    22
 71
     2
 72
     2
 73
     0
 90
        0
 40
-0.6
 41
-30.0
 62
     5
 63
     7
 74
     1
 91
        4
 64
     7
 65
   257
 75
     1
175
     1
 42
1.0
 92
        8
 66
     7
 43
1.0
 76
     1
 77
     6
 78
     2
 67
     7
 79
     5
170
     0
171
     0
290
     0
174
     0
 93
        1
 44
0.0
173
     0
291
     1
 45
0.0
1001
ACAD
1000
AcDbSavedByObjectVersion
1070
     0
  0
VISUALSTYLE
  5
1DE2F
102
{ACAD_XDICTIONARY
360
1DE96
102
}
102
{ACAD_REACTORS
330
1DE20
102
}
330
1DE20
100
AcDbVisualStyle
  2
Facepattern
 70
    15
 71
     2
 72
     2
 73
     0
 90
        0
 40
-0.6
 41
-30.0
 62
     5
 63
     7
 74
     1
 91
        4
 64
     7
 65
   257
 75
     1
175
     1
 42
1.0
 92
        8
 66
     7
 43
1.0
 76
     1
 77
     6
 78
     2
 67
     7
 79
     5
170
     0
171
     0
290
     0
174
     0
 93
        1
 44
0.0
173
     0
291
     1
 45
0.0
1001
ACAD
1000
AcDbSavedByObjectVersion
1070
     0
  0
VISUALSTYLE
  5
1DE21
102
{ACAD_XDICTIONARY
360
1DE7A
102
}
102
{ACAD_REACTORS
330
1DE20
102
}
330
1DE20
100
AcDbVisualStyle
  2
Flat
 70
     0
 71
     2
 72
     1
 73
     1
 90
        2
 40
-0.6
 41
30.0
 62
     5
 63
     7
 74
     0
 91
        0
 64
     7
 65
   257
 75
     1
175
     1
 42
1.0
 92
        8
 66
     7
 43
1.0
 76
     1
 77
     6
 78
     2
 67
     7
 79
     5
170
     0
171
     0
290
     0
174
     0
 93
       13
 44
0.0
173
     0
291
     1
 45
0.0
1001
ACAD
1000
AcDbSavedByObjectVersion
1070
     0
  0
VISUALSTYLE
  5
1DE22
102
{ACAD_XDICTIONARY
360
1DE7C
102
}
102
{ACAD_REACTORS
330
1DE20
102
}
330
1DE20
100
AcDbVisualStyle
  2
FlatWithEdges
 70
     1
 71
     2
 72
     1
 73
     1
 90
        2
 40
-0.6
 41
30.0
 62
     5
 63
     7
 74
     1
 91
        0
 64
     7
 65
   257
 75
     1
175
     1
 42
1.0
 92
        0
 66
   257
 43
1.0
 76
     1
 77
     6
 78
     2
 67
     7
 79
     5
170
     0
171
     0
290
     0
174
     0
 93
       13
 44
0.0
173
     0
291
     1
 45
0.0
1001
ACAD
1000
AcDbSavedByObjectVersion
1070
     0
  0
VISUALSTYLE
  5
1DE23
102
{ACAD_XDICTIONARY
360
1DE7E
102
}
102
{ACAD_REACTORS
330
1DE20
102
}
330
1DE20
100
AcDbVisualStyle
  2
Gouraud
 70
     2
 71
     2
 72
     2
 73
     1
 90
        2
 40
-0.6
 41
30.0
 62
     5
 63
     7
 74
     0
 91
        0
 64
     7
 65
   257
 75
     1
175
     1
 42
1.0
 92
        0
 66
     7
 43
1.0
 76
     1
 77
     6
 78
     2
 67
     7
 79
     5
170
     0
171
     0
290
     0
174
     0
 93
       13
 44
0.0
173
     0
291
     1
 45
0.0
1001
ACAD
1000
AcDbSavedByObjectVersion
1070
     0
  0
VISUALSTYLE
  5
1DE24
102
{ACAD_XDICTIONARY
360
1DE80
102
}
102
{ACAD_REACTORS
330
1DE20
102
}
330
1DE20
100
AcDbVisualStyle
  2
GouraudWithEdges
 70
     3
 71
     2
 72
     2
 73
     1
 90
        2
 40
-0.6
 41
30.0
 62
     5
 63
     7
 74
     1
 91
        0
 64
     7
 65
   257
 75
     1
175
     1
 42
1.0
 92
        0
 66
   257
 43
1.0
 76
     1
 77
     6
 78
     2
 67
     7
 79
     5
170
     0
171
     0
290
     0
174
     0
 93
       13
 44
0.0
173
     0
291
     1
 45
0.0
1001
ACAD
1000
AcDbSavedByObjectVersion
1070
     0
  0
VISUALSTYLE
  5
1DE28
102
{ACAD_XDICTIONARY
360
1DE88
102
}
102
{ACAD_REACTORS
330
1DE20
102
}
330
1DE20
100
AcDbVisualStyle
  2
Hidden
 70
     6
 71
     1
 72
     2
 73
     2
 90
        0
 40
-0.6
 41
-30.0
 62
     5
 63
     7
 74
     2
 91
        2
 64
     7
 65
   257
 75
     2
175
     1
 42
40.0
 92
        0
 66
   257
 43
1.0
 76
     1
 77
     6
 78
     2
 67
     7
 79
     3
170
     0
171
     0
290
     0
174
     0
 93
        1
 44
0.0
173
     0
291
     0
 45
0.0
1001
ACAD
1000
AcDbSavedByObjectVersion
1070
     0
  0
VISUALSTYLE
  5
1DE36
102
{ACAD_XDICTIONARY
360
1DEA4
102
}
102
{ACAD_REACTORS
330
1DE20
102
}
330
1DE20
100
AcDbVisualStyle
  2
JitterOff
 70
    20
 71
     2
 72
     2
 73
     0
 90
        0
 40
-0.6
 41
-30.0
 62
     5
 63
     7
 74
     1
 91
        4
 64
     7
 65
   257
 75
     1
175
     1
 42
1.0
 92
       10
 66
     7
 43
1.0
 76
     1
 77
     6
 78
     2
 67
     7
 79
     5
170
     0
171
     0
290
     0
174
     0
 93
        1
 44
0.0
173
     0
291
     1
 45
0.0
1001
ACAD
1000
AcDbSavedByObjectVersion
1070
     0
  0
VISUALSTYLE
  5
1DE2E
102
{ACAD_XDICTIONARY
360
1DE94
102
}
102
{ACAD_REACTORS
330
1DE20
102
}
330
1DE20
100
AcDbVisualStyle
  2
Linepattern
 70
    14
 71
     2
 72
     2
 73
     0
 90
        0
 40
-0.6
 41
-30.0
 62
     5
 63
     7
 74
     1
 91
        4
 64
     7
 65
   257
 75
     7
175
     7
 42
1.0
 92
        8
 66
     7
 43
1.0
 76
     1
 77
     6
 78
     2
 67
     7
 79
     5
170
     0
171
     0
290
     0
174
     0
 93
        1
 44
0.0
173
     0
291
     1
 45
0.0
1001
ACAD
1000
AcDbSavedByObjectVersion
1070
     0
  0
VISUALSTYLE
  5
1DE37
102
{ACAD_XDICTIONARY
360
1DEA6
102
}
102
{ACAD_REACTORS
330
1DE20
102
}
330
1DE20
100
AcDbVisualStyle
  2
OverhangOff
 70
    21
 71
     2
 72
     2
 73
     0
 90
        0
 40
-0.6
 41
-30.0
 62
     5
 63
     7
 74
     1
 91
        4
 64
     7
 65
   257
 75
     1
175
     1
 42
1.0
 92
        9
 66
     7
 43
1.0
 76
     1
 77
     6
 78
     2
 67
     7
 79
     5
170
     0
171
     0
290
     0
174
     0
 93
        1
 44
0.0
173
     0
291
     1
 45
0.0
1001
ACAD
1000
AcDbSavedByObjectVersion
1070
     0
  0
VISUALSTYLE
  5
1DE2A
102
{ACAD_XDICTIONARY
360
1DE8C
102
}
102
{ACAD_REACTORS
330
1DE20
102
}
330
1DE20
100
AcDbVisualStyle
  2
Realistic
 70
     8
 71
     2
 72
     3
 73
     0
 90
        2
 40
-0.6
 41
30.0
 62
     5
 63
     7
 74
     0
 91
        0
 64
     7
 65
   257
 75
     1
175
     1
 42
1.0
 92
        8
 66
   257
 43
1.0
 76
     1
 77
     6
 78
     2
 67
     7
 79
     3
170
     0
171
     0
290
     0
174
     0
 93
       13
 44
0.0
173
     0
291
     0
 45
0.0
1001
ACAD
1000
AcDbSavedByObjectVersion
1070
     0
  0
VISUALSTYLE
  5
1DE35
102
{ACAD_XDICTIONARY
360
1DEA2
102
}
102
{ACAD_REACTORS
330
1DE20
102
}
330
1DE20
100
AcDbVisualStyle
  2
Shaded
 70
    27
 71
     2
 72
     2
 73
     1
 90
        2
 40
-0.6
 41
30.0
 62
     5
 63
     7
 74
     0
 91
        4
 64
     7
 65
   257
 75
     1
175
     1
 42
1.0
 92
        8
 66
   257
 43
1.0
 76
     1
 77
     6
 78
     2
 67
     8
 79
     3
170
     0
171
     0
290
     0
174
     0
 93
        5
 44
0.0
173
     0
291
     0
 45
0.0
1001
ACAD
1000
AcDbSavedByObjectVersion
1070
     0
  0
VISUALSTYLE
  5
1DE34
102
{ACAD_XDICTIONARY
360
1DEA0
102
}
102
{ACAD_REACTORS
330
1DE20
102
}
330
1DE20
100
AcDbVisualStyle
  2
Shaded with edges
 70
    26
 71
     2
 72
     2
 73
     1
 90
        2
 40
-0.6
 41
30.0
 62
     5
 63
     7
 74
     1
 91
       10
 64
     7
 65
   257
 75
     2
175
     1
 42
1.0
 92
        8
 66
   257
 43
1.0
 76
     1
 77
     6
 78
     2
 67
     7
 79
     3
170
     0
171
     0
290
     0
174
     0
 93
        5
 44
0.0
173
     0
291
     0
 45
0.0
1001
ACAD
1000
AcDbSavedByObjectVersion
1070
     0
  0
VISUALSTYLE
  5
1DE31
102
{ACAD_XDICTIONARY
360
1DE9A
102
}
102
{ACAD_REACTORS
330
1DE20
102
}
330
1DE20
100
AcDbVisualStyle
  2
Shades of Gray
 70
    23
 71
     2
 72
     2
 73
     3
 90
        0
 40
-0.6
 41
-30.0
 62
     5
 63
     7
 74
     2
 91
        2
 64
     7
 65
     7
 75
     1
175
     1
 42
40.0
 92
        8
 66
     7
 43
1.0
 76
     1
 77
     6
 78
     2
 67
     7
 79
     3
170
     0
171
     0
290
     0
174
     0
 93
        1
 44
0.0
173
     0
291
     0
 45
0.0
1001
ACAD
1000
AcDbSavedByObjectVersion
1070
     0
  0
VISUALSTYLE
  5
1DE32
102
{ACAD_XDICTIONARY
360
1DE9C
102
}
102
{ACAD_REACTORS
330
1DE20
102
}
330
1DE20
100
AcDbVisualStyle
  2
Sketchy
 70
    24
 71
     1
 72
     2
 73
     2
 90
        0
 40
-0.6
 41
-30.0
 62
     5
 63
     7
 74
     2
 91
        2
 64
     7
 65
     7
 75
     1
175
     1
 42
40.0
 92
       11
 66
     7
 43
1.0
 76
     1
 77
     6
 78
     2
 67
     7
 79
     6
170
     0
171
     0
290
     0
174
     0
 93
        1
 44
0.0
173
     0
291
     0
 45
0.0
1001
ACAD
1000
AcDbSavedByObjectVersion
1070
     0
  0
VISUALSTYLE
  5
1DE2D
102
{ACAD_XDICTIONARY
360
1DE92
102
}
102
{ACAD_REACTORS
330
1DE20
102
}
330
1DE20
100
AcDbVisualStyle
  2
Thicken
 70
    13
 71
     2
 72
     2
 73
     0
 90
        0
 40
-0.6
 41
-30.0
 62
     5
 63
     7
 74
     1
 91
        4
 64
     7
 65
   257
 75
     1
175
     1
 42
1.0
 92
       12
 66
     7
 43
1.0
 76
     1
 77
     6
 78
     2
 67
     7
 79
     5
170
     0
171
     0
290
     0
174
     0
 93
        1
 44
0.0
173
     0
291
     1
 45
0.0
1001
ACAD
1000
AcDbSavedByObjectVersion
1070
     0
  0
VISUALSTYLE
  5
1DE27
102
{ACAD_XDICTIONARY
360
1DE86
102
}
102
{ACAD_REACTORS
330
1DE20
102
}
330
1DE20
100
AcDbVisualStyle
  2
Wireframe
 70
     5
 71
     0
 72
     2
 73
     0
 90
        0
 40
-0.6
 41
-30.0
 62
     5
 63
     7
 74
     1
 91
        4
 64
     7
 65
   257
 75
     1
175
     1
 42
1.0
 92
        0
 66
   257
 43
1.0
 76
     1
 77
     6
 78
     2
 67
     7
 79
     3
170
     0
171
     0
290
     0
174
     0
 93
        1
 44
0.0
173
     0
291
     0
 45
0.0
1001
ACAD
1000
AcDbSavedByObjectVersion
1070
     0
  0
VISUALSTYLE
  5
1DE33
102
{ACAD_XDICTIONARY
360
1DE9E
102
}
102
{ACAD_REACTORS
330
1DE20
102
}
330
1DE20
100
AcDbVisualStyle
  2
X-Ray
 70
    25
 71
     2
 72
     2
 73
     1
 90
        1
 40
0.5
 41
-30.0
 62
     5
 63
     7
 74
     1
 91
        0
 64
     7
 65
   257
 75
     1
175
     1
 42
1.0
 92
        8
 66
     7
 43
1.0
 76
     1
 77
     6
 78
     2
 67
     7
 79
     3
170
     0
171
     0
290
     0
174
     0
 93
       13
 44
0.0
173
     0
291
     0
 45
0.0
1001
ACAD
1000
AcDbSavedByObjectVersion
1070
     0
  0
DICTIONARYVAR
  5
1DE6D
102
{ACAD_REACTORS
330
1DE68
102
}
330
1DE68
100
DictionaryVariables
280
     0
  1
1:1
  0
DICTIONARYVAR
  5
1DE6A
102
{ACAD_REACTORS
330
1DE68
102
}
330
1DE68
100
DictionaryVariables
280
     0
  1
STANDARD
  0
DICTIONARYVAR
  5
1DE69
102
{ACAD_REACTORS
330
1DE68
102
}
330
1DE68
100
DictionaryVariables
280
     0
  1
STANDARD
  0
DICTIONARYVAR
  5
1DE6B
102
{ACAD_REACTORS
330
1DE68
102
}
330
1DE68
100
DictionaryVariables
280
     0
  1
Imperial24
  0
DICTIONARYVAR
  5
1DE6C
102
{ACAD_REACTORS
330
1DE68
102
}
330
1DE68
100
DictionaryVariables
280
     0
  1
Imperial24
  0
DICTIONARYVAR
  5
1DE70
102
{ACAD_REACTORS
330
1DE68
102
}
330
1DE68
100
DictionaryVariables
280
     0
  1
1
  0
DICTIONARYVAR
  5
1DE6F
102
{ACAD_REACTORS
330
1DE68
102
}
330
1DE68
100
DictionaryVariables
280
     0
  1
0
  0
DICTIONARYVAR
  5
1DE6E
102
{ACAD_REACTORS
330
1DE68
102
}
330
1DE68
100
DictionaryVariables
280
     0
  1
127
  0
DICTIONARYVAR
  5
1DE71
102
{ACAD_REACTORS
330
1DE68
102
}
330
1DE68
100
DictionaryVariables
280
     0
  1
2
  0
DICTIONARY
  5
1DEAE
330
1DE53
100
AcDbDictionary
280
     1
281
     1
  3
ACAD_XREC_ROUNDTRIP
360
1DEAF
  0
DICTIONARY
  5
1DEB0
330
1DE54
100
AcDbDictionary
280
     1
281
     1
  3
ACAD_XREC_ROUNDTRIP
360
1DEB1
  0
DICTIONARY
  5
1DEB2
330
1DE55
100
AcDbDictionary
280
     1
281
     1
  3
ACAD_XREC_ROUNDTRIP
360
1DEB3
  0
DICTIONARY
  5
1DE11
330
1DE10
100
AcDbDictionary
280
     1
281
     1
  3
ACAD_XREC_ROUNDTRIP
360
1DE78
  3
BUMPTILE
360
1DE13
  3
DIFFUSETILE
360
1DE12
  3
OPACITYTILE
360
1DE16
  3
REFLECTIONTILE
360
1DE15
  3
REFRACTIONTILE
360
1DE17
  3
SPECULARTILE
360
1DE14
  0
DICTIONARY
  5
1DE09
330
1DE08
100
AcDbDictionary
280
     1
281
     1
  3
ACAD_XREC_ROUNDTRIP
360
1DE77
  3
BUMPTILE
360
1DE0B
  3
DIFFUSETILE
360
1DE0A
  3
OPACITYTILE
360
1DE0E
  3
REFLECTIONTILE
360
1DE0D
  3
REFRACTIONTILE
360
1DE0F
  3
SPECULARTILE
360
1DE0C
  0
DICTIONARY
  5
1DE19
330
1DE18
100
AcDbDictionary
280
     1
281
     1
  3
ACAD_XREC_ROUNDTRIP
360
1DE79
  3
BUMPTILE
360
1DE1B
  3
DIFFUSETILE
360
1DE1A
  3
OPACITYTILE
360
1DE1E
  3
REFLECTIONTILE
360
1DE1D
  3
REFRACTIONTILE
360
1DE1F
  3
SPECULARTILE
360
1DE1C
  0
DICTIONARY
  5
1DEAC
330
1DE51
100
AcDbDictionary
280
     1
281
     1
  3
ACAD_XREC_ROUNDTRIP
360
1DEAD
  0
DICTIONARY
  5
1DE73
330
1DE3B
100
AcDbDictionary
280
     1
281
     1
  3
ACAD_ROUNDTRIP_2008_TABLESTYLE_CELLSTYLEMAP
360
1DE74
  3
ACAD_XREC_ROUNDTRIP
360
1DEAA
  0
DICTIONARY
  5
1DE84
330
1DE26
100
AcDbDictionary
280
     1
281
     1
  3
ACAD_XREC_ROUNDTRIP
360
1DE85
  0
DICTIONARY
  5
1DE82
330
1DE25
100
AcDbDictionary
280
     1
281
     1
  3
ACAD_XREC_ROUNDTRIP
360
1DE83
  0
DICTIONARY
  5
1DE90
330
1DE2C
100
AcDbDictionary
280
     1
281
     1
  3
ACAD_XREC_ROUNDTRIP
360
1DE91
  0
DICTIONARY
  5
1DE98
330
1DE30
100
AcDbDictionary
280
     1
281
     1
  3
ACAD_XREC_ROUNDTRIP
360
1DE99
  0
DICTIONARY
  5
1DE8A
330
1DE29
100
AcDbDictionary
280
     1
281
     1
  3
ACAD_XREC_ROUNDTRIP
360
1DE8B
  0
DICTIONARY
  5
1DE8E
330
1DE2B
100
AcDbDictionary
280
     1
281
     1
  3
ACAD_XREC_ROUNDTRIP
360
1DE8F
  0
DICTIONARY
  5
1DEA8
330
1DE38
100
AcDbDictionary
280
     1
281
     1
  3
ACAD_XREC_ROUNDTRIP
360
1DEA9
  0
DICTIONARY
  5
1DE96
330
1DE2F
100
AcDbDictionary
280
     1
281
     1
  3
ACAD_XREC_ROUNDTRIP
360
1DE97
  0
DICTIONARY
  5
1DE7A
330
1DE21
100
AcDbDictionary
280
     1
281
     1
  3
ACAD_XREC_ROUNDTRIP
360
1DE7B
  0
DICTIONARY
  5
1DE7C
330
1DE22
100
AcDbDictionary
280
     1
281
     1
  3
ACAD_XREC_ROUNDTRIP
360
1DE7D
  0
DICTIONARY
  5
1DE7E
330
1DE23
100
AcDbDictionary
280
     1
281
     1
  3
ACAD_XREC_ROUNDTRIP
360
1DE7F
  0
DICTIONARY
  5
1DE80
330
1DE24
100
AcDbDictionary
280
     1
281
     1
  3
ACAD_XREC_ROUNDTRIP
360
1DE81
  0
DICTIONARY
  5
1DE88
330
1DE28
100
AcDbDictionary
280
     1
281
     1
  3
ACAD_XREC_ROUNDTRIP
360
1DE89
  0
DICTIONARY
  5
1DEA4
330
1DE36
100
AcDbDictionary
280
     1
281
     1
  3
ACAD_XREC_ROUNDTRIP
360
1DEA5
  0
DICTIONARY
  5
1DE94
330
1DE2E
100
AcDbDictionary
280
     1
281
     1
  3
ACAD_XREC_ROUNDTRIP
360
1DE95
  0
DICTIONARY
  5
1DEA6
330
1DE37
100
AcDbDictionary
280
     1
281
     1
  3
ACAD_XREC_ROUNDTRIP
360
1DEA7
  0
DICTIONARY
  5
1DE8C
330
1DE2A
100
AcDbDictionary
280
     1
281
     1
  3
ACAD_XREC_ROUNDTRIP
360
1DE8D
  0
DICTIONARY
  5
1DEA2
330
1DE35
100
AcDbDictionary
280
     1
281
     1
  3
ACAD_XREC_ROUNDTRIP
360
1DEA3
  0
DICTIONARY
  5
1DEA0
330
1DE34
100
AcDbDictionary
280
     1
281
     1
  3
ACAD_XREC_ROUNDTRIP
360
1DEA1
  0
DICTIONARY
  5
1DE9A
330
1DE31
100
AcDbDictionary
280
     1
281
     1
  3
ACAD_XREC_ROUNDTRIP
360
1DE9B
  0
DICTIONARY
  5
1DE9C
330
1DE32
100
AcDbDictionary
280
     1
281
     1
  3
ACAD_XREC_ROUNDTRIP
360
1DE9D
  0
DICTIONARY
  5
1DE92
330
1DE2D
100
AcDbDictionary
280
     1
281
     1
  3
ACAD_XREC_ROUNDTRIP
360
1DE93
  0
DICTIONARY
  5
1DE86
330
1DE27
100
AcDbDictionary
280
     1
281
     1
  3
ACAD_XREC_ROUNDTRIP
360
1DE87
  0
DICTIONARY
  5
1DE9E
330
1DE33
100
AcDbDictionary
280
     1
281
     1
  3
ACAD_XREC_ROUNDTRIP
360
1DE9F
  0
XRECORD
  5
1DEAF
102
{ACAD_REACTORS
330
1DEAE
102
}
330
1DEAE
100
AcDbXrecord
280
     1
102
DISPLAYNAME
  1
Imperial24
102
FLAGS
 90
        0
  0
XRECORD
  5
1DEB1
102
{ACAD_REACTORS
330
1DEB0
102
}
330
1DEB0
100
AcDbXrecord
280
     1
102
SHADEPLOT
 70
     0
102
SHADEPLOTRESLEVEL
 70
     2
102
SHADEPLOTCUSTOMDPI
 70
   300
  0
XRECORD
  5
1DEB3
102
{ACAD_REACTORS
330
1DEB2
102
}
330
1DEB2
100
AcDbXrecord
280
     1
102
SHADEPLOT
 70
     0
102
SHADEPLOTRESLEVEL
 70
     2
102
SHADEPLOTCUSTOMDPI
 70
   300
  0
XRECORD
  5
1DE78
102
{ACAD_REACTORS
330
1DE11
102
}
330
1DE11
100
AcDbXrecord
280
     1
102
MATERIAL
148
0.0
149
0.0
149
0.0
 93
        0
 94
      127
282
     0
 72
     0
 77
     0
171
     0
175
     0
179
     0
273
     0
  0
XRECORD
  5
1DE13
102
{ACAD_REACTORS
330
1DE11
102
}
330
1DE11
100
AcDbXrecord
280
     1
270
     1
271
     1
  0
XRECORD
  5
1DE12
102
{ACAD_REACTORS
330
1DE11
102
}
330
1DE11
100
AcDbXrecord
280
     1
270
     1
271
     1
  0
XRECORD
  5
1DE16
102
{ACAD_REACTORS
330
1DE11
102
}
330
1DE11
100
AcDbXrecord
280
     1
270
     1
271
     1
  0
XRECORD
  5
1DE15
102
{ACAD_REACTORS
330
1DE11
102
}
330
1DE11
100
AcDbXrecord
280
     1
270
     1
271
     1
  0
XRECORD
  5
1DE17
102
{ACAD_REACTORS
330
1DE11
102
}
330
1DE11
100
AcDbXrecord
280
     1
270
     1
271
     1
  0
XRECORD
  5
1DE14
102
{ACAD_REACTORS
330
1DE11
102
}
330
1DE11
100
AcDbXrecord
280
     1
270
     1
271
     1
  0
XRECORD
  5
1DE77
102
{ACAD_REACTORS
330
1DE09
102
}
330
1DE09
100
AcDbXrecord
280
     1
102
MATERIAL
148
0.0
149
0.0
149
0.0
 93
        0
 94
      127
282
     0
 72
     0
 77
     0
171
     0
175
     0
179
     0
273
     0
  0
XRECORD
  5
1DE0B
102
{ACAD_REACTORS
330
1DE09
102
}
330
1DE09
100
AcDbXrecord
280
     1
270
     1
271
     1
  0
XRECORD
  5
1DE0A
102
{ACAD_REACTORS
330
1DE09
102
}
330
1DE09
100
AcDbXrecord
280
     1
270
     1
271
     1
  0
XRECORD
  5
1DE0E
102
{ACAD_REACTORS
330
1DE09
102
}
330
1DE09
100
AcDbXrecord
280
     1
270
     1
271
     1
  0
XRECORD
  5
1DE0D
102
{ACAD_REACTORS
330
1DE09
102
}
330
1DE09
100
AcDbXrecord
280
     1
270
     1
271
     1
  0
XRECORD
  5
1DE0F
102
{ACAD_REACTORS
330
1DE09
102
}
330
1DE09
100
AcDbXrecord
280
     1
270
     1
271
     1
  0
XRECORD
  5
1DE0C
102
{ACAD_REACTORS
330
1DE09
102
}
330
1DE09
100
AcDbXrecord
280
     1
270
     1
271
     1
  0
XRECORD
  5
1DE79
102
{ACAD_REACTORS
330
1DE19
102
}
330
1DE19
100
AcDbXrecord
280
     1
102
MATERIAL
148
0.0
149
0.0
149
0.0
 93
        0
 94
      127
282
     0
 72
     0
 77
     0
171
     0
175
     0
179
     0
273
     0
  0
XRECORD
  5
1DE1B
102
{ACAD_REACTORS
330
1DE19
102
}
330
1DE19
100
AcDbXrecord
280
     1
270
     1
271
     1
  0
XRECORD
  5
1DE1A
102
{ACAD_REACTORS
330
1DE19
102
}
330
1DE19
100
AcDbXrecord
280
     1
270
     1
271
     1
  0
XRECORD
  5
1DE1E
102
{ACAD_REACTORS
330
1DE19
102
}
330
1DE19
100
AcDbXrecord
280
     1
270
     1
271
     1
  0
XRECORD
  5
1DE1D
102
{ACAD_REACTORS
330
1DE19
102
}
330
1DE19
100
AcDbXrecord
280
     1
270
     1
271
     1
  0
XRECORD
  5
1DE1F
102
{ACAD_REACTORS
330
1DE19
102
}
330
1DE19
100
AcDbXrecord
280
     1
270
     1
271
     1
  0
XRECORD
  5
1DE1C
102
{ACAD_REACTORS
330
1DE19
102
}
330
1DE19
100
AcDbXrecord
280
     1
270
     1
271
     1
  0
XRECORD
  5
1DEAD
102
{ACAD_REACTORS
330
1DEAC
102
}
330
1DEAC
100
AcDbXrecord
280
     1
102
DISPLAYNAME
  1
Imperial24
102
FLAGS
 90
        0
  0
CELLSTYLEMAP
  5
1DE74
102
{ACAD_REACTORS
330
1DE73
102
}
330
1DE73
100
AcDbCellStyleMap
 90
        3
300
CELLSTYLE
  1
TABLEFORMAT_BEGIN
 90
        5
170
     1
 91
        0
 92
    32768
 62
   257
 93
        1
300
CONTENTFORMAT
  1
CONTENTFORMAT_BEGIN
 90
        0
 91
        0
 92
      512
 93
        0
300

 40
0.0
140
1.0
 94
        5
 62
     0
340
1DAB9
144
0.25
309
CONTENTFORMAT_END
171
     0
 94
        0
309
TABLEFORMAT_END
  1
CELLSTYLE_BEGIN
 90
        1
 91
        1
300
_TITLE
309
CELLSTYLE_END
300
CELLSTYLE
  1
TABLEFORMAT_BEGIN
 90
        5
170
     1
 91
        0
 92
        0
 62
   257
 93
        1
300
CONTENTFORMAT
  1
CONTENTFORMAT_BEGIN
 90
        0
 91
        0
 92
      512
 93
        0
300

 40
0.0
140
1.0
 94
        5
 62
     0
340
1DAB9
144
0.18
309
CONTENTFORMAT_END
171
     0
 94
        0
309
TABLEFORMAT_END
  1
CELLSTYLE_BEGIN
 90
        2
 91
        1
300
_HEADER
309
CELLSTYLE_END
300
CELLSTYLE
  1
TABLEFORMAT_BEGIN
 90
        5
170
     1
 91
        0
 92
        0
 62
   257
 93
        1
300
CONTENTFORMAT
  1
CONTENTFORMAT_BEGIN
 90
        0
 91
        0
 92
      512
 93
        0
300

 40
0.0
140
1.0
 94
        2
 62
     0
340
1DAB9
144
0.18
309
CONTENTFORMAT_END
171
     0
 94
        0
309
TABLEFORMAT_END
  1
CELLSTYLE_BEGIN
 90
        3
 91
        2
300
_DATA
309
CELLSTYLE_END
  0
XRECORD
  5
1DEAA
102
{ACAD_REACTORS
330
1DE73
102
}
330
1DE73
100
AcDbXrecord
280
     1
102
ACAD_ROUNDTRIP_PRE2007_TABLESTYLE
 90
      512
 91
        0
  1

 92
      512
 93
        0
  2

 94
      512
 95
        0
  3

  0
XRECORD
  5
1DE85
102
{ACAD_REACTORS
330
1DE84
102
}
330
1DE84
100
AcDbXrecord
280
     1
102
RTVSPost2010Prop28
280
     1
102
RTVSPost2010PropOp28
 70
     1
102
RTVSPost2010Prop29
280
     1
102
RTVSPost2010PropOp29
 70
     1
102
RTVSPost2010Prop30
280
     0
102
RTVSPost2010PropOp30
 70
     1
102
RTVSPost2010Prop31
280
     0
102
RTVSPost2010PropOp31
 70
     1
102
RTVSPost2010Prop32
280
     0
102
RTVSPost2010PropOp32
 70
     1
102
RTVSPost2010Prop33
280
     0
102
RTVSPost2010PropOp33
 70
     1
102
RTVSPost2010Prop34
280
     0
102
RTVSPost2010PropOp34
 70
     1
102
RTVSPost2010Prop35
280
     0
102
RTVSPost2010PropOp35
 70
     1
102
RTVSPost2010Prop36
280
     0
102
RTVSPost2010PropOp36
 70
     1
102
RTVSPost2010Prop37
 90
       50
102
RTVSPost2010PropOp37
 70
     1
102
RTVSPost2010Prop38
140
0.0
102
RTVSPost2010PropOp38
 70
     1
102
RTVSPost2010Prop39
140
1.0
102
RTVSPost2010PropOp39
 70
     1
102
RTVSPost2010Prop40
 90
        0
102
RTVSPost2010PropOp40
 70
     1
102
RTVSPost2010Prop41ColorIndex
 90
       18
102
RTVSPost2010Prop41ColorRGB
 90
        0
102
RTVSPost2010PropOp41
 70
     1
102
RTVSPost2010Prop42
 90
       50
102
RTVSPost2010PropOp42
 70
     1
102
RTVSPost2010Prop43
 90
        3
102
RTVSPost2010PropOp43
 70
     1
102
RTVSPost2010Prop44ColorIndex
 90
        5
102
RTVSPost2010Prop44ColorRGB
 90
      255
102
RTVSPost2010PropOp44
 70
     1
102
RTVSPost2010Prop45
280
     0
102
RTVSPost2010PropOp45
 70
     1
102
RTVSPost2010Prop46
 90
       50
102
RTVSPost2010PropOp46
 70
     1
102
RTVSPost2010Prop47
 90
       50
102
RTVSPost2010PropOp47
 70
     1
102
RTVSPost2010Prop48
 90
       50
102
RTVSPost2010PropOp48
 70
     1
102
RTVSPost2010Prop49
280
     0
102
RTVSPost2010PropOp49
 70
     1
102
RTVSPost2010Prop50
 90
       50
102
RTVSPost2010PropOp50
 70
     1
102
RTVSPost2010Prop51ColorIndex
 90
      256
102
RTVSPost2010Prop51ColorRGB
 90
-16777216
102
RTVSPost2010PropOp51
 70
     0
102
RTVSPost2010Prop52
140
1.0
102
RTVSPost2010PropOp52
 70
     0
102
RTVSPost2010Prop53
 90
        2
102
RTVSPost2010PropOp53
 70
     1
102
RTVSPost2010Prop54
  1
strokes_ogs.tif
102
RTVSPost2010PropOp54
 70
     1
102
RTVSPost2010Prop55
280
     0
102
RTVSPost2010PropOp55
 70
     1
102
RTVSPost2010Prop56
140
1.0
102
RTVSPost2010PropOp56
 70
     1
102
RTVSPost2010Prop57
140
1.0
102
RTVSPost2010PropOp57
 70
     1
102
RTVSPropertyOp0
 70
     1
102
RTVSPropertyOp1
 70
     1
102
RTVSPropertyOp2
 70
     1
102
RTVSPropertyOp3
 70
     1
102
RTVSPropertyOp4
 70
     1
102
RTVSPropertyOp5
 70
     1
102
RTVSPropertyOp6
 70
     1
102
RTVSPropertyOp7
 70
     1
102
RTVSPropertyOp8
 70
     1
102
RTVSPropertyOp9
 70
     1
102
RTVSPropertyOp10
 70
     1
102
RTVSPropertyOp11
 70
     1
102
RTVSPropertyOp12
 70
     1
102
RTVSPropertyOp13
 70
     1
102
RTVSPropertyOp14
 70
     1
102
RTVSPropertyOp15
 70
     1
102
RTVSPropertyOp16
 70
     1
102
RTVSPropertyOp17
 70
     1
102
RTVSPropertyOp18
 70
     1
102
RTVSPropertyOp19
 70
     1
102
RTVSPropertyOp20
 70
     1
102
RTVSPropertyOp21
 70
     1
102
RTVSPropertyOp22
 70
     1
102
RTVSPropertyOp23
 70
     1
102
RTVSPropertyOp24
 70
     1
102
RTVSPropertyOp25
 70
     1
102
RTVSPropertyOp26
 70
     1
102
RTVSPropertyOp27
 70
     1
102
RTVSPropertyOp28
 70
     1
102
RTVSPropertyOp29
 70
     1
102
RTVSPropertyOp30
 70
     1
102
RTVSPropertyOp31
 70
     1
102
RTVSPropertyOp32
 70
     1
102
RTVSPropertyOp33
 70
     1
102
RTVSPropertyOp34
 70
     1
102
RTVSPropertyOp35
 70
     1
102
RTVSPropertyOp36
 70
     1
102
RTVSPropertyOp37
 70
     1
102
RTVSPropertyOp38
 70
     1
102
RTVSPropertyOp39
 70
     1
102
RTVSPropertyOp40
 70
     1
102
RTVSPropertyOp41
 70
     1
102
RTVSPropertyOp42
 70
     1
102
RTVSPropertyOp43
 70
     1
102
RTVSPropertyOp44
 70
     1
102
RTVSPropertyOp45
 70
     1
102
RTVSPropertyOp46
 70
     1
102
RTVSPropertyOp47
 70
     1
102
RTVSPropertyOp48
 70
     1
102
RTVSPropertyOp49
 70
     1
102
RTVSPropertyOp50
 70
     1
102
RTVSPropertyOp51
 70
     0
102
RTVSPropertyOp52
 70
     0
102
RTVSPropertyOp53
 70
     1
102
RTVSPropertyOp54
 70
     1
102
RTVSPropertyOp55
 70
     1
102
RTVSPropertyOp56
 70
     1
102
RTVSPropertyOp57
 70
     1
102
RTVSPropertyOp58
 70
     1
102
RTVSPropertyOp59
 70
     1
102
RTVSPropertyOp60
 70
     1
102
RTVSPropertyOp61
 70
     1
102
RTVSPropertyOp62
 70
     1
  0
XRECORD
  5
1DE83
102
{ACAD_REACTORS
330
1DE82
102
}
330
1DE82
100
AcDbXrecord
280
     1
102
RTVSPost2010Prop28
280
     0
102
RTVSPost2010PropOp28
 70
     1
102
RTVSPost2010Prop29
280
     1
102
RTVSPost2010PropOp29
 70
     1
102
RTVSPost2010Prop30
280
     1
102
RTVSPost2010PropOp30
 70
     1
102
RTVSPost2010Prop31
280
     0
102
RTVSPost2010PropOp31
 70
     1
102
RTVSPost2010Prop32
280
     0
102
RTVSPost2010PropOp32
 70
     1
102
RTVSPost2010Prop33
280
     0
102
RTVSPost2010PropOp33
 70
     1
102
RTVSPost2010Prop34
280
     0
102
RTVSPost2010PropOp34
 70
     1
102
RTVSPost2010Prop35
280
     0
102
RTVSPost2010PropOp35
 70
     1
102
RTVSPost2010Prop36
280
     0
102
RTVSPost2010PropOp36
 70
     1
102
RTVSPost2010Prop37
 90
       50
102
RTVSPost2010PropOp37
 70
     1
102
RTVSPost2010Prop38
140
0.0
102
RTVSPost2010PropOp38
 70
     1
102
RTVSPost2010Prop39
140
1.0
102
RTVSPost2010PropOp39
 70
     1
102
RTVSPost2010Prop40
 90
        0
102
RTVSPost2010PropOp40
 70
     1
102
RTVSPost2010Prop41ColorIndex
 90
       18
102
RTVSPost2010Prop41ColorRGB
 90
        0
102
RTVSPost2010PropOp41
 70
     1
102
RTVSPost2010Prop42
 90
       50
102
RTVSPost2010PropOp42
 70
     1
102
RTVSPost2010Prop43
 90
        3
102
RTVSPost2010PropOp43
 70
     1
102
RTVSPost2010Prop44ColorIndex
 90
        5
102
RTVSPost2010Prop44ColorRGB
 90
      255
102
RTVSPost2010PropOp44
 70
     1
102
RTVSPost2010Prop45
280
     0
102
RTVSPost2010PropOp45
 70
     1
102
RTVSPost2010Prop46
 90
       50
102
RTVSPost2010PropOp46
 70
     1
102
RTVSPost2010Prop47
 90
       50
102
RTVSPost2010PropOp47
 70
     1
102
RTVSPost2010Prop48
 90
       50
102
RTVSPost2010PropOp48
 70
     1
102
RTVSPost2010Prop49
280
     0
102
RTVSPost2010PropOp49
 70
     1
102
RTVSPost2010Prop50
 90
       50
102
RTVSPost2010PropOp50
 70
     1
102
RTVSPost2010Prop51ColorIndex
 90
      256
102
RTVSPost2010Prop51ColorRGB
 90
-16777216
102
RTVSPost2010PropOp51
 70
     0
102
RTVSPost2010Prop52
140
1.0
102
RTVSPost2010PropOp52
 70
     0
102
RTVSPost2010Prop53
 90
        2
102
RTVSPost2010PropOp53
 70
     1
102
RTVSPost2010Prop54
  1
strokes_ogs.tif
102
RTVSPost2010PropOp54
 70
     1
102
RTVSPost2010Prop55
280
     0
102
RTVSPost2010PropOp55
 70
     1
102
RTVSPost2010Prop56
140
1.0
102
RTVSPost2010PropOp56
 70
     1
102
RTVSPost2010Prop57
140
1.0
102
RTVSPost2010PropOp57
 70
     1
102
RTVSPropertyOp0
 70
     1
102
RTVSPropertyOp1
 70
     1
102
RTVSPropertyOp2
 70
     1
102
RTVSPropertyOp3
 70
     1
102
RTVSPropertyOp4
 70
     1
102
RTVSPropertyOp5
 70
     1
102
RTVSPropertyOp6
 70
     1
102
RTVSPropertyOp7
 70
     1
102
RTVSPropertyOp8
 70
     1
102
RTVSPropertyOp9
 70
     1
102
RTVSPropertyOp10
 70
     1
102
RTVSPropertyOp11
 70
     1
102
RTVSPropertyOp12
 70
     1
102
RTVSPropertyOp13
 70
     1
102
RTVSPropertyOp14
 70
     1
102
RTVSPropertyOp15
 70
     1
102
RTVSPropertyOp16
 70
     1
102
RTVSPropertyOp17
 70
     1
102
RTVSPropertyOp18
 70
     1
102
RTVSPropertyOp19
 70
     1
102
RTVSPropertyOp20
 70
     1
102
RTVSPropertyOp21
 70
     1
102
RTVSPropertyOp22
 70
     1
102
RTVSPropertyOp23
 70
     1
102
RTVSPropertyOp24
 70
     1
102
RTVSPropertyOp25
 70
     1
102
RTVSPropertyOp26
 70
     1
102
RTVSPropertyOp27
 70
     1
102
RTVSPropertyOp28
 70
     1
102
RTVSPropertyOp29
 70
     1
102
RTVSPropertyOp30
 70
     1
102
RTVSPropertyOp31
 70
     1
102
RTVSPropertyOp32
 70
     1
102
RTVSPropertyOp33
 70
     1
102
RTVSPropertyOp34
 70
     1
102
RTVSPropertyOp35
 70
     1
102
RTVSPropertyOp36
 70
     1
102
RTVSPropertyOp37
 70
     1
102
RTVSPropertyOp38
 70
     1
102
RTVSPropertyOp39
 70
     1
102
RTVSPropertyOp40
 70
     1
102
RTVSPropertyOp41
 70
     1
102
RTVSPropertyOp42
 70
     1
102
RTVSPropertyOp43
 70
     1
102
RTVSPropertyOp44
 70
     1
102
RTVSPropertyOp45
 70
     1
102
RTVSPropertyOp46
 70
     1
102
RTVSPropertyOp47
 70
     1
102
RTVSPropertyOp48
 70
     1
102
RTVSPropertyOp49
 70
     1
102
RTVSPropertyOp50
 70
     1
102
RTVSPropertyOp51
 70
     0
102
RTVSPropertyOp52
 70
     0
102
RTVSPropertyOp53
 70
     1
102
RTVSPropertyOp54
 70
     1
102
RTVSPropertyOp55
 70
     1
102
RTVSPropertyOp56
 70
     1
102
RTVSPropertyOp57
 70
     1
102
RTVSPropertyOp58
 70
     1
102
RTVSPropertyOp59
 70
     1
102
RTVSPropertyOp60
 70
     1
102
RTVSPropertyOp61
 70
     1
102
RTVSPropertyOp62
 70
     1
  0
XRECORD
  5
1DE91
102
{ACAD_REACTORS
330
1DE90
102
}
330
1DE90
100
AcDbXrecord
280
     1
102
RTVSPost2010Prop28
280
     0
102
RTVSPost2010PropOp28
 70
     1
102
RTVSPost2010Prop29
280
     1
102
RTVSPost2010PropOp29
 70
     1
102
RTVSPost2010Prop30
280
     1
102
RTVSPost2010PropOp30
 70
     1
102
RTVSPost2010Prop31
280
     0
102
RTVSPost2010PropOp31
 70
     1
102
RTVSPost2010Prop32
280
     0
102
RTVSPost2010PropOp32
 70
     1
102
RTVSPost2010Prop33
280
     0
102
RTVSPost2010PropOp33
 70
     1
102
RTVSPost2010Prop34
280
     0
102
RTVSPost2010PropOp34
 70
     1
102
RTVSPost2010Prop35
280
     0
102
RTVSPost2010PropOp35
 70
     1
102
RTVSPost2010Prop36
280
     0
102
RTVSPost2010PropOp36
 70
     1
102
RTVSPost2010Prop37
 90
       50
102
RTVSPost2010PropOp37
 70
     1
102
RTVSPost2010Prop38
140
0.0
102
RTVSPost2010PropOp38
 70
     1
102
RTVSPost2010Prop39
140
1.0
102
RTVSPost2010PropOp39
 70
     1
102
RTVSPost2010Prop40
 90
        0
102
RTVSPost2010PropOp40
 70
     1
102
RTVSPost2010Prop41ColorIndex
 90
       18
102
RTVSPost2010Prop41ColorRGB
 90
        0
102
RTVSPost2010PropOp41
 70
     1
102
RTVSPost2010Prop42
 90
       50
102
RTVSPost2010PropOp42
 70
     1
102
RTVSPost2010Prop43
 90
        3
102
RTVSPost2010PropOp43
 70
     1
102
RTVSPost2010Prop44ColorIndex
 90
        5
102
RTVSPost2010Prop44ColorRGB
 90
      255
102
RTVSPost2010PropOp44
 70
     1
102
RTVSPost2010Prop45
280
     0
102
RTVSPost2010PropOp45
 70
     1
102
RTVSPost2010Prop46
 90
       50
102
RTVSPost2010PropOp46
 70
     1
102
RTVSPost2010Prop47
 90
       50
102
RTVSPost2010PropOp47
 70
     1
102
RTVSPost2010Prop48
 90
       50
102
RTVSPost2010PropOp48
 70
     1
102
RTVSPost2010Prop49
280
     0
102
RTVSPost2010PropOp49
 70
     1
102
RTVSPost2010Prop50
 90
       50
102
RTVSPost2010PropOp50
 70
     1
102
RTVSPost2010Prop51ColorIndex
 90
      256
102
RTVSPost2010Prop51ColorRGB
 90
-16777216
102
RTVSPost2010PropOp51
 70
     0
102
RTVSPost2010Prop52
140
1.0
102
RTVSPost2010PropOp52
 70
     0
102
RTVSPost2010Prop53
 90
        2
102
RTVSPost2010PropOp53
 70
     1
102
RTVSPost2010Prop54
  1
strokes_ogs.tif
102
RTVSPost2010PropOp54
 70
     1
102
RTVSPost2010Prop55
280
     0
102
RTVSPost2010PropOp55
 70
     1
102
RTVSPost2010Prop56
140
1.0
102
RTVSPost2010PropOp56
 70
     1
102
RTVSPost2010Prop57
140
1.0
102
RTVSPost2010PropOp57
 70
     1
102
RTVSPropertyOp0
 70
     1
102
RTVSPropertyOp1
 70
     1
102
RTVSPropertyOp2
 70
     1
102
RTVSPropertyOp3
 70
     1
102
RTVSPropertyOp4
 70
     1
102
RTVSPropertyOp5
 70
     1
102
RTVSPropertyOp6
 70
     1
102
RTVSPropertyOp7
 70
     1
102
RTVSPropertyOp8
 70
     1
102
RTVSPropertyOp9
 70
     1
102
RTVSPropertyOp10
 70
     1
102
RTVSPropertyOp11
 70
     1
102
RTVSPropertyOp12
 70
     1
102
RTVSPropertyOp13
 70
     1
102
RTVSPropertyOp14
 70
     1
102
RTVSPropertyOp15
 70
     1
102
RTVSPropertyOp16
 70
     1
102
RTVSPropertyOp17
 70
     1
102
RTVSPropertyOp18
 70
     1
102
RTVSPropertyOp19
 70
     1
102
RTVSPropertyOp20
 70
     1
102
RTVSPropertyOp21
 70
     1
102
RTVSPropertyOp22
 70
     1
102
RTVSPropertyOp23
 70
     1
102
RTVSPropertyOp24
 70
     1
102
RTVSPropertyOp25
 70
     1
102
RTVSPropertyOp26
 70
     1
102
RTVSPropertyOp27
 70
     1
102
RTVSPropertyOp28
 70
     1
102
RTVSPropertyOp29
 70
     1
102
RTVSPropertyOp30
 70
     1
102
RTVSPropertyOp31
 70
     1
102
RTVSPropertyOp32
 70
     1
102
RTVSPropertyOp33
 70
     1
102
RTVSPropertyOp34
 70
     1
102
RTVSPropertyOp35
 70
     1
102
RTVSPropertyOp36
 70
     1
102
RTVSPropertyOp37
 70
     1
102
RTVSPropertyOp38
 70
     1
102
RTVSPropertyOp39
 70
     1
102
RTVSPropertyOp40
 70
     1
102
RTVSPropertyOp41
 70
     1
102
RTVSPropertyOp42
 70
     1
102
RTVSPropertyOp43
 70
     1
102
RTVSPropertyOp44
 70
     1
102
RTVSPropertyOp45
 70
     1
102
RTVSPropertyOp46
 70
     1
102
RTVSPropertyOp47
 70
     1
102
RTVSPropertyOp48
 70
     1
102
RTVSPropertyOp49
 70
     1
102
RTVSPropertyOp50
 70
     1
102
RTVSPropertyOp51
 70
     0
102
RTVSPropertyOp52
 70
     0
102
RTVSPropertyOp53
 70
     1
102
RTVSPropertyOp54
 70
     1
102
RTVSPropertyOp55
 70
     1
102
RTVSPropertyOp56
 70
     1
102
RTVSPropertyOp57
 70
     1
102
RTVSPropertyOp58
 70
     1
102
RTVSPropertyOp59
 70
     1
102
RTVSPropertyOp60
 70
     1
102
RTVSPropertyOp61
 70
     1
102
RTVSPropertyOp62
 70
     1
  0
XRECORD
  5
1DE99
102
{ACAD_REACTORS
330
1DE98
102
}
330
1DE98
100
AcDbXrecord
280
     1
102
RTVSPost2010Prop28
280
     0
102
RTVSPost2010PropOp28
 70
     1
102
RTVSPost2010Prop29
280
     1
102
RTVSPost2010PropOp29
 70
     1
102
RTVSPost2010Prop30
280
     1
102
RTVSPost2010PropOp30
 70
     1
102
RTVSPost2010Prop31
280
     0
102
RTVSPost2010PropOp31
 70
     1
102
RTVSPost2010Prop32
280
     0
102
RTVSPost2010PropOp32
 70
     1
102
RTVSPost2010Prop33
280
     0
102
RTVSPost2010PropOp33
 70
     1
102
RTVSPost2010Prop34
280
     0
102
RTVSPost2010PropOp34
 70
     1
102
RTVSPost2010Prop35
280
     0
102
RTVSPost2010PropOp35
 70
     1
102
RTVSPost2010Prop36
280
     0
102
RTVSPost2010PropOp36
 70
     1
102
RTVSPost2010Prop37
 90
       50
102
RTVSPost2010PropOp37
 70
     1
102
RTVSPost2010Prop38
140
0.0
102
RTVSPost2010PropOp38
 70
     1
102
RTVSPost2010Prop39
140
1.0
102
RTVSPost2010PropOp39
 70
     1
102
RTVSPost2010Prop40
 90
        0
102
RTVSPost2010PropOp40
 70
     1
102
RTVSPost2010Prop41ColorIndex
 90
       18
102
RTVSPost2010Prop41ColorRGB
 90
        0
102
RTVSPost2010PropOp41
 70
     1
102
RTVSPost2010Prop42
 90
       50
102
RTVSPost2010PropOp42
 70
     1
102
RTVSPost2010Prop43
 90
        3
102
RTVSPost2010PropOp43
 70
     1
102
RTVSPost2010Prop44ColorIndex
 90
        5
102
RTVSPost2010Prop44ColorRGB
 90
      255
102
RTVSPost2010PropOp44
 70
     1
102
RTVSPost2010Prop45
280
     0
102
RTVSPost2010PropOp45
 70
     1
102
RTVSPost2010Prop46
 90
       50
102
RTVSPost2010PropOp46
 70
     1
102
RTVSPost2010Prop47
 90
       50
102
RTVSPost2010PropOp47
 70
     1
102
RTVSPost2010Prop48
 90
       50
102
RTVSPost2010PropOp48
 70
     1
102
RTVSPost2010Prop49
280
     0
102
RTVSPost2010PropOp49
 70
     1
102
RTVSPost2010Prop50
 90
       50
102
RTVSPost2010PropOp50
 70
     1
102
RTVSPost2010Prop51ColorIndex
 90
      256
102
RTVSPost2010Prop51ColorRGB
 90
-16777216
102
RTVSPost2010PropOp51
 70
     0
102
RTVSPost2010Prop52
140
1.0
102
RTVSPost2010PropOp52
 70
     0
102
RTVSPost2010Prop53
 90
        2
102
RTVSPost2010PropOp53
 70
     1
102
RTVSPost2010Prop54
  1
strokes_ogs.tif
102
RTVSPost2010PropOp54
 70
     1
102
RTVSPost2010Prop55
280
     0
102
RTVSPost2010PropOp55
 70
     1
102
RTVSPost2010Prop56
140
1.0
102
RTVSPost2010PropOp56
 70
     1
102
RTVSPost2010Prop57
140
1.0
102
RTVSPost2010PropOp57
 70
     1
102
RTVSPropertyOp0
 70
     1
102
RTVSPropertyOp1
 70
     1
102
RTVSPropertyOp2
 70
     1
102
RTVSPropertyOp3
 70
     1
102
RTVSPropertyOp4
 70
     1
102
RTVSPropertyOp5
 70
     1
102
RTVSPropertyOp6
 70
     1
102
RTVSPropertyOp7
 70
     1
102
RTVSPropertyOp8
 70
     1
102
RTVSPropertyOp9
 70
     1
102
RTVSPropertyOp10
 70
     1
102
RTVSPropertyOp11
 70
     1
102
RTVSPropertyOp12
 70
     1
102
RTVSPropertyOp13
 70
     1
102
RTVSPropertyOp14
 70
     1
102
RTVSPropertyOp15
 70
     1
102
RTVSPropertyOp16
 70
     1
102
RTVSPropertyOp17
 70
     1
102
RTVSPropertyOp18
 70
     1
102
RTVSPropertyOp19
 70
     1
102
RTVSPropertyOp20
 70
     1
102
RTVSPropertyOp21
 70
     1
102
RTVSPropertyOp22
 70
     1
102
RTVSPropertyOp23
 70
     1
102
RTVSPropertyOp24
 70
     1
102
RTVSPropertyOp25
 70
     1
102
RTVSPropertyOp26
 70
     1
102
RTVSPropertyOp27
 70
     1
102
RTVSPropertyOp28
 70
     1
102
RTVSPropertyOp29
 70
     1
102
RTVSPropertyOp30
 70
     1
102
RTVSPropertyOp31
 70
     1
102
RTVSPropertyOp32
 70
     1
102
RTVSPropertyOp33
 70
     1
102
RTVSPropertyOp34
 70
     1
102
RTVSPropertyOp35
 70
     1
102
RTVSPropertyOp36
 70
     1
102
RTVSPropertyOp37
 70
     1
102
RTVSPropertyOp38
 70
     1
102
RTVSPropertyOp39
 70
     1
102
RTVSPropertyOp40
 70
     1
102
RTVSPropertyOp41
 70
     1
102
RTVSPropertyOp42
 70
     1
102
RTVSPropertyOp43
 70
     1
102
RTVSPropertyOp44
 70
     1
102
RTVSPropertyOp45
 70
     1
102
RTVSPropertyOp46
 70
     1
102
RTVSPropertyOp47
 70
     1
102
RTVSPropertyOp48
 70
     1
102
RTVSPropertyOp49
 70
     1
102
RTVSPropertyOp50
 70
     1
102
RTVSPropertyOp51
 70
     0
102
RTVSPropertyOp52
 70
     0
102
RTVSPropertyOp53
 70
     1
102
RTVSPropertyOp54
 70
     1
102
RTVSPropertyOp55
 70
     1
102
RTVSPropertyOp56
 70
     1
102
RTVSPropertyOp57
 70
     1
102
RTVSPropertyOp58
 70
     1
102
RTVSPropertyOp59
 70
     1
102
RTVSPropertyOp60
 70
     1
102
RTVSPropertyOp61
 70
     1
102
RTVSPropertyOp62
 70
     1
  0
XRECORD
  5
1DE8B
102
{ACAD_REACTORS
330
1DE8A
102
}
330
1DE8A
100
AcDbXrecord
280
     1
102
RTVSPost2010Prop28
280
     0
102
RTVSPost2010PropOp28
 70
     1
102
RTVSPost2010Prop29
280
     1
102
RTVSPost2010PropOp29
 70
     1
102
RTVSPost2010Prop30
280
     1
102
RTVSPost2010PropOp30
 70
     1
102
RTVSPost2010Prop31
280
     0
102
RTVSPost2010PropOp31
 70
     1
102
RTVSPost2010Prop32
280
     0
102
RTVSPost2010PropOp32
 70
     1
102
RTVSPost2010Prop33
280
     0
102
RTVSPost2010PropOp33
 70
     1
102
RTVSPost2010Prop34
280
     0
102
RTVSPost2010PropOp34
 70
     1
102
RTVSPost2010Prop35
280
     0
102
RTVSPost2010PropOp35
 70
     1
102
RTVSPost2010Prop36
280
     0
102
RTVSPost2010PropOp36
 70
     1
102
RTVSPost2010Prop37
 90
       50
102
RTVSPost2010PropOp37
 70
     1
102
RTVSPost2010Prop38
140
0.0
102
RTVSPost2010PropOp38
 70
     1
102
RTVSPost2010Prop39
140
1.0
102
RTVSPost2010PropOp39
 70
     1
102
RTVSPost2010Prop40
 90
        0
102
RTVSPost2010PropOp40
 70
     1
102
RTVSPost2010Prop41ColorIndex
 90
       18
102
RTVSPost2010Prop41ColorRGB
 90
        0
102
RTVSPost2010PropOp41
 70
     1
102
RTVSPost2010Prop42
 90
       50
102
RTVSPost2010PropOp42
 70
     1
102
RTVSPost2010Prop43
 90
        3
102
RTVSPost2010PropOp43
 70
     1
102
RTVSPost2010Prop44ColorIndex
 90
        5
102
RTVSPost2010Prop44ColorRGB
 90
      255
102
RTVSPost2010PropOp44
 70
     1
102
RTVSPost2010Prop45
280
     0
102
RTVSPost2010PropOp45
 70
     1
102
RTVSPost2010Prop46
 90
       50
102
RTVSPost2010PropOp46
 70
     1
102
RTVSPost2010Prop47
 90
       50
102
RTVSPost2010PropOp47
 70
     1
102
RTVSPost2010Prop48
 90
       50
102
RTVSPost2010PropOp48
 70
     1
102
RTVSPost2010Prop49
280
     0
102
RTVSPost2010PropOp49
 70
     1
102
RTVSPost2010Prop50
 90
       50
102
RTVSPost2010PropOp50
 70
     1
102
RTVSPost2010Prop51ColorIndex
 90
      256
102
RTVSPost2010Prop51ColorRGB
 90
-16777216
102
RTVSPost2010PropOp51
 70
     0
102
RTVSPost2010Prop52
140
1.0
102
RTVSPost2010PropOp52
 70
     0
102
RTVSPost2010Prop53
 90
        2
102
RTVSPost2010PropOp53
 70
     1
102
RTVSPost2010Prop54
  1
strokes_ogs.tif
102
RTVSPost2010PropOp54
 70
     1
102
RTVSPost2010Prop55
280
     0
102
RTVSPost2010PropOp55
 70
     1
102
RTVSPost2010Prop56
140
1.0
102
RTVSPost2010PropOp56
 70
     1
102
RTVSPost2010Prop57
140
1.0
102
RTVSPost2010PropOp57
 70
     1
102
RTVSPropertyOp0
 70
     1
102
RTVSPropertyOp1
 70
     1
102
RTVSPropertyOp2
 70
     1
102
RTVSPropertyOp3
 70
     1
102
RTVSPropertyOp4
 70
     1
102
RTVSPropertyOp5
 70
     1
102
RTVSPropertyOp6
 70
     1
102
RTVSPropertyOp7
 70
     1
102
RTVSPropertyOp8
 70
     1
102
RTVSPropertyOp9
 70
     1
102
RTVSPropertyOp10
 70
     1
102
RTVSPropertyOp11
 70
     1
102
RTVSPropertyOp12
 70
     1
102
RTVSPropertyOp13
 70
     1
102
RTVSPropertyOp14
 70
     1
102
RTVSPropertyOp15
 70
     1
102
RTVSPropertyOp16
 70
     1
102
RTVSPropertyOp17
 70
     1
102
RTVSPropertyOp18
 70
     1
102
RTVSPropertyOp19
 70
     1
102
RTVSPropertyOp20
 70
     1
102
RTVSPropertyOp21
 70
     1
102
RTVSPropertyOp22
 70
     1
102
RTVSPropertyOp23
 70
     1
102
RTVSPropertyOp24
 70
     1
102
RTVSPropertyOp25
 70
     1
102
RTVSPropertyOp26
 70
     1
102
RTVSPropertyOp27
 70
     1
102
RTVSPropertyOp28
 70
     1
102
RTVSPropertyOp29
 70
     1
102
RTVSPropertyOp30
 70
     1
102
RTVSPropertyOp31
 70
     1
102
RTVSPropertyOp32
 70
     1
102
RTVSPropertyOp33
 70
     1
102
RTVSPropertyOp34
 70
     1
102
RTVSPropertyOp35
 70
     1
102
RTVSPropertyOp36
 70
     1
102
RTVSPropertyOp37
 70
     1
102
RTVSPropertyOp38
 70
     1
102
RTVSPropertyOp39
 70
     1
102
RTVSPropertyOp40
 70
     1
102
RTVSPropertyOp41
 70
     1
102
RTVSPropertyOp42
 70
     1
102
RTVSPropertyOp43
 70
     1
102
RTVSPropertyOp44
 70
     1
102
RTVSPropertyOp45
 70
     1
102
RTVSPropertyOp46
 70
     1
102
RTVSPropertyOp47
 70
     1
102
RTVSPropertyOp48
 70
     1
102
RTVSPropertyOp49
 70
     1
102
RTVSPropertyOp50
 70
     1
102
RTVSPropertyOp51
 70
     0
102
RTVSPropertyOp52
 70
     0
102
RTVSPropertyOp53
 70
     1
102
RTVSPropertyOp54
 70
     1
102
RTVSPropertyOp55
 70
     1
102
RTVSPropertyOp56
 70
     1
102
RTVSPropertyOp57
 70
     1
102
RTVSPropertyOp58
 70
     1
102
RTVSPropertyOp59
 70
     1
102
RTVSPropertyOp60
 70
     1
102
RTVSPropertyOp61
 70
     1
102
RTVSPropertyOp62
 70
     1
  0
XRECORD
  5
1DE8F
102
{ACAD_REACTORS
330
1DE8E
102
}
330
1DE8E
100
AcDbXrecord
280
     1
102
RTVSPost2010Prop28
280
     0
102
RTVSPost2010PropOp28
 70
     1
102
RTVSPost2010Prop29
280
     1
102
RTVSPost2010PropOp29
 70
     1
102
RTVSPost2010Prop30
280
     1
102
RTVSPost2010PropOp30
 70
     1
102
RTVSPost2010Prop31
280
     0
102
RTVSPost2010PropOp31
 70
     1
102
RTVSPost2010Prop32
280
     0
102
RTVSPost2010PropOp32
 70
     1
102
RTVSPost2010Prop33
280
     0
102
RTVSPost2010PropOp33
 70
     1
102
RTVSPost2010Prop34
280
     0
102
RTVSPost2010PropOp34
 70
     1
102
RTVSPost2010Prop35
280
     0
102
RTVSPost2010PropOp35
 70
     1
102
RTVSPost2010Prop36
280
     0
102
RTVSPost2010PropOp36
 70
     1
102
RTVSPost2010Prop37
 90
       50
102
RTVSPost2010PropOp37
 70
     1
102
RTVSPost2010Prop38
140
0.0
102
RTVSPost2010PropOp38
 70
     1
102
RTVSPost2010Prop39
140
1.0
102
RTVSPost2010PropOp39
 70
     1
102
RTVSPost2010Prop40
 90
        0
102
RTVSPost2010PropOp40
 70
     1
102
RTVSPost2010Prop41ColorIndex
 90
       18
102
RTVSPost2010Prop41ColorRGB
 90
        0
102
RTVSPost2010PropOp41
 70
     1
102
RTVSPost2010Prop42
 90
       50
102
RTVSPost2010PropOp42
 70
     1
102
RTVSPost2010Prop43
 90
        3
102
RTVSPost2010PropOp43
 70
     1
102
RTVSPost2010Prop44ColorIndex
 90
        5
102
RTVSPost2010Prop44ColorRGB
 90
      255
102
RTVSPost2010PropOp44
 70
     1
102
RTVSPost2010Prop45
280
     0
102
RTVSPost2010PropOp45
 70
     1
102
RTVSPost2010Prop46
 90
       50
102
RTVSPost2010PropOp46
 70
     1
102
RTVSPost2010Prop47
 90
       50
102
RTVSPost2010PropOp47
 70
     1
102
RTVSPost2010Prop48
 90
       50
102
RTVSPost2010PropOp48
 70
     1
102
RTVSPost2010Prop49
280
     0
102
RTVSPost2010PropOp49
 70
     1
102
RTVSPost2010Prop50
 90
       50
102
RTVSPost2010PropOp50
 70
     1
102
RTVSPost2010Prop51ColorIndex
 90
      256
102
RTVSPost2010Prop51ColorRGB
 90
-16777216
102
RTVSPost2010PropOp51
 70
     0
102
RTVSPost2010Prop52
140
1.0
102
RTVSPost2010PropOp52
 70
     0
102
RTVSPost2010Prop53
 90
        2
102
RTVSPost2010PropOp53
 70
     1
102
RTVSPost2010Prop54
  1
strokes_ogs.tif
102
RTVSPost2010PropOp54
 70
     1
102
RTVSPost2010Prop55
280
     0
102
RTVSPost2010PropOp55
 70
     1
102
RTVSPost2010Prop56
140
1.0
102
RTVSPost2010PropOp56
 70
     1
102
RTVSPost2010Prop57
140
1.0
102
RTVSPost2010PropOp57
 70
     1
102
RTVSPropertyOp0
 70
     1
102
RTVSPropertyOp1
 70
     1
102
RTVSPropertyOp2
 70
     1
102
RTVSPropertyOp3
 70
     1
102
RTVSPropertyOp4
 70
     1
102
RTVSPropertyOp5
 70
     1
102
RTVSPropertyOp6
 70
     1
102
RTVSPropertyOp7
 70
     1
102
RTVSPropertyOp8
 70
     1
102
RTVSPropertyOp9
 70
     1
102
RTVSPropertyOp10
 70
     1
102
RTVSPropertyOp11
 70
     1
102
RTVSPropertyOp12
 70
     1
102
RTVSPropertyOp13
 70
     1
102
RTVSPropertyOp14
 70
     1
102
RTVSPropertyOp15
 70
     1
102
RTVSPropertyOp16
 70
     1
102
RTVSPropertyOp17
 70
     1
102
RTVSPropertyOp18
 70
     1
102
RTVSPropertyOp19
 70
     1
102
RTVSPropertyOp20
 70
     1
102
RTVSPropertyOp21
 70
     1
102
RTVSPropertyOp22
 70
     1
102
RTVSPropertyOp23
 70
     1
102
RTVSPropertyOp24
 70
     1
102
RTVSPropertyOp25
 70
     1
102
RTVSPropertyOp26
 70
     1
102
RTVSPropertyOp27
 70
     1
102
RTVSPropertyOp28
 70
     1
102
RTVSPropertyOp29
 70
     1
102
RTVSPropertyOp30
 70
     1
102
RTVSPropertyOp31
 70
     1
102
RTVSPropertyOp32
 70
     1
102
RTVSPropertyOp33
 70
     1
102
RTVSPropertyOp34
 70
     1
102
RTVSPropertyOp35
 70
     1
102
RTVSPropertyOp36
 70
     1
102
RTVSPropertyOp37
 70
     1
102
RTVSPropertyOp38
 70
     1
102
RTVSPropertyOp39
 70
     1
102
RTVSPropertyOp40
 70
     1
102
RTVSPropertyOp41
 70
     1
102
RTVSPropertyOp42
 70
     1
102
RTVSPropertyOp43
 70
     1
102
RTVSPropertyOp44
 70
     1
102
RTVSPropertyOp45
 70
     1
102
RTVSPropertyOp46
 70
     1
102
RTVSPropertyOp47
 70
     1
102
RTVSPropertyOp48
 70
     1
102
RTVSPropertyOp49
 70
     1
102
RTVSPropertyOp50
 70
     1
102
RTVSPropertyOp51
 70
     0
102
RTVSPropertyOp52
 70
     0
102
RTVSPropertyOp53
 70
     1
102
RTVSPropertyOp54
 70
     1
102
RTVSPropertyOp55
 70
     1
102
RTVSPropertyOp56
 70
     1
102
RTVSPropertyOp57
 70
     1
102
RTVSPropertyOp58
 70
     1
102
RTVSPropertyOp59
 70
     1
102
RTVSPropertyOp60
 70
     1
102
RTVSPropertyOp61
 70
     1
102
RTVSPropertyOp62
 70
     1
  0
XRECORD
  5
1DEA9
102
{ACAD_REACTORS
330
1DEA8
102
}
330
1DEA8
100
AcDbXrecord
280
     1
102
RTVSPost2010Prop28
280
     0
102
RTVSPost2010PropOp28
 70
     1
102
RTVSPost2010Prop29
280
     1
102
RTVSPost2010PropOp29
 70
     1
102
RTVSPost2010Prop30
280
     1
102
RTVSPost2010PropOp30
 70
     1
102
RTVSPost2010Prop31
280
     0
102
RTVSPost2010PropOp31
 70
     1
102
RTVSPost2010Prop32
280
     0
102
RTVSPost2010PropOp32
 70
     1
102
RTVSPost2010Prop33
280
     0
102
RTVSPost2010PropOp33
 70
     1
102
RTVSPost2010Prop34
280
     0
102
RTVSPost2010PropOp34
 70
     1
102
RTVSPost2010Prop35
280
     0
102
RTVSPost2010PropOp35
 70
     1
102
RTVSPost2010Prop36
280
     0
102
RTVSPost2010PropOp36
 70
     1
102
RTVSPost2010Prop37
 90
       50
102
RTVSPost2010PropOp37
 70
     0
102
RTVSPost2010Prop38
140
0.0
102
RTVSPost2010PropOp38
 70
     0
102
RTVSPost2010Prop39
140
1.0
102
RTVSPost2010PropOp39
 70
     0
102
RTVSPost2010Prop40
 90
        0
102
RTVSPost2010PropOp40
 70
     0
102
RTVSPost2010Prop41ColorIndex
 90
       18
102
RTVSPost2010Prop41ColorRGB
 90
        0
102
RTVSPost2010PropOp41
 70
     0
102
RTVSPost2010Prop42
 90
       50
102
RTVSPost2010PropOp42
 70
     0
102
RTVSPost2010Prop43
 90
        3
102
RTVSPost2010PropOp43
 70
     0
102
RTVSPost2010Prop44ColorIndex
 90
        5
102
RTVSPost2010Prop44ColorRGB
 90
      255
102
RTVSPost2010PropOp44
 70
     0
102
RTVSPost2010Prop45
280
     0
102
RTVSPost2010PropOp45
 70
     1
102
RTVSPost2010Prop46
 90
       50
102
RTVSPost2010PropOp46
 70
     0
102
RTVSPost2010Prop47
 90
       50
102
RTVSPost2010PropOp47
 70
     0
102
RTVSPost2010Prop48
 90
       50
102
RTVSPost2010PropOp48
 70
     0
102
RTVSPost2010Prop49
280
     0
102
RTVSPost2010PropOp49
 70
     1
102
RTVSPost2010Prop50
 90
       50
102
RTVSPost2010PropOp50
 70
     0
102
RTVSPost2010Prop51ColorIndex
 90
      256
102
RTVSPost2010Prop51ColorRGB
 90
-16777216
102
RTVSPost2010PropOp51
 70
     0
102
RTVSPost2010Prop52
140
1.0
102
RTVSPost2010PropOp52
 70
     0
102
RTVSPost2010Prop53
 90
        2
102
RTVSPost2010PropOp53
 70
     0
102
RTVSPost2010Prop54
  1
strokes_ogs.tif
102
RTVSPost2010PropOp54
 70
     0
102
RTVSPost2010Prop55
280
     0
102
RTVSPost2010PropOp55
 70
     1
102
RTVSPost2010Prop56
140
1.0
102
RTVSPost2010PropOp56
 70
     0
102
RTVSPost2010Prop57
140
1.0
102
RTVSPost2010PropOp57
 70
     0
102
RTVSPropertyOp0
 70
     0
102
RTVSPropertyOp1
 70
     0
102
RTVSPropertyOp2
 70
     0
102
RTVSPropertyOp3
 70
     0
102
RTVSPropertyOp4
 70
     0
102
RTVSPropertyOp5
 70
     0
102
RTVSPropertyOp6
 70
     0
102
RTVSPropertyOp7
 70
     0
102
RTVSPropertyOp8
 70
     0
102
RTVSPropertyOp9
 70
     0
102
RTVSPropertyOp10
 70
     0
102
RTVSPropertyOp11
 70
     0
102
RTVSPropertyOp12
 70
     0
102
RTVSPropertyOp13
 70
     0
102
RTVSPropertyOp14
 70
     2
102
RTVSPropertyOp15
 70
     0
102
RTVSPropertyOp16
 70
     0
102
RTVSPropertyOp17
 70
     0
102
RTVSPropertyOp18
 70
     0
102
RTVSPropertyOp19
 70
     0
102
RTVSPropertyOp20
 70
     0
102
RTVSPropertyOp21
 70
     0
102
RTVSPropertyOp22
 70
     0
102
RTVSPropertyOp23
 70
     0
102
RTVSPropertyOp24
 70
     0
102
RTVSPropertyOp25
 70
     0
102
RTVSPropertyOp26
 70
     0
102
RTVSPropertyOp27
 70
     0
102
RTVSPropertyOp28
 70
     1
102
RTVSPropertyOp29
 70
     1
102
RTVSPropertyOp30
 70
     1
102
RTVSPropertyOp31
 70
     1
102
RTVSPropertyOp32
 70
     1
102
RTVSPropertyOp33
 70
     1
102
RTVSPropertyOp34
 70
     1
102
RTVSPropertyOp35
 70
     1
102
RTVSPropertyOp36
 70
     1
102
RTVSPropertyOp37
 70
     0
102
RTVSPropertyOp38
 70
     0
102
RTVSPropertyOp39
 70
     0
102
RTVSPropertyOp40
 70
     0
102
RTVSPropertyOp41
 70
     0
102
RTVSPropertyOp42
 70
     0
102
RTVSPropertyOp43
 70
     0
102
RTVSPropertyOp44
 70
     0
102
RTVSPropertyOp45
 70
     1
102
RTVSPropertyOp46
 70
     0
102
RTVSPropertyOp47
 70
     0
102
RTVSPropertyOp48
 70
     0
102
RTVSPropertyOp49
 70
     1
102
RTVSPropertyOp50
 70
     0
102
RTVSPropertyOp51
 70
     0
102
RTVSPropertyOp52
 70
     0
102
RTVSPropertyOp53
 70
     0
102
RTVSPropertyOp54
 70
     0
102
RTVSPropertyOp55
 70
     1
102
RTVSPropertyOp56
 70
     0
102
RTVSPropertyOp57
 70
     0
102
RTVSPropertyOp58
 70
     0
102
RTVSPropertyOp59
 70
     0
102
RTVSPropertyOp60
 70
     0
102
RTVSPropertyOp61
 70
     0
102
RTVSPropertyOp62
 70
     0
  0
XRECORD
  5
1DE97
102
{ACAD_REACTORS
330
1DE96
102
}
330
1DE96
100
AcDbXrecord
280
     1
102
RTVSPost2010Prop28
280
     0
102
RTVSPost2010PropOp28
 70
     1
102
RTVSPost2010Prop29
280
     1
102
RTVSPost2010PropOp29
 70
     1
102
RTVSPost2010Prop30
280
     1
102
RTVSPost2010PropOp30
 70
     1
102
RTVSPost2010Prop31
280
     0
102
RTVSPost2010PropOp31
 70
     1
102
RTVSPost2010Prop32
280
     0
102
RTVSPost2010PropOp32
 70
     1
102
RTVSPost2010Prop33
280
     0
102
RTVSPost2010PropOp33
 70
     1
102
RTVSPost2010Prop34
280
     0
102
RTVSPost2010PropOp34
 70
     1
102
RTVSPost2010Prop35
280
     0
102
RTVSPost2010PropOp35
 70
     1
102
RTVSPost2010Prop36
280
     0
102
RTVSPost2010PropOp36
 70
     1
102
RTVSPost2010Prop37
 90
       50
102
RTVSPost2010PropOp37
 70
     1
102
RTVSPost2010Prop38
140
0.0
102
RTVSPost2010PropOp38
 70
     1
102
RTVSPost2010Prop39
140
1.0
102
RTVSPost2010PropOp39
 70
     1
102
RTVSPost2010Prop40
 90
        0
102
RTVSPost2010PropOp40
 70
     1
102
RTVSPost2010Prop41ColorIndex
 90
       18
102
RTVSPost2010Prop41ColorRGB
 90
        0
102
RTVSPost2010PropOp41
 70
     1
102
RTVSPost2010Prop42
 90
       50
102
RTVSPost2010PropOp42
 70
     1
102
RTVSPost2010Prop43
 90
        3
102
RTVSPost2010PropOp43
 70
     1
102
RTVSPost2010Prop44ColorIndex
 90
        5
102
RTVSPost2010Prop44ColorRGB
 90
      255
102
RTVSPost2010PropOp44
 70
     1
102
RTVSPost2010Prop45
280
     0
102
RTVSPost2010PropOp45
 70
     1
102
RTVSPost2010Prop46
 90
       50
102
RTVSPost2010PropOp46
 70
     1
102
RTVSPost2010Prop47
 90
       50
102
RTVSPost2010PropOp47
 70
     1
102
RTVSPost2010Prop48
 90
       50
102
RTVSPost2010PropOp48
 70
     1
102
RTVSPost2010Prop49
280
     0
102
RTVSPost2010PropOp49
 70
     1
102
RTVSPost2010Prop50
 90
       50
102
RTVSPost2010PropOp50
 70
     1
102
RTVSPost2010Prop51ColorIndex
 90
      256
102
RTVSPost2010Prop51ColorRGB
 90
-16777216
102
RTVSPost2010PropOp51
 70
     0
102
RTVSPost2010Prop52
140
1.0
102
RTVSPost2010PropOp52
 70
     0
102
RTVSPost2010Prop53
 90
        2
102
RTVSPost2010PropOp53
 70
     1
102
RTVSPost2010Prop54
  1
strokes_ogs.tif
102
RTVSPost2010PropOp54
 70
     1
102
RTVSPost2010Prop55
280
     0
102
RTVSPost2010PropOp55
 70
     1
102
RTVSPost2010Prop56
140
1.0
102
RTVSPost2010PropOp56
 70
     1
102
RTVSPost2010Prop57
140
1.0
102
RTVSPost2010PropOp57
 70
     1
102
RTVSPropertyOp0
 70
     1
102
RTVSPropertyOp1
 70
     1
102
RTVSPropertyOp2
 70
     1
102
RTVSPropertyOp3
 70
     1
102
RTVSPropertyOp4
 70
     1
102
RTVSPropertyOp5
 70
     1
102
RTVSPropertyOp6
 70
     1
102
RTVSPropertyOp7
 70
     1
102
RTVSPropertyOp8
 70
     1
102
RTVSPropertyOp9
 70
     1
102
RTVSPropertyOp10
 70
     1
102
RTVSPropertyOp11
 70
     1
102
RTVSPropertyOp12
 70
     1
102
RTVSPropertyOp13
 70
     1
102
RTVSPropertyOp14
 70
     1
102
RTVSPropertyOp15
 70
     1
102
RTVSPropertyOp16
 70
     1
102
RTVSPropertyOp17
 70
     1
102
RTVSPropertyOp18
 70
     1
102
RTVSPropertyOp19
 70
     1
102
RTVSPropertyOp20
 70
     1
102
RTVSPropertyOp21
 70
     1
102
RTVSPropertyOp22
 70
     1
102
RTVSPropertyOp23
 70
     1
102
RTVSPropertyOp24
 70
     1
102
RTVSPropertyOp25
 70
     1
102
RTVSPropertyOp26
 70
     1
102
RTVSPropertyOp27
 70
     1
102
RTVSPropertyOp28
 70
     1
102
RTVSPropertyOp29
 70
     1
102
RTVSPropertyOp30
 70
     1
102
RTVSPropertyOp31
 70
     1
102
RTVSPropertyOp32
 70
     1
102
RTVSPropertyOp33
 70
     1
102
RTVSPropertyOp34
 70
     1
102
RTVSPropertyOp35
 70
     1
102
RTVSPropertyOp36
 70
     1
102
RTVSPropertyOp37
 70
     1
102
RTVSPropertyOp38
 70
     1
102
RTVSPropertyOp39
 70
     1
102
RTVSPropertyOp40
 70
     1
102
RTVSPropertyOp41
 70
     1
102
RTVSPropertyOp42
 70
     1
102
RTVSPropertyOp43
 70
     1
102
RTVSPropertyOp44
 70
     1
102
RTVSPropertyOp45
 70
     1
102
RTVSPropertyOp46
 70
     1
102
RTVSPropertyOp47
 70
     1
102
RTVSPropertyOp48
 70
     1
102
RTVSPropertyOp49
 70
     1
102
RTVSPropertyOp50
 70
     1
102
RTVSPropertyOp51
 70
     0
102
RTVSPropertyOp52
 70
     0
102
RTVSPropertyOp53
 70
     1
102
RTVSPropertyOp54
 70
     1
102
RTVSPropertyOp55
 70
     1
102
RTVSPropertyOp56
 70
     1
102
RTVSPropertyOp57
 70
     1
102
RTVSPropertyOp58
 70
     1
102
RTVSPropertyOp59
 70
     1
102
RTVSPropertyOp60
 70
     1
102
RTVSPropertyOp61
 70
     1
102
RTVSPropertyOp62
 70
     1
  0
XRECORD
  5
1DE7B
102
{ACAD_REACTORS
330
1DE7A
102
}
330
1DE7A
100
AcDbXrecord
280
     1
102
RTVSPost2010Prop28
280
     0
102
RTVSPost2010PropOp28
 70
     1
102
RTVSPost2010Prop29
280
     1
102
RTVSPost2010PropOp29
 70
     1
102
RTVSPost2010Prop30
280
     1
102
RTVSPost2010PropOp30
 70
     1
102
RTVSPost2010Prop31
280
     0
102
RTVSPost2010PropOp31
 70
     1
102
RTVSPost2010Prop32
280
     0
102
RTVSPost2010PropOp32
 70
     1
102
RTVSPost2010Prop33
280
     0
102
RTVSPost2010PropOp33
 70
     1
102
RTVSPost2010Prop34
280
     0
102
RTVSPost2010PropOp34
 70
     1
102
RTVSPost2010Prop35
280
     0
102
RTVSPost2010PropOp35
 70
     1
102
RTVSPost2010Prop36
280
     0
102
RTVSPost2010PropOp36
 70
     1
102
RTVSPost2010Prop37
 90
       50
102
RTVSPost2010PropOp37
 70
     1
102
RTVSPost2010Prop38
140
0.0
102
RTVSPost2010PropOp38
 70
     1
102
RTVSPost2010Prop39
140
1.0
102
RTVSPost2010PropOp39
 70
     1
102
RTVSPost2010Prop40
 90
        0
102
RTVSPost2010PropOp40
 70
     1
102
RTVSPost2010Prop41ColorIndex
 90
       18
102
RTVSPost2010Prop41ColorRGB
 90
        0
102
RTVSPost2010PropOp41
 70
     1
102
RTVSPost2010Prop42
 90
       50
102
RTVSPost2010PropOp42
 70
     1
102
RTVSPost2010Prop43
 90
        3
102
RTVSPost2010PropOp43
 70
     1
102
RTVSPost2010Prop44ColorIndex
 90
        5
102
RTVSPost2010Prop44ColorRGB
 90
      255
102
RTVSPost2010PropOp44
 70
     1
102
RTVSPost2010Prop45
280
     0
102
RTVSPost2010PropOp45
 70
     1
102
RTVSPost2010Prop46
 90
       50
102
RTVSPost2010PropOp46
 70
     1
102
RTVSPost2010Prop47
 90
       50
102
RTVSPost2010PropOp47
 70
     1
102
RTVSPost2010Prop48
 90
       50
102
RTVSPost2010PropOp48
 70
     1
102
RTVSPost2010Prop49
280
     0
102
RTVSPost2010PropOp49
 70
     1
102
RTVSPost2010Prop50
 90
       50
102
RTVSPost2010PropOp50
 70
     1
102
RTVSPost2010Prop51ColorIndex
 90
      256
102
RTVSPost2010Prop51ColorRGB
 90
-16777216
102
RTVSPost2010PropOp51
 70
     0
102
RTVSPost2010Prop52
140
1.0
102
RTVSPost2010PropOp52
 70
     0
102
RTVSPost2010Prop53
 90
        2
102
RTVSPost2010PropOp53
 70
     1
102
RTVSPost2010Prop54
  1
strokes_ogs.tif
102
RTVSPost2010PropOp54
 70
     1
102
RTVSPost2010Prop55
280
     0
102
RTVSPost2010PropOp55
 70
     1
102
RTVSPost2010Prop56
140
1.0
102
RTVSPost2010PropOp56
 70
     1
102
RTVSPost2010Prop57
140
1.0
102
RTVSPost2010PropOp57
 70
     1
102
RTVSPropertyOp0
 70
     1
102
RTVSPropertyOp1
 70
     1
102
RTVSPropertyOp2
 70
     1
102
RTVSPropertyOp3
 70
     1
102
RTVSPropertyOp4
 70
     1
102
RTVSPropertyOp5
 70
     1
102
RTVSPropertyOp6
 70
     1
102
RTVSPropertyOp7
 70
     1
102
RTVSPropertyOp8
 70
     1
102
RTVSPropertyOp9
 70
     1
102
RTVSPropertyOp10
 70
     1
102
RTVSPropertyOp11
 70
     1
102
RTVSPropertyOp12
 70
     1
102
RTVSPropertyOp13
 70
     1
102
RTVSPropertyOp14
 70
     1
102
RTVSPropertyOp15
 70
     1
102
RTVSPropertyOp16
 70
     1
102
RTVSPropertyOp17
 70
     1
102
RTVSPropertyOp18
 70
     1
102
RTVSPropertyOp19
 70
     1
102
RTVSPropertyOp20
 70
     1
102
RTVSPropertyOp21
 70
     1
102
RTVSPropertyOp22
 70
     1
102
RTVSPropertyOp23
 70
     1
102
RTVSPropertyOp24
 70
     1
102
RTVSPropertyOp25
 70
     1
102
RTVSPropertyOp26
 70
     1
102
RTVSPropertyOp27
 70
     1
102
RTVSPropertyOp28
 70
     1
102
RTVSPropertyOp29
 70
     1
102
RTVSPropertyOp30
 70
     1
102
RTVSPropertyOp31
 70
     1
102
RTVSPropertyOp32
 70
     1
102
RTVSPropertyOp33
 70
     1
102
RTVSPropertyOp34
 70
     1
102
RTVSPropertyOp35
 70
     1
102
RTVSPropertyOp36
 70
     1
102
RTVSPropertyOp37
 70
     1
102
RTVSPropertyOp38
 70
     1
102
RTVSPropertyOp39
 70
     1
102
RTVSPropertyOp40
 70
     1
102
RTVSPropertyOp41
 70
     1
102
RTVSPropertyOp42
 70
     1
102
RTVSPropertyOp43
 70
     1
102
RTVSPropertyOp44
 70
     1
102
RTVSPropertyOp45
 70
     1
102
RTVSPropertyOp46
 70
     1
102
RTVSPropertyOp47
 70
     1
102
RTVSPropertyOp48
 70
     1
102
RTVSPropertyOp49
 70
     1
102
RTVSPropertyOp50
 70
     1
102
RTVSPropertyOp51
 70
     0
102
RTVSPropertyOp52
 70
     0
102
RTVSPropertyOp53
 70
     1
102
RTVSPropertyOp54
 70
     1
102
RTVSPropertyOp55
 70
     1
102
RTVSPropertyOp56
 70
     1
102
RTVSPropertyOp57
 70
     1
102
RTVSPropertyOp58
 70
     1
102
RTVSPropertyOp59
 70
     1
102
RTVSPropertyOp60
 70
     1
102
RTVSPropertyOp61
 70
     1
102
RTVSPropertyOp62
 70
     1
  0
XRECORD
  5
1DE7D
102
{ACAD_REACTORS
330
1DE7C
102
}
330
1DE7C
100
AcDbXrecord
280
     1
102
RTVSPost2010Prop28
280
     0
102
RTVSPost2010PropOp28
 70
     1
102
RTVSPost2010Prop29
280
     1
102
RTVSPost2010PropOp29
 70
     1
102
RTVSPost2010Prop30
280
     1
102
RTVSPost2010PropOp30
 70
     1
102
RTVSPost2010Prop31
280
     0
102
RTVSPost2010PropOp31
 70
     1
102
RTVSPost2010Prop32
280
     0
102
RTVSPost2010PropOp32
 70
     1
102
RTVSPost2010Prop33
280
     0
102
RTVSPost2010PropOp33
 70
     1
102
RTVSPost2010Prop34
280
     0
102
RTVSPost2010PropOp34
 70
     1
102
RTVSPost2010Prop35
280
     0
102
RTVSPost2010PropOp35
 70
     1
102
RTVSPost2010Prop36
280
     0
102
RTVSPost2010PropOp36
 70
     1
102
RTVSPost2010Prop37
 90
       50
102
RTVSPost2010PropOp37
 70
     1
102
RTVSPost2010Prop38
140
0.0
102
RTVSPost2010PropOp38
 70
     1
102
RTVSPost2010Prop39
140
1.0
102
RTVSPost2010PropOp39
 70
     1
102
RTVSPost2010Prop40
 90
        0
102
RTVSPost2010PropOp40
 70
     1
102
RTVSPost2010Prop41ColorIndex
 90
       18
102
RTVSPost2010Prop41ColorRGB
 90
        0
102
RTVSPost2010PropOp41
 70
     1
102
RTVSPost2010Prop42
 90
       50
102
RTVSPost2010PropOp42
 70
     1
102
RTVSPost2010Prop43
 90
        3
102
RTVSPost2010PropOp43
 70
     1
102
RTVSPost2010Prop44ColorIndex
 90
        5
102
RTVSPost2010Prop44ColorRGB
 90
      255
102
RTVSPost2010PropOp44
 70
     1
102
RTVSPost2010Prop45
280
     0
102
RTVSPost2010PropOp45
 70
     1
102
RTVSPost2010Prop46
 90
       50
102
RTVSPost2010PropOp46
 70
     1
102
RTVSPost2010Prop47
 90
       50
102
RTVSPost2010PropOp47
 70
     1
102
RTVSPost2010Prop48
 90
       50
102
RTVSPost2010PropOp48
 70
     1
102
RTVSPost2010Prop49
280
     0
102
RTVSPost2010PropOp49
 70
     1
102
RTVSPost2010Prop50
 90
       50
102
RTVSPost2010PropOp50
 70
     1
102
RTVSPost2010Prop51ColorIndex
 90
      256
102
RTVSPost2010Prop51ColorRGB
 90
-16777216
102
RTVSPost2010PropOp51
 70
     0
102
RTVSPost2010Prop52
140
1.0
102
RTVSPost2010PropOp52
 70
     0
102
RTVSPost2010Prop53
 90
        2
102
RTVSPost2010PropOp53
 70
     1
102
RTVSPost2010Prop54
  1
strokes_ogs.tif
102
RTVSPost2010PropOp54
 70
     1
102
RTVSPost2010Prop55
280
     0
102
RTVSPost2010PropOp55
 70
     1
102
RTVSPost2010Prop56
140
1.0
102
RTVSPost2010PropOp56
 70
     1
102
RTVSPost2010Prop57
140
1.0
102
RTVSPost2010PropOp57
 70
     1
102
RTVSPropertyOp0
 70
     1
102
RTVSPropertyOp1
 70
     1
102
RTVSPropertyOp2
 70
     1
102
RTVSPropertyOp3
 70
     1
102
RTVSPropertyOp4
 70
     1
102
RTVSPropertyOp5
 70
     1
102
RTVSPropertyOp6
 70
     1
102
RTVSPropertyOp7
 70
     1
102
RTVSPropertyOp8
 70
     1
102
RTVSPropertyOp9
 70
     1
102
RTVSPropertyOp10
 70
     1
102
RTVSPropertyOp11
 70
     1
102
RTVSPropertyOp12
 70
     1
102
RTVSPropertyOp13
 70
     1
102
RTVSPropertyOp14
 70
     1
102
RTVSPropertyOp15
 70
     1
102
RTVSPropertyOp16
 70
     1
102
RTVSPropertyOp17
 70
     1
102
RTVSPropertyOp18
 70
     1
102
RTVSPropertyOp19
 70
     1
102
RTVSPropertyOp20
 70
     1
102
RTVSPropertyOp21
 70
     1
102
RTVSPropertyOp22
 70
     1
102
RTVSPropertyOp23
 70
     1
102
RTVSPropertyOp24
 70
     1
102
RTVSPropertyOp25
 70
     1
102
RTVSPropertyOp26
 70
     1
102
RTVSPropertyOp27
 70
     1
102
RTVSPropertyOp28
 70
     1
102
RTVSPropertyOp29
 70
     1
102
RTVSPropertyOp30
 70
     1
102
RTVSPropertyOp31
 70
     1
102
RTVSPropertyOp32
 70
     1
102
RTVSPropertyOp33
 70
     1
102
RTVSPropertyOp34
 70
     1
102
RTVSPropertyOp35
 70
     1
102
RTVSPropertyOp36
 70
     1
102
RTVSPropertyOp37
 70
     1
102
RTVSPropertyOp38
 70
     1
102
RTVSPropertyOp39
 70
     1
102
RTVSPropertyOp40
 70
     1
102
RTVSPropertyOp41
 70
     1
102
RTVSPropertyOp42
 70
     1
102
RTVSPropertyOp43
 70
     1
102
RTVSPropertyOp44
 70
     1
102
RTVSPropertyOp45
 70
     1
102
RTVSPropertyOp46
 70
     1
102
RTVSPropertyOp47
 70
     1
102
RTVSPropertyOp48
 70
     1
102
RTVSPropertyOp49
 70
     1
102
RTVSPropertyOp50
 70
     1
102
RTVSPropertyOp51
 70
     0
102
RTVSPropertyOp52
 70
     0
102
RTVSPropertyOp53
 70
     1
102
RTVSPropertyOp54
 70
     1
102
RTVSPropertyOp55
 70
     1
102
RTVSPropertyOp56
 70
     1
102
RTVSPropertyOp57
 70
     1
102
RTVSPropertyOp58
 70
     1
102
RTVSPropertyOp59
 70
     1
102
RTVSPropertyOp60
 70
     1
102
RTVSPropertyOp61
 70
     1
102
RTVSPropertyOp62
 70
     1
  0
XRECORD
  5
1DE7F
102
{ACAD_REACTORS
330
1DE7E
102
}
330
1DE7E
100
AcDbXrecord
280
     1
102
RTVSPost2010Prop28
280
     0
102
RTVSPost2010PropOp28
 70
     1
102
RTVSPost2010Prop29
280
     1
102
RTVSPost2010PropOp29
 70
     1
102
RTVSPost2010Prop30
280
     1
102
RTVSPost2010PropOp30
 70
     1
102
RTVSPost2010Prop31
280
     0
102
RTVSPost2010PropOp31
 70
     1
102
RTVSPost2010Prop32
280
     0
102
RTVSPost2010PropOp32
 70
     1
102
RTVSPost2010Prop33
280
     0
102
RTVSPost2010PropOp33
 70
     1
102
RTVSPost2010Prop34
280
     0
102
RTVSPost2010PropOp34
 70
     1
102
RTVSPost2010Prop35
280
     0
102
RTVSPost2010PropOp35
 70
     1
102
RTVSPost2010Prop36
280
     0
102
RTVSPost2010PropOp36
 70
     1
102
RTVSPost2010Prop37
 90
       50
102
RTVSPost2010PropOp37
 70
     1
102
RTVSPost2010Prop38
140
0.0
102
RTVSPost2010PropOp38
 70
     1
102
RTVSPost2010Prop39
140
1.0
102
RTVSPost2010PropOp39
 70
     1
102
RTVSPost2010Prop40
 90
        0
102
RTVSPost2010PropOp40
 70
     1
102
RTVSPost2010Prop41ColorIndex
 90
       18
102
RTVSPost2010Prop41ColorRGB
 90
        0
102
RTVSPost2010PropOp41
 70
     1
102
RTVSPost2010Prop42
 90
       50
102
RTVSPost2010PropOp42
 70
     1
102
RTVSPost2010Prop43
 90
        3
102
RTVSPost2010PropOp43
 70
     1
102
RTVSPost2010Prop44ColorIndex
 90
        5
102
RTVSPost2010Prop44ColorRGB
 90
      255
102
RTVSPost2010PropOp44
 70
     1
102
RTVSPost2010Prop45
280
     0
102
RTVSPost2010PropOp45
 70
     1
102
RTVSPost2010Prop46
 90
       50
102
RTVSPost2010PropOp46
 70
     1
102
RTVSPost2010Prop47
 90
       50
102
RTVSPost2010PropOp47
 70
     1
102
RTVSPost2010Prop48
 90
       50
102
RTVSPost2010PropOp48
 70
     1
102
RTVSPost2010Prop49
280
     0
102
RTVSPost2010PropOp49
 70
     1
102
RTVSPost2010Prop50
 90
       50
102
RTVSPost2010PropOp50
 70
     1
102
RTVSPost2010Prop51ColorIndex
 90
      256
102
RTVSPost2010Prop51ColorRGB
 90
-16777216
102
RTVSPost2010PropOp51
 70
     0
102
RTVSPost2010Prop52
140
1.0
102
RTVSPost2010PropOp52
 70
     0
102
RTVSPost2010Prop53
 90
        2
102
RTVSPost2010PropOp53
 70
     1
102
RTVSPost2010Prop54
  1
strokes_ogs.tif
102
RTVSPost2010PropOp54
 70
     1
102
RTVSPost2010Prop55
280
     0
102
RTVSPost2010PropOp55
 70
     1
102
RTVSPost2010Prop56
140
1.0
102
RTVSPost2010PropOp56
 70
     1
102
RTVSPost2010Prop57
140
1.0
102
RTVSPost2010PropOp57
 70
     1
102
RTVSPropertyOp0
 70
     1
102
RTVSPropertyOp1
 70
     1
102
RTVSPropertyOp2
 70
     1
102
RTVSPropertyOp3
 70
     1
102
RTVSPropertyOp4
 70
     1
102
RTVSPropertyOp5
 70
     1
102
RTVSPropertyOp6
 70
     1
102
RTVSPropertyOp7
 70
     1
102
RTVSPropertyOp8
 70
     1
102
RTVSPropertyOp9
 70
     1
102
RTVSPropertyOp10
 70
     1
102
RTVSPropertyOp11
 70
     1
102
RTVSPropertyOp12
 70
     1
102
RTVSPropertyOp13
 70
     1
102
RTVSPropertyOp14
 70
     1
102
RTVSPropertyOp15
 70
     1
102
RTVSPropertyOp16
 70
     1
102
RTVSPropertyOp17
 70
     1
102
RTVSPropertyOp18
 70
     1
102
RTVSPropertyOp19
 70
     1
102
RTVSPropertyOp20
 70
     1
102
RTVSPropertyOp21
 70
     1
102
RTVSPropertyOp22
 70
     1
102
RTVSPropertyOp23
 70
     1
102
RTVSPropertyOp24
 70
     1
102
RTVSPropertyOp25
 70
     1
102
RTVSPropertyOp26
 70
     1
102
RTVSPropertyOp27
 70
     1
102
RTVSPropertyOp28
 70
     1
102
RTVSPropertyOp29
 70
     1
102
RTVSPropertyOp30
 70
     1
102
RTVSPropertyOp31
 70
     1
102
RTVSPropertyOp32
 70
     1
102
RTVSPropertyOp33
 70
     1
102
RTVSPropertyOp34
 70
     1
102
RTVSPropertyOp35
 70
     1
102
RTVSPropertyOp36
 70
     1
102
RTVSPropertyOp37
 70
     1
102
RTVSPropertyOp38
 70
     1
102
RTVSPropertyOp39
 70
     1
102
RTVSPropertyOp40
 70
     1
102
RTVSPropertyOp41
 70
     1
102
RTVSPropertyOp42
 70
     1
102
RTVSPropertyOp43
 70
     1
102
RTVSPropertyOp44
 70
     1
102
RTVSPropertyOp45
 70
     1
102
RTVSPropertyOp46
 70
     1
102
RTVSPropertyOp47
 70
     1
102
RTVSPropertyOp48
 70
     1
102
RTVSPropertyOp49
 70
     1
102
RTVSPropertyOp50
 70
     1
102
RTVSPropertyOp51
 70
     0
102
RTVSPropertyOp52
 70
     0
102
RTVSPropertyOp53
 70
     1
102
RTVSPropertyOp54
 70
     1
102
RTVSPropertyOp55
 70
     1
102
RTVSPropertyOp56
 70
     1
102
RTVSPropertyOp57
 70
     1
102
RTVSPropertyOp58
 70
     1
102
RTVSPropertyOp59
 70
     1
102
RTVSPropertyOp60
 70
     1
102
RTVSPropertyOp61
 70
     1
102
RTVSPropertyOp62
 70
     1
  0
XRECORD
  5
1DE81
102
{ACAD_REACTORS
330
1DE80
102
}
330
1DE80
100
AcDbXrecord
280
     1
102
RTVSPost2010Prop28
280
     0
102
RTVSPost2010PropOp28
 70
     1
102
RTVSPost2010Prop29
280
     1
102
RTVSPost2010PropOp29
 70
     1
102
RTVSPost2010Prop30
280
     1
102
RTVSPost2010PropOp30
 70
     1
102
RTVSPost2010Prop31
280
     0
102
RTVSPost2010PropOp31
 70
     1
102
RTVSPost2010Prop32
280
     0
102
RTVSPost2010PropOp32
 70
     1
102
RTVSPost2010Prop33
280
     0
102
RTVSPost2010PropOp33
 70
     1
102
RTVSPost2010Prop34
280
     0
102
RTVSPost2010PropOp34
 70
     1
102
RTVSPost2010Prop35
280
     0
102
RTVSPost2010PropOp35
 70
     1
102
RTVSPost2010Prop36
280
     0
102
RTVSPost2010PropOp36
 70
     1
102
RTVSPost2010Prop37
 90
       50
102
RTVSPost2010PropOp37
 70
     1
102
RTVSPost2010Prop38
140
0.0
102
RTVSPost2010PropOp38
 70
     1
102
RTVSPost2010Prop39
140
1.0
102
RTVSPost2010PropOp39
 70
     1
102
RTVSPost2010Prop40
 90
        0
102
RTVSPost2010PropOp40
 70
     1
102
RTVSPost2010Prop41ColorIndex
 90
       18
102
RTVSPost2010Prop41ColorRGB
 90
        0
102
RTVSPost2010PropOp41
 70
     1
102
RTVSPost2010Prop42
 90
       50
102
RTVSPost2010PropOp42
 70
     1
102
RTVSPost2010Prop43
 90
        3
102
RTVSPost2010PropOp43
 70
     1
102
RTVSPost2010Prop44ColorIndex
 90
        5
102
RTVSPost2010Prop44ColorRGB
 90
      255
102
RTVSPost2010PropOp44
 70
     1
102
RTVSPost2010Prop45
280
     0
102
RTVSPost2010PropOp45
 70
     1
102
RTVSPost2010Prop46
 90
       50
102
RTVSPost2010PropOp46
 70
     1
102
RTVSPost2010Prop47
 90
       50
102
RTVSPost2010PropOp47
 70
     1
102
RTVSPost2010Prop48
 90
       50
102
RTVSPost2010PropOp48
 70
     1
102
RTVSPost2010Prop49
280
     0
102
RTVSPost2010PropOp49
 70
     1
102
RTVSPost2010Prop50
 90
       50
102
RTVSPost2010PropOp50
 70
     1
102
RTVSPost2010Prop51ColorIndex
 90
      256
102
RTVSPost2010Prop51ColorRGB
 90
-16777216
102
RTVSPost2010PropOp51
 70
     0
102
RTVSPost2010Prop52
140
1.0
102
RTVSPost2010PropOp52
 70
     0
102
RTVSPost2010Prop53
 90
        2
102
RTVSPost2010PropOp53
 70
     1
102
RTVSPost2010Prop54
  1
strokes_ogs.tif
102
RTVSPost2010PropOp54
 70
     1
102
RTVSPost2010Prop55
280
     0
102
RTVSPost2010PropOp55
 70
     1
102
RTVSPost2010Prop56
140
1.0
102
RTVSPost2010PropOp56
 70
     1
102
RTVSPost2010Prop57
140
1.0
102
RTVSPost2010PropOp57
 70
     1
102
RTVSPropertyOp0
 70
     1
102
RTVSPropertyOp1
 70
     1
102
RTVSPropertyOp2
 70
     1
102
RTVSPropertyOp3
 70
     1
102
RTVSPropertyOp4
 70
     1
102
RTVSPropertyOp5
 70
     1
102
RTVSPropertyOp6
 70
     1
102
RTVSPropertyOp7
 70
     1
102
RTVSPropertyOp8
 70
     1
102
RTVSPropertyOp9
 70
     1
102
RTVSPropertyOp10
 70
     1
102
RTVSPropertyOp11
 70
     1
102
RTVSPropertyOp12
 70
     1
102
RTVSPropertyOp13
 70
     1
102
RTVSPropertyOp14
 70
     1
102
RTVSPropertyOp15
 70
     1
102
RTVSPropertyOp16
 70
     1
102
RTVSPropertyOp17
 70
     1
102
RTVSPropertyOp18
 70
     1
102
RTVSPropertyOp19
 70
     1
102
RTVSPropertyOp20
 70
     1
102
RTVSPropertyOp21
 70
     1
102
RTVSPropertyOp22
 70
     1
102
RTVSPropertyOp23
 70
     1
102
RTVSPropertyOp24
 70
     1
102
RTVSPropertyOp25
 70
     1
102
RTVSPropertyOp26
 70
     1
102
RTVSPropertyOp27
 70
     1
102
RTVSPropertyOp28
 70
     1
102
RTVSPropertyOp29
 70
     1
102
RTVSPropertyOp30
 70
     1
102
RTVSPropertyOp31
 70
     1
102
RTVSPropertyOp32
 70
     1
102
RTVSPropertyOp33
 70
     1
102
RTVSPropertyOp34
 70
     1
102
RTVSPropertyOp35
 70
     1
102
RTVSPropertyOp36
 70
     1
102
RTVSPropertyOp37
 70
     1
102
RTVSPropertyOp38
 70
     1
102
RTVSPropertyOp39
 70
     1
102
RTVSPropertyOp40
 70
     1
102
RTVSPropertyOp41
 70
     1
102
RTVSPropertyOp42
 70
     1
102
RTVSPropertyOp43
 70
     1
102
RTVSPropertyOp44
 70
     1
102
RTVSPropertyOp45
 70
     1
102
RTVSPropertyOp46
 70
     1
102
RTVSPropertyOp47
 70
     1
102
RTVSPropertyOp48
 70
     1
102
RTVSPropertyOp49
 70
     1
102
RTVSPropertyOp50
 70
     1
102
RTVSPropertyOp51
 70
     0
102
RTVSPropertyOp52
 70
     0
102
RTVSPropertyOp53
 70
     1
102
RTVSPropertyOp54
 70
     1
102
RTVSPropertyOp55
 70
     1
102
RTVSPropertyOp56
 70
     1
102
RTVSPropertyOp57
 70
     1
102
RTVSPropertyOp58
 70
     1
102
RTVSPropertyOp59
 70
     1
102
RTVSPropertyOp60
 70
     1
102
RTVSPropertyOp61
 70
     1
102
RTVSPropertyOp62
 70
     1
  0
XRECORD
  5
1DE89
102
{ACAD_REACTORS
330
1DE88
102
}
330
1DE88
100
AcDbXrecord
280
     1
102
RTVSPost2010Prop28
280
     0
102
RTVSPost2010PropOp28
 70
     1
102
RTVSPost2010Prop29
280
     1
102
RTVSPost2010PropOp29
 70
     1
102
RTVSPost2010Prop30
280
     1
102
RTVSPost2010PropOp30
 70
     1
102
RTVSPost2010Prop31
280
     0
102
RTVSPost2010PropOp31
 70
     1
102
RTVSPost2010Prop32
280
     0
102
RTVSPost2010PropOp32
 70
     1
102
RTVSPost2010Prop33
280
     0
102
RTVSPost2010PropOp33
 70
     1
102
RTVSPost2010Prop34
280
     0
102
RTVSPost2010PropOp34
 70
     1
102
RTVSPost2010Prop35
280
     0
102
RTVSPost2010PropOp35
 70
     1
102
RTVSPost2010Prop36
280
     0
102
RTVSPost2010PropOp36
 70
     1
102
RTVSPost2010Prop37
 90
       50
102
RTVSPost2010PropOp37
 70
     1
102
RTVSPost2010Prop38
140
0.0
102
RTVSPost2010PropOp38
 70
     1
102
RTVSPost2010Prop39
140
1.0
102
RTVSPost2010PropOp39
 70
     1
102
RTVSPost2010Prop40
 90
        0
102
RTVSPost2010PropOp40
 70
     1
102
RTVSPost2010Prop41ColorIndex
 90
       18
102
RTVSPost2010Prop41ColorRGB
 90
        0
102
RTVSPost2010PropOp41
 70
     1
102
RTVSPost2010Prop42
 90
       50
102
RTVSPost2010PropOp42
 70
     1
102
RTVSPost2010Prop43
 90
        3
102
RTVSPost2010PropOp43
 70
     1
102
RTVSPost2010Prop44ColorIndex
 90
        5
102
RTVSPost2010Prop44ColorRGB
 90
      255
102
RTVSPost2010PropOp44
 70
     1
102
RTVSPost2010Prop45
280
     0
102
RTVSPost2010PropOp45
 70
     1
102
RTVSPost2010Prop46
 90
       50
102
RTVSPost2010PropOp46
 70
     1
102
RTVSPost2010Prop47
 90
       50
102
RTVSPost2010PropOp47
 70
     1
102
RTVSPost2010Prop48
 90
       50
102
RTVSPost2010PropOp48
 70
     1
102
RTVSPost2010Prop49
280
     0
102
RTVSPost2010PropOp49
 70
     1
102
RTVSPost2010Prop50
 90
       50
102
RTVSPost2010PropOp50
 70
     1
102
RTVSPost2010Prop51ColorIndex
 90
      256
102
RTVSPost2010Prop51ColorRGB
 90
-16777216
102
RTVSPost2010PropOp51
 70
     0
102
RTVSPost2010Prop52
140
1.0
102
RTVSPost2010PropOp52
 70
     0
102
RTVSPost2010Prop53
 90
        2
102
RTVSPost2010PropOp53
 70
     1
102
RTVSPost2010Prop54
  1
strokes_ogs.tif
102
RTVSPost2010PropOp54
 70
     1
102
RTVSPost2010Prop55
280
     0
102
RTVSPost2010PropOp55
 70
     1
102
RTVSPost2010Prop56
140
1.0
102
RTVSPost2010PropOp56
 70
     1
102
RTVSPost2010Prop57
140
1.0
102
RTVSPost2010PropOp57
 70
     1
102
RTVSPropertyOp0
 70
     1
102
RTVSPropertyOp1
 70
     1
102
RTVSPropertyOp2
 70
     1
102
RTVSPropertyOp3
 70
     1
102
RTVSPropertyOp4
 70
     1
102
RTVSPropertyOp5
 70
     1
102
RTVSPropertyOp6
 70
     1
102
RTVSPropertyOp7
 70
     1
102
RTVSPropertyOp8
 70
     1
102
RTVSPropertyOp9
 70
     1
102
RTVSPropertyOp10
 70
     1
102
RTVSPropertyOp11
 70
     1
102
RTVSPropertyOp12
 70
     1
102
RTVSPropertyOp13
 70
     1
102
RTVSPropertyOp14
 70
     1
102
RTVSPropertyOp15
 70
     1
102
RTVSPropertyOp16
 70
     1
102
RTVSPropertyOp17
 70
     1
102
RTVSPropertyOp18
 70
     1
102
RTVSPropertyOp19
 70
     1
102
RTVSPropertyOp20
 70
     1
102
RTVSPropertyOp21
 70
     1
102
RTVSPropertyOp22
 70
     1
102
RTVSPropertyOp23
 70
     1
102
RTVSPropertyOp24
 70
     1
102
RTVSPropertyOp25
 70
     1
102
RTVSPropertyOp26
 70
     1
102
RTVSPropertyOp27
 70
     1
102
RTVSPropertyOp28
 70
     1
102
RTVSPropertyOp29
 70
     1
102
RTVSPropertyOp30
 70
     1
102
RTVSPropertyOp31
 70
     1
102
RTVSPropertyOp32
 70
     1
102
RTVSPropertyOp33
 70
     1
102
RTVSPropertyOp34
 70
     1
102
RTVSPropertyOp35
 70
     1
102
RTVSPropertyOp36
 70
     1
102
RTVSPropertyOp37
 70
     1
102
RTVSPropertyOp38
 70
     1
102
RTVSPropertyOp39
 70
     1
102
RTVSPropertyOp40
 70
     1
102
RTVSPropertyOp41
 70
     1
102
RTVSPropertyOp42
 70
     1
102
RTVSPropertyOp43
 70
     1
102
RTVSPropertyOp44
 70
     1
102
RTVSPropertyOp45
 70
     1
102
RTVSPropertyOp46
 70
     1
102
RTVSPropertyOp47
 70
     1
102
RTVSPropertyOp48
 70
     1
102
RTVSPropertyOp49
 70
     1
102
RTVSPropertyOp50
 70
     1
102
RTVSPropertyOp51
 70
     0
102
RTVSPropertyOp52
 70
     0
102
RTVSPropertyOp53
 70
     1
102
RTVSPropertyOp54
 70
     1
102
RTVSPropertyOp55
 70
     1
102
RTVSPropertyOp56
 70
     1
102
RTVSPropertyOp57
 70
     1
102
RTVSPropertyOp58
 70
     1
102
RTVSPropertyOp59
 70
     1
102
RTVSPropertyOp60
 70
     1
102
RTVSPropertyOp61
 70
     1
102
RTVSPropertyOp62
 70
     1
  0
XRECORD
  5
1DEA5
102
{ACAD_REACTORS
330
1DEA4
102
}
330
1DEA4
100
AcDbXrecord
280
     1
102
RTVSPost2010Prop28
280
     0
102
RTVSPost2010PropOp28
 70
     1
102
RTVSPost2010Prop29
280
     1
102
RTVSPost2010PropOp29
 70
     1
102
RTVSPost2010Prop30
280
     1
102
RTVSPost2010PropOp30
 70
     1
102
RTVSPost2010Prop31
280
     0
102
RTVSPost2010PropOp31
 70
     1
102
RTVSPost2010Prop32
280
     0
102
RTVSPost2010PropOp32
 70
     1
102
RTVSPost2010Prop33
280
     0
102
RTVSPost2010PropOp33
 70
     1
102
RTVSPost2010Prop34
280
     0
102
RTVSPost2010PropOp34
 70
     1
102
RTVSPost2010Prop35
280
     0
102
RTVSPost2010PropOp35
 70
     1
102
RTVSPost2010Prop36
280
     0
102
RTVSPost2010PropOp36
 70
     1
102
RTVSPost2010Prop37
 90
       50
102
RTVSPost2010PropOp37
 70
     0
102
RTVSPost2010Prop38
140
0.0
102
RTVSPost2010PropOp38
 70
     0
102
RTVSPost2010Prop39
140
1.0
102
RTVSPost2010PropOp39
 70
     0
102
RTVSPost2010Prop40
 90
        0
102
RTVSPost2010PropOp40
 70
     0
102
RTVSPost2010Prop41ColorIndex
 90
       18
102
RTVSPost2010Prop41ColorRGB
 90
        0
102
RTVSPost2010PropOp41
 70
     0
102
RTVSPost2010Prop42
 90
       50
102
RTVSPost2010PropOp42
 70
     0
102
RTVSPost2010Prop43
 90
        3
102
RTVSPost2010PropOp43
 70
     0
102
RTVSPost2010Prop44ColorIndex
 90
        5
102
RTVSPost2010Prop44ColorRGB
 90
      255
102
RTVSPost2010PropOp44
 70
     0
102
RTVSPost2010Prop45
280
     0
102
RTVSPost2010PropOp45
 70
     1
102
RTVSPost2010Prop46
 90
       50
102
RTVSPost2010PropOp46
 70
     0
102
RTVSPost2010Prop47
 90
       50
102
RTVSPost2010PropOp47
 70
     0
102
RTVSPost2010Prop48
 90
       50
102
RTVSPost2010PropOp48
 70
     0
102
RTVSPost2010Prop49
280
     0
102
RTVSPost2010PropOp49
 70
     1
102
RTVSPost2010Prop50
 90
       50
102
RTVSPost2010PropOp50
 70
     0
102
RTVSPost2010Prop51ColorIndex
 90
      256
102
RTVSPost2010Prop51ColorRGB
 90
-16777216
102
RTVSPost2010PropOp51
 70
     0
102
RTVSPost2010Prop52
140
1.0
102
RTVSPost2010PropOp52
 70
     0
102
RTVSPost2010Prop53
 90
        2
102
RTVSPost2010PropOp53
 70
     0
102
RTVSPost2010Prop54
  1
strokes_ogs.tif
102
RTVSPost2010PropOp54
 70
     0
102
RTVSPost2010Prop55
280
     0
102
RTVSPost2010PropOp55
 70
     1
102
RTVSPost2010Prop56
140
1.0
102
RTVSPost2010PropOp56
 70
     0
102
RTVSPost2010Prop57
140
1.0
102
RTVSPost2010PropOp57
 70
     0
102
RTVSPropertyOp0
 70
     0
102
RTVSPropertyOp1
 70
     0
102
RTVSPropertyOp2
 70
     0
102
RTVSPropertyOp3
 70
     0
102
RTVSPropertyOp4
 70
     0
102
RTVSPropertyOp5
 70
     0
102
RTVSPropertyOp6
 70
     0
102
RTVSPropertyOp7
 70
     0
102
RTVSPropertyOp8
 70
     0
102
RTVSPropertyOp9
 70
     0
102
RTVSPropertyOp10
 70
     0
102
RTVSPropertyOp11
 70
     0
102
RTVSPropertyOp12
 70
     0
102
RTVSPropertyOp13
 70
     0
102
RTVSPropertyOp14
 70
     2
102
RTVSPropertyOp15
 70
     0
102
RTVSPropertyOp16
 70
     0
102
RTVSPropertyOp17
 70
     0
102
RTVSPropertyOp18
 70
     0
102
RTVSPropertyOp19
 70
     0
102
RTVSPropertyOp20
 70
     0
102
RTVSPropertyOp21
 70
     0
102
RTVSPropertyOp22
 70
     0
102
RTVSPropertyOp23
 70
     0
102
RTVSPropertyOp24
 70
     0
102
RTVSPropertyOp25
 70
     0
102
RTVSPropertyOp26
 70
     0
102
RTVSPropertyOp27
 70
     0
102
RTVSPropertyOp28
 70
     1
102
RTVSPropertyOp29
 70
     1
102
RTVSPropertyOp30
 70
     1
102
RTVSPropertyOp31
 70
     1
102
RTVSPropertyOp32
 70
     1
102
RTVSPropertyOp33
 70
     1
102
RTVSPropertyOp34
 70
     1
102
RTVSPropertyOp35
 70
     1
102
RTVSPropertyOp36
 70
     1
102
RTVSPropertyOp37
 70
     0
102
RTVSPropertyOp38
 70
     0
102
RTVSPropertyOp39
 70
     0
102
RTVSPropertyOp40
 70
     0
102
RTVSPropertyOp41
 70
     0
102
RTVSPropertyOp42
 70
     0
102
RTVSPropertyOp43
 70
     0
102
RTVSPropertyOp44
 70
     0
102
RTVSPropertyOp45
 70
     1
102
RTVSPropertyOp46
 70
     0
102
RTVSPropertyOp47
 70
     0
102
RTVSPropertyOp48
 70
     0
102
RTVSPropertyOp49
 70
     1
102
RTVSPropertyOp50
 70
     0
102
RTVSPropertyOp51
 70
     0
102
RTVSPropertyOp52
 70
     0
102
RTVSPropertyOp53
 70
     0
102
RTVSPropertyOp54
 70
     0
102
RTVSPropertyOp55
 70
     1
102
RTVSPropertyOp56
 70
     0
102
RTVSPropertyOp57
 70
     0
102
RTVSPropertyOp58
 70
     0
102
RTVSPropertyOp59
 70
     0
102
RTVSPropertyOp60
 70
     0
102
RTVSPropertyOp61
 70
     0
102
RTVSPropertyOp62
 70
     0
  0
XRECORD
  5
1DE95
102
{ACAD_REACTORS
330
1DE94
102
}
330
1DE94
100
AcDbXrecord
280
     1
102
RTVSPost2010Prop28
280
     0
102
RTVSPost2010PropOp28
 70
     1
102
RTVSPost2010Prop29
280
     1
102
RTVSPost2010PropOp29
 70
     1
102
RTVSPost2010Prop30
280
     1
102
RTVSPost2010PropOp30
 70
     1
102
RTVSPost2010Prop31
280
     0
102
RTVSPost2010PropOp31
 70
     1
102
RTVSPost2010Prop32
280
     0
102
RTVSPost2010PropOp32
 70
     1
102
RTVSPost2010Prop33
280
     0
102
RTVSPost2010PropOp33
 70
     1
102
RTVSPost2010Prop34
280
     0
102
RTVSPost2010PropOp34
 70
     1
102
RTVSPost2010Prop35
280
     0
102
RTVSPost2010PropOp35
 70
     1
102
RTVSPost2010Prop36
280
     0
102
RTVSPost2010PropOp36
 70
     1
102
RTVSPost2010Prop37
 90
       50
102
RTVSPost2010PropOp37
 70
     1
102
RTVSPost2010Prop38
140
0.0
102
RTVSPost2010PropOp38
 70
     1
102
RTVSPost2010Prop39
140
1.0
102
RTVSPost2010PropOp39
 70
     1
102
RTVSPost2010Prop40
 90
        0
102
RTVSPost2010PropOp40
 70
     1
102
RTVSPost2010Prop41ColorIndex
 90
       18
102
RTVSPost2010Prop41ColorRGB
 90
        0
102
RTVSPost2010PropOp41
 70
     1
102
RTVSPost2010Prop42
 90
       50
102
RTVSPost2010PropOp42
 70
     1
102
RTVSPost2010Prop43
 90
        3
102
RTVSPost2010PropOp43
 70
     1
102
RTVSPost2010Prop44ColorIndex
 90
        5
102
RTVSPost2010Prop44ColorRGB
 90
      255
102
RTVSPost2010PropOp44
 70
     1
102
RTVSPost2010Prop45
280
     0
102
RTVSPost2010PropOp45
 70
     1
102
RTVSPost2010Prop46
 90
       50
102
RTVSPost2010PropOp46
 70
     1
102
RTVSPost2010Prop47
 90
       50
102
RTVSPost2010PropOp47
 70
     1
102
RTVSPost2010Prop48
 90
       50
102
RTVSPost2010PropOp48
 70
     1
102
RTVSPost2010Prop49
280
     0
102
RTVSPost2010PropOp49
 70
     1
102
RTVSPost2010Prop50
 90
       50
102
RTVSPost2010PropOp50
 70
     1
102
RTVSPost2010Prop51ColorIndex
 90
      256
102
RTVSPost2010Prop51ColorRGB
 90
-16777216
102
RTVSPost2010PropOp51
 70
     0
102
RTVSPost2010Prop52
140
1.0
102
RTVSPost2010PropOp52
 70
     0
102
RTVSPost2010Prop53
 90
        2
102
RTVSPost2010PropOp53
 70
     1
102
RTVSPost2010Prop54
  1
strokes_ogs.tif
102
RTVSPost2010PropOp54
 70
     1
102
RTVSPost2010Prop55
280
     0
102
RTVSPost2010PropOp55
 70
     1
102
RTVSPost2010Prop56
140
1.0
102
RTVSPost2010PropOp56
 70
     1
102
RTVSPost2010Prop57
140
1.0
102
RTVSPost2010PropOp57
 70
     1
102
RTVSPropertyOp0
 70
     1
102
RTVSPropertyOp1
 70
     1
102
RTVSPropertyOp2
 70
     1
102
RTVSPropertyOp3
 70
     1
102
RTVSPropertyOp4
 70
     1
102
RTVSPropertyOp5
 70
     1
102
RTVSPropertyOp6
 70
     1
102
RTVSPropertyOp7
 70
     1
102
RTVSPropertyOp8
 70
     1
102
RTVSPropertyOp9
 70
     1
102
RTVSPropertyOp10
 70
     1
102
RTVSPropertyOp11
 70
     1
102
RTVSPropertyOp12
 70
     1
102
RTVSPropertyOp13
 70
     1
102
RTVSPropertyOp14
 70
     1
102
RTVSPropertyOp15
 70
     1
102
RTVSPropertyOp16
 70
     1
102
RTVSPropertyOp17
 70
     1
102
RTVSPropertyOp18
 70
     1
102
RTVSPropertyOp19
 70
     1
102
RTVSPropertyOp20
 70
     1
102
RTVSPropertyOp21
 70
     1
102
RTVSPropertyOp22
 70
     1
102
RTVSPropertyOp23
 70
     1
102
RTVSPropertyOp24
 70
     1
102
RTVSPropertyOp25
 70
     1
102
RTVSPropertyOp26
 70
     1
102
RTVSPropertyOp27
 70
     1
102
RTVSPropertyOp28
 70
     1
102
RTVSPropertyOp29
 70
     1
102
RTVSPropertyOp30
 70
     1
102
RTVSPropertyOp31
 70
     1
102
RTVSPropertyOp32
 70
     1
102
RTVSPropertyOp33
 70
     1
102
RTVSPropertyOp34
 70
     1
102
RTVSPropertyOp35
 70
     1
102
RTVSPropertyOp36
 70
     1
102
RTVSPropertyOp37
 70
     1
102
RTVSPropertyOp38
 70
     1
102
RTVSPropertyOp39
 70
     1
102
RTVSPropertyOp40
 70
     1
102
RTVSPropertyOp41
 70
     1
102
RTVSPropertyOp42
 70
     1
102
RTVSPropertyOp43
 70
     1
102
RTVSPropertyOp44
 70
     1
102
RTVSPropertyOp45
 70
     1
102
RTVSPropertyOp46
 70
     1
102
RTVSPropertyOp47
 70
     1
102
RTVSPropertyOp48
 70
     1
102
RTVSPropertyOp49
 70
     1
102
RTVSPropertyOp50
 70
     1
102
RTVSPropertyOp51
 70
     0
102
RTVSPropertyOp52
 70
     0
102
RTVSPropertyOp53
 70
     1
102
RTVSPropertyOp54
 70
     1
102
RTVSPropertyOp55
 70
     1
102
RTVSPropertyOp56
 70
     1
102
RTVSPropertyOp57
 70
     1
102
RTVSPropertyOp58
 70
     1
102
RTVSPropertyOp59
 70
     1
102
RTVSPropertyOp60
 70
     1
102
RTVSPropertyOp61
 70
     1
102
RTVSPropertyOp62
 70
     1
  0
XRECORD
  5
1DEA7
102
{ACAD_REACTORS
330
1DEA6
102
}
330
1DEA6
100
AcDbXrecord
280
     1
102
RTVSPost2010Prop28
280
     0
102
RTVSPost2010PropOp28
 70
     1
102
RTVSPost2010Prop29
280
     1
102
RTVSPost2010PropOp29
 70
     1
102
RTVSPost2010Prop30
280
     1
102
RTVSPost2010PropOp30
 70
     1
102
RTVSPost2010Prop31
280
     0
102
RTVSPost2010PropOp31
 70
     1
102
RTVSPost2010Prop32
280
     0
102
RTVSPost2010PropOp32
 70
     1
102
RTVSPost2010Prop33
280
     0
102
RTVSPost2010PropOp33
 70
     1
102
RTVSPost2010Prop34
280
     0
102
RTVSPost2010PropOp34
 70
     1
102
RTVSPost2010Prop35
280
     0
102
RTVSPost2010PropOp35
 70
     1
102
RTVSPost2010Prop36
280
     0
102
RTVSPost2010PropOp36
 70
     1
102
RTVSPost2010Prop37
 90
       50
102
RTVSPost2010PropOp37
 70
     0
102
RTVSPost2010Prop38
140
0.0
102
RTVSPost2010PropOp38
 70
     0
102
RTVSPost2010Prop39
140
1.0
102
RTVSPost2010PropOp39
 70
     0
102
RTVSPost2010Prop40
 90
        0
102
RTVSPost2010PropOp40
 70
     0
102
RTVSPost2010Prop41ColorIndex
 90
       18
102
RTVSPost2010Prop41ColorRGB
 90
        0
102
RTVSPost2010PropOp41
 70
     0
102
RTVSPost2010Prop42
 90
       50
102
RTVSPost2010PropOp42
 70
     0
102
RTVSPost2010Prop43
 90
        3
102
RTVSPost2010PropOp43
 70
     0
102
RTVSPost2010Prop44ColorIndex
 90
        5
102
RTVSPost2010Prop44ColorRGB
 90
      255
102
RTVSPost2010PropOp44
 70
     0
102
RTVSPost2010Prop45
280
     0
102
RTVSPost2010PropOp45
 70
     1
102
RTVSPost2010Prop46
 90
       50
102
RTVSPost2010PropOp46
 70
     0
102
RTVSPost2010Prop47
 90
       50
102
RTVSPost2010PropOp47
 70
     0
102
RTVSPost2010Prop48
 90
       50
102
RTVSPost2010PropOp48
 70
     0
102
RTVSPost2010Prop49
280
     0
102
RTVSPost2010PropOp49
 70
     1
102
RTVSPost2010Prop50
 90
       50
102
RTVSPost2010PropOp50
 70
     0
102
RTVSPost2010Prop51ColorIndex
 90
      256
102
RTVSPost2010Prop51ColorRGB
 90
-16777216
102
RTVSPost2010PropOp51
 70
     0
102
RTVSPost2010Prop52
140
1.0
102
RTVSPost2010PropOp52
 70
     0
102
RTVSPost2010Prop53
 90
        2
102
RTVSPost2010PropOp53
 70
     0
102
RTVSPost2010Prop54
  1
strokes_ogs.tif
102
RTVSPost2010PropOp54
 70
     0
102
RTVSPost2010Prop55
280
     0
102
RTVSPost2010PropOp55
 70
     1
102
RTVSPost2010Prop56
140
1.0
102
RTVSPost2010PropOp56
 70
     0
102
RTVSPost2010Prop57
140
1.0
102
RTVSPost2010PropOp57
 70
     0
102
RTVSPropertyOp0
 70
     0
102
RTVSPropertyOp1
 70
     0
102
RTVSPropertyOp2
 70
     0
102
RTVSPropertyOp3
 70
     0
102
RTVSPropertyOp4
 70
     0
102
RTVSPropertyOp5
 70
     0
102
RTVSPropertyOp6
 70
     0
102
RTVSPropertyOp7
 70
     0
102
RTVSPropertyOp8
 70
     0
102
RTVSPropertyOp9
 70
     0
102
RTVSPropertyOp10
 70
     0
102
RTVSPropertyOp11
 70
     0
102
RTVSPropertyOp12
 70
     0
102
RTVSPropertyOp13
 70
     0
102
RTVSPropertyOp14
 70
     2
102
RTVSPropertyOp15
 70
     0
102
RTVSPropertyOp16
 70
     0
102
RTVSPropertyOp17
 70
     0
102
RTVSPropertyOp18
 70
     0
102
RTVSPropertyOp19
 70
     0
102
RTVSPropertyOp20
 70
     0
102
RTVSPropertyOp21
 70
     0
102
RTVSPropertyOp22
 70
     0
102
RTVSPropertyOp23
 70
     0
102
RTVSPropertyOp24
 70
     0
102
RTVSPropertyOp25
 70
     0
102
RTVSPropertyOp26
 70
     0
102
RTVSPropertyOp27
 70
     0
102
RTVSPropertyOp28
 70
     1
102
RTVSPropertyOp29
 70
     1
102
RTVSPropertyOp30
 70
     1
102
RTVSPropertyOp31
 70
     1
102
RTVSPropertyOp32
 70
     1
102
RTVSPropertyOp33
 70
     1
102
RTVSPropertyOp34
 70
     1
102
RTVSPropertyOp35
 70
     1
102
RTVSPropertyOp36
 70
     1
102
RTVSPropertyOp37
 70
     0
102
RTVSPropertyOp38
 70
     0
102
RTVSPropertyOp39
 70
     0
102
RTVSPropertyOp40
 70
     0
102
RTVSPropertyOp41
 70
     0
102
RTVSPropertyOp42
 70
     0
102
RTVSPropertyOp43
 70
     0
102
RTVSPropertyOp44
 70
     0
102
RTVSPropertyOp45
 70
     1
102
RTVSPropertyOp46
 70
     0
102
RTVSPropertyOp47
 70
     0
102
RTVSPropertyOp48
 70
     0
102
RTVSPropertyOp49
 70
     1
102
RTVSPropertyOp50
 70
     0
102
RTVSPropertyOp51
 70
     0
102
RTVSPropertyOp52
 70
     0
102
RTVSPropertyOp53
 70
     0
102
RTVSPropertyOp54
 70
     0
102
RTVSPropertyOp55
 70
     1
102
RTVSPropertyOp56
 70
     0
102
RTVSPropertyOp57
 70
     0
102
RTVSPropertyOp58
 70
     0
102
RTVSPropertyOp59
 70
     0
102
RTVSPropertyOp60
 70
     0
102
RTVSPropertyOp61
 70
     0
102
RTVSPropertyOp62
 70
     0
  0
XRECORD
  5
1DE8D
102
{ACAD_REACTORS
330
1DE8C
102
}
330
1DE8C
100
AcDbXrecord
280
     1
102
RTVSPost2010Prop28
280
     0
102
RTVSPost2010PropOp28
 70
     1
102
RTVSPost2010Prop29
280
     1
102
RTVSPost2010PropOp29
 70
     1
102
RTVSPost2010Prop30
280
     1
102
RTVSPost2010PropOp30
 70
     1
102
RTVSPost2010Prop31
280
     0
102
RTVSPost2010PropOp31
 70
     1
102
RTVSPost2010Prop32
280
     0
102
RTVSPost2010PropOp32
 70
     1
102
RTVSPost2010Prop33
280
     0
102
RTVSPost2010PropOp33
 70
     1
102
RTVSPost2010Prop34
280
     0
102
RTVSPost2010PropOp34
 70
     1
102
RTVSPost2010Prop35
280
     0
102
RTVSPost2010PropOp35
 70
     1
102
RTVSPost2010Prop36
280
     0
102
RTVSPost2010PropOp36
 70
     1
102
RTVSPost2010Prop37
 90
       50
102
RTVSPost2010PropOp37
 70
     1
102
RTVSPost2010Prop38
140
0.0
102
RTVSPost2010PropOp38
 70
     1
102
RTVSPost2010Prop39
140
1.0
102
RTVSPost2010PropOp39
 70
     1
102
RTVSPost2010Prop40
 90
        0
102
RTVSPost2010PropOp40
 70
     1
102
RTVSPost2010Prop41ColorIndex
 90
       18
102
RTVSPost2010Prop41ColorRGB
 90
        0
102
RTVSPost2010PropOp41
 70
     1
102
RTVSPost2010Prop42
 90
       50
102
RTVSPost2010PropOp42
 70
     1
102
RTVSPost2010Prop43
 90
        3
102
RTVSPost2010PropOp43
 70
     1
102
RTVSPost2010Prop44ColorIndex
 90
        5
102
RTVSPost2010Prop44ColorRGB
 90
      255
102
RTVSPost2010PropOp44
 70
     1
102
RTVSPost2010Prop45
280
     0
102
RTVSPost2010PropOp45
 70
     1
102
RTVSPost2010Prop46
 90
       50
102
RTVSPost2010PropOp46
 70
     1
102
RTVSPost2010Prop47
 90
       50
102
RTVSPost2010PropOp47
 70
     1
102
RTVSPost2010Prop48
 90
       50
102
RTVSPost2010PropOp48
 70
     1
102
RTVSPost2010Prop49
280
     0
102
RTVSPost2010PropOp49
 70
     1
102
RTVSPost2010Prop50
 90
       50
102
RTVSPost2010PropOp50
 70
     1
102
RTVSPost2010Prop51ColorIndex
 90
      256
102
RTVSPost2010Prop51ColorRGB
 90
-16777216
102
RTVSPost2010PropOp51
 70
     0
102
RTVSPost2010Prop52
140
1.0
102
RTVSPost2010PropOp52
 70
     0
102
RTVSPost2010Prop53
 90
        2
102
RTVSPost2010PropOp53
 70
     1
102
RTVSPost2010Prop54
  1
strokes_ogs.tif
102
RTVSPost2010PropOp54
 70
     1
102
RTVSPost2010Prop55
280
     0
102
RTVSPost2010PropOp55
 70
     1
102
RTVSPost2010Prop56
140
1.0
102
RTVSPost2010PropOp56
 70
     1
102
RTVSPost2010Prop57
140
1.0
102
RTVSPost2010PropOp57
 70
     1
102
RTVSPropertyOp0
 70
     1
102
RTVSPropertyOp1
 70
     1
102
RTVSPropertyOp2
 70
     1
102
RTVSPropertyOp3
 70
     1
102
RTVSPropertyOp4
 70
     1
102
RTVSPropertyOp5
 70
     1
102
RTVSPropertyOp6
 70
     1
102
RTVSPropertyOp7
 70
     1
102
RTVSPropertyOp8
 70
     1
102
RTVSPropertyOp9
 70
     1
102
RTVSPropertyOp10
 70
     1
102
RTVSPropertyOp11
 70
     1
102
RTVSPropertyOp12
 70
     1
102
RTVSPropertyOp13
 70
     1
102
RTVSPropertyOp14
 70
     1
102
RTVSPropertyOp15
 70
     1
102
RTVSPropertyOp16
 70
     1
102
RTVSPropertyOp17
 70
     1
102
RTVSPropertyOp18
 70
     1
102
RTVSPropertyOp19
 70
     1
102
RTVSPropertyOp20
 70
     1
102
RTVSPropertyOp21
 70
     1
102
RTVSPropertyOp22
 70
     1
102
RTVSPropertyOp23
 70
     1
102
RTVSPropertyOp24
 70
     1
102
RTVSPropertyOp25
 70
     1
102
RTVSPropertyOp26
 70
     1
102
RTVSPropertyOp27
 70
     1
102
RTVSPropertyOp28
 70
     1
102
RTVSPropertyOp29
 70
     1
102
RTVSPropertyOp30
 70
     1
102
RTVSPropertyOp31
 70
     1
102
RTVSPropertyOp32
 70
     1
102
RTVSPropertyOp33
 70
     1
102
RTVSPropertyOp34
 70
     1
102
RTVSPropertyOp35
 70
     1
102
RTVSPropertyOp36
 70
     1
102
RTVSPropertyOp37
 70
     1
102
RTVSPropertyOp38
 70
     1
102
RTVSPropertyOp39
 70
     1
102
RTVSPropertyOp40
 70
     1
102
RTVSPropertyOp41
 70
     1
102
RTVSPropertyOp42
 70
     1
102
RTVSPropertyOp43
 70
     1
102
RTVSPropertyOp44
 70
     1
102
RTVSPropertyOp45
 70
     1
102
RTVSPropertyOp46
 70
     1
102
RTVSPropertyOp47
 70
     1
102
RTVSPropertyOp48
 70
     1
102
RTVSPropertyOp49
 70
     1
102
RTVSPropertyOp50
 70
     1
102
RTVSPropertyOp51
 70
     0
102
RTVSPropertyOp52
 70
     0
102
RTVSPropertyOp53
 70
     1
102
RTVSPropertyOp54
 70
     1
102
RTVSPropertyOp55
 70
     1
102
RTVSPropertyOp56
 70
     1
102
RTVSPropertyOp57
 70
     1
102
RTVSPropertyOp58
 70
     1
102
RTVSPropertyOp59
 70
     1
102
RTVSPropertyOp60
 70
     1
102
RTVSPropertyOp61
 70
     1
102
RTVSPropertyOp62
 70
     1
  0
XRECORD
  5
1DEA3
102
{ACAD_REACTORS
330
1DEA2
102
}
330
1DEA2
100
AcDbXrecord
280
     1
102
RTVSPost2010Prop28
280
     0
102
RTVSPost2010PropOp28
 70
     1
102
RTVSPost2010Prop29
280
     1
102
RTVSPost2010PropOp29
 70
     1
102
RTVSPost2010Prop30
280
     1
102
RTVSPost2010PropOp30
 70
     1
102
RTVSPost2010Prop31
280
     0
102
RTVSPost2010PropOp31
 70
     1
102
RTVSPost2010Prop32
280
     0
102
RTVSPost2010PropOp32
 70
     1
102
RTVSPost2010Prop33
280
     0
102
RTVSPost2010PropOp33
 70
     1
102
RTVSPost2010Prop34
280
     0
102
RTVSPost2010PropOp34
 70
     1
102
RTVSPost2010Prop35
280
     0
102
RTVSPost2010PropOp35
 70
     1
102
RTVSPost2010Prop36
280
     0
102
RTVSPost2010PropOp36
 70
     1
102
RTVSPost2010Prop37
 90
       50
102
RTVSPost2010PropOp37
 70
     1
102
RTVSPost2010Prop38
140
0.0
102
RTVSPost2010PropOp38
 70
     1
102
RTVSPost2010Prop39
140
1.0
102
RTVSPost2010PropOp39
 70
     1
102
RTVSPost2010Prop40
 90
        0
102
RTVSPost2010PropOp40
 70
     1
102
RTVSPost2010Prop41ColorIndex
 90
       18
102
RTVSPost2010Prop41ColorRGB
 90
        0
102
RTVSPost2010PropOp41
 70
     1
102
RTVSPost2010Prop42
 90
       50
102
RTVSPost2010PropOp42
 70
     1
102
RTVSPost2010Prop43
 90
        3
102
RTVSPost2010PropOp43
 70
     1
102
RTVSPost2010Prop44ColorIndex
 90
        5
102
RTVSPost2010Prop44ColorRGB
 90
      255
102
RTVSPost2010PropOp44
 70
     1
102
RTVSPost2010Prop45
280
     0
102
RTVSPost2010PropOp45
 70
     1
102
RTVSPost2010Prop46
 90
       50
102
RTVSPost2010PropOp46
 70
     1
102
RTVSPost2010Prop47
 90
       50
102
RTVSPost2010PropOp47
 70
     1
102
RTVSPost2010Prop48
 90
       50
102
RTVSPost2010PropOp48
 70
     1
102
RTVSPost2010Prop49
280
     0
102
RTVSPost2010PropOp49
 70
     1
102
RTVSPost2010Prop50
 90
       50
102
RTVSPost2010PropOp50
 70
     1
102
RTVSPost2010Prop51ColorIndex
 90
      256
102
RTVSPost2010Prop51ColorRGB
 90
-16777216
102
RTVSPost2010PropOp51
 70
     0
102
RTVSPost2010Prop52
140
1.0
102
RTVSPost2010PropOp52
 70
     0
102
RTVSPost2010Prop53
 90
        2
102
RTVSPost2010PropOp53
 70
     1
102
RTVSPost2010Prop54
  1
strokes_ogs.tif
102
RTVSPost2010PropOp54
 70
     1
102
RTVSPost2010Prop55
280
     0
102
RTVSPost2010PropOp55
 70
     1
102
RTVSPost2010Prop56
140
1.0
102
RTVSPost2010PropOp56
 70
     1
102
RTVSPost2010Prop57
140
1.0
102
RTVSPost2010PropOp57
 70
     1
102
RTVSPropertyOp0
 70
     1
102
RTVSPropertyOp1
 70
     1
102
RTVSPropertyOp2
 70
     1
102
RTVSPropertyOp3
 70
     1
102
RTVSPropertyOp4
 70
     1
102
RTVSPropertyOp5
 70
     1
102
RTVSPropertyOp6
 70
     1
102
RTVSPropertyOp7
 70
     1
102
RTVSPropertyOp8
 70
     1
102
RTVSPropertyOp9
 70
     1
102
RTVSPropertyOp10
 70
     1
102
RTVSPropertyOp11
 70
     1
102
RTVSPropertyOp12
 70
     1
102
RTVSPropertyOp13
 70
     1
102
RTVSPropertyOp14
 70
     1
102
RTVSPropertyOp15
 70
     1
102
RTVSPropertyOp16
 70
     1
102
RTVSPropertyOp17
 70
     1
102
RTVSPropertyOp18
 70
     1
102
RTVSPropertyOp19
 70
     1
102
RTVSPropertyOp20
 70
     1
102
RTVSPropertyOp21
 70
     1
102
RTVSPropertyOp22
 70
     1
102
RTVSPropertyOp23
 70
     1
102
RTVSPropertyOp24
 70
     1
102
RTVSPropertyOp25
 70
     1
102
RTVSPropertyOp26
 70
     1
102
RTVSPropertyOp27
 70
     1
102
RTVSPropertyOp28
 70
     1
102
RTVSPropertyOp29
 70
     1
102
RTVSPropertyOp30
 70
     1
102
RTVSPropertyOp31
 70
     1
102
RTVSPropertyOp32
 70
     1
102
RTVSPropertyOp33
 70
     1
102
RTVSPropertyOp34
 70
     1
102
RTVSPropertyOp35
 70
     1
102
RTVSPropertyOp36
 70
     1
102
RTVSPropertyOp37
 70
     1
102
RTVSPropertyOp38
 70
     1
102
RTVSPropertyOp39
 70
     1
102
RTVSPropertyOp40
 70
     1
102
RTVSPropertyOp41
 70
     1
102
RTVSPropertyOp42
 70
     1
102
RTVSPropertyOp43
 70
     1
102
RTVSPropertyOp44
 70
     1
102
RTVSPropertyOp45
 70
     1
102
RTVSPropertyOp46
 70
     1
102
RTVSPropertyOp47
 70
     1
102
RTVSPropertyOp48
 70
     1
102
RTVSPropertyOp49
 70
     1
102
RTVSPropertyOp50
 70
     1
102
RTVSPropertyOp51
 70
     0
102
RTVSPropertyOp52
 70
     0
102
RTVSPropertyOp53
 70
     1
102
RTVSPropertyOp54
 70
     1
102
RTVSPropertyOp55
 70
     1
102
RTVSPropertyOp56
 70
     1
102
RTVSPropertyOp57
 70
     1
102
RTVSPropertyOp58
 70
     1
102
RTVSPropertyOp59
 70
     1
102
RTVSPropertyOp60
 70
     1
102
RTVSPropertyOp61
 70
     1
102
RTVSPropertyOp62
 70
     1
  0
XRECORD
  5
1DEA1
102
{ACAD_REACTORS
330
1DEA0
102
}
330
1DEA0
100
AcDbXrecord
280
     1
102
RTVSPost2010Prop28
280
     0
102
RTVSPost2010PropOp28
 70
     1
102
RTVSPost2010Prop29
280
     1
102
RTVSPost2010PropOp29
 70
     1
102
RTVSPost2010Prop30
280
     1
102
RTVSPost2010PropOp30
 70
     1
102
RTVSPost2010Prop31
280
     0
102
RTVSPost2010PropOp31
 70
     1
102
RTVSPost2010Prop32
280
     0
102
RTVSPost2010PropOp32
 70
     1
102
RTVSPost2010Prop33
280
     0
102
RTVSPost2010PropOp33
 70
     1
102
RTVSPost2010Prop34
280
     0
102
RTVSPost2010PropOp34
 70
     1
102
RTVSPost2010Prop35
280
     0
102
RTVSPost2010PropOp35
 70
     1
102
RTVSPost2010Prop36
280
     0
102
RTVSPost2010PropOp36
 70
     1
102
RTVSPost2010Prop37
 90
       50
102
RTVSPost2010PropOp37
 70
     1
102
RTVSPost2010Prop38
140
0.0
102
RTVSPost2010PropOp38
 70
     1
102
RTVSPost2010Prop39
140
1.0
102
RTVSPost2010PropOp39
 70
     1
102
RTVSPost2010Prop40
 90
        0
102
RTVSPost2010PropOp40
 70
     1
102
RTVSPost2010Prop41ColorIndex
 90
       18
102
RTVSPost2010Prop41ColorRGB
 90
        0
102
RTVSPost2010PropOp41
 70
     1
102
RTVSPost2010Prop42
 90
       50
102
RTVSPost2010PropOp42
 70
     1
102
RTVSPost2010Prop43
 90
        3
102
RTVSPost2010PropOp43
 70
     1
102
RTVSPost2010Prop44ColorIndex
 90
        5
102
RTVSPost2010Prop44ColorRGB
 90
      255
102
RTVSPost2010PropOp44
 70
     1
102
RTVSPost2010Prop45
280
     0
102
RTVSPost2010PropOp45
 70
     1
102
RTVSPost2010Prop46
 90
       50
102
RTVSPost2010PropOp46
 70
     1
102
RTVSPost2010Prop47
 90
       50
102
RTVSPost2010PropOp47
 70
     1
102
RTVSPost2010Prop48
 90
       50
102
RTVSPost2010PropOp48
 70
     1
102
RTVSPost2010Prop49
280
     0
102
RTVSPost2010PropOp49
 70
     1
102
RTVSPost2010Prop50
 90
       50
102
RTVSPost2010PropOp50
 70
     1
102
RTVSPost2010Prop51ColorIndex
 90
      256
102
RTVSPost2010Prop51ColorRGB
 90
-16777216
102
RTVSPost2010PropOp51
 70
     0
102
RTVSPost2010Prop52
140
1.0
102
RTVSPost2010PropOp52
 70
     0
102
RTVSPost2010Prop53
 90
        2
102
RTVSPost2010PropOp53
 70
     1
102
RTVSPost2010Prop54
  1
strokes_ogs.tif
102
RTVSPost2010PropOp54
 70
     1
102
RTVSPost2010Prop55
280
     0
102
RTVSPost2010PropOp55
 70
     1
102
RTVSPost2010Prop56
140
1.0
102
RTVSPost2010PropOp56
 70
     1
102
RTVSPost2010Prop57
140
1.0
102
RTVSPost2010PropOp57
 70
     1
102
RTVSPropertyOp0
 70
     1
102
RTVSPropertyOp1
 70
     1
102
RTVSPropertyOp2
 70
     1
102
RTVSPropertyOp3
 70
     1
102
RTVSPropertyOp4
 70
     1
102
RTVSPropertyOp5
 70
     1
102
RTVSPropertyOp6
 70
     1
102
RTVSPropertyOp7
 70
     1
102
RTVSPropertyOp8
 70
     1
102
RTVSPropertyOp9
 70
     1
102
RTVSPropertyOp10
 70
     1
102
RTVSPropertyOp11
 70
     1
102
RTVSPropertyOp12
 70
     1
102
RTVSPropertyOp13
 70
     1
102
RTVSPropertyOp14
 70
     1
102
RTVSPropertyOp15
 70
     1
102
RTVSPropertyOp16
 70
     1
102
RTVSPropertyOp17
 70
     1
102
RTVSPropertyOp18
 70
     1
102
RTVSPropertyOp19
 70
     1
102
RTVSPropertyOp20
 70
     1
102
RTVSPropertyOp21
 70
     1
102
RTVSPropertyOp22
 70
     1
102
RTVSPropertyOp23
 70
     1
102
RTVSPropertyOp24
 70
     1
102
RTVSPropertyOp25
 70
     1
102
RTVSPropertyOp26
 70
     1
102
RTVSPropertyOp27
 70
     1
102
RTVSPropertyOp28
 70
     1
102
RTVSPropertyOp29
 70
     1
102
RTVSPropertyOp30
 70
     1
102
RTVSPropertyOp31
 70
     1
102
RTVSPropertyOp32
 70
     1
102
RTVSPropertyOp33
 70
     1
102
RTVSPropertyOp34
 70
     1
102
RTVSPropertyOp35
 70
     1
102
RTVSPropertyOp36
 70
     1
102
RTVSPropertyOp37
 70
     1
102
RTVSPropertyOp38
 70
     1
102
RTVSPropertyOp39
 70
     1
102
RTVSPropertyOp40
 70
     1
102
RTVSPropertyOp41
 70
     1
102
RTVSPropertyOp42
 70
     1
102
RTVSPropertyOp43
 70
     1
102
RTVSPropertyOp44
 70
     1
102
RTVSPropertyOp45
 70
     1
102
RTVSPropertyOp46
 70
     1
102
RTVSPropertyOp47
 70
     1
102
RTVSPropertyOp48
 70
     1
102
RTVSPropertyOp49
 70
     1
102
RTVSPropertyOp50
 70
     1
102
RTVSPropertyOp51
 70
     0
102
RTVSPropertyOp52
 70
     0
102
RTVSPropertyOp53
 70
     1
102
RTVSPropertyOp54
 70
     1
102
RTVSPropertyOp55
 70
     1
102
RTVSPropertyOp56
 70
     1
102
RTVSPropertyOp57
 70
     1
102
RTVSPropertyOp58
 70
     1
102
RTVSPropertyOp59
 70
     1
102
RTVSPropertyOp60
 70
     1
102
RTVSPropertyOp61
 70
     1
102
RTVSPropertyOp62
 70
     1
  0
XRECORD
  5
1DE9B
102
{ACAD_REACTORS
330
1DE9A
102
}
330
1DE9A
100
AcDbXrecord
280
     1
102
RTVSPost2010Prop28
280
     0
102
RTVSPost2010PropOp28
 70
     1
102
RTVSPost2010Prop29
280
     1
102
RTVSPost2010PropOp29
 70
     1
102
RTVSPost2010Prop30
280
     1
102
RTVSPost2010PropOp30
 70
     1
102
RTVSPost2010Prop31
280
     0
102
RTVSPost2010PropOp31
 70
     1
102
RTVSPost2010Prop32
280
     0
102
RTVSPost2010PropOp32
 70
     1
102
RTVSPost2010Prop33
280
     0
102
RTVSPost2010PropOp33
 70
     1
102
RTVSPost2010Prop34
280
     0
102
RTVSPost2010PropOp34
 70
     1
102
RTVSPost2010Prop35
280
     0
102
RTVSPost2010PropOp35
 70
     1
102
RTVSPost2010Prop36
280
     0
102
RTVSPost2010PropOp36
 70
     1
102
RTVSPost2010Prop37
 90
       50
102
RTVSPost2010PropOp37
 70
     1
102
RTVSPost2010Prop38
140
0.0
102
RTVSPost2010PropOp38
 70
     1
102
RTVSPost2010Prop39
140
1.0
102
RTVSPost2010PropOp39
 70
     1
102
RTVSPost2010Prop40
 90
        0
102
RTVSPost2010PropOp40
 70
     1
102
RTVSPost2010Prop41ColorIndex
 90
       18
102
RTVSPost2010Prop41ColorRGB
 90
        0
102
RTVSPost2010PropOp41
 70
     1
102
RTVSPost2010Prop42
 90
       50
102
RTVSPost2010PropOp42
 70
     1
102
RTVSPost2010Prop43
 90
        3
102
RTVSPost2010PropOp43
 70
     1
102
RTVSPost2010Prop44ColorIndex
 90
        5
102
RTVSPost2010Prop44ColorRGB
 90
      255
102
RTVSPost2010PropOp44
 70
     1
102
RTVSPost2010Prop45
280
     0
102
RTVSPost2010PropOp45
 70
     1
102
RTVSPost2010Prop46
 90
       50
102
RTVSPost2010PropOp46
 70
     1
102
RTVSPost2010Prop47
 90
       50
102
RTVSPost2010PropOp47
 70
     1
102
RTVSPost2010Prop48
 90
       50
102
RTVSPost2010PropOp48
 70
     1
102
RTVSPost2010Prop49
280
     0
102
RTVSPost2010PropOp49
 70
     1
102
RTVSPost2010Prop50
 90
       50
102
RTVSPost2010PropOp50
 70
     1
102
RTVSPost2010Prop51ColorIndex
 90
      256
102
RTVSPost2010Prop51ColorRGB
 90
-16777216
102
RTVSPost2010PropOp51
 70
     0
102
RTVSPost2010Prop52
140
1.0
102
RTVSPost2010PropOp52
 70
     0
102
RTVSPost2010Prop53
 90
        2
102
RTVSPost2010PropOp53
 70
     1
102
RTVSPost2010Prop54
  1
strokes_ogs.tif
102
RTVSPost2010PropOp54
 70
     1
102
RTVSPost2010Prop55
280
     0
102
RTVSPost2010PropOp55
 70
     1
102
RTVSPost2010Prop56
140
1.0
102
RTVSPost2010PropOp56
 70
     1
102
RTVSPost2010Prop57
140
1.0
102
RTVSPost2010PropOp57
 70
     1
102
RTVSPropertyOp0
 70
     1
102
RTVSPropertyOp1
 70
     1
102
RTVSPropertyOp2
 70
     1
102
RTVSPropertyOp3
 70
     1
102
RTVSPropertyOp4
 70
     1
102
RTVSPropertyOp5
 70
     1
102
RTVSPropertyOp6
 70
     1
102
RTVSPropertyOp7
 70
     1
102
RTVSPropertyOp8
 70
     1
102
RTVSPropertyOp9
 70
     1
102
RTVSPropertyOp10
 70
     1
102
RTVSPropertyOp11
 70
     1
102
RTVSPropertyOp12
 70
     1
102
RTVSPropertyOp13
 70
     1
102
RTVSPropertyOp14
 70
     1
102
RTVSPropertyOp15
 70
     1
102
RTVSPropertyOp16
 70
     1
102
RTVSPropertyOp17
 70
     1
102
RTVSPropertyOp18
 70
     1
102
RTVSPropertyOp19
 70
     1
102
RTVSPropertyOp20
 70
     1
102
RTVSPropertyOp21
 70
     1
102
RTVSPropertyOp22
 70
     1
102
RTVSPropertyOp23
 70
     1
102
RTVSPropertyOp24
 70
     1
102
RTVSPropertyOp25
 70
     1
102
RTVSPropertyOp26
 70
     1
102
RTVSPropertyOp27
 70
     1
102
RTVSPropertyOp28
 70
     1
102
RTVSPropertyOp29
 70
     1
102
RTVSPropertyOp30
 70
     1
102
RTVSPropertyOp31
 70
     1
102
RTVSPropertyOp32
 70
     1
102
RTVSPropertyOp33
 70
     1
102
RTVSPropertyOp34
 70
     1
102
RTVSPropertyOp35
 70
     1
102
RTVSPropertyOp36
 70
     1
102
RTVSPropertyOp37
 70
     1
102
RTVSPropertyOp38
 70
     1
102
RTVSPropertyOp39
 70
     1
102
RTVSPropertyOp40
 70
     1
102
RTVSPropertyOp41
 70
     1
102
RTVSPropertyOp42
 70
     1
102
RTVSPropertyOp43
 70
     1
102
RTVSPropertyOp44
 70
     1
102
RTVSPropertyOp45
 70
     1
102
RTVSPropertyOp46
 70
     1
102
RTVSPropertyOp47
 70
     1
102
RTVSPropertyOp48
 70
     1
102
RTVSPropertyOp49
 70
     1
102
RTVSPropertyOp50
 70
     1
102
RTVSPropertyOp51
 70
     0
102
RTVSPropertyOp52
 70
     0
102
RTVSPropertyOp53
 70
     1
102
RTVSPropertyOp54
 70
     1
102
RTVSPropertyOp55
 70
     1
102
RTVSPropertyOp56
 70
     1
102
RTVSPropertyOp57
 70
     1
102
RTVSPropertyOp58
 70
     1
102
RTVSPropertyOp59
 70
     1
102
RTVSPropertyOp60
 70
     1
102
RTVSPropertyOp61
 70
     1
102
RTVSPropertyOp62
 70
     1
  0
XRECORD
  5
1DE9D
102
{ACAD_REACTORS
330
1DE9C
102
}
330
1DE9C
100
AcDbXrecord
280
     1
102
RTVSPost2010Prop28
280
     0
102
RTVSPost2010PropOp28
 70
     1
102
RTVSPost2010Prop29
280
     1
102
RTVSPost2010PropOp29
 70
     1
102
RTVSPost2010Prop30
280
     1
102
RTVSPost2010PropOp30
 70
     1
102
RTVSPost2010Prop31
280
     0
102
RTVSPost2010PropOp31
 70
     1
102
RTVSPost2010Prop32
280
     0
102
RTVSPost2010PropOp32
 70
     1
102
RTVSPost2010Prop33
280
     0
102
RTVSPost2010PropOp33
 70
     1
102
RTVSPost2010Prop34
280
     0
102
RTVSPost2010PropOp34
 70
     1
102
RTVSPost2010Prop35
280
     0
102
RTVSPost2010PropOp35
 70
     1
102
RTVSPost2010Prop36
280
     0
102
RTVSPost2010PropOp36
 70
     1
102
RTVSPost2010Prop37
 90
       50
102
RTVSPost2010PropOp37
 70
     1
102
RTVSPost2010Prop38
140
0.0
102
RTVSPost2010PropOp38
 70
     1
102
RTVSPost2010Prop39
140
1.0
102
RTVSPost2010PropOp39
 70
     1
102
RTVSPost2010Prop40
 90
        0
102
RTVSPost2010PropOp40
 70
     1
102
RTVSPost2010Prop41ColorIndex
 90
       18
102
RTVSPost2010Prop41ColorRGB
 90
        0
102
RTVSPost2010PropOp41
 70
     1
102
RTVSPost2010Prop42
 90
       50
102
RTVSPost2010PropOp42
 70
     1
102
RTVSPost2010Prop43
 90
        3
102
RTVSPost2010PropOp43
 70
     1
102
RTVSPost2010Prop44ColorIndex
 90
        5
102
RTVSPost2010Prop44ColorRGB
 90
      255
102
RTVSPost2010PropOp44
 70
     1
102
RTVSPost2010Prop45
280
     0
102
RTVSPost2010PropOp45
 70
     1
102
RTVSPost2010Prop46
 90
       50
102
RTVSPost2010PropOp46
 70
     1
102
RTVSPost2010Prop47
 90
       50
102
RTVSPost2010PropOp47
 70
     1
102
RTVSPost2010Prop48
 90
       50
102
RTVSPost2010PropOp48
 70
     1
102
RTVSPost2010Prop49
280
     0
102
RTVSPost2010PropOp49
 70
     1
102
RTVSPost2010Prop50
 90
       50
102
RTVSPost2010PropOp50
 70
     1
102
RTVSPost2010Prop51ColorIndex
 90
      256
102
RTVSPost2010Prop51ColorRGB
 90
-16777216
102
RTVSPost2010PropOp51
 70
     0
102
RTVSPost2010Prop52
140
1.0
102
RTVSPost2010PropOp52
 70
     0
102
RTVSPost2010Prop53
 90
        2
102
RTVSPost2010PropOp53
 70
     1
102
RTVSPost2010Prop54
  1
strokes_ogs.tif
102
RTVSPost2010PropOp54
 70
     1
102
RTVSPost2010Prop55
280
     0
102
RTVSPost2010PropOp55
 70
     1
102
RTVSPost2010Prop56
140
1.0
102
RTVSPost2010PropOp56
 70
     1
102
RTVSPost2010Prop57
140
1.0
102
RTVSPost2010PropOp57
 70
     1
102
RTVSPropertyOp0
 70
     1
102
RTVSPropertyOp1
 70
     1
102
RTVSPropertyOp2
 70
     1
102
RTVSPropertyOp3
 70
     1
102
RTVSPropertyOp4
 70
     1
102
RTVSPropertyOp5
 70
     1
102
RTVSPropertyOp6
 70
     1
102
RTVSPropertyOp7
 70
     1
102
RTVSPropertyOp8
 70
     1
102
RTVSPropertyOp9
 70
     1
102
RTVSPropertyOp10
 70
     1
102
RTVSPropertyOp11
 70
     1
102
RTVSPropertyOp12
 70
     1
102
RTVSPropertyOp13
 70
     1
102
RTVSPropertyOp14
 70
     1
102
RTVSPropertyOp15
 70
     1
102
RTVSPropertyOp16
 70
     1
102
RTVSPropertyOp17
 70
     1
102
RTVSPropertyOp18
 70
     1
102
RTVSPropertyOp19
 70
     1
102
RTVSPropertyOp20
 70
     1
102
RTVSPropertyOp21
 70
     1
102
RTVSPropertyOp22
 70
     1
102
RTVSPropertyOp23
 70
     1
102
RTVSPropertyOp24
 70
     1
102
RTVSPropertyOp25
 70
     1
102
RTVSPropertyOp26
 70
     1
102
RTVSPropertyOp27
 70
     1
102
RTVSPropertyOp28
 70
     1
102
RTVSPropertyOp29
 70
     1
102
RTVSPropertyOp30
 70
     1
102
RTVSPropertyOp31
 70
     1
102
RTVSPropertyOp32
 70
     1
102
RTVSPropertyOp33
 70
     1
102
RTVSPropertyOp34
 70
     1
102
RTVSPropertyOp35
 70
     1
102
RTVSPropertyOp36
 70
     1
102
RTVSPropertyOp37
 70
     1
102
RTVSPropertyOp38
 70
     1
102
RTVSPropertyOp39
 70
     1
102
RTVSPropertyOp40
 70
     1
102
RTVSPropertyOp41
 70
     1
102
RTVSPropertyOp42
 70
     1
102
RTVSPropertyOp43
 70
     1
102
RTVSPropertyOp44
 70
     1
102
RTVSPropertyOp45
 70
     1
102
RTVSPropertyOp46
 70
     1
102
RTVSPropertyOp47
 70
     1
102
RTVSPropertyOp48
 70
     1
102
RTVSPropertyOp49
 70
     1
102
RTVSPropertyOp50
 70
     1
102
RTVSPropertyOp51
 70
     0
102
RTVSPropertyOp52
 70
     0
102
RTVSPropertyOp53
 70
     1
102
RTVSPropertyOp54
 70
     1
102
RTVSPropertyOp55
 70
     1
102
RTVSPropertyOp56
 70
     1
102
RTVSPropertyOp57
 70
     1
102
RTVSPropertyOp58
 70
     1
102
RTVSPropertyOp59
 70
     1
102
RTVSPropertyOp60
 70
     1
102
RTVSPropertyOp61
 70
     1
102
RTVSPropertyOp62
 70
     1
  0
XRECORD
  5
1DE93
102
{ACAD_REACTORS
330
1DE92
102
}
330
1DE92
100
AcDbXrecord
280
     1
102
RTVSPost2010Prop28
280
     0
102
RTVSPost2010PropOp28
 70
     1
102
RTVSPost2010Prop29
280
     1
102
RTVSPost2010PropOp29
 70
     1
102
RTVSPost2010Prop30
280
     1
102
RTVSPost2010PropOp30
 70
     1
102
RTVSPost2010Prop31
280
     0
102
RTVSPost2010PropOp31
 70
     1
102
RTVSPost2010Prop32
280
     0
102
RTVSPost2010PropOp32
 70
     1
102
RTVSPost2010Prop33
280
     0
102
RTVSPost2010PropOp33
 70
     1
102
RTVSPost2010Prop34
280
     0
102
RTVSPost2010PropOp34
 70
     1
102
RTVSPost2010Prop35
280
     0
102
RTVSPost2010PropOp35
 70
     1
102
RTVSPost2010Prop36
280
     0
102
RTVSPost2010PropOp36
 70
     1
102
RTVSPost2010Prop37
 90
       50
102
RTVSPost2010PropOp37
 70
     1
102
RTVSPost2010Prop38
140
0.0
102
RTVSPost2010PropOp38
 70
     1
102
RTVSPost2010Prop39
140
1.0
102
RTVSPost2010PropOp39
 70
     1
102
RTVSPost2010Prop40
 90
        0
102
RTVSPost2010PropOp40
 70
     1
102
RTVSPost2010Prop41ColorIndex
 90
       18
102
RTVSPost2010Prop41ColorRGB
 90
        0
102
RTVSPost2010PropOp41
 70
     1
102
RTVSPost2010Prop42
 90
       50
102
RTVSPost2010PropOp42
 70
     1
102
RTVSPost2010Prop43
 90
        3
102
RTVSPost2010PropOp43
 70
     1
102
RTVSPost2010Prop44ColorIndex
 90
        5
102
RTVSPost2010Prop44ColorRGB
 90
      255
102
RTVSPost2010PropOp44
 70
     1
102
RTVSPost2010Prop45
280
     0
102
RTVSPost2010PropOp45
 70
     1
102
RTVSPost2010Prop46
 90
       50
102
RTVSPost2010PropOp46
 70
     1
102
RTVSPost2010Prop47
 90
       50
102
RTVSPost2010PropOp47
 70
     1
102
RTVSPost2010Prop48
 90
       50
102
RTVSPost2010PropOp48
 70
     1
102
RTVSPost2010Prop49
280
     0
102
RTVSPost2010PropOp49
 70
     1
102
RTVSPost2010Prop50
 90
       50
102
RTVSPost2010PropOp50
 70
     1
102
RTVSPost2010Prop51ColorIndex
 90
      256
102
RTVSPost2010Prop51ColorRGB
 90
-16777216
102
RTVSPost2010PropOp51
 70
     0
102
RTVSPost2010Prop52
140
1.0
102
RTVSPost2010PropOp52
 70
     0
102
RTVSPost2010Prop53
 90
        2
102
RTVSPost2010PropOp53
 70
     1
102
RTVSPost2010Prop54
  1
strokes_ogs.tif
102
RTVSPost2010PropOp54
 70
     1
102
RTVSPost2010Prop55
280
     0
102
RTVSPost2010PropOp55
 70
     1
102
RTVSPost2010Prop56
140
1.0
102
RTVSPost2010PropOp56
 70
     1
102
RTVSPost2010Prop57
140
1.0
102
RTVSPost2010PropOp57
 70
     1
102
RTVSPropertyOp0
 70
     1
102
RTVSPropertyOp1
 70
     1
102
RTVSPropertyOp2
 70
     1
102
RTVSPropertyOp3
 70
     1
102
RTVSPropertyOp4
 70
     1
102
RTVSPropertyOp5
 70
     1
102
RTVSPropertyOp6
 70
     1
102
RTVSPropertyOp7
 70
     1
102
RTVSPropertyOp8
 70
     1
102
RTVSPropertyOp9
 70
     1
102
RTVSPropertyOp10
 70
     1
102
RTVSPropertyOp11
 70
     1
102
RTVSPropertyOp12
 70
     1
102
RTVSPropertyOp13
 70
     1
102
RTVSPropertyOp14
 70
     1
102
RTVSPropertyOp15
 70
     1
102
RTVSPropertyOp16
 70
     1
102
RTVSPropertyOp17
 70
     1
102
RTVSPropertyOp18
 70
     1
102
RTVSPropertyOp19
 70
     1
102
RTVSPropertyOp20
 70
     1
102
RTVSPropertyOp21
 70
     1
102
RTVSPropertyOp22
 70
     1
102
RTVSPropertyOp23
 70
     1
102
RTVSPropertyOp24
 70
     1
102
RTVSPropertyOp25
 70
     1
102
RTVSPropertyOp26
 70
     1
102
RTVSPropertyOp27
 70
     1
102
RTVSPropertyOp28
 70
     1
102
RTVSPropertyOp29
 70
     1
102
RTVSPropertyOp30
 70
     1
102
RTVSPropertyOp31
 70
     1
102
RTVSPropertyOp32
 70
     1
102
RTVSPropertyOp33
 70
     1
102
RTVSPropertyOp34
 70
     1
102
RTVSPropertyOp35
 70
     1
102
RTVSPropertyOp36
 70
     1
102
RTVSPropertyOp37
 70
     1
102
RTVSPropertyOp38
 70
     1
102
RTVSPropertyOp39
 70
     1
102
RTVSPropertyOp40
 70
     1
102
RTVSPropertyOp41
 70
     1
102
RTVSPropertyOp42
 70
     1
102
RTVSPropertyOp43
 70
     1
102
RTVSPropertyOp44
 70
     1
102
RTVSPropertyOp45
 70
     1
102
RTVSPropertyOp46
 70
     1
102
RTVSPropertyOp47
 70
     1
102
RTVSPropertyOp48
 70
     1
102
RTVSPropertyOp49
 70
     1
102
RTVSPropertyOp50
 70
     1
102
RTVSPropertyOp51
 70
     0
102
RTVSPropertyOp52
 70
     0
102
RTVSPropertyOp53
 70
     1
102
RTVSPropertyOp54
 70
     1
102
RTVSPropertyOp55
 70
     1
102
RTVSPropertyOp56
 70
     1
102
RTVSPropertyOp57
 70
     1
102
RTVSPropertyOp58
 70
     1
102
RTVSPropertyOp59
 70
     1
102
RTVSPropertyOp60
 70
     1
102
RTVSPropertyOp61
 70
     1
102
RTVSPropertyOp62
 70
     1
  0
XRECORD
  5
1DE87
102
{ACAD_REACTORS
330
1DE86
102
}
330
1DE86
100
AcDbXrecord
280
     1
102
RTVSPost2010Prop28
280
     0
102
RTVSPost2010PropOp28
 70
     1
102
RTVSPost2010Prop29
280
     1
102
RTVSPost2010PropOp29
 70
     1
102
RTVSPost2010Prop30
280
     1
102
RTVSPost2010PropOp30
 70
     1
102
RTVSPost2010Prop31
280
     0
102
RTVSPost2010PropOp31
 70
     1
102
RTVSPost2010Prop32
280
     0
102
RTVSPost2010PropOp32
 70
     1
102
RTVSPost2010Prop33
280
     0
102
RTVSPost2010PropOp33
 70
     1
102
RTVSPost2010Prop34
280
     0
102
RTVSPost2010PropOp34
 70
     1
102
RTVSPost2010Prop35
280
     0
102
RTVSPost2010PropOp35
 70
     1
102
RTVSPost2010Prop36
280
     0
102
RTVSPost2010PropOp36
 70
     1
102
RTVSPost2010Prop37
 90
       50
102
RTVSPost2010PropOp37
 70
     1
102
RTVSPost2010Prop38
140
0.0
102
RTVSPost2010PropOp38
 70
     1
102
RTVSPost2010Prop39
140
1.0
102
RTVSPost2010PropOp39
 70
     1
102
RTVSPost2010Prop40
 90
        0
102
RTVSPost2010PropOp40
 70
     1
102
RTVSPost2010Prop41ColorIndex
 90
       18
102
RTVSPost2010Prop41ColorRGB
 90
        0
102
RTVSPost2010PropOp41
 70
     1
102
RTVSPost2010Prop42
 90
       50
102
RTVSPost2010PropOp42
 70
     1
102
RTVSPost2010Prop43
 90
        3
102
RTVSPost2010PropOp43
 70
     1
102
RTVSPost2010Prop44ColorIndex
 90
        5
102
RTVSPost2010Prop44ColorRGB
 90
      255
102
RTVSPost2010PropOp44
 70
     1
102
RTVSPost2010Prop45
280
     0
102
RTVSPost2010PropOp45
 70
     1
102
RTVSPost2010Prop46
 90
       50
102
RTVSPost2010PropOp46
 70
     1
102
RTVSPost2010Prop47
 90
       50
102
RTVSPost2010PropOp47
 70
     1
102
RTVSPost2010Prop48
 90
       50
102
RTVSPost2010PropOp48
 70
     1
102
RTVSPost2010Prop49
280
     0
102
RTVSPost2010PropOp49
 70
     1
102
RTVSPost2010Prop50
 90
       50
102
RTVSPost2010PropOp50
 70
     1
102
RTVSPost2010Prop51ColorIndex
 90
      256
102
RTVSPost2010Prop51ColorRGB
 90
-16777216
102
RTVSPost2010PropOp51
 70
     0
102
RTVSPost2010Prop52
140
1.0
102
RTVSPost2010PropOp52
 70
     0
102
RTVSPost2010Prop53
 90
        2
102
RTVSPost2010PropOp53
 70
     1
102
RTVSPost2010Prop54
  1
strokes_ogs.tif
102
RTVSPost2010PropOp54
 70
     1
102
RTVSPost2010Prop55
280
     0
102
RTVSPost2010PropOp55
 70
     1
102
RTVSPost2010Prop56
140
1.0
102
RTVSPost2010PropOp56
 70
     1
102
RTVSPost2010Prop57
140
1.0
102
RTVSPost2010PropOp57
 70
     1
102
RTVSPropertyOp0
 70
     1
102
RTVSPropertyOp1
 70
     1
102
RTVSPropertyOp2
 70
     1
102
RTVSPropertyOp3
 70
     1
102
RTVSPropertyOp4
 70
     1
102
RTVSPropertyOp5
 70
     1
102
RTVSPropertyOp6
 70
     1
102
RTVSPropertyOp7
 70
     1
102
RTVSPropertyOp8
 70
     1
102
RTVSPropertyOp9
 70
     1
102
RTVSPropertyOp10
 70
     1
102
RTVSPropertyOp11
 70
     1
102
RTVSPropertyOp12
 70
     1
102
RTVSPropertyOp13
 70
     1
102
RTVSPropertyOp14
 70
     1
102
RTVSPropertyOp15
 70
     1
102
RTVSPropertyOp16
 70
     1
102
RTVSPropertyOp17
 70
     1
102
RTVSPropertyOp18
 70
     1
102
RTVSPropertyOp19
 70
     1
102
RTVSPropertyOp20
 70
     1
102
RTVSPropertyOp21
 70
     1
102
RTVSPropertyOp22
 70
     1
102
RTVSPropertyOp23
 70
     1
102
RTVSPropertyOp24
 70
     1
102
RTVSPropertyOp25
 70
     1
102
RTVSPropertyOp26
 70
     1
102
RTVSPropertyOp27
 70
     1
102
RTVSPropertyOp28
 70
     1
102
RTVSPropertyOp29
 70
     1
102
RTVSPropertyOp30
 70
     1
102
RTVSPropertyOp31
 70
     1
102
RTVSPropertyOp32
 70
     1
102
RTVSPropertyOp33
 70
     1
102
RTVSPropertyOp34
 70
     1
102
RTVSPropertyOp35
 70
     1
102
RTVSPropertyOp36
 70
     1
102
RTVSPropertyOp37
 70
     1
102
RTVSPropertyOp38
 70
     1
102
RTVSPropertyOp39
 70
     1
102
RTVSPropertyOp40
 70
     1
102
RTVSPropertyOp41
 70
     1
102
RTVSPropertyOp42
 70
     1
102
RTVSPropertyOp43
 70
     1
102
RTVSPropertyOp44
 70
     1
102
RTVSPropertyOp45
 70
     1
102
RTVSPropertyOp46
 70
     1
102
RTVSPropertyOp47
 70
     1
102
RTVSPropertyOp48
 70
     1
102
RTVSPropertyOp49
 70
     1
102
RTVSPropertyOp50
 70
     1
102
RTVSPropertyOp51
 70
     0
102
RTVSPropertyOp52
 70
     0
102
RTVSPropertyOp53
 70
     1
102
RTVSPropertyOp54
 70
     1
102
RTVSPropertyOp55
 70
     1
102
RTVSPropertyOp56
 70
     1
102
RTVSPropertyOp57
 70
     1
102
RTVSPropertyOp58
 70
     1
102
RTVSPropertyOp59
 70
     1
102
RTVSPropertyOp60
 70
     1
102
RTVSPropertyOp61
 70
     1
102
RTVSPropertyOp62
 70
     1
  0
XRECORD
  5
1DE9F
102
{ACAD_REACTORS
330
1DE9E
102
}
330
1DE9E
100
AcDbXrecord
280
     1
102
RTVSPost2010Prop28
280
     0
102
RTVSPost2010PropOp28
 70
     1
102
RTVSPost2010Prop29
280
     1
102
RTVSPost2010PropOp29
 70
     1
102
RTVSPost2010Prop30
280
     1
102
RTVSPost2010PropOp30
 70
     1
102
RTVSPost2010Prop31
280
     0
102
RTVSPost2010PropOp31
 70
     1
102
RTVSPost2010Prop32
280
     0
102
RTVSPost2010PropOp32
 70
     1
102
RTVSPost2010Prop33
280
     0
102
RTVSPost2010PropOp33
 70
     1
102
RTVSPost2010Prop34
280
     0
102
RTVSPost2010PropOp34
 70
     1
102
RTVSPost2010Prop35
280
     0
102
RTVSPost2010PropOp35
 70
     1
102
RTVSPost2010Prop36
280
     0
102
RTVSPost2010PropOp36
 70
     1
102
RTVSPost2010Prop37
 90
       50
102
RTVSPost2010PropOp37
 70
     1
102
RTVSPost2010Prop38
140
0.0
102
RTVSPost2010PropOp38
 70
     1
102
RTVSPost2010Prop39
140
1.0
102
RTVSPost2010PropOp39
 70
     1
102
RTVSPost2010Prop40
 90
        0
102
RTVSPost2010PropOp40
 70
     1
102
RTVSPost2010Prop41ColorIndex
 90
       18
102
RTVSPost2010Prop41ColorRGB
 90
        0
102
RTVSPost2010PropOp41
 70
     1
102
RTVSPost2010Prop42
 90
       50
102
RTVSPost2010PropOp42
 70
     1
102
RTVSPost2010Prop43
 90
        3
102
RTVSPost2010PropOp43
 70
     1
102
RTVSPost2010Prop44ColorIndex
 90
        5
102
RTVSPost2010Prop44ColorRGB
 90
      255
102
RTVSPost2010PropOp44
 70
     1
102
RTVSPost2010Prop45
280
     0
102
RTVSPost2010PropOp45
 70
     1
102
RTVSPost2010Prop46
 90
       50
102
RTVSPost2010PropOp46
 70
     1
102
RTVSPost2010Prop47
 90
       50
102
RTVSPost2010PropOp47
 70
     1
102
RTVSPost2010Prop48
 90
       50
102
RTVSPost2010PropOp48
 70
     1
102
RTVSPost2010Prop49
280
     0
102
RTVSPost2010PropOp49
 70
     1
102
RTVSPost2010Prop50
 90
       50
102
RTVSPost2010PropOp50
 70
     1
102
RTVSPost2010Prop51ColorIndex
 90
      256
102
RTVSPost2010Prop51ColorRGB
 90
-16777216
102
RTVSPost2010PropOp51
 70
     0
102
RTVSPost2010Prop52
140
1.0
102
RTVSPost2010PropOp52
 70
     0
102
RTVSPost2010Prop53
 90
        2
102
RTVSPost2010PropOp53
 70
     1
102
RTVSPost2010Prop54
  1
strokes_ogs.tif
102
RTVSPost2010PropOp54
 70
     1
102
RTVSPost2010Prop55
280
     0
102
RTVSPost2010PropOp55
 70
     1
102
RTVSPost2010Prop56
140
1.0
102
RTVSPost2010PropOp56
 70
     1
102
RTVSPost2010Prop57
140
1.0
102
RTVSPost2010PropOp57
 70
     1
102
RTVSPropertyOp0
 70
     1
102
RTVSPropertyOp1
 70
     1
102
RTVSPropertyOp2
 70
     1
102
RTVSPropertyOp3
 70
     1
102
RTVSPropertyOp4
 70
     1
102
RTVSPropertyOp5
 70
     1
102
RTVSPropertyOp6
 70
     1
102
RTVSPropertyOp7
 70
     1
102
RTVSPropertyOp8
 70
     1
102
RTVSPropertyOp9
 70
     1
102
RTVSPropertyOp10
 70
     1
102
RTVSPropertyOp11
 70
     1
102
RTVSPropertyOp12
 70
     1
102
RTVSPropertyOp13
 70
     1
102
RTVSPropertyOp14
 70
     1
102
RTVSPropertyOp15
 70
     1
102
RTVSPropertyOp16
 70
     1
102
RTVSPropertyOp17
 70
     1
102
RTVSPropertyOp18
 70
     1
102
RTVSPropertyOp19
 70
     1
102
RTVSPropertyOp20
 70
     1
102
RTVSPropertyOp21
 70
     1
102
RTVSPropertyOp22
 70
     1
102
RTVSPropertyOp23
 70
     1
102
RTVSPropertyOp24
 70
     1
102
RTVSPropertyOp25
 70
     1
102
RTVSPropertyOp26
 70
     1
102
RTVSPropertyOp27
 70
     1
102
RTVSPropertyOp28
 70
     1
102
RTVSPropertyOp29
 70
     1
102
RTVSPropertyOp30
 70
     1
102
RTVSPropertyOp31
 70
     1
102
RTVSPropertyOp32
 70
     1
102
RTVSPropertyOp33
 70
     1
102
RTVSPropertyOp34
 70
     1
102
RTVSPropertyOp35
 70
     1
102
RTVSPropertyOp36
 70
     1
102
RTVSPropertyOp37
 70
     1
102
RTVSPropertyOp38
 70
     1
102
RTVSPropertyOp39
 70
     1
102
RTVSPropertyOp40
 70
     1
102
RTVSPropertyOp41
 70
     1
102
RTVSPropertyOp42
 70
     1
102
RTVSPropertyOp43
 70
     1
102
RTVSPropertyOp44
 70
     1
102
RTVSPropertyOp45
 70
     1
102
RTVSPropertyOp46
 70
     1
102
RTVSPropertyOp47
 70
     1
102
RTVSPropertyOp48
 70
     1
102
RTVSPropertyOp49
 70
     1
102
RTVSPropertyOp50
 70
     1
102
RTVSPropertyOp51
 70
     0
102
RTVSPropertyOp52
 70
     0
102
RTVSPropertyOp53
 70
     1
102
RTVSPropertyOp54
 70
     1
102
RTVSPropertyOp55
 70
     1
102
RTVSPropertyOp56
 70
     1
102
RTVSPropertyOp57
 70
     1
102
RTVSPropertyOp58
 70
     1
102
RTVSPropertyOp59
 70
     1
102
RTVSPropertyOp60
 70
     1
102
RTVSPropertyOp61
 70
     1
102
RTVSPropertyOp62
 70
     1
  0
ENDSEC
  0
EOF
