  0
SECTION
  2
HEADER
  9
$ACADVER
  1
AC1015
  9
$ACADMAINTVER
 70
    20
  9
$DWGCODEPAGE
  3
ANSI_932
  9
$INSBASE
 10
0.0
 20
0.0
 30
0.0
  9
$EXTMIN
 10
9.99995
 20
9.999999999999998
 30
0.0
  9
$EXTMAX
 10
277.5346479999999
 20
219.9999919999999
 30
0.0
  9
$LIMMIN
 10
0.0
 20
0.0
  9
$LIMMAX
 10
396.0
 20
273.0
  9
$ORTHOMODE
 70
     1
  9
$REGENMODE
 70
     1
  9
$FILLMODE
 70
     1
  9
$QTEXTMODE
 70
     0
  9
$MIRRTEXT
 70
     1
  9
$LTSCALE
 40
20.0
  9
$ATTMODE
 70
     1
  9
$TEXTSIZE
 40
5.0
  9
$TRACEWID
 40
1.0
  9
$TEXTSTYLE
  7
STANDARD
  9
$CLAYER
  8
0
  9
$CELTYPE
  6
BYLAYER
  9
$CECOLOR
 62
   256
  9
$CELTSCALE
 40
1.0
  9
$DISPSILH
 70
     0
  9
$DIMSCALE
 40
1.0
  9
$DIMASZ
 40
3.0
  9
$DIMEXO
 40
1.0
  9
$DIMDLI
 40
10.0
  9
$DIMRND
 40
0.0
  9
$DIMDLE
 40
0.0
  9
$DIMEXE
 40
1.0
  9
$DIMTP
 40
0.0
  9
$DIMTM
 40
0.0
  9
$DIMTXT
 40
3.2
  9
$DIMCEN
 40
0.0
  9
$DIMTSZ
 40
0.0
  9
$DIMTOL
 70
     0
  9
$DIMLIM
 70
     0
  9
$DIMTIH
 70
     0
  9
$DIMTOH
 70
     0
  9
$DIMSE1
 70
     0
  9
$DIMSE2
 70
     0
  9
$DIMTAD
 70
     3
  9
$DIMZIN
 70
     8
  9
$DIMBLK
  1

  9
$DIMASO
 70
     1
  9
$DIMSHO
 70
     1
  9
$DIMPOST
  1

  9
$DIMAPOST
  1

  9
$DIMALT
 70
     0
  9
$DIMALTD
 70
     2
  9
$DIMALTF
 40
25.4
  9
$DIMLFAC
 40
1.0
  9
$DIMTOFL
 70
     1
  9
$DIMTVP
 40
0.0
  9
$DIMTIX
 70
     0
  9
$DIMSOXD
 70
     0
  9
$DIMSAH
 70
     1
  9
$DIMBLK1
  1
OPEN
  9
$DIMBLK2
  1
OPEN
  9
$DIMSTYLE
  2
STANDARD
  9
$DIMCLRD
 70
     0
  9
$DIMCLRE
 70
     0
  9
$DIMCLRT
 70
     0
  9
$DIMTFAC
 40
1.0
  9
$DIMGAP
 40
1.0
  9
$DIMJUST
 70
     0
  9
$DIMSD1
 70
     0
  9
$DIMSD2
 70
     0
  9
$DIMTOLJ
 70
     1
  9
$DIMTZIN
 70
     0
  9
$DIMALTZ
 70
     0
  9
$DIMALTTZ
 70
     0
  9
$DIMUPT
 70
     0
  9
$DIMDEC
 70
     4
  9
$DIMTDEC
 70
     4
  9
$DIMALTU
 70
     2
  9
$DIMALTTD
 70
     2
  9
$DIMTXSTY
  7
STANDARD
  9
$DIMAUNIT
 70
     0
  9
$DIMADEC
 70
     0
  9
$DIMALTRND
 40
0.0
  9
$DIMAZIN
 70
     0
  9
$DIMDSEP
 70
    46
  9
$DIMATFIT
 70
     3
  9
$DIMFRAC
 70
     0
  9
$DIMLDRBLK
  1
OPEN
  9
$DIMLUNIT
 70
     2
  9
$DIMLWD
 70
    -2
  9
$DIMLWE
 70
    -2
  9
$DIMTMOVE
 70
     0
  9
$LUNITS
 70
     2
  9
$LUPREC
 70
     4
  9
$SKETCHINC
 40
1.0
  9
$FILLETRAD
 40
1.0
  9
$AUNITS
 70
     0
  9
$AUPREC
 70
     2
  9
$MENU
  1
.
  9
$ELEVATION
 40
0.0
  9
$PELEVATION
 40
0.0
  9
$THICKNESS
 40
0.0
  9
$LIMCHECK
 70
     0
  9
$CHAMFERA
 40
10.0
  9
$CHAMFERB
 40
10.0
  9
$CHAMFERC
 40
0.0
  9
$CHAMFERD
 40
0.0
  9
$SKPOLY
 70
     0
  9
$TDCREATE
 40
2451302.539363889
  9
$TDUCREATE
 40
2451302.164363889
  9
$TDUPDATE
 40
2457192.656864317
  9
$TDUUPDATE
 40
2457192.281864317
  9
$TDINDWG
 40
0.0000107639
  9
$TDUSRTIMER
 40
0.0000102778
  9
$USRTIMER
 70
     1
  9
$ANGBASE
 50
0.0
  9
$ANGDIR
 70
     0
  9
$PDMODE
 70
    34
  9
$PDSIZE
 40
0.0
  9
$PLINEWID
 40
0.0
  9
$SPLFRAME
 70
     0
  9
$SPLINETYPE
 70
     6
  9
$SPLINESEGS
 70
     8
  9
$HANDSEED
  5
1AC7E
  9
$SURFTAB1
 70
     6
  9
$SURFTAB2
 70
     6
  9
$SURFTYPE
 70
     6
  9
$SURFU
 70
     6
  9
$SURFV
 70
     6
  9
$UCSBASE
  2

  9
$UCSNAME
  2

  9
$UCSORG
 10
0.0
 20
0.0
 30
0.0
  9
$UCSXDIR
 10
1.0
 20
0.0
 30
0.0
  9
$UCSYDIR
 10
0.0
 20
1.0
 30
0.0
  9
$UCSORTHOREF
  2

  9
$UCSORTHOVIEW
 70
     0
  9
$UCSORGTOP
 10
0.0
 20
0.0
 30
0.0
  9
$UCSORGBOTTOM
 10
0.0
 20
0.0
 30
0.0
  9
$UCSORGLEFT
 10
0.0
 20
0.0
 30
0.0
  9
$UCSORGRIGHT
 10
0.0
 20
0.0
 30
0.0
  9
$UCSORGFRONT
 10
0.0
 20
0.0
 30
0.0
  9
$UCSORGBACK
 10
0.0
 20
0.0
 30
0.0
  9
$PUCSBASE
  2

  9
$PUCSNAME
  2

  9
$PUCSORG
 10
0.0
 20
0.0
 30
0.0
  9
$PUCSXDIR
 10
1.0
 20
0.0
 30
0.0
  9
$PUCSYDIR
 10
0.0
 20
1.0
 30
0.0
  9
$PUCSORTHOREF
  2

  9
$PUCSORTHOVIEW
 70
     0
  9
$PUCSORGTOP
 10
0.0
 20
0.0
 30
0.0
  9
$PUCSORGBOTTOM
 10
0.0
 20
0.0
 30
0.0
  9
$PUCSORGLEFT
 10
0.0
 20
0.0
 30
0.0
  9
$PUCSORGRIGHT
 10
0.0
 20
0.0
 30
0.0
  9
$PUCSORGFRONT
 10
0.0
 20
0.0
 30
0.0
  9
$PUCSORGBACK
 10
0.0
 20
0.0
 30
0.0
  9
$USERI1
 70
     0
  9
$USERI2
 70
     0
  9
$USERI3
 70
     0
  9
$USERI4
 70
     0
  9
$USERI5
 70
     0
  9
$USERR1
 40
0.0
  9
$USERR2
 40
0.0
  9
$USERR3
 40
0.0
  9
$USERR4
 40
0.0
  9
$USERR5
 40
0.0
  9
$WORLDVIEW
 70
     1
  9
$SHADEDGE
 70
     3
  9
$SHADEDIF
 70
    70
  9
$TILEMODE
 70
     1
  9
$MAXACTVP
 70
    16
  9
$PINSBASE
 10
0.0
 20
0.0
 30
0.0
  9
$PLIMCHECK
 70
     0
  9
$PEXTMIN
 10
1.000000000000000E+20
 20
1.000000000000000E+20
 30
1.000000000000000E+20
  9
$PEXTMAX
 10
-1.000000000000000E+20
 20
-1.000000000000000E+20
 30
-1.000000000000000E+20
  9
$PLIMMIN
 10
0.0
 20
0.0
  9
$PLIMMAX
 10
420.0
 20
297.0
  9
$UNITMODE
 70
     0
  9
$VISRETAIN
 70
     0
  9
$PLINEGEN
 70
     0
  9
$PSLTSCALE
 70
     0
  9
$TREEDEPTH
 70
  3020
  9
$CMLSTYLE
  2
STANDARD
  9
$CMLJUST
 70
     0
  9
$CMLSCALE
 40
1.0
  9
$PROXYGRAPHICS
 70
     1
  9
$MEASUREMENT
 70
     0
  9
$CELWEIGHT
370
    -1
  9
$ENDCAPS
280
     0
  9
$JOINSTYLE
280
     0
  9
$LWDISPLAY
290
     0
  9
$INSUNITS
 70
     0
  9
$HYPERLINKBASE
  1

  9
$STYLESHEET
  1

  9
$XEDIT
290
     1
  9
$CEPSNTYPE
380
     0
  9
$PSTYLEMODE
290
     1
  9
$FINGERPRINTGUID
  2
{25CD1D5C-AD03-4F69-A0FE-9BFC94017670}
  9
$VERSIONGUID
  2
{358BA9DB-8EC4-43B7-A31F-A985A0A904C2}
  9
$EXTNAMES
290
     1
  9
$PSVPSCALE
 40
0.0
  9
$OLESTARTUP
290
     0
  0
ENDSEC
  0
SECTION
  2
CLASSES
  0
CLASS
  1
ACDBDICTIONARYWDFLT
  2
AcDbDictionaryWithDefault
  3
ObjectDBX Classes
 90
        0
280
     0
281
     0
  0
CLASS
  1
ACDBPLACEHOLDER
  2
AcDbPlaceHolder
  3
ObjectDBX Classes
 90
        0
280
     0
281
     0
  0
CLASS
  1
LAYOUT
  2
AcDbLayout
  3
ObjectDBX Classes
 90
        0
280
     0
281
     0
  0
CLASS
  1
DICTIONARYVAR
  2
AcDbDictionaryVar
  3
ObjectDBX Classes
 90
        0
280
     0
281
     0
  0
CLASS
  1
MATERIAL
  2
AcDbMaterial
  3
ObjectDBX Classes
 90
     1153
280
     0
281
     0
  0
CLASS
  1
VISUALSTYLE
  2
AcDbVisualStyle
  3
ObjectDBX Classes
 90
     4095
280
     0
281
     0
  0
CLASS
  1
TABLESTYLE
  2
AcDbTableStyle
  3
ObjectDBX Classes
 90
     4095
280
     0
281
     0
  0
CLASS
  1
SCALE
  2
AcDbScale
  3
ObjectDBX Classes
 90
     1153
280
     0
281
     0
  0
CLASS
  1
MLEADERSTYLE
  2
AcDbMLeaderStyle
  3
ACDB_MLEADERSTYLE_CLASS
 90
     4095
280
     0
281
     0
  0
CLASS
  1
ACDBSECTIONVIEWSTYLE
  2
AcDbSectionViewStyle
  3
ObjectDBX Classes
 90
     1025
280
     0
281
     0
  0
CLASS
  1
ACDBDETAILVIEWSTYLE
  2
AcDbDetailViewStyle
  3
ObjectDBX Classes
 90
     1025
280
     0
281
     0
  0
CLASS
  1
CELLSTYLEMAP
  2
AcDbCellStyleMap
  3
ObjectDBX Classes
 90
     1152
280
     0
281
     0
  0
ENDSEC
  0
SECTION
  2
TABLES
  0
TABLE
  2
VPORT
  5
1A92C
330
0
100
AcDbSymbolTable
 70
     1
  0
VPORT
  5
1ABC7
330
1A92C
100
AcDbSymbolTableRecord
100
AcDbViewportTableRecord
  2
*ACTIVE
 70
     0
 10
0.0
 20
0.0
 11
1.0
 21
1.0
 12
207.3018152255273
 22
114.9948355104946
 13
0.0
 23
0.0
 14
10.0
 24
10.0
 15
10.0
 25
10.0
 16
0.0
 26
0.0
 36
1.0
 17
0.0
 27
0.0
 37
0.0
 40
212.3600682844093
 41
1.899603698811096
 42
50.0
 43
0.0
 44
0.0
 50
0.0
 51
0.0
 71
     0
 72
   100
 73
     1
 74
     0
 75
     0
 76
     0
 77
     0
 78
     1
281
     0
 65
     1
110
0.0
120
0.0
130
0.0
111
1.0
121
0.0
131
0.0
112
0.0
122
1.0
132
0.0
 79
     0
146
0.0
1001
ACAD_NAV_VCDISPLAY
1070
     3
  0
ENDTAB
  0
TABLE
  2
LTYPE
  5
1A929
330
0
100
AcDbSymbolTable
 70
     4
  0
LTYPE
  5
1A937
330
1A929
100
AcDbSymbolTableRecord
100
AcDbLinetypeTableRecord
  2
BYBLOCK
 70
     0
  3

 72
    65
 73
     0
 40
0.0
  0
LTYPE
  5
1A938
330
1A929
100
AcDbSymbolTableRecord
100
AcDbLinetypeTableRecord
  2
BYLAYER
 70
     0
  3

 72
    65
 73
     0
 40
0.0
  0
LTYPE
  5
1A939
330
1A929
100
AcDbSymbolTableRecord
100
AcDbLinetypeTableRecord
  2
CONTINUOUS
 70
     0
  3
Solid line
 72
    65
 73
     0
 40
0.0
  0
LTYPE
  5
1A947
330
1A929
100
AcDbSymbolTableRecord
100
AcDbLinetypeTableRecord
  2
DASHED
 70
     0
  3
__ __ __ __ __ __ __ __ __ __ __ __ __ __ __ __
 72
    65
 73
     2
 40
0.75
 49
0.5
 74
     0
 49
-0.25
 74
     0
  0
LTYPE
  5
1A948
330
1A929
100
AcDbSymbolTableRecord
100
AcDbLinetypeTableRecord
  2
CENTER
 70
     0
  3
____ _ ____ _ ____ _ ____ _ ____ _ ____ _ ____ 
 72
    65
 73
     4
 40
2.0
 49
1.25
 74
     0
 49
-0.25
 74
     0
 49
0.25
 74
     0
 49
-0.25
 74
     0
  0
LTYPE
  5
1A949
330
1A929
100
AcDbSymbolTableRecord
100
AcDbLinetypeTableRecord
  2
PHANTOM
 70
     0
  3
______  __  __  ______  __  __  ______  __  __ 
 72
    65
 73
     6
 40
2.5
 49
1.25
 74
     0
 49
-0.25
 74
     0
 49
0.25
 74
     0
 49
-0.25
 74
     0
 49
0.25
 74
     0
 49
-0.25
 74
     0
  0
ENDTAB
  0
TABLE
  2
LAYER
  5
1A926
330
0
100
AcDbSymbolTable
 70
     8
  0
LAYER
  5
1A934
102
{ACAD_XDICTIONARY
360
1AC22
102
}
330
1A926
100
AcDbSymbolTableRecord
100
AcDbLayerTableRecord
  2
0
 70
     0
 62
     7
  6
CONTINUOUS
370
    -3
390
1ABD0
  0
LAYER
  5
1A94A
102
{ACAD_XDICTIONARY
360
1AC24
102
}
330
1A926
100
AcDbSymbolTableRecord
100
AcDbLayerTableRecord
  2
4
 70
     0
 62
     1
  6
CENTER
370
    -3
390
1ABD0
  0
LAYER
  5
1A94B
102
{ACAD_XDICTIONARY
360
1AC26
102
}
330
1A926
100
AcDbSymbolTableRecord
100
AcDbLayerTableRecord
  2
5
 70
     0
 62
     6
  6
PHANTOM
370
    -3
390
1ABD0
  0
LAYER
  5
1A94C
102
{ACAD_XDICTIONARY
360
1AC28
102
}
330
1A926
100
AcDbSymbolTableRecord
100
AcDbLayerTableRecord
  2
1
 70
     0
 62
     7
  6
CONTINUOUS
370
    -3
390
1ABD0
  0
LAYER
  5
1A94D
102
{ACAD_XDICTIONARY
360
1AC2A
102
}
330
1A926
100
AcDbSymbolTableRecord
100
AcDbLayerTableRecord
  2
2
 70
     0
 62
     4
  6
CONTINUOUS
370
    -3
390
1ABD0
  0
LAYER
  5
1A94E
102
{ACAD_XDICTIONARY
360
1AC2C
102
}
330
1A926
100
AcDbSymbolTableRecord
100
AcDbLayerTableRecord
  2
3
 70
     0
 62
     2
  6
DASHED
370
    -3
390
1ABD0
  0
LAYER
  5
1A94F
102
{ACAD_XDICTIONARY
360
1AC2E
102
}
330
1A926
100
AcDbSymbolTableRecord
100
AcDbLayerTableRecord
  2
6
 70
     0
 62
     5
  6
CONTINUOUS
370
    -3
390
1ABD0
  0
LAYER
  5
1A950
102
{ACAD_XDICTIONARY
360
1AC30
102
}
330
1A926
100
AcDbSymbolTableRecord
100
AcDbLayerTableRecord
  2
7
 70
     0
 62
     3
  6
CONTINUOUS
370
    -3
390
1ABD0
  0
ENDTAB
  0
TABLE
  2
STYLE
  5
1A927
330
0
100
AcDbSymbolTable
 70
     1
  0
STYLE
  5
1A935
330
1A927
100
AcDbSymbolTableRecord
100
AcDbTextStyleTableRecord
  2
STANDARD
 70
     0
 40
0.0
 41
1.0
 50
0.0
 71
     0
 42
5.0
  3
txt
  4

  0
ENDTAB
  0
TABLE
  2
VIEW
  5
1A92A
330
0
100
AcDbSymbolTable
 70
     2
  0
VIEW
  5
1A951
330
1A92A
100
AcDbSymbolTableRecord
100
AcDbViewTableRecord
  2
7
 70
     0
 40
237.225533
 10
228.513861
 20
118.6127669999999
 41
457.027723
 11
0.0
 21
0.0
 31
1.0
 12
0.0
 22
0.0
 32
0.0
 42
50.0
 43
0.0
 44
0.0
 50
0.0
 71
     0
281
     0
 72
     0
  0
VIEW
  5
1A952
330
1A92A
100
AcDbSymbolTableRecord
100
AcDbViewTableRecord
  2
1
 70
     0
 40
249.466496
 10
136.846708
 20
233.977284
 41
487.485198
 11
0.0
 21
0.0
 31
1.0
 12
0.0
 22
0.0
 32
0.0
 42
50.0
 43
0.0
 44
0.0
 50
0.0
 71
     0
281
     0
 72
     0
  0
ENDTAB
  0
TABLE
  2
UCS
  5
1A92B
330
0
100
AcDbSymbolTable
 70
     0
  0
ENDTAB
  0
TABLE
  2
APPID
  5
1A92D
330
0
100
AcDbSymbolTable
 70
     3
  0
APPID
  5
1A936
330
1A92D
100
AcDbSymbolTableRecord
100
AcDbRegAppTableRecord
  2
ACAD
 70
     0
  0
APPID
  5
1AC3C
330
1A92D
100
AcDbSymbolTableRecord
100
AcDbRegAppTableRecord
  2
ACAD_NAV_VCDISPLAY
 70
     0
  0
APPID
  5
1AC75
330
1A92D
100
AcDbSymbolTableRecord
100
AcDbRegAppTableRecord
  2
ACAD_MLEADERVER
 70
     0
  0
ENDTAB
  0
TABLE
  2
DIMSTYLE
  5
1A92E
330
0
100
AcDbSymbolTable
 70
     1
100
AcDbDimStyleTable
 71
     0
  0
DIMSTYLE
105
1A954
330
1A92E
100
AcDbSymbolTableRecord
100
AcDbDimStyleTableRecord
  2
STANDARD
 70
     0
 41
3.0
 42
1.0
 43
10.0
 44
1.0
 73
     0
 74
     0
 77
     3
 78
     8
140
3.2
141
0.0
147
1.0
172
     1
173
     1
284
     8
285
     8
286
     8
340
1A935
  0
ENDTAB
  0
TABLE
  2
BLOCK_RECORD
  5
1A925
330
0
100
AcDbSymbolTable
 70
     1
  0
BLOCK_RECORD
  5
1A942
102
{ACAD_XDICTIONARY
360
1ABCA
102
}
330
1A925
100
AcDbSymbolTableRecord
100
AcDbBlockTableRecord
  2
*MODEL_SPACE
340
1AC1E
  0
BLOCK_RECORD
  5
1A93E
102
{ACAD_XDICTIONARY
360
1ABC8
102
}
330
1A925
100
AcDbSymbolTableRecord
100
AcDbBlockTableRecord
  2
*PAPER_SPACE
340
1AC1F
  0
BLOCK_RECORD
  5
1A95C
330
1A925
100
AcDbSymbolTableRecord
100
AcDbBlockTableRecord
  2
_OPEN
340
0
  0
ENDTAB
  0
ENDSEC
  0
SECTION
  2
BLOCKS
  0
BLOCK
  5
1A943
330
1A942
100
AcDbEntity
  8
0
100
AcDbBlockBegin
  2
*MODEL_SPACE
 70
     0
 10
0.0
 20
0.0
 30
0.0
  3
*MODEL_SPACE
  1

  0
ENDBLK
  5
1A944
330
1A942
100
AcDbEntity
  8
0
100
AcDbBlockEnd
  0
BLOCK
  5
1A93F
330
1A93E
100
AcDbEntity
 67
     1
  8
0
100
AcDbBlockBegin
  2
*PAPER_SPACE
 70
     0
 10
0.0
 20
0.0
 30
0.0
  3
*PAPER_SPACE
  1

  0
ENDBLK
  5
1A940
330
1A93E
100
AcDbEntity
 67
     1
  8
0
100
AcDbBlockEnd
  0
BLOCK
  5
1A95D
330
1A95C
100
AcDbEntity
  8
0
100
AcDbBlockBegin
  2
_OPEN
 70
     0
 10
0.0
 20
0.0
 30
0.0
  3
_OPEN
  1

  0
LINE
  5
1A95E
330
1A95C
100
AcDbEntity
  8
0
  6
ByBlock
 62
     0
100
AcDbLine
 10
-1.0
 20
0.166667
 30
0.0
 11
0.0
 21
0.0
 31
0.0
  0
LINE
  5
1A95F
330
1A95C
100
AcDbEntity
  8
0
  6
ByBlock
 62
     0
100
AcDbLine
 10
0.0
 20
0.0
 30
0.0
 11
-1.0
 21
-0.166667
 31
0.0
  0
LINE
  5
1A960
330
1A95C
100
AcDbEntity
  8
0
  6
ByBlock
 62
     0
100
AcDbLine
 10
0.0
 20
0.0
 30
0.0
 11
-1.0
 21
0.0
 31
0.0
  0
ENDBLK
  5
1A961
330
1A95C
100
AcDbEntity
  8
0
100
AcDbBlockEnd
  0
ENDSEC
  0
SECTION
  2
ENTITIES
  0
TEXT
  5
1A962
330
1A942
100
AcDbEntity
  8
6
  6
Continuous
100
AcDbText
 10
27.97945
 20
10.0487
 30
0.0
 40
1.399999999999999
  1
6
 41
1.069393
100
AcDbText
  0
TEXT
  5
1A963
330
1A942
100
AcDbEntity
  8
1
  6
Continuous
100
AcDbText
 10
17.97945
 20
10.0487
 30
0.0
 40
1.399999999999999
  1
1
 41
1.069393
100
AcDbText
  0
TEXT
  5
1A964
330
1A942
100
AcDbEntity
  8
1
  6
Continuous
100
AcDbText
 10
9.99995
 20
10.0
 30
0.0
 40
1.399999999999999
  1
LAYER
 41
1.009912999999997
100
AcDbText
  0
TEXT
  5
1A965
330
1A942
100
AcDbEntity
  8
2
  6
Continuous
100
AcDbText
 10
19.97944999999998
 20
10.0487
 30
0.0
 40
1.399999999999999
  1
2
 41
1.069393
100
AcDbText
  0
TEXT
  5
1A966
330
1A942
100
AcDbEntity
  8
3
  6
DASHED
100
AcDbText
 10
21.97945
 20
10.0487
 30
0.0
 40
1.399999999999999
  1
3
 41
1.069393
100
AcDbText
  0
TEXT
  5
1A967
330
1A942
100
AcDbEntity
  8
4
  6
CENTER
100
AcDbText
 10
23.97944999999999
 20
10.0487
 30
0.0
 40
1.399999999999999
  1
4
 41
1.069393
100
AcDbText
  0
TEXT
  5
1A968
330
1A942
100
AcDbEntity
  8
5
  6
PHANTOM
100
AcDbText
 10
25.97945
 20
10.0487
 30
0.0
 40
1.399999999999999
  1
5
 41
1.069393
100
AcDbText
  0
TEXT
  5
1A969
330
1A942
100
AcDbEntity
  8
7
  6
Continuous
100
AcDbText
 10
10.00005
 20
26.0
 30
0.0
 40
3.0
  1
CODE No.5486
 41
1.003962999999999
100
AcDbText
  0
TEXT
  5
1A96A
330
1A942
100
AcDbEntity
  8
7
  6
Continuous
100
AcDbText
 10
10.00005
 20
18.0
 30
0.0
 40
3.0
  1
TYPE No.TM-108-3
 41
1.002350999999998
100
AcDbText
  0
TEXT
  5
1A96B
330
1A942
100
AcDbEntity
  8
7
  6
Continuous
100
AcDbText
 10
29.97944999999999
 20
10.0487
 30
0.0
 40
1.399999999999999
  1
7
 41
1.069393
100
AcDbText
  0
ARC
  5
1A96C
330
1A942
100
AcDbEntity
  8
1
  6
Continuous
100
AcDbCircle
 10
32.0
 20
125.437851
 30
0.0
 40
7.0
100
AcDbArc
 50
119.6955409999999
 51
208.3934429999998
  0
ARC
  5
1A96D
330
1A942
100
AcDbEntity
  8
1
  6
Continuous
100
AcDbCircle
 10
33.46452699999999
 20
125.437851
 30
0.0
 40
7.0
100
AcDbArc
 50
331.6065599999999
 51
60.30446400000001
  0
LINE
  5
1A96E
330
1A942
100
AcDbEntity
  8
1
  6
Continuous
100
AcDbLine
 10
36.932262
 20
133.0999909999998
 30
0.0
 11
36.932262
 21
131.5185389999998
 31
0.0
  0
LINE
  5
1A96F
330
1A942
100
AcDbEntity
  8
1
  6
Continuous
100
AcDbLine
 10
28.532263
 20
133.0999909999998
 30
0.0
 11
28.532263
 21
131.5185389999998
 31
0.0
  0
LINE
  5
1A970
330
1A942
100
AcDbEntity
  8
1
  6
Continuous
100
AcDbLine
 10
37.73226199999999
 20
138.0999909999998
 30
0.0
 11
37.73226199999999
 21
131.8999939999999
 31
0.0
  0
LINE
  5
1A971
330
1A942
100
AcDbEntity
  8
1
  6
Continuous
100
AcDbLine
 10
27.732264
 20
138.0999909999998
 30
0.0
 11
27.732264
 21
131.8999939999999
 31
0.0
  0
LINE
  5
1A972
330
1A942
100
AcDbEntity
  8
4
  6
CENTER
100
AcDbLine
 10
32.73226199999999
 20
164.5
 30
0.0
 11
32.73226199999999
 21
91.725563
 31
0.0
  0
ARC
  5
1A973
330
1A942
100
AcDbEntity
  8
1
  6
Continuous
100
AcDbCircle
 10
32.73226199999999
 20
107.5334169999998
 30
0.0
 40
2.03125
100
AcDbArc
 50
210.5102309999999
 51
329.4897639999998
  0
ARC
  5
1A974
330
1A942
100
AcDbEntity
  8
1
  6
Continuous
100
AcDbCircle
 10
32.73226199999999
 20
110.0021669999998
 30
0.0
 40
3.0
100
AcDbArc
 50
0.0
 51
180.000005
  0
ARC
  5
1A975
330
1A942
100
AcDbEntity
  8
1
  6
Continuous
100
AcDbCircle
 10
32.73226199999999
 20
108.094383
 30
0.0
 40
23.62415899999999
100
AcDbArc
 50
82.539271
 51
97.460727
  0
ARC
  5
1A976
330
1A942
100
AcDbEntity
  8
1
  6
Continuous
100
AcDbCircle
 10
32.73226199999999
 20
126.866501
 30
0.0
 40
6.005434999999999
100
AcDbArc
 50
182.4377439999999
 51
357.56225
  0
ARC
  5
1A977
330
1A942
100
AcDbEntity
  8
1
  6
Continuous
100
AcDbCircle
 10
32.73226199999999
 20
126.6323239999999
 30
0.0
 40
3.250068999999998
100
AcDbArc
 50
180.374631
 51
359.6253659999999
  0
ARC
  5
1A978
330
1A942
100
AcDbEntity
  8
1
  6
Continuous
100
AcDbCircle
 10
32.73226199999999
 20
126.589828
 30
0.0
 40
3.250068999999998
100
AcDbArc
 50
0.374634
 51
179.625369
  0
LINE
  5
1A979
330
1A942
100
AcDbEntity
  8
1
  6
Continuous
100
AcDbLine
 10
30.732264
 20
97.49999200000001
 30
0.0
 11
32.73226499999999
 21
97.99999200000002
 31
0.0
  0
ARC
  5
1A97A
330
1A942
100
AcDbEntity
  8
1
  6
Continuous
100
AcDbCircle
 10
4.706852999999997
 20
110.6845399999998
 30
0.0
 40
24.62540999999999
100
AcDbArc
 50
351.930184
 51
22.123922
  0
ARC
  5
1A97B
330
1A942
100
AcDbEntity
  8
1
  6
Continuous
100
AcDbCircle
 10
4.706852999999997
 20
110.6845399999998
 30
0.0
 40
24.02541
100
AcDbArc
 50
351.727257
 51
28.39344
  0
LINE
  5
1A97C
330
1A942
100
AcDbEntity
  8
1
  6
Continuous
100
AcDbLine
 10
27.16959799999999
 20
117.5083539999999
 30
0.0
 11
28.28013
 21
109.594597
 31
0.0
  0
LINE
  5
1A97D
330
1A942
100
AcDbEntity
  8
1
  6
Continuous
100
AcDbLine
 10
29.232264
 20
108.4675449999999
 30
0.0
 11
29.232264
 21
107.2276379999999
 31
0.0
  0
LINE
  5
1A97E
330
1A942
100
AcDbEntity
  8
1
  6
Continuous
100
AcDbLine
 10
30.98254199999999
 20
106.502159
 30
0.0
 11
30.732264
 21
97.5
 31
0.0
  0
LINE
  5
1A97F
330
1A942
100
AcDbEntity
  8
1
  6
Continuous
100
AcDbLine
 10
29.732264
 20
107.227631
 30
0.0
 11
28.695932
 21
97.536324
 31
0.0
  0
LINE
  5
1A980
330
1A942
100
AcDbEntity
  8
1
  6
Continuous
100
AcDbLine
 10
29.732264
 20
110.0021669999998
 30
0.0
 11
29.732264
 21
96.5
 31
0.0
  0
LINE
  5
1A981
330
1A942
100
AcDbEntity
  8
1
  6
Continuous
100
AcDbLine
 10
29.732264
 20
107.2276379999999
 30
0.0
 11
28.482264
 21
107.2276379999999
 31
0.0
  0
LINE
  5
1A982
330
1A942
100
AcDbEntity
  8
1
  6
Continuous
100
AcDbLine
 10
28.280128
 20
109.594597
 30
0.0
 11
28.69593099999999
 21
97.53632900000004
 31
0.0
  0
LINE
  5
1A983
330
1A942
100
AcDbEntity
  8
1
  6
Continuous
100
AcDbLine
 10
29.732262
 20
96.49999200000001
 30
0.0
 11
30.732264
 21
97.5
 31
0.0
  0
LINE
  5
1A984
330
1A942
100
AcDbEntity
  8
1
  6
Continuous
100
AcDbLine
 10
28.69593099999999
 20
97.53632900000004
 30
0.0
 11
29.732262
 21
96.49999200000001
 31
0.0
  0
ARC
  5
1A985
330
1A942
100
AcDbEntity
  8
1
  6
Continuous
100
AcDbCircle
 10
22.88727199999998
 20
118.0756909999999
 30
0.0
 40
5.0
100
AcDbArc
 50
22.123922
 51
53.77475199999999
  0
ARC
  5
1A986
330
1A942
100
AcDbEntity
  8
1
  6
Continuous
100
AcDbCircle
 10
32.73226199999999
 20
126.355637
 30
0.0
 40
6.005434999999999
100
AcDbArc
 50
120.716477
 51
177.5622559999999
  0
LINE
  5
1A987
330
1A942
100
AcDbEntity
  8
1
  6
Continuous
100
AcDbLine
 10
25.326992
 20
123.32338
 30
0.0
 11
27.169596
 21
117.5083539999999
 31
0.0
  0
LINE
  5
1A988
330
1A942
100
AcDbEntity
  8
1
  6
Continuous
100
AcDbLine
 10
27.732264
 20
131.8999939999999
 30
0.0
 11
28.532263
 21
131.8999939999999
 31
0.0
  0
ARC
  5
1A989
330
1A942
100
AcDbEntity
  8
1
  6
Continuous
100
AcDbCircle
 10
60.757671
 20
110.6845399999998
 30
0.0
 40
24.62540999999999
100
AcDbArc
 50
157.8760799999998
 51
188.069819
  0
ARC
  5
1A98A
330
1A942
100
AcDbEntity
  8
1
  6
Continuous
100
AcDbCircle
 10
60.757671
 20
110.6845399999998
 30
0.0
 40
24.02541
100
AcDbArc
 50
151.6065669999998
 51
188.272744
  0
LINE
  5
1A98B
330
1A942
100
AcDbEntity
  8
1
  6
Continuous
100
AcDbLine
 10
38.29493
 20
117.508347
 30
0.0
 11
37.18439500000001
 21
109.594597
 31
0.0
  0
LINE
  5
1A98C
330
1A942
100
AcDbEntity
  8
1
  6
Continuous
100
AcDbLine
 10
36.23226199999999
 20
108.4675449999999
 30
0.0
 11
36.23226199999999
 21
107.2276379999999
 31
0.0
  0
LINE
  5
1A98D
330
1A942
100
AcDbEntity
  8
1
  6
Continuous
100
AcDbLine
 10
34.481983
 20
106.502159
 30
0.0
 11
34.732262
 21
97.5
 31
0.0
  0
LINE
  5
1A98E
330
1A942
100
AcDbEntity
  8
1
  6
Continuous
100
AcDbLine
 10
35.732262
 20
107.2276379999999
 30
0.0
 11
36.768593
 21
97.53633100000001
 31
0.0
  0
LINE
  5
1A98F
330
1A942
100
AcDbEntity
  8
1
  6
Continuous
100
AcDbLine
 10
35.732262
 20
110.0021669999998
 30
0.0
 11
35.732262
 21
96.5
 31
0.0
  0
LINE
  5
1A990
330
1A942
100
AcDbEntity
  8
1
  6
Continuous
100
AcDbLine
 10
36.982262
 20
107.2276379999999
 30
0.0
 11
35.732262
 21
107.2276379999999
 31
0.0
  0
LINE
  5
1A991
330
1A942
100
AcDbEntity
  8
1
  6
Continuous
100
AcDbLine
 10
32.73226199999999
 20
97.99999200000002
 30
0.0
 11
34.732262
 21
97.49999200000001
 31
0.0
  0
LINE
  5
1A992
330
1A942
100
AcDbEntity
  8
1
  6
Continuous
100
AcDbLine
 10
35.732265
 20
96.5
 30
0.0
 11
36.768594
 21
97.536324
 31
0.0
  0
LINE
  5
1A993
330
1A942
100
AcDbEntity
  8
1
  6
Continuous
100
AcDbLine
 10
34.73226499999999
 20
97.5
 30
0.0
 11
35.732265
 21
96.5
 31
0.0
  0
LINE
  5
1A994
330
1A942
100
AcDbEntity
  8
1
  6
Continuous
100
AcDbLine
 10
37.18439500000001
 20
109.594597
 30
0.0
 11
36.768594
 21
97.536324
 31
0.0
  0
ARC
  5
1A995
330
1A942
100
AcDbEntity
  8
1
  6
Continuous
100
AcDbCircle
 10
42.577251
 20
118.0756909999999
 30
0.0
 40
5.0
100
AcDbArc
 50
126.2252429999999
 51
157.8760799999998
  0
ARC
  5
1A996
330
1A942
100
AcDbEntity
  8
1
  6
Continuous
100
AcDbCircle
 10
32.73226199999999
 20
126.355637
 30
0.0
 40
6.005434999999999
100
AcDbArc
 50
2.437749999999998
 51
59.28351500000001
  0
LINE
  5
1A997
330
1A942
100
AcDbEntity
  8
1
  6
Continuous
100
AcDbLine
 10
36.932262
 20
131.8999939999999
 30
0.0
 11
37.73226199999999
 21
131.8999939999999
 31
0.0
  0
LINE
  5
1A998
330
1A942
100
AcDbEntity
  8
1
  6
Continuous
100
AcDbLine
 10
40.13753499999999
 20
123.32338
 30
0.0
 11
38.29493
 21
117.508347
 31
0.0
  0
ARC
  5
1A999
330
1A942
100
AcDbEntity
  8
1
  6
Continuous
100
AcDbCircle
 10
31.732264
 20
138.5999909999999
 30
0.0
 40
0.5
100
AcDbArc
 50
0.0
 51
90.00000300000001
  0
LINE
  5
1A99A
330
1A942
100
AcDbEntity
  8
1
  6
Continuous
100
AcDbLine
 10
31.232267
 20
161.5
 30
0.0
 11
31.982264
 21
160.6999969999999
 31
0.0
  0
LINE
  5
1A99B
330
1A942
100
AcDbEntity
  8
1
  6
Continuous
100
AcDbLine
 10
27.732264
 20
138.0999909999998
 30
0.0
 11
37.73226199999999
 21
138.0999909999998
 31
0.0
  0
LINE
  5
1A99C
330
1A942
100
AcDbEntity
  8
1
  6
Continuous
100
AcDbLine
 10
26.732264
 20
143.299991
 30
0.0
 11
38.73226199999999
 21
143.299991
 31
0.0
  0
LINE
  5
1A99D
330
1A942
100
AcDbEntity
  8
1
  6
Continuous
100
AcDbLine
 10
28.732264
 20
139.0999909999998
 30
0.0
 11
32.232262
 21
139.0999909999998
 31
0.0
  0
LINE
  5
1A99E
330
1A942
100
AcDbEntity
  8
1
  6
Continuous
100
AcDbLine
 10
26.732264
 20
141.5
 30
0.0
 11
38.73226199999999
 21
141.5
 31
0.0
  0
LINE
  5
1A99F
330
1A942
100
AcDbEntity
  8
4
  6
CENTER
100
AcDbLine
 10
21.93226199999999
 20
135.0
 30
0.0
 11
43.23226199999999
 21
135.0
 31
0.0
  0
ARC
  5
1A9A0
330
1A942
100
AcDbEntity
  8
1
  6
Continuous
100
AcDbCircle
 10
-68.626335
 20
166.816101
 30
0.0
 40
100.0
100
AcDbArc
 50
346.853867
 51
356.952664
  0
LINE
  5
1A9A1
330
1A942
100
AcDbEntity
  8
1
  6
Continuous
100
AcDbLine
 10
30.232264
 20
160.300003
 30
0.0
 11
30.232264
 21
151.750305
 31
0.0
  0
ARC
  5
1A9A2
330
1A942
100
AcDbEntity
  8
1
  6
Continuous
100
AcDbCircle
 10
30.960388
 20
135.0
 30
0.0
 40
4.028125
100
AcDbArc
 50
154.2500009999999
 51
205.750009
  0
LINE
  5
1A9A3
330
1A942
100
AcDbEntity
  8
1
  6
Continuous
100
AcDbLine
 10
27.332262
 20
133.25
 30
0.0
 11
27.732264
 21
133.25
 31
0.0
  0
LINE
  5
1A9A4
330
1A942
100
AcDbEntity
  8
1
  6
Continuous
100
AcDbLine
 10
30.232264
 20
141.5
 30
0.0
 11
30.232264
 21
139.0999909999998
 31
0.0
  0
LINE
  5
1A9A5
330
1A942
100
AcDbEntity
  8
1
  6
Continuous
100
AcDbLine
 10
26.732264
 20
145.0999969999998
 30
0.0
 11
26.732264
 21
141.5
 31
0.0
  0
LINE
  5
1A9A6
330
1A942
100
AcDbEntity
  8
1
  6
Continuous
100
AcDbLine
 10
26.732264
 20
145.0999969999998
 30
0.0
 11
28.987244
 21
145.0999969999998
 31
0.0
  0
LINE
  5
1A9A7
330
1A942
100
AcDbEntity
  8
1
  6
Continuous
100
AcDbLine
 10
28.732264
 20
139.0999909999998
 30
0.0
 11
28.732264
 21
138.0999909999998
 31
0.0
  0
LINE
  5
1A9A8
330
1A942
100
AcDbEntity
  8
1
  6
Continuous
100
AcDbLine
 10
27.332262
 20
136.7499999999998
 30
0.0
 11
27.732264
 21
136.7499999999998
 31
0.0
  0
LINE
  5
1A9A9
330
1A942
100
AcDbEntity
  8
1
  6
Continuous
100
AcDbLine
 10
31.232265
 20
161.5
 30
0.0
 11
30.232271
 21
160.300003
 31
0.0
  0
ARC
  5
1A9AA
330
1A942
100
AcDbEntity
  8
1
  6
Continuous
100
AcDbCircle
 10
134.0908509999999
 20
166.816101
 30
0.0
 40
100.0
100
AcDbArc
 50
183.0473389999999
 51
193.1461329999999
  0
LINE
  5
1A9AB
330
1A942
100
AcDbEntity
  8
1
  6
Continuous
100
AcDbLine
 10
35.23226199999999
 20
160.300003
 30
0.0
 11
35.23226199999999
 21
151.750305
 31
0.0
  0
LINE
  5
1A9AC
330
1A942
100
AcDbEntity
  8
1
  6
Continuous
100
AcDbLine
 10
31.982264
 20
160.6999969999999
 30
0.0
 11
31.982264
 21
152.4499969999999
 31
0.0
  0
LINE
  5
1A9AD
330
1A942
100
AcDbEntity
  8
1
  6
Continuous
100
AcDbLine
 10
33.482262
 20
160.6999969999999
 30
0.0
 11
33.482262
 21
152.4499969999999
 31
0.0
  0
ARC
  5
1A9AE
330
1A942
100
AcDbEntity
  8
1
  6
Continuous
100
AcDbCircle
 10
33.73226199999999
 20
138.5999909999999
 30
0.0
 40
0.5
100
AcDbArc
 50
90.00000300000001
 51
180.000005
  0
ARC
  5
1A9AF
330
1A942
100
AcDbEntity
  8
1
  6
Continuous
100
AcDbCircle
 10
32.232262
 20
138.5999909999999
 30
0.0
 40
0.5
100
AcDbArc
 50
0.0
 51
90.00000300000001
  0
ARC
  5
1A9B0
330
1A942
100
AcDbEntity
  8
1
  6
Continuous
100
AcDbCircle
 10
33.232262
 20
138.5999909999999
 30
0.0
 40
0.5
100
AcDbArc
 50
90.00000300000001
 51
180.000005
  0
ARC
  5
1A9B1
330
1A942
100
AcDbEntity
  8
1
  6
Continuous
100
AcDbCircle
 10
35.732262
 20
135.0
 30
0.0
 40
2.5
100
AcDbArc
 50
323.1301029999999
 51
36.86989699999998
  0
ARC
  5
1A9B2
330
1A942
100
AcDbEntity
  8
1
  6
Continuous
100
AcDbCircle
 10
32.73226199999999
 20
152.4499969999999
 30
0.0
 40
0.75
100
AcDbArc
 50
180.000005
 51
0.00001
  0
LINE
  5
1A9B3
330
1A942
100
AcDbEntity
  8
1
  6
Continuous
100
AcDbLine
 10
33.232262
 20
139.0999909999998
 30
0.0
 11
36.732262
 21
139.0999909999998
 31
0.0
  0
LINE
  5
1A9B4
330
1A942
100
AcDbEntity
  8
1
  6
Continuous
100
AcDbLine
 10
32.232262
 20
138.5999909999999
 30
0.0
 11
32.232262
 21
138.0999909999998
 31
0.0
  0
LINE
  5
1A9B5
330
1A942
100
AcDbEntity
  8
1
  6
Continuous
100
AcDbLine
 10
33.232262
 20
138.5999909999999
 30
0.0
 11
33.232262
 21
138.0999909999998
 31
0.0
  0
LINE
  5
1A9B6
330
1A942
100
AcDbEntity
  8
1
  6
Continuous
100
AcDbLine
 10
32.73226199999999
 20
138.5999909999999
 30
0.0
 11
32.73226199999999
 21
138.0999909999998
 31
0.0
  0
LINE
  5
1A9B7
330
1A942
100
AcDbEntity
  8
1
  6
Continuous
100
AcDbLine
 10
36.477272
 20
145.0999969999998
 30
0.0
 11
38.73226199999999
 21
145.0999969999998
 31
0.0
  0
LINE
  5
1A9B8
330
1A942
100
AcDbEntity
  8
1
  6
Continuous
100
AcDbLine
 10
35.23226199999999
 20
141.5
 30
0.0
 11
35.23226199999999
 21
139.0999909999998
 31
0.0
  0
LINE
  5
1A9B9
330
1A942
100
AcDbEntity
  8
1
  6
Continuous
100
AcDbLine
 10
38.73226199999999
 20
145.0999969999998
 30
0.0
 11
38.73226199999999
 21
141.5
 31
0.0
  0
LINE
  5
1A9BA
330
1A942
100
AcDbEntity
  8
1
  6
Continuous
100
AcDbLine
 10
36.732262
 20
139.0999909999998
 30
0.0
 11
36.732262
 21
138.0999909999998
 31
0.0
  0
LINE
  5
1A9BB
330
1A942
100
AcDbEntity
  8
1
  6
Continuous
100
AcDbLine
 10
34.232262
 20
161.5
 30
0.0
 11
33.482262
 21
160.6999969999999
 31
0.0
  0
LINE
  5
1A9BC
330
1A942
100
AcDbEntity
  8
1
  6
Continuous
100
AcDbLine
 10
31.982264
 20
160.6999969999999
 30
0.0
 11
33.482262
 21
160.6999969999999
 31
0.0
  0
LINE
  5
1A9BD
330
1A942
100
AcDbEntity
  8
1
  6
Continuous
100
AcDbLine
 10
34.23225399999999
 20
161.5
 30
0.0
 11
35.232258
 21
160.2999879999998
 31
0.0
  0
ARC
  5
1A9BE
330
1A942
100
AcDbEntity
  8
1
  6
Continuous
100
AcDbCircle
 10
118.495202
 20
135.3083499999998
 30
0.0
 40
4.0
100
AcDbArc
 50
179.9999909999999
 51
247.985099
  0
ARC
  5
1A9BF
330
1A942
100
AcDbEntity
  8
1
  6
Continuous
100
AcDbCircle
 10
4.99556
 20
132.091263
 30
0.0
 40
100.0
100
AcDbArc
 50
354.3227330000001
 51
0.154587
  0
ARC
  5
1A9C0
330
1A942
100
AcDbEntity
  8
1
  6
Continuous
100
AcDbCircle
 10
110.495202
 20
135.0
 30
0.0
 40
3.1
100
AcDbArc
 50
217.799724
 51
90.00000300000001
  0
ARC
  5
1A9C1
330
1A942
100
AcDbEntity
  8
1
  6
Continuous
100
AcDbCircle
 10
106.972069
 20
131.5999909999999
 30
0.0
 40
1.5
100
AcDbArc
 50
90.00000300000001
 51
177.137596
  0
ARC
  5
1A9C2
330
1A942
100
AcDbEntity
  8
1
  6
Continuous
100
AcDbCircle
 10
107.5728229999999
 20
131.5999909999999
 30
0.0
 40
1.5
100
AcDbArc
 50
90.00000300000001
 51
177.137596
  0
LINE
  5
1A9C3
330
1A942
100
AcDbEntity
  8
1
  6
Continuous
100
AcDbLine
 10
104.995202
 20
132.3610689999999
 30
0.0
 11
102.810631
 21
130.232666
 31
0.0
  0
LINE
  5
1A9C4
330
1A942
100
AcDbEntity
  8
1
  6
Continuous
100
AcDbLine
 10
114.033226
 20
131.624207
 30
0.0
 11
106.4952019999999
 21
132.019257
 31
0.0
  0
LINE
  5
1A9C5
330
1A942
100
AcDbEntity
  8
4
  6
CENTER
100
AcDbLine
 10
110.495202
 20
164.5
 30
0.0
 11
110.495202
 21
91.725563
 31
0.0
  0
ARC
  5
1A9C6
330
1A942
100
AcDbEntity
  8
1
  6
Continuous
100
AcDbCircle
 10
105.744118
 20
109.2115249999999
 30
0.0
 40
5.279590999999999
100
AcDbArc
 50
137.2506569999999
 51
224.787454
  0
LINE
  5
1A9C7
330
1A942
100
AcDbEntity
  8
1
  6
Continuous
100
AcDbLine
 10
114.6605459999999
 20
122.4946139999999
 30
0.0
 11
115.883599
 21
103.853531
 31
0.0
  0
LINE
  5
1A9C8
330
1A942
100
AcDbEntity
  8
1
  6
Continuous
100
AcDbLine
 10
104.7813649999999
 20
116.731133
 30
0.0
 11
104.7813649999999
 21
107.247437
 31
0.0
  0
LINE
  5
1A9C9
330
1A942
100
AcDbEntity
  8
1
  6
Continuous
100
AcDbLine
 10
113.517022
 20
113.9575879999999
 30
0.0
 11
114.1872489999998
 21
103.742233
 31
0.0
  0
LINE
  5
1A9CA
330
1A942
100
AcDbEntity
  8
1
  6
Continuous
100
AcDbLine
 10
105.0290909999998
 20
122.6072689999998
 30
0.0
 11
104.3815539999999
 21
107.2474439999999
 31
0.0
  0
LINE
  5
1A9CB
330
1A942
100
AcDbEntity
  8
1
  6
Continuous
100
AcDbLine
 10
101.8671499999999
 20
112.795273
 30
0.0
 11
100.898613
 21
108.5044099999999
 31
0.0
  0
LINE
  5
1A9CC
330
1A942
100
AcDbEntity
  8
1
  6
Continuous
100
AcDbLine
 10
114.415093
 20
114.01651
 30
0.0
 11
115.085335
 21
103.801155
 31
0.0
  0
LINE
  5
1A9CD
330
1A942
100
AcDbEntity
  8
1
  6
Continuous
100
AcDbLine
 10
116.2571189999999
 20
122.5993649999999
 30
0.0
 11
117.480172
 21
103.9582819999999
 31
0.0
  0
LINE
  5
1A9CE
330
1A942
100
AcDbEntity
  8
1
  6
Continuous
100
AcDbLine
 10
104.4952019999999
 20
122.0999909999999
 30
0.0
 11
101.8999409999999
 21
108.7485279999999
 31
0.0
  0
ARC
  5
1A9CF
330
1A942
100
AcDbEntity
  8
1
  6
Continuous
100
AcDbCircle
 10
110.495202
 20
103.4999999999999
 30
0.0
 40
5.4
100
AcDbArc
 50
203.4881819999998
 51
3.753835
  0
ARC
  5
1A9D0
330
1A942
100
AcDbEntity
  8
1
  6
Continuous
100
AcDbCircle
 10
110.495202
 20
103.4999999999999
 30
0.0
 40
4.599999999999997
100
AcDbArc
 50
203.4881819999998
 51
3.753835
  0
ARC
  5
1A9D1
330
1A942
100
AcDbEntity
  8
1
  6
Continuous
100
AcDbCircle
 10
110.495202
 20
103.4999999999999
 30
0.0
 40
3.7
100
AcDbArc
 50
203.4881819999998
 51
3.753835
  0
ARC
  5
1A9D2
330
1A942
100
AcDbEntity
  8
1
  6
Continuous
100
AcDbCircle
 10
110.495202
 20
103.4999999999999
 30
0.0
 40
7.0
100
AcDbArc
 50
203.4881819999998
 51
3.753835
  0
ARC
  5
1A9D3
330
1A942
100
AcDbEntity
  8
1
  6
Continuous
100
AcDbCircle
 10
102.8815539999999
 20
108.5577239999998
 30
0.0
 40
1.0
100
AcDbArc
 50
168.999999
 51
259.0000079999999
  0
ARC
  5
1A9D4
330
1A942
100
AcDbEntity
  8
1
  6
Continuous
100
AcDbCircle
 10
101.8740619999999
 20
108.284225
 30
0.0
 40
1.0
100
AcDbArc
 50
167.2801979999999
 51
203.4881919999998
  0
ARC
  5
1A9D5
330
1A942
100
AcDbEntity
  8
1
  6
Continuous
100
AcDbCircle
 10
102.6035999999999
 20
102.340118
 30
0.0
 40
3.1
100
AcDbArc
 50
23.48817899999999
 51
65.59162499999999
  0
ARC
  5
1A9D6
330
1A942
100
AcDbEntity
  8
1
  6
Continuous
100
AcDbCircle
 10
102.6035999999999
 20
102.340118
 30
0.0
 40
4.0
100
AcDbArc
 50
23.48817899999999
 51
78.38854399999998
  0
LINE
  5
1A9D7
330
1A942
100
AcDbEntity
  8
1
  6
Continuous
100
AcDbLine
 10
102.8494039999998
 20
107.5452649999999
 30
0.0
 11
105.5426259999999
 21
101.347778
 31
0.0
  0
LINE
  5
1A9D8
330
1A942
100
AcDbEntity
  8
1
  6
Continuous
100
AcDbLine
 10
106.2721639999999
 20
103.934364
 30
0.0
 11
107.1017689999999
 21
102.02533
 31
0.0
  0
LINE
  5
1A9D9
330
1A942
100
AcDbEntity
  8
1
  6
Continuous
100
AcDbLine
 10
102.690758
 20
107.5760959999998
 30
0.0
 11
104.4834519999999
 21
107.227631
 31
0.0
  0
LINE
  5
1A9DA
330
1A942
100
AcDbEntity
  8
1
  6
Continuous
100
AcDbLine
 10
104.7813649999999
 20
107.2276379999999
 30
0.0
 11
104.4834519999999
 21
107.2276379999999
 31
0.0
  0
LINE
  5
1A9DB
330
1A942
100
AcDbEntity
  8
1
  6
Continuous
100
AcDbLine
 10
105.446724
 20
103.575653
 30
0.0
 11
106.27633
 21
101.666618
 31
0.0
  0
LINE
  5
1A9DC
330
1A942
100
AcDbEntity
  8
1
  6
Continuous
100
AcDbLine
 10
100.9569329999999
 20
107.8856659999999
 30
0.0
 11
104.0752029999999
 21
100.7100749999999
 31
0.0
  0
ARC
  5
1A9DD
330
1A942
100
AcDbEntity
  8
1
  6
Continuous
100
AcDbCircle
 10
112.0044639999999
 20
122.388153
 30
0.0
 40
0.5
100
AcDbArc
 50
189.999979
 51
10.0
  0
LINE
  5
1A9DE
330
1A942
100
AcDbEntity
  8
1
  6
Continuous
100
AcDbLine
 10
113.414483
 20
130.316681
 30
0.0
 11
108.43351
 21
129.880905
 31
0.0
  0
LINE
  5
1A9DF
330
1A942
100
AcDbEntity
  8
1
  6
Continuous
100
AcDbLine
 10
112.511757
 20
122.3904879999999
 30
0.0
 11
111.3881149999998
 21
128.763046
 31
0.0
  0
ARC
  5
1A9E0
330
1A942
100
AcDbEntity
  8
1
  6
Continuous
100
AcDbCircle
 10
102.830697
 20
123.2976679999999
 30
0.0
 40
0.5
100
AcDbArc
 50
177.137596
 51
220.0212119999999
  0
ARC
  5
1A9E1
330
1A942
100
AcDbEntity
  8
1
  6
Continuous
100
AcDbCircle
 10
103.159554
 20
129.8745419999999
 30
0.0
 40
0.5
100
AcDbArc
 50
134.25398
 51
177.137596
  0
ARC
  5
1A9E2
330
1A942
100
AcDbEntity
  8
1
  6
Continuous
100
AcDbCircle
 10
105.7163929999999
 20
123.496902
 30
0.0
 40
0.5
100
AcDbArc
 50
234.085299
 51
350.529645
  0
ARC
  5
1A9E3
330
1A942
100
AcDbEntity
  8
1
  6
Continuous
100
AcDbCircle
 10
110.8957139999999
 20
128.676208
 30
0.0
 40
0.5
100
AcDbArc
 50
9.999985999999999
 51
180.000005
  0
ARC
  5
1A9E4
330
1A942
100
AcDbEntity
  8
1
  6
Continuous
100
AcDbCircle
 10
109.9084399999999
 20
122.7577359999999
 30
0.0
 40
0.5
100
AcDbArc
 50
190.000007
 51
10.0
  0
ARC
  5
1A9E5
330
1A942
100
AcDbEntity
  8
1
  6
Continuous
100
AcDbCircle
 10
108.7996909999999
 20
129.045792
 30
0.0
 40
0.5
100
AcDbArc
 50
10.0
 51
180.000005
  0
ARC
  5
1A9E6
330
1A942
100
AcDbEntity
  8
1
  6
Continuous
100
AcDbCircle
 10
107.8124169999999
 20
123.127319
 30
0.0
 40
0.5
100
AcDbArc
 50
189.999979
 51
10.0
  0
ARC
  5
1A9E7
330
1A942
100
AcDbEntity
  8
1
  6
Continuous
100
AcDbCircle
 10
106.703667
 20
129.4153899999998
 30
0.0
 40
0.5
100
AcDbArc
 50
9.999985999999999
 51
180.000005
  0
ARC
  5
1A9E8
330
1A942
100
AcDbEntity
  8
1
  6
Continuous
100
AcDbCircle
 10
103.6932299999999
 20
124.0957179999999
 30
0.0
 40
2.0
100
AcDbArc
 50
311.567672
 51
357.137595
  0
ARC
  5
1A9E9
330
1A942
100
AcDbEntity
  8
1
  6
Continuous
100
AcDbCircle
 10
102.392769
 20
112.192162
 30
0.0
 40
0.8
100
AcDbArc
 50
66.48911899999998
 51
131.0722179999999
  0
ARC
  5
1A9EA
330
1A942
100
AcDbEntity
  8
1
  6
Continuous
100
AcDbCircle
 10
103.077477
 20
123.7955469999999
 30
0.0
 40
2.0
100
AcDbArc
 50
323.5831149999999
 51
357.137581
  0
ARC
  5
1A9EB
330
1A942
100
AcDbEntity
  8
1
  6
Continuous
100
AcDbCircle
 10
105.491631
 20
122.014587
 30
0.0
 40
1.0
100
AcDbArc
 50
143.5831169999999
 51
175.865651
  0
ARC
  5
1A9EC
330
1A942
100
AcDbEntity
  8
1
  6
Continuous
100
AcDbCircle
 10
104.995202
 20
122.0999909999999
 30
0.0
 40
0.5
100
AcDbArc
 50
87.13759300000004
 51
180.000005
  0
LINE
  5
1A9ED
330
1A942
100
AcDbEntity
  8
1
  6
Continuous
100
AcDbLine
 10
108.254494
 20
131.9270629999998
 30
0.0
 11
108.43351
 21
129.880905
 31
0.0
  0
LINE
  5
1A9EE
330
1A942
100
AcDbEntity
  8
1
  6
Continuous
100
AcDbLine
 10
110.909371
 20
125.7193299999999
 30
0.0
 11
110.401619
 21
122.675461
 31
0.0
  0
LINE
  5
1A9EF
330
1A942
100
AcDbEntity
  8
1
  6
Continuous
100
AcDbLine
 10
106.196358
 20
129.41304
 30
0.0
 11
105.8611069999999
 21
127.403229
 31
0.0
  0
LINE
  5
1A9F0
330
1A942
100
AcDbEntity
  8
1
  6
Continuous
100
AcDbLine
 10
106.717324
 20
126.458481
 30
0.0
 11
106.2095879999999
 21
123.4146269999999
 31
0.0
  0
LINE
  5
1A9F1
330
1A942
100
AcDbEntity
  8
1
  6
Continuous
100
AcDbLine
 10
108.3064959999999
 20
129.1280669999999
 30
0.0
 11
107.79876
 21
126.0842129999999
 31
0.0
  0
LINE
  5
1A9F2
330
1A942
100
AcDbEntity
  8
1
  6
Continuous
100
AcDbLine
 10
108.813347
 20
126.088898
 30
0.0
 11
108.305611
 21
123.045059
 31
0.0
  0
LINE
  5
1A9F3
330
1A942
100
AcDbEntity
  8
1
  6
Continuous
100
AcDbLine
 10
110.4025199999999
 20
128.758484
 30
0.0
 11
109.8947679999999
 21
125.71463
 31
0.0
  0
LINE
  5
1A9F4
330
1A942
100
AcDbEntity
  8
1
  6
Continuous
100
AcDbLine
 10
109.4160389999998
 20
122.670914
 30
0.0
 11
108.3072899999999
 21
128.9589689999999
 31
0.0
  0
LINE
  5
1A9F5
330
1A942
100
AcDbEntity
  8
1
  6
Continuous
100
AcDbLine
 10
110.415749
 20
122.760086
 30
0.0
 11
109.292092
 21
129.132629
 31
0.0
  0
LINE
  5
1A9F6
330
1A942
100
AcDbEntity
  8
1
  6
Continuous
100
AcDbLine
 10
111.5120629999998
 20
122.301331
 30
0.0
 11
110.4032979999998
 21
128.589401
 31
0.0
  0
LINE
  5
1A9F7
330
1A942
100
AcDbEntity
  8
1
  6
Continuous
100
AcDbLine
 10
108.304833
 20
123.214142
 30
0.0
 11
107.1960679999999
 21
129.5022129999999
 31
0.0
  0
LINE
  5
1A9F8
330
1A942
100
AcDbEntity
  8
1
  6
Continuous
100
AcDbLine
 10
107.3200149999999
 20
123.040497
 30
0.0
 11
106.2112659999999
 21
129.3285679999998
 31
0.0
  0
LINE
  5
1A9F9
330
1A942
100
AcDbEntity
  8
1
  6
Continuous
100
AcDbLine
 10
106.0747
 20
131.674911
 30
0.0
 11
105.690743
 21
123.995834
 31
0.0
  0
LINE
  5
1A9FA
330
1A942
100
AcDbEntity
  8
1
  6
Continuous
100
AcDbLine
 10
104.2238849999999
 20
120.8610689999999
 30
0.0
 11
102.4477929999999
 21
122.976135
 31
0.0
  0
LINE
  5
1A9FB
330
1A942
100
AcDbEntity
  8
1
  6
Continuous
100
AcDbLine
 10
105.4739309999998
 20
131.674911
 30
0.0
 11
105.074975
 21
123.695679
 31
0.0
  0
LINE
  5
1A9FC
330
1A942
100
AcDbEntity
  8
1
  6
Continuous
100
AcDbLine
 10
102.66018
 20
129.8995059999998
 30
0.0
 11
102.3313219999999
 21
123.3226469999999
 31
0.0
  0
ARC
  5
1A9FD
330
1A942
100
AcDbEntity
  8
1
  6
Continuous
100
AcDbCircle
 10
117.93496
 20
124.539124
 30
0.0
 40
3.200396
100
AcDbArc
 50
328.1438469999998
 51
34.45968099999999
  0
ARC
  5
1A9FE
330
1A942
100
AcDbEntity
  8
1
  6
Continuous
100
AcDbCircle
 10
114.100487
 20
122.01857
 30
0.0
 40
0.5
100
AcDbArc
 50
190.000007
 51
10.00001299999999
  0
ARC
  5
1A9FF
330
1A942
100
AcDbEntity
  8
1
  6
Continuous
100
AcDbCircle
 10
112.9917229999998
 20
128.306625
 30
0.0
 40
0.5
100
AcDbArc
 50
9.999985999999999
 51
190.00003
  0
ARC
  5
1AA00
330
1A942
100
AcDbEntity
  8
1
  6
Continuous
100
AcDbCircle
 10
118.6828079999999
 20
123.1923219999998
 30
0.0
 40
2.0
100
AcDbArc
 50
308.890685
 51
2.0
  0
ARC
  5
1AA01
330
1A942
100
AcDbEntity
  8
1
  6
Continuous
100
AcDbCircle
 10
118.5083239999999
 20
128.189285
 30
0.0
 40
2.0
100
AcDbArc
 50
2.0
 51
56.33002199999999
  0
ARC
  5
1AA02
330
1A942
100
AcDbEntity
  8
1
  6
Continuous
100
AcDbCircle
 10
113.496499
 20
130.65097
 30
0.0
 40
1.0
100
AcDbArc
 50
357.078522
 51
86.99999899999998
  0
ARC
  5
1AA03
330
1A942
100
AcDbEntity
  8
1
  6
Continuous
100
AcDbCircle
 10
113.8762139999999
 20
128.6283259999999
 30
0.0
 40
3.0
100
AcDbArc
 50
45.69601099999998
 51
87.000006
  0
ARC
  5
1AA04
330
1A942
100
AcDbEntity
  8
1
  6
Continuous
100
AcDbCircle
 10
117.5084459999999
 20
114.219467
 30
0.0
 40
4.0
100
AcDbArc
 50
128.853472
 51
183.753836
  0
ARC
  5
1AA05
330
1A942
100
AcDbEntity
  8
1
  6
Continuous
100
AcDbCircle
 10
117.5084459999999
 20
114.219467
 30
0.0
 40
3.1
100
AcDbArc
 50
141.6503919999998
 51
183.753836
  0
LINE
  5
1AA06
330
1A942
100
AcDbEntity
  8
1
  6
Continuous
100
AcDbLine
 10
113.2967
 20
131.662811
 30
0.0
 11
113.414483
 21
130.316681
 31
0.0
  0
LINE
  5
1AA07
330
1A942
100
AcDbEntity
  8
1
  6
Continuous
100
AcDbLine
 10
114.663384
 20
122.354187
 30
0.0
 11
114.5936669999999
 21
121.936295
 31
0.0
  0
LINE
  5
1AA08
330
1A942
100
AcDbEntity
  8
1
  6
Continuous
100
AcDbLine
 10
114.3298729999999
 20
126.432495
 30
0.0
 11
114.5544059999999
 21
127.778549
 31
0.0
  0
LINE
  5
1AA09
330
1A942
100
AcDbEntity
  8
1
  6
Continuous
100
AcDbLine
 10
113.005394
 20
125.3497309999999
 30
0.0
 11
112.497643
 21
122.305878
 31
0.0
  0
LINE
  5
1AA0A
330
1A942
100
AcDbEntity
  8
1
  6
Continuous
100
AcDbLine
 10
112.4985429999999
 20
128.388901
 30
0.0
 11
111.9907919999999
 21
125.3450469999998
 31
0.0
  0
LINE
  5
1AA0B
330
1A942
100
AcDbEntity
  8
1
  6
Continuous
100
AcDbLine
 10
113.608086
 20
121.931732
 30
0.0
 11
112.484429
 21
128.3042909999998
 31
0.0
  0
LINE
  5
1AA0C
330
1A942
100
AcDbEntity
  8
1
  6
Continuous
100
AcDbLine
 10
114.642113
 20
123.4120029999999
 30
0.0
 11
114.359887
 21
123.4267879999999
 31
0.0
  0
LINE
  5
1AA0D
330
1A942
100
AcDbEntity
  8
1
  6
Continuous
100
AcDbLine
 10
114.581719
 20
126.419281
 30
0.0
 11
113.8252489999999
 21
126.458923
 31
0.0
  0
LINE
  5
1AA0E
330
1A942
100
AcDbEntity
  8
1
  6
Continuous
100
AcDbLine
 10
116.995797
 20
131.5999909999999
 30
0.0
 11
119.6171349999999
 21
129.8537599999999
 31
0.0
  0
LINE
  5
1AA0F
330
1A942
100
AcDbEntity
  8
1
  6
Continuous
100
AcDbLine
 10
117.414864
 20
119.5999909999999
 30
0.0
 11
116.995812
 21
131.600006
 31
0.0
  0
LINE
  5
1AA10
330
1A942
100
AcDbEntity
  8
1
  6
Continuous
100
AcDbLine
 10
116.2571189999999
 20
122.59938
 30
0.0
 11
115.971611
 21
130.7752379999998
 31
0.0
  0
LINE
  5
1AA11
330
1A942
100
AcDbEntity
  8
1
  6
Continuous
100
AcDbLine
 10
114.6605459999999
 20
122.4946139999999
 30
0.0
 11
114.496285
 21
130.671051
 31
0.0
  0
LINE
  5
1AA12
330
1A942
100
AcDbEntity
  8
1
  6
Continuous
100
AcDbLine
 10
114.6077809999999
 20
122.0209199999999
 30
0.0
 11
113.4841389999998
 21
128.393448
 31
0.0
  0
LINE
  5
1AA13
330
1A942
100
AcDbEntity
  8
1
  6
Continuous
100
AcDbLine
 10
120.6815879999999
 20
123.262131
 30
0.0
 11
120.5070879999999
 21
128.259079
 31
0.0
  0
LINE
  5
1AA14
330
1A942
100
AcDbEntity
  8
1
  6
Continuous
100
AcDbLine
 10
116.502205
 20
118.8638379999999
 30
0.0
 11
119.938485
 21
121.6356349999999
 31
0.0
  0
ARC
  5
1AA15
330
1A942
100
AcDbEntity
  8
1
  6
Continuous
100
AcDbCircle
 10
106.4952019999999
 20
154.4999999999998
 30
0.0
 40
4.0
100
AcDbArc
 50
126.8698899999999
 51
180.000005
  0
ARC
  5
1AA16
330
1A942
100
AcDbEntity
  8
1
  6
Continuous
100
AcDbCircle
 10
114.495202
 20
154.4999999999998
 30
0.0
 40
4.0
100
AcDbArc
 50
0.0
 51
53.130102
  0
CIRCLE
  5
1AA17
330
1A942
100
AcDbEntity
  8
1
  6
Continuous
100
AcDbCircle
 10
110.495202
 20
135.0
 30
0.0
 40
1.75
  0
LINE
  5
1AA18
330
1A942
100
AcDbEntity
  8
1
  6
Continuous
100
AcDbLine
 10
113.57243
 20
145.7981169999999
 30
0.0
 11
105.592954
 21
145.0999969999998
 31
0.0
  0
LINE
  5
1AA19
330
1A942
100
AcDbEntity
  8
4
  6
CENTER
100
AcDbLine
 10
113.995202
 20
135.0
 30
0.0
 11
106.995202
 21
135.0
 31
0.0
  0
LINE
  5
1AA1A
330
1A942
100
AcDbEntity
  8
1
  6
Continuous
100
AcDbLine
 10
114.495202
 20
139.0999909999998
 30
0.0
 11
106.4952019999999
 21
139.0999909999998
 31
0.0
  0
LINE
  5
1AA1B
330
1A942
100
AcDbEntity
  8
1
  6
Continuous
100
AcDbLine
 10
115.5951919999999
 20
145.0999969999998
 30
0.0
 11
104.595192
 21
145.0999969999998
 31
0.0
  0
LINE
  5
1AA1C
330
1A942
100
AcDbEntity
  8
1
  6
Continuous
100
AcDbLine
 10
116.3951949999999
 20
143.299991
 30
0.0
 11
104.595192
 21
143.299991
 31
0.0
  0
LINE
  5
1AA1D
330
1A942
100
AcDbEntity
  8
1
  6
Continuous
100
AcDbLine
 10
116.3951949999999
 20
141.5
 30
0.0
 11
105.395195
 21
141.5
 31
0.0
  0
ARC
  5
1AA1E
330
1A942
100
AcDbEntity
  8
1
  6
Continuous
100
AcDbCircle
 10
104.595192
 20
145.3999969999999
 30
0.0
 40
2.1
100
AcDbArc
 50
179.9999909999999
 51
270.000001
  0
LINE
  5
1AA1F
330
1A942
100
AcDbEntity
  8
1
  6
Continuous
100
AcDbLine
 10
105.5592929999999
 20
145.598975
 30
0.0
 11
105.602872
 21
145.100867
 31
0.0
  0
LINE
  5
1AA20
330
1A942
100
AcDbEntity
  8
1
  6
Continuous
100
AcDbLine
 10
107.0921989999998
 20
145.213378
 30
0.0
 11
107.1021159999999
 21
145.0999969999998
 31
0.0
  0
LINE
  5
1AA21
330
1A942
100
AcDbEntity
  8
1
  6
Continuous
100
AcDbLine
 10
106.4952019999999
 20
132.6434169999999
 30
0.0
 11
106.4952019999999
 21
132.019257
 31
0.0
  0
LINE
  5
1AA22
330
1A942
100
AcDbEntity
  8
1
  6
Continuous
100
AcDbLine
 10
110.495202
 20
138.0999909999998
 30
0.0
 11
104.995202
 21
138.0999909999998
 31
0.0
  0
LINE
  5
1AA23
330
1A942
100
AcDbEntity
  8
1
  6
Continuous
100
AcDbLine
 10
104.995202
 20
138.0999909999998
 30
0.0
 11
104.995202
 21
132.3610689999999
 31
0.0
  0
LINE
  5
1AA24
330
1A942
100
AcDbEntity
  8
1
  6
Continuous
100
AcDbLine
 10
106.4952019999999
 20
139.0999909999998
 30
0.0
 11
106.4952019999999
 21
138.0999909999998
 31
0.0
  0
LINE
  5
1AA25
330
1A942
100
AcDbEntity
  8
1
  6
Continuous
100
AcDbLine
 10
105.395195
 20
143.299991
 30
0.0
 11
105.395195
 21
141.5
 31
0.0
  0
LINE
  5
1AA26
330
1A942
100
AcDbEntity
  8
1
  6
Continuous
100
AcDbLine
 10
108.045708
 20
133.0999909999998
 30
0.0
 11
106.995202
 21
133.0999909999998
 31
0.0
  0
LINE
  5
1AA27
330
1A942
100
AcDbEntity
  8
1
  6
Continuous
100
AcDbLine
 10
102.495202
 20
154.4999999999998
 30
0.0
 11
102.495202
 21
145.393828
 31
0.0
  0
ARC
  5
1AA28
330
1A942
100
AcDbEntity
  8
1
  6
Continuous
100
AcDbCircle
 10
116.3951949999999
 20
143.5999909999999
 30
0.0
 40
2.1
100
AcDbArc
 50
269.9999969999999
 51
0.0
  0
LINE
  5
1AA29
330
1A942
100
AcDbEntity
  8
1
  6
Continuous
100
AcDbLine
 10
113.528851
 20
146.29621
 30
0.0
 11
113.57243
 21
145.7981169999999
 31
0.0
  0
LINE
  5
1AA2A
330
1A942
100
AcDbEntity
  8
1
  6
Continuous
100
AcDbLine
 10
112.073185
 20
145.6491619999999
 30
0.0
 11
112.1212199999998
 21
145.0999969999998
 31
0.0
  0
LINE
  5
1AA2B
330
1A942
100
AcDbEntity
  8
1
  6
Continuous
100
AcDbLine
 10
114.495202
 20
139.0999909999998
 30
0.0
 11
114.495202
 21
135.3083499999998
 31
0.0
  0
LINE
  5
1AA2C
330
1A942
100
AcDbEntity
  8
1
  6
Continuous
100
AcDbLine
 10
115.5951919999999
 20
145.0999969999998
 30
0.0
 11
115.5951919999999
 21
143.299991
 31
0.0
  0
LINE
  5
1AA2D
330
1A942
100
AcDbEntity
  8
1
  6
Continuous
100
AcDbLine
 10
118.495202
 20
154.4999999999998
 30
0.0
 11
118.495202
 21
143.5999909999999
 31
0.0
  0
ARC
  5
1AA2E
330
1A942
100
AcDbEntity
  8
1
  6
Continuous
100
AcDbCircle
 10
110.495202
 20
157.5
 30
0.0
 40
4.0
100
AcDbArc
 50
53.130102
 51
126.869903
  0
LINE
  5
1AA2F
330
1A942
100
AcDbEntity
  8
1
  6
Continuous
100
AcDbLine
 10
108.0951919999999
 20
160.6999969999999
 30
0.0
 11
104.0951919999999
 21
157.6999969999999
 31
0.0
  0
LINE
  5
1AA30
330
1A942
100
AcDbEntity
  8
1
  6
Continuous
100
AcDbLine
 10
112.895195
 20
160.6999969999999
 30
0.0
 11
116.895195
 21
157.6999969999999
 31
0.0
  0
CIRCLE
  5
1AA31
330
1A942
100
AcDbEntity
  8
1
  6
Continuous
100
AcDbCircle
 10
188.8676249999998
 20
125.5999909999998
 30
0.0
 40
3.5
  0
ARC
  5
1AA32
330
1A942
100
AcDbEntity
  8
1
  6
Continuous
100
AcDbCircle
 10
290.2262069999998
 20
166.816101
 30
0.0
 40
100.0
100
AcDbArc
 50
183.0473389999999
 51
194.21831
  0
CIRCLE
  5
1AA33
330
1A942
100
AcDbEntity
  8
1
  6
Continuous
100
AcDbCircle
 10
188.8676249999998
 20
125.5999909999998
 30
0.0
 40
6.0
  0
LINE
  5
1AA34
330
1A942
100
AcDbEntity
  8
4
  6
CENTER
100
AcDbLine
 10
199.6676129999999
 20
135.0
 30
0.0
 11
178.367625
 21
135.0
 31
0.0
  0
LINE
  5
1AA35
330
1A942
100
AcDbEntity
  8
1
  6
Continuous
100
AcDbLine
 10
194.867625
 20
141.5
 30
0.0
 11
182.867625
 21
141.5
 31
0.0
  0
LINE
  5
1AA36
330
1A942
100
AcDbEntity
  8
1
  6
Continuous
100
AcDbLine
 10
192.867625
 20
139.0999909999998
 30
0.0
 11
184.867625
 21
139.0999909999998
 31
0.0
  0
LINE
  5
1AA37
330
1A942
100
AcDbEntity
  8
1
  6
Continuous
100
AcDbLine
 10
191.867625
 20
96.5
 30
0.0
 11
190.867625
 21
97.5
 31
0.0
  0
ARC
  5
1AA38
330
1A942
100
AcDbEntity
  8
1
  6
Continuous
100
AcDbCircle
 10
188.1353559999998
 20
125.437851
 30
0.0
 40
7.0
100
AcDbArc
 50
117.8280439999999
 51
197.5817999999999
  0
LINE
  5
1AA39
330
1A942
100
AcDbEntity
  8
1
  6
Continuous
100
AcDbLine
 10
184.6676129999999
 20
138.0999909999998
 30
0.0
 11
184.6676129999999
 21
131.5185389999998
 31
0.0
  0
LINE
  5
1AA3A
330
1A942
100
AcDbEntity
  8
1
  6
Continuous
100
AcDbLine
 10
183.8676249999998
 20
138.0999909999998
 30
0.0
 11
183.8676249999998
 21
131.8999939999999
 31
0.0
  0
LINE
  5
1AA3B
330
1A942
100
AcDbEntity
  8
1
  6
Continuous
100
AcDbLine
 10
184.867625
 20
139.0999909999998
 30
0.0
 11
184.867625
 21
131.6283259999998
 31
0.0
  0
LINE
  5
1AA3C
330
1A942
100
AcDbEntity
  8
4
  6
CENTER
100
AcDbLine
 10
188.8676249999998
 20
164.5
 30
0.0
 11
188.8676249999998
 21
91.725563
 31
0.0
  0
ARC
  5
1AA3D
330
1A942
100
AcDbEntity
  8
1
  6
Continuous
100
AcDbCircle
 10
175.4208329999999
 20
109.2844389999999
 30
0.0
 40
10.0
100
AcDbArc
 50
1.974933999999999
 51
17.581797
  0
LINE
  5
1AA3E
330
1A942
100
AcDbEntity
  8
1
  6
Continuous
100
AcDbLine
 10
183.3049419999999
 20
117.5083539999999
 30
0.0
 11
184.415477
 21
109.594597
 31
0.0
  0
LINE
  5
1AA3F
330
1A942
100
AcDbEntity
  8
1
  6
Continuous
100
AcDbLine
 10
188.8676249999998
 20
115.0
 30
0.0
 11
188.8676249999998
 21
98.0
 31
0.0
  0
LINE
  5
1AA40
330
1A942
100
AcDbEntity
  8
1
  6
Continuous
100
AcDbLine
 10
186.867625
 20
116.0
 30
0.0
 11
186.867625
 21
97.5
 31
0.0
  0
LINE
  5
1AA41
330
1A942
100
AcDbEntity
  8
1
  6
Continuous
100
AcDbLine
 10
190.867625
 20
116.0
 30
0.0
 11
190.867625
 21
97.5
 31
0.0
  0
LINE
  5
1AA42
330
1A942
100
AcDbEntity
  8
1
  6
Continuous
100
AcDbLine
 10
185.4148969999999
 20
109.629059
 30
0.0
 11
185.867625
 21
96.5
 31
0.0
  0
LINE
  5
1AA43
330
1A942
100
AcDbEntity
  8
1
  6
Continuous
100
AcDbLine
 10
184.415492
 20
109.594597
 30
0.0
 11
184.831297
 21
97.53631300000002
 31
0.0
  0
LINE
  5
1AA44
330
1A942
100
AcDbEntity
  8
1
  6
Continuous
100
AcDbLine
 10
188.8676249999998
 20
98.0
 30
0.0
 11
186.867625
 21
97.5
 31
0.0
  0
LINE
  5
1AA45
330
1A942
100
AcDbEntity
  8
1
  6
Continuous
100
AcDbLine
 10
190.867625
 20
97.5
 30
0.0
 11
188.8676249999998
 21
98.0
 31
0.0
  0
LINE
  5
1AA46
330
1A942
100
AcDbEntity
  8
1
  6
Continuous
100
AcDbLine
 10
185.86761
 20
96.49999200000001
 30
0.0
 11
184.831297
 21
97.53631300000002
 31
0.0
  0
LINE
  5
1AA47
330
1A942
100
AcDbEntity
  8
1
  6
Continuous
100
AcDbLine
 10
186.867625
 20
97.5
 30
0.0
 11
185.86761
 21
96.49999200000001
 31
0.0
  0
CIRCLE
  5
1AA48
330
1A942
100
AcDbEntity
  8
1
  6
Continuous
100
AcDbCircle
 10
188.8676249999998
 20
124.5999909999998
 30
0.0
 40
1.75
  0
LINE
  5
1AA49
330
1A942
100
AcDbEntity
  8
1
  6
Continuous
100
AcDbLine
 10
184.6676129999999
 20
131.8999939999999
 30
0.0
 11
183.8676249999998
 21
131.8999939999999
 31
0.0
  0
LINE
  5
1AA4A
330
1A942
100
AcDbEntity
  8
1
  6
Continuous
100
AcDbLine
 10
181.4623519999999
 20
123.32338
 30
0.0
 11
184.9536999999999
 21
112.305107
 31
0.0
  0
LINE
  5
1AA4B
330
1A942
100
AcDbEntity
  8
1
  6
Continuous
100
AcDbLine
 10
188.8676249999998
 20
114.9999919999999
 30
0.0
 11
186.867625
 21
115.9999919999999
 31
0.0
  0
LINE
  5
1AA4C
330
1A942
100
AcDbEntity
  8
1
  6
Continuous
100
AcDbLine
 10
190.86761
 20
115.9999919999999
 30
0.0
 11
188.8676249999998
 21
115.0
 31
0.0
  0
ARC
  5
1AA4D
330
1A942
100
AcDbEntity
  8
1
  6
Continuous
100
AcDbCircle
 10
87.509028
 20
166.816101
 30
0.0
 40
100.0
100
AcDbArc
 50
345.7785600000002
 51
356.952664
  0
LINE
  5
1AA4E
330
1A942
100
AcDbEntity
  8
1
  6
Continuous
100
AcDbLine
 10
186.367625
 20
160.300003
 30
0.0
 11
186.367625
 21
151.750305
 31
0.0
  0
LINE
  5
1AA4F
330
1A942
100
AcDbEntity
  8
1
  6
Continuous
100
AcDbLine
 10
191.3676249999998
 20
160.300003
 30
0.0
 11
191.3676249999998
 21
151.750305
 31
0.0
  0
LINE
  5
1AA50
330
1A942
100
AcDbEntity
  8
1
  6
Continuous
100
AcDbLine
 10
189.617625
 20
160.6999969999999
 30
0.0
 11
189.617625
 21
152.4499969999999
 31
0.0
  0
LINE
  5
1AA51
330
1A942
100
AcDbEntity
  8
1
  6
Continuous
100
AcDbLine
 10
188.117625
 20
160.6999969999999
 30
0.0
 11
188.117625
 21
152.4499969999999
 31
0.0
  0
LINE
  5
1AA52
330
1A942
100
AcDbEntity
  8
1
  6
Continuous
100
AcDbLine
 10
183.9145509999999
 20
143.299991
 30
0.0
 11
182.867625
 21
143.299991
 31
0.0
  0
ARC
  5
1AA53
330
1A942
100
AcDbEntity
  8
1
  6
Continuous
100
AcDbCircle
 10
183.4763669999999
 20
142.5
 30
0.0
 40
1.0
100
AcDbArc
 50
270.0
 51
345.7816899999999
  0
ARC
  5
1AA54
330
1A942
100
AcDbEntity
  8
1
  6
Continuous
100
AcDbCircle
 10
187.0957589999999
 20
135.0
 30
0.0
 40
4.028125
100
AcDbArc
 50
154.249997
 51
205.7500029999999
  0
ARC
  5
1AA55
330
1A942
100
AcDbEntity
  8
1
  6
Continuous
100
AcDbCircle
 10
188.8676249999998
 20
152.4499969999999
 30
0.0
 40
0.75
100
AcDbArc
 50
179.9999909999999
 51
0.00001
  0
LINE
  5
1AA56
330
1A942
100
AcDbEntity
  8
1
  6
Continuous
100
AcDbLine
 10
184.867625
 20
134.0
 30
0.0
 11
184.6676129999999
 21
134.0
 31
0.0
  0
LINE
  5
1AA57
330
1A942
100
AcDbEntity
  8
1
  6
Continuous
100
AcDbLine
 10
184.867625
 20
136.0
 30
0.0
 11
184.6676129999999
 21
136.0
 31
0.0
  0
LINE
  5
1AA58
330
1A942
100
AcDbEntity
  8
1
  6
Continuous
100
AcDbLine
 10
183.467631
 20
133.25
 30
0.0
 11
183.8676249999998
 21
133.25
 31
0.0
  0
LINE
  5
1AA59
330
1A942
100
AcDbEntity
  8
1
  6
Continuous
100
AcDbLine
 10
183.467631
 20
136.7499999999998
 30
0.0
 11
183.8676249999998
 21
136.7499999999998
 31
0.0
  0
LINE
  5
1AA5A
330
1A942
100
AcDbEntity
  8
1
  6
Continuous
100
AcDbLine
 10
185.122608
 20
145.0999969999998
 30
0.0
 11
182.867625
 21
145.0999969999998
 31
0.0
  0
LINE
  5
1AA5B
330
1A942
100
AcDbEntity
  8
1
  6
Continuous
100
AcDbLine
 10
186.367625
 20
141.5
 30
0.0
 11
186.367625
 21
139.0999909999998
 31
0.0
  0
LINE
  5
1AA5C
330
1A942
100
AcDbEntity
  8
1
  6
Continuous
100
AcDbLine
 10
191.3676249999998
 20
141.5
 30
0.0
 11
191.3676249999998
 21
139.0999909999998
 31
0.0
  0
LINE
  5
1AA5D
330
1A942
100
AcDbEntity
  8
1
  6
Continuous
100
AcDbLine
 10
182.867625
 20
145.0999969999998
 30
0.0
 11
182.867625
 21
141.5
 31
0.0
  0
LINE
  5
1AA5E
330
1A942
100
AcDbEntity
  8
1
  6
Continuous
100
AcDbLine
 10
184.867625
 20
138.0999909999998
 30
0.0
 11
183.8676249999998
 21
138.0999909999998
 31
0.0
  0
LINE
  5
1AA5F
330
1A942
100
AcDbEntity
  8
1
  6
Continuous
100
AcDbLine
 10
187.36761
 20
161.5
 30
0.0
 11
188.11761
 21
160.6999969999999
 31
0.0
  0
LINE
  5
1AA60
330
1A942
100
AcDbEntity
  8
1
  6
Continuous
100
AcDbLine
 10
190.367625
 20
161.5
 30
0.0
 11
189.617625
 21
160.6999969999999
 31
0.0
  0
LINE
  5
1AA61
330
1A942
100
AcDbEntity
  8
1
  6
Continuous
100
AcDbLine
 10
189.617625
 20
160.6999969999999
 30
0.0
 11
188.117625
 21
160.6999969999999
 31
0.0
  0
LINE
  5
1AA62
330
1A942
100
AcDbEntity
  8
1
  6
Continuous
100
AcDbLine
 10
187.367625
 20
161.5
 30
0.0
 11
186.3676399999999
 21
160.300003
 31
0.0
  0
LINE
  5
1AA63
330
1A942
100
AcDbEntity
  8
1
  6
Continuous
100
AcDbLine
 10
190.36761
 20
161.5
 30
0.0
 11
191.36761
 21
160.300003
 31
0.0
  0
ARC
  5
1AA64
330
1A942
100
AcDbEntity
  8
1
  6
Continuous
100
AcDbCircle
 10
189.5998789999999
 20
125.437851
 30
0.0
 40
7.0
100
AcDbArc
 50
342.418203
 51
62.17195400000001
  0
LINE
  5
1AA65
330
1A942
100
AcDbEntity
  8
1
  6
Continuous
100
AcDbLine
 10
193.067607
 20
138.0999909999998
 30
0.0
 11
193.067607
 21
131.5185389999998
 31
0.0
  0
LINE
  5
1AA66
330
1A942
100
AcDbEntity
  8
1
  6
Continuous
100
AcDbLine
 10
193.867625
 20
138.0999909999998
 30
0.0
 11
193.867625
 21
131.8999939999999
 31
0.0
  0
LINE
  5
1AA67
330
1A942
100
AcDbEntity
  8
1
  6
Continuous
100
AcDbLine
 10
192.867625
 20
139.0999909999998
 30
0.0
 11
192.867625
 21
131.6283259999998
 31
0.0
  0
ARC
  5
1AA68
330
1A942
100
AcDbEntity
  8
1
  6
Continuous
100
AcDbCircle
 10
202.314403
 20
109.2844389999999
 30
0.0
 40
10.0
100
AcDbArc
 50
162.4182099999999
 51
178.025069
  0
LINE
  5
1AA69
330
1A942
100
AcDbEntity
  8
1
  6
Continuous
100
AcDbLine
 10
194.4302779999999
 20
117.5083539999999
 30
0.0
 11
193.3197429999999
 21
109.594597
 31
0.0
  0
LINE
  5
1AA6A
330
1A942
100
AcDbEntity
  8
1
  6
Continuous
100
AcDbLine
 10
193.3197429999999
 20
109.594597
 30
0.0
 11
192.9039539999999
 21
97.53632900000004
 31
0.0
  0
LINE
  5
1AA6B
330
1A942
100
AcDbEntity
  8
1
  6
Continuous
100
AcDbLine
 10
192.320354
 20
109.629059
 30
0.0
 11
191.86761
 21
96.5
 31
0.0
  0
LINE
  5
1AA6C
330
1A942
100
AcDbEntity
  8
1
  6
Continuous
100
AcDbLine
 10
192.9039539999999
 20
97.53632900000004
 30
0.0
 11
191.867625
 21
96.5
 31
0.0
  0
LINE
  5
1AA6D
330
1A942
100
AcDbEntity
  8
1
  6
Continuous
100
AcDbLine
 10
193.867625
 20
131.8999939999999
 30
0.0
 11
193.067607
 21
131.8999939999999
 31
0.0
  0
LINE
  5
1AA6E
330
1A942
100
AcDbEntity
  8
1
  6
Continuous
100
AcDbLine
 10
196.272899
 20
123.32338
 30
0.0
 11
192.7815349999999
 21
112.305099
 31
0.0
  0
ARC
  5
1AA6F
330
1A942
100
AcDbEntity
  8
1
  6
Continuous
100
AcDbCircle
 10
194.258883
 20
142.5
 30
0.0
 40
1.0
100
AcDbArc
 50
194.21831
 51
270.0
  0
ARC
  5
1AA70
330
1A942
100
AcDbEntity
  8
1
  6
Continuous
100
AcDbCircle
 10
191.867625
 20
135.0
 30
0.0
 40
2.5
100
AcDbArc
 50
323.1301009999999
 51
36.869903
  0
LINE
  5
1AA71
330
1A942
100
AcDbEntity
  8
1
  6
Continuous
100
AcDbLine
 10
193.067607
 20
136.0
 30
0.0
 11
192.867625
 21
136.0
 31
0.0
  0
LINE
  5
1AA72
330
1A942
100
AcDbEntity
  8
1
  6
Continuous
100
AcDbLine
 10
193.067607
 20
134.0
 30
0.0
 11
192.867625
 21
134.0
 31
0.0
  0
LINE
  5
1AA73
330
1A942
100
AcDbEntity
  8
1
  6
Continuous
100
AcDbLine
 10
194.867625
 20
145.0999969999998
 30
0.0
 11
192.612628
 21
145.0999969999998
 31
0.0
  0
LINE
  5
1AA74
330
1A942
100
AcDbEntity
  8
1
  6
Continuous
100
AcDbLine
 10
194.867625
 20
143.299991
 30
0.0
 11
193.820684
 21
143.299991
 31
0.0
  0
LINE
  5
1AA75
330
1A942
100
AcDbEntity
  8
1
  6
Continuous
100
AcDbLine
 10
194.867625
 20
145.0999969999998
 30
0.0
 11
194.867625
 21
141.5
 31
0.0
  0
LINE
  5
1AA76
330
1A942
100
AcDbEntity
  8
1
  6
Continuous
100
AcDbLine
 10
193.867625
 20
138.0999909999998
 30
0.0
 11
192.867625
 21
138.0999909999998
 31
0.0
  0
LINE
  5
1AA77
330
1A942
100
AcDbEntity
  8
4
  6
CENTER
100
AcDbLine
 10
125.195199
 20
207.25
 30
0.0
 11
95.46453099999999
 21
207.25
 31
0.0
  0
LINE
  5
1AA78
330
1A942
100
AcDbEntity
  8
4
  6
CENTER
100
AcDbLine
 10
110.495202
 20
219.9999919999999
 30
0.0
 11
110.495202
 21
194.5
 31
0.0
  0
ARC
  5
1AA79
330
1A942
100
AcDbEntity
  8
1
  6
Continuous
100
AcDbCircle
 10
110.495202
 20
207.25
 30
0.0
 40
4.0
100
AcDbArc
 50
218.6821839999999
 51
321.317811
  0
ARC
  5
1AA7A
330
1A942
100
AcDbEntity
  8
1
  6
Continuous
100
AcDbCircle
 10
110.495202
 20
207.25
 30
0.0
 40
4.0
100
AcDbArc
 50
38.682189
 51
141.317816
  0
ARC
  5
1AA7B
330
1A942
100
AcDbEntity
  8
1
  6
Continuous
100
AcDbCircle
 10
109.595192
 20
207.25
 30
0.0
 40
6.0
100
AcDbArc
 50
256.8233189999999
 51
335.375682
  0
ARC
  5
1AA7C
330
1A942
100
AcDbEntity
  8
1
  6
Continuous
100
AcDbCircle
 10
111.395195
 20
207.25
 30
0.0
 40
6.0
100
AcDbArc
 50
76.82332499999998
 51
98.62692800000004
  0
ARC
  5
1AA7D
330
1A942
100
AcDbEntity
  8
1
  6
Continuous
100
AcDbCircle
 10
111.395195
 20
207.25
 30
0.0
 40
6.0
100
AcDbArc
 50
261.3730719999999
 51
283.1766749999998
  0
ARC
  5
1AA7E
330
1A942
100
AcDbEntity
  8
1
  6
Continuous
100
AcDbCircle
 10
109.595192
 20
207.25
 30
0.0
 40
6.0
100
AcDbArc
 50
24.624318
 51
103.176681
  0
LINE
  5
1AA7F
330
1A942
100
AcDbEntity
  8
1
  6
Continuous
100
AcDbLine
 10
117.495202
 20
205.75
 30
0.0
 11
103.4952019999999
 21
205.75
 31
0.0
  0
LINE
  5
1AA80
330
1A942
100
AcDbEntity
  8
1
  6
Continuous
100
AcDbLine
 10
117.495202
 20
208.7499999999999
 30
0.0
 11
103.4952019999999
 21
208.7499999999999
 31
0.0
  0
LINE
  5
1AA81
330
1A942
100
AcDbEntity
  8
1
  6
Continuous
100
AcDbLine
 10
117.745202
 20
208.0
 30
0.0
 11
103.245202
 21
208.0
 31
0.0
  0
LINE
  5
1AA82
330
1A942
100
AcDbEntity
  8
1
  6
Continuous
100
AcDbLine
 10
117.745202
 20
206.4999999999999
 30
0.0
 11
103.245202
 21
206.4999999999999
 31
0.0
  0
LINE
  5
1AA83
330
1A942
100
AcDbEntity
  8
1
  6
Continuous
100
AcDbLine
 10
118.495202
 20
209.75
 30
0.0
 11
102.495202
 21
209.75
 31
0.0
  0
LINE
  5
1AA84
330
1A942
100
AcDbEntity
  8
1
  6
Continuous
100
AcDbLine
 10
118.495202
 20
204.7499999999998
 30
0.0
 11
102.495202
 21
204.7499999999998
 31
0.0
  0
ARC
  5
1AA85
330
1A942
100
AcDbEntity
  8
1
  6
Continuous
100
AcDbCircle
 10
98.27640600000002
 20
207.25
 30
0.0
 40
4.235495999999998
100
AcDbArc
 50
314.9032659999999
 51
345.0343329999999
  0
ARC
  5
1AA86
330
1A942
100
AcDbEntity
  8
1
  6
Continuous
100
AcDbCircle
 10
98.27640600000002
 20
207.25
 30
0.0
 40
4.235495999999998
100
AcDbArc
 50
14.965667
 51
45.09673400000001
  0
ARC
  5
1AA87
330
1A942
100
AcDbEntity
  8
1
  6
Continuous
100
AcDbCircle
 10
97.997399
 20
207.25
 30
0.0
 40
3.884166999999998
100
AcDbArc
 50
309.4331419999999
 51
50.566858
  0
ARC
  5
1AA88
330
1A942
100
AcDbEntity
  8
1
  6
Continuous
100
AcDbCircle
 10
118.5558249999999
 20
207.25
 30
0.0
 40
16.22449699999998
100
AcDbArc
 50
171.8498539999999
 51
188.150142
  0
ARC
  5
1AA89
330
1A942
100
AcDbEntity
  8
1
  6
Continuous
100
AcDbCircle
 10
103.4952019999999
 20
204.7499999999998
 30
0.0
 40
1.0
100
AcDbArc
 50
90.00000300000001
 51
180.000005
  0
ARC
  5
1AA8A
330
1A942
100
AcDbEntity
  8
1
  6
Continuous
100
AcDbCircle
 10
103.4952019999999
 20
209.75
 30
0.0
 40
1.0
100
AcDbArc
 50
179.9999909999999
 51
270.000001
  0
ARC
  5
1AA8B
330
1A942
100
AcDbEntity
  8
1
  6
Continuous
100
AcDbCircle
 10
103.245202
 20
207.25
 30
0.0
 40
0.75
100
AcDbArc
 50
90.00000300000001
 51
270.000001
  0
LINE
  5
1AA8C
330
1A942
100
AcDbEntity
  8
1
  6
Continuous
100
AcDbLine
 10
106.0747
 20
214.399994
 30
0.0
 11
105.4739459999999
 21
214.9999849999999
 31
0.0
  0
LINE
  5
1AA8D
330
1A942
100
AcDbEntity
  8
1
  6
Continuous
100
AcDbLine
 10
104.995202
 20
213.2499999999998
 30
0.0
 11
105.4739459999999
 21
215.0000149999999
 31
0.0
  0
LINE
  5
1AA8E
330
1A942
100
AcDbEntity
  8
1
  6
Continuous
100
AcDbLine
 10
104.9951859999999
 20
201.249985
 30
0.0
 11
105.4739309999998
 21
199.5
 31
0.0
  0
LINE
  5
1AA8F
330
1A942
100
AcDbEntity
  8
1
  6
Continuous
100
AcDbLine
 10
106.074685
 20
200.0999909999999
 30
0.0
 11
105.4739309999998
 21
199.5
 31
0.0
  0
LINE
  5
1AA90
330
1A942
100
AcDbEntity
  8
1
  6
Continuous
100
AcDbLine
 10
102.495202
 20
210.25
 30
0.0
 11
100.4645309999999
 21
210.25
 31
0.0
  0
LINE
  5
1AA91
330
1A942
100
AcDbEntity
  8
1
  6
Continuous
100
AcDbLine
 10
102.495202
 20
204.2499999999999
 30
0.0
 11
100.4645309999999
 21
204.2499999999999
 31
0.0
  0
LINE
  5
1AA92
330
1A942
100
AcDbEntity
  8
1
  6
Continuous
100
AcDbLine
 10
101.8815539999999
 20
203.619736
 30
0.0
 11
101.8815539999999
 21
203.0
 31
0.0
  0
LINE
  5
1AA93
330
1A942
100
AcDbEntity
  8
1
  6
Continuous
100
AcDbLine
 10
101.8815539999999
 20
203.619736
 30
0.0
 11
102.495202
 21
203.7784419999999
 31
0.0
  0
LINE
  5
1AA94
330
1A942
100
AcDbEntity
  8
1
  6
Continuous
100
AcDbLine
 10
101.8815539999999
 20
210.8802489999999
 30
0.0
 11
102.495186
 21
210.721542
 31
0.0
  0
LINE
  5
1AA95
330
1A942
100
AcDbEntity
  8
1
  6
Continuous
100
AcDbLine
 10
101.8815539999999
 20
202.999985
 30
0.0
 11
102.495202
 21
203.158691
 31
0.0
  0
LINE
  5
1AA96
330
1A942
100
AcDbEntity
  8
1
  6
Continuous
100
AcDbLine
 10
101.8815539999999
 20
211.5
 30
0.0
 11
102.495202
 21
211.3412929999999
 31
0.0
  0
LINE
  5
1AA97
330
1A942
100
AcDbEntity
  8
1
  6
Continuous
100
AcDbLine
 10
101.8815539999999
 20
211.5
 30
0.0
 11
101.8815539999999
 21
210.8802489999999
 31
0.0
  0
LINE
  5
1AA98
330
1A942
100
AcDbEntity
  8
1
  6
Continuous
100
AcDbLine
 10
100.4645309999999
 20
210.25
 30
0.0
 11
100.4645309999999
 21
204.2499999999999
 31
0.0
  0
LINE
  5
1AA99
330
1A942
100
AcDbEntity
  8
1
  6
Continuous
100
AcDbLine
 10
104.995202
 20
202.164703
 30
0.0
 11
104.995202
 21
201.25
 31
0.0
  0
LINE
  5
1AA9A
330
1A942
100
AcDbEntity
  8
1
  6
Continuous
100
AcDbLine
 10
104.995202
 20
213.2499999999998
 30
0.0
 11
104.995202
 21
212.335297
 31
0.0
  0
LINE
  5
1AA9B
330
1A942
100
AcDbEntity
  8
1
  6
Continuous
100
AcDbLine
 10
104.0258259999999
 20
202.3916629999999
 30
0.0
 11
104.995202
 21
201.25
 31
0.0
  0
LINE
  5
1AA9C
330
1A942
100
AcDbEntity
  8
1
  6
Continuous
100
AcDbLine
 10
104.995202
 20
213.2499999999998
 30
0.0
 11
104.025811
 21
212.108337
 31
0.0
  0
LINE
  5
1AA9D
330
1A942
100
AcDbEntity
  8
1
  6
Continuous
100
AcDbLine
 10
105.4739459999999
 20
202.0526119999999
 30
0.0
 11
105.4739459999999
 21
199.5
 31
0.0
  0
LINE
  5
1AA9E
330
1A942
100
AcDbEntity
  8
1
  6
Continuous
100
AcDbLine
 10
106.074685
 20
201.9119719999999
 30
0.0
 11
106.074685
 21
200.0999909999999
 31
0.0
  0
LINE
  5
1AA9F
330
1A942
100
AcDbEntity
  8
1
  6
Continuous
100
AcDbLine
 10
106.074685
 20
214.399994
 30
0.0
 11
106.074685
 21
212.5880279999999
 31
0.0
  0
LINE
  5
1AAA0
330
1A942
100
AcDbEntity
  8
1
  6
Continuous
100
AcDbLine
 10
105.4739459999999
 20
214.9999849999999
 30
0.0
 11
105.4739459999999
 21
212.447372
 31
0.0
  0
LINE
  5
1AAA1
330
1A942
100
AcDbEntity
  8
1
  6
Continuous
100
AcDbLine
 10
104.0951919999999
 20
204.7499999999998
 30
0.0
 11
104.0951919999999
 21
202.3754119999999
 31
0.0
  0
LINE
  5
1AAA2
330
1A942
100
AcDbEntity
  8
1
  6
Continuous
100
AcDbLine
 10
102.495186
 20
202.749985
 30
0.0
 11
108.2274709999998
 21
201.4079439999999
 31
0.0
  0
LINE
  5
1AAA3
330
1A942
100
AcDbEntity
  8
1
  6
Continuous
100
AcDbLine
 10
102.495186
 20
211.749985
 30
0.0
 11
108.2274709999998
 21
213.0920259999999
 31
0.0
  0
LINE
  5
1AAA4
330
1A942
100
AcDbEntity
  8
1
  6
Continuous
100
AcDbLine
 10
104.0951919999999
 20
212.124588
 30
0.0
 11
104.0951919999999
 21
209.75
 31
0.0
  0
LINE
  5
1AAA5
330
1A942
100
AcDbEntity
  8
1
  6
Continuous
100
AcDbLine
 10
102.495202
 20
211.75
 30
0.0
 11
102.495202
 21
202.7499999999998
 31
0.0
  0
ARC
  5
1AAA6
330
1A942
100
AcDbEntity
  8
1
  6
Continuous
100
AcDbCircle
 10
112.2461629999999
 20
202.812332
 30
0.0
 40
5.0
100
AcDbArc
 50
318.511641
 51
341.791983
  0
ARC
  5
1AAA7
330
1A942
100
AcDbEntity
  8
1
  6
Continuous
100
AcDbCircle
 10
112.2461629999999
 20
211.6876529999999
 30
0.0
 40
5.0
100
AcDbArc
 50
18.208017
 51
41.488359
  0
ARC
  5
1AAA8
330
1A942
100
AcDbEntity
  8
1
  6
Continuous
100
AcDbCircle
 10
101.129464
 20
207.25
 30
0.0
 40
19.55212999999998
100
AcDbArc
 50
351.914111
 51
355.2770039999999
  0
ARC
  5
1AAA9
330
1A942
100
AcDbEntity
  8
1
  6
Continuous
100
AcDbCircle
 10
101.129464
 20
207.25
 30
0.0
 40
19.55212999999998
100
AcDbArc
 50
4.722996
 51
8.085888999999998
  0
ARC
  5
1AAAA
330
1A942
100
AcDbEntity
  8
1
  6
Continuous
100
AcDbCircle
 10
118.507103
 20
209.7188259999998
 30
0.0
 40
2.0
100
AcDbArc
 50
0.0
 51
54.54959300000001
  0
ARC
  5
1AAAB
330
1A942
100
AcDbEntity
  8
1
  6
Continuous
100
AcDbCircle
 10
118.507103
 20
204.781158
 30
0.0
 40
2.0
100
AcDbArc
 50
305.450407
 51
0.0
  0
ARC
  5
1AAAC
330
1A942
100
AcDbEntity
  8
1
  6
Continuous
100
AcDbCircle
 10
118.383934
 20
207.25
 30
0.0
 40
2.751425999999998
100
AcDbArc
 50
320.503287
 51
39.496713
  0
ARC
  5
1AAAD
330
1A942
100
AcDbEntity
  8
1
  6
Continuous
100
AcDbCircle
 10
117.495202
 20
204.7499999999998
 30
0.0
 40
1.0
100
AcDbArc
 50
0.0
 51
90.00000300000001
  0
ARC
  5
1AAAE
330
1A942
100
AcDbEntity
  8
1
  6
Continuous
100
AcDbCircle
 10
117.495202
 20
209.75
 30
0.0
 40
1.0
100
AcDbArc
 50
269.9999969999999
 51
0.0
  0
ARC
  5
1AAAF
330
1A942
100
AcDbEntity
  8
1
  6
Continuous
100
AcDbCircle
 10
117.745202
 20
207.25
 30
0.0
 40
0.75
100
AcDbArc
 50
269.9999969999999
 51
90.00000300000001
  0
LINE
  5
1AAB0
330
1A942
100
AcDbEntity
  8
1
  6
Continuous
100
AcDbLine
 10
115.991601
 20
199.5
 30
0.0
 11
114.496285
 21
200.4999999999999
 31
0.0
  0
LINE
  5
1AAB1
330
1A942
100
AcDbEntity
  8
1
  6
Continuous
100
AcDbLine
 10
115.991631
 20
214.9999849999999
 30
0.0
 11
114.4963149999999
 21
214.0
 31
0.0
  0
LINE
  5
1AAB2
330
1A942
100
AcDbEntity
  8
1
  6
Continuous
100
AcDbLine
 10
116.995797
 20
201.249985
 30
0.0
 11
119.667107
 21
203.151917
 31
0.0
  0
LINE
  5
1AAB3
330
1A942
100
AcDbEntity
  8
1
  6
Continuous
100
AcDbLine
 10
116.995797
 20
213.249985
 30
0.0
 11
119.667092
 21
211.348068
 31
0.0
  0
LINE
  5
1AAB4
330
1A942
100
AcDbEntity
  8
1
  6
Continuous
100
AcDbLine
 10
115.9916159999998
 20
202.1591799999999
 30
0.0
 11
115.9916159999998
 21
199.5
 31
0.0
  0
LINE
  5
1AAB5
330
1A942
100
AcDbEntity
  8
1
  6
Continuous
100
AcDbLine
 10
116.995812
 20
202.3989559999999
 30
0.0
 11
116.995812
 21
201.25
 31
0.0
  0
LINE
  5
1AAB6
330
1A942
100
AcDbEntity
  8
1
  6
Continuous
100
AcDbLine
 10
116.995812
 20
213.2499999999998
 30
0.0
 11
116.995812
 21
212.1010279999999
 31
0.0
  0
LINE
  5
1AAB7
330
1A942
100
AcDbEntity
  8
1
  6
Continuous
100
AcDbLine
 10
114.4963
 20
201.813782
 30
0.0
 11
114.4963
 21
200.4999999999999
 31
0.0
  0
LINE
  5
1AAB8
330
1A942
100
AcDbEntity
  8
1
  6
Continuous
100
AcDbLine
 10
114.4963
 20
214.0
 30
0.0
 11
114.4963
 21
212.686218
 31
0.0
  0
LINE
  5
1AAB9
330
1A942
100
AcDbEntity
  8
1
  6
Continuous
100
AcDbLine
 10
115.9916159999998
 20
214.9999849999999
 30
0.0
 11
115.9916159999998
 21
212.340805
 31
0.0
  0
LINE
  5
1AABA
330
1A942
100
AcDbEntity
  8
1
  6
Continuous
100
AcDbLine
 10
120.507103
 20
209.7188259999998
 30
0.0
 11
120.507103
 21
204.781158
 31
0.0
  0
LINE
  5
1AABB
330
1A942
100
AcDbEntity
  8
1
  6
Continuous
100
AcDbLine
 10
116.895195
 20
204.7499999999998
 30
0.0
 11
116.895195
 21
202.3754119999999
 31
0.0
  0
LINE
  5
1AABC
330
1A942
100
AcDbEntity
  8
1
  6
Continuous
100
AcDbLine
 10
118.495202
 20
211.75
 30
0.0
 11
112.762932
 21
213.0920259999999
 31
0.0
  0
LINE
  5
1AABD
330
1A942
100
AcDbEntity
  8
1
  6
Continuous
100
AcDbLine
 10
118.495202
 20
211.75
 30
0.0
 11
118.495202
 21
202.7499999999998
 31
0.0
  0
LINE
  5
1AABE
330
1A942
100
AcDbEntity
  8
1
  6
Continuous
100
AcDbLine
 10
116.895195
 20
212.124588
 30
0.0
 11
116.895195
 21
209.75
 31
0.0
  0
LINE
  5
1AABF
330
1A942
100
AcDbEntity
  8
1
  6
Continuous
100
AcDbLine
 10
118.4951859999999
 20
202.7499999999998
 30
0.0
 11
112.762932
 21
201.407974
 31
0.0
  0
CIRCLE
  5
1AAC0
330
1A942
100
AcDbEntity
  8
1
  6
Continuous
100
AcDbCircle
 10
267.503974
 20
135.0
 30
0.0
 40
1.5
  0
LINE
  5
1AAC1
330
1A942
100
AcDbEntity
  8
1
  6
Continuous
100
AcDbLine
 10
119.666756
 20
44.651955
 30
0.0
 11
116.971611
 21
42.73387899999997
 31
0.0
  0
LINE
  5
1AAC2
330
1A942
100
AcDbEntity
  8
1
  6
Continuous
100
AcDbLine
 10
116.971611
 20
45.226418
 30
0.0
 11
116.971611
 21
42.73387899999997
 31
0.0
  0
LINE
  5
1AAC3
330
1A942
100
AcDbEntity
  8
1
  6
Continuous
100
AcDbLine
 10
113.5951919999999
 20
44.75
 30
0.0
 11
113.5951919999999
 21
43.75
 31
0.0
  0
LINE
  5
1AAC4
330
1A942
100
AcDbEntity
  8
1
  6
Continuous
100
AcDbLine
 10
104.995202
 20
42.75000399999997
 30
0.0
 11
103.2161789999999
 21
44.845184
 31
0.0
  0
LINE
  5
1AAC5
330
1A942
100
AcDbEntity
  8
1
  6
Continuous
100
AcDbLine
 10
106.074685
 20
41.599998
 30
0.0
 11
106.074685
 21
45.400036
 31
0.0
  0
LINE
  5
1AAC6
330
1A942
100
AcDbEntity
  8
1
  6
Continuous
100
AcDbLine
 10
105.4739459999999
 20
41.0
 30
0.0
 11
105.4739459999999
 21
45.437511
 31
0.0
  0
LINE
  5
1AAC7
330
1A942
100
AcDbEntity
  8
1
  6
Continuous
100
AcDbLine
 10
104.995202
 20
42.75
 30
0.0
 11
104.995202
 21
45.467377
 31
0.0
  0
LINE
  5
1AAC8
330
1A942
100
AcDbEntity
  8
1
  6
Continuous
100
AcDbLine
 10
114.4963
 20
42.0
 30
0.0
 11
114.4963
 21
44.874691
 31
0.0
  0
LINE
  5
1AAC9
330
1A942
100
AcDbEntity
  8
1
  6
Continuous
100
AcDbLine
 10
115.971611
 20
41.0
 30
0.0
 11
115.971611
 21
44.78266099999999
 31
0.0
  0
LINE
  5
1AACA
330
1A942
100
AcDbEntity
  8
1
  6
Continuous
100
AcDbLine
 10
102.495186
 20
44.24999999999999
 30
0.0
 11
104.025811
 21
43.891651
 31
0.0
  0
LINE
  5
1AACB
330
1A942
100
AcDbEntity
  8
4
  6
CENTER
100
AcDbLine
 10
110.495202
 20
36.00000099999999
 30
0.0
 11
110.495202
 21
61.499999
 31
0.0
  0
ARC
  5
1AACC
330
1A942
100
AcDbEntity
  8
1
  6
Continuous
100
AcDbCircle
 10
110.495202
 20
46.978127
 30
0.0
 40
4.028125
100
AcDbArc
 50
244.25
 51
295.7500019999999
  0
ARC
  5
1AACD
330
1A942
100
AcDbEntity
  8
1
  6
Continuous
100
AcDbCircle
 10
111.395195
 20
48.75
 30
0.0
 40
6.0
100
AcDbArc
 50
248.92691
 51
283.1766749999998
  0
LINE
  5
1AACE
330
1A942
100
AcDbEntity
  8
1
  6
Continuous
100
AcDbLine
 10
113.5951919999999
 20
43.75
 30
0.0
 11
106.074685
 21
43.75
 31
0.0
  0
ARC
  5
1AACF
330
1A942
100
AcDbEntity
  8
1
  6
Continuous
100
AcDbCircle
 10
111.395195
 20
48.75
 30
0.0
 40
6.0
100
AcDbArc
 50
236.4426839999999
 51
243.789727
  0
ARC
  5
1AAD0
330
1A942
100
AcDbEntity
  8
1
  6
Continuous
100
AcDbCircle
 10
109.595192
 20
48.75
 30
0.0
 40
6.0
100
AcDbArc
 50
256.8233189999999
 51
278.626929
  0
LINE
  5
1AAD1
330
1A942
100
AcDbEntity
  8
1
  6
Continuous
100
AcDbLine
 10
104.995202
 20
42.75000399999997
 30
0.0
 11
105.4739459999999
 21
41.00000399999998
 31
0.0
  0
LINE
  5
1AAD2
330
1A942
100
AcDbEntity
  8
1
  6
Continuous
100
AcDbLine
 10
106.074685
 20
41.600002
 30
0.0
 11
105.4739459999999
 21
41.000008
 31
0.0
  0
LINE
  5
1AAD3
330
1A942
100
AcDbEntity
  8
1
  6
Continuous
100
AcDbLine
 10
108.745202
 20
43.75
 30
0.0
 11
108.745202
 21
43.349998
 31
0.0
  0
LINE
  5
1AAD4
330
1A942
100
AcDbEntity
  8
1
  6
Continuous
100
AcDbLine
 10
106.0747
 20
43.41197199999998
 30
0.0
 11
108.2274709999998
 21
42.907967
 31
0.0
  0
ARC
  5
1AAD5
330
1A942
100
AcDbEntity
  8
1
  6
Continuous
100
AcDbCircle
 10
112.2279899999999
 20
44.31441099999999
 30
0.0
 40
5.0
100
AcDbArc
 50
318.4799489999999
 51
341.572392
  0
LINE
  5
1AAD6
330
1A942
100
AcDbEntity
  8
1
  6
Continuous
100
AcDbLine
 10
115.971611
 20
41.0
 30
0.0
 11
114.496285
 21
42.0
 31
0.0
  0
LINE
  5
1AAD7
330
1A942
100
AcDbEntity
  8
1
  6
Continuous
100
AcDbLine
 10
112.245202
 20
43.75
 30
0.0
 11
112.245202
 21
43.349998
 31
0.0
  0
LINE
  5
1AAD8
330
1A942
100
AcDbEntity
  8
1
  6
Continuous
100
AcDbLine
 10
114.496285
 20
43.313782
 30
0.0
 11
112.7629169999998
 21
42.907967
 31
0.0
  0
LINE
  5
1AAD9
330
1A942
100
AcDbEntity
  8
4
  6
CENTER
100
AcDbLine
 10
126.13536
 20
48.75
 30
0.0
 11
95.46453099999999
 21
48.75
 31
0.0
  0
ARC
  5
1AADA
330
1A942
100
AcDbEntity
  8
1
  6
Continuous
100
AcDbCircle
 10
110.495202
 20
51.75
 30
0.0
 40
2.5
100
AcDbArc
 50
53.130102
 51
126.869903
  0
ARC
  5
1AADB
330
1A942
100
AcDbEntity
  8
1
  6
Continuous
100
AcDbCircle
 10
111.395195
 20
48.75
 30
0.0
 40
6.0
100
AcDbArc
 50
76.82332499999998
 51
123.5573159999999
  0
LINE
  5
1AADC
330
1A942
100
AcDbEntity
  8
1
  6
Continuous
100
AcDbLine
 10
116.495202
 20
46.74999999999999
 30
0.0
 11
101.0645379999999
 21
47.0
 31
0.0
  0
LINE
  5
1AADD
330
1A942
100
AcDbEntity
  8
1
  6
Continuous
100
AcDbLine
 10
116.495202
 20
50.75
 30
0.0
 11
101.064522
 21
50.5
 31
0.0
  0
LINE
  5
1AADE
330
1A942
100
AcDbEntity
  8
1
  6
Continuous
100
AcDbLine
 10
112.584054
 20
44.993977
 30
0.0
 11
111.026009
 21
44.785378
 31
0.0
  0
LINE
  5
1AADF
330
1A942
100
AcDbEntity
  8
1
  6
Continuous
100
AcDbLine
 10
112.5840689999999
 20
52.506023
 30
0.0
 11
111.026009
 21
52.714626
 31
0.0
  0
LINE
  5
1AAE0
330
1A942
100
AcDbEntity
  8
1
  6
Continuous
100
AcDbLine
 10
113.5951919999999
 20
53.75
 30
0.0
 11
106.074685
 21
53.75
 31
0.0
  0
LINE
  5
1AAE1
330
1A942
100
AcDbEntity
  8
1
  6
Continuous
100
AcDbLine
 10
113.5951919999999
 20
52.75
 30
0.0
 11
106.074685
 21
52.75
 31
0.0
  0
LINE
  5
1AAE2
330
1A942
100
AcDbEntity
  8
1
  6
Continuous
100
AcDbLine
 10
113.5951919999999
 20
44.75
 30
0.0
 11
106.074685
 21
44.75
 31
0.0
  0
LINE
  5
1AAE3
330
1A942
100
AcDbEntity
  8
1
  6
Continuous
100
AcDbLine
 10
116.495202
 20
44.75
 30
0.0
 11
100.4645309999999
 21
45.75
 31
0.0
  0
LINE
  5
1AAE4
330
1A942
100
AcDbEntity
  8
1
  6
Continuous
100
AcDbLine
 10
116.495202
 20
52.75
 30
0.0
 11
100.4645309999999
 21
51.75
 31
0.0
  0
LINE
  5
1AAE5
330
1A942
100
AcDbEntity
  8
1
  6
Continuous
100
AcDbLine
 10
117.495202
 20
51.75
 30
0.0
 11
100.4645309999999
 21
51.75
 31
0.0
  0
LINE
  5
1AAE6
330
1A942
100
AcDbEntity
  8
1
  6
Continuous
100
AcDbLine
 10
117.495202
 20
45.75
 30
0.0
 11
100.4645309999999
 21
45.75
 31
0.0
  0
ARC
  5
1AAE7
330
1A942
100
AcDbEntity
  8
1
  6
Continuous
100
AcDbCircle
 10
100.033272
 20
48.75
 30
0.0
 40
2.03125
100
AcDbArc
 50
300.510241
 51
59.489759
  0
ARC
  5
1AAE8
330
1A942
100
AcDbEntity
  8
1
  6
Continuous
100
AcDbCircle
 10
111.395195
 20
48.75
 30
0.0
 40
6.0
100
AcDbArc
 50
214.197564
 51
221.810315
  0
ARC
  5
1AAE9
330
1A942
100
AcDbEntity
  8
1
  6
Continuous
100
AcDbCircle
 10
110.495202
 20
48.75
 30
0.0
 40
4.0
100
AcDbArc
 50
241.2094870000001
 51
277.625767
  0
ARC
  5
1AAEA
330
1A942
100
AcDbEntity
  8
1
  6
Continuous
100
AcDbCircle
 10
110.495202
 20
48.75
 30
0.0
 40
4.0
100
AcDbArc
 50
82.37423299999997
 51
118.7905129999998
  0
ARC
  5
1AAEB
330
1A942
100
AcDbEntity
  8
1
  6
Continuous
100
AcDbCircle
 10
103.7813649999999
 20
46.024269
 30
0.0
 40
1.0
100
AcDbArc
 50
284.5010759999999
 51
327.729395
  0
ARC
  5
1AAEC
330
1A942
100
AcDbEntity
  8
1
  6
Continuous
100
AcDbCircle
 10
103.7813649999999
 20
51.475731
 30
0.0
 40
1.0
100
AcDbArc
 50
32.27060499999998
 51
75.498924
  0
ARC
  5
1AAED
330
1A942
100
AcDbEntity
  8
1
  6
Continuous
100
AcDbCircle
 10
111.395195
 20
48.75
 30
0.0
 40
6.0
100
AcDbArc
 50
138.1896849999999
 51
145.802436
  0
ARC
  5
1AAEE
330
1A942
100
AcDbEntity
  8
1
  6
Continuous
100
AcDbCircle
 10
109.595192
 20
48.75
 30
0.0
 40
6.0
100
AcDbArc
 50
81.37307099999999
 51
103.176681
  0
LINE
  5
1AAEF
330
1A942
100
AcDbEntity
  8
1
  6
Continuous
100
AcDbLine
 10
105.4739459999999
 20
56.49999600000001
 30
0.0
 11
104.995202
 21
54.75
 31
0.0
  0
LINE
  5
1AAF0
330
1A942
100
AcDbEntity
  8
1
  6
Continuous
100
AcDbLine
 10
105.4739459999999
 20
56.5
 30
0.0
 11
106.0747
 21
55.899998
 31
0.0
  0
LINE
  5
1AAF1
330
1A942
100
AcDbEntity
  8
1
  6
Continuous
100
AcDbLine
 10
104.0752029999999
 20
50.052948
 30
0.0
 11
104.0752029999999
 21
47.447052
 31
0.0
  0
LINE
  5
1AAF2
330
1A942
100
AcDbEntity
  8
1
  6
Continuous
100
AcDbLine
 10
102.495202
 20
45.27845
 30
0.0
 11
102.495202
 21
45.623325
 31
0.0
  0
LINE
  5
1AAF3
330
1A942
100
AcDbEntity
  8
1
  6
Continuous
100
AcDbLine
 10
102.495202
 20
52.84129
 30
0.0
 11
102.495202
 21
53.25
 31
0.0
  0
LINE
  5
1AAF4
330
1A942
100
AcDbEntity
  8
1
  6
Continuous
100
AcDbLine
 10
102.7847069999999
 20
45.353333
 30
0.0
 11
102.558831
 21
45.619362
 31
0.0
  0
LINE
  5
1AAF5
330
1A942
100
AcDbEntity
  8
1
  6
Continuous
100
AcDbLine
 10
103.2161789999999
 20
52.65481900000001
 30
0.0
 11
104.9951859999999
 21
54.749996
 31
0.0
  0
LINE
  5
1AAF6
330
1A942
100
AcDbEntity
  8
1
  6
Continuous
100
AcDbLine
 10
102.495202
 20
51.87667499999999
 30
0.0
 11
102.495202
 21
52.22154599999999
 31
0.0
  0
LINE
  5
1AAF7
330
1A942
100
AcDbEntity
  8
1
  6
Continuous
100
AcDbLine
 10
106.074685
 20
54.088028
 30
0.0
 11
108.227456
 21
54.59203
 31
0.0
  0
LINE
  5
1AAF8
330
1A942
100
AcDbEntity
  8
1
  6
Continuous
100
AcDbLine
 10
101.8815539999999
 20
52.380257
 30
0.0
 11
101.8815539999999
 21
53.0
 31
0.0
  0
LINE
  5
1AAF9
330
1A942
100
AcDbEntity
  8
1
  6
Continuous
100
AcDbLine
 10
101.8815539999999
 20
52.38026
 30
0.0
 11
103.5695119999999
 21
51.94369099999999
 31
0.0
  0
LINE
  5
1AAFA
330
1A942
100
AcDbEntity
  8
1
  6
Continuous
100
AcDbLine
 10
101.881569
 20
45.119743
 30
0.0
 11
103.5695119999999
 21
45.55630899999999
 31
0.0
  0
LINE
  5
1AAFB
330
1A942
100
AcDbEntity
  8
1
  6
Continuous
100
AcDbLine
 10
101.8815539999999
 20
53.0
 30
0.0
 11
104.0317619999999
 21
52.443874
 31
0.0
  0
LINE
  5
1AAFC
330
1A942
100
AcDbEntity
  8
1
  6
Continuous
100
AcDbLine
 10
101.881569
 20
44.5
 30
0.0
 11
104.031777
 21
45.056126
 31
0.0
  0
LINE
  5
1AAFD
330
1A942
100
AcDbEntity
  8
1
  6
Continuous
100
AcDbLine
 10
101.8815539999999
 20
44.5
 30
0.0
 11
101.8815539999999
 21
45.119743
 31
0.0
  0
LINE
  5
1AAFE
330
1A942
100
AcDbEntity
  8
1
  6
Continuous
100
AcDbLine
 10
104.995202
 20
52.032623
 30
0.0
 11
104.995202
 21
54.75
 31
0.0
  0
LINE
  5
1AAFF
330
1A942
100
AcDbEntity
  8
1
  6
Continuous
100
AcDbLine
 10
102.558831
 20
51.880642
 30
0.0
 11
102.7847069999999
 21
52.14667099999999
 31
0.0
  0
LINE
  5
1AB00
330
1A942
100
AcDbEntity
  8
1
  6
Continuous
100
AcDbLine
 10
106.074685
 20
52.099964
 30
0.0
 11
106.074685
 21
55.900002
 31
0.0
  0
LINE
  5
1AB01
330
1A942
100
AcDbEntity
  8
1
  6
Continuous
100
AcDbLine
 10
100.4645309999999
 20
45.75
 30
0.0
 11
100.4645309999999
 21
51.75
 31
0.0
  0
LINE
  5
1AB02
330
1A942
100
AcDbEntity
  8
1
  6
Continuous
100
AcDbLine
 10
105.4739459999999
 20
52.062489
 30
0.0
 11
105.4739459999999
 21
56.5
 31
0.0
  0
LINE
  5
1AB03
330
1A942
100
AcDbEntity
  8
1
  6
Continuous
100
AcDbLine
 10
102.495202
 20
44.24999999999999
 30
0.0
 11
102.495202
 21
44.65870999999999
 31
0.0
  0
LINE
  5
1AB04
330
1A942
100
AcDbEntity
  8
1
  6
Continuous
100
AcDbLine
 10
102.495202
 20
53.25
 30
0.0
 11
104.025811
 21
53.60834499999999
 31
0.0
  0
ARC
  5
1AB05
330
1A942
100
AcDbEntity
  8
1
  6
Continuous
100
AcDbCircle
 10
101.133172
 20
48.75
 30
0.0
 40
19.548424
100
AcDbArc
 50
351.913256
 51
355.276049
  0
ARC
  5
1AB06
330
1A942
100
AcDbEntity
  8
1
  6
Continuous
100
AcDbCircle
 10
101.133172
 20
48.75
 30
0.0
 40
19.548424
100
AcDbArc
 50
4.723950999999998
 51
8.086743999999997
  0
ARC
  5
1AB07
330
1A942
100
AcDbEntity
  8
1
  6
Continuous
100
AcDbCircle
 10
118.507103
 20
46.281425
 30
0.0
 40
2.0
100
AcDbArc
 50
305.43855
 51
0.0
  0
ARC
  5
1AB08
330
1A942
100
AcDbEntity
  8
1
  6
Continuous
100
AcDbCircle
 10
118.507103
 20
51.218575
 30
0.0
 40
2.0
100
AcDbArc
 50
0.0
 51
54.56145
  0
ARC
  5
1AB09
330
1A942
100
AcDbEntity
  8
1
  6
Continuous
100
AcDbCircle
 10
112.2279899999999
 20
53.185589
 30
0.0
 40
5.0
100
AcDbArc
 50
18.42760799999998
 51
41.520051
  0
ARC
  5
1AB0A
330
1A942
100
AcDbEntity
  8
1
  6
Continuous
100
AcDbCircle
 10
118.383934
 20
48.75
 30
0.0
 40
2.751425999999998
100
AcDbArc
 50
320.503287
 51
39.496713
  0
LINE
  5
1AB0B
330
1A942
100
AcDbEntity
  8
1
  6
Continuous
100
AcDbLine
 10
115.995186
 20
48.75
 30
0.0
 11
116.495186
 21
46.749996
 31
0.0
  0
LINE
  5
1AB0C
330
1A942
100
AcDbEntity
  8
1
  6
Continuous
100
AcDbLine
 10
116.495186
 20
46.749996
 30
0.0
 11
117.4951859999999
 21
45.749996
 31
0.0
  0
LINE
  5
1AB0D
330
1A942
100
AcDbEntity
  8
1
  6
Continuous
100
AcDbLine
 10
116.495186
 20
50.75
 30
0.0
 11
115.995186
 21
48.75
 31
0.0
  0
LINE
  5
1AB0E
330
1A942
100
AcDbEntity
  8
1
  6
Continuous
100
AcDbLine
 10
117.4951859999999
 20
51.750004
 30
0.0
 11
116.495186
 21
50.75
 31
0.0
  0
LINE
  5
1AB0F
330
1A942
100
AcDbEntity
  8
1
  6
Continuous
100
AcDbLine
 10
116.971627
 20
54.766121
 30
0.0
 11
119.666771
 21
52.84804900000001
 31
0.0
  0
LINE
  5
1AB10
330
1A942
100
AcDbEntity
  8
1
  6
Continuous
100
AcDbLine
 10
115.971611
 20
56.5
 30
0.0
 11
114.4963
 21
55.500004
 31
0.0
  0
LINE
  5
1AB11
330
1A942
100
AcDbEntity
  8
1
  6
Continuous
100
AcDbLine
 10
116.971611
 20
51.226418
 30
0.0
 11
116.971611
 21
46.27357899999998
 31
0.0
  0
LINE
  5
1AB12
330
1A942
100
AcDbEntity
  8
1
  6
Continuous
100
AcDbLine
 10
116.971611
 20
52.273579
 30
0.0
 11
116.971611
 21
54.766121
 31
0.0
  0
LINE
  5
1AB13
330
1A942
100
AcDbEntity
  8
1
  6
Continuous
100
AcDbLine
 10
113.5951919999999
 20
53.75
 30
0.0
 11
113.5951919999999
 21
52.75
 31
0.0
  0
LINE
  5
1AB14
330
1A942
100
AcDbEntity
  8
1
  6
Continuous
100
AcDbLine
 10
117.4951859999999
 20
45.749996
 30
0.0
 11
116.495186
 21
44.749996
 31
0.0
  0
LINE
  5
1AB15
330
1A942
100
AcDbEntity
  8
1
  6
Continuous
100
AcDbLine
 10
117.4951859999999
 20
51.750004
 30
0.0
 11
116.495202
 21
52.75
 31
0.0
  0
LINE
  5
1AB16
330
1A942
100
AcDbEntity
  8
1
  6
Continuous
100
AcDbLine
 10
115.971611
 20
52.717339
 30
0.0
 11
115.971611
 21
56.5
 31
0.0
  0
LINE
  5
1AB17
330
1A942
100
AcDbEntity
  8
1
  6
Continuous
100
AcDbLine
 10
114.4963
 20
52.62530899999998
 30
0.0
 11
114.4963
 21
55.5
 31
0.0
  0
LINE
  5
1AB18
330
1A942
100
AcDbEntity
  8
1
  6
Continuous
100
AcDbLine
 10
120.507103
 20
46.281425
 30
0.0
 11
120.507103
 21
51.218575
 31
0.0
  0
LINE
  5
1AB19
330
1A942
100
AcDbEntity
  8
1
  6
Continuous
100
AcDbLine
 10
114.496285
 20
54.186214
 30
0.0
 11
112.7629169999998
 21
54.59202600000001
 31
0.0
  0
ARC
  5
1AB1A
330
1A942
100
AcDbEntity
  8
1
  6
Continuous
100
AcDbCircle
 10
27.779187
 20
144.299991
 30
0.0
 40
1.0
100
AcDbArc
 50
270.0
 51
346.853867
  0
ARC
  5
1AB1B
330
1A942
100
AcDbEntity
  8
1
  6
Continuous
100
AcDbCircle
 10
37.68532800000001
 20
144.299991
 30
0.0
 40
1.0
100
AcDbArc
 50
193.1461329999999
 51
270.0
  0
ARC
  5
1AB1C
330
1A942
100
AcDbEntity
  8
1
  6
Continuous
100
AcDbCircle
 10
116.3951949999999
 20
143.5999909999999
 30
0.0
 40
0.3
100
AcDbArc
 50
269.9999969999999
 51
0.0
  0
LINE
  5
1AB1D
330
1A942
100
AcDbEntity
  8
1
  6
Continuous
100
AcDbLine
 10
116.6952019999999
 20
154.4999999999998
 30
0.0
 11
116.6952019999999
 21
143.5999909999999
 31
0.0
  0
ARC
  5
1AB1E
330
1A942
100
AcDbEntity
  8
1
  6
Continuous
100
AcDbCircle
 10
114.495202
 20
154.4999999999998
 30
0.0
 40
2.2
100
AcDbArc
 50
0.0
 51
53.130102
  0
LINE
  5
1AB1F
330
1A942
100
AcDbEntity
  8
1
  6
Continuous
100
AcDbLine
 10
111.8151949999999
 20
159.259997
 30
0.0
 11
115.8151949999999
 21
156.2599969999999
 31
0.0
  0
ARC
  5
1AB20
330
1A942
100
AcDbEntity
  8
1
  6
Continuous
100
AcDbCircle
 10
110.495202
 20
157.5
 30
0.0
 40
2.2
100
AcDbArc
 50
53.130102
 51
126.869903
  0
LINE
  5
1AB21
330
1A942
100
AcDbEntity
  8
1
  6
Continuous
100
AcDbLine
 10
109.1751919999999
 20
159.259997
 30
0.0
 11
105.175192
 21
156.2599969999999
 31
0.0
  0
ARC
  5
1AB22
330
1A942
100
AcDbEntity
  8
1
  6
Continuous
100
AcDbCircle
 10
106.4952019999999
 20
154.4999999999998
 30
0.0
 40
2.2
100
AcDbArc
 50
126.8698899999999
 51
180.000005
  0
LINE
  5
1AB23
330
1A942
100
AcDbEntity
  8
1
  6
Continuous
100
AcDbLine
 10
104.2952019999999
 20
154.4999999999998
 30
0.0
 11
104.2952019999999
 21
145.3976649999999
 31
0.0
  0
ARC
  5
1AB24
330
1A942
100
AcDbEntity
  8
1
  6
Continuous
100
AcDbCircle
 10
104.595192
 20
145.3999969999999
 30
0.0
 40
0.3
100
AcDbArc
 50
179.9999909999999
 51
270.000001
  0
LINE
  5
1AB25
330
1A942
100
AcDbEntity
  8
1
  6
Continuous
100
AcDbLine
 10
111.095195
 20
158.2999969999999
 30
0.0
 11
115.0951949999999
 21
155.2999969999999
 31
0.0
  0
ARC
  5
1AB26
330
1A942
100
AcDbEntity
  8
1
  6
Continuous
100
AcDbCircle
 10
114.495202
 20
154.4999999999998
 30
0.0
 40
1.0
100
AcDbArc
 50
0.0
 51
53.130102
  0
ARC
  5
1AB27
330
1A942
100
AcDbEntity
  8
1
  6
Continuous
100
AcDbCircle
 10
110.495202
 20
157.5
 30
0.0
 40
1.0
100
AcDbArc
 50
53.130102
 51
126.869903
  0
LINE
  5
1AB28
330
1A942
100
AcDbEntity
  8
1
  6
Continuous
100
AcDbLine
 10
109.8951919999998
 20
158.2999969999999
 30
0.0
 11
105.8951919999998
 21
155.2999969999999
 31
0.0
  0
ARC
  5
1AB29
330
1A942
100
AcDbEntity
  8
1
  6
Continuous
100
AcDbCircle
 10
106.4952019999999
 20
154.4999999999998
 30
0.0
 40
1.0
100
AcDbArc
 50
126.8698899999999
 51
180.000005
  0
LINE
  5
1AB2A
330
1A942
100
AcDbEntity
  8
1
  6
Continuous
100
AcDbLine
 10
115.495202
 20
154.4999999999998
 30
0.0
 11
115.495202
 21
153.4053099999999
 31
0.0
  0
ARC
  5
1AB2B
330
1A942
100
AcDbEntity
  8
1
  6
Continuous
100
AcDbCircle
 10
116.9952019999999
 20
153.4053099999999
 30
0.0
 40
1.5
100
AcDbArc
 50
180.0
 51
258.4630409999999
  0
ARC
  5
1AB2C
330
1A942
100
AcDbEntity
  8
1
  6
Continuous
100
AcDbCircle
 10
103.995202
 20
153.4053099999999
 30
0.0
 40
1.5
100
AcDbArc
 50
281.5369589999999
 51
0.0
  0
LINE
  5
1AB2D
330
1A942
100
AcDbEntity
  8
1
  6
Continuous
100
AcDbLine
 10
105.4952019999999
 20
154.4999999999998
 30
0.0
 11
105.4952019999999
 21
153.4053099999999
 31
0.0
  0
ARC
  5
1AB2E
330
1A942
100
AcDbEntity
  8
1
  6
Continuous
100
AcDbCircle
 10
109.707087
 20
144.0842949999999
 30
0.0
 40
4.415704999999999
100
AcDbArc
 50
30.06088200000001
 51
159.938962
  0
LINE
  5
1AB2F
330
1A942
100
AcDbEntity
  8
1
  6
Continuous
100
AcDbLine
 10
112.436108
 20
141.5
 30
0.0
 11
112.646035
 21
139.0999909999998
 31
0.0
  0
LINE
  5
1AB30
330
1A942
100
AcDbEntity
  8
1
  6
Continuous
100
AcDbLine
 10
107.417004
 20
141.5
 30
0.0
 11
107.626931
 21
139.0999909999998
 31
0.0
  0
ARC
  5
1AB31
330
1A942
100
AcDbEntity
  8
1
  6
Continuous
100
AcDbCircle
 10
32.737235
 20
143.729586
 30
0.0
 40
4.415704999999999
100
AcDbArc
 50
25.060837
 51
38.842276
  0
LINE
  5
1AB32
330
1A942
100
AcDbEntity
  8
1
  6
Continuous
100
AcDbLine
 10
36.73723900000001
 20
145.5999919999999
 30
0.0
 11
36.73724099999999
 21
145.0999969999998
 31
0.0
  0
LINE
  5
1AB33
330
1A942
100
AcDbEntity
  8
1
  6
Continuous
100
AcDbLine
 10
28.73723899999999
 20
145.6000099999999
 30
0.0
 11
28.73723899999999
 21
145.0999989999999
 31
0.0
  0
ARC
  5
1AB34
330
1A942
100
AcDbEntity
  8
1
  6
Continuous
100
AcDbCircle
 10
32.737235
 20
143.729586
 30
0.0
 40
4.415704999999999
100
AcDbArc
 50
141.4365339999999
 51
154.9389169999998
  0
ARC
  5
1AB35
330
1A942
100
AcDbEntity
  8
1
  6
Continuous
100
AcDbCircle
 10
193.820684
 20
144.299991
 30
0.0
 40
1.0
100
AcDbArc
 50
193.1461329999999
 51
270.0
  0
ARC
  5
1AB36
330
1A942
100
AcDbEntity
  8
1
  6
Continuous
100
AcDbCircle
 10
183.9145509999999
 20
144.299991
 30
0.0
 40
1.0
100
AcDbArc
 50
270.0
 51
346.853867
  0
ARC
  5
1AB37
330
1A942
100
AcDbEntity
  8
1
  6
Continuous
100
AcDbCircle
 10
188.872599
 20
143.729586
 30
0.0
 40
4.415704999999999
100
AcDbArc
 50
25.060837
 51
38.842276
  0
LINE
  5
1AB38
330
1A942
100
AcDbEntity
  8
1
  6
Continuous
100
AcDbLine
 10
192.8726029999999
 20
145.5999919999999
 30
0.0
 11
192.8726039999999
 21
145.0999969999998
 31
0.0
  0
ARC
  5
1AB39
330
1A942
100
AcDbEntity
  8
1
  6
Continuous
100
AcDbCircle
 10
188.872599
 20
143.729586
 30
0.0
 40
4.415704999999999
100
AcDbArc
 50
141.4365339999999
 51
154.9389169999998
  0
LINE
  5
1AB3A
330
1A942
100
AcDbEntity
  8
1
  6
Continuous
100
AcDbLine
 10
184.8726029999999
 20
145.6000099999999
 30
0.0
 11
184.8726029999999
 21
145.0999989999999
 31
0.0
  0
LINE
  5
1AB3B
330
1A942
100
AcDbEntity
  8
4
  6
CENTER
100
AcDbLine
 10
267.503974
 20
164.5
 30
0.0
 11
267.503974
 21
91.725563
 31
0.0
  0
LINE
  5
1AB3C
330
1A942
100
AcDbEntity
  8
1
  6
Continuous
100
AcDbLine
 10
263.965949
 20
131.624207
 30
0.0
 11
271.503974
 21
132.019257
 31
0.0
  0
LINE
  5
1AB3D
330
1A942
100
AcDbEntity
  8
1
  6
Continuous
100
AcDbLine
 10
273.003974
 20
132.3610689999999
 30
0.0
 11
275.1885439999999
 21
130.232666
 31
0.0
  0
ARC
  5
1AB3E
330
1A942
100
AcDbEntity
  8
1
  6
Continuous
100
AcDbCircle
 10
270.426352
 20
131.5999909999999
 30
0.0
 40
1.5
100
AcDbArc
 50
2.862404
 51
89.99999700000001
  0
ARC
  5
1AB3F
330
1A942
100
AcDbEntity
  8
1
  6
Continuous
100
AcDbCircle
 10
271.027106
 20
131.5999909999999
 30
0.0
 40
1.5
100
AcDbArc
 50
2.862404
 51
89.99999700000001
  0
ARC
  5
1AB40
330
1A942
100
AcDbEntity
  8
1
  6
Continuous
100
AcDbCircle
 10
267.503974
 20
135.0
 30
0.0
 40
3.1
100
AcDbArc
 50
89.99999700000001
 51
322.2002759999999
  0
ARC
  5
1AB41
330
1A942
100
AcDbEntity
  8
1
  6
Continuous
100
AcDbCircle
 10
373.0036149999999
 20
132.091263
 30
0.0
 40
100.0
100
AcDbArc
 50
179.8454129999998
 51
185.6772669999998
  0
ARC
  5
1AB42
330
1A942
100
AcDbEntity
  8
1
  6
Continuous
100
AcDbCircle
 10
259.503974
 20
135.3083499999998
 30
0.0
 40
4.0
100
AcDbArc
 50
292.0149009999999
 51
0.000009
  0
LINE
  5
1AB43
330
1A942
100
AcDbEntity
  8
1
  6
Continuous
100
AcDbLine
 10
273.503974
 20
122.0999909999999
 30
0.0
 11
276.0992339999999
 21
108.7485279999999
 31
0.0
  0
LINE
  5
1AB44
330
1A942
100
AcDbEntity
  8
1
  6
Continuous
100
AcDbLine
 10
261.7420569999998
 20
122.5993649999999
 30
0.0
 11
260.519004
 21
103.9582819999999
 31
0.0
  0
LINE
  5
1AB45
330
1A942
100
AcDbEntity
  8
1
  6
Continuous
100
AcDbLine
 10
263.5840819999998
 20
114.01651
 30
0.0
 11
262.9138399999998
 21
103.801155
 31
0.0
  0
LINE
  5
1AB46
330
1A942
100
AcDbEntity
  8
1
  6
Continuous
100
AcDbLine
 10
276.132026
 20
112.795273
 30
0.0
 11
277.100562
 21
108.5044099999999
 31
0.0
  0
LINE
  5
1AB47
330
1A942
100
AcDbEntity
  8
1
  6
Continuous
100
AcDbLine
 10
272.970084
 20
122.6072689999998
 30
0.0
 11
273.6176209999998
 21
107.2474439999999
 31
0.0
  0
LINE
  5
1AB48
330
1A942
100
AcDbEntity
  8
1
  6
Continuous
100
AcDbLine
 10
264.4821539999999
 20
113.9575879999999
 30
0.0
 11
263.811927
 21
103.742233
 31
0.0
  0
LINE
  5
1AB49
330
1A942
100
AcDbEntity
  8
1
  6
Continuous
100
AcDbLine
 10
273.21781
 20
116.731133
 30
0.0
 11
273.21781
 21
107.247437
 31
0.0
  0
LINE
  5
1AB4A
330
1A942
100
AcDbEntity
  8
1
  6
Continuous
100
AcDbLine
 10
263.3386299999999
 20
122.4946139999999
 30
0.0
 11
262.1155769999999
 21
103.853531
 31
0.0
  0
ARC
  5
1AB4B
330
1A942
100
AcDbEntity
  8
1
  6
Continuous
100
AcDbCircle
 10
272.2550569999999
 20
109.2115249999999
 30
0.0
 40
5.279590999999999
100
AcDbArc
 50
315.2125459999999
 51
42.74934299999999
  0
ARC
  5
1AB4C
330
1A942
100
AcDbEntity
  8
1
  6
Continuous
100
AcDbCircle
 10
267.503974
 20
103.4999999999999
 30
0.0
 40
7.0
100
AcDbArc
 50
176.2461649999999
 51
336.511818
  0
ARC
  5
1AB4D
330
1A942
100
AcDbEntity
  8
1
  6
Continuous
100
AcDbCircle
 10
267.503974
 20
103.4999999999999
 30
0.0
 40
3.7
100
AcDbArc
 50
176.2461649999999
 51
336.511818
  0
ARC
  5
1AB4E
330
1A942
100
AcDbEntity
  8
1
  6
Continuous
100
AcDbCircle
 10
267.503974
 20
103.4999999999999
 30
0.0
 40
4.599999999999997
100
AcDbArc
 50
176.2461649999999
 51
336.511818
  0
ARC
  5
1AB4F
330
1A942
100
AcDbEntity
  8
1
  6
Continuous
100
AcDbCircle
 10
267.503974
 20
103.4999999999999
 30
0.0
 40
5.4
100
AcDbArc
 50
176.2461649999999
 51
336.511818
  0
LINE
  5
1AB50
330
1A942
100
AcDbEntity
  8
1
  6
Continuous
100
AcDbLine
 10
277.0422429999999
 20
107.8856659999999
 30
0.0
 11
273.923972
 21
100.7100749999999
 31
0.0
  0
LINE
  5
1AB51
330
1A942
100
AcDbEntity
  8
1
  6
Continuous
100
AcDbLine
 10
272.5524509999999
 20
103.575653
 30
0.0
 11
271.722846
 21
101.666618
 31
0.0
  0
LINE
  5
1AB52
330
1A942
100
AcDbEntity
  8
1
  6
Continuous
100
AcDbLine
 10
273.21781
 20
107.2276379999999
 30
0.0
 11
273.5157229999999
 21
107.2276379999999
 31
0.0
  0
LINE
  5
1AB53
330
1A942
100
AcDbEntity
  8
1
  6
Continuous
100
AcDbLine
 10
275.308417
 20
107.5760959999998
 30
0.0
 11
273.5157229999999
 21
107.227631
 31
0.0
  0
LINE
  5
1AB54
330
1A942
100
AcDbEntity
  8
1
  6
Continuous
100
AcDbLine
 10
271.727011
 20
103.934364
 30
0.0
 11
270.897406
 21
102.02533
 31
0.0
  0
LINE
  5
1AB55
330
1A942
100
AcDbEntity
  8
1
  6
Continuous
100
AcDbLine
 10
275.1497709999998
 20
107.5452649999999
 30
0.0
 11
272.4565489999998
 21
101.347778
 31
0.0
  0
ARC
  5
1AB56
330
1A942
100
AcDbEntity
  8
1
  6
Continuous
100
AcDbCircle
 10
275.395575
 20
102.340118
 30
0.0
 40
4.0
100
AcDbArc
 50
101.611456
 51
156.511821
  0
ARC
  5
1AB57
330
1A942
100
AcDbEntity
  8
1
  6
Continuous
100
AcDbCircle
 10
275.395575
 20
102.340118
 30
0.0
 40
3.1
100
AcDbArc
 50
114.408375
 51
156.511821
  0
ARC
  5
1AB58
330
1A942
100
AcDbEntity
  8
1
  6
Continuous
100
AcDbCircle
 10
276.125113
 20
108.284225
 30
0.0
 40
1.0
100
AcDbArc
 50
336.5118080000001
 51
12.719802
  0
ARC
  5
1AB59
330
1A942
100
AcDbEntity
  8
1
  6
Continuous
100
AcDbCircle
 10
275.117621
 20
108.5577239999998
 30
0.0
 40
1.0
100
AcDbArc
 50
280.999992
 51
11.00000099999999
  0
LINE
  5
1AB5A
330
1A942
100
AcDbEntity
  8
1
  6
Continuous
100
AcDbLine
 10
265.4874179999998
 20
122.3904879999999
 30
0.0
 11
266.61106
 21
128.763046
 31
0.0
  0
LINE
  5
1AB5B
330
1A942
100
AcDbEntity
  8
1
  6
Continuous
100
AcDbLine
 10
264.584693
 20
130.316681
 30
0.0
 11
269.5656649999999
 21
129.880905
 31
0.0
  0
ARC
  5
1AB5C
330
1A942
100
AcDbEntity
  8
1
  6
Continuous
100
AcDbCircle
 10
265.9947119999998
 20
122.388153
 30
0.0
 40
0.5
100
AcDbArc
 50
170.0
 51
350.000021
  0
LINE
  5
1AB5D
330
1A942
100
AcDbEntity
  8
1
  6
Continuous
100
AcDbLine
 10
275.338996
 20
129.8995059999998
 30
0.0
 11
275.6678529999999
 21
123.3226469999999
 31
0.0
  0
LINE
  5
1AB5E
330
1A942
100
AcDbEntity
  8
1
  6
Continuous
100
AcDbLine
 10
272.5252449999999
 20
131.674911
 30
0.0
 11
272.9242009999999
 21
123.695679
 31
0.0
  0
LINE
  5
1AB5F
330
1A942
100
AcDbEntity
  8
1
  6
Continuous
100
AcDbLine
 10
273.7752899999999
 20
120.8610689999999
 30
0.0
 11
275.5513829999998
 21
122.976135
 31
0.0
  0
LINE
  5
1AB60
330
1A942
100
AcDbEntity
  8
1
  6
Continuous
100
AcDbLine
 10
271.9244749999999
 20
131.674911
 30
0.0
 11
272.3084319999999
 21
123.995834
 31
0.0
  0
LINE
  5
1AB61
330
1A942
100
AcDbEntity
  8
1
  6
Continuous
100
AcDbLine
 10
270.67916
 20
123.040497
 30
0.0
 11
271.787909
 21
129.3285679999998
 31
0.0
  0
LINE
  5
1AB62
330
1A942
100
AcDbEntity
  8
1
  6
Continuous
100
AcDbLine
 10
269.694342
 20
123.214142
 30
0.0
 11
270.803107
 21
129.5022129999999
 31
0.0
  0
LINE
  5
1AB63
330
1A942
100
AcDbEntity
  8
1
  6
Continuous
100
AcDbLine
 10
266.4871129999998
 20
122.301331
 30
0.0
 11
267.5958769999999
 21
128.589401
 31
0.0
  0
LINE
  5
1AB64
330
1A942
100
AcDbEntity
  8
1
  6
Continuous
100
AcDbLine
 10
267.5834259999999
 20
122.760086
 30
0.0
 11
268.707083
 21
129.132629
 31
0.0
  0
LINE
  5
1AB65
330
1A942
100
AcDbEntity
  8
1
  6
Continuous
100
AcDbLine
 10
268.5831359999999
 20
122.670914
 30
0.0
 11
269.691886
 21
128.9589689999999
 31
0.0
  0
LINE
  5
1AB66
330
1A942
100
AcDbEntity
  8
1
  6
Continuous
100
AcDbLine
 10
267.5966559999998
 20
128.758484
 30
0.0
 11
268.104407
 21
125.71463
 31
0.0
  0
LINE
  5
1AB67
330
1A942
100
AcDbEntity
  8
1
  6
Continuous
100
AcDbLine
 10
269.1858279999999
 20
126.088898
 30
0.0
 11
269.6935639999999
 21
123.045059
 31
0.0
  0
LINE
  5
1AB68
330
1A942
100
AcDbEntity
  8
1
  6
Continuous
100
AcDbLine
 10
269.692679
 20
129.1280669999999
 30
0.0
 11
270.2004149999999
 21
126.0842129999999
 31
0.0
  0
LINE
  5
1AB69
330
1A942
100
AcDbEntity
  8
1
  6
Continuous
100
AcDbLine
 10
271.281852
 20
126.458481
 30
0.0
 11
271.7895879999999
 21
123.4146269999999
 31
0.0
  0
LINE
  5
1AB6A
330
1A942
100
AcDbEntity
  8
1
  6
Continuous
100
AcDbLine
 10
271.802817
 20
129.41304
 30
0.0
 11
272.1380679999999
 21
127.403229
 31
0.0
  0
LINE
  5
1AB6B
330
1A942
100
AcDbEntity
  8
1
  6
Continuous
100
AcDbLine
 10
267.089804
 20
125.7193299999999
 30
0.0
 11
267.5975559999999
 21
122.675461
 31
0.0
  0
LINE
  5
1AB6C
330
1A942
100
AcDbEntity
  8
1
  6
Continuous
100
AcDbLine
 10
269.744681
 20
131.9270629999998
 30
0.0
 11
269.5656649999999
 21
129.880905
 31
0.0
  0
ARC
  5
1AB6D
330
1A942
100
AcDbEntity
  8
1
  6
Continuous
100
AcDbCircle
 10
273.003974
 20
122.0999909999999
 30
0.0
 40
0.5
100
AcDbArc
 50
359.999995
 51
92.86240699999996
  0
ARC
  5
1AB6E
330
1A942
100
AcDbEntity
  8
1
  6
Continuous
100
AcDbCircle
 10
272.5075439999999
 20
122.014587
 30
0.0
 40
1.0
100
AcDbArc
 50
4.134348999999999
 51
36.416883
  0
ARC
  5
1AB6F
330
1A942
100
AcDbEntity
  8
1
  6
Continuous
100
AcDbCircle
 10
274.9216979999999
 20
123.7955469999999
 30
0.0
 40
2.0
100
AcDbArc
 50
182.8624189999999
 51
216.416885
  0
ARC
  5
1AB70
330
1A942
100
AcDbEntity
  8
1
  6
Continuous
100
AcDbCircle
 10
275.6064059999999
 20
112.192162
 30
0.0
 40
0.8
100
AcDbArc
 50
48.927782
 51
113.510881
  0
ARC
  5
1AB71
330
1A942
100
AcDbEntity
  8
1
  6
Continuous
100
AcDbCircle
 10
274.305945
 20
124.0957179999999
 30
0.0
 40
2.0
100
AcDbArc
 50
182.8624049999998
 51
228.4323279999999
  0
ARC
  5
1AB72
330
1A942
100
AcDbEntity
  8
1
  6
Continuous
100
AcDbCircle
 10
271.2955079999999
 20
129.4153899999998
 30
0.0
 40
0.5
100
AcDbArc
 50
359.999995
 51
170.000014
  0
ARC
  5
1AB73
330
1A942
100
AcDbEntity
  8
1
  6
Continuous
100
AcDbCircle
 10
270.1867589999998
 20
123.127319
 30
0.0
 40
0.5
100
AcDbArc
 50
170.0
 51
350.000021
  0
ARC
  5
1AB74
330
1A942
100
AcDbEntity
  8
1
  6
Continuous
100
AcDbCircle
 10
269.1994849999999
 20
129.045792
 30
0.0
 40
0.5
100
AcDbArc
 50
359.999995
 51
170.0
  0
ARC
  5
1AB75
330
1A942
100
AcDbEntity
  8
1
  6
Continuous
100
AcDbCircle
 10
268.090735
 20
122.7577359999999
 30
0.0
 40
0.5
100
AcDbArc
 50
170.0
 51
349.999993
  0
ARC
  5
1AB76
330
1A942
100
AcDbEntity
  8
1
  6
Continuous
100
AcDbCircle
 10
267.1034609999999
 20
128.676208
 30
0.0
 40
0.5
100
AcDbArc
 50
359.999995
 51
170.000014
  0
ARC
  5
1AB77
330
1A942
100
AcDbEntity
  8
1
  6
Continuous
100
AcDbCircle
 10
272.282782
 20
123.496902
 30
0.0
 40
0.5
100
AcDbArc
 50
189.470355
 51
305.9147009999999
  0
ARC
  5
1AB78
330
1A942
100
AcDbEntity
  8
1
  6
Continuous
100
AcDbCircle
 10
274.839621
 20
129.8745419999999
 30
0.0
 40
0.5
100
AcDbArc
 50
2.862404
 51
45.74602
  0
ARC
  5
1AB79
330
1A942
100
AcDbEntity
  8
1
  6
Continuous
100
AcDbCircle
 10
275.168479
 20
123.2976679999999
 30
0.0
 40
0.5
100
AcDbArc
 50
319.978788
 51
2.862404
  0
LINE
  5
1AB7A
330
1A942
100
AcDbEntity
  8
1
  6
Continuous
100
AcDbLine
 10
264.7024749999999
 20
131.662811
 30
0.0
 11
264.584693
 21
130.316681
 31
0.0
  0
LINE
  5
1AB7B
330
1A942
100
AcDbEntity
  8
1
  6
Continuous
100
AcDbLine
 10
261.4969699999999
 20
118.8638379999999
 30
0.0
 11
258.060691
 21
121.6356349999999
 31
0.0
  0
LINE
  5
1AB7C
330
1A942
100
AcDbEntity
  8
1
  6
Continuous
100
AcDbLine
 10
257.3175879999999
 20
123.262131
 30
0.0
 11
257.492087
 21
128.259079
 31
0.0
  0
LINE
  5
1AB7D
330
1A942
100
AcDbEntity
  8
1
  6
Continuous
100
AcDbLine
 10
263.3913939999998
 20
122.0209199999999
 30
0.0
 11
264.515036
 21
128.393448
 31
0.0
  0
LINE
  5
1AB7E
330
1A942
100
AcDbEntity
  8
1
  6
Continuous
100
AcDbLine
 10
263.3386299999999
 20
122.4946139999999
 30
0.0
 11
263.50289
 21
130.671051
 31
0.0
  0
LINE
  5
1AB7F
330
1A942
100
AcDbEntity
  8
1
  6
Continuous
100
AcDbLine
 10
261.7420569999998
 20
122.59938
 30
0.0
 11
262.027564
 21
130.7752379999998
 31
0.0
  0
LINE
  5
1AB80
330
1A942
100
AcDbEntity
  8
1
  6
Continuous
100
AcDbLine
 10
260.584311
 20
119.5999909999999
 30
0.0
 11
261.0033629999999
 21
131.600006
 31
0.0
  0
LINE
  5
1AB81
330
1A942
100
AcDbEntity
  8
1
  6
Continuous
100
AcDbLine
 10
261.003379
 20
131.5999909999999
 30
0.0
 11
258.382041
 21
129.8537599999999
 31
0.0
  0
LINE
  5
1AB82
330
1A942
100
AcDbEntity
  8
1
  6
Continuous
100
AcDbLine
 10
263.417456
 20
126.419281
 30
0.0
 11
264.173926
 21
126.458923
 31
0.0
  0
LINE
  5
1AB83
330
1A942
100
AcDbEntity
  8
1
  6
Continuous
100
AcDbLine
 10
263.3570619999999
 20
123.4120029999999
 30
0.0
 11
263.639289
 21
123.4267879999999
 31
0.0
  0
LINE
  5
1AB84
330
1A942
100
AcDbEntity
  8
1
  6
Continuous
100
AcDbLine
 10
264.391089
 20
121.931732
 30
0.0
 11
265.514746
 21
128.3042909999998
 31
0.0
  0
LINE
  5
1AB85
330
1A942
100
AcDbEntity
  8
1
  6
Continuous
100
AcDbLine
 10
265.500632
 20
128.388901
 30
0.0
 11
266.0083839999999
 21
125.3450469999998
 31
0.0
  0
LINE
  5
1AB86
330
1A942
100
AcDbEntity
  8
1
  6
Continuous
100
AcDbLine
 10
264.993781
 20
125.3497309999999
 30
0.0
 11
265.5015319999999
 21
122.305878
 31
0.0
  0
LINE
  5
1AB87
330
1A942
100
AcDbEntity
  8
1
  6
Continuous
100
AcDbLine
 10
263.6693029999999
 20
126.432495
 30
0.0
 11
263.4447699999999
 21
127.778549
 31
0.0
  0
LINE
  5
1AB88
330
1A942
100
AcDbEntity
  8
1
  6
Continuous
100
AcDbLine
 10
263.3357909999999
 20
122.354187
 30
0.0
 11
263.4055089999999
 21
121.936295
 31
0.0
  0
ARC
  5
1AB89
330
1A942
100
AcDbEntity
  8
1
  6
Continuous
100
AcDbCircle
 10
260.4907289999998
 20
114.219467
 30
0.0
 40
3.1
100
AcDbArc
 50
356.246164
 51
38.34960800000001
  0
ARC
  5
1AB8A
330
1A942
100
AcDbEntity
  8
1
  6
Continuous
100
AcDbCircle
 10
260.4907289999998
 20
114.219467
 30
0.0
 40
4.0
100
AcDbArc
 50
356.246164
 51
51.14652800000001
  0
ARC
  5
1AB8B
330
1A942
100
AcDbEntity
  8
1
  6
Continuous
100
AcDbCircle
 10
264.1229619999999
 20
128.6283259999999
 30
0.0
 40
3.0
100
AcDbArc
 50
92.99999400000002
 51
134.303989
  0
ARC
  5
1AB8C
330
1A942
100
AcDbEntity
  8
1
  6
Continuous
100
AcDbCircle
 10
264.502677
 20
130.65097
 30
0.0
 40
1.0
100
AcDbArc
 50
93.000001
 51
182.921478
  0
ARC
  5
1AB8D
330
1A942
100
AcDbEntity
  8
1
  6
Continuous
100
AcDbCircle
 10
259.4908509999999
 20
128.189285
 30
0.0
 40
2.0
100
AcDbArc
 50
123.669978
 51
178.0
  0
ARC
  5
1AB8E
330
1A942
100
AcDbEntity
  8
1
  6
Continuous
100
AcDbCircle
 10
259.316367
 20
123.1923219999998
 30
0.0
 40
2.0
100
AcDbArc
 50
178.0
 51
231.109315
  0
ARC
  5
1AB8F
330
1A942
100
AcDbEntity
  8
1
  6
Continuous
100
AcDbCircle
 10
265.0074529999999
 20
128.306625
 30
0.0
 40
0.5
100
AcDbArc
 50
349.99997
 51
170.000014
  0
ARC
  5
1AB90
330
1A942
100
AcDbEntity
  8
1
  6
Continuous
100
AcDbCircle
 10
263.898688
 20
122.01857
 30
0.0
 40
0.5
100
AcDbArc
 50
169.999987
 51
349.999993
  0
ARC
  5
1AB91
330
1A942
100
AcDbEntity
  8
1
  6
Continuous
100
AcDbCircle
 10
260.064215
 20
124.539124
 30
0.0
 40
3.200396
100
AcDbArc
 50
145.540319
 51
211.856153
  0
LINE
  5
1AB92
330
1A942
100
AcDbEntity
  8
1
  6
Continuous
100
AcDbLine
 10
262.503974
 20
154.4999999999998
 30
0.0
 11
262.503974
 21
153.4053099999999
 31
0.0
  0
LINE
  5
1AB93
330
1A942
100
AcDbEntity
  8
1
  6
Continuous
100
AcDbLine
 10
272.503974
 20
154.4999999999998
 30
0.0
 11
272.503974
 21
153.4053099999999
 31
0.0
  0
LINE
  5
1AB94
330
1A942
100
AcDbEntity
  8
1
  6
Continuous
100
AcDbLine
 10
273.703974
 20
154.4999999999998
 30
0.0
 11
273.703974
 21
145.3976649999999
 31
0.0
  0
LINE
  5
1AB95
330
1A942
100
AcDbEntity
  8
1
  6
Continuous
100
AcDbLine
 10
275.503974
 20
154.4999999999998
 30
0.0
 11
275.503974
 21
145.393828
 31
0.0
  0
LINE
  5
1AB96
330
1A942
100
AcDbEntity
  8
1
  6
Continuous
100
AcDbLine
 10
259.503974
 20
154.4999999999998
 30
0.0
 11
259.503974
 21
143.5999909999999
 31
0.0
  0
LINE
  5
1AB97
330
1A942
100
AcDbEntity
  8
1
  6
Continuous
100
AcDbLine
 10
261.303974
 20
154.4999999999998
 30
0.0
 11
261.303974
 21
143.5999909999999
 31
0.0
  0
ARC
  5
1AB98
330
1A942
100
AcDbEntity
  8
1
  6
Continuous
100
AcDbCircle
 10
268.2920879999999
 20
144.0842949999999
 30
0.0
 40
4.415704999999999
100
AcDbArc
 50
20.06103799999999
 51
149.939118
  0
LINE
  5
1AB99
330
1A942
100
AcDbEntity
  8
1
  6
Continuous
100
AcDbLine
 10
264.426745
 20
145.7981169999999
 30
0.0
 11
272.4062219999999
 21
145.0999969999998
 31
0.0
  0
LINE
  5
1AB9A
330
1A942
100
AcDbEntity
  8
1
  6
Continuous
100
AcDbLine
 10
261.6039799999999
 20
141.5
 30
0.0
 11
272.6039799999999
 21
141.5
 31
0.0
  0
LINE
  5
1AB9B
330
1A942
100
AcDbEntity
  8
1
  6
Continuous
100
AcDbLine
 10
261.6039799999999
 20
143.299991
 30
0.0
 11
273.4039829999999
 21
143.299991
 31
0.0
  0
LINE
  5
1AB9C
330
1A942
100
AcDbEntity
  8
1
  6
Continuous
100
AcDbLine
 10
262.403983
 20
145.0999969999998
 30
0.0
 11
273.4039829999999
 21
145.0999969999998
 31
0.0
  0
LINE
  5
1AB9D
330
1A942
100
AcDbEntity
  8
1
  6
Continuous
100
AcDbLine
 10
263.503974
 20
139.0999909999998
 30
0.0
 11
271.503974
 21
139.0999909999998
 31
0.0
  0
LINE
  5
1AB9E
330
1A942
100
AcDbEntity
  8
4
  6
CENTER
100
AcDbLine
 10
264.003974
 20
135.0
 30
0.0
 11
271.003974
 21
135.0
 31
0.0
  0
LINE
  5
1AB9F
330
1A942
100
AcDbEntity
  8
1
  6
Continuous
100
AcDbLine
 10
270.582171
 20
141.5
 30
0.0
 11
270.372245
 21
139.0999909999998
 31
0.0
  0
LINE
  5
1ABA0
330
1A942
100
AcDbEntity
  8
1
  6
Continuous
100
AcDbLine
 10
270.9069769999999
 20
145.213378
 30
0.0
 11
270.897059
 21
145.0999969999998
 31
0.0
  0
LINE
  5
1ABA1
330
1A942
100
AcDbEntity
  8
1
  6
Continuous
100
AcDbLine
 10
272.439883
 20
145.598975
 30
0.0
 11
272.396304
 21
145.100867
 31
0.0
  0
ARC
  5
1ABA2
330
1A942
100
AcDbEntity
  8
1
  6
Continuous
100
AcDbCircle
 10
274.003974
 20
153.4053099999999
 30
0.0
 40
1.5
100
AcDbArc
 50
180.0
 51
258.4630409999999
  0
LINE
  5
1ABA3
330
1A942
100
AcDbEntity
  8
1
  6
Continuous
100
AcDbLine
 10
272.6039799999999
 20
143.299991
 30
0.0
 11
272.6039799999999
 21
141.5
 31
0.0
  0
ARC
  5
1ABA4
330
1A942
100
AcDbEntity
  8
1
  6
Continuous
100
AcDbCircle
 10
273.4039829999999
 20
145.3999969999999
 30
0.0
 40
2.1
100
AcDbArc
 50
269.999999
 51
0.000009
  0
ARC
  5
1ABA5
330
1A942
100
AcDbEntity
  8
1
  6
Continuous
100
AcDbCircle
 10
273.4039829999999
 20
145.3999969999999
 30
0.0
 40
0.3
100
AcDbArc
 50
269.999999
 51
0.000009
  0
LINE
  5
1ABA6
330
1A942
100
AcDbEntity
  8
1
  6
Continuous
100
AcDbLine
 10
269.9534669999998
 20
133.0999909999998
 30
0.0
 11
271.003974
 21
133.0999909999998
 31
0.0
  0
LINE
  5
1ABA7
330
1A942
100
AcDbEntity
  8
1
  6
Continuous
100
AcDbLine
 10
271.503974
 20
139.0999909999998
 30
0.0
 11
271.503974
 21
138.0999909999998
 31
0.0
  0
LINE
  5
1ABA8
330
1A942
100
AcDbEntity
  8
1
  6
Continuous
100
AcDbLine
 10
273.003974
 20
138.0999909999998
 30
0.0
 11
273.003974
 21
132.3610689999999
 31
0.0
  0
LINE
  5
1ABA9
330
1A942
100
AcDbEntity
  8
1
  6
Continuous
100
AcDbLine
 10
267.503974
 20
138.0999909999998
 30
0.0
 11
273.003974
 21
138.0999909999998
 31
0.0
  0
LINE
  5
1ABAA
330
1A942
100
AcDbEntity
  8
1
  6
Continuous
100
AcDbLine
 10
271.503974
 20
132.6434169999999
 30
0.0
 11
271.503974
 21
132.019257
 31
0.0
  0
LINE
  5
1ABAB
330
1A942
100
AcDbEntity
  8
1
  6
Continuous
100
AcDbLine
 10
265.5630669999998
 20
141.5
 30
0.0
 11
265.3531409999998
 21
139.0999909999998
 31
0.0
  0
LINE
  5
1ABAC
330
1A942
100
AcDbEntity
  8
1
  6
Continuous
100
AcDbLine
 10
265.92599
 20
145.6491619999999
 30
0.0
 11
265.8779549999998
 21
145.0999969999998
 31
0.0
  0
LINE
  5
1ABAD
330
1A942
100
AcDbEntity
  8
1
  6
Continuous
100
AcDbLine
 10
264.470324
 20
146.29621
 30
0.0
 11
264.426745
 21
145.7981169999999
 31
0.0
  0
ARC
  5
1ABAE
330
1A942
100
AcDbEntity
  8
1
  6
Continuous
100
AcDbCircle
 10
261.003974
 20
153.4053099999999
 30
0.0
 40
1.5
100
AcDbArc
 50
281.5369589999999
 51
0.0
  0
ARC
  5
1ABAF
330
1A942
100
AcDbEntity
  8
1
  6
Continuous
100
AcDbCircle
 10
261.6039799999999
 20
143.5999909999999
 30
0.0
 40
2.1
100
AcDbArc
 50
180.0
 51
270.0000029999998
  0
ARC
  5
1ABB0
330
1A942
100
AcDbEntity
  8
1
  6
Continuous
100
AcDbCircle
 10
261.6039799999999
 20
143.5999909999999
 30
0.0
 40
0.3
100
AcDbArc
 50
180.0
 51
270.0000029999998
  0
LINE
  5
1ABB1
330
1A942
100
AcDbEntity
  8
1
  6
Continuous
100
AcDbLine
 10
262.403983
 20
145.0999969999998
 30
0.0
 11
262.403983
 21
143.299991
 31
0.0
  0
LINE
  5
1ABB2
330
1A942
100
AcDbEntity
  8
1
  6
Continuous
100
AcDbLine
 10
263.503974
 20
139.0999909999998
 30
0.0
 11
263.503974
 21
135.3083499999998
 31
0.0
  0
ARC
  5
1ABB3
330
1A942
100
AcDbEntity
  8
1
  6
Continuous
100
AcDbCircle
 10
267.503974
 20
157.5
 30
0.0
 40
4.0
100
AcDbArc
 50
53.130097
 51
126.869898
  0
ARC
  5
1ABB4
330
1A942
100
AcDbEntity
  8
1
  6
Continuous
100
AcDbCircle
 10
267.503974
 20
157.5
 30
0.0
 40
2.2
100
AcDbArc
 50
53.130097
 51
126.869898
  0
LINE
  5
1ABB5
330
1A942
100
AcDbEntity
  8
1
  6
Continuous
100
AcDbLine
 10
266.9039799999998
 20
158.2999969999999
 30
0.0
 11
262.90398
 21
155.2999969999999
 31
0.0
  0
ARC
  5
1ABB6
330
1A942
100
AcDbEntity
  8
1
  6
Continuous
100
AcDbCircle
 10
267.503974
 20
157.5
 30
0.0
 40
1.0
100
AcDbArc
 50
53.130097
 51
126.869898
  0
LINE
  5
1ABB7
330
1A942
100
AcDbEntity
  8
1
  6
Continuous
100
AcDbLine
 10
269.9039829999999
 20
160.6999969999999
 30
0.0
 11
273.9039829999999
 21
157.6999969999999
 31
0.0
  0
LINE
  5
1ABB8
330
1A942
100
AcDbEntity
  8
1
  6
Continuous
100
AcDbLine
 10
268.823983
 20
159.259997
 30
0.0
 11
272.823983
 21
156.2599969999999
 31
0.0
  0
ARC
  5
1ABB9
330
1A942
100
AcDbEntity
  8
1
  6
Continuous
100
AcDbCircle
 10
271.503974
 20
154.4999999999998
 30
0.0
 40
1.0
100
AcDbArc
 50
359.999995
 51
53.13010999999998
  0
ARC
  5
1ABBA
330
1A942
100
AcDbEntity
  8
1
  6
Continuous
100
AcDbCircle
 10
271.503974
 20
154.4999999999998
 30
0.0
 40
4.0
100
AcDbArc
 50
359.999995
 51
53.13010999999998
  0
ARC
  5
1ABBB
330
1A942
100
AcDbEntity
  8
1
  6
Continuous
100
AcDbCircle
 10
271.503974
 20
154.4999999999998
 30
0.0
 40
2.2
100
AcDbArc
 50
359.999995
 51
53.13010999999998
  0
LINE
  5
1ABBC
330
1A942
100
AcDbEntity
  8
1
  6
Continuous
100
AcDbLine
 10
268.103983
 20
158.2999969999999
 30
0.0
 11
272.103983
 21
155.2999969999999
 31
0.0
  0
LINE
  5
1ABBD
330
1A942
100
AcDbEntity
  8
1
  6
Continuous
100
AcDbLine
 10
265.1039799999999
 20
160.6999969999999
 30
0.0
 11
261.1039799999999
 21
157.6999969999999
 31
0.0
  0
LINE
  5
1ABBE
330
1A942
100
AcDbEntity
  8
1
  6
Continuous
100
AcDbLine
 10
266.1839799999999
 20
159.259997
 30
0.0
 11
262.1839799999999
 21
156.2599969999999
 31
0.0
  0
ARC
  5
1ABBF
330
1A942
100
AcDbEntity
  8
1
  6
Continuous
100
AcDbCircle
 10
263.503974
 20
154.4999999999998
 30
0.0
 40
1.0
100
AcDbArc
 50
126.869898
 51
180.0
  0
ARC
  5
1ABC0
330
1A942
100
AcDbEntity
  8
1
  6
Continuous
100
AcDbCircle
 10
263.503974
 20
154.4999999999998
 30
0.0
 40
4.0
100
AcDbArc
 50
126.869898
 51
180.0
  0
ARC
  5
1ABC1
330
1A942
100
AcDbEntity
  8
1
  6
Continuous
100
AcDbCircle
 10
263.503974
 20
154.4999999999998
 30
0.0
 40
2.2
100
AcDbArc
 50
126.869898
 51
180.0
  0
ENDSEC
  0
SECTION
  2
OBJECTS
  0
DICTIONARY
  5
1A930
330
0
100
AcDbDictionary
281
     1
  3
ACAD_CIP_PREVIOUS_PRODUCT_INFO
350
1AC21
  3
ACAD_COLOR
350
1AC03
  3
ACAD_DETAILVIEWSTYLE
350
1AC1C
  3
ACAD_GROUP
350
1A931
  3
ACAD_LAYOUT
350
1A93D
  3
ACAD_MATERIAL
350
1ABD1
  3
ACAD_MLEADERSTYLE
350
1AC18
  3
ACAD_MLINESTYLE
350
1A93A
  3
ACAD_PLOTSETTINGS
350
1A93C
  3
ACAD_PLOTSTYLENAME
350
1ABCF
  3
ACAD_SCALELIST
350
1AC06
  3
ACAD_SECTIONVIEWSTYLE
350
1AC1A
  3
ACAD_TABLESTYLE
350
1AC04
  3
ACAD_VISUALSTYLE
350
1ABEA
  3
ACDB_RECOMPOSE_DATA
350
1AC3F
  3
AcDbVariableDictionary
350
1AC32
  3
DWGPROPS
350
1AC40
  0
DICTIONARY
  5
1AC22
330
1A934
100
AcDbDictionary
280
     1
281
     1
  3
ADSK_XREC_LAYER_RECONCILED
360
1AC23
  0
DICTIONARY
  5
1AC24
330
1A94A
100
AcDbDictionary
280
     1
281
     1
  3
ADSK_XREC_LAYER_RECONCILED
360
1AC25
  0
DICTIONARY
  5
1AC26
330
1A94B
100
AcDbDictionary
280
     1
281
     1
  3
ADSK_XREC_LAYER_RECONCILED
360
1AC27
  0
DICTIONARY
  5
1AC28
330
1A94C
100
AcDbDictionary
280
     1
281
     1
  3
ADSK_XREC_LAYER_RECONCILED
360
1AC29
  0
DICTIONARY
  5
1AC2A
330
1A94D
100
AcDbDictionary
280
     1
281
     1
  3
ADSK_XREC_LAYER_RECONCILED
360
1AC2B
  0
DICTIONARY
  5
1AC2C
330
1A94E
100
AcDbDictionary
280
     1
281
     1
  3
ADSK_XREC_LAYER_RECONCILED
360
1AC2D
  0
DICTIONARY
  5
1AC2E
330
1A94F
100
AcDbDictionary
280
     1
281
     1
  3
ADSK_XREC_LAYER_RECONCILED
360
1AC2F
  0
DICTIONARY
  5
1AC30
330
1A950
100
AcDbDictionary
280
     1
281
     1
  3
ADSK_XREC_LAYER_RECONCILED
360
1AC31
  0
DICTIONARY
  5
1ABCA
330
1A942
100
AcDbDictionary
281
     1
  3
ACAD_LAYOUTSELFREF
350
1ABCB
  0
DICTIONARY
  5
1ABC8
330
1A93E
100
AcDbDictionary
281
     1
  3
ACAD_LAYOUTSELFREF
350
1ABC9
  0
XRECORD
  5
1AC21
102
{ACAD_REACTORS
330
1A930
102
}
330
1A930
100
AcDbXrecord
280
     1
300
ACDLT
300
2014
300
ACDLT_F_S
  0
DICTIONARY
  5
1AC03
102
{ACAD_REACTORS
330
1A930
102
}
330
1A930
100
AcDbDictionary
281
     1
  0
DICTIONARY
  5
1AC1C
102
{ACAD_REACTORS
330
1A930
102
}
330
1A930
100
AcDbDictionary
281
     1
  3
Imperial24
350
1AC1D
  0
DICTIONARY
  5
1A931
102
{ACAD_REACTORS
330
1A930
102
}
330
1A930
100
AcDbDictionary
281
     1
  0
DICTIONARY
  5
1A93D
102
{ACAD_REACTORS
330
1A930
102
}
330
1A930
100
AcDbDictionary
281
     1
  3
Model
350
1AC1E
  3
レイアウト1
350
1AC1F
  0
DICTIONARY
  5
1ABD1
102
{ACAD_REACTORS
330
1A930
102
}
330
1A930
100
AcDbDictionary
281
     1
  3
ByBlock
350
1ABDA
  3
ByLayer
350
1ABD2
  3
Global
350
1ABE2
  0
DICTIONARY
  5
1AC18
102
{ACAD_REACTORS
330
1A930
102
}
330
1A930
100
AcDbDictionary
281
     1
  3
Standard
350
1AC19
  0
DICTIONARY
  5
1A93A
102
{ACAD_REACTORS
330
1A930
102
}
330
1A930
100
AcDbDictionary
281
     1
  3
STANDARD
350
1A93B
  0
DICTIONARY
  5
1A93C
102
{ACAD_REACTORS
330
1A930
102
}
330
1A930
100
AcDbDictionary
281
     1
  0
ACDBDICTIONARYWDFLT
  5
1ABCF
102
{ACAD_REACTORS
330
1A930
102
}
330
1A930
100
AcDbDictionary
281
     1
  3
Normal
350
1ABD0
100
AcDbDictionaryWithDefault
340
1ABD0
  0
DICTIONARY
  5
1AC06
102
{ACAD_REACTORS
330
1A930
102
}
330
1A930
100
AcDbDictionary
281
     1
  3
A0
350
1AC07
  3
A1
350
1AC08
  3
A2
350
1AC09
  3
A3
350
1AC0A
  3
A4
350
1AC0B
  3
A5
350
1AC0C
  3
A6
350
1AC0D
  3
A7
350
1AC0E
  3
A8
350
1AC0F
  3
A9
350
1AC10
  3
B0
350
1AC11
  3
B1
350
1AC12
  3
B2
350
1AC13
  3
B3
350
1AC14
  3
B4
350
1AC15
  3
B5
350
1AC16
  3
B6
350
1AC17
  0
DICTIONARY
  5
1AC1A
102
{ACAD_REACTORS
330
1A930
102
}
330
1A930
100
AcDbDictionary
281
     1
  3
Imperial24
350
1AC1B
  0
DICTIONARY
  5
1AC04
102
{ACAD_REACTORS
330
1A930
102
}
330
1A930
100
AcDbDictionary
281
     1
  3
Standard
350
1AC05
  0
DICTIONARY
  5
1ABEA
102
{ACAD_REACTORS
330
1A930
102
}
330
1A930
100
AcDbDictionary
281
     1
  3
2dWireframe
350
1ABF0
  3
Basic
350
1ABEF
  3
Brighten
350
1ABF6
  3
ColorChange
350
1ABFA
  3
Conceptual
350
1ABF3
  3
Dim
350
1ABF5
  3
EdgeColorOff
350
1AC02
  3
Facepattern
350
1ABF9
  3
Flat
350
1ABEB
  3
FlatWithEdges
350
1ABEC
  3
Gouraud
350
1ABED
  3
GouraudWithEdges
350
1ABEE
  3
Hidden
350
1ABF2
  3
JitterOff
350
1AC00
  3
Linepattern
350
1ABF8
  3
OverhangOff
350
1AC01
  3
Realistic
350
1ABF4
  3
Shaded
350
1ABFF
  3
Shaded with edges
350
1ABFE
  3
Shades of Gray
350
1ABFB
  3
Sketchy
350
1ABFC
  3
Thicken
350
1ABF7
  3
Wireframe
350
1ABF1
  3
X-Ray
350
1ABFD
  0
XRECORD
  5
1AC3F
102
{ACAD_REACTORS
330
1A930
102
}
330
1A930
100
AcDbXrecord
280
     1
 90
        1
330
1AC05
  0
DICTIONARY
  5
1AC32
102
{ACAD_REACTORS
330
1A930
102
}
330
1A930
100
AcDbDictionary
281
     1
  3
CANNOSCALE
350
1AC37
  3
CMLEADERSTYLE
350
1AC34
  3
CTABLESTYLE
350
1AC33
  3
CVIEWDETAILSTYLE
350
1AC35
  3
CVIEWSECTIONSTYLE
350
1AC36
  3
DIMASSOC
350
1AC3A
  3
INDEXCTL
350
1AC39
  3
SORTENTS
350
1AC38
  3
XCLIPFRAME
350
1AC3B
  0
XRECORD
  5
1AC40
102
{ACAD_REACTORS
330
1A930
102
}
330
1A930
100
AcDbXrecord
280
     1
  1
DWGPROPS COOKIE
  2

  3

  4

  6

  7

  8
Yoshitsune
  9

300
=
301
=
302
=
303
=
304
=
305
=
306
=
307
=
308
=
309
=
 40
0.0000100925925926
 41
2451302.539363889
 42
2457192.656864317
  1

 90
        0
  0
XRECORD
  5
1AC23
102
{ACAD_REACTORS
330
1AC22
102
}
330
1AC22
100
AcDbXrecord
280
     1
290
     1
  0
XRECORD
  5
1AC25
102
{ACAD_REACTORS
330
1AC24
102
}
330
1AC24
100
AcDbXrecord
280
     1
290
     1
  0
XRECORD
  5
1AC27
102
{ACAD_REACTORS
330
1AC26
102
}
330
1AC26
100
AcDbXrecord
280
     1
290
     1
  0
XRECORD
  5
1AC29
102
{ACAD_REACTORS
330
1AC28
102
}
330
1AC28
100
AcDbXrecord
280
     1
290
     1
  0
XRECORD
  5
1AC2B
102
{ACAD_REACTORS
330
1AC2A
102
}
330
1AC2A
100
AcDbXrecord
280
     1
290
     1
  0
XRECORD
  5
1AC2D
102
{ACAD_REACTORS
330
1AC2C
102
}
330
1AC2C
100
AcDbXrecord
280
     1
290
     1
  0
XRECORD
  5
1AC2F
102
{ACAD_REACTORS
330
1AC2E
102
}
330
1AC2E
100
AcDbXrecord
280
     1
290
     1
  0
XRECORD
  5
1AC31
102
{ACAD_REACTORS
330
1AC30
102
}
330
1AC30
100
AcDbXrecord
280
     1
290
     1
  0
XRECORD
  5
1ABCB
102
{ACAD_REACTORS
330
1ABCA
102
}
330
1ABCA
100
AcDbXrecord
280
     1
340
1A942
  0
XRECORD
  5
1ABC9
102
{ACAD_REACTORS
330
1ABC8
102
}
330
1ABC8
100
AcDbXrecord
280
     1
340
1A93E
  0
ACDBDETAILVIEWSTYLE
  5
1AC1D
102
{ACAD_XDICTIONARY
360
1AC78
102
}
102
{ACAD_REACTORS
330
1AC1C
102
}
330
1AC1C
100
AcDbModelDocViewStyle
 70
     0
  3
Imperial24
290
     0
100
AcDbDetailViewStyle
 70
     0
 71
     0
 90
        3
 71
     1
340
1A935
 40
0.24
340
0
 40
0.24
300

 40
0.36
280
     3
 71
     2
340
1A939
 90
       25
 71
     3
340
1A935
 40
0.24
 90
        1
 40
0.75
 90
        1
300
%<\AcVar ViewType \f "%tc1">% %<\AcVar ViewDetailId>%\PSCALE %<\AcVar ViewScale \f "%sn">%
 71
     4
340
1A939
 90
       25
340
1A939
 90
       25
280
     0
  0
LAYOUT
  5
1AC1E
102
{ACAD_XDICTIONARY
360
1AC7A
102
}
102
{ACAD_REACTORS
330
1A93D
102
}
330
1A93D
100
AcDbPlotSettings
  1

  2
Canon LBP9100C
  4

  6

 40
0.0
 41
0.0
 42
0.0
 43
0.0
 44
0.0
 45
0.0
 46
0.0
 47
0.0
 48
0.0
 49
0.0
140
0.0
141
0.0
142
1.0
143
1.0
 70
  1712
 72
     0
 73
     0
 74
     0
  7

 75
     0
147
1.0
148
0.0
149
0.0
100
AcDbLayout
  1
Model
 70
     1
 71
     0
 10
0.0
 20
0.0
 11
12.0
 21
9.0
 12
0.0
 22
0.0
 32
0.0
 14
0.0
 24
0.0
 34
0.0
 15
0.0
 25
0.0
 35
0.0
146
0.0
 13
0.0
 23
0.0
 33
0.0
 16
1.0
 26
0.0
 36
0.0
 17
0.0
 27
1.0
 37
0.0
 76
     0
330
1A942
331
1ABC7
  0
LAYOUT
  5
1AC1F
102
{ACAD_XDICTIONARY
360
1AC7C
102
}
102
{ACAD_REACTORS
330
1A93D
102
}
330
1A93D
100
AcDbPlotSettings
  1

  2
Canon LBP9100C
  4

  6

 40
0.0
 41
0.0
 42
0.0
 43
0.0
 44
0.0
 45
0.0
 46
0.0
 47
0.0
 48
0.0
 49
0.0
140
0.0
141
0.0
142
1.0
143
1.0
 70
   688
 72
     0
 73
     0
 74
     5
  7

 75
    16
147
1.0
148
0.0
149
0.0
100
AcDbLayout
  1
レイアウト1
 70
     0
 71
     1
 10
0.0
 20
0.0
 11
420.0
 21
297.0
 12
0.0
 22
0.0
 32
0.0
 14
1.000000000000000E+20
 24
1.000000000000000E+20
 34
1.000000000000000E+20
 15
-1.000000000000000E+20
 25
-1.000000000000000E+20
 35
-1.000000000000000E+20
146
0.0
 13
0.0
 23
0.0
 33
0.0
 16
1.0
 26
0.0
 36
0.0
 17
0.0
 27
1.0
 37
0.0
 76
     0
330
1A93E
  0
MATERIAL
  5
1ABDA
102
{ACAD_XDICTIONARY
360
1ABDB
102
}
102
{ACAD_REACTORS
330
1ABD1
102
}
330
1ABD1
100
AcDbMaterial
  1
ByBlock
 72
     0
 43
0.0208333333333333
 43
0.0
 43
0.0
 43
0.0
 43
0.0
 43
0.0208333333333333
 43
0.0
 43
0.0
 43
0.0
 43
0.0
 43
1.0
 43
0.0
 43
0.0
 43
0.0
 43
0.0
 43
1.0
 77
     0
 47
0.0208333333333333
 47
0.0
 47
0.0
 47
0.0
 47
0.0
 47
0.0208333333333333
 47
0.0
 47
0.0
 47
0.0
 47
0.0
 47
1.0
 47
0.0
 47
0.0
 47
0.0
 47
0.0
 47
1.0
171
     0
 49
0.0208333333333333
 49
0.0
 49
0.0
 49
0.0
 49
0.0
 49
0.0208333333333333
 49
0.0
 49
0.0
 49
0.0
 49
0.0
 49
1.0
 49
0.0
 49
0.0
 49
0.0
 49
0.0
 49
1.0
175
     0
142
0.0208333333333333
142
0.0
142
0.0
142
0.0
142
0.0
142
0.0208333333333333
142
0.0
142
0.0
142
0.0
142
0.0
142
1.0
142
0.0
142
0.0
142
0.0
142
0.0
142
1.0
179
     0
144
0.0208333333333333
144
0.0
144
0.0
144
0.0
144
0.0
144
0.0208333333333333
144
0.0
144
0.0
144
0.0
144
0.0
144
1.0
144
0.0
144
0.0
144
0.0
144
0.0
144
1.0
147
0.0208333333333333
147
0.0
147
0.0
147
0.0
147
0.0
147
0.0208333333333333
147
0.0
147
0.0
147
0.0
147
0.0
147
1.0
147
0.0
147
0.0
147
0.0
147
0.0
147
1.0
  0
MATERIAL
  5
1ABD2
102
{ACAD_XDICTIONARY
360
1ABD3
102
}
102
{ACAD_REACTORS
330
1ABD1
102
}
330
1ABD1
100
AcDbMaterial
  1
ByLayer
 72
     0
 43
0.0208333333333333
 43
0.0
 43
0.0
 43
0.0
 43
0.0
 43
0.0208333333333333
 43
0.0
 43
0.0
 43
0.0
 43
0.0
 43
1.0
 43
0.0
 43
0.0
 43
0.0
 43
0.0
 43
1.0
 77
     0
 47
0.0208333333333333
 47
0.0
 47
0.0
 47
0.0
 47
0.0
 47
0.0208333333333333
 47
0.0
 47
0.0
 47
0.0
 47
0.0
 47
1.0
 47
0.0
 47
0.0
 47
0.0
 47
0.0
 47
1.0
171
     0
 49
0.0208333333333333
 49
0.0
 49
0.0
 49
0.0
 49
0.0
 49
0.0208333333333333
 49
0.0
 49
0.0
 49
0.0
 49
0.0
 49
1.0
 49
0.0
 49
0.0
 49
0.0
 49
0.0
 49
1.0
175
     0
142
0.0208333333333333
142
0.0
142
0.0
142
0.0
142
0.0
142
0.0208333333333333
142
0.0
142
0.0
142
0.0
142
0.0
142
1.0
142
0.0
142
0.0
142
0.0
142
0.0
142
1.0
179
     0
144
0.0208333333333333
144
0.0
144
0.0
144
0.0
144
0.0
144
0.0208333333333333
144
0.0
144
0.0
144
0.0
144
0.0
144
1.0
144
0.0
144
0.0
144
0.0
144
0.0
144
1.0
147
0.0208333333333333
147
0.0
147
0.0
147
0.0
147
0.0
147
0.0208333333333333
147
0.0
147
0.0
147
0.0
147
0.0
147
1.0
147
0.0
147
0.0
147
0.0
147
0.0
147
1.0
  0
MATERIAL
  5
1ABE2
102
{ACAD_XDICTIONARY
360
1ABE3
102
}
102
{ACAD_REACTORS
330
1ABD1
102
}
330
1ABD1
100
AcDbMaterial
  1
Global
 72
     0
 43
0.0208333333333333
 43
0.0
 43
0.0
 43
0.0
 43
0.0
 43
0.0208333333333333
 43
0.0
 43
0.0
 43
0.0
 43
0.0
 43
1.0
 43
0.0
 43
0.0
 43
0.0
 43
0.0
 43
1.0
 77
     0
 47
0.0208333333333333
 47
0.0
 47
0.0
 47
0.0
 47
0.0
 47
0.0208333333333333
 47
0.0
 47
0.0
 47
0.0
 47
0.0
 47
1.0
 47
0.0
 47
0.0
 47
0.0
 47
0.0
 47
1.0
171
     0
 49
0.0208333333333333
 49
0.0
 49
0.0
 49
0.0
 49
0.0
 49
0.0208333333333333
 49
0.0
 49
0.0
 49
0.0
 49
0.0
 49
1.0
 49
0.0
 49
0.0
 49
0.0
 49
0.0
 49
1.0
175
     0
142
0.0208333333333333
142
0.0
142
0.0
142
0.0
142
0.0
142
0.0208333333333333
142
0.0
142
0.0
142
0.0
142
0.0
142
1.0
142
0.0
142
0.0
142
0.0
142
0.0
142
1.0
179
     0
144
0.0208333333333333
144
0.0
144
0.0
144
0.0
144
0.0
144
0.0208333333333333
144
0.0
144
0.0
144
0.0
144
0.0
144
1.0
144
0.0
144
0.0
144
0.0
144
0.0
144
1.0
147
0.0208333333333333
147
0.0
147
0.0
147
0.0
147
0.0
147
0.0208333333333333
147
0.0
147
0.0
147
0.0
147
0.0
147
1.0
147
0.0
147
0.0
147
0.0
147
0.0
147
1.0
  0
MLEADERSTYLE
  5
1AC19
102
{ACAD_REACTORS
330
1AC18
102
}
330
1AC18
100
AcDbMLeaderStyle
170
     2
171
     1
172
     0
 90
        2
 40
0.0
 41
0.0
173
     1
 91
-1056964608
340
1A937
 92
       -2
290
     1
 42
0.09
291
     1
 43
0.36
  3
Standard
 44
0.18
300

342
1A935
174
     1
178
     6
175
     1
176
     0
 93
-1056964608
 45
0.18
292
     0
297
     0
 46
0.18
 94
-1056964608
 47
1.0
 49
1.0
140
1.0
293
     1
141
0.0
294
     1
177
     0
142
1.0
295
     0
296
     0
143
0.125
1001
ACAD_MLEADERVER
1070
     2
  0
MLINESTYLE
  5
1A93B
102
{ACAD_REACTORS
330
1A93A
102
}
330
1A93A
100
AcDbMlineStyle
  2
STANDARD
 70
     0
  3

 62
   256
 51
90.0
 52
90.0
 71
     2
 49
0.5
 62
   256
  6
BYLAYER
 49
-0.5
 62
   256
  6
BYLAYER
  0
ACDBPLACEHOLDER
  5
1ABD0
102
{ACAD_REACTORS
330
1ABCF
102
}
330
1ABCF
  0
SCALE
  5
1AC07
102
{ACAD_REACTORS
330
1AC06
102
}
330
1AC06
100
AcDbScale
 70
     0
300
1:1
140
1.0
141
1.0
290
     1
  0
SCALE
  5
1AC08
102
{ACAD_REACTORS
330
1AC06
102
}
330
1AC06
100
AcDbScale
 70
     0
300
1/128" = 1'-0"
140
0.0078125
141
12.0
290
     0
  0
SCALE
  5
1AC09
102
{ACAD_REACTORS
330
1AC06
102
}
330
1AC06
100
AcDbScale
 70
     0
300
1/64" = 1'-0"
140
0.015625
141
12.0
290
     0
  0
SCALE
  5
1AC0A
102
{ACAD_REACTORS
330
1AC06
102
}
330
1AC06
100
AcDbScale
 70
     0
300
1/32" = 1'-0"
140
0.03125
141
12.0
290
     0
  0
SCALE
  5
1AC0B
102
{ACAD_REACTORS
330
1AC06
102
}
330
1AC06
100
AcDbScale
 70
     0
300
1/16" = 1'-0"
140
0.0625
141
12.0
290
     0
  0
SCALE
  5
1AC0C
102
{ACAD_REACTORS
330
1AC06
102
}
330
1AC06
100
AcDbScale
 70
     0
300
3/32" = 1'-0"
140
0.09375
141
12.0
290
     0
  0
SCALE
  5
1AC0D
102
{ACAD_REACTORS
330
1AC06
102
}
330
1AC06
100
AcDbScale
 70
     0
300
1/8" = 1'-0"
140
0.125
141
12.0
290
     0
  0
SCALE
  5
1AC0E
102
{ACAD_REACTORS
330
1AC06
102
}
330
1AC06
100
AcDbScale
 70
     0
300
3/16" = 1'-0"
140
0.1875
141
12.0
290
     0
  0
SCALE
  5
1AC0F
102
{ACAD_REACTORS
330
1AC06
102
}
330
1AC06
100
AcDbScale
 70
     0
300
1/4" = 1'-0"
140
0.25
141
12.0
290
     0
  0
SCALE
  5
1AC10
102
{ACAD_REACTORS
330
1AC06
102
}
330
1AC06
100
AcDbScale
 70
     0
300
3/8" = 1'-0"
140
0.375
141
12.0
290
     0
  0
SCALE
  5
1AC11
102
{ACAD_REACTORS
330
1AC06
102
}
330
1AC06
100
AcDbScale
 70
     0
300
1/2" = 1'-0"
140
0.5
141
12.0
290
     0
  0
SCALE
  5
1AC12
102
{ACAD_REACTORS
330
1AC06
102
}
330
1AC06
100
AcDbScale
 70
     0
300
3/4" = 1'-0"
140
0.75
141
12.0
290
     0
  0
SCALE
  5
1AC13
102
{ACAD_REACTORS
330
1AC06
102
}
330
1AC06
100
AcDbScale
 70
     0
300
1" = 1'-0"
140
1.0
141
12.0
290
     0
  0
SCALE
  5
1AC14
102
{ACAD_REACTORS
330
1AC06
102
}
330
1AC06
100
AcDbScale
 70
     0
300
1-1/2" = 1'-0"
140
1.5
141
12.0
290
     0
  0
SCALE
  5
1AC15
102
{ACAD_REACTORS
330
1AC06
102
}
330
1AC06
100
AcDbScale
 70
     0
300
3" = 1'-0"
140
3.0
141
12.0
290
     0
  0
SCALE
  5
1AC16
102
{ACAD_REACTORS
330
1AC06
102
}
330
1AC06
100
AcDbScale
 70
     0
300
6" = 1'-0"
140
6.0
141
12.0
290
     0
  0
SCALE
  5
1AC17
102
{ACAD_REACTORS
330
1AC06
102
}
330
1AC06
100
AcDbScale
 70
     0
300
1'-0" = 1'-0"
140
12.0
141
12.0
290
     0
  0
ACDBSECTIONVIEWSTYLE
  5
1AC1B
102
{ACAD_XDICTIONARY
360
1AC76
102
}
102
{ACAD_REACTORS
330
1AC1A
102
}
330
1AC1A
100
AcDbModelDocViewStyle
 70
     0
  3
Imperial24
290
     0
100
AcDbSectionViewStyle
 70
     0
 71
     0
 90
       78
 71
     1
340
1A935
 40
0.24
340
0
340
0
 40
0.24
300
I, O, Q, S, X, Z
 40
0.48
 90
        3
 40
0.18
 90
        1
 71
     2
340
1A939
 90
       25
340
1A939
 90
       50
 40
0.24
 40
0.0
 40
0.24
 71
     3
340
1A935
 40
0.24
 90
        1
 40
0.75
 90
        1
300
%<\AcVar ViewType \f "%tc1">% %<\AcVar ViewSectionStartId>%-%<\AcVar ViewSectionEndId>%\PSCALE %<\AcVar ViewScale \f "%sn">%
 71
     4
300
ANSI31
 40
1.0
 90
        0
290
     0
290
     0
 90
        6
 40
0.0
 40
1.570796326794896
 40
0.2617993877991494
 40
1.308996938995747
 40
-0.2617993877991494
 40
1.832595714594046
  0
TABLESTYLE
  5
1AC05
102
{ACAD_XDICTIONARY
360
1AC3D
102
}
102
{ACAD_REACTORS
330
1AC04
102
}
330
1AC04
100
AcDbTableStyle
  3
Standard
 70
     0
 71
     0
 40
0.06
 41
0.06
280
     0
281
     0
  7
STANDARD
140
0.18
170
     2
 62
     0
 63
     7
283
     0
274
    -2
284
     1
 64
     0
275
    -2
285
     1
 65
     0
276
    -2
286
     1
 66
     0
277
    -2
287
     1
 67
     0
278
    -2
288
     1
 68
     0
279
    -2
289
     1
 69
     0
  7
STANDARD
140
0.25
170
     5
 62
     0
 63
     7
283
     0
274
    -2
284
     1
 64
     0
275
    -2
285
     1
 65
     0
276
    -2
286
     1
 66
     0
277
    -2
287
     1
 67
     0
278
    -2
288
     1
 68
     0
279
    -2
289
     1
 69
     0
  7
STANDARD
140
0.18
170
     5
 62
     0
 63
     7
283
     0
274
    -2
284
     1
 64
     0
275
    -2
285
     1
 65
     0
276
    -2
286
     1
 66
     0
277
    -2
287
     1
 67
     0
278
    -2
288
     1
 68
     0
279
    -2
289
     1
 69
     0
  0
VISUALSTYLE
  5
1ABF0
102
{ACAD_XDICTIONARY
360
1AC4E
102
}
102
{ACAD_REACTORS
330
1ABEA
102
}
330
1ABEA
100
AcDbVisualStyle
  2
2dWireframe
 70
     4
 71
     0
 72
     2
 73
     0
 90
        0
 40
-0.6
 41
-30.0
 62
     5
 63
     7
 74
     1
 91
        4
 64
     7
 65
   257
 75
     1
175
     1
 42
1.0
 92
        0
 66
   257
 43
1.0
 76
     1
 77
     6
 78
     2
 67
     7
 79
     5
170
     0
171
     0
290
     0
174
     0
 93
        1
 44
0.0
173
     0
291
     0
 45
0.0
1001
ACAD
1000
AcDbSavedByObjectVersion
1070
     0
  0
VISUALSTYLE
  5
1ABEF
102
{ACAD_XDICTIONARY
360
1AC4C
102
}
102
{ACAD_REACTORS
330
1ABEA
102
}
330
1ABEA
100
AcDbVisualStyle
  2
Basic
 70
     7
 71
     1
 72
     0
 73
     1
 90
        0
 40
-0.6
 41
-30.0
 62
     5
 63
     7
 74
     0
 91
        4
 64
     7
 65
   257
 75
     1
175
     1
 42
1.0
 92
        8
 66
     7
 43
1.0
 76
     1
 77
     6
 78
     2
 67
     7
 79
     5
170
     0
171
     0
290
     0
174
     0
 93
        1
 44
0.0
173
     0
291
     1
 45
0.0
1001
ACAD
1000
AcDbSavedByObjectVersion
1070
     0
  0
VISUALSTYLE
  5
1ABF6
102
{ACAD_XDICTIONARY
360
1AC5A
102
}
102
{ACAD_REACTORS
330
1ABEA
102
}
330
1ABEA
100
AcDbVisualStyle
  2
Brighten
 70
    12
 71
     2
 72
     2
 73
     0
 90
        0
 40
-0.6
 41
-30.0
 62
     5
 63
     7
 74
     1
 91
        4
 64
     7
 65
   257
 75
     1
175
     1
 42
1.0
 92
        8
 66
     7
 43
1.0
 76
     1
 77
     6
 78
     2
 67
     7
 79
     5
170
     0
171
     0
290
     0
174
     0
 93
        1
 44
50.0
173
     0
291
     1
 45
0.0
1001
ACAD
1000
AcDbSavedByObjectVersion
1070
     0
  0
VISUALSTYLE
  5
1ABFA
102
{ACAD_XDICTIONARY
360
1AC62
102
}
102
{ACAD_REACTORS
330
1ABEA
102
}
330
1ABEA
100
AcDbVisualStyle
  2
ColorChange
 70
    16
 71
     2
 72
     2
 73
     3
 90
        0
 40
-0.6
 41
-30.0
 62
     5
 63
     8
 74
     1
 91
        4
 64
     7
 65
   257
 75
     1
175
     1
 42
1.0
 92
        8
 66
     8
 43
1.0
 76
     1
 77
     6
 78
     2
 67
     7
 79
     5
170
     0
171
     0
290
     0
174
     0
 93
        1
 44
0.0
173
     0
291
     1
 45
0.0
1001
ACAD
1000
AcDbSavedByObjectVersion
1070
     0
  0
VISUALSTYLE
  5
1ABF3
102
{ACAD_XDICTIONARY
360
1AC54
102
}
102
{ACAD_REACTORS
330
1ABEA
102
}
330
1ABEA
100
AcDbVisualStyle
  2
Conceptual
 70
     9
 71
     3
 72
     2
 73
     0
 90
        0
 40
-0.6
 41
-30.0
 62
     5
 63
     7
 74
     2
 91
        2
 64
     7
 65
   257
 75
     1
175
     1
 42
179.0
 92
        8
 66
     7
 43
1.0
 76
     1
 77
     6
 78
     2
 67
     7
 79
     3
170
     0
171
     0
290
     0
174
     0
 93
        1
 44
0.0
173
     0
291
     0
 45
0.0
1001
ACAD
1000
AcDbSavedByObjectVersion
1070
     0
  0
VISUALSTYLE
  5
1ABF5
102
{ACAD_XDICTIONARY
360
1AC58
102
}
102
{ACAD_REACTORS
330
1ABEA
102
}
330
1ABEA
100
AcDbVisualStyle
  2
Dim
 70
    11
 71
     2
 72
     2
 73
     0
 90
        0
 40
-0.6
 41
-30.0
 62
     5
 63
     7
 74
     1
 91
        4
 64
     7
 65
   257
 75
     1
175
     1
 42
1.0
 92
        8
 66
     7
 43
1.0
 76
     1
 77
     6
 78
     2
 67
     7
 79
     5
170
     0
171
     0
290
     0
174
     0
 93
        1
 44
-50.0
173
     0
291
     1
 45
0.0
1001
ACAD
1000
AcDbSavedByObjectVersion
1070
     0
  0
VISUALSTYLE
  5
1AC02
102
{ACAD_XDICTIONARY
360
1AC72
102
}
102
{ACAD_REACTORS
330
1ABEA
102
}
330
1ABEA
100
AcDbVisualStyle
  2
EdgeColorOff
 70
    22
 71
     2
 72
     2
 73
     0
 90
        0
 40
-0.6
 41
-30.0
 62
     5
 63
     7
 74
     1
 91
        4
 64
     7
 65
   257
 75
     1
175
     1
 42
1.0
 92
        8
 66
     7
 43
1.0
 76
     1
 77
     6
 78
     2
 67
     7
 79
     5
170
     0
171
     0
290
     0
174
     0
 93
        1
 44
0.0
173
     0
291
     1
 45
0.0
1001
ACAD
1000
AcDbSavedByObjectVersion
1070
     0
  0
VISUALSTYLE
  5
1ABF9
102
{ACAD_XDICTIONARY
360
1AC60
102
}
102
{ACAD_REACTORS
330
1ABEA
102
}
330
1ABEA
100
AcDbVisualStyle
  2
Facepattern
 70
    15
 71
     2
 72
     2
 73
     0
 90
        0
 40
-0.6
 41
-30.0
 62
     5
 63
     7
 74
     1
 91
        4
 64
     7
 65
   257
 75
     1
175
     1
 42
1.0
 92
        8
 66
     7
 43
1.0
 76
     1
 77
     6
 78
     2
 67
     7
 79
     5
170
     0
171
     0
290
     0
174
     0
 93
        1
 44
0.0
173
     0
291
     1
 45
0.0
1001
ACAD
1000
AcDbSavedByObjectVersion
1070
     0
  0
VISUALSTYLE
  5
1ABEB
102
{ACAD_XDICTIONARY
360
1AC44
102
}
102
{ACAD_REACTORS
330
1ABEA
102
}
330
1ABEA
100
AcDbVisualStyle
  2
Flat
 70
     0
 71
     2
 72
     1
 73
     1
 90
        2
 40
-0.6
 41
30.0
 62
     5
 63
     7
 74
     0
 91
        0
 64
     7
 65
   257
 75
     1
175
     1
 42
1.0
 92
        8
 66
     7
 43
1.0
 76
     1
 77
     6
 78
     2
 67
     7
 79
     5
170
     0
171
     0
290
     0
174
     0
 93
       13
 44
0.0
173
     0
291
     1
 45
0.0
1001
ACAD
1000
AcDbSavedByObjectVersion
1070
     0
  0
VISUALSTYLE
  5
1ABEC
102
{ACAD_XDICTIONARY
360
1AC46
102
}
102
{ACAD_REACTORS
330
1ABEA
102
}
330
1ABEA
100
AcDbVisualStyle
  2
FlatWithEdges
 70
     1
 71
     2
 72
     1
 73
     1
 90
        2
 40
-0.6
 41
30.0
 62
     5
 63
     7
 74
     1
 91
        0
 64
     7
 65
   257
 75
     1
175
     1
 42
1.0
 92
        0
 66
   257
 43
1.0
 76
     1
 77
     6
 78
     2
 67
     7
 79
     5
170
     0
171
     0
290
     0
174
     0
 93
       13
 44
0.0
173
     0
291
     1
 45
0.0
1001
ACAD
1000
AcDbSavedByObjectVersion
1070
     0
  0
VISUALSTYLE
  5
1ABED
102
{ACAD_XDICTIONARY
360
1AC48
102
}
102
{ACAD_REACTORS
330
1ABEA
102
}
330
1ABEA
100
AcDbVisualStyle
  2
Gouraud
 70
     2
 71
     2
 72
     2
 73
     1
 90
        2
 40
-0.6
 41
30.0
 62
     5
 63
     7
 74
     0
 91
        0
 64
     7
 65
   257
 75
     1
175
     1
 42
1.0
 92
        0
 66
     7
 43
1.0
 76
     1
 77
     6
 78
     2
 67
     7
 79
     5
170
     0
171
     0
290
     0
174
     0
 93
       13
 44
0.0
173
     0
291
     1
 45
0.0
1001
ACAD
1000
AcDbSavedByObjectVersion
1070
     0
  0
VISUALSTYLE
  5
1ABEE
102
{ACAD_XDICTIONARY
360
1AC4A
102
}
102
{ACAD_REACTORS
330
1ABEA
102
}
330
1ABEA
100
AcDbVisualStyle
  2
GouraudWithEdges
 70
     3
 71
     2
 72
     2
 73
     1
 90
        2
 40
-0.6
 41
30.0
 62
     5
 63
     7
 74
     1
 91
        0
 64
     7
 65
   257
 75
     1
175
     1
 42
1.0
 92
        0
 66
   257
 43
1.0
 76
     1
 77
     6
 78
     2
 67
     7
 79
     5
170
     0
171
     0
290
     0
174
     0
 93
       13
 44
0.0
173
     0
291
     1
 45
0.0
1001
ACAD
1000
AcDbSavedByObjectVersion
1070
     0
  0
VISUALSTYLE
  5
1ABF2
102
{ACAD_XDICTIONARY
360
1AC52
102
}
102
{ACAD_REACTORS
330
1ABEA
102
}
330
1ABEA
100
AcDbVisualStyle
  2
Hidden
 70
     6
 71
     1
 72
     2
 73
     2
 90
        0
 40
-0.6
 41
-30.0
 62
     5
 63
     7
 74
     2
 91
        2
 64
     7
 65
   257
 75
     2
175
     1
 42
40.0
 92
        0
 66
   257
 43
1.0
 76
     1
 77
     6
 78
     2
 67
     7
 79
     3
170
     0
171
     0
290
     0
174
     0
 93
        1
 44
0.0
173
     0
291
     0
 45
0.0
1001
ACAD
1000
AcDbSavedByObjectVersion
1070
     0
  0
VISUALSTYLE
  5
1AC00
102
{ACAD_XDICTIONARY
360
1AC6E
102
}
102
{ACAD_REACTORS
330
1ABEA
102
}
330
1ABEA
100
AcDbVisualStyle
  2
JitterOff
 70
    20
 71
     2
 72
     2
 73
     0
 90
        0
 40
-0.6
 41
-30.0
 62
     5
 63
     7
 74
     1
 91
        4
 64
     7
 65
   257
 75
     1
175
     1
 42
1.0
 92
       10
 66
     7
 43
1.0
 76
     1
 77
     6
 78
     2
 67
     7
 79
     5
170
     0
171
     0
290
     0
174
     0
 93
        1
 44
0.0
173
     0
291
     1
 45
0.0
1001
ACAD
1000
AcDbSavedByObjectVersion
1070
     0
  0
VISUALSTYLE
  5
1ABF8
102
{ACAD_XDICTIONARY
360
1AC5E
102
}
102
{ACAD_REACTORS
330
1ABEA
102
}
330
1ABEA
100
AcDbVisualStyle
  2
Linepattern
 70
    14
 71
     2
 72
     2
 73
     0
 90
        0
 40
-0.6
 41
-30.0
 62
     5
 63
     7
 74
     1
 91
        4
 64
     7
 65
   257
 75
     7
175
     7
 42
1.0
 92
        8
 66
     7
 43
1.0
 76
     1
 77
     6
 78
     2
 67
     7
 79
     5
170
     0
171
     0
290
     0
174
     0
 93
        1
 44
0.0
173
     0
291
     1
 45
0.0
1001
ACAD
1000
AcDbSavedByObjectVersion
1070
     0
  0
VISUALSTYLE
  5
1AC01
102
{ACAD_XDICTIONARY
360
1AC70
102
}
102
{ACAD_REACTORS
330
1ABEA
102
}
330
1ABEA
100
AcDbVisualStyle
  2
OverhangOff
 70
    21
 71
     2
 72
     2
 73
     0
 90
        0
 40
-0.6
 41
-30.0
 62
     5
 63
     7
 74
     1
 91
        4
 64
     7
 65
   257
 75
     1
175
     1
 42
1.0
 92
        9
 66
     7
 43
1.0
 76
     1
 77
     6
 78
     2
 67
     7
 79
     5
170
     0
171
     0
290
     0
174
     0
 93
        1
 44
0.0
173
     0
291
     1
 45
0.0
1001
ACAD
1000
AcDbSavedByObjectVersion
1070
     0
  0
VISUALSTYLE
  5
1ABF4
102
{ACAD_XDICTIONARY
360
1AC56
102
}
102
{ACAD_REACTORS
330
1ABEA
102
}
330
1ABEA
100
AcDbVisualStyle
  2
Realistic
 70
     8
 71
     2
 72
     3
 73
     0
 90
        2
 40
-0.6
 41
30.0
 62
     5
 63
     7
 74
     0
 91
        0
 64
     7
 65
   257
 75
     1
175
     1
 42
1.0
 92
        8
 66
   257
 43
1.0
 76
     1
 77
     6
 78
     2
 67
     7
 79
     3
170
     0
171
     0
290
     0
174
     0
 93
       13
 44
0.0
173
     0
291
     0
 45
0.0
1001
ACAD
1000
AcDbSavedByObjectVersion
1070
     0
  0
VISUALSTYLE
  5
1ABFF
102
{ACAD_XDICTIONARY
360
1AC6C
102
}
102
{ACAD_REACTORS
330
1ABEA
102
}
330
1ABEA
100
AcDbVisualStyle
  2
Shaded
 70
    27
 71
     2
 72
     2
 73
     1
 90
        2
 40
-0.6
 41
30.0
 62
     5
 63
     7
 74
     0
 91
        4
 64
     7
 65
   257
 75
     1
175
     1
 42
1.0
 92
        8
 66
   257
 43
1.0
 76
     1
 77
     6
 78
     2
 67
     8
 79
     3
170
     0
171
     0
290
     0
174
     0
 93
        5
 44
0.0
173
     0
291
     0
 45
0.0
1001
ACAD
1000
AcDbSavedByObjectVersion
1070
     0
  0
VISUALSTYLE
  5
1ABFE
102
{ACAD_XDICTIONARY
360
1AC6A
102
}
102
{ACAD_REACTORS
330
1ABEA
102
}
330
1ABEA
100
AcDbVisualStyle
  2
Shaded with edges
 70
    26
 71
     2
 72
     2
 73
     1
 90
        2
 40
-0.6
 41
30.0
 62
     5
 63
     7
 74
     1
 91
       10
 64
     7
 65
   257
 75
     2
175
     1
 42
1.0
 92
        8
 66
   257
 43
1.0
 76
     1
 77
     6
 78
     2
 67
     7
 79
     3
170
     0
171
     0
290
     0
174
     0
 93
        5
 44
0.0
173
     0
291
     0
 45
0.0
1001
ACAD
1000
AcDbSavedByObjectVersion
1070
     0
  0
VISUALSTYLE
  5
1ABFB
102
{ACAD_XDICTIONARY
360
1AC64
102
}
102
{ACAD_REACTORS
330
1ABEA
102
}
330
1ABEA
100
AcDbVisualStyle
  2
Shades of Gray
 70
    23
 71
     2
 72
     2
 73
     3
 90
        0
 40
-0.6
 41
-30.0
 62
     5
 63
     7
 74
     2
 91
        2
 64
     7
 65
     7
 75
     1
175
     1
 42
40.0
 92
        8
 66
     7
 43
1.0
 76
     1
 77
     6
 78
     2
 67
     7
 79
     3
170
     0
171
     0
290
     0
174
     0
 93
        1
 44
0.0
173
     0
291
     0
 45
0.0
1001
ACAD
1000
AcDbSavedByObjectVersion
1070
     0
  0
VISUALSTYLE
  5
1ABFC
102
{ACAD_XDICTIONARY
360
1AC66
102
}
102
{ACAD_REACTORS
330
1ABEA
102
}
330
1ABEA
100
AcDbVisualStyle
  2
Sketchy
 70
    24
 71
     1
 72
     2
 73
     2
 90
        0
 40
-0.6
 41
-30.0
 62
     5
 63
     7
 74
     2
 91
        2
 64
     7
 65
     7
 75
     1
175
     1
 42
40.0
 92
       11
 66
     7
 43
1.0
 76
     1
 77
     6
 78
     2
 67
     7
 79
     6
170
     0
171
     0
290
     0
174
     0
 93
        1
 44
0.0
173
     0
291
     0
 45
0.0
1001
ACAD
1000
AcDbSavedByObjectVersion
1070
     0
  0
VISUALSTYLE
  5
1ABF7
102
{ACAD_XDICTIONARY
360
1AC5C
102
}
102
{ACAD_REACTORS
330
1ABEA
102
}
330
1ABEA
100
AcDbVisualStyle
  2
Thicken
 70
    13
 71
     2
 72
     2
 73
     0
 90
        0
 40
-0.6
 41
-30.0
 62
     5
 63
     7
 74
     1
 91
        4
 64
     7
 65
   257
 75
     1
175
     1
 42
1.0
 92
       12
 66
     7
 43
1.0
 76
     1
 77
     6
 78
     2
 67
     7
 79
     5
170
     0
171
     0
290
     0
174
     0
 93
        1
 44
0.0
173
     0
291
     1
 45
0.0
1001
ACAD
1000
AcDbSavedByObjectVersion
1070
     0
  0
VISUALSTYLE
  5
1ABF1
102
{ACAD_XDICTIONARY
360
1AC50
102
}
102
{ACAD_REACTORS
330
1ABEA
102
}
330
1ABEA
100
AcDbVisualStyle
  2
Wireframe
 70
     5
 71
     0
 72
     2
 73
     0
 90
        0
 40
-0.6
 41
-30.0
 62
     5
 63
     7
 74
     1
 91
        4
 64
     7
 65
   257
 75
     1
175
     1
 42
1.0
 92
        0
 66
   257
 43
1.0
 76
     1
 77
     6
 78
     2
 67
     7
 79
     3
170
     0
171
     0
290
     0
174
     0
 93
        1
 44
0.0
173
     0
291
     0
 45
0.0
1001
ACAD
1000
AcDbSavedByObjectVersion
1070
     0
  0
VISUALSTYLE
  5
1ABFD
102
{ACAD_XDICTIONARY
360
1AC68
102
}
102
{ACAD_REACTORS
330
1ABEA
102
}
330
1ABEA
100
AcDbVisualStyle
  2
X-Ray
 70
    25
 71
     2
 72
     2
 73
     1
 90
        1
 40
0.5
 41
-30.0
 62
     5
 63
     7
 74
     1
 91
        0
 64
     7
 65
   257
 75
     1
175
     1
 42
1.0
 92
        8
 66
     7
 43
1.0
 76
     1
 77
     6
 78
     2
 67
     7
 79
     3
170
     0
171
     0
290
     0
174
     0
 93
       13
 44
0.0
173
     0
291
     0
 45
0.0
1001
ACAD
1000
AcDbSavedByObjectVersion
1070
     0
  0
DICTIONARYVAR
  5
1AC37
102
{ACAD_REACTORS
330
1AC32
102
}
330
1AC32
100
DictionaryVariables
280
     0
  1
1:1
  0
DICTIONARYVAR
  5
1AC34
102
{ACAD_REACTORS
330
1AC32
102
}
330
1AC32
100
DictionaryVariables
280
     0
  1
STANDARD
  0
DICTIONARYVAR
  5
1AC33
102
{ACAD_REACTORS
330
1AC32
102
}
330
1AC32
100
DictionaryVariables
280
     0
  1
STANDARD
  0
DICTIONARYVAR
  5
1AC35
102
{ACAD_REACTORS
330
1AC32
102
}
330
1AC32
100
DictionaryVariables
280
     0
  1
Imperial24
  0
DICTIONARYVAR
  5
1AC36
102
{ACAD_REACTORS
330
1AC32
102
}
330
1AC32
100
DictionaryVariables
280
     0
  1
Imperial24
  0
DICTIONARYVAR
  5
1AC3A
102
{ACAD_REACTORS
330
1AC32
102
}
330
1AC32
100
DictionaryVariables
280
     0
  1
1
  0
DICTIONARYVAR
  5
1AC39
102
{ACAD_REACTORS
330
1AC32
102
}
330
1AC32
100
DictionaryVariables
280
     0
  1
0
  0
DICTIONARYVAR
  5
1AC38
102
{ACAD_REACTORS
330
1AC32
102
}
330
1AC32
100
DictionaryVariables
280
     0
  1
127
  0
DICTIONARYVAR
  5
1AC3B
102
{ACAD_REACTORS
330
1AC32
102
}
330
1AC32
100
DictionaryVariables
280
     0
  1
2
  0
DICTIONARY
  5
1AC78
330
1AC1D
100
AcDbDictionary
280
     1
281
     1
  3
ACAD_XREC_ROUNDTRIP
360
1AC79
  0
DICTIONARY
  5
1AC7A
330
1AC1E
100
AcDbDictionary
280
     1
281
     1
  3
ACAD_XREC_ROUNDTRIP
360
1AC7B
  0
DICTIONARY
  5
1AC7C
330
1AC1F
100
AcDbDictionary
280
     1
281
     1
  3
ACAD_XREC_ROUNDTRIP
360
1AC7D
  0
DICTIONARY
  5
1ABDB
330
1ABDA
100
AcDbDictionary
280
     1
281
     1
  3
ACAD_XREC_ROUNDTRIP
360
1AC42
  3
BUMPTILE
360
1ABDD
  3
DIFFUSETILE
360
1ABDC
  3
OPACITYTILE
360
1ABE0
  3
REFLECTIONTILE
360
1ABDF
  3
REFRACTIONTILE
360
1ABE1
  3
SPECULARTILE
360
1ABDE
  0
DICTIONARY
  5
1ABD3
330
1ABD2
100
AcDbDictionary
280
     1
281
     1
  3
ACAD_XREC_ROUNDTRIP
360
1AC41
  3
BUMPTILE
360
1ABD5
  3
DIFFUSETILE
360
1ABD4
  3
OPACITYTILE
360
1ABD8
  3
REFLECTIONTILE
360
1ABD7
  3
REFRACTIONTILE
360
1ABD9
  3
SPECULARTILE
360
1ABD6
  0
DICTIONARY
  5
1ABE3
330
1ABE2
100
AcDbDictionary
280
     1
281
     1
  3
ACAD_XREC_ROUNDTRIP
360
1AC43
  3
BUMPTILE
360
1ABE5
  3
DIFFUSETILE
360
1ABE4
  3
OPACITYTILE
360
1ABE8
  3
REFLECTIONTILE
360
1ABE7
  3
REFRACTIONTILE
360
1ABE9
  3
SPECULARTILE
360
1ABE6
  0
DICTIONARY
  5
1AC76
330
1AC1B
100
AcDbDictionary
280
     1
281
     1
  3
ACAD_XREC_ROUNDTRIP
360
1AC77
  0
DICTIONARY
  5
1AC3D
330
1AC05
100
AcDbDictionary
280
     1
281
     1
  3
ACAD_ROUNDTRIP_2008_TABLESTYLE_CELLSTYLEMAP
360
1AC3E
  3
ACAD_XREC_ROUNDTRIP
360
1AC74
  0
DICTIONARY
  5
1AC4E
330
1ABF0
100
AcDbDictionary
280
     1
281
     1
  3
ACAD_XREC_ROUNDTRIP
360
1AC4F
  0
DICTIONARY
  5
1AC4C
330
1ABEF
100
AcDbDictionary
280
     1
281
     1
  3
ACAD_XREC_ROUNDTRIP
360
1AC4D
  0
DICTIONARY
  5
1AC5A
330
1ABF6
100
AcDbDictionary
280
     1
281
     1
  3
ACAD_XREC_ROUNDTRIP
360
1AC5B
  0
DICTIONARY
  5
1AC62
330
1ABFA
100
AcDbDictionary
280
     1
281
     1
  3
ACAD_XREC_ROUNDTRIP
360
1AC63
  0
DICTIONARY
  5
1AC54
330
1ABF3
100
AcDbDictionary
280
     1
281
     1
  3
ACAD_XREC_ROUNDTRIP
360
1AC55
  0
DICTIONARY
  5
1AC58
330
1ABF5
100
AcDbDictionary
280
     1
281
     1
  3
ACAD_XREC_ROUNDTRIP
360
1AC59
  0
DICTIONARY
  5
1AC72
330
1AC02
100
AcDbDictionary
280
     1
281
     1
  3
ACAD_XREC_ROUNDTRIP
360
1AC73
  0
DICTIONARY
  5
1AC60
330
1ABF9
100
AcDbDictionary
280
     1
281
     1
  3
ACAD_XREC_ROUNDTRIP
360
1AC61
  0
DICTIONARY
  5
1AC44
330
1ABEB
100
AcDbDictionary
280
     1
281
     1
  3
ACAD_XREC_ROUNDTRIP
360
1AC45
  0
DICTIONARY
  5
1AC46
330
1ABEC
100
AcDbDictionary
280
     1
281
     1
  3
ACAD_XREC_ROUNDTRIP
360
1AC47
  0
DICTIONARY
  5
1AC48
330
1ABED
100
AcDbDictionary
280
     1
281
     1
  3
ACAD_XREC_ROUNDTRIP
360
1AC49
  0
DICTIONARY
  5
1AC4A
330
1ABEE
100
AcDbDictionary
280
     1
281
     1
  3
ACAD_XREC_ROUNDTRIP
360
1AC4B
  0
DICTIONARY
  5
1AC52
330
1ABF2
100
AcDbDictionary
280
     1
281
     1
  3
ACAD_XREC_ROUNDTRIP
360
1AC53
  0
DICTIONARY
  5
1AC6E
330
1AC00
100
AcDbDictionary
280
     1
281
     1
  3
ACAD_XREC_ROUNDTRIP
360
1AC6F
  0
DICTIONARY
  5
1AC5E
330
1ABF8
100
AcDbDictionary
280
     1
281
     1
  3
ACAD_XREC_ROUNDTRIP
360
1AC5F
  0
DICTIONARY
  5
1AC70
330
1AC01
100
AcDbDictionary
280
     1
281
     1
  3
ACAD_XREC_ROUNDTRIP
360
1AC71
  0
DICTIONARY
  5
1AC56
330
1ABF4
100
AcDbDictionary
280
     1
281
     1
  3
ACAD_XREC_ROUNDTRIP
360
1AC57
  0
DICTIONARY
  5
1AC6C
330
1ABFF
100
AcDbDictionary
280
     1
281
     1
  3
ACAD_XREC_ROUNDTRIP
360
1AC6D
  0
DICTIONARY
  5
1AC6A
330
1ABFE
100
AcDbDictionary
280
     1
281
     1
  3
ACAD_XREC_ROUNDTRIP
360
1AC6B
  0
DICTIONARY
  5
1AC64
330
1ABFB
100
AcDbDictionary
280
     1
281
     1
  3
ACAD_XREC_ROUNDTRIP
360
1AC65
  0
DICTIONARY
  5
1AC66
330
1ABFC
100
AcDbDictionary
280
     1
281
     1
  3
ACAD_XREC_ROUNDTRIP
360
1AC67
  0
DICTIONARY
  5
1AC5C
330
1ABF7
100
AcDbDictionary
280
     1
281
     1
  3
ACAD_XREC_ROUNDTRIP
360
1AC5D
  0
DICTIONARY
  5
1AC50
330
1ABF1
100
AcDbDictionary
280
     1
281
     1
  3
ACAD_XREC_ROUNDTRIP
360
1AC51
  0
DICTIONARY
  5
1AC68
330
1ABFD
100
AcDbDictionary
280
     1
281
     1
  3
ACAD_XREC_ROUNDTRIP
360
1AC69
  0
XRECORD
  5
1AC79
102
{ACAD_REACTORS
330
1AC78
102
}
330
1AC78
100
AcDbXrecord
280
     1
102
DISPLAYNAME
  1
Imperial24
102
FLAGS
 90
        0
  0
XRECORD
  5
1AC7B
102
{ACAD_REACTORS
330
1AC7A
102
}
330
1AC7A
100
AcDbXrecord
280
     1
102
SHADEPLOT
 70
     0
102
SHADEPLOTRESLEVEL
 70
     2
102
SHADEPLOTCUSTOMDPI
 70
   300
  0
XRECORD
  5
1AC7D
102
{ACAD_REACTORS
330
1AC7C
102
}
330
1AC7C
100
AcDbXrecord
280
     1
102
SHADEPLOT
 70
     0
102
SHADEPLOTRESLEVEL
 70
     2
102
SHADEPLOTCUSTOMDPI
 70
   300
  0
XRECORD
  5
1AC42
102
{ACAD_REACTORS
330
1ABDB
102
}
330
1ABDB
100
AcDbXrecord
280
     1
102
MATERIAL
148
0.0
149
0.0
149
0.0
 93
        0
 94
      127
282
     0
 72
     0
 77
     0
171
     0
175
     0
179
     0
273
     0
  0
XRECORD
  5
1ABDD
102
{ACAD_REACTORS
330
1ABDB
102
}
330
1ABDB
100
AcDbXrecord
280
     1
270
     1
271
     1
  0
XRECORD
  5
1ABDC
102
{ACAD_REACTORS
330
1ABDB
102
}
330
1ABDB
100
AcDbXrecord
280
     1
270
     1
271
     1
  0
XRECORD
  5
1ABE0
102
{ACAD_REACTORS
330
1ABDB
102
}
330
1ABDB
100
AcDbXrecord
280
     1
270
     1
271
     1
  0
XRECORD
  5
1ABDF
102
{ACAD_REACTORS
330
1ABDB
102
}
330
1ABDB
100
AcDbXrecord
280
     1
270
     1
271
     1
  0
XRECORD
  5
1ABE1
102
{ACAD_REACTORS
330
1ABDB
102
}
330
1ABDB
100
AcDbXrecord
280
     1
270
     1
271
     1
  0
XRECORD
  5
1ABDE
102
{ACAD_REACTORS
330
1ABDB
102
}
330
1ABDB
100
AcDbXrecord
280
     1
270
     1
271
     1
  0
XRECORD
  5
1AC41
102
{ACAD_REACTORS
330
1ABD3
102
}
330
1ABD3
100
AcDbXrecord
280
     1
102
MATERIAL
148
0.0
149
0.0
149
0.0
 93
        0
 94
      127
282
     0
 72
     0
 77
     0
171
     0
175
     0
179
     0
273
     0
  0
XRECORD
  5
1ABD5
102
{ACAD_REACTORS
330
1ABD3
102
}
330
1ABD3
100
AcDbXrecord
280
     1
270
     1
271
     1
  0
XRECORD
  5
1ABD4
102
{ACAD_REACTORS
330
1ABD3
102
}
330
1ABD3
100
AcDbXrecord
280
     1
270
     1
271
     1
  0
XRECORD
  5
1ABD8
102
{ACAD_REACTORS
330
1ABD3
102
}
330
1ABD3
100
AcDbXrecord
280
     1
270
     1
271
     1
  0
XRECORD
  5
1ABD7
102
{ACAD_REACTORS
330
1ABD3
102
}
330
1ABD3
100
AcDbXrecord
280
     1
270
     1
271
     1
  0
XRECORD
  5
1ABD9
102
{ACAD_REACTORS
330
1ABD3
102
}
330
1ABD3
100
AcDbXrecord
280
     1
270
     1
271
     1
  0
XRECORD
  5
1ABD6
102
{ACAD_REACTORS
330
1ABD3
102
}
330
1ABD3
100
AcDbXrecord
280
     1
270
     1
271
     1
  0
XRECORD
  5
1AC43
102
{ACAD_REACTORS
330
1ABE3
102
}
330
1ABE3
100
AcDbXrecord
280
     1
102
MATERIAL
148
0.0
149
0.0
149
0.0
 93
        0
 94
      127
282
     0
 72
     0
 77
     0
171
     0
175
     0
179
     0
273
     0
  0
XRECORD
  5
1ABE5
102
{ACAD_REACTORS
330
1ABE3
102
}
330
1ABE3
100
AcDbXrecord
280
     1
270
     1
271
     1
  0
XRECORD
  5
1ABE4
102
{ACAD_REACTORS
330
1ABE3
102
}
330
1ABE3
100
AcDbXrecord
280
     1
270
     1
271
     1
  0
XRECORD
  5
1ABE8
102
{ACAD_REACTORS
330
1ABE3
102
}
330
1ABE3
100
AcDbXrecord
280
     1
270
     1
271
     1
  0
XRECORD
  5
1ABE7
102
{ACAD_REACTORS
330
1ABE3
102
}
330
1ABE3
100
AcDbXrecord
280
     1
270
     1
271
     1
  0
XRECORD
  5
1ABE9
102
{ACAD_REACTORS
330
1ABE3
102
}
330
1ABE3
100
AcDbXrecord
280
     1
270
     1
271
     1
  0
XRECORD
  5
1ABE6
102
{ACAD_REACTORS
330
1ABE3
102
}
330
1ABE3
100
AcDbXrecord
280
     1
270
     1
271
     1
  0
XRECORD
  5
1AC77
102
{ACAD_REACTORS
330
1AC76
102
}
330
1AC76
100
AcDbXrecord
280
     1
102
DISPLAYNAME
  1
Imperial24
102
FLAGS
 90
        0
  0
CELLSTYLEMAP
  5
1AC3E
102
{ACAD_REACTORS
330
1AC3D
102
}
330
1AC3D
100
AcDbCellStyleMap
 90
        3
300
CELLSTYLE
  1
TABLEFORMAT_BEGIN
 90
        5
170
     1
 91
        0
 92
    32768
 62
   257
 93
        1
300
CONTENTFORMAT
  1
CONTENTFORMAT_BEGIN
 90
        0
 91
        0
 92
      512
 93
        0
300

 40
0.0
140
1.0
 94
        5
 62
     0
340
1A935
144
0.25
309
CONTENTFORMAT_END
171
     0
 94
        0
309
TABLEFORMAT_END
  1
CELLSTYLE_BEGIN
 90
        1
 91
        1
300
_TITLE
309
CELLSTYLE_END
300
CELLSTYLE
  1
TABLEFORMAT_BEGIN
 90
        5
170
     1
 91
        0
 92
        0
 62
   257
 93
        1
300
CONTENTFORMAT
  1
CONTENTFORMAT_BEGIN
 90
        0
 91
        0
 92
      512
 93
        0
300

 40
0.0
140
1.0
 94
        5
 62
     0
340
1A935
144
0.18
309
CONTENTFORMAT_END
171
     0
 94
        0
309
TABLEFORMAT_END
  1
CELLSTYLE_BEGIN
 90
        2
 91
        1
300
_HEADER
309
CELLSTYLE_END
300
CELLSTYLE
  1
TABLEFORMAT_BEGIN
 90
        5
170
     1
 91
        0
 92
        0
 62
   257
 93
        1
300
CONTENTFORMAT
  1
CONTENTFORMAT_BEGIN
 90
        0
 91
        0
 92
      512
 93
        0
300

 40
0.0
140
1.0
 94
        2
 62
     0
340
1A935
144
0.18
309
CONTENTFORMAT_END
171
     0
 94
        0
309
TABLEFORMAT_END
  1
CELLSTYLE_BEGIN
 90
        3
 91
        2
300
_DATA
309
CELLSTYLE_END
  0
XRECORD
  5
1AC74
102
{ACAD_REACTORS
330
1AC3D
102
}
330
1AC3D
100
AcDbXrecord
280
     1
102
ACAD_ROUNDTRIP_PRE2007_TABLESTYLE
 90
      512
 91
        0
  1

 92
      512
 93
        0
  2

 94
      512
 95
        0
  3

  0
XRECORD
  5
1AC4F
102
{ACAD_REACTORS
330
1AC4E
102
}
330
1AC4E
100
AcDbXrecord
280
     1
102
RTVSPost2010Prop28
280
     1
102
RTVSPost2010PropOp28
 70
     1
102
RTVSPost2010Prop29
280
     1
102
RTVSPost2010PropOp29
 70
     1
102
RTVSPost2010Prop30
280
     0
102
RTVSPost2010PropOp30
 70
     1
102
RTVSPost2010Prop31
280
     0
102
RTVSPost2010PropOp31
 70
     1
102
RTVSPost2010Prop32
280
     0
102
RTVSPost2010PropOp32
 70
     1
102
RTVSPost2010Prop33
280
     0
102
RTVSPost2010PropOp33
 70
     1
102
RTVSPost2010Prop34
280
     0
102
RTVSPost2010PropOp34
 70
     1
102
RTVSPost2010Prop35
280
     0
102
RTVSPost2010PropOp35
 70
     1
102
RTVSPost2010Prop36
280
     0
102
RTVSPost2010PropOp36
 70
     1
102
RTVSPost2010Prop37
 90
       50
102
RTVSPost2010PropOp37
 70
     1
102
RTVSPost2010Prop38
140
0.0
102
RTVSPost2010PropOp38
 70
     1
102
RTVSPost2010Prop39
140
1.0
102
RTVSPost2010PropOp39
 70
     1
102
RTVSPost2010Prop40
 90
        0
102
RTVSPost2010PropOp40
 70
     1
102
RTVSPost2010Prop41ColorIndex
 90
       18
102
RTVSPost2010Prop41ColorRGB
 90
        0
102
RTVSPost2010PropOp41
 70
     1
102
RTVSPost2010Prop42
 90
       50
102
RTVSPost2010PropOp42
 70
     1
102
RTVSPost2010Prop43
 90
        3
102
RTVSPost2010PropOp43
 70
     1
102
RTVSPost2010Prop44ColorIndex
 90
        5
102
RTVSPost2010Prop44ColorRGB
 90
      255
102
RTVSPost2010PropOp44
 70
     1
102
RTVSPost2010Prop45
280
     0
102
RTVSPost2010PropOp45
 70
     1
102
RTVSPost2010Prop46
 90
       50
102
RTVSPost2010PropOp46
 70
     1
102
RTVSPost2010Prop47
 90
       50
102
RTVSPost2010PropOp47
 70
     1
102
RTVSPost2010Prop48
 90
       50
102
RTVSPost2010PropOp48
 70
     1
102
RTVSPost2010Prop49
280
     0
102
RTVSPost2010PropOp49
 70
     1
102
RTVSPost2010Prop50
 90
       50
102
RTVSPost2010PropOp50
 70
     1
102
RTVSPost2010Prop51ColorIndex
 90
      256
102
RTVSPost2010Prop51ColorRGB
 90
-16777216
102
RTVSPost2010PropOp51
 70
     0
102
RTVSPost2010Prop52
140
1.0
102
RTVSPost2010PropOp52
 70
     0
102
RTVSPost2010Prop53
 90
        2
102
RTVSPost2010PropOp53
 70
     1
102
RTVSPost2010Prop54
  1
strokes_ogs.tif
102
RTVSPost2010PropOp54
 70
     1
102
RTVSPost2010Prop55
280
     0
102
RTVSPost2010PropOp55
 70
     1
102
RTVSPost2010Prop56
140
1.0
102
RTVSPost2010PropOp56
 70
     1
102
RTVSPost2010Prop57
140
1.0
102
RTVSPost2010PropOp57
 70
     1
102
RTVSPropertyOp0
 70
     1
102
RTVSPropertyOp1
 70
     1
102
RTVSPropertyOp2
 70
     1
102
RTVSPropertyOp3
 70
     1
102
RTVSPropertyOp4
 70
     1
102
RTVSPropertyOp5
 70
     1
102
RTVSPropertyOp6
 70
     1
102
RTVSPropertyOp7
 70
     1
102
RTVSPropertyOp8
 70
     1
102
RTVSPropertyOp9
 70
     1
102
RTVSPropertyOp10
 70
     1
102
RTVSPropertyOp11
 70
     1
102
RTVSPropertyOp12
 70
     1
102
RTVSPropertyOp13
 70
     1
102
RTVSPropertyOp14
 70
     1
102
RTVSPropertyOp15
 70
     1
102
RTVSPropertyOp16
 70
     1
102
RTVSPropertyOp17
 70
     1
102
RTVSPropertyOp18
 70
     1
102
RTVSPropertyOp19
 70
     1
102
RTVSPropertyOp20
 70
     1
102
RTVSPropertyOp21
 70
     1
102
RTVSPropertyOp22
 70
     1
102
RTVSPropertyOp23
 70
     1
102
RTVSPropertyOp24
 70
     1
102
RTVSPropertyOp25
 70
     1
102
RTVSPropertyOp26
 70
     1
102
RTVSPropertyOp27
 70
     1
102
RTVSPropertyOp28
 70
     1
102
RTVSPropertyOp29
 70
     1
102
RTVSPropertyOp30
 70
     1
102
RTVSPropertyOp31
 70
     1
102
RTVSPropertyOp32
 70
     1
102
RTVSPropertyOp33
 70
     1
102
RTVSPropertyOp34
 70
     1
102
RTVSPropertyOp35
 70
     1
102
RTVSPropertyOp36
 70
     1
102
RTVSPropertyOp37
 70
     1
102
RTVSPropertyOp38
 70
     1
102
RTVSPropertyOp39
 70
     1
102
RTVSPropertyOp40
 70
     1
102
RTVSPropertyOp41
 70
     1
102
RTVSPropertyOp42
 70
     1
102
RTVSPropertyOp43
 70
     1
102
RTVSPropertyOp44
 70
     1
102
RTVSPropertyOp45
 70
     1
102
RTVSPropertyOp46
 70
     1
102
RTVSPropertyOp47
 70
     1
102
RTVSPropertyOp48
 70
     1
102
RTVSPropertyOp49
 70
     1
102
RTVSPropertyOp50
 70
     1
102
RTVSPropertyOp51
 70
     0
102
RTVSPropertyOp52
 70
     0
102
RTVSPropertyOp53
 70
     1
102
RTVSPropertyOp54
 70
     1
102
RTVSPropertyOp55
 70
     1
102
RTVSPropertyOp56
 70
     1
102
RTVSPropertyOp57
 70
     1
102
RTVSPropertyOp58
 70
     1
102
RTVSPropertyOp59
 70
     1
102
RTVSPropertyOp60
 70
     1
102
RTVSPropertyOp61
 70
     1
102
RTVSPropertyOp62
 70
     1
  0
XRECORD
  5
1AC4D
102
{ACAD_REACTORS
330
1AC4C
102
}
330
1AC4C
100
AcDbXrecord
280
     1
102
RTVSPost2010Prop28
280
     0
102
RTVSPost2010PropOp28
 70
     1
102
RTVSPost2010Prop29
280
     1
102
RTVSPost2010PropOp29
 70
     1
102
RTVSPost2010Prop30
280
     1
102
RTVSPost2010PropOp30
 70
     1
102
RTVSPost2010Prop31
280
     0
102
RTVSPost2010PropOp31
 70
     1
102
RTVSPost2010Prop32
280
     0
102
RTVSPost2010PropOp32
 70
     1
102
RTVSPost2010Prop33
280
     0
102
RTVSPost2010PropOp33
 70
     1
102
RTVSPost2010Prop34
280
     0
102
RTVSPost2010PropOp34
 70
     1
102
RTVSPost2010Prop35
280
     0
102
RTVSPost2010PropOp35
 70
     1
102
RTVSPost2010Prop36
280
     0
102
RTVSPost2010PropOp36
 70
     1
102
RTVSPost2010Prop37
 90
       50
102
RTVSPost2010PropOp37
 70
     1
102
RTVSPost2010Prop38
140
0.0
102
RTVSPost2010PropOp38
 70
     1
102
RTVSPost2010Prop39
140
1.0
102
RTVSPost2010PropOp39
 70
     1
102
RTVSPost2010Prop40
 90
        0
102
RTVSPost2010PropOp40
 70
     1
102
RTVSPost2010Prop41ColorIndex
 90
       18
102
RTVSPost2010Prop41ColorRGB
 90
        0
102
RTVSPost2010PropOp41
 70
     1
102
RTVSPost2010Prop42
 90
       50
102
RTVSPost2010PropOp42
 70
     1
102
RTVSPost2010Prop43
 90
        3
102
RTVSPost2010PropOp43
 70
     1
102
RTVSPost2010Prop44ColorIndex
 90
        5
102
RTVSPost2010Prop44ColorRGB
 90
      255
102
RTVSPost2010PropOp44
 70
     1
102
RTVSPost2010Prop45
280
     0
102
RTVSPost2010PropOp45
 70
     1
102
RTVSPost2010Prop46
 90
       50
102
RTVSPost2010PropOp46
 70
     1
102
RTVSPost2010Prop47
 90
       50
102
RTVSPost2010PropOp47
 70
     1
102
RTVSPost2010Prop48
 90
       50
102
RTVSPost2010PropOp48
 70
     1
102
RTVSPost2010Prop49
280
     0
102
RTVSPost2010PropOp49
 70
     1
102
RTVSPost2010Prop50
 90
       50
102
RTVSPost2010PropOp50
 70
     1
102
RTVSPost2010Prop51ColorIndex
 90
      256
102
RTVSPost2010Prop51ColorRGB
 90
-16777216
102
RTVSPost2010PropOp51
 70
     0
102
RTVSPost2010Prop52
140
1.0
102
RTVSPost2010PropOp52
 70
     0
102
RTVSPost2010Prop53
 90
        2
102
RTVSPost2010PropOp53
 70
     1
102
RTVSPost2010Prop54
  1
strokes_ogs.tif
102
RTVSPost2010PropOp54
 70
     1
102
RTVSPost2010Prop55
280
     0
102
RTVSPost2010PropOp55
 70
     1
102
RTVSPost2010Prop56
140
1.0
102
RTVSPost2010PropOp56
 70
     1
102
RTVSPost2010Prop57
140
1.0
102
RTVSPost2010PropOp57
 70
     1
102
RTVSPropertyOp0
 70
     1
102
RTVSPropertyOp1
 70
     1
102
RTVSPropertyOp2
 70
     1
102
RTVSPropertyOp3
 70
     1
102
RTVSPropertyOp4
 70
     1
102
RTVSPropertyOp5
 70
     1
102
RTVSPropertyOp6
 70
     1
102
RTVSPropertyOp7
 70
     1
102
RTVSPropertyOp8
 70
     1
102
RTVSPropertyOp9
 70
     1
102
RTVSPropertyOp10
 70
     1
102
RTVSPropertyOp11
 70
     1
102
RTVSPropertyOp12
 70
     1
102
RTVSPropertyOp13
 70
     1
102
RTVSPropertyOp14
 70
     1
102
RTVSPropertyOp15
 70
     1
102
RTVSPropertyOp16
 70
     1
102
RTVSPropertyOp17
 70
     1
102
RTVSPropertyOp18
 70
     1
102
RTVSPropertyOp19
 70
     1
102
RTVSPropertyOp20
 70
     1
102
RTVSPropertyOp21
 70
     1
102
RTVSPropertyOp22
 70
     1
102
RTVSPropertyOp23
 70
     1
102
RTVSPropertyOp24
 70
     1
102
RTVSPropertyOp25
 70
     1
102
RTVSPropertyOp26
 70
     1
102
RTVSPropertyOp27
 70
     1
102
RTVSPropertyOp28
 70
     1
102
RTVSPropertyOp29
 70
     1
102
RTVSPropertyOp30
 70
     1
102
RTVSPropertyOp31
 70
     1
102
RTVSPropertyOp32
 70
     1
102
RTVSPropertyOp33
 70
     1
102
RTVSPropertyOp34
 70
     1
102
RTVSPropertyOp35
 70
     1
102
RTVSPropertyOp36
 70
     1
102
RTVSPropertyOp37
 70
     1
102
RTVSPropertyOp38
 70
     1
102
RTVSPropertyOp39
 70
     1
102
RTVSPropertyOp40
 70
     1
102
RTVSPropertyOp41
 70
     1
102
RTVSPropertyOp42
 70
     1
102
RTVSPropertyOp43
 70
     1
102
RTVSPropertyOp44
 70
     1
102
RTVSPropertyOp45
 70
     1
102
RTVSPropertyOp46
 70
     1
102
RTVSPropertyOp47
 70
     1
102
RTVSPropertyOp48
 70
     1
102
RTVSPropertyOp49
 70
     1
102
RTVSPropertyOp50
 70
     1
102
RTVSPropertyOp51
 70
     0
102
RTVSPropertyOp52
 70
     0
102
RTVSPropertyOp53
 70
     1
102
RTVSPropertyOp54
 70
     1
102
RTVSPropertyOp55
 70
     1
102
RTVSPropertyOp56
 70
     1
102
RTVSPropertyOp57
 70
     1
102
RTVSPropertyOp58
 70
     1
102
RTVSPropertyOp59
 70
     1
102
RTVSPropertyOp60
 70
     1
102
RTVSPropertyOp61
 70
     1
102
RTVSPropertyOp62
 70
     1
  0
XRECORD
  5
1AC5B
102
{ACAD_REACTORS
330
1AC5A
102
}
330
1AC5A
100
AcDbXrecord
280
     1
102
RTVSPost2010Prop28
280
     0
102
RTVSPost2010PropOp28
 70
     1
102
RTVSPost2010Prop29
280
     1
102
RTVSPost2010PropOp29
 70
     1
102
RTVSPost2010Prop30
280
     1
102
RTVSPost2010PropOp30
 70
     1
102
RTVSPost2010Prop31
280
     0
102
RTVSPost2010PropOp31
 70
     1
102
RTVSPost2010Prop32
280
     0
102
RTVSPost2010PropOp32
 70
     1
102
RTVSPost2010Prop33
280
     0
102
RTVSPost2010PropOp33
 70
     1
102
RTVSPost2010Prop34
280
     0
102
RTVSPost2010PropOp34
 70
     1
102
RTVSPost2010Prop35
280
     0
102
RTVSPost2010PropOp35
 70
     1
102
RTVSPost2010Prop36
280
     0
102
RTVSPost2010PropOp36
 70
     1
102
RTVSPost2010Prop37
 90
       50
102
RTVSPost2010PropOp37
 70
     1
102
RTVSPost2010Prop38
140
0.0
102
RTVSPost2010PropOp38
 70
     1
102
RTVSPost2010Prop39
140
1.0
102
RTVSPost2010PropOp39
 70
     1
102
RTVSPost2010Prop40
 90
        0
102
RTVSPost2010PropOp40
 70
     1
102
RTVSPost2010Prop41ColorIndex
 90
       18
102
RTVSPost2010Prop41ColorRGB
 90
        0
102
RTVSPost2010PropOp41
 70
     1
102
RTVSPost2010Prop42
 90
       50
102
RTVSPost2010PropOp42
 70
     1
102
RTVSPost2010Prop43
 90
        3
102
RTVSPost2010PropOp43
 70
     1
102
RTVSPost2010Prop44ColorIndex
 90
        5
102
RTVSPost2010Prop44ColorRGB
 90
      255
102
RTVSPost2010PropOp44
 70
     1
102
RTVSPost2010Prop45
280
     0
102
RTVSPost2010PropOp45
 70
     1
102
RTVSPost2010Prop46
 90
       50
102
RTVSPost2010PropOp46
 70
     1
102
RTVSPost2010Prop47
 90
       50
102
RTVSPost2010PropOp47
 70
     1
102
RTVSPost2010Prop48
 90
       50
102
RTVSPost2010PropOp48
 70
     1
102
RTVSPost2010Prop49
280
     0
102
RTVSPost2010PropOp49
 70
     1
102
RTVSPost2010Prop50
 90
       50
102
RTVSPost2010PropOp50
 70
     1
102
RTVSPost2010Prop51ColorIndex
 90
      256
102
RTVSPost2010Prop51ColorRGB
 90
-16777216
102
RTVSPost2010PropOp51
 70
     0
102
RTVSPost2010Prop52
140
1.0
102
RTVSPost2010PropOp52
 70
     0
102
RTVSPost2010Prop53
 90
        2
102
RTVSPost2010PropOp53
 70
     1
102
RTVSPost2010Prop54
  1
strokes_ogs.tif
102
RTVSPost2010PropOp54
 70
     1
102
RTVSPost2010Prop55
280
     0
102
RTVSPost2010PropOp55
 70
     1
102
RTVSPost2010Prop56
140
1.0
102
RTVSPost2010PropOp56
 70
     1
102
RTVSPost2010Prop57
140
1.0
102
RTVSPost2010PropOp57
 70
     1
102
RTVSPropertyOp0
 70
     1
102
RTVSPropertyOp1
 70
     1
102
RTVSPropertyOp2
 70
     1
102
RTVSPropertyOp3
 70
     1
102
RTVSPropertyOp4
 70
     1
102
RTVSPropertyOp5
 70
     1
102
RTVSPropertyOp6
 70
     1
102
RTVSPropertyOp7
 70
     1
102
RTVSPropertyOp8
 70
     1
102
RTVSPropertyOp9
 70
     1
102
RTVSPropertyOp10
 70
     1
102
RTVSPropertyOp11
 70
     1
102
RTVSPropertyOp12
 70
     1
102
RTVSPropertyOp13
 70
     1
102
RTVSPropertyOp14
 70
     1
102
RTVSPropertyOp15
 70
     1
102
RTVSPropertyOp16
 70
     1
102
RTVSPropertyOp17
 70
     1
102
RTVSPropertyOp18
 70
     1
102
RTVSPropertyOp19
 70
     1
102
RTVSPropertyOp20
 70
     1
102
RTVSPropertyOp21
 70
     1
102
RTVSPropertyOp22
 70
     1
102
RTVSPropertyOp23
 70
     1
102
RTVSPropertyOp24
 70
     1
102
RTVSPropertyOp25
 70
     1
102
RTVSPropertyOp26
 70
     1
102
RTVSPropertyOp27
 70
     1
102
RTVSPropertyOp28
 70
     1
102
RTVSPropertyOp29
 70
     1
102
RTVSPropertyOp30
 70
     1
102
RTVSPropertyOp31
 70
     1
102
RTVSPropertyOp32
 70
     1
102
RTVSPropertyOp33
 70
     1
102
RTVSPropertyOp34
 70
     1
102
RTVSPropertyOp35
 70
     1
102
RTVSPropertyOp36
 70
     1
102
RTVSPropertyOp37
 70
     1
102
RTVSPropertyOp38
 70
     1
102
RTVSPropertyOp39
 70
     1
102
RTVSPropertyOp40
 70
     1
102
RTVSPropertyOp41
 70
     1
102
RTVSPropertyOp42
 70
     1
102
RTVSPropertyOp43
 70
     1
102
RTVSPropertyOp44
 70
     1
102
RTVSPropertyOp45
 70
     1
102
RTVSPropertyOp46
 70
     1
102
RTVSPropertyOp47
 70
     1
102
RTVSPropertyOp48
 70
     1
102
RTVSPropertyOp49
 70
     1
102
RTVSPropertyOp50
 70
     1
102
RTVSPropertyOp51
 70
     0
102
RTVSPropertyOp52
 70
     0
102
RTVSPropertyOp53
 70
     1
102
RTVSPropertyOp54
 70
     1
102
RTVSPropertyOp55
 70
     1
102
RTVSPropertyOp56
 70
     1
102
RTVSPropertyOp57
 70
     1
102
RTVSPropertyOp58
 70
     1
102
RTVSPropertyOp59
 70
     1
102
RTVSPropertyOp60
 70
     1
102
RTVSPropertyOp61
 70
     1
102
RTVSPropertyOp62
 70
     1
  0
XRECORD
  5
1AC63
102
{ACAD_REACTORS
330
1AC62
102
}
330
1AC62
100
AcDbXrecord
280
     1
102
RTVSPost2010Prop28
280
     0
102
RTVSPost2010PropOp28
 70
     1
102
RTVSPost2010Prop29
280
     1
102
RTVSPost2010PropOp29
 70
     1
102
RTVSPost2010Prop30
280
     1
102
RTVSPost2010PropOp30
 70
     1
102
RTVSPost2010Prop31
280
     0
102
RTVSPost2010PropOp31
 70
     1
102
RTVSPost2010Prop32
280
     0
102
RTVSPost2010PropOp32
 70
     1
102
RTVSPost2010Prop33
280
     0
102
RTVSPost2010PropOp33
 70
     1
102
RTVSPost2010Prop34
280
     0
102
RTVSPost2010PropOp34
 70
     1
102
RTVSPost2010Prop35
280
     0
102
RTVSPost2010PropOp35
 70
     1
102
RTVSPost2010Prop36
280
     0
102
RTVSPost2010PropOp36
 70
     1
102
RTVSPost2010Prop37
 90
       50
102
RTVSPost2010PropOp37
 70
     1
102
RTVSPost2010Prop38
140
0.0
102
RTVSPost2010PropOp38
 70
     1
102
RTVSPost2010Prop39
140
1.0
102
RTVSPost2010PropOp39
 70
     1
102
RTVSPost2010Prop40
 90
        0
102
RTVSPost2010PropOp40
 70
     1
102
RTVSPost2010Prop41ColorIndex
 90
       18
102
RTVSPost2010Prop41ColorRGB
 90
        0
102
RTVSPost2010PropOp41
 70
     1
102
RTVSPost2010Prop42
 90
       50
102
RTVSPost2010PropOp42
 70
     1
102
RTVSPost2010Prop43
 90
        3
102
RTVSPost2010PropOp43
 70
     1
102
RTVSPost2010Prop44ColorIndex
 90
        5
102
RTVSPost2010Prop44ColorRGB
 90
      255
102
RTVSPost2010PropOp44
 70
     1
102
RTVSPost2010Prop45
280
     0
102
RTVSPost2010PropOp45
 70
     1
102
RTVSPost2010Prop46
 90
       50
102
RTVSPost2010PropOp46
 70
     1
102
RTVSPost2010Prop47
 90
       50
102
RTVSPost2010PropOp47
 70
     1
102
RTVSPost2010Prop48
 90
       50
102
RTVSPost2010PropOp48
 70
     1
102
RTVSPost2010Prop49
280
     0
102
RTVSPost2010PropOp49
 70
     1
102
RTVSPost2010Prop50
 90
       50
102
RTVSPost2010PropOp50
 70
     1
102
RTVSPost2010Prop51ColorIndex
 90
      256
102
RTVSPost2010Prop51ColorRGB
 90
-16777216
102
RTVSPost2010PropOp51
 70
     0
102
RTVSPost2010Prop52
140
1.0
102
RTVSPost2010PropOp52
 70
     0
102
RTVSPost2010Prop53
 90
        2
102
RTVSPost2010PropOp53
 70
     1
102
RTVSPost2010Prop54
  1
strokes_ogs.tif
102
RTVSPost2010PropOp54
 70
     1
102
RTVSPost2010Prop55
280
     0
102
RTVSPost2010PropOp55
 70
     1
102
RTVSPost2010Prop56
140
1.0
102
RTVSPost2010PropOp56
 70
     1
102
RTVSPost2010Prop57
140
1.0
102
RTVSPost2010PropOp57
 70
     1
102
RTVSPropertyOp0
 70
     1
102
RTVSPropertyOp1
 70
     1
102
RTVSPropertyOp2
 70
     1
102
RTVSPropertyOp3
 70
     1
102
RTVSPropertyOp4
 70
     1
102
RTVSPropertyOp5
 70
     1
102
RTVSPropertyOp6
 70
     1
102
RTVSPropertyOp7
 70
     1
102
RTVSPropertyOp8
 70
     1
102
RTVSPropertyOp9
 70
     1
102
RTVSPropertyOp10
 70
     1
102
RTVSPropertyOp11
 70
     1
102
RTVSPropertyOp12
 70
     1
102
RTVSPropertyOp13
 70
     1
102
RTVSPropertyOp14
 70
     1
102
RTVSPropertyOp15
 70
     1
102
RTVSPropertyOp16
 70
     1
102
RTVSPropertyOp17
 70
     1
102
RTVSPropertyOp18
 70
     1
102
RTVSPropertyOp19
 70
     1
102
RTVSPropertyOp20
 70
     1
102
RTVSPropertyOp21
 70
     1
102
RTVSPropertyOp22
 70
     1
102
RTVSPropertyOp23
 70
     1
102
RTVSPropertyOp24
 70
     1
102
RTVSPropertyOp25
 70
     1
102
RTVSPropertyOp26
 70
     1
102
RTVSPropertyOp27
 70
     1
102
RTVSPropertyOp28
 70
     1
102
RTVSPropertyOp29
 70
     1
102
RTVSPropertyOp30
 70
     1
102
RTVSPropertyOp31
 70
     1
102
RTVSPropertyOp32
 70
     1
102
RTVSPropertyOp33
 70
     1
102
RTVSPropertyOp34
 70
     1
102
RTVSPropertyOp35
 70
     1
102
RTVSPropertyOp36
 70
     1
102
RTVSPropertyOp37
 70
     1
102
RTVSPropertyOp38
 70
     1
102
RTVSPropertyOp39
 70
     1
102
RTVSPropertyOp40
 70
     1
102
RTVSPropertyOp41
 70
     1
102
RTVSPropertyOp42
 70
     1
102
RTVSPropertyOp43
 70
     1
102
RTVSPropertyOp44
 70
     1
102
RTVSPropertyOp45
 70
     1
102
RTVSPropertyOp46
 70
     1
102
RTVSPropertyOp47
 70
     1
102
RTVSPropertyOp48
 70
     1
102
RTVSPropertyOp49
 70
     1
102
RTVSPropertyOp50
 70
     1
102
RTVSPropertyOp51
 70
     0
102
RTVSPropertyOp52
 70
     0
102
RTVSPropertyOp53
 70
     1
102
RTVSPropertyOp54
 70
     1
102
RTVSPropertyOp55
 70
     1
102
RTVSPropertyOp56
 70
     1
102
RTVSPropertyOp57
 70
     1
102
RTVSPropertyOp58
 70
     1
102
RTVSPropertyOp59
 70
     1
102
RTVSPropertyOp60
 70
     1
102
RTVSPropertyOp61
 70
     1
102
RTVSPropertyOp62
 70
     1
  0
XRECORD
  5
1AC55
102
{ACAD_REACTORS
330
1AC54
102
}
330
1AC54
100
AcDbXrecord
280
     1
102
RTVSPost2010Prop28
280
     0
102
RTVSPost2010PropOp28
 70
     1
102
RTVSPost2010Prop29
280
     1
102
RTVSPost2010PropOp29
 70
     1
102
RTVSPost2010Prop30
280
     1
102
RTVSPost2010PropOp30
 70
     1
102
RTVSPost2010Prop31
280
     0
102
RTVSPost2010PropOp31
 70
     1
102
RTVSPost2010Prop32
280
     0
102
RTVSPost2010PropOp32
 70
     1
102
RTVSPost2010Prop33
280
     0
102
RTVSPost2010PropOp33
 70
     1
102
RTVSPost2010Prop34
280
     0
102
RTVSPost2010PropOp34
 70
     1
102
RTVSPost2010Prop35
280
     0
102
RTVSPost2010PropOp35
 70
     1
102
RTVSPost2010Prop36
280
     0
102
RTVSPost2010PropOp36
 70
     1
102
RTVSPost2010Prop37
 90
       50
102
RTVSPost2010PropOp37
 70
     1
102
RTVSPost2010Prop38
140
0.0
102
RTVSPost2010PropOp38
 70
     1
102
RTVSPost2010Prop39
140
1.0
102
RTVSPost2010PropOp39
 70
     1
102
RTVSPost2010Prop40
 90
        0
102
RTVSPost2010PropOp40
 70
     1
102
RTVSPost2010Prop41ColorIndex
 90
       18
102
RTVSPost2010Prop41ColorRGB
 90
        0
102
RTVSPost2010PropOp41
 70
     1
102
RTVSPost2010Prop42
 90
       50
102
RTVSPost2010PropOp42
 70
     1
102
RTVSPost2010Prop43
 90
        3
102
RTVSPost2010PropOp43
 70
     1
102
RTVSPost2010Prop44ColorIndex
 90
        5
102
RTVSPost2010Prop44ColorRGB
 90
      255
102
RTVSPost2010PropOp44
 70
     1
102
RTVSPost2010Prop45
280
     0
102
RTVSPost2010PropOp45
 70
     1
102
RTVSPost2010Prop46
 90
       50
102
RTVSPost2010PropOp46
 70
     1
102
RTVSPost2010Prop47
 90
       50
102
RTVSPost2010PropOp47
 70
     1
102
RTVSPost2010Prop48
 90
       50
102
RTVSPost2010PropOp48
 70
     1
102
RTVSPost2010Prop49
280
     0
102
RTVSPost2010PropOp49
 70
     1
102
RTVSPost2010Prop50
 90
       50
102
RTVSPost2010PropOp50
 70
     1
102
RTVSPost2010Prop51ColorIndex
 90
      256
102
RTVSPost2010Prop51ColorRGB
 90
-16777216
102
RTVSPost2010PropOp51
 70
     0
102
RTVSPost2010Prop52
140
1.0
102
RTVSPost2010PropOp52
 70
     0
102
RTVSPost2010Prop53
 90
        2
102
RTVSPost2010PropOp53
 70
     1
102
RTVSPost2010Prop54
  1
strokes_ogs.tif
102
RTVSPost2010PropOp54
 70
     1
102
RTVSPost2010Prop55
280
     0
102
RTVSPost2010PropOp55
 70
     1
102
RTVSPost2010Prop56
140
1.0
102
RTVSPost2010PropOp56
 70
     1
102
RTVSPost2010Prop57
140
1.0
102
RTVSPost2010PropOp57
 70
     1
102
RTVSPropertyOp0
 70
     1
102
RTVSPropertyOp1
 70
     1
102
RTVSPropertyOp2
 70
     1
102
RTVSPropertyOp3
 70
     1
102
RTVSPropertyOp4
 70
     1
102
RTVSPropertyOp5
 70
     1
102
RTVSPropertyOp6
 70
     1
102
RTVSPropertyOp7
 70
     1
102
RTVSPropertyOp8
 70
     1
102
RTVSPropertyOp9
 70
     1
102
RTVSPropertyOp10
 70
     1
102
RTVSPropertyOp11
 70
     1
102
RTVSPropertyOp12
 70
     1
102
RTVSPropertyOp13
 70
     1
102
RTVSPropertyOp14
 70
     1
102
RTVSPropertyOp15
 70
     1
102
RTVSPropertyOp16
 70
     1
102
RTVSPropertyOp17
 70
     1
102
RTVSPropertyOp18
 70
     1
102
RTVSPropertyOp19
 70
     1
102
RTVSPropertyOp20
 70
     1
102
RTVSPropertyOp21
 70
     1
102
RTVSPropertyOp22
 70
     1
102
RTVSPropertyOp23
 70
     1
102
RTVSPropertyOp24
 70
     1
102
RTVSPropertyOp25
 70
     1
102
RTVSPropertyOp26
 70
     1
102
RTVSPropertyOp27
 70
     1
102
RTVSPropertyOp28
 70
     1
102
RTVSPropertyOp29
 70
     1
102
RTVSPropertyOp30
 70
     1
102
RTVSPropertyOp31
 70
     1
102
RTVSPropertyOp32
 70
     1
102
RTVSPropertyOp33
 70
     1
102
RTVSPropertyOp34
 70
     1
102
RTVSPropertyOp35
 70
     1
102
RTVSPropertyOp36
 70
     1
102
RTVSPropertyOp37
 70
     1
102
RTVSPropertyOp38
 70
     1
102
RTVSPropertyOp39
 70
     1
102
RTVSPropertyOp40
 70
     1
102
RTVSPropertyOp41
 70
     1
102
RTVSPropertyOp42
 70
     1
102
RTVSPropertyOp43
 70
     1
102
RTVSPropertyOp44
 70
     1
102
RTVSPropertyOp45
 70
     1
102
RTVSPropertyOp46
 70
     1
102
RTVSPropertyOp47
 70
     1
102
RTVSPropertyOp48
 70
     1
102
RTVSPropertyOp49
 70
     1
102
RTVSPropertyOp50
 70
     1
102
RTVSPropertyOp51
 70
     0
102
RTVSPropertyOp52
 70
     0
102
RTVSPropertyOp53
 70
     1
102
RTVSPropertyOp54
 70
     1
102
RTVSPropertyOp55
 70
     1
102
RTVSPropertyOp56
 70
     1
102
RTVSPropertyOp57
 70
     1
102
RTVSPropertyOp58
 70
     1
102
RTVSPropertyOp59
 70
     1
102
RTVSPropertyOp60
 70
     1
102
RTVSPropertyOp61
 70
     1
102
RTVSPropertyOp62
 70
     1
  0
XRECORD
  5
1AC59
102
{ACAD_REACTORS
330
1AC58
102
}
330
1AC58
100
AcDbXrecord
280
     1
102
RTVSPost2010Prop28
280
     0
102
RTVSPost2010PropOp28
 70
     1
102
RTVSPost2010Prop29
280
     1
102
RTVSPost2010PropOp29
 70
     1
102
RTVSPost2010Prop30
280
     1
102
RTVSPost2010PropOp30
 70
     1
102
RTVSPost2010Prop31
280
     0
102
RTVSPost2010PropOp31
 70
     1
102
RTVSPost2010Prop32
280
     0
102
RTVSPost2010PropOp32
 70
     1
102
RTVSPost2010Prop33
280
     0
102
RTVSPost2010PropOp33
 70
     1
102
RTVSPost2010Prop34
280
     0
102
RTVSPost2010PropOp34
 70
     1
102
RTVSPost2010Prop35
280
     0
102
RTVSPost2010PropOp35
 70
     1
102
RTVSPost2010Prop36
280
     0
102
RTVSPost2010PropOp36
 70
     1
102
RTVSPost2010Prop37
 90
       50
102
RTVSPost2010PropOp37
 70
     1
102
RTVSPost2010Prop38
140
0.0
102
RTVSPost2010PropOp38
 70
     1
102
RTVSPost2010Prop39
140
1.0
102
RTVSPost2010PropOp39
 70
     1
102
RTVSPost2010Prop40
 90
        0
102
RTVSPost2010PropOp40
 70
     1
102
RTVSPost2010Prop41ColorIndex
 90
       18
102
RTVSPost2010Prop41ColorRGB
 90
        0
102
RTVSPost2010PropOp41
 70
     1
102
RTVSPost2010Prop42
 90
       50
102
RTVSPost2010PropOp42
 70
     1
102
RTVSPost2010Prop43
 90
        3
102
RTVSPost2010PropOp43
 70
     1
102
RTVSPost2010Prop44ColorIndex
 90
        5
102
RTVSPost2010Prop44ColorRGB
 90
      255
102
RTVSPost2010PropOp44
 70
     1
102
RTVSPost2010Prop45
280
     0
102
RTVSPost2010PropOp45
 70
     1
102
RTVSPost2010Prop46
 90
       50
102
RTVSPost2010PropOp46
 70
     1
102
RTVSPost2010Prop47
 90
       50
102
RTVSPost2010PropOp47
 70
     1
102
RTVSPost2010Prop48
 90
       50
102
RTVSPost2010PropOp48
 70
     1
102
RTVSPost2010Prop49
280
     0
102
RTVSPost2010PropOp49
 70
     1
102
RTVSPost2010Prop50
 90
       50
102
RTVSPost2010PropOp50
 70
     1
102
RTVSPost2010Prop51ColorIndex
 90
      256
102
RTVSPost2010Prop51ColorRGB
 90
-16777216
102
RTVSPost2010PropOp51
 70
     0
102
RTVSPost2010Prop52
140
1.0
102
RTVSPost2010PropOp52
 70
     0
102
RTVSPost2010Prop53
 90
        2
102
RTVSPost2010PropOp53
 70
     1
102
RTVSPost2010Prop54
  1
strokes_ogs.tif
102
RTVSPost2010PropOp54
 70
     1
102
RTVSPost2010Prop55
280
     0
102
RTVSPost2010PropOp55
 70
     1
102
RTVSPost2010Prop56
140
1.0
102
RTVSPost2010PropOp56
 70
     1
102
RTVSPost2010Prop57
140
1.0
102
RTVSPost2010PropOp57
 70
     1
102
RTVSPropertyOp0
 70
     1
102
RTVSPropertyOp1
 70
     1
102
RTVSPropertyOp2
 70
     1
102
RTVSPropertyOp3
 70
     1
102
RTVSPropertyOp4
 70
     1
102
RTVSPropertyOp5
 70
     1
102
RTVSPropertyOp6
 70
     1
102
RTVSPropertyOp7
 70
     1
102
RTVSPropertyOp8
 70
     1
102
RTVSPropertyOp9
 70
     1
102
RTVSPropertyOp10
 70
     1
102
RTVSPropertyOp11
 70
     1
102
RTVSPropertyOp12
 70
     1
102
RTVSPropertyOp13
 70
     1
102
RTVSPropertyOp14
 70
     1
102
RTVSPropertyOp15
 70
     1
102
RTVSPropertyOp16
 70
     1
102
RTVSPropertyOp17
 70
     1
102
RTVSPropertyOp18
 70
     1
102
RTVSPropertyOp19
 70
     1
102
RTVSPropertyOp20
 70
     1
102
RTVSPropertyOp21
 70
     1
102
RTVSPropertyOp22
 70
     1
102
RTVSPropertyOp23
 70
     1
102
RTVSPropertyOp24
 70
     1
102
RTVSPropertyOp25
 70
     1
102
RTVSPropertyOp26
 70
     1
102
RTVSPropertyOp27
 70
     1
102
RTVSPropertyOp28
 70
     1
102
RTVSPropertyOp29
 70
     1
102
RTVSPropertyOp30
 70
     1
102
RTVSPropertyOp31
 70
     1
102
RTVSPropertyOp32
 70
     1
102
RTVSPropertyOp33
 70
     1
102
RTVSPropertyOp34
 70
     1
102
RTVSPropertyOp35
 70
     1
102
RTVSPropertyOp36
 70
     1
102
RTVSPropertyOp37
 70
     1
102
RTVSPropertyOp38
 70
     1
102
RTVSPropertyOp39
 70
     1
102
RTVSPropertyOp40
 70
     1
102
RTVSPropertyOp41
 70
     1
102
RTVSPropertyOp42
 70
     1
102
RTVSPropertyOp43
 70
     1
102
RTVSPropertyOp44
 70
     1
102
RTVSPropertyOp45
 70
     1
102
RTVSPropertyOp46
 70
     1
102
RTVSPropertyOp47
 70
     1
102
RTVSPropertyOp48
 70
     1
102
RTVSPropertyOp49
 70
     1
102
RTVSPropertyOp50
 70
     1
102
RTVSPropertyOp51
 70
     0
102
RTVSPropertyOp52
 70
     0
102
RTVSPropertyOp53
 70
     1
102
RTVSPropertyOp54
 70
     1
102
RTVSPropertyOp55
 70
     1
102
RTVSPropertyOp56
 70
     1
102
RTVSPropertyOp57
 70
     1
102
RTVSPropertyOp58
 70
     1
102
RTVSPropertyOp59
 70
     1
102
RTVSPropertyOp60
 70
     1
102
RTVSPropertyOp61
 70
     1
102
RTVSPropertyOp62
 70
     1
  0
XRECORD
  5
1AC73
102
{ACAD_REACTORS
330
1AC72
102
}
330
1AC72
100
AcDbXrecord
280
     1
102
RTVSPost2010Prop28
280
     0
102
RTVSPost2010PropOp28
 70
     1
102
RTVSPost2010Prop29
280
     1
102
RTVSPost2010PropOp29
 70
     1
102
RTVSPost2010Prop30
280
     1
102
RTVSPost2010PropOp30
 70
     1
102
RTVSPost2010Prop31
280
     0
102
RTVSPost2010PropOp31
 70
     1
102
RTVSPost2010Prop32
280
     0
102
RTVSPost2010PropOp32
 70
     1
102
RTVSPost2010Prop33
280
     0
102
RTVSPost2010PropOp33
 70
     1
102
RTVSPost2010Prop34
280
     0
102
RTVSPost2010PropOp34
 70
     1
102
RTVSPost2010Prop35
280
     0
102
RTVSPost2010PropOp35
 70
     1
102
RTVSPost2010Prop36
280
     0
102
RTVSPost2010PropOp36
 70
     1
102
RTVSPost2010Prop37
 90
       50
102
RTVSPost2010PropOp37
 70
     0
102
RTVSPost2010Prop38
140
0.0
102
RTVSPost2010PropOp38
 70
     0
102
RTVSPost2010Prop39
140
1.0
102
RTVSPost2010PropOp39
 70
     0
102
RTVSPost2010Prop40
 90
        0
102
RTVSPost2010PropOp40
 70
     0
102
RTVSPost2010Prop41ColorIndex
 90
       18
102
RTVSPost2010Prop41ColorRGB
 90
        0
102
RTVSPost2010PropOp41
 70
     0
102
RTVSPost2010Prop42
 90
       50
102
RTVSPost2010PropOp42
 70
     0
102
RTVSPost2010Prop43
 90
        3
102
RTVSPost2010PropOp43
 70
     0
102
RTVSPost2010Prop44ColorIndex
 90
        5
102
RTVSPost2010Prop44ColorRGB
 90
      255
102
RTVSPost2010PropOp44
 70
     0
102
RTVSPost2010Prop45
280
     0
102
RTVSPost2010PropOp45
 70
     1
102
RTVSPost2010Prop46
 90
       50
102
RTVSPost2010PropOp46
 70
     0
102
RTVSPost2010Prop47
 90
       50
102
RTVSPost2010PropOp47
 70
     0
102
RTVSPost2010Prop48
 90
       50
102
RTVSPost2010PropOp48
 70
     0
102
RTVSPost2010Prop49
280
     0
102
RTVSPost2010PropOp49
 70
     1
102
RTVSPost2010Prop50
 90
       50
102
RTVSPost2010PropOp50
 70
     0
102
RTVSPost2010Prop51ColorIndex
 90
      256
102
RTVSPost2010Prop51ColorRGB
 90
-16777216
102
RTVSPost2010PropOp51
 70
     0
102
RTVSPost2010Prop52
140
1.0
102
RTVSPost2010PropOp52
 70
     0
102
RTVSPost2010Prop53
 90
        2
102
RTVSPost2010PropOp53
 70
     0
102
RTVSPost2010Prop54
  1
strokes_ogs.tif
102
RTVSPost2010PropOp54
 70
     0
102
RTVSPost2010Prop55
280
     0
102
RTVSPost2010PropOp55
 70
     1
102
RTVSPost2010Prop56
140
1.0
102
RTVSPost2010PropOp56
 70
     0
102
RTVSPost2010Prop57
140
1.0
102
RTVSPost2010PropOp57
 70
     0
102
RTVSPropertyOp0
 70
     0
102
RTVSPropertyOp1
 70
     0
102
RTVSPropertyOp2
 70
     0
102
RTVSPropertyOp3
 70
     0
102
RTVSPropertyOp4
 70
     0
102
RTVSPropertyOp5
 70
     0
102
RTVSPropertyOp6
 70
     0
102
RTVSPropertyOp7
 70
     0
102
RTVSPropertyOp8
 70
     0
102
RTVSPropertyOp9
 70
     0
102
RTVSPropertyOp10
 70
     0
102
RTVSPropertyOp11
 70
     0
102
RTVSPropertyOp12
 70
     0
102
RTVSPropertyOp13
 70
     0
102
RTVSPropertyOp14
 70
     2
102
RTVSPropertyOp15
 70
     0
102
RTVSPropertyOp16
 70
     0
102
RTVSPropertyOp17
 70
     0
102
RTVSPropertyOp18
 70
     0
102
RTVSPropertyOp19
 70
     0
102
RTVSPropertyOp20
 70
     0
102
RTVSPropertyOp21
 70
     0
102
RTVSPropertyOp22
 70
     0
102
RTVSPropertyOp23
 70
     0
102
RTVSPropertyOp24
 70
     0
102
RTVSPropertyOp25
 70
     0
102
RTVSPropertyOp26
 70
     0
102
RTVSPropertyOp27
 70
     0
102
RTVSPropertyOp28
 70
     1
102
RTVSPropertyOp29
 70
     1
102
RTVSPropertyOp30
 70
     1
102
RTVSPropertyOp31
 70
     1
102
RTVSPropertyOp32
 70
     1
102
RTVSPropertyOp33
 70
     1
102
RTVSPropertyOp34
 70
     1
102
RTVSPropertyOp35
 70
     1
102
RTVSPropertyOp36
 70
     1
102
RTVSPropertyOp37
 70
     0
102
RTVSPropertyOp38
 70
     0
102
RTVSPropertyOp39
 70
     0
102
RTVSPropertyOp40
 70
     0
102
RTVSPropertyOp41
 70
     0
102
RTVSPropertyOp42
 70
     0
102
RTVSPropertyOp43
 70
     0
102
RTVSPropertyOp44
 70
     0
102
RTVSPropertyOp45
 70
     1
102
RTVSPropertyOp46
 70
     0
102
RTVSPropertyOp47
 70
     0
102
RTVSPropertyOp48
 70
     0
102
RTVSPropertyOp49
 70
     1
102
RTVSPropertyOp50
 70
     0
102
RTVSPropertyOp51
 70
     0
102
RTVSPropertyOp52
 70
     0
102
RTVSPropertyOp53
 70
     0
102
RTVSPropertyOp54
 70
     0
102
RTVSPropertyOp55
 70
     1
102
RTVSPropertyOp56
 70
     0
102
RTVSPropertyOp57
 70
     0
102
RTVSPropertyOp58
 70
     0
102
RTVSPropertyOp59
 70
     0
102
RTVSPropertyOp60
 70
     0
102
RTVSPropertyOp61
 70
     0
102
RTVSPropertyOp62
 70
     0
  0
XRECORD
  5
1AC61
102
{ACAD_REACTORS
330
1AC60
102
}
330
1AC60
100
AcDbXrecord
280
     1
102
RTVSPost2010Prop28
280
     0
102
RTVSPost2010PropOp28
 70
     1
102
RTVSPost2010Prop29
280
     1
102
RTVSPost2010PropOp29
 70
     1
102
RTVSPost2010Prop30
280
     1
102
RTVSPost2010PropOp30
 70
     1
102
RTVSPost2010Prop31
280
     0
102
RTVSPost2010PropOp31
 70
     1
102
RTVSPost2010Prop32
280
     0
102
RTVSPost2010PropOp32
 70
     1
102
RTVSPost2010Prop33
280
     0
102
RTVSPost2010PropOp33
 70
     1
102
RTVSPost2010Prop34
280
     0
102
RTVSPost2010PropOp34
 70
     1
102
RTVSPost2010Prop35
280
     0
102
RTVSPost2010PropOp35
 70
     1
102
RTVSPost2010Prop36
280
     0
102
RTVSPost2010PropOp36
 70
     1
102
RTVSPost2010Prop37
 90
       50
102
RTVSPost2010PropOp37
 70
     1
102
RTVSPost2010Prop38
140
0.0
102
RTVSPost2010PropOp38
 70
     1
102
RTVSPost2010Prop39
140
1.0
102
RTVSPost2010PropOp39
 70
     1
102
RTVSPost2010Prop40
 90
        0
102
RTVSPost2010PropOp40
 70
     1
102
RTVSPost2010Prop41ColorIndex
 90
       18
102
RTVSPost2010Prop41ColorRGB
 90
        0
102
RTVSPost2010PropOp41
 70
     1
102
RTVSPost2010Prop42
 90
       50
102
RTVSPost2010PropOp42
 70
     1
102
RTVSPost2010Prop43
 90
        3
102
RTVSPost2010PropOp43
 70
     1
102
RTVSPost2010Prop44ColorIndex
 90
        5
102
RTVSPost2010Prop44ColorRGB
 90
      255
102
RTVSPost2010PropOp44
 70
     1
102
RTVSPost2010Prop45
280
     0
102
RTVSPost2010PropOp45
 70
     1
102
RTVSPost2010Prop46
 90
       50
102
RTVSPost2010PropOp46
 70
     1
102
RTVSPost2010Prop47
 90
       50
102
RTVSPost2010PropOp47
 70
     1
102
RTVSPost2010Prop48
 90
       50
102
RTVSPost2010PropOp48
 70
     1
102
RTVSPost2010Prop49
280
     0
102
RTVSPost2010PropOp49
 70
     1
102
RTVSPost2010Prop50
 90
       50
102
RTVSPost2010PropOp50
 70
     1
102
RTVSPost2010Prop51ColorIndex
 90
      256
102
RTVSPost2010Prop51ColorRGB
 90
-16777216
102
RTVSPost2010PropOp51
 70
     0
102
RTVSPost2010Prop52
140
1.0
102
RTVSPost2010PropOp52
 70
     0
102
RTVSPost2010Prop53
 90
        2
102
RTVSPost2010PropOp53
 70
     1
102
RTVSPost2010Prop54
  1
strokes_ogs.tif
102
RTVSPost2010PropOp54
 70
     1
102
RTVSPost2010Prop55
280
     0
102
RTVSPost2010PropOp55
 70
     1
102
RTVSPost2010Prop56
140
1.0
102
RTVSPost2010PropOp56
 70
     1
102
RTVSPost2010Prop57
140
1.0
102
RTVSPost2010PropOp57
 70
     1
102
RTVSPropertyOp0
 70
     1
102
RTVSPropertyOp1
 70
     1
102
RTVSPropertyOp2
 70
     1
102
RTVSPropertyOp3
 70
     1
102
RTVSPropertyOp4
 70
     1
102
RTVSPropertyOp5
 70
     1
102
RTVSPropertyOp6
 70
     1
102
RTVSPropertyOp7
 70
     1
102
RTVSPropertyOp8
 70
     1
102
RTVSPropertyOp9
 70
     1
102
RTVSPropertyOp10
 70
     1
102
RTVSPropertyOp11
 70
     1
102
RTVSPropertyOp12
 70
     1
102
RTVSPropertyOp13
 70
     1
102
RTVSPropertyOp14
 70
     1
102
RTVSPropertyOp15
 70
     1
102
RTVSPropertyOp16
 70
     1
102
RTVSPropertyOp17
 70
     1
102
RTVSPropertyOp18
 70
     1
102
RTVSPropertyOp19
 70
     1
102
RTVSPropertyOp20
 70
     1
102
RTVSPropertyOp21
 70
     1
102
RTVSPropertyOp22
 70
     1
102
RTVSPropertyOp23
 70
     1
102
RTVSPropertyOp24
 70
     1
102
RTVSPropertyOp25
 70
     1
102
RTVSPropertyOp26
 70
     1
102
RTVSPropertyOp27
 70
     1
102
RTVSPropertyOp28
 70
     1
102
RTVSPropertyOp29
 70
     1
102
RTVSPropertyOp30
 70
     1
102
RTVSPropertyOp31
 70
     1
102
RTVSPropertyOp32
 70
     1
102
RTVSPropertyOp33
 70
     1
102
RTVSPropertyOp34
 70
     1
102
RTVSPropertyOp35
 70
     1
102
RTVSPropertyOp36
 70
     1
102
RTVSPropertyOp37
 70
     1
102
RTVSPropertyOp38
 70
     1
102
RTVSPropertyOp39
 70
     1
102
RTVSPropertyOp40
 70
     1
102
RTVSPropertyOp41
 70
     1
102
RTVSPropertyOp42
 70
     1
102
RTVSPropertyOp43
 70
     1
102
RTVSPropertyOp44
 70
     1
102
RTVSPropertyOp45
 70
     1
102
RTVSPropertyOp46
 70
     1
102
RTVSPropertyOp47
 70
     1
102
RTVSPropertyOp48
 70
     1
102
RTVSPropertyOp49
 70
     1
102
RTVSPropertyOp50
 70
     1
102
RTVSPropertyOp51
 70
     0
102
RTVSPropertyOp52
 70
     0
102
RTVSPropertyOp53
 70
     1
102
RTVSPropertyOp54
 70
     1
102
RTVSPropertyOp55
 70
     1
102
RTVSPropertyOp56
 70
     1
102
RTVSPropertyOp57
 70
     1
102
RTVSPropertyOp58
 70
     1
102
RTVSPropertyOp59
 70
     1
102
RTVSPropertyOp60
 70
     1
102
RTVSPropertyOp61
 70
     1
102
RTVSPropertyOp62
 70
     1
  0
XRECORD
  5
1AC45
102
{ACAD_REACTORS
330
1AC44
102
}
330
1AC44
100
AcDbXrecord
280
     1
102
RTVSPost2010Prop28
280
     0
102
RTVSPost2010PropOp28
 70
     1
102
RTVSPost2010Prop29
280
     1
102
RTVSPost2010PropOp29
 70
     1
102
RTVSPost2010Prop30
280
     1
102
RTVSPost2010PropOp30
 70
     1
102
RTVSPost2010Prop31
280
     0
102
RTVSPost2010PropOp31
 70
     1
102
RTVSPost2010Prop32
280
     0
102
RTVSPost2010PropOp32
 70
     1
102
RTVSPost2010Prop33
280
     0
102
RTVSPost2010PropOp33
 70
     1
102
RTVSPost2010Prop34
280
     0
102
RTVSPost2010PropOp34
 70
     1
102
RTVSPost2010Prop35
280
     0
102
RTVSPost2010PropOp35
 70
     1
102
RTVSPost2010Prop36
280
     0
102
RTVSPost2010PropOp36
 70
     1
102
RTVSPost2010Prop37
 90
       50
102
RTVSPost2010PropOp37
 70
     1
102
RTVSPost2010Prop38
140
0.0
102
RTVSPost2010PropOp38
 70
     1
102
RTVSPost2010Prop39
140
1.0
102
RTVSPost2010PropOp39
 70
     1
102
RTVSPost2010Prop40
 90
        0
102
RTVSPost2010PropOp40
 70
     1
102
RTVSPost2010Prop41ColorIndex
 90
       18
102
RTVSPost2010Prop41ColorRGB
 90
        0
102
RTVSPost2010PropOp41
 70
     1
102
RTVSPost2010Prop42
 90
       50
102
RTVSPost2010PropOp42
 70
     1
102
RTVSPost2010Prop43
 90
        3
102
RTVSPost2010PropOp43
 70
     1
102
RTVSPost2010Prop44ColorIndex
 90
        5
102
RTVSPost2010Prop44ColorRGB
 90
      255
102
RTVSPost2010PropOp44
 70
     1
102
RTVSPost2010Prop45
280
     0
102
RTVSPost2010PropOp45
 70
     1
102
RTVSPost2010Prop46
 90
       50
102
RTVSPost2010PropOp46
 70
     1
102
RTVSPost2010Prop47
 90
       50
102
RTVSPost2010PropOp47
 70
     1
102
RTVSPost2010Prop48
 90
       50
102
RTVSPost2010PropOp48
 70
     1
102
RTVSPost2010Prop49
280
     0
102
RTVSPost2010PropOp49
 70
     1
102
RTVSPost2010Prop50
 90
       50
102
RTVSPost2010PropOp50
 70
     1
102
RTVSPost2010Prop51ColorIndex
 90
      256
102
RTVSPost2010Prop51ColorRGB
 90
-16777216
102
RTVSPost2010PropOp51
 70
     0
102
RTVSPost2010Prop52
140
1.0
102
RTVSPost2010PropOp52
 70
     0
102
RTVSPost2010Prop53
 90
        2
102
RTVSPost2010PropOp53
 70
     1
102
RTVSPost2010Prop54
  1
strokes_ogs.tif
102
RTVSPost2010PropOp54
 70
     1
102
RTVSPost2010Prop55
280
     0
102
RTVSPost2010PropOp55
 70
     1
102
RTVSPost2010Prop56
140
1.0
102
RTVSPost2010PropOp56
 70
     1
102
RTVSPost2010Prop57
140
1.0
102
RTVSPost2010PropOp57
 70
     1
102
RTVSPropertyOp0
 70
     1
102
RTVSPropertyOp1
 70
     1
102
RTVSPropertyOp2
 70
     1
102
RTVSPropertyOp3
 70
     1
102
RTVSPropertyOp4
 70
     1
102
RTVSPropertyOp5
 70
     1
102
RTVSPropertyOp6
 70
     1
102
RTVSPropertyOp7
 70
     1
102
RTVSPropertyOp8
 70
     1
102
RTVSPropertyOp9
 70
     1
102
RTVSPropertyOp10
 70
     1
102
RTVSPropertyOp11
 70
     1
102
RTVSPropertyOp12
 70
     1
102
RTVSPropertyOp13
 70
     1
102
RTVSPropertyOp14
 70
     1
102
RTVSPropertyOp15
 70
     1
102
RTVSPropertyOp16
 70
     1
102
RTVSPropertyOp17
 70
     1
102
RTVSPropertyOp18
 70
     1
102
RTVSPropertyOp19
 70
     1
102
RTVSPropertyOp20
 70
     1
102
RTVSPropertyOp21
 70
     1
102
RTVSPropertyOp22
 70
     1
102
RTVSPropertyOp23
 70
     1
102
RTVSPropertyOp24
 70
     1
102
RTVSPropertyOp25
 70
     1
102
RTVSPropertyOp26
 70
     1
102
RTVSPropertyOp27
 70
     1
102
RTVSPropertyOp28
 70
     1
102
RTVSPropertyOp29
 70
     1
102
RTVSPropertyOp30
 70
     1
102
RTVSPropertyOp31
 70
     1
102
RTVSPropertyOp32
 70
     1
102
RTVSPropertyOp33
 70
     1
102
RTVSPropertyOp34
 70
     1
102
RTVSPropertyOp35
 70
     1
102
RTVSPropertyOp36
 70
     1
102
RTVSPropertyOp37
 70
     1
102
RTVSPropertyOp38
 70
     1
102
RTVSPropertyOp39
 70
     1
102
RTVSPropertyOp40
 70
     1
102
RTVSPropertyOp41
 70
     1
102
RTVSPropertyOp42
 70
     1
102
RTVSPropertyOp43
 70
     1
102
RTVSPropertyOp44
 70
     1
102
RTVSPropertyOp45
 70
     1
102
RTVSPropertyOp46
 70
     1
102
RTVSPropertyOp47
 70
     1
102
RTVSPropertyOp48
 70
     1
102
RTVSPropertyOp49
 70
     1
102
RTVSPropertyOp50
 70
     1
102
RTVSPropertyOp51
 70
     0
102
RTVSPropertyOp52
 70
     0
102
RTVSPropertyOp53
 70
     1
102
RTVSPropertyOp54
 70
     1
102
RTVSPropertyOp55
 70
     1
102
RTVSPropertyOp56
 70
     1
102
RTVSPropertyOp57
 70
     1
102
RTVSPropertyOp58
 70
     1
102
RTVSPropertyOp59
 70
     1
102
RTVSPropertyOp60
 70
     1
102
RTVSPropertyOp61
 70
     1
102
RTVSPropertyOp62
 70
     1
  0
XRECORD
  5
1AC47
102
{ACAD_REACTORS
330
1AC46
102
}
330
1AC46
100
AcDbXrecord
280
     1
102
RTVSPost2010Prop28
280
     0
102
RTVSPost2010PropOp28
 70
     1
102
RTVSPost2010Prop29
280
     1
102
RTVSPost2010PropOp29
 70
     1
102
RTVSPost2010Prop30
280
     1
102
RTVSPost2010PropOp30
 70
     1
102
RTVSPost2010Prop31
280
     0
102
RTVSPost2010PropOp31
 70
     1
102
RTVSPost2010Prop32
280
     0
102
RTVSPost2010PropOp32
 70
     1
102
RTVSPost2010Prop33
280
     0
102
RTVSPost2010PropOp33
 70
     1
102
RTVSPost2010Prop34
280
     0
102
RTVSPost2010PropOp34
 70
     1
102
RTVSPost2010Prop35
280
     0
102
RTVSPost2010PropOp35
 70
     1
102
RTVSPost2010Prop36
280
     0
102
RTVSPost2010PropOp36
 70
     1
102
RTVSPost2010Prop37
 90
       50
102
RTVSPost2010PropOp37
 70
     1
102
RTVSPost2010Prop38
140
0.0
102
RTVSPost2010PropOp38
 70
     1
102
RTVSPost2010Prop39
140
1.0
102
RTVSPost2010PropOp39
 70
     1
102
RTVSPost2010Prop40
 90
        0
102
RTVSPost2010PropOp40
 70
     1
102
RTVSPost2010Prop41ColorIndex
 90
       18
102
RTVSPost2010Prop41ColorRGB
 90
        0
102
RTVSPost2010PropOp41
 70
     1
102
RTVSPost2010Prop42
 90
       50
102
RTVSPost2010PropOp42
 70
     1
102
RTVSPost2010Prop43
 90
        3
102
RTVSPost2010PropOp43
 70
     1
102
RTVSPost2010Prop44ColorIndex
 90
        5
102
RTVSPost2010Prop44ColorRGB
 90
      255
102
RTVSPost2010PropOp44
 70
     1
102
RTVSPost2010Prop45
280
     0
102
RTVSPost2010PropOp45
 70
     1
102
RTVSPost2010Prop46
 90
       50
102
RTVSPost2010PropOp46
 70
     1
102
RTVSPost2010Prop47
 90
       50
102
RTVSPost2010PropOp47
 70
     1
102
RTVSPost2010Prop48
 90
       50
102
RTVSPost2010PropOp48
 70
     1
102
RTVSPost2010Prop49
280
     0
102
RTVSPost2010PropOp49
 70
     1
102
RTVSPost2010Prop50
 90
       50
102
RTVSPost2010PropOp50
 70
     1
102
RTVSPost2010Prop51ColorIndex
 90
      256
102
RTVSPost2010Prop51ColorRGB
 90
-16777216
102
RTVSPost2010PropOp51
 70
     0
102
RTVSPost2010Prop52
140
1.0
102
RTVSPost2010PropOp52
 70
     0
102
RTVSPost2010Prop53
 90
        2
102
RTVSPost2010PropOp53
 70
     1
102
RTVSPost2010Prop54
  1
strokes_ogs.tif
102
RTVSPost2010PropOp54
 70
     1
102
RTVSPost2010Prop55
280
     0
102
RTVSPost2010PropOp55
 70
     1
102
RTVSPost2010Prop56
140
1.0
102
RTVSPost2010PropOp56
 70
     1
102
RTVSPost2010Prop57
140
1.0
102
RTVSPost2010PropOp57
 70
     1
102
RTVSPropertyOp0
 70
     1
102
RTVSPropertyOp1
 70
     1
102
RTVSPropertyOp2
 70
     1
102
RTVSPropertyOp3
 70
     1
102
RTVSPropertyOp4
 70
     1
102
RTVSPropertyOp5
 70
     1
102
RTVSPropertyOp6
 70
     1
102
RTVSPropertyOp7
 70
     1
102
RTVSPropertyOp8
 70
     1
102
RTVSPropertyOp9
 70
     1
102
RTVSPropertyOp10
 70
     1
102
RTVSPropertyOp11
 70
     1
102
RTVSPropertyOp12
 70
     1
102
RTVSPropertyOp13
 70
     1
102
RTVSPropertyOp14
 70
     1
102
RTVSPropertyOp15
 70
     1
102
RTVSPropertyOp16
 70
     1
102
RTVSPropertyOp17
 70
     1
102
RTVSPropertyOp18
 70
     1
102
RTVSPropertyOp19
 70
     1
102
RTVSPropertyOp20
 70
     1
102
RTVSPropertyOp21
 70
     1
102
RTVSPropertyOp22
 70
     1
102
RTVSPropertyOp23
 70
     1
102
RTVSPropertyOp24
 70
     1
102
RTVSPropertyOp25
 70
     1
102
RTVSPropertyOp26
 70
     1
102
RTVSPropertyOp27
 70
     1
102
RTVSPropertyOp28
 70
     1
102
RTVSPropertyOp29
 70
     1
102
RTVSPropertyOp30
 70
     1
102
RTVSPropertyOp31
 70
     1
102
RTVSPropertyOp32
 70
     1
102
RTVSPropertyOp33
 70
     1
102
RTVSPropertyOp34
 70
     1
102
RTVSPropertyOp35
 70
     1
102
RTVSPropertyOp36
 70
     1
102
RTVSPropertyOp37
 70
     1
102
RTVSPropertyOp38
 70
     1
102
RTVSPropertyOp39
 70
     1
102
RTVSPropertyOp40
 70
     1
102
RTVSPropertyOp41
 70
     1
102
RTVSPropertyOp42
 70
     1
102
RTVSPropertyOp43
 70
     1
102
RTVSPropertyOp44
 70
     1
102
RTVSPropertyOp45
 70
     1
102
RTVSPropertyOp46
 70
     1
102
RTVSPropertyOp47
 70
     1
102
RTVSPropertyOp48
 70
     1
102
RTVSPropertyOp49
 70
     1
102
RTVSPropertyOp50
 70
     1
102
RTVSPropertyOp51
 70
     0
102
RTVSPropertyOp52
 70
     0
102
RTVSPropertyOp53
 70
     1
102
RTVSPropertyOp54
 70
     1
102
RTVSPropertyOp55
 70
     1
102
RTVSPropertyOp56
 70
     1
102
RTVSPropertyOp57
 70
     1
102
RTVSPropertyOp58
 70
     1
102
RTVSPropertyOp59
 70
     1
102
RTVSPropertyOp60
 70
     1
102
RTVSPropertyOp61
 70
     1
102
RTVSPropertyOp62
 70
     1
  0
XRECORD
  5
1AC49
102
{ACAD_REACTORS
330
1AC48
102
}
330
1AC48
100
AcDbXrecord
280
     1
102
RTVSPost2010Prop28
280
     0
102
RTVSPost2010PropOp28
 70
     1
102
RTVSPost2010Prop29
280
     1
102
RTVSPost2010PropOp29
 70
     1
102
RTVSPost2010Prop30
280
     1
102
RTVSPost2010PropOp30
 70
     1
102
RTVSPost2010Prop31
280
     0
102
RTVSPost2010PropOp31
 70
     1
102
RTVSPost2010Prop32
280
     0
102
RTVSPost2010PropOp32
 70
     1
102
RTVSPost2010Prop33
280
     0
102
RTVSPost2010PropOp33
 70
     1
102
RTVSPost2010Prop34
280
     0
102
RTVSPost2010PropOp34
 70
     1
102
RTVSPost2010Prop35
280
     0
102
RTVSPost2010PropOp35
 70
     1
102
RTVSPost2010Prop36
280
     0
102
RTVSPost2010PropOp36
 70
     1
102
RTVSPost2010Prop37
 90
       50
102
RTVSPost2010PropOp37
 70
     1
102
RTVSPost2010Prop38
140
0.0
102
RTVSPost2010PropOp38
 70
     1
102
RTVSPost2010Prop39
140
1.0
102
RTVSPost2010PropOp39
 70
     1
102
RTVSPost2010Prop40
 90
        0
102
RTVSPost2010PropOp40
 70
     1
102
RTVSPost2010Prop41ColorIndex
 90
       18
102
RTVSPost2010Prop41ColorRGB
 90
        0
102
RTVSPost2010PropOp41
 70
     1
102
RTVSPost2010Prop42
 90
       50
102
RTVSPost2010PropOp42
 70
     1
102
RTVSPost2010Prop43
 90
        3
102
RTVSPost2010PropOp43
 70
     1
102
RTVSPost2010Prop44ColorIndex
 90
        5
102
RTVSPost2010Prop44ColorRGB
 90
      255
102
RTVSPost2010PropOp44
 70
     1
102
RTVSPost2010Prop45
280
     0
102
RTVSPost2010PropOp45
 70
     1
102
RTVSPost2010Prop46
 90
       50
102
RTVSPost2010PropOp46
 70
     1
102
RTVSPost2010Prop47
 90
       50
102
RTVSPost2010PropOp47
 70
     1
102
RTVSPost2010Prop48
 90
       50
102
RTVSPost2010PropOp48
 70
     1
102
RTVSPost2010Prop49
280
     0
102
RTVSPost2010PropOp49
 70
     1
102
RTVSPost2010Prop50
 90
       50
102
RTVSPost2010PropOp50
 70
     1
102
RTVSPost2010Prop51ColorIndex
 90
      256
102
RTVSPost2010Prop51ColorRGB
 90
-16777216
102
RTVSPost2010PropOp51
 70
     0
102
RTVSPost2010Prop52
140
1.0
102
RTVSPost2010PropOp52
 70
     0
102
RTVSPost2010Prop53
 90
        2
102
RTVSPost2010PropOp53
 70
     1
102
RTVSPost2010Prop54
  1
strokes_ogs.tif
102
RTVSPost2010PropOp54
 70
     1
102
RTVSPost2010Prop55
280
     0
102
RTVSPost2010PropOp55
 70
     1
102
RTVSPost2010Prop56
140
1.0
102
RTVSPost2010PropOp56
 70
     1
102
RTVSPost2010Prop57
140
1.0
102
RTVSPost2010PropOp57
 70
     1
102
RTVSPropertyOp0
 70
     1
102
RTVSPropertyOp1
 70
     1
102
RTVSPropertyOp2
 70
     1
102
RTVSPropertyOp3
 70
     1
102
RTVSPropertyOp4
 70
     1
102
RTVSPropertyOp5
 70
     1
102
RTVSPropertyOp6
 70
     1
102
RTVSPropertyOp7
 70
     1
102
RTVSPropertyOp8
 70
     1
102
RTVSPropertyOp9
 70
     1
102
RTVSPropertyOp10
 70
     1
102
RTVSPropertyOp11
 70
     1
102
RTVSPropertyOp12
 70
     1
102
RTVSPropertyOp13
 70
     1
102
RTVSPropertyOp14
 70
     1
102
RTVSPropertyOp15
 70
     1
102
RTVSPropertyOp16
 70
     1
102
RTVSPropertyOp17
 70
     1
102
RTVSPropertyOp18
 70
     1
102
RTVSPropertyOp19
 70
     1
102
RTVSPropertyOp20
 70
     1
102
RTVSPropertyOp21
 70
     1
102
RTVSPropertyOp22
 70
     1
102
RTVSPropertyOp23
 70
     1
102
RTVSPropertyOp24
 70
     1
102
RTVSPropertyOp25
 70
     1
102
RTVSPropertyOp26
 70
     1
102
RTVSPropertyOp27
 70
     1
102
RTVSPropertyOp28
 70
     1
102
RTVSPropertyOp29
 70
     1
102
RTVSPropertyOp30
 70
     1
102
RTVSPropertyOp31
 70
     1
102
RTVSPropertyOp32
 70
     1
102
RTVSPropertyOp33
 70
     1
102
RTVSPropertyOp34
 70
     1
102
RTVSPropertyOp35
 70
     1
102
RTVSPropertyOp36
 70
     1
102
RTVSPropertyOp37
 70
     1
102
RTVSPropertyOp38
 70
     1
102
RTVSPropertyOp39
 70
     1
102
RTVSPropertyOp40
 70
     1
102
RTVSPropertyOp41
 70
     1
102
RTVSPropertyOp42
 70
     1
102
RTVSPropertyOp43
 70
     1
102
RTVSPropertyOp44
 70
     1
102
RTVSPropertyOp45
 70
     1
102
RTVSPropertyOp46
 70
     1
102
RTVSPropertyOp47
 70
     1
102
RTVSPropertyOp48
 70
     1
102
RTVSPropertyOp49
 70
     1
102
RTVSPropertyOp50
 70
     1
102
RTVSPropertyOp51
 70
     0
102
RTVSPropertyOp52
 70
     0
102
RTVSPropertyOp53
 70
     1
102
RTVSPropertyOp54
 70
     1
102
RTVSPropertyOp55
 70
     1
102
RTVSPropertyOp56
 70
     1
102
RTVSPropertyOp57
 70
     1
102
RTVSPropertyOp58
 70
     1
102
RTVSPropertyOp59
 70
     1
102
RTVSPropertyOp60
 70
     1
102
RTVSPropertyOp61
 70
     1
102
RTVSPropertyOp62
 70
     1
  0
XRECORD
  5
1AC4B
102
{ACAD_REACTORS
330
1AC4A
102
}
330
1AC4A
100
AcDbXrecord
280
     1
102
RTVSPost2010Prop28
280
     0
102
RTVSPost2010PropOp28
 70
     1
102
RTVSPost2010Prop29
280
     1
102
RTVSPost2010PropOp29
 70
     1
102
RTVSPost2010Prop30
280
     1
102
RTVSPost2010PropOp30
 70
     1
102
RTVSPost2010Prop31
280
     0
102
RTVSPost2010PropOp31
 70
     1
102
RTVSPost2010Prop32
280
     0
102
RTVSPost2010PropOp32
 70
     1
102
RTVSPost2010Prop33
280
     0
102
RTVSPost2010PropOp33
 70
     1
102
RTVSPost2010Prop34
280
     0
102
RTVSPost2010PropOp34
 70
     1
102
RTVSPost2010Prop35
280
     0
102
RTVSPost2010PropOp35
 70
     1
102
RTVSPost2010Prop36
280
     0
102
RTVSPost2010PropOp36
 70
     1
102
RTVSPost2010Prop37
 90
       50
102
RTVSPost2010PropOp37
 70
     1
102
RTVSPost2010Prop38
140
0.0
102
RTVSPost2010PropOp38
 70
     1
102
RTVSPost2010Prop39
140
1.0
102
RTVSPost2010PropOp39
 70
     1
102
RTVSPost2010Prop40
 90
        0
102
RTVSPost2010PropOp40
 70
     1
102
RTVSPost2010Prop41ColorIndex
 90
       18
102
RTVSPost2010Prop41ColorRGB
 90
        0
102
RTVSPost2010PropOp41
 70
     1
102
RTVSPost2010Prop42
 90
       50
102
RTVSPost2010PropOp42
 70
     1
102
RTVSPost2010Prop43
 90
        3
102
RTVSPost2010PropOp43
 70
     1
102
RTVSPost2010Prop44ColorIndex
 90
        5
102
RTVSPost2010Prop44ColorRGB
 90
      255
102
RTVSPost2010PropOp44
 70
     1
102
RTVSPost2010Prop45
280
     0
102
RTVSPost2010PropOp45
 70
     1
102
RTVSPost2010Prop46
 90
       50
102
RTVSPost2010PropOp46
 70
     1
102
RTVSPost2010Prop47
 90
       50
102
RTVSPost2010PropOp47
 70
     1
102
RTVSPost2010Prop48
 90
       50
102
RTVSPost2010PropOp48
 70
     1
102
RTVSPost2010Prop49
280
     0
102
RTVSPost2010PropOp49
 70
     1
102
RTVSPost2010Prop50
 90
       50
102
RTVSPost2010PropOp50
 70
     1
102
RTVSPost2010Prop51ColorIndex
 90
      256
102
RTVSPost2010Prop51ColorRGB
 90
-16777216
102
RTVSPost2010PropOp51
 70
     0
102
RTVSPost2010Prop52
140
1.0
102
RTVSPost2010PropOp52
 70
     0
102
RTVSPost2010Prop53
 90
        2
102
RTVSPost2010PropOp53
 70
     1
102
RTVSPost2010Prop54
  1
strokes_ogs.tif
102
RTVSPost2010PropOp54
 70
     1
102
RTVSPost2010Prop55
280
     0
102
RTVSPost2010PropOp55
 70
     1
102
RTVSPost2010Prop56
140
1.0
102
RTVSPost2010PropOp56
 70
     1
102
RTVSPost2010Prop57
140
1.0
102
RTVSPost2010PropOp57
 70
     1
102
RTVSPropertyOp0
 70
     1
102
RTVSPropertyOp1
 70
     1
102
RTVSPropertyOp2
 70
     1
102
RTVSPropertyOp3
 70
     1
102
RTVSPropertyOp4
 70
     1
102
RTVSPropertyOp5
 70
     1
102
RTVSPropertyOp6
 70
     1
102
RTVSPropertyOp7
 70
     1
102
RTVSPropertyOp8
 70
     1
102
RTVSPropertyOp9
 70
     1
102
RTVSPropertyOp10
 70
     1
102
RTVSPropertyOp11
 70
     1
102
RTVSPropertyOp12
 70
     1
102
RTVSPropertyOp13
 70
     1
102
RTVSPropertyOp14
 70
     1
102
RTVSPropertyOp15
 70
     1
102
RTVSPropertyOp16
 70
     1
102
RTVSPropertyOp17
 70
     1
102
RTVSPropertyOp18
 70
     1
102
RTVSPropertyOp19
 70
     1
102
RTVSPropertyOp20
 70
     1
102
RTVSPropertyOp21
 70
     1
102
RTVSPropertyOp22
 70
     1
102
RTVSPropertyOp23
 70
     1
102
RTVSPropertyOp24
 70
     1
102
RTVSPropertyOp25
 70
     1
102
RTVSPropertyOp26
 70
     1
102
RTVSPropertyOp27
 70
     1
102
RTVSPropertyOp28
 70
     1
102
RTVSPropertyOp29
 70
     1
102
RTVSPropertyOp30
 70
     1
102
RTVSPropertyOp31
 70
     1
102
RTVSPropertyOp32
 70
     1
102
RTVSPropertyOp33
 70
     1
102
RTVSPropertyOp34
 70
     1
102
RTVSPropertyOp35
 70
     1
102
RTVSPropertyOp36
 70
     1
102
RTVSPropertyOp37
 70
     1
102
RTVSPropertyOp38
 70
     1
102
RTVSPropertyOp39
 70
     1
102
RTVSPropertyOp40
 70
     1
102
RTVSPropertyOp41
 70
     1
102
RTVSPropertyOp42
 70
     1
102
RTVSPropertyOp43
 70
     1
102
RTVSPropertyOp44
 70
     1
102
RTVSPropertyOp45
 70
     1
102
RTVSPropertyOp46
 70
     1
102
RTVSPropertyOp47
 70
     1
102
RTVSPropertyOp48
 70
     1
102
RTVSPropertyOp49
 70
     1
102
RTVSPropertyOp50
 70
     1
102
RTVSPropertyOp51
 70
     0
102
RTVSPropertyOp52
 70
     0
102
RTVSPropertyOp53
 70
     1
102
RTVSPropertyOp54
 70
     1
102
RTVSPropertyOp55
 70
     1
102
RTVSPropertyOp56
 70
     1
102
RTVSPropertyOp57
 70
     1
102
RTVSPropertyOp58
 70
     1
102
RTVSPropertyOp59
 70
     1
102
RTVSPropertyOp60
 70
     1
102
RTVSPropertyOp61
 70
     1
102
RTVSPropertyOp62
 70
     1
  0
XRECORD
  5
1AC53
102
{ACAD_REACTORS
330
1AC52
102
}
330
1AC52
100
AcDbXrecord
280
     1
102
RTVSPost2010Prop28
280
     0
102
RTVSPost2010PropOp28
 70
     1
102
RTVSPost2010Prop29
280
     1
102
RTVSPost2010PropOp29
 70
     1
102
RTVSPost2010Prop30
280
     1
102
RTVSPost2010PropOp30
 70
     1
102
RTVSPost2010Prop31
280
     0
102
RTVSPost2010PropOp31
 70
     1
102
RTVSPost2010Prop32
280
     0
102
RTVSPost2010PropOp32
 70
     1
102
RTVSPost2010Prop33
280
     0
102
RTVSPost2010PropOp33
 70
     1
102
RTVSPost2010Prop34
280
     0
102
RTVSPost2010PropOp34
 70
     1
102
RTVSPost2010Prop35
280
     0
102
RTVSPost2010PropOp35
 70
     1
102
RTVSPost2010Prop36
280
     0
102
RTVSPost2010PropOp36
 70
     1
102
RTVSPost2010Prop37
 90
       50
102
RTVSPost2010PropOp37
 70
     1
102
RTVSPost2010Prop38
140
0.0
102
RTVSPost2010PropOp38
 70
     1
102
RTVSPost2010Prop39
140
1.0
102
RTVSPost2010PropOp39
 70
     1
102
RTVSPost2010Prop40
 90
        0
102
RTVSPost2010PropOp40
 70
     1
102
RTVSPost2010Prop41ColorIndex
 90
       18
102
RTVSPost2010Prop41ColorRGB
 90
        0
102
RTVSPost2010PropOp41
 70
     1
102
RTVSPost2010Prop42
 90
       50
102
RTVSPost2010PropOp42
 70
     1
102
RTVSPost2010Prop43
 90
        3
102
RTVSPost2010PropOp43
 70
     1
102
RTVSPost2010Prop44ColorIndex
 90
        5
102
RTVSPost2010Prop44ColorRGB
 90
      255
102
RTVSPost2010PropOp44
 70
     1
102
RTVSPost2010Prop45
280
     0
102
RTVSPost2010PropOp45
 70
     1
102
RTVSPost2010Prop46
 90
       50
102
RTVSPost2010PropOp46
 70
     1
102
RTVSPost2010Prop47
 90
       50
102
RTVSPost2010PropOp47
 70
     1
102
RTVSPost2010Prop48
 90
       50
102
RTVSPost2010PropOp48
 70
     1
102
RTVSPost2010Prop49
280
     0
102
RTVSPost2010PropOp49
 70
     1
102
RTVSPost2010Prop50
 90
       50
102
RTVSPost2010PropOp50
 70
     1
102
RTVSPost2010Prop51ColorIndex
 90
      256
102
RTVSPost2010Prop51ColorRGB
 90
-16777216
102
RTVSPost2010PropOp51
 70
     0
102
RTVSPost2010Prop52
140
1.0
102
RTVSPost2010PropOp52
 70
     0
102
RTVSPost2010Prop53
 90
        2
102
RTVSPost2010PropOp53
 70
     1
102
RTVSPost2010Prop54
  1
strokes_ogs.tif
102
RTVSPost2010PropOp54
 70
     1
102
RTVSPost2010Prop55
280
     0
102
RTVSPost2010PropOp55
 70
     1
102
RTVSPost2010Prop56
140
1.0
102
RTVSPost2010PropOp56
 70
     1
102
RTVSPost2010Prop57
140
1.0
102
RTVSPost2010PropOp57
 70
     1
102
RTVSPropertyOp0
 70
     1
102
RTVSPropertyOp1
 70
     1
102
RTVSPropertyOp2
 70
     1
102
RTVSPropertyOp3
 70
     1
102
RTVSPropertyOp4
 70
     1
102
RTVSPropertyOp5
 70
     1
102
RTVSPropertyOp6
 70
     1
102
RTVSPropertyOp7
 70
     1
102
RTVSPropertyOp8
 70
     1
102
RTVSPropertyOp9
 70
     1
102
RTVSPropertyOp10
 70
     1
102
RTVSPropertyOp11
 70
     1
102
RTVSPropertyOp12
 70
     1
102
RTVSPropertyOp13
 70
     1
102
RTVSPropertyOp14
 70
     1
102
RTVSPropertyOp15
 70
     1
102
RTVSPropertyOp16
 70
     1
102
RTVSPropertyOp17
 70
     1
102
RTVSPropertyOp18
 70
     1
102
RTVSPropertyOp19
 70
     1
102
RTVSPropertyOp20
 70
     1
102
RTVSPropertyOp21
 70
     1
102
RTVSPropertyOp22
 70
     1
102
RTVSPropertyOp23
 70
     1
102
RTVSPropertyOp24
 70
     1
102
RTVSPropertyOp25
 70
     1
102
RTVSPropertyOp26
 70
     1
102
RTVSPropertyOp27
 70
     1
102
RTVSPropertyOp28
 70
     1
102
RTVSPropertyOp29
 70
     1
102
RTVSPropertyOp30
 70
     1
102
RTVSPropertyOp31
 70
     1
102
RTVSPropertyOp32
 70
     1
102
RTVSPropertyOp33
 70
     1
102
RTVSPropertyOp34
 70
     1
102
RTVSPropertyOp35
 70
     1
102
RTVSPropertyOp36
 70
     1
102
RTVSPropertyOp37
 70
     1
102
RTVSPropertyOp38
 70
     1
102
RTVSPropertyOp39
 70
     1
102
RTVSPropertyOp40
 70
     1
102
RTVSPropertyOp41
 70
     1
102
RTVSPropertyOp42
 70
     1
102
RTVSPropertyOp43
 70
     1
102
RTVSPropertyOp44
 70
     1
102
RTVSPropertyOp45
 70
     1
102
RTVSPropertyOp46
 70
     1
102
RTVSPropertyOp47
 70
     1
102
RTVSPropertyOp48
 70
     1
102
RTVSPropertyOp49
 70
     1
102
RTVSPropertyOp50
 70
     1
102
RTVSPropertyOp51
 70
     0
102
RTVSPropertyOp52
 70
     0
102
RTVSPropertyOp53
 70
     1
102
RTVSPropertyOp54
 70
     1
102
RTVSPropertyOp55
 70
     1
102
RTVSPropertyOp56
 70
     1
102
RTVSPropertyOp57
 70
     1
102
RTVSPropertyOp58
 70
     1
102
RTVSPropertyOp59
 70
     1
102
RTVSPropertyOp60
 70
     1
102
RTVSPropertyOp61
 70
     1
102
RTVSPropertyOp62
 70
     1
  0
XRECORD
  5
1AC6F
102
{ACAD_REACTORS
330
1AC6E
102
}
330
1AC6E
100
AcDbXrecord
280
     1
102
RTVSPost2010Prop28
280
     0
102
RTVSPost2010PropOp28
 70
     1
102
RTVSPost2010Prop29
280
     1
102
RTVSPost2010PropOp29
 70
     1
102
RTVSPost2010Prop30
280
     1
102
RTVSPost2010PropOp30
 70
     1
102
RTVSPost2010Prop31
280
     0
102
RTVSPost2010PropOp31
 70
     1
102
RTVSPost2010Prop32
280
     0
102
RTVSPost2010PropOp32
 70
     1
102
RTVSPost2010Prop33
280
     0
102
RTVSPost2010PropOp33
 70
     1
102
RTVSPost2010Prop34
280
     0
102
RTVSPost2010PropOp34
 70
     1
102
RTVSPost2010Prop35
280
     0
102
RTVSPost2010PropOp35
 70
     1
102
RTVSPost2010Prop36
280
     0
102
RTVSPost2010PropOp36
 70
     1
102
RTVSPost2010Prop37
 90
       50
102
RTVSPost2010PropOp37
 70
     0
102
RTVSPost2010Prop38
140
0.0
102
RTVSPost2010PropOp38
 70
     0
102
RTVSPost2010Prop39
140
1.0
102
RTVSPost2010PropOp39
 70
     0
102
RTVSPost2010Prop40
 90
        0
102
RTVSPost2010PropOp40
 70
     0
102
RTVSPost2010Prop41ColorIndex
 90
       18
102
RTVSPost2010Prop41ColorRGB
 90
        0
102
RTVSPost2010PropOp41
 70
     0
102
RTVSPost2010Prop42
 90
       50
102
RTVSPost2010PropOp42
 70
     0
102
RTVSPost2010Prop43
 90
        3
102
RTVSPost2010PropOp43
 70
     0
102
RTVSPost2010Prop44ColorIndex
 90
        5
102
RTVSPost2010Prop44ColorRGB
 90
      255
102
RTVSPost2010PropOp44
 70
     0
102
RTVSPost2010Prop45
280
     0
102
RTVSPost2010PropOp45
 70
     1
102
RTVSPost2010Prop46
 90
       50
102
RTVSPost2010PropOp46
 70
     0
102
RTVSPost2010Prop47
 90
       50
102
RTVSPost2010PropOp47
 70
     0
102
RTVSPost2010Prop48
 90
       50
102
RTVSPost2010PropOp48
 70
     0
102
RTVSPost2010Prop49
280
     0
102
RTVSPost2010PropOp49
 70
     1
102
RTVSPost2010Prop50
 90
       50
102
RTVSPost2010PropOp50
 70
     0
102
RTVSPost2010Prop51ColorIndex
 90
      256
102
RTVSPost2010Prop51ColorRGB
 90
-16777216
102
RTVSPost2010PropOp51
 70
     0
102
RTVSPost2010Prop52
140
1.0
102
RTVSPost2010PropOp52
 70
     0
102
RTVSPost2010Prop53
 90
        2
102
RTVSPost2010PropOp53
 70
     0
102
RTVSPost2010Prop54
  1
strokes_ogs.tif
102
RTVSPost2010PropOp54
 70
     0
102
RTVSPost2010Prop55
280
     0
102
RTVSPost2010PropOp55
 70
     1
102
RTVSPost2010Prop56
140
1.0
102
RTVSPost2010PropOp56
 70
     0
102
RTVSPost2010Prop57
140
1.0
102
RTVSPost2010PropOp57
 70
     0
102
RTVSPropertyOp0
 70
     0
102
RTVSPropertyOp1
 70
     0
102
RTVSPropertyOp2
 70
     0
102
RTVSPropertyOp3
 70
     0
102
RTVSPropertyOp4
 70
     0
102
RTVSPropertyOp5
 70
     0
102
RTVSPropertyOp6
 70
     0
102
RTVSPropertyOp7
 70
     0
102
RTVSPropertyOp8
 70
     0
102
RTVSPropertyOp9
 70
     0
102
RTVSPropertyOp10
 70
     0
102
RTVSPropertyOp11
 70
     0
102
RTVSPropertyOp12
 70
     0
102
RTVSPropertyOp13
 70
     0
102
RTVSPropertyOp14
 70
     2
102
RTVSPropertyOp15
 70
     0
102
RTVSPropertyOp16
 70
     0
102
RTVSPropertyOp17
 70
     0
102
RTVSPropertyOp18
 70
     0
102
RTVSPropertyOp19
 70
     0
102
RTVSPropertyOp20
 70
     0
102
RTVSPropertyOp21
 70
     0
102
RTVSPropertyOp22
 70
     0
102
RTVSPropertyOp23
 70
     0
102
RTVSPropertyOp24
 70
     0
102
RTVSPropertyOp25
 70
     0
102
RTVSPropertyOp26
 70
     0
102
RTVSPropertyOp27
 70
     0
102
RTVSPropertyOp28
 70
     1
102
RTVSPropertyOp29
 70
     1
102
RTVSPropertyOp30
 70
     1
102
RTVSPropertyOp31
 70
     1
102
RTVSPropertyOp32
 70
     1
102
RTVSPropertyOp33
 70
     1
102
RTVSPropertyOp34
 70
     1
102
RTVSPropertyOp35
 70
     1
102
RTVSPropertyOp36
 70
     1
102
RTVSPropertyOp37
 70
     0
102
RTVSPropertyOp38
 70
     0
102
RTVSPropertyOp39
 70
     0
102
RTVSPropertyOp40
 70
     0
102
RTVSPropertyOp41
 70
     0
102
RTVSPropertyOp42
 70
     0
102
RTVSPropertyOp43
 70
     0
102
RTVSPropertyOp44
 70
     0
102
RTVSPropertyOp45
 70
     1
102
RTVSPropertyOp46
 70
     0
102
RTVSPropertyOp47
 70
     0
102
RTVSPropertyOp48
 70
     0
102
RTVSPropertyOp49
 70
     1
102
RTVSPropertyOp50
 70
     0
102
RTVSPropertyOp51
 70
     0
102
RTVSPropertyOp52
 70
     0
102
RTVSPropertyOp53
 70
     0
102
RTVSPropertyOp54
 70
     0
102
RTVSPropertyOp55
 70
     1
102
RTVSPropertyOp56
 70
     0
102
RTVSPropertyOp57
 70
     0
102
RTVSPropertyOp58
 70
     0
102
RTVSPropertyOp59
 70
     0
102
RTVSPropertyOp60
 70
     0
102
RTVSPropertyOp61
 70
     0
102
RTVSPropertyOp62
 70
     0
  0
XRECORD
  5
1AC5F
102
{ACAD_REACTORS
330
1AC5E
102
}
330
1AC5E
100
AcDbXrecord
280
     1
102
RTVSPost2010Prop28
280
     0
102
RTVSPost2010PropOp28
 70
     1
102
RTVSPost2010Prop29
280
     1
102
RTVSPost2010PropOp29
 70
     1
102
RTVSPost2010Prop30
280
     1
102
RTVSPost2010PropOp30
 70
     1
102
RTVSPost2010Prop31
280
     0
102
RTVSPost2010PropOp31
 70
     1
102
RTVSPost2010Prop32
280
     0
102
RTVSPost2010PropOp32
 70
     1
102
RTVSPost2010Prop33
280
     0
102
RTVSPost2010PropOp33
 70
     1
102
RTVSPost2010Prop34
280
     0
102
RTVSPost2010PropOp34
 70
     1
102
RTVSPost2010Prop35
280
     0
102
RTVSPost2010PropOp35
 70
     1
102
RTVSPost2010Prop36
280
     0
102
RTVSPost2010PropOp36
 70
     1
102
RTVSPost2010Prop37
 90
       50
102
RTVSPost2010PropOp37
 70
     1
102
RTVSPost2010Prop38
140
0.0
102
RTVSPost2010PropOp38
 70
     1
102
RTVSPost2010Prop39
140
1.0
102
RTVSPost2010PropOp39
 70
     1
102
RTVSPost2010Prop40
 90
        0
102
RTVSPost2010PropOp40
 70
     1
102
RTVSPost2010Prop41ColorIndex
 90
       18
102
RTVSPost2010Prop41ColorRGB
 90
        0
102
RTVSPost2010PropOp41
 70
     1
102
RTVSPost2010Prop42
 90
       50
102
RTVSPost2010PropOp42
 70
     1
102
RTVSPost2010Prop43
 90
        3
102
RTVSPost2010PropOp43
 70
     1
102
RTVSPost2010Prop44ColorIndex
 90
        5
102
RTVSPost2010Prop44ColorRGB
 90
      255
102
RTVSPost2010PropOp44
 70
     1
102
RTVSPost2010Prop45
280
     0
102
RTVSPost2010PropOp45
 70
     1
102
RTVSPost2010Prop46
 90
       50
102
RTVSPost2010PropOp46
 70
     1
102
RTVSPost2010Prop47
 90
       50
102
RTVSPost2010PropOp47
 70
     1
102
RTVSPost2010Prop48
 90
       50
102
RTVSPost2010PropOp48
 70
     1
102
RTVSPost2010Prop49
280
     0
102
RTVSPost2010PropOp49
 70
     1
102
RTVSPost2010Prop50
 90
       50
102
RTVSPost2010PropOp50
 70
     1
102
RTVSPost2010Prop51ColorIndex
 90
      256
102
RTVSPost2010Prop51ColorRGB
 90
-16777216
102
RTVSPost2010PropOp51
 70
     0
102
RTVSPost2010Prop52
140
1.0
102
RTVSPost2010PropOp52
 70
     0
102
RTVSPost2010Prop53
 90
        2
102
RTVSPost2010PropOp53
 70
     1
102
RTVSPost2010Prop54
  1
strokes_ogs.tif
102
RTVSPost2010PropOp54
 70
     1
102
RTVSPost2010Prop55
280
     0
102
RTVSPost2010PropOp55
 70
     1
102
RTVSPost2010Prop56
140
1.0
102
RTVSPost2010PropOp56
 70
     1
102
RTVSPost2010Prop57
140
1.0
102
RTVSPost2010PropOp57
 70
     1
102
RTVSPropertyOp0
 70
     1
102
RTVSPropertyOp1
 70
     1
102
RTVSPropertyOp2
 70
     1
102
RTVSPropertyOp3
 70
     1
102
RTVSPropertyOp4
 70
     1
102
RTVSPropertyOp5
 70
     1
102
RTVSPropertyOp6
 70
     1
102
RTVSPropertyOp7
 70
     1
102
RTVSPropertyOp8
 70
     1
102
RTVSPropertyOp9
 70
     1
102
RTVSPropertyOp10
 70
     1
102
RTVSPropertyOp11
 70
     1
102
RTVSPropertyOp12
 70
     1
102
RTVSPropertyOp13
 70
     1
102
RTVSPropertyOp14
 70
     1
102
RTVSPropertyOp15
 70
     1
102
RTVSPropertyOp16
 70
     1
102
RTVSPropertyOp17
 70
     1
102
RTVSPropertyOp18
 70
     1
102
RTVSPropertyOp19
 70
     1
102
RTVSPropertyOp20
 70
     1
102
RTVSPropertyOp21
 70
     1
102
RTVSPropertyOp22
 70
     1
102
RTVSPropertyOp23
 70
     1
102
RTVSPropertyOp24
 70
     1
102
RTVSPropertyOp25
 70
     1
102
RTVSPropertyOp26
 70
     1
102
RTVSPropertyOp27
 70
     1
102
RTVSPropertyOp28
 70
     1
102
RTVSPropertyOp29
 70
     1
102
RTVSPropertyOp30
 70
     1
102
RTVSPropertyOp31
 70
     1
102
RTVSPropertyOp32
 70
     1
102
RTVSPropertyOp33
 70
     1
102
RTVSPropertyOp34
 70
     1
102
RTVSPropertyOp35
 70
     1
102
RTVSPropertyOp36
 70
     1
102
RTVSPropertyOp37
 70
     1
102
RTVSPropertyOp38
 70
     1
102
RTVSPropertyOp39
 70
     1
102
RTVSPropertyOp40
 70
     1
102
RTVSPropertyOp41
 70
     1
102
RTVSPropertyOp42
 70
     1
102
RTVSPropertyOp43
 70
     1
102
RTVSPropertyOp44
 70
     1
102
RTVSPropertyOp45
 70
     1
102
RTVSPropertyOp46
 70
     1
102
RTVSPropertyOp47
 70
     1
102
RTVSPropertyOp48
 70
     1
102
RTVSPropertyOp49
 70
     1
102
RTVSPropertyOp50
 70
     1
102
RTVSPropertyOp51
 70
     0
102
RTVSPropertyOp52
 70
     0
102
RTVSPropertyOp53
 70
     1
102
RTVSPropertyOp54
 70
     1
102
RTVSPropertyOp55
 70
     1
102
RTVSPropertyOp56
 70
     1
102
RTVSPropertyOp57
 70
     1
102
RTVSPropertyOp58
 70
     1
102
RTVSPropertyOp59
 70
     1
102
RTVSPropertyOp60
 70
     1
102
RTVSPropertyOp61
 70
     1
102
RTVSPropertyOp62
 70
     1
  0
XRECORD
  5
1AC71
102
{ACAD_REACTORS
330
1AC70
102
}
330
1AC70
100
AcDbXrecord
280
     1
102
RTVSPost2010Prop28
280
     0
102
RTVSPost2010PropOp28
 70
     1
102
RTVSPost2010Prop29
280
     1
102
RTVSPost2010PropOp29
 70
     1
102
RTVSPost2010Prop30
280
     1
102
RTVSPost2010PropOp30
 70
     1
102
RTVSPost2010Prop31
280
     0
102
RTVSPost2010PropOp31
 70
     1
102
RTVSPost2010Prop32
280
     0
102
RTVSPost2010PropOp32
 70
     1
102
RTVSPost2010Prop33
280
     0
102
RTVSPost2010PropOp33
 70
     1
102
RTVSPost2010Prop34
280
     0
102
RTVSPost2010PropOp34
 70
     1
102
RTVSPost2010Prop35
280
     0
102
RTVSPost2010PropOp35
 70
     1
102
RTVSPost2010Prop36
280
     0
102
RTVSPost2010PropOp36
 70
     1
102
RTVSPost2010Prop37
 90
       50
102
RTVSPost2010PropOp37
 70
     0
102
RTVSPost2010Prop38
140
0.0
102
RTVSPost2010PropOp38
 70
     0
102
RTVSPost2010Prop39
140
1.0
102
RTVSPost2010PropOp39
 70
     0
102
RTVSPost2010Prop40
 90
        0
102
RTVSPost2010PropOp40
 70
     0
102
RTVSPost2010Prop41ColorIndex
 90
       18
102
RTVSPost2010Prop41ColorRGB
 90
        0
102
RTVSPost2010PropOp41
 70
     0
102
RTVSPost2010Prop42
 90
       50
102
RTVSPost2010PropOp42
 70
     0
102
RTVSPost2010Prop43
 90
        3
102
RTVSPost2010PropOp43
 70
     0
102
RTVSPost2010Prop44ColorIndex
 90
        5
102
RTVSPost2010Prop44ColorRGB
 90
      255
102
RTVSPost2010PropOp44
 70
     0
102
RTVSPost2010Prop45
280
     0
102
RTVSPost2010PropOp45
 70
     1
102
RTVSPost2010Prop46
 90
       50
102
RTVSPost2010PropOp46
 70
     0
102
RTVSPost2010Prop47
 90
       50
102
RTVSPost2010PropOp47
 70
     0
102
RTVSPost2010Prop48
 90
       50
102
RTVSPost2010PropOp48
 70
     0
102
RTVSPost2010Prop49
280
     0
102
RTVSPost2010PropOp49
 70
     1
102
RTVSPost2010Prop50
 90
       50
102
RTVSPost2010PropOp50
 70
     0
102
RTVSPost2010Prop51ColorIndex
 90
      256
102
RTVSPost2010Prop51ColorRGB
 90
-16777216
102
RTVSPost2010PropOp51
 70
     0
102
RTVSPost2010Prop52
140
1.0
102
RTVSPost2010PropOp52
 70
     0
102
RTVSPost2010Prop53
 90
        2
102
RTVSPost2010PropOp53
 70
     0
102
RTVSPost2010Prop54
  1
strokes_ogs.tif
102
RTVSPost2010PropOp54
 70
     0
102
RTVSPost2010Prop55
280
     0
102
RTVSPost2010PropOp55
 70
     1
102
RTVSPost2010Prop56
140
1.0
102
RTVSPost2010PropOp56
 70
     0
102
RTVSPost2010Prop57
140
1.0
102
RTVSPost2010PropOp57
 70
     0
102
RTVSPropertyOp0
 70
     0
102
RTVSPropertyOp1
 70
     0
102
RTVSPropertyOp2
 70
     0
102
RTVSPropertyOp3
 70
     0
102
RTVSPropertyOp4
 70
     0
102
RTVSPropertyOp5
 70
     0
102
RTVSPropertyOp6
 70
     0
102
RTVSPropertyOp7
 70
     0
102
RTVSPropertyOp8
 70
     0
102
RTVSPropertyOp9
 70
     0
102
RTVSPropertyOp10
 70
     0
102
RTVSPropertyOp11
 70
     0
102
RTVSPropertyOp12
 70
     0
102
RTVSPropertyOp13
 70
     0
102
RTVSPropertyOp14
 70
     2
102
RTVSPropertyOp15
 70
     0
102
RTVSPropertyOp16
 70
     0
102
RTVSPropertyOp17
 70
     0
102
RTVSPropertyOp18
 70
     0
102
RTVSPropertyOp19
 70
     0
102
RTVSPropertyOp20
 70
     0
102
RTVSPropertyOp21
 70
     0
102
RTVSPropertyOp22
 70
     0
102
RTVSPropertyOp23
 70
     0
102
RTVSPropertyOp24
 70
     0
102
RTVSPropertyOp25
 70
     0
102
RTVSPropertyOp26
 70
     0
102
RTVSPropertyOp27
 70
     0
102
RTVSPropertyOp28
 70
     1
102
RTVSPropertyOp29
 70
     1
102
RTVSPropertyOp30
 70
     1
102
RTVSPropertyOp31
 70
     1
102
RTVSPropertyOp32
 70
     1
102
RTVSPropertyOp33
 70
     1
102
RTVSPropertyOp34
 70
     1
102
RTVSPropertyOp35
 70
     1
102
RTVSPropertyOp36
 70
     1
102
RTVSPropertyOp37
 70
     0
102
RTVSPropertyOp38
 70
     0
102
RTVSPropertyOp39
 70
     0
102
RTVSPropertyOp40
 70
     0
102
RTVSPropertyOp41
 70
     0
102
RTVSPropertyOp42
 70
     0
102
RTVSPropertyOp43
 70
     0
102
RTVSPropertyOp44
 70
     0
102
RTVSPropertyOp45
 70
     1
102
RTVSPropertyOp46
 70
     0
102
RTVSPropertyOp47
 70
     0
102
RTVSPropertyOp48
 70
     0
102
RTVSPropertyOp49
 70
     1
102
RTVSPropertyOp50
 70
     0
102
RTVSPropertyOp51
 70
     0
102
RTVSPropertyOp52
 70
     0
102
RTVSPropertyOp53
 70
     0
102
RTVSPropertyOp54
 70
     0
102
RTVSPropertyOp55
 70
     1
102
RTVSPropertyOp56
 70
     0
102
RTVSPropertyOp57
 70
     0
102
RTVSPropertyOp58
 70
     0
102
RTVSPropertyOp59
 70
     0
102
RTVSPropertyOp60
 70
     0
102
RTVSPropertyOp61
 70
     0
102
RTVSPropertyOp62
 70
     0
  0
XRECORD
  5
1AC57
102
{ACAD_REACTORS
330
1AC56
102
}
330
1AC56
100
AcDbXrecord
280
     1
102
RTVSPost2010Prop28
280
     0
102
RTVSPost2010PropOp28
 70
     1
102
RTVSPost2010Prop29
280
     1
102
RTVSPost2010PropOp29
 70
     1
102
RTVSPost2010Prop30
280
     1
102
RTVSPost2010PropOp30
 70
     1
102
RTVSPost2010Prop31
280
     0
102
RTVSPost2010PropOp31
 70
     1
102
RTVSPost2010Prop32
280
     0
102
RTVSPost2010PropOp32
 70
     1
102
RTVSPost2010Prop33
280
     0
102
RTVSPost2010PropOp33
 70
     1
102
RTVSPost2010Prop34
280
     0
102
RTVSPost2010PropOp34
 70
     1
102
RTVSPost2010Prop35
280
     0
102
RTVSPost2010PropOp35
 70
     1
102
RTVSPost2010Prop36
280
     0
102
RTVSPost2010PropOp36
 70
     1
102
RTVSPost2010Prop37
 90
       50
102
RTVSPost2010PropOp37
 70
     1
102
RTVSPost2010Prop38
140
0.0
102
RTVSPost2010PropOp38
 70
     1
102
RTVSPost2010Prop39
140
1.0
102
RTVSPost2010PropOp39
 70
     1
102
RTVSPost2010Prop40
 90
        0
102
RTVSPost2010PropOp40
 70
     1
102
RTVSPost2010Prop41ColorIndex
 90
       18
102
RTVSPost2010Prop41ColorRGB
 90
        0
102
RTVSPost2010PropOp41
 70
     1
102
RTVSPost2010Prop42
 90
       50
102
RTVSPost2010PropOp42
 70
     1
102
RTVSPost2010Prop43
 90
        3
102
RTVSPost2010PropOp43
 70
     1
102
RTVSPost2010Prop44ColorIndex
 90
        5
102
RTVSPost2010Prop44ColorRGB
 90
      255
102
RTVSPost2010PropOp44
 70
     1
102
RTVSPost2010Prop45
280
     0
102
RTVSPost2010PropOp45
 70
     1
102
RTVSPost2010Prop46
 90
       50
102
RTVSPost2010PropOp46
 70
     1
102
RTVSPost2010Prop47
 90
       50
102
RTVSPost2010PropOp47
 70
     1
102
RTVSPost2010Prop48
 90
       50
102
RTVSPost2010PropOp48
 70
     1
102
RTVSPost2010Prop49
280
     0
102
RTVSPost2010PropOp49
 70
     1
102
RTVSPost2010Prop50
 90
       50
102
RTVSPost2010PropOp50
 70
     1
102
RTVSPost2010Prop51ColorIndex
 90
      256
102
RTVSPost2010Prop51ColorRGB
 90
-16777216
102
RTVSPost2010PropOp51
 70
     0
102
RTVSPost2010Prop52
140
1.0
102
RTVSPost2010PropOp52
 70
     0
102
RTVSPost2010Prop53
 90
        2
102
RTVSPost2010PropOp53
 70
     1
102
RTVSPost2010Prop54
  1
strokes_ogs.tif
102
RTVSPost2010PropOp54
 70
     1
102
RTVSPost2010Prop55
280
     0
102
RTVSPost2010PropOp55
 70
     1
102
RTVSPost2010Prop56
140
1.0
102
RTVSPost2010PropOp56
 70
     1
102
RTVSPost2010Prop57
140
1.0
102
RTVSPost2010PropOp57
 70
     1
102
RTVSPropertyOp0
 70
     1
102
RTVSPropertyOp1
 70
     1
102
RTVSPropertyOp2
 70
     1
102
RTVSPropertyOp3
 70
     1
102
RTVSPropertyOp4
 70
     1
102
RTVSPropertyOp5
 70
     1
102
RTVSPropertyOp6
 70
     1
102
RTVSPropertyOp7
 70
     1
102
RTVSPropertyOp8
 70
     1
102
RTVSPropertyOp9
 70
     1
102
RTVSPropertyOp10
 70
     1
102
RTVSPropertyOp11
 70
     1
102
RTVSPropertyOp12
 70
     1
102
RTVSPropertyOp13
 70
     1
102
RTVSPropertyOp14
 70
     1
102
RTVSPropertyOp15
 70
     1
102
RTVSPropertyOp16
 70
     1
102
RTVSPropertyOp17
 70
     1
102
RTVSPropertyOp18
 70
     1
102
RTVSPropertyOp19
 70
     1
102
RTVSPropertyOp20
 70
     1
102
RTVSPropertyOp21
 70
     1
102
RTVSPropertyOp22
 70
     1
102
RTVSPropertyOp23
 70
     1
102
RTVSPropertyOp24
 70
     1
102
RTVSPropertyOp25
 70
     1
102
RTVSPropertyOp26
 70
     1
102
RTVSPropertyOp27
 70
     1
102
RTVSPropertyOp28
 70
     1
102
RTVSPropertyOp29
 70
     1
102
RTVSPropertyOp30
 70
     1
102
RTVSPropertyOp31
 70
     1
102
RTVSPropertyOp32
 70
     1
102
RTVSPropertyOp33
 70
     1
102
RTVSPropertyOp34
 70
     1
102
RTVSPropertyOp35
 70
     1
102
RTVSPropertyOp36
 70
     1
102
RTVSPropertyOp37
 70
     1
102
RTVSPropertyOp38
 70
     1
102
RTVSPropertyOp39
 70
     1
102
RTVSPropertyOp40
 70
     1
102
RTVSPropertyOp41
 70
     1
102
RTVSPropertyOp42
 70
     1
102
RTVSPropertyOp43
 70
     1
102
RTVSPropertyOp44
 70
     1
102
RTVSPropertyOp45
 70
     1
102
RTVSPropertyOp46
 70
     1
102
RTVSPropertyOp47
 70
     1
102
RTVSPropertyOp48
 70
     1
102
RTVSPropertyOp49
 70
     1
102
RTVSPropertyOp50
 70
     1
102
RTVSPropertyOp51
 70
     0
102
RTVSPropertyOp52
 70
     0
102
RTVSPropertyOp53
 70
     1
102
RTVSPropertyOp54
 70
     1
102
RTVSPropertyOp55
 70
     1
102
RTVSPropertyOp56
 70
     1
102
RTVSPropertyOp57
 70
     1
102
RTVSPropertyOp58
 70
     1
102
RTVSPropertyOp59
 70
     1
102
RTVSPropertyOp60
 70
     1
102
RTVSPropertyOp61
 70
     1
102
RTVSPropertyOp62
 70
     1
  0
XRECORD
  5
1AC6D
102
{ACAD_REACTORS
330
1AC6C
102
}
330
1AC6C
100
AcDbXrecord
280
     1
102
RTVSPost2010Prop28
280
     0
102
RTVSPost2010PropOp28
 70
     1
102
RTVSPost2010Prop29
280
     1
102
RTVSPost2010PropOp29
 70
     1
102
RTVSPost2010Prop30
280
     1
102
RTVSPost2010PropOp30
 70
     1
102
RTVSPost2010Prop31
280
     0
102
RTVSPost2010PropOp31
 70
     1
102
RTVSPost2010Prop32
280
     0
102
RTVSPost2010PropOp32
 70
     1
102
RTVSPost2010Prop33
280
     0
102
RTVSPost2010PropOp33
 70
     1
102
RTVSPost2010Prop34
280
     0
102
RTVSPost2010PropOp34
 70
     1
102
RTVSPost2010Prop35
280
     0
102
RTVSPost2010PropOp35
 70
     1
102
RTVSPost2010Prop36
280
     0
102
RTVSPost2010PropOp36
 70
     1
102
RTVSPost2010Prop37
 90
       50
102
RTVSPost2010PropOp37
 70
     1
102
RTVSPost2010Prop38
140
0.0
102
RTVSPost2010PropOp38
 70
     1
102
RTVSPost2010Prop39
140
1.0
102
RTVSPost2010PropOp39
 70
     1
102
RTVSPost2010Prop40
 90
        0
102
RTVSPost2010PropOp40
 70
     1
102
RTVSPost2010Prop41ColorIndex
 90
       18
102
RTVSPost2010Prop41ColorRGB
 90
        0
102
RTVSPost2010PropOp41
 70
     1
102
RTVSPost2010Prop42
 90
       50
102
RTVSPost2010PropOp42
 70
     1
102
RTVSPost2010Prop43
 90
        3
102
RTVSPost2010PropOp43
 70
     1
102
RTVSPost2010Prop44ColorIndex
 90
        5
102
RTVSPost2010Prop44ColorRGB
 90
      255
102
RTVSPost2010PropOp44
 70
     1
102
RTVSPost2010Prop45
280
     0
102
RTVSPost2010PropOp45
 70
     1
102
RTVSPost2010Prop46
 90
       50
102
RTVSPost2010PropOp46
 70
     1
102
RTVSPost2010Prop47
 90
       50
102
RTVSPost2010PropOp47
 70
     1
102
RTVSPost2010Prop48
 90
       50
102
RTVSPost2010PropOp48
 70
     1
102
RTVSPost2010Prop49
280
     0
102
RTVSPost2010PropOp49
 70
     1
102
RTVSPost2010Prop50
 90
       50
102
RTVSPost2010PropOp50
 70
     1
102
RTVSPost2010Prop51ColorIndex
 90
      256
102
RTVSPost2010Prop51ColorRGB
 90
-16777216
102
RTVSPost2010PropOp51
 70
     0
102
RTVSPost2010Prop52
140
1.0
102
RTVSPost2010PropOp52
 70
     0
102
RTVSPost2010Prop53
 90
        2
102
RTVSPost2010PropOp53
 70
     1
102
RTVSPost2010Prop54
  1
strokes_ogs.tif
102
RTVSPost2010PropOp54
 70
     1
102
RTVSPost2010Prop55
280
     0
102
RTVSPost2010PropOp55
 70
     1
102
RTVSPost2010Prop56
140
1.0
102
RTVSPost2010PropOp56
 70
     1
102
RTVSPost2010Prop57
140
1.0
102
RTVSPost2010PropOp57
 70
     1
102
RTVSPropertyOp0
 70
     1
102
RTVSPropertyOp1
 70
     1
102
RTVSPropertyOp2
 70
     1
102
RTVSPropertyOp3
 70
     1
102
RTVSPropertyOp4
 70
     1
102
RTVSPropertyOp5
 70
     1
102
RTVSPropertyOp6
 70
     1
102
RTVSPropertyOp7
 70
     1
102
RTVSPropertyOp8
 70
     1
102
RTVSPropertyOp9
 70
     1
102
RTVSPropertyOp10
 70
     1
102
RTVSPropertyOp11
 70
     1
102
RTVSPropertyOp12
 70
     1
102
RTVSPropertyOp13
 70
     1
102
RTVSPropertyOp14
 70
     1
102
RTVSPropertyOp15
 70
     1
102
RTVSPropertyOp16
 70
     1
102
RTVSPropertyOp17
 70
     1
102
RTVSPropertyOp18
 70
     1
102
RTVSPropertyOp19
 70
     1
102
RTVSPropertyOp20
 70
     1
102
RTVSPropertyOp21
 70
     1
102
RTVSPropertyOp22
 70
     1
102
RTVSPropertyOp23
 70
     1
102
RTVSPropertyOp24
 70
     1
102
RTVSPropertyOp25
 70
     1
102
RTVSPropertyOp26
 70
     1
102
RTVSPropertyOp27
 70
     1
102
RTVSPropertyOp28
 70
     1
102
RTVSPropertyOp29
 70
     1
102
RTVSPropertyOp30
 70
     1
102
RTVSPropertyOp31
 70
     1
102
RTVSPropertyOp32
 70
     1
102
RTVSPropertyOp33
 70
     1
102
RTVSPropertyOp34
 70
     1
102
RTVSPropertyOp35
 70
     1
102
RTVSPropertyOp36
 70
     1
102
RTVSPropertyOp37
 70
     1
102
RTVSPropertyOp38
 70
     1
102
RTVSPropertyOp39
 70
     1
102
RTVSPropertyOp40
 70
     1
102
RTVSPropertyOp41
 70
     1
102
RTVSPropertyOp42
 70
     1
102
RTVSPropertyOp43
 70
     1
102
RTVSPropertyOp44
 70
     1
102
RTVSPropertyOp45
 70
     1
102
RTVSPropertyOp46
 70
     1
102
RTVSPropertyOp47
 70
     1
102
RTVSPropertyOp48
 70
     1
102
RTVSPropertyOp49
 70
     1
102
RTVSPropertyOp50
 70
     1
102
RTVSPropertyOp51
 70
     0
102
RTVSPropertyOp52
 70
     0
102
RTVSPropertyOp53
 70
     1
102
RTVSPropertyOp54
 70
     1
102
RTVSPropertyOp55
 70
     1
102
RTVSPropertyOp56
 70
     1
102
RTVSPropertyOp57
 70
     1
102
RTVSPropertyOp58
 70
     1
102
RTVSPropertyOp59
 70
     1
102
RTVSPropertyOp60
 70
     1
102
RTVSPropertyOp61
 70
     1
102
RTVSPropertyOp62
 70
     1
  0
XRECORD
  5
1AC6B
102
{ACAD_REACTORS
330
1AC6A
102
}
330
1AC6A
100
AcDbXrecord
280
     1
102
RTVSPost2010Prop28
280
     0
102
RTVSPost2010PropOp28
 70
     1
102
RTVSPost2010Prop29
280
     1
102
RTVSPost2010PropOp29
 70
     1
102
RTVSPost2010Prop30
280
     1
102
RTVSPost2010PropOp30
 70
     1
102
RTVSPost2010Prop31
280
     0
102
RTVSPost2010PropOp31
 70
     1
102
RTVSPost2010Prop32
280
     0
102
RTVSPost2010PropOp32
 70
     1
102
RTVSPost2010Prop33
280
     0
102
RTVSPost2010PropOp33
 70
     1
102
RTVSPost2010Prop34
280
     0
102
RTVSPost2010PropOp34
 70
     1
102
RTVSPost2010Prop35
280
     0
102
RTVSPost2010PropOp35
 70
     1
102
RTVSPost2010Prop36
280
     0
102
RTVSPost2010PropOp36
 70
     1
102
RTVSPost2010Prop37
 90
       50
102
RTVSPost2010PropOp37
 70
     1
102
RTVSPost2010Prop38
140
0.0
102
RTVSPost2010PropOp38
 70
     1
102
RTVSPost2010Prop39
140
1.0
102
RTVSPost2010PropOp39
 70
     1
102
RTVSPost2010Prop40
 90
        0
102
RTVSPost2010PropOp40
 70
     1
102
RTVSPost2010Prop41ColorIndex
 90
       18
102
RTVSPost2010Prop41ColorRGB
 90
        0
102
RTVSPost2010PropOp41
 70
     1
102
RTVSPost2010Prop42
 90
       50
102
RTVSPost2010PropOp42
 70
     1
102
RTVSPost2010Prop43
 90
        3
102
RTVSPost2010PropOp43
 70
     1
102
RTVSPost2010Prop44ColorIndex
 90
        5
102
RTVSPost2010Prop44ColorRGB
 90
      255
102
RTVSPost2010PropOp44
 70
     1
102
RTVSPost2010Prop45
280
     0
102
RTVSPost2010PropOp45
 70
     1
102
RTVSPost2010Prop46
 90
       50
102
RTVSPost2010PropOp46
 70
     1
102
RTVSPost2010Prop47
 90
       50
102
RTVSPost2010PropOp47
 70
     1
102
RTVSPost2010Prop48
 90
       50
102
RTVSPost2010PropOp48
 70
     1
102
RTVSPost2010Prop49
280
     0
102
RTVSPost2010PropOp49
 70
     1
102
RTVSPost2010Prop50
 90
       50
102
RTVSPost2010PropOp50
 70
     1
102
RTVSPost2010Prop51ColorIndex
 90
      256
102
RTVSPost2010Prop51ColorRGB
 90
-16777216
102
RTVSPost2010PropOp51
 70
     0
102
RTVSPost2010Prop52
140
1.0
102
RTVSPost2010PropOp52
 70
     0
102
RTVSPost2010Prop53
 90
        2
102
RTVSPost2010PropOp53
 70
     1
102
RTVSPost2010Prop54
  1
strokes_ogs.tif
102
RTVSPost2010PropOp54
 70
     1
102
RTVSPost2010Prop55
280
     0
102
RTVSPost2010PropOp55
 70
     1
102
RTVSPost2010Prop56
140
1.0
102
RTVSPost2010PropOp56
 70
     1
102
RTVSPost2010Prop57
140
1.0
102
RTVSPost2010PropOp57
 70
     1
102
RTVSPropertyOp0
 70
     1
102
RTVSPropertyOp1
 70
     1
102
RTVSPropertyOp2
 70
     1
102
RTVSPropertyOp3
 70
     1
102
RTVSPropertyOp4
 70
     1
102
RTVSPropertyOp5
 70
     1
102
RTVSPropertyOp6
 70
     1
102
RTVSPropertyOp7
 70
     1
102
RTVSPropertyOp8
 70
     1
102
RTVSPropertyOp9
 70
     1
102
RTVSPropertyOp10
 70
     1
102
RTVSPropertyOp11
 70
     1
102
RTVSPropertyOp12
 70
     1
102
RTVSPropertyOp13
 70
     1
102
RTVSPropertyOp14
 70
     1
102
RTVSPropertyOp15
 70
     1
102
RTVSPropertyOp16
 70
     1
102
RTVSPropertyOp17
 70
     1
102
RTVSPropertyOp18
 70
     1
102
RTVSPropertyOp19
 70
     1
102
RTVSPropertyOp20
 70
     1
102
RTVSPropertyOp21
 70
     1
102
RTVSPropertyOp22
 70
     1
102
RTVSPropertyOp23
 70
     1
102
RTVSPropertyOp24
 70
     1
102
RTVSPropertyOp25
 70
     1
102
RTVSPropertyOp26
 70
     1
102
RTVSPropertyOp27
 70
     1
102
RTVSPropertyOp28
 70
     1
102
RTVSPropertyOp29
 70
     1
102
RTVSPropertyOp30
 70
     1
102
RTVSPropertyOp31
 70
     1
102
RTVSPropertyOp32
 70
     1
102
RTVSPropertyOp33
 70
     1
102
RTVSPropertyOp34
 70
     1
102
RTVSPropertyOp35
 70
     1
102
RTVSPropertyOp36
 70
     1
102
RTVSPropertyOp37
 70
     1
102
RTVSPropertyOp38
 70
     1
102
RTVSPropertyOp39
 70
     1
102
RTVSPropertyOp40
 70
     1
102
RTVSPropertyOp41
 70
     1
102
RTVSPropertyOp42
 70
     1
102
RTVSPropertyOp43
 70
     1
102
RTVSPropertyOp44
 70
     1
102
RTVSPropertyOp45
 70
     1
102
RTVSPropertyOp46
 70
     1
102
RTVSPropertyOp47
 70
     1
102
RTVSPropertyOp48
 70
     1
102
RTVSPropertyOp49
 70
     1
102
RTVSPropertyOp50
 70
     1
102
RTVSPropertyOp51
 70
     0
102
RTVSPropertyOp52
 70
     0
102
RTVSPropertyOp53
 70
     1
102
RTVSPropertyOp54
 70
     1
102
RTVSPropertyOp55
 70
     1
102
RTVSPropertyOp56
 70
     1
102
RTVSPropertyOp57
 70
     1
102
RTVSPropertyOp58
 70
     1
102
RTVSPropertyOp59
 70
     1
102
RTVSPropertyOp60
 70
     1
102
RTVSPropertyOp61
 70
     1
102
RTVSPropertyOp62
 70
     1
  0
XRECORD
  5
1AC65
102
{ACAD_REACTORS
330
1AC64
102
}
330
1AC64
100
AcDbXrecord
280
     1
102
RTVSPost2010Prop28
280
     0
102
RTVSPost2010PropOp28
 70
     1
102
RTVSPost2010Prop29
280
     1
102
RTVSPost2010PropOp29
 70
     1
102
RTVSPost2010Prop30
280
     1
102
RTVSPost2010PropOp30
 70
     1
102
RTVSPost2010Prop31
280
     0
102
RTVSPost2010PropOp31
 70
     1
102
RTVSPost2010Prop32
280
     0
102
RTVSPost2010PropOp32
 70
     1
102
RTVSPost2010Prop33
280
     0
102
RTVSPost2010PropOp33
 70
     1
102
RTVSPost2010Prop34
280
     0
102
RTVSPost2010PropOp34
 70
     1
102
RTVSPost2010Prop35
280
     0
102
RTVSPost2010PropOp35
 70
     1
102
RTVSPost2010Prop36
280
     0
102
RTVSPost2010PropOp36
 70
     1
102
RTVSPost2010Prop37
 90
       50
102
RTVSPost2010PropOp37
 70
     1
102
RTVSPost2010Prop38
140
0.0
102
RTVSPost2010PropOp38
 70
     1
102
RTVSPost2010Prop39
140
1.0
102
RTVSPost2010PropOp39
 70
     1
102
RTVSPost2010Prop40
 90
        0
102
RTVSPost2010PropOp40
 70
     1
102
RTVSPost2010Prop41ColorIndex
 90
       18
102
RTVSPost2010Prop41ColorRGB
 90
        0
102
RTVSPost2010PropOp41
 70
     1
102
RTVSPost2010Prop42
 90
       50
102
RTVSPost2010PropOp42
 70
     1
102
RTVSPost2010Prop43
 90
        3
102
RTVSPost2010PropOp43
 70
     1
102
RTVSPost2010Prop44ColorIndex
 90
        5
102
RTVSPost2010Prop44ColorRGB
 90
      255
102
RTVSPost2010PropOp44
 70
     1
102
RTVSPost2010Prop45
280
     0
102
RTVSPost2010PropOp45
 70
     1
102
RTVSPost2010Prop46
 90
       50
102
RTVSPost2010PropOp46
 70
     1
102
RTVSPost2010Prop47
 90
       50
102
RTVSPost2010PropOp47
 70
     1
102
RTVSPost2010Prop48
 90
       50
102
RTVSPost2010PropOp48
 70
     1
102
RTVSPost2010Prop49
280
     0
102
RTVSPost2010PropOp49
 70
     1
102
RTVSPost2010Prop50
 90
       50
102
RTVSPost2010PropOp50
 70
     1
102
RTVSPost2010Prop51ColorIndex
 90
      256
102
RTVSPost2010Prop51ColorRGB
 90
-16777216
102
RTVSPost2010PropOp51
 70
     0
102
RTVSPost2010Prop52
140
1.0
102
RTVSPost2010PropOp52
 70
     0
102
RTVSPost2010Prop53
 90
        2
102
RTVSPost2010PropOp53
 70
     1
102
RTVSPost2010Prop54
  1
strokes_ogs.tif
102
RTVSPost2010PropOp54
 70
     1
102
RTVSPost2010Prop55
280
     0
102
RTVSPost2010PropOp55
 70
     1
102
RTVSPost2010Prop56
140
1.0
102
RTVSPost2010PropOp56
 70
     1
102
RTVSPost2010Prop57
140
1.0
102
RTVSPost2010PropOp57
 70
     1
102
RTVSPropertyOp0
 70
     1
102
RTVSPropertyOp1
 70
     1
102
RTVSPropertyOp2
 70
     1
102
RTVSPropertyOp3
 70
     1
102
RTVSPropertyOp4
 70
     1
102
RTVSPropertyOp5
 70
     1
102
RTVSPropertyOp6
 70
     1
102
RTVSPropertyOp7
 70
     1
102
RTVSPropertyOp8
 70
     1
102
RTVSPropertyOp9
 70
     1
102
RTVSPropertyOp10
 70
     1
102
RTVSPropertyOp11
 70
     1
102
RTVSPropertyOp12
 70
     1
102
RTVSPropertyOp13
 70
     1
102
RTVSPropertyOp14
 70
     1
102
RTVSPropertyOp15
 70
     1
102
RTVSPropertyOp16
 70
     1
102
RTVSPropertyOp17
 70
     1
102
RTVSPropertyOp18
 70
     1
102
RTVSPropertyOp19
 70
     1
102
RTVSPropertyOp20
 70
     1
102
RTVSPropertyOp21
 70
     1
102
RTVSPropertyOp22
 70
     1
102
RTVSPropertyOp23
 70
     1
102
RTVSPropertyOp24
 70
     1
102
RTVSPropertyOp25
 70
     1
102
RTVSPropertyOp26
 70
     1
102
RTVSPropertyOp27
 70
     1
102
RTVSPropertyOp28
 70
     1
102
RTVSPropertyOp29
 70
     1
102
RTVSPropertyOp30
 70
     1
102
RTVSPropertyOp31
 70
     1
102
RTVSPropertyOp32
 70
     1
102
RTVSPropertyOp33
 70
     1
102
RTVSPropertyOp34
 70
     1
102
RTVSPropertyOp35
 70
     1
102
RTVSPropertyOp36
 70
     1
102
RTVSPropertyOp37
 70
     1
102
RTVSPropertyOp38
 70
     1
102
RTVSPropertyOp39
 70
     1
102
RTVSPropertyOp40
 70
     1
102
RTVSPropertyOp41
 70
     1
102
RTVSPropertyOp42
 70
     1
102
RTVSPropertyOp43
 70
     1
102
RTVSPropertyOp44
 70
     1
102
RTVSPropertyOp45
 70
     1
102
RTVSPropertyOp46
 70
     1
102
RTVSPropertyOp47
 70
     1
102
RTVSPropertyOp48
 70
     1
102
RTVSPropertyOp49
 70
     1
102
RTVSPropertyOp50
 70
     1
102
RTVSPropertyOp51
 70
     0
102
RTVSPropertyOp52
 70
     0
102
RTVSPropertyOp53
 70
     1
102
RTVSPropertyOp54
 70
     1
102
RTVSPropertyOp55
 70
     1
102
RTVSPropertyOp56
 70
     1
102
RTVSPropertyOp57
 70
     1
102
RTVSPropertyOp58
 70
     1
102
RTVSPropertyOp59
 70
     1
102
RTVSPropertyOp60
 70
     1
102
RTVSPropertyOp61
 70
     1
102
RTVSPropertyOp62
 70
     1
  0
XRECORD
  5
1AC67
102
{ACAD_REACTORS
330
1AC66
102
}
330
1AC66
100
AcDbXrecord
280
     1
102
RTVSPost2010Prop28
280
     0
102
RTVSPost2010PropOp28
 70
     1
102
RTVSPost2010Prop29
280
     1
102
RTVSPost2010PropOp29
 70
     1
102
RTVSPost2010Prop30
280
     1
102
RTVSPost2010PropOp30
 70
     1
102
RTVSPost2010Prop31
280
     0
102
RTVSPost2010PropOp31
 70
     1
102
RTVSPost2010Prop32
280
     0
102
RTVSPost2010PropOp32
 70
     1
102
RTVSPost2010Prop33
280
     0
102
RTVSPost2010PropOp33
 70
     1
102
RTVSPost2010Prop34
280
     0
102
RTVSPost2010PropOp34
 70
     1
102
RTVSPost2010Prop35
280
     0
102
RTVSPost2010PropOp35
 70
     1
102
RTVSPost2010Prop36
280
     0
102
RTVSPost2010PropOp36
 70
     1
102
RTVSPost2010Prop37
 90
       50
102
RTVSPost2010PropOp37
 70
     1
102
RTVSPost2010Prop38
140
0.0
102
RTVSPost2010PropOp38
 70
     1
102
RTVSPost2010Prop39
140
1.0
102
RTVSPost2010PropOp39
 70
     1
102
RTVSPost2010Prop40
 90
        0
102
RTVSPost2010PropOp40
 70
     1
102
RTVSPost2010Prop41ColorIndex
 90
       18
102
RTVSPost2010Prop41ColorRGB
 90
        0
102
RTVSPost2010PropOp41
 70
     1
102
RTVSPost2010Prop42
 90
       50
102
RTVSPost2010PropOp42
 70
     1
102
RTVSPost2010Prop43
 90
        3
102
RTVSPost2010PropOp43
 70
     1
102
RTVSPost2010Prop44ColorIndex
 90
        5
102
RTVSPost2010Prop44ColorRGB
 90
      255
102
RTVSPost2010PropOp44
 70
     1
102
RTVSPost2010Prop45
280
     0
102
RTVSPost2010PropOp45
 70
     1
102
RTVSPost2010Prop46
 90
       50
102
RTVSPost2010PropOp46
 70
     1
102
RTVSPost2010Prop47
 90
       50
102
RTVSPost2010PropOp47
 70
     1
102
RTVSPost2010Prop48
 90
       50
102
RTVSPost2010PropOp48
 70
     1
102
RTVSPost2010Prop49
280
     0
102
RTVSPost2010PropOp49
 70
     1
102
RTVSPost2010Prop50
 90
       50
102
RTVSPost2010PropOp50
 70
     1
102
RTVSPost2010Prop51ColorIndex
 90
      256
102
RTVSPost2010Prop51ColorRGB
 90
-16777216
102
RTVSPost2010PropOp51
 70
     0
102
RTVSPost2010Prop52
140
1.0
102
RTVSPost2010PropOp52
 70
     0
102
RTVSPost2010Prop53
 90
        2
102
RTVSPost2010PropOp53
 70
     1
102
RTVSPost2010Prop54
  1
strokes_ogs.tif
102
RTVSPost2010PropOp54
 70
     1
102
RTVSPost2010Prop55
280
     0
102
RTVSPost2010PropOp55
 70
     1
102
RTVSPost2010Prop56
140
1.0
102
RTVSPost2010PropOp56
 70
     1
102
RTVSPost2010Prop57
140
1.0
102
RTVSPost2010PropOp57
 70
     1
102
RTVSPropertyOp0
 70
     1
102
RTVSPropertyOp1
 70
     1
102
RTVSPropertyOp2
 70
     1
102
RTVSPropertyOp3
 70
     1
102
RTVSPropertyOp4
 70
     1
102
RTVSPropertyOp5
 70
     1
102
RTVSPropertyOp6
 70
     1
102
RTVSPropertyOp7
 70
     1
102
RTVSPropertyOp8
 70
     1
102
RTVSPropertyOp9
 70
     1
102
RTVSPropertyOp10
 70
     1
102
RTVSPropertyOp11
 70
     1
102
RTVSPropertyOp12
 70
     1
102
RTVSPropertyOp13
 70
     1
102
RTVSPropertyOp14
 70
     1
102
RTVSPropertyOp15
 70
     1
102
RTVSPropertyOp16
 70
     1
102
RTVSPropertyOp17
 70
     1
102
RTVSPropertyOp18
 70
     1
102
RTVSPropertyOp19
 70
     1
102
RTVSPropertyOp20
 70
     1
102
RTVSPropertyOp21
 70
     1
102
RTVSPropertyOp22
 70
     1
102
RTVSPropertyOp23
 70
     1
102
RTVSPropertyOp24
 70
     1
102
RTVSPropertyOp25
 70
     1
102
RTVSPropertyOp26
 70
     1
102
RTVSPropertyOp27
 70
     1
102
RTVSPropertyOp28
 70
     1
102
RTVSPropertyOp29
 70
     1
102
RTVSPropertyOp30
 70
     1
102
RTVSPropertyOp31
 70
     1
102
RTVSPropertyOp32
 70
     1
102
RTVSPropertyOp33
 70
     1
102
RTVSPropertyOp34
 70
     1
102
RTVSPropertyOp35
 70
     1
102
RTVSPropertyOp36
 70
     1
102
RTVSPropertyOp37
 70
     1
102
RTVSPropertyOp38
 70
     1
102
RTVSPropertyOp39
 70
     1
102
RTVSPropertyOp40
 70
     1
102
RTVSPropertyOp41
 70
     1
102
RTVSPropertyOp42
 70
     1
102
RTVSPropertyOp43
 70
     1
102
RTVSPropertyOp44
 70
     1
102
RTVSPropertyOp45
 70
     1
102
RTVSPropertyOp46
 70
     1
102
RTVSPropertyOp47
 70
     1
102
RTVSPropertyOp48
 70
     1
102
RTVSPropertyOp49
 70
     1
102
RTVSPropertyOp50
 70
     1
102
RTVSPropertyOp51
 70
     0
102
RTVSPropertyOp52
 70
     0
102
RTVSPropertyOp53
 70
     1
102
RTVSPropertyOp54
 70
     1
102
RTVSPropertyOp55
 70
     1
102
RTVSPropertyOp56
 70
     1
102
RTVSPropertyOp57
 70
     1
102
RTVSPropertyOp58
 70
     1
102
RTVSPropertyOp59
 70
     1
102
RTVSPropertyOp60
 70
     1
102
RTVSPropertyOp61
 70
     1
102
RTVSPropertyOp62
 70
     1
  0
XRECORD
  5
1AC5D
102
{ACAD_REACTORS
330
1AC5C
102
}
330
1AC5C
100
AcDbXrecord
280
     1
102
RTVSPost2010Prop28
280
     0
102
RTVSPost2010PropOp28
 70
     1
102
RTVSPost2010Prop29
280
     1
102
RTVSPost2010PropOp29
 70
     1
102
RTVSPost2010Prop30
280
     1
102
RTVSPost2010PropOp30
 70
     1
102
RTVSPost2010Prop31
280
     0
102
RTVSPost2010PropOp31
 70
     1
102
RTVSPost2010Prop32
280
     0
102
RTVSPost2010PropOp32
 70
     1
102
RTVSPost2010Prop33
280
     0
102
RTVSPost2010PropOp33
 70
     1
102
RTVSPost2010Prop34
280
     0
102
RTVSPost2010PropOp34
 70
     1
102
RTVSPost2010Prop35
280
     0
102
RTVSPost2010PropOp35
 70
     1
102
RTVSPost2010Prop36
280
     0
102
RTVSPost2010PropOp36
 70
     1
102
RTVSPost2010Prop37
 90
       50
102
RTVSPost2010PropOp37
 70
     1
102
RTVSPost2010Prop38
140
0.0
102
RTVSPost2010PropOp38
 70
     1
102
RTVSPost2010Prop39
140
1.0
102
RTVSPost2010PropOp39
 70
     1
102
RTVSPost2010Prop40
 90
        0
102
RTVSPost2010PropOp40
 70
     1
102
RTVSPost2010Prop41ColorIndex
 90
       18
102
RTVSPost2010Prop41ColorRGB
 90
        0
102
RTVSPost2010PropOp41
 70
     1
102
RTVSPost2010Prop42
 90
       50
102
RTVSPost2010PropOp42
 70
     1
102
RTVSPost2010Prop43
 90
        3
102
RTVSPost2010PropOp43
 70
     1
102
RTVSPost2010Prop44ColorIndex
 90
        5
102
RTVSPost2010Prop44ColorRGB
 90
      255
102
RTVSPost2010PropOp44
 70
     1
102
RTVSPost2010Prop45
280
     0
102
RTVSPost2010PropOp45
 70
     1
102
RTVSPost2010Prop46
 90
       50
102
RTVSPost2010PropOp46
 70
     1
102
RTVSPost2010Prop47
 90
       50
102
RTVSPost2010PropOp47
 70
     1
102
RTVSPost2010Prop48
 90
       50
102
RTVSPost2010PropOp48
 70
     1
102
RTVSPost2010Prop49
280
     0
102
RTVSPost2010PropOp49
 70
     1
102
RTVSPost2010Prop50
 90
       50
102
RTVSPost2010PropOp50
 70
     1
102
RTVSPost2010Prop51ColorIndex
 90
      256
102
RTVSPost2010Prop51ColorRGB
 90
-16777216
102
RTVSPost2010PropOp51
 70
     0
102
RTVSPost2010Prop52
140
1.0
102
RTVSPost2010PropOp52
 70
     0
102
RTVSPost2010Prop53
 90
        2
102
RTVSPost2010PropOp53
 70
     1
102
RTVSPost2010Prop54
  1
strokes_ogs.tif
102
RTVSPost2010PropOp54
 70
     1
102
RTVSPost2010Prop55
280
     0
102
RTVSPost2010PropOp55
 70
     1
102
RTVSPost2010Prop56
140
1.0
102
RTVSPost2010PropOp56
 70
     1
102
RTVSPost2010Prop57
140
1.0
102
RTVSPost2010PropOp57
 70
     1
102
RTVSPropertyOp0
 70
     1
102
RTVSPropertyOp1
 70
     1
102
RTVSPropertyOp2
 70
     1
102
RTVSPropertyOp3
 70
     1
102
RTVSPropertyOp4
 70
     1
102
RTVSPropertyOp5
 70
     1
102
RTVSPropertyOp6
 70
     1
102
RTVSPropertyOp7
 70
     1
102
RTVSPropertyOp8
 70
     1
102
RTVSPropertyOp9
 70
     1
102
RTVSPropertyOp10
 70
     1
102
RTVSPropertyOp11
 70
     1
102
RTVSPropertyOp12
 70
     1
102
RTVSPropertyOp13
 70
     1
102
RTVSPropertyOp14
 70
     1
102
RTVSPropertyOp15
 70
     1
102
RTVSPropertyOp16
 70
     1
102
RTVSPropertyOp17
 70
     1
102
RTVSPropertyOp18
 70
     1
102
RTVSPropertyOp19
 70
     1
102
RTVSPropertyOp20
 70
     1
102
RTVSPropertyOp21
 70
     1
102
RTVSPropertyOp22
 70
     1
102
RTVSPropertyOp23
 70
     1
102
RTVSPropertyOp24
 70
     1
102
RTVSPropertyOp25
 70
     1
102
RTVSPropertyOp26
 70
     1
102
RTVSPropertyOp27
 70
     1
102
RTVSPropertyOp28
 70
     1
102
RTVSPropertyOp29
 70
     1
102
RTVSPropertyOp30
 70
     1
102
RTVSPropertyOp31
 70
     1
102
RTVSPropertyOp32
 70
     1
102
RTVSPropertyOp33
 70
     1
102
RTVSPropertyOp34
 70
     1
102
RTVSPropertyOp35
 70
     1
102
RTVSPropertyOp36
 70
     1
102
RTVSPropertyOp37
 70
     1
102
RTVSPropertyOp38
 70
     1
102
RTVSPropertyOp39
 70
     1
102
RTVSPropertyOp40
 70
     1
102
RTVSPropertyOp41
 70
     1
102
RTVSPropertyOp42
 70
     1
102
RTVSPropertyOp43
 70
     1
102
RTVSPropertyOp44
 70
     1
102
RTVSPropertyOp45
 70
     1
102
RTVSPropertyOp46
 70
     1
102
RTVSPropertyOp47
 70
     1
102
RTVSPropertyOp48
 70
     1
102
RTVSPropertyOp49
 70
     1
102
RTVSPropertyOp50
 70
     1
102
RTVSPropertyOp51
 70
     0
102
RTVSPropertyOp52
 70
     0
102
RTVSPropertyOp53
 70
     1
102
RTVSPropertyOp54
 70
     1
102
RTVSPropertyOp55
 70
     1
102
RTVSPropertyOp56
 70
     1
102
RTVSPropertyOp57
 70
     1
102
RTVSPropertyOp58
 70
     1
102
RTVSPropertyOp59
 70
     1
102
RTVSPropertyOp60
 70
     1
102
RTVSPropertyOp61
 70
     1
102
RTVSPropertyOp62
 70
     1
  0
XRECORD
  5
1AC51
102
{ACAD_REACTORS
330
1AC50
102
}
330
1AC50
100
AcDbXrecord
280
     1
102
RTVSPost2010Prop28
280
     0
102
RTVSPost2010PropOp28
 70
     1
102
RTVSPost2010Prop29
280
     1
102
RTVSPost2010PropOp29
 70
     1
102
RTVSPost2010Prop30
280
     1
102
RTVSPost2010PropOp30
 70
     1
102
RTVSPost2010Prop31
280
     0
102
RTVSPost2010PropOp31
 70
     1
102
RTVSPost2010Prop32
280
     0
102
RTVSPost2010PropOp32
 70
     1
102
RTVSPost2010Prop33
280
     0
102
RTVSPost2010PropOp33
 70
     1
102
RTVSPost2010Prop34
280
     0
102
RTVSPost2010PropOp34
 70
     1
102
RTVSPost2010Prop35
280
     0
102
RTVSPost2010PropOp35
 70
     1
102
RTVSPost2010Prop36
280
     0
102
RTVSPost2010PropOp36
 70
     1
102
RTVSPost2010Prop37
 90
       50
102
RTVSPost2010PropOp37
 70
     1
102
RTVSPost2010Prop38
140
0.0
102
RTVSPost2010PropOp38
 70
     1
102
RTVSPost2010Prop39
140
1.0
102
RTVSPost2010PropOp39
 70
     1
102
RTVSPost2010Prop40
 90
        0
102
RTVSPost2010PropOp40
 70
     1
102
RTVSPost2010Prop41ColorIndex
 90
       18
102
RTVSPost2010Prop41ColorRGB
 90
        0
102
RTVSPost2010PropOp41
 70
     1
102
RTVSPost2010Prop42
 90
       50
102
RTVSPost2010PropOp42
 70
     1
102
RTVSPost2010Prop43
 90
        3
102
RTVSPost2010PropOp43
 70
     1
102
RTVSPost2010Prop44ColorIndex
 90
        5
102
RTVSPost2010Prop44ColorRGB
 90
      255
102
RTVSPost2010PropOp44
 70
     1
102
RTVSPost2010Prop45
280
     0
102
RTVSPost2010PropOp45
 70
     1
102
RTVSPost2010Prop46
 90
       50
102
RTVSPost2010PropOp46
 70
     1
102
RTVSPost2010Prop47
 90
       50
102
RTVSPost2010PropOp47
 70
     1
102
RTVSPost2010Prop48
 90
       50
102
RTVSPost2010PropOp48
 70
     1
102
RTVSPost2010Prop49
280
     0
102
RTVSPost2010PropOp49
 70
     1
102
RTVSPost2010Prop50
 90
       50
102
RTVSPost2010PropOp50
 70
     1
102
RTVSPost2010Prop51ColorIndex
 90
      256
102
RTVSPost2010Prop51ColorRGB
 90
-16777216
102
RTVSPost2010PropOp51
 70
     0
102
RTVSPost2010Prop52
140
1.0
102
RTVSPost2010PropOp52
 70
     0
102
RTVSPost2010Prop53
 90
        2
102
RTVSPost2010PropOp53
 70
     1
102
RTVSPost2010Prop54
  1
strokes_ogs.tif
102
RTVSPost2010PropOp54
 70
     1
102
RTVSPost2010Prop55
280
     0
102
RTVSPost2010PropOp55
 70
     1
102
RTVSPost2010Prop56
140
1.0
102
RTVSPost2010PropOp56
 70
     1
102
RTVSPost2010Prop57
140
1.0
102
RTVSPost2010PropOp57
 70
     1
102
RTVSPropertyOp0
 70
     1
102
RTVSPropertyOp1
 70
     1
102
RTVSPropertyOp2
 70
     1
102
RTVSPropertyOp3
 70
     1
102
RTVSPropertyOp4
 70
     1
102
RTVSPropertyOp5
 70
     1
102
RTVSPropertyOp6
 70
     1
102
RTVSPropertyOp7
 70
     1
102
RTVSPropertyOp8
 70
     1
102
RTVSPropertyOp9
 70
     1
102
RTVSPropertyOp10
 70
     1
102
RTVSPropertyOp11
 70
     1
102
RTVSPropertyOp12
 70
     1
102
RTVSPropertyOp13
 70
     1
102
RTVSPropertyOp14
 70
     1
102
RTVSPropertyOp15
 70
     1
102
RTVSPropertyOp16
 70
     1
102
RTVSPropertyOp17
 70
     1
102
RTVSPropertyOp18
 70
     1
102
RTVSPropertyOp19
 70
     1
102
RTVSPropertyOp20
 70
     1
102
RTVSPropertyOp21
 70
     1
102
RTVSPropertyOp22
 70
     1
102
RTVSPropertyOp23
 70
     1
102
RTVSPropertyOp24
 70
     1
102
RTVSPropertyOp25
 70
     1
102
RTVSPropertyOp26
 70
     1
102
RTVSPropertyOp27
 70
     1
102
RTVSPropertyOp28
 70
     1
102
RTVSPropertyOp29
 70
     1
102
RTVSPropertyOp30
 70
     1
102
RTVSPropertyOp31
 70
     1
102
RTVSPropertyOp32
 70
     1
102
RTVSPropertyOp33
 70
     1
102
RTVSPropertyOp34
 70
     1
102
RTVSPropertyOp35
 70
     1
102
RTVSPropertyOp36
 70
     1
102
RTVSPropertyOp37
 70
     1
102
RTVSPropertyOp38
 70
     1
102
RTVSPropertyOp39
 70
     1
102
RTVSPropertyOp40
 70
     1
102
RTVSPropertyOp41
 70
     1
102
RTVSPropertyOp42
 70
     1
102
RTVSPropertyOp43
 70
     1
102
RTVSPropertyOp44
 70
     1
102
RTVSPropertyOp45
 70
     1
102
RTVSPropertyOp46
 70
     1
102
RTVSPropertyOp47
 70
     1
102
RTVSPropertyOp48
 70
     1
102
RTVSPropertyOp49
 70
     1
102
RTVSPropertyOp50
 70
     1
102
RTVSPropertyOp51
 70
     0
102
RTVSPropertyOp52
 70
     0
102
RTVSPropertyOp53
 70
     1
102
RTVSPropertyOp54
 70
     1
102
RTVSPropertyOp55
 70
     1
102
RTVSPropertyOp56
 70
     1
102
RTVSPropertyOp57
 70
     1
102
RTVSPropertyOp58
 70
     1
102
RTVSPropertyOp59
 70
     1
102
RTVSPropertyOp60
 70
     1
102
RTVSPropertyOp61
 70
     1
102
RTVSPropertyOp62
 70
     1
  0
XRECORD
  5
1AC69
102
{ACAD_REACTORS
330
1AC68
102
}
330
1AC68
100
AcDbXrecord
280
     1
102
RTVSPost2010Prop28
280
     0
102
RTVSPost2010PropOp28
 70
     1
102
RTVSPost2010Prop29
280
     1
102
RTVSPost2010PropOp29
 70
     1
102
RTVSPost2010Prop30
280
     1
102
RTVSPost2010PropOp30
 70
     1
102
RTVSPost2010Prop31
280
     0
102
RTVSPost2010PropOp31
 70
     1
102
RTVSPost2010Prop32
280
     0
102
RTVSPost2010PropOp32
 70
     1
102
RTVSPost2010Prop33
280
     0
102
RTVSPost2010PropOp33
 70
     1
102
RTVSPost2010Prop34
280
     0
102
RTVSPost2010PropOp34
 70
     1
102
RTVSPost2010Prop35
280
     0
102
RTVSPost2010PropOp35
 70
     1
102
RTVSPost2010Prop36
280
     0
102
RTVSPost2010PropOp36
 70
     1
102
RTVSPost2010Prop37
 90
       50
102
RTVSPost2010PropOp37
 70
     1
102
RTVSPost2010Prop38
140
0.0
102
RTVSPost2010PropOp38
 70
     1
102
RTVSPost2010Prop39
140
1.0
102
RTVSPost2010PropOp39
 70
     1
102
RTVSPost2010Prop40
 90
        0
102
RTVSPost2010PropOp40
 70
     1
102
RTVSPost2010Prop41ColorIndex
 90
       18
102
RTVSPost2010Prop41ColorRGB
 90
        0
102
RTVSPost2010PropOp41
 70
     1
102
RTVSPost2010Prop42
 90
       50
102
RTVSPost2010PropOp42
 70
     1
102
RTVSPost2010Prop43
 90
        3
102
RTVSPost2010PropOp43
 70
     1
102
RTVSPost2010Prop44ColorIndex
 90
        5
102
RTVSPost2010Prop44ColorRGB
 90
      255
102
RTVSPost2010PropOp44
 70
     1
102
RTVSPost2010Prop45
280
     0
102
RTVSPost2010PropOp45
 70
     1
102
RTVSPost2010Prop46
 90
       50
102
RTVSPost2010PropOp46
 70
     1
102
RTVSPost2010Prop47
 90
       50
102
RTVSPost2010PropOp47
 70
     1
102
RTVSPost2010Prop48
 90
       50
102
RTVSPost2010PropOp48
 70
     1
102
RTVSPost2010Prop49
280
     0
102
RTVSPost2010PropOp49
 70
     1
102
RTVSPost2010Prop50
 90
       50
102
RTVSPost2010PropOp50
 70
     1
102
RTVSPost2010Prop51ColorIndex
 90
      256
102
RTVSPost2010Prop51ColorRGB
 90
-16777216
102
RTVSPost2010PropOp51
 70
     0
102
RTVSPost2010Prop52
140
1.0
102
RTVSPost2010PropOp52
 70
     0
102
RTVSPost2010Prop53
 90
        2
102
RTVSPost2010PropOp53
 70
     1
102
RTVSPost2010Prop54
  1
strokes_ogs.tif
102
RTVSPost2010PropOp54
 70
     1
102
RTVSPost2010Prop55
280
     0
102
RTVSPost2010PropOp55
 70
     1
102
RTVSPost2010Prop56
140
1.0
102
RTVSPost2010PropOp56
 70
     1
102
RTVSPost2010Prop57
140
1.0
102
RTVSPost2010PropOp57
 70
     1
102
RTVSPropertyOp0
 70
     1
102
RTVSPropertyOp1
 70
     1
102
RTVSPropertyOp2
 70
     1
102
RTVSPropertyOp3
 70
     1
102
RTVSPropertyOp4
 70
     1
102
RTVSPropertyOp5
 70
     1
102
RTVSPropertyOp6
 70
     1
102
RTVSPropertyOp7
 70
     1
102
RTVSPropertyOp8
 70
     1
102
RTVSPropertyOp9
 70
     1
102
RTVSPropertyOp10
 70
     1
102
RTVSPropertyOp11
 70
     1
102
RTVSPropertyOp12
 70
     1
102
RTVSPropertyOp13
 70
     1
102
RTVSPropertyOp14
 70
     1
102
RTVSPropertyOp15
 70
     1
102
RTVSPropertyOp16
 70
     1
102
RTVSPropertyOp17
 70
     1
102
RTVSPropertyOp18
 70
     1
102
RTVSPropertyOp19
 70
     1
102
RTVSPropertyOp20
 70
     1
102
RTVSPropertyOp21
 70
     1
102
RTVSPropertyOp22
 70
     1
102
RTVSPropertyOp23
 70
     1
102
RTVSPropertyOp24
 70
     1
102
RTVSPropertyOp25
 70
     1
102
RTVSPropertyOp26
 70
     1
102
RTVSPropertyOp27
 70
     1
102
RTVSPropertyOp28
 70
     1
102
RTVSPropertyOp29
 70
     1
102
RTVSPropertyOp30
 70
     1
102
RTVSPropertyOp31
 70
     1
102
RTVSPropertyOp32
 70
     1
102
RTVSPropertyOp33
 70
     1
102
RTVSPropertyOp34
 70
     1
102
RTVSPropertyOp35
 70
     1
102
RTVSPropertyOp36
 70
     1
102
RTVSPropertyOp37
 70
     1
102
RTVSPropertyOp38
 70
     1
102
RTVSPropertyOp39
 70
     1
102
RTVSPropertyOp40
 70
     1
102
RTVSPropertyOp41
 70
     1
102
RTVSPropertyOp42
 70
     1
102
RTVSPropertyOp43
 70
     1
102
RTVSPropertyOp44
 70
     1
102
RTVSPropertyOp45
 70
     1
102
RTVSPropertyOp46
 70
     1
102
RTVSPropertyOp47
 70
     1
102
RTVSPropertyOp48
 70
     1
102
RTVSPropertyOp49
 70
     1
102
RTVSPropertyOp50
 70
     1
102
RTVSPropertyOp51
 70
     0
102
RTVSPropertyOp52
 70
     0
102
RTVSPropertyOp53
 70
     1
102
RTVSPropertyOp54
 70
     1
102
RTVSPropertyOp55
 70
     1
102
RTVSPropertyOp56
 70
     1
102
RTVSPropertyOp57
 70
     1
102
RTVSPropertyOp58
 70
     1
102
RTVSPropertyOp59
 70
     1
102
RTVSPropertyOp60
 70
     1
102
RTVSPropertyOp61
 70
     1
102
RTVSPropertyOp62
 70
     1
  0
ENDSEC
  0
EOF
