  0
SECTION
  2
HEADER
  9
$ACADVER
  1
AC1015
  9
$ACADMAINTVER
 70
    20
  9
$DWGCODEPAGE
  3
ANSI_932
  9
$INSBASE
 10
0.0
 20
0.0
 30
0.0
  9
$EXTMIN
 10
9.99995
 20
9.999999999999998
 30
0.0
  9
$EXTMAX
 10
268.496011
 20
203.999969
 30
0.0
  9
$LIMMIN
 10
0.0
 20
0.0
  9
$LIMMAX
 10
396.0
 20
273.0
  9
$ORTHOMODE
 70
     1
  9
$REGENMODE
 70
     1
  9
$FILLMODE
 70
     1
  9
$QTEXTMODE
 70
     0
  9
$MIRRTEXT
 70
     1
  9
$LTSCALE
 40
20.0
  9
$ATTMODE
 70
     1
  9
$TEXTSIZE
 40
5.0
  9
$TRACEWID
 40
1.0
  9
$TEXTSTYLE
  7
STANDARD
  9
$CLAYER
  8
0
  9
$CELTYPE
  6
BYLAYER
  9
$CECOLOR
 62
   256
  9
$CELTSCALE
 40
1.0
  9
$DISPSILH
 70
     0
  9
$DIMSCALE
 40
1.0
  9
$DIMASZ
 40
3.0
  9
$DIMEXO
 40
1.0
  9
$DIMDLI
 40
10.0
  9
$DIMRND
 40
0.0
  9
$DIMDLE
 40
0.0
  9
$DIMEXE
 40
1.0
  9
$DIMTP
 40
0.0
  9
$DIMTM
 40
0.0
  9
$DIMTXT
 40
3.2
  9
$DIMCEN
 40
0.0
  9
$DIMTSZ
 40
0.0
  9
$DIMTOL
 70
     0
  9
$DIMLIM
 70
     0
  9
$DIMTIH
 70
     0
  9
$DIMTOH
 70
     0
  9
$DIMSE1
 70
     0
  9
$DIMSE2
 70
     0
  9
$DIMTAD
 70
     3
  9
$DIMZIN
 70
     8
  9
$DIMBLK
  1

  9
$DIMASO
 70
     1
  9
$DIMSHO
 70
     1
  9
$DIMPOST
  1

  9
$DIMAPOST
  1

  9
$DIMALT
 70
     0
  9
$DIMALTD
 70
     2
  9
$DIMALTF
 40
25.4
  9
$DIMLFAC
 40
1.0
  9
$DIMTOFL
 70
     1
  9
$DIMTVP
 40
0.0
  9
$DIMTIX
 70
     0
  9
$DIMSOXD
 70
     0
  9
$DIMSAH
 70
     1
  9
$DIMBLK1
  1
OPEN
  9
$DIMBLK2
  1
OPEN
  9
$DIMSTYLE
  2
STANDARD
  9
$DIMCLRD
 70
     0
  9
$DIMCLRE
 70
     0
  9
$DIMCLRT
 70
     0
  9
$DIMTFAC
 40
1.0
  9
$DIMGAP
 40
1.0
  9
$DIMJUST
 70
     0
  9
$DIMSD1
 70
     0
  9
$DIMSD2
 70
     0
  9
$DIMTOLJ
 70
     1
  9
$DIMTZIN
 70
     0
  9
$DIMALTZ
 70
     0
  9
$DIMALTTZ
 70
     0
  9
$DIMUPT
 70
     0
  9
$DIMDEC
 70
     4
  9
$DIMTDEC
 70
     4
  9
$DIMALTU
 70
     2
  9
$DIMALTTD
 70
     2
  9
$DIMTXSTY
  7
STANDARD
  9
$DIMAUNIT
 70
     0
  9
$DIMADEC
 70
     0
  9
$DIMALTRND
 40
0.0
  9
$DIMAZIN
 70
     0
  9
$DIMDSEP
 70
    46
  9
$DIMATFIT
 70
     3
  9
$DIMFRAC
 70
     0
  9
$DIMLDRBLK
  1
OPEN
  9
$DIMLUNIT
 70
     2
  9
$DIMLWD
 70
    -2
  9
$DIMLWE
 70
    -2
  9
$DIMTMOVE
 70
     0
  9
$LUNITS
 70
     2
  9
$LUPREC
 70
     4
  9
$SKETCHINC
 40
1.0
  9
$FILLETRAD
 40
0.0
  9
$AUNITS
 70
     0
  9
$AUPREC
 70
     2
  9
$MENU
  1
.
  9
$ELEVATION
 40
0.0
  9
$PELEVATION
 40
0.0
  9
$THICKNESS
 40
0.0
  9
$LIMCHECK
 70
     0
  9
$CHAMFERA
 40
10.0
  9
$CHAMFERB
 40
10.0
  9
$CHAMFERC
 40
0.0
  9
$CHAMFERD
 40
0.0
  9
$SKPOLY
 70
     0
  9
$TDCREATE
 40
2451300.690244908
  9
$TDUCREATE
 40
2451300.315244908
  9
$TDUPDATE
 40
2457192.656887847
  9
$TDUUPDATE
 40
2457192.281887847
  9
$TDINDWG
 40
0.0000109259
  9
$TDUSRTIMER
 40
0.0000106019
  9
$USRTIMER
 70
     1
  9
$ANGBASE
 50
0.0
  9
$ANGDIR
 70
     0
  9
$PDMODE
 70
    34
  9
$PDSIZE
 40
0.0
  9
$PLINEWID
 40
0.0
  9
$SPLFRAME
 70
     0
  9
$SPLINETYPE
 70
     6
  9
$SPLINESEGS
 70
     8
  9
$HANDSEED
  5
1A55A
  9
$SURFTAB1
 70
     6
  9
$SURFTAB2
 70
     6
  9
$SURFTYPE
 70
     6
  9
$SURFU
 70
     6
  9
$SURFV
 70
     6
  9
$UCSBASE
  2

  9
$UCSNAME
  2

  9
$UCSORG
 10
0.0
 20
0.0
 30
0.0
  9
$UCSXDIR
 10
1.0
 20
0.0
 30
0.0
  9
$UCSYDIR
 10
0.0
 20
1.0
 30
0.0
  9
$UCSORTHOREF
  2

  9
$UCSORTHOVIEW
 70
     0
  9
$UCSORGTOP
 10
0.0
 20
0.0
 30
0.0
  9
$UCSORGBOTTOM
 10
0.0
 20
0.0
 30
0.0
  9
$UCSORGLEFT
 10
0.0
 20
0.0
 30
0.0
  9
$UCSORGRIGHT
 10
0.0
 20
0.0
 30
0.0
  9
$UCSORGFRONT
 10
0.0
 20
0.0
 30
0.0
  9
$UCSORGBACK
 10
0.0
 20
0.0
 30
0.0
  9
$PUCSBASE
  2

  9
$PUCSNAME
  2

  9
$PUCSORG
 10
0.0
 20
0.0
 30
0.0
  9
$PUCSXDIR
 10
1.0
 20
0.0
 30
0.0
  9
$PUCSYDIR
 10
0.0
 20
1.0
 30
0.0
  9
$PUCSORTHOREF
  2

  9
$PUCSORTHOVIEW
 70
     0
  9
$PUCSORGTOP
 10
0.0
 20
0.0
 30
0.0
  9
$PUCSORGBOTTOM
 10
0.0
 20
0.0
 30
0.0
  9
$PUCSORGLEFT
 10
0.0
 20
0.0
 30
0.0
  9
$PUCSORGRIGHT
 10
0.0
 20
0.0
 30
0.0
  9
$PUCSORGFRONT
 10
0.0
 20
0.0
 30
0.0
  9
$PUCSORGBACK
 10
0.0
 20
0.0
 30
0.0
  9
$USERI1
 70
     0
  9
$USERI2
 70
     0
  9
$USERI3
 70
     0
  9
$USERI4
 70
     0
  9
$USERI5
 70
     0
  9
$USERR1
 40
0.0
  9
$USERR2
 40
0.0
  9
$USERR3
 40
0.0
  9
$USERR4
 40
0.0
  9
$USERR5
 40
0.0
  9
$WORLDVIEW
 70
     1
  9
$SHADEDGE
 70
     3
  9
$SHADEDIF
 70
    70
  9
$TILEMODE
 70
     1
  9
$MAXACTVP
 70
    16
  9
$PINSBASE
 10
0.0
 20
0.0
 30
0.0
  9
$PLIMCHECK
 70
     0
  9
$PEXTMIN
 10
1.000000000000000E+20
 20
1.000000000000000E+20
 30
1.000000000000000E+20
  9
$PEXTMAX
 10
-1.000000000000000E+20
 20
-1.000000000000000E+20
 30
-1.000000000000000E+20
  9
$PLIMMIN
 10
0.0
 20
0.0
  9
$PLIMMAX
 10
420.0
 20
297.0
  9
$UNITMODE
 70
     0
  9
$VISRETAIN
 70
     0
  9
$PLINEGEN
 70
     0
  9
$PSLTSCALE
 70
     0
  9
$TREEDEPTH
 70
  3020
  9
$CMLSTYLE
  2
STANDARD
  9
$CMLJUST
 70
     0
  9
$CMLSCALE
 40
1.0
  9
$PROXYGRAPHICS
 70
     1
  9
$MEASUREMENT
 70
     0
  9
$CELWEIGHT
370
    -1
  9
$ENDCAPS
280
     0
  9
$JOINSTYLE
280
     0
  9
$LWDISPLAY
290
     0
  9
$INSUNITS
 70
     0
  9
$HYPERLINKBASE
  1

  9
$STYLESHEET
  1

  9
$XEDIT
290
     1
  9
$CEPSNTYPE
380
     0
  9
$PSTYLEMODE
290
     1
  9
$FINGERPRINTGUID
  2
{DB2530AE-B370-4EB0-8C26-22FEAF487C23}
  9
$VERSIONGUID
  2
{AA58F350-F9A0-4873-B620-CE7DC1EE3CB7}
  9
$EXTNAMES
290
     1
  9
$PSVPSCALE
 40
0.0
  9
$OLESTARTUP
290
     0
  0
ENDSEC
  0
SECTION
  2
CLASSES
  0
CLASS
  1
ACDBDICTIONARYWDFLT
  2
AcDbDictionaryWithDefault
  3
ObjectDBX Classes
 90
        0
280
     0
281
     0
  0
CLASS
  1
ACDBPLACEHOLDER
  2
AcDbPlaceHolder
  3
ObjectDBX Classes
 90
        0
280
     0
281
     0
  0
CLASS
  1
LAYOUT
  2
AcDbLayout
  3
ObjectDBX Classes
 90
        0
280
     0
281
     0
  0
CLASS
  1
DICTIONARYVAR
  2
AcDbDictionaryVar
  3
ObjectDBX Classes
 90
        0
280
     0
281
     0
  0
CLASS
  1
MATERIAL
  2
AcDbMaterial
  3
ObjectDBX Classes
 90
     1153
280
     0
281
     0
  0
CLASS
  1
VISUALSTYLE
  2
AcDbVisualStyle
  3
ObjectDBX Classes
 90
     4095
280
     0
281
     0
  0
CLASS
  1
TABLESTYLE
  2
AcDbTableStyle
  3
ObjectDBX Classes
 90
     4095
280
     0
281
     0
  0
CLASS
  1
SCALE
  2
AcDbScale
  3
ObjectDBX Classes
 90
     1153
280
     0
281
     0
  0
CLASS
  1
MLEADERSTYLE
  2
AcDbMLeaderStyle
  3
ACDB_MLEADERSTYLE_CLASS
 90
     4095
280
     0
281
     0
  0
CLASS
  1
ACDBSECTIONVIEWSTYLE
  2
AcDbSectionViewStyle
  3
ObjectDBX Classes
 90
     1025
280
     0
281
     0
  0
CLASS
  1
ACDBDETAILVIEWSTYLE
  2
AcDbDetailViewStyle
  3
ObjectDBX Classes
 90
     1025
280
     0
281
     0
  0
CLASS
  1
CELLSTYLEMAP
  2
AcDbCellStyleMap
  3
ObjectDBX Classes
 90
     1152
280
     0
281
     0
  0
ENDSEC
  0
SECTION
  2
TABLES
  0
TABLE
  2
VPORT
  5
1A29D
330
0
100
AcDbSymbolTable
 70
     1
  0
VPORT
  5
1A4A3
330
1A29D
100
AcDbSymbolTableRecord
100
AcDbViewportTableRecord
  2
*ACTIVE
 70
     0
 10
0.0
 20
0.0
 11
1.0
 21
1.0
 12
198.015663910093
 22
106.9967886261836
 13
0.0
 23
0.0
 14
10.0
 24
10.0
 15
10.0
 25
10.0
 16
0.0
 26
0.0
 36
1.0
 17
0.0
 27
0.0
 37
0.0
 40
196.185067521815
 41
1.899603698811096
 42
50.0
 43
0.0
 44
0.0
 50
0.0
 51
0.0
 71
     0
 72
   100
 73
     1
 74
     0
 75
     0
 76
     0
 77
     0
 78
     1
281
     0
 65
     1
110
0.0
120
0.0
130
0.0
111
1.0
121
0.0
131
0.0
112
0.0
122
1.0
132
0.0
 79
     0
146
0.0
1001
ACAD_NAV_VCDISPLAY
1070
     3
  0
ENDTAB
  0
TABLE
  2
LTYPE
  5
1A29A
330
0
100
AcDbSymbolTable
 70
     4
  0
LTYPE
  5
1A2A8
330
1A29A
100
AcDbSymbolTableRecord
100
AcDbLinetypeTableRecord
  2
BYBLOCK
 70
     0
  3

 72
    65
 73
     0
 40
0.0
  0
LTYPE
  5
1A2A9
330
1A29A
100
AcDbSymbolTableRecord
100
AcDbLinetypeTableRecord
  2
BYLAYER
 70
     0
  3

 72
    65
 73
     0
 40
0.0
  0
LTYPE
  5
1A2AA
330
1A29A
100
AcDbSymbolTableRecord
100
AcDbLinetypeTableRecord
  2
CONTINUOUS
 70
     0
  3
Solid line
 72
    65
 73
     0
 40
0.0
  0
LTYPE
  5
1A2B8
330
1A29A
100
AcDbSymbolTableRecord
100
AcDbLinetypeTableRecord
  2
DASHED
 70
     0
  3
__ __ __ __ __ __ __ __ __ __ __ __ __ __ __ __
 72
    65
 73
     2
 40
0.75
 49
0.5
 74
     0
 49
-0.25
 74
     0
  0
LTYPE
  5
1A2B9
330
1A29A
100
AcDbSymbolTableRecord
100
AcDbLinetypeTableRecord
  2
CENTER
 70
     0
  3
____ _ ____ _ ____ _ ____ _ ____ _ ____ _ ____ 
 72
    65
 73
     4
 40
2.0
 49
1.25
 74
     0
 49
-0.25
 74
     0
 49
0.25
 74
     0
 49
-0.25
 74
     0
  0
LTYPE
  5
1A2BA
330
1A29A
100
AcDbSymbolTableRecord
100
AcDbLinetypeTableRecord
  2
PHANTOM
 70
     0
  3
______  __  __  ______  __  __  ______  __  __ 
 72
    65
 73
     6
 40
2.5
 49
1.25
 74
     0
 49
-0.25
 74
     0
 49
0.25
 74
     0
 49
-0.25
 74
     0
 49
0.25
 74
     0
 49
-0.25
 74
     0
  0
ENDTAB
  0
TABLE
  2
LAYER
  5
1A297
330
0
100
AcDbSymbolTable
 70
     8
  0
LAYER
  5
1A2A5
102
{ACAD_XDICTIONARY
360
1A4FE
102
}
330
1A297
100
AcDbSymbolTableRecord
100
AcDbLayerTableRecord
  2
0
 70
     0
 62
     7
  6
CONTINUOUS
370
    -3
390
1A4AC
  0
LAYER
  5
1A2BB
102
{ACAD_XDICTIONARY
360
1A500
102
}
330
1A297
100
AcDbSymbolTableRecord
100
AcDbLayerTableRecord
  2
4
 70
     0
 62
     1
  6
CENTER
370
    -3
390
1A4AC
  0
LAYER
  5
1A2BC
102
{ACAD_XDICTIONARY
360
1A502
102
}
330
1A297
100
AcDbSymbolTableRecord
100
AcDbLayerTableRecord
  2
5
 70
     0
 62
     6
  6
PHANTOM
370
    -3
390
1A4AC
  0
LAYER
  5
1A2BD
102
{ACAD_XDICTIONARY
360
1A504
102
}
330
1A297
100
AcDbSymbolTableRecord
100
AcDbLayerTableRecord
  2
1
 70
     0
 62
     7
  6
CONTINUOUS
370
    -3
390
1A4AC
  0
LAYER
  5
1A2BE
102
{ACAD_XDICTIONARY
360
1A506
102
}
330
1A297
100
AcDbSymbolTableRecord
100
AcDbLayerTableRecord
  2
2
 70
     0
 62
     4
  6
CONTINUOUS
370
    -3
390
1A4AC
  0
LAYER
  5
1A2BF
102
{ACAD_XDICTIONARY
360
1A508
102
}
330
1A297
100
AcDbSymbolTableRecord
100
AcDbLayerTableRecord
  2
3
 70
     0
 62
     2
  6
DASHED
370
    -3
390
1A4AC
  0
LAYER
  5
1A2C0
102
{ACAD_XDICTIONARY
360
1A50A
102
}
330
1A297
100
AcDbSymbolTableRecord
100
AcDbLayerTableRecord
  2
6
 70
     0
 62
     5
  6
CONTINUOUS
370
    -3
390
1A4AC
  0
LAYER
  5
1A2C1
102
{ACAD_XDICTIONARY
360
1A50C
102
}
330
1A297
100
AcDbSymbolTableRecord
100
AcDbLayerTableRecord
  2
7
 70
     0
 62
     3
  6
CONTINUOUS
370
    -3
390
1A4AC
  0
ENDTAB
  0
TABLE
  2
STYLE
  5
1A298
330
0
100
AcDbSymbolTable
 70
     1
  0
STYLE
  5
1A2A6
330
1A298
100
AcDbSymbolTableRecord
100
AcDbTextStyleTableRecord
  2
STANDARD
 70
     0
 40
0.0
 41
1.0
 50
0.0
 71
     0
 42
5.0
  3
txt
  4

  0
ENDTAB
  0
TABLE
  2
VIEW
  5
1A29B
330
0
100
AcDbSymbolTable
 70
     2
  0
VIEW
  5
1A2C2
330
1A29B
100
AcDbSymbolTableRecord
100
AcDbViewTableRecord
  2
7
 70
     0
 40
221.296032
 10
213.169341
 20
110.648016
 41
426.3386829999998
 11
0.0
 21
0.0
 31
1.0
 12
0.0
 22
0.0
 32
0.0
 42
50.0
 43
0.0
 44
0.0
 50
0.0
 71
     0
281
     0
 72
     0
  0
VIEW
  5
1A2C3
330
1A29B
100
AcDbSymbolTableRecord
100
AcDbViewTableRecord
  2
1
 70
     0
 40
249.466496
 10
136.846708
 20
233.977284
 41
487.485198
 11
0.0
 21
0.0
 31
1.0
 12
0.0
 22
0.0
 32
0.0
 42
50.0
 43
0.0
 44
0.0
 50
0.0
 71
     0
281
     0
 72
     0
  0
ENDTAB
  0
TABLE
  2
UCS
  5
1A29C
330
0
100
AcDbSymbolTable
 70
     0
  0
ENDTAB
  0
TABLE
  2
APPID
  5
1A29E
330
0
100
AcDbSymbolTable
 70
     3
  0
APPID
  5
1A2A7
330
1A29E
100
AcDbSymbolTableRecord
100
AcDbRegAppTableRecord
  2
ACAD
 70
     0
  0
APPID
  5
1A518
330
1A29E
100
AcDbSymbolTableRecord
100
AcDbRegAppTableRecord
  2
ACAD_NAV_VCDISPLAY
 70
     0
  0
APPID
  5
1A551
330
1A29E
100
AcDbSymbolTableRecord
100
AcDbRegAppTableRecord
  2
ACAD_MLEADERVER
 70
     0
  0
ENDTAB
  0
TABLE
  2
DIMSTYLE
  5
1A29F
330
0
100
AcDbSymbolTable
 70
     1
100
AcDbDimStyleTable
 71
     0
  0
DIMSTYLE
105
1A2C5
330
1A29F
100
AcDbSymbolTableRecord
100
AcDbDimStyleTableRecord
  2
STANDARD
 70
     0
 41
3.0
 42
1.0
 43
10.0
 44
1.0
 73
     0
 74
     0
 77
     3
 78
     8
140
3.2
141
0.0
147
1.0
172
     1
173
     1
284
     8
285
     8
286
     8
340
1A2A6
  0
ENDTAB
  0
TABLE
  2
BLOCK_RECORD
  5
1A296
330
0
100
AcDbSymbolTable
 70
     1
  0
BLOCK_RECORD
  5
1A2B3
102
{ACAD_XDICTIONARY
360
1A4A6
102
}
330
1A296
100
AcDbSymbolTableRecord
100
AcDbBlockTableRecord
  2
*MODEL_SPACE
340
1A4FA
  0
BLOCK_RECORD
  5
1A2AF
102
{ACAD_XDICTIONARY
360
1A4A4
102
}
330
1A296
100
AcDbSymbolTableRecord
100
AcDbBlockTableRecord
  2
*PAPER_SPACE
340
1A4FB
  0
BLOCK_RECORD
  5
1A2CD
330
1A296
100
AcDbSymbolTableRecord
100
AcDbBlockTableRecord
  2
_OPEN
340
0
  0
ENDTAB
  0
ENDSEC
  0
SECTION
  2
BLOCKS
  0
BLOCK
  5
1A2B4
330
1A2B3
100
AcDbEntity
  8
0
100
AcDbBlockBegin
  2
*MODEL_SPACE
 70
     0
 10
0.0
 20
0.0
 30
0.0
  3
*MODEL_SPACE
  1

  0
ENDBLK
  5
1A2B5
330
1A2B3
100
AcDbEntity
  8
0
100
AcDbBlockEnd
  0
BLOCK
  5
1A2B0
330
1A2AF
100
AcDbEntity
 67
     1
  8
0
100
AcDbBlockBegin
  2
*PAPER_SPACE
 70
     0
 10
0.0
 20
0.0
 30
0.0
  3
*PAPER_SPACE
  1

  0
ENDBLK
  5
1A2B1
330
1A2AF
100
AcDbEntity
 67
     1
  8
0
100
AcDbBlockEnd
  0
BLOCK
  5
1A2CE
330
1A2CD
100
AcDbEntity
  8
0
100
AcDbBlockBegin
  2
_OPEN
 70
     0
 10
0.0
 20
0.0
 30
0.0
  3
_OPEN
  1

  0
LINE
  5
1A2CF
330
1A2CD
100
AcDbEntity
  8
0
  6
ByBlock
 62
     0
100
AcDbLine
 10
-1.0
 20
0.166667
 30
0.0
 11
0.0
 21
0.0
 31
0.0
  0
LINE
  5
1A2D0
330
1A2CD
100
AcDbEntity
  8
0
  6
ByBlock
 62
     0
100
AcDbLine
 10
0.0
 20
0.0
 30
0.0
 11
-1.0
 21
-0.166667
 31
0.0
  0
LINE
  5
1A2D1
330
1A2CD
100
AcDbEntity
  8
0
  6
ByBlock
 62
     0
100
AcDbLine
 10
0.0
 20
0.0
 30
0.0
 11
-1.0
 21
0.0
 31
0.0
  0
ENDBLK
  5
1A2D2
330
1A2CD
100
AcDbEntity
  8
0
100
AcDbBlockEnd
  0
ENDSEC
  0
SECTION
  2
ENTITIES
  0
TEXT
  5
1A2D3
330
1A2B3
100
AcDbEntity
  8
6
  6
Continuous
100
AcDbText
 10
27.97945
 20
10.0487
 30
0.0
 40
1.399999999999999
  1
6
 41
1.069393
100
AcDbText
  0
TEXT
  5
1A2D4
330
1A2B3
100
AcDbEntity
  8
1
  6
Continuous
100
AcDbText
 10
17.97945
 20
10.0487
 30
0.0
 40
1.399999999999999
  1
1
 41
1.069393
100
AcDbText
  0
TEXT
  5
1A2D5
330
1A2B3
100
AcDbEntity
  8
1
  6
Continuous
100
AcDbText
 10
9.99995
 20
10.0
 30
0.0
 40
1.399999999999999
  1
LAYER
 41
1.009912999999997
100
AcDbText
  0
TEXT
  5
1A2D6
330
1A2B3
100
AcDbEntity
  8
2
  6
Continuous
100
AcDbText
 10
19.97944999999998
 20
10.0487
 30
0.0
 40
1.399999999999999
  1
2
 41
1.069393
100
AcDbText
  0
TEXT
  5
1A2D7
330
1A2B3
100
AcDbEntity
  8
3
  6
DASHED
100
AcDbText
 10
21.97945
 20
10.0487
 30
0.0
 40
1.399999999999999
  1
3
 41
1.069393
100
AcDbText
  0
TEXT
  5
1A2D8
330
1A2B3
100
AcDbEntity
  8
4
  6
CENTER
100
AcDbText
 10
23.97944999999999
 20
10.0487
 30
0.0
 40
1.399999999999999
  1
4
 41
1.069393
100
AcDbText
  0
TEXT
  5
1A2D9
330
1A2B3
100
AcDbEntity
  8
5
  6
PHANTOM
100
AcDbText
 10
25.97945
 20
10.0487
 30
0.0
 40
1.399999999999999
  1
5
 41
1.069393
100
AcDbText
  0
TEXT
  5
1A2DA
330
1A2B3
100
AcDbEntity
  8
7
  6
Continuous
100
AcDbText
 10
10.00005
 20
26.0
 30
0.0
 40
3.0
  1
CODE No.5487
 41
1.003962999999999
100
AcDbText
  0
TEXT
  5
1A2DB
330
1A2B3
100
AcDbEntity
  8
7
  6
Continuous
100
AcDbText
 10
10.00005
 20
18.0
 30
0.0
 40
3.0
  1
TYPE No.TM-108-4
 41
1.002350999999998
100
AcDbText
  0
TEXT
  5
1A2DC
330
1A2B3
100
AcDbEntity
  8
7
  6
Continuous
100
AcDbText
 10
29.97944999999999
 20
10.0487
 30
0.0
 40
1.399999999999999
  1
7
 41
1.069393
100
AcDbText
  0
LINE
  5
1A2DD
330
1A2B3
100
AcDbEntity
  8
1
  6
Continuous
100
AcDbLine
 10
36.5
 20
132.699982
 30
0.0
 11
36.5
 21
129.499985
 31
0.0
  0
LINE
  5
1A2DE
330
1A2B3
100
AcDbEntity
  8
1
  6
Continuous
100
AcDbLine
 10
26.5
 20
132.699982
 30
0.0
 11
26.5
 21
129.499985
 31
0.0
  0
LINE
  5
1A2DF
330
1A2B3
100
AcDbEntity
  8
4
  6
CENTER
100
AcDbLine
 10
31.5
 20
150.499985
 30
0.0
 11
31.5
 21
89.58240299999998
 31
0.0
  0
ARC
  5
1A2E0
330
1A2B3
100
AcDbEntity
  8
1
  6
Continuous
100
AcDbCircle
 10
33.0
 20
128.499985
 30
0.0
 40
1.0
100
AcDbArc
 50
90.00000300000001
 51
180.000005
  0
CIRCLE
  5
1A2E1
330
1A2B3
100
AcDbEntity
  8
1
  6
Continuous
100
AcDbCircle
 10
31.5
 20
116.999985
 30
0.0
 40
2.5
  0
ARC
  5
1A2E2
330
1A2B3
100
AcDbEntity
  8
1
  6
Continuous
100
AcDbCircle
 10
31.5
 20
116.999985
 30
0.0
 40
5.5
100
AcDbArc
 50
329.089798
 51
210.9102039999999
  0
CIRCLE
  5
1A2E3
330
1A2B3
100
AcDbEntity
  8
1
  6
Continuous
100
AcDbCircle
 10
31.5
 20
116.999985
 30
0.0
 40
4.5
  0
ARC
  5
1A2E4
330
1A2B3
100
AcDbEntity
  8
1
  6
Continuous
100
AcDbCircle
 10
31.5
 20
103.2499849999999
 30
0.0
 40
2.75
100
AcDbArc
 50
0.0
 51
180.000005
  0
ARC
  5
1A2E5
330
1A2B3
100
AcDbEntity
  8
1
  6
Continuous
100
AcDbCircle
 10
31.5
 20
103.112106
 30
0.0
 40
2.75
100
AcDbArc
 50
0.0
 51
180.000005
  0
ARC
  5
1A2E6
330
1A2B3
100
AcDbEntity
  8
1
  6
Continuous
100
AcDbCircle
 10
31.5
 20
92.12786900000001
 30
0.0
 40
2.872109
100
AcDbArc
 50
58.51574
 51
121.484258
  0
LINE
  5
1A2E7
330
1A2B3
100
AcDbEntity
  8
1
  6
Continuous
100
AcDbLine
 10
33.0
 20
100.4999849999999
 30
0.0
 11
30.0
 21
100.4999849999999
 31
0.0
  0
LINE
  5
1A2E8
330
1A2B3
100
AcDbEntity
  8
4
  6
CENTER
100
AcDbLine
 10
23.200001
 20
125.999985
 30
0.0
 11
39.299999
 21
125.999985
 31
0.0
  0
LINE
  5
1A2E9
330
1A2B3
100
AcDbEntity
  8
1
  6
Continuous
100
AcDbLine
 10
26.5
 20
129.499985
 30
0.0
 11
36.5
 21
129.499985
 31
0.0
  0
LINE
  5
1A2EA
330
1A2B3
100
AcDbEntity
  8
4
  6
CENTER
100
AcDbLine
 10
20.0
 20
116.999985
 30
0.0
 11
43.0
 21
116.999985
 31
0.0
  0
LINE
  5
1A2EB
330
1A2B3
100
AcDbEntity
  8
1
  6
Continuous
100
AcDbLine
 10
27.200001
 20
128.499985
 30
0.0
 11
35.799999
 21
128.499985
 31
0.0
  0
ARC
  5
1A2EC
330
1A2B3
100
AcDbEntity
  8
1
  6
Continuous
100
AcDbCircle
 10
18.201412
 20
109.03772
 30
0.0
 40
10.6
100
AcDbArc
 50
354.2466359999999
 51
19.058989
  0
ARC
  5
1A2ED
330
1A2B3
100
AcDbEntity
  8
1
  6
Continuous
100
AcDbCircle
 10
18.201412
 20
109.03772
 30
0.0
 40
10.0
100
AcDbArc
 50
354.2466359999999
 51
30.910202
  0
LINE
  5
1A2EE
330
1A2B3
100
AcDbEntity
  8
1
  6
Continuous
100
AcDbLine
 10
27.999998
 20
108.499985
 30
0.0
 11
25.50000199999999
 21
114.499985
 31
0.0
  0
ARC
  5
1A2EF
330
1A2B3
100
AcDbEntity
  8
1
  6
Continuous
100
AcDbCircle
 10
31.759766
 20
102.929642
 30
0.0
 40
3.0
100
AcDbArc
 50
202.589466
 51
229.212505
  0
ARC
  5
1A2F0
330
1A2B3
100
AcDbEntity
  8
1
  6
Continuous
100
AcDbCircle
 10
-51.111603
 20
112.7036439999999
 30
0.0
 40
79.400002
100
AcDbArc
 50
351.949506
 51
356.6293079999999
  0
ARC
  5
1A2F1
330
1A2B3
100
AcDbEntity
  8
1
  6
Continuous
100
AcDbCircle
 10
-51.111603
 20
112.7036439999999
 30
0.0
 40
80.0
100
AcDbArc
 50
351.949506
 51
356.6293079999999
  0
LINE
  5
1A2F2
330
1A2B3
100
AcDbEntity
  8
1
  6
Continuous
100
AcDbLine
 10
28.257759
 20
101.4999849999999
 30
0.0
 11
28.50216299999999
 21
94.86277800000001
 31
0.0
  0
LINE
  5
1A2F3
330
1A2B3
100
AcDbEntity
  8
1
  6
Continuous
100
AcDbLine
 10
28.75
 20
101.4999849999999
 30
0.0
 11
28.1
 21
101.4999849999999
 31
0.0
  0
LINE
  5
1A2F4
330
1A2B3
100
AcDbEntity
  8
1
  6
Continuous
100
AcDbLine
 10
27.50591099999999
 20
101.583999
 30
0.0
 11
28.09999799999999
 21
101.4999849999999
 31
0.0
  0
LINE
  5
1A2F5
330
1A2B3
100
AcDbEntity
  8
1
  6
Continuous
100
AcDbLine
 10
28.75
 20
103.2499849999999
 30
0.0
 11
29.000298
 21
93.999985
 31
0.0
  0
LINE
  5
1A2F6
330
1A2B3
100
AcDbEntity
  8
1
  6
Continuous
100
AcDbLine
 10
29.000298
 20
93.999985
 30
0.0
 11
29.999994
 21
94.577164
 31
0.0
  0
LINE
  5
1A2F7
330
1A2B3
100
AcDbEntity
  8
1
  6
Continuous
100
AcDbLine
 10
28.502167
 20
94.86277800000001
 30
0.0
 11
29.000298
 21
93.999985
 31
0.0
  0
LINE
  5
1A2F8
330
1A2B3
100
AcDbEntity
  8
1
  6
Continuous
100
AcDbLine
 10
30.0
 20
100.4999849999999
 30
0.0
 11
30.0
 21
94.577164
 31
0.0
  0
LINE
  5
1A2F9
330
1A2B3
100
AcDbEntity
  8
1
  6
Continuous
100
AcDbLine
 10
27.999998
 20
108.499985
 30
0.0
 11
28.064581
 21
106.7461389999998
 31
0.0
  0
ARC
  5
1A2FA
330
1A2B3
100
AcDbEntity
  8
1
  6
Continuous
100
AcDbCircle
 10
30.0
 20
128.499985
 30
0.0
 40
1.0
100
AcDbArc
 50
0.0
 51
90.00000300000001
  0
ARC
  5
1A2FB
330
1A2B3
100
AcDbEntity
  8
1
  6
Continuous
100
AcDbCircle
 10
31.5
 20
116.999985
 30
0.0
 40
6.5
100
AcDbArc
 50
125.9530599999999
 51
202.61987
  0
ARC
  5
1A2FC
330
1A2B3
100
AcDbEntity
  8
1
  6
Continuous
100
AcDbCircle
 10
25.384802
 20
111.5194399999999
 30
0.0
 40
3.0
100
AcDbArc
 50
19.058989
 51
45.16511099999998
  0
ARC
  5
1A2FD
330
1A2B3
100
AcDbEntity
  8
1
  6
Continuous
100
AcDbCircle
 10
27.825001
 20
125.999985
 30
0.0
 40
1.625
100
AcDbArc
 50
112.6198679999999
 51
247.380135
  0
ARC
  5
1A2FE
330
1A2B3
100
AcDbEntity
  8
1
  6
Continuous
100
AcDbCircle
 10
27.096582
 20
123.071228
 30
0.0
 40
1.0
100
AcDbArc
 50
305.9530609999999
 51
25.389084
  0
LINE
  5
1A2FF
330
1A2B3
100
AcDbEntity
  8
1
  6
Continuous
100
AcDbLine
 10
28.096582
 20
123.071228
 30
0.0
 11
28.096582
 21
121.3204949999998
 31
0.0
  0
LINE
  5
1A300
330
1A2B3
100
AcDbEntity
  8
1
  6
Continuous
100
AcDbLine
 10
27.200001
 20
128.499985
 30
0.0
 11
27.200001
 21
123.499985
 31
0.0
  0
LINE
  5
1A301
330
1A2B3
100
AcDbEntity
  8
1
  6
Continuous
100
AcDbLine
 10
27.200001
 20
123.499481
 30
0.0
 11
28.0
 21
123.499481
 31
0.0
  0
LINE
  5
1A302
330
1A2B3
100
AcDbEntity
  8
1
  6
Continuous
100
AcDbLine
 10
28.0
 20
129.499985
 30
0.0
 11
28.0
 21
128.499985
 31
0.0
  0
ARC
  5
1A303
330
1A2B3
100
AcDbEntity
  8
1
  6
Continuous
100
AcDbCircle
 10
44.798588
 20
109.03772
 30
0.0
 40
10.6
100
AcDbArc
 50
160.941004
 51
185.75336
  0
ARC
  5
1A304
330
1A2B3
100
AcDbEntity
  8
1
  6
Continuous
100
AcDbCircle
 10
44.798588
 20
109.03772
 30
0.0
 40
10.0
100
AcDbArc
 50
149.0897929999998
 51
185.75336
  0
LINE
  5
1A305
330
1A2B3
100
AcDbEntity
  8
1
  6
Continuous
100
AcDbLine
 10
35.0
 20
108.499985
 30
0.0
 11
37.5
 21
114.499985
 31
0.0
  0
ARC
  5
1A306
330
1A2B3
100
AcDbEntity
  8
1
  6
Continuous
100
AcDbCircle
 10
31.240234
 20
102.929642
 30
0.0
 40
3.0
100
AcDbArc
 50
310.7875
 51
337.4105319999998
  0
ARC
  5
1A307
330
1A2B3
100
AcDbEntity
  8
1
  6
Continuous
100
AcDbCircle
 10
114.111603
 20
112.7036439999999
 30
0.0
 40
79.400002
100
AcDbArc
 50
183.370693
 51
188.0504929999999
  0
ARC
  5
1A308
330
1A2B3
100
AcDbEntity
  8
1
  6
Continuous
100
AcDbCircle
 10
114.111603
 20
112.7036439999999
 30
0.0
 40
80.0
100
AcDbArc
 50
183.370693
 51
188.0504929999999
  0
LINE
  5
1A309
330
1A2B3
100
AcDbEntity
  8
1
  6
Continuous
100
AcDbLine
 10
34.742237
 20
101.4999849999999
 30
0.0
 11
34.49783299999999
 21
94.86277800000001
 31
0.0
  0
LINE
  5
1A30A
330
1A2B3
100
AcDbEntity
  8
1
  6
Continuous
100
AcDbLine
 10
34.900002
 20
101.4999849999999
 30
0.0
 11
34.25
 21
101.4999849999999
 31
0.0
  0
LINE
  5
1A30B
330
1A2B3
100
AcDbEntity
  8
1
  6
Continuous
100
AcDbLine
 10
35.494087
 20
101.584015
 30
0.0
 11
34.900002
 21
101.4999849999999
 31
0.0
  0
LINE
  5
1A30C
330
1A2B3
100
AcDbEntity
  8
1
  6
Continuous
100
AcDbLine
 10
34.25
 20
103.2499849999999
 30
0.0
 11
33.999702
 21
93.999985
 31
0.0
  0
LINE
  5
1A30D
330
1A2B3
100
AcDbEntity
  8
1
  6
Continuous
100
AcDbLine
 10
33.000004
 20
94.577164
 30
0.0
 11
33.999706
 21
93.999985
 31
0.0
  0
LINE
  5
1A30E
330
1A2B3
100
AcDbEntity
  8
1
  6
Continuous
100
AcDbLine
 10
33.0
 20
100.4999849999999
 30
0.0
 11
33.0
 21
94.577164
 31
0.0
  0
LINE
  5
1A30F
330
1A2B3
100
AcDbEntity
  8
1
  6
Continuous
100
AcDbLine
 10
35.0
 20
108.499985
 30
0.0
 11
34.935417
 21
106.7461389999998
 31
0.0
  0
LINE
  5
1A310
330
1A2B3
100
AcDbEntity
  8
1
  6
Continuous
100
AcDbLine
 10
33.999706
 20
93.999985
 30
0.0
 11
34.49783699999999
 21
94.86277800000001
 31
0.0
  0
ARC
  5
1A311
330
1A2B3
100
AcDbEntity
  8
1
  6
Continuous
100
AcDbCircle
 10
37.6152
 20
111.5194399999999
 30
0.0
 40
3.0
100
AcDbArc
 50
134.834887
 51
160.941004
  0
ARC
  5
1A312
330
1A2B3
100
AcDbEntity
  8
1
  6
Continuous
100
AcDbCircle
 10
34.487499
 20
125.999985
 30
0.0
 40
1.8125
100
AcDbArc
 50
316.397182
 51
43.602818
  0
ARC
  5
1A313
330
1A2B3
100
AcDbEntity
  8
1
  6
Continuous
100
AcDbCircle
 10
35.903416
 20
123.071228
 30
0.0
 40
1.0
100
AcDbArc
 50
154.610921
 51
234.04695
  0
ARC
  5
1A314
330
1A2B3
100
AcDbEntity
  8
1
  6
Continuous
100
AcDbCircle
 10
31.5
 20
116.999985
 30
0.0
 40
6.5
100
AcDbArc
 50
337.3801349999999
 51
54.046939
  0
LINE
  5
1A315
330
1A2B3
100
AcDbEntity
  8
1
  6
Continuous
100
AcDbLine
 10
34.903416
 20
123.071228
 30
0.0
 11
34.903416
 21
121.3204949999998
 31
0.0
  0
LINE
  5
1A316
330
1A2B3
100
AcDbEntity
  8
1
  6
Continuous
100
AcDbLine
 10
35.0
 20
123.499481
 30
0.0
 11
35.799999
 21
123.499481
 31
0.0
  0
LINE
  5
1A317
330
1A2B3
100
AcDbEntity
  8
1
  6
Continuous
100
AcDbLine
 10
35.799999
 20
128.499985
 30
0.0
 11
35.799999
 21
123.499985
 31
0.0
  0
LINE
  5
1A318
330
1A2B3
100
AcDbEntity
  8
1
  6
Continuous
100
AcDbLine
 10
35.0
 20
129.499985
 30
0.0
 11
35.0
 21
128.499985
 31
0.0
  0
LINE
  5
1A319
330
1A2B3
100
AcDbEntity
  8
1
  6
Continuous
100
AcDbLine
 10
26.5
 20
131.0999909999999
 30
0.0
 11
36.5
 21
131.0999909999999
 31
0.0
  0
LINE
  5
1A31A
330
1A2B3
100
AcDbEntity
  8
1
  6
Continuous
100
AcDbLine
 10
29.75
 20
143.999985
 30
0.0
 11
33.25
 21
143.999985
 31
0.0
  0
ARC
  5
1A31B
330
1A2B3
100
AcDbEntity
  8
1
  6
Continuous
100
AcDbCircle
 10
28.75
 20
132.0999909999999
 30
0.0
 40
1.0
100
AcDbArc
 50
269.9999969999999
 51
0.0
  0
LINE
  5
1A31C
330
1A2B3
100
AcDbEntity
  8
1
  6
Continuous
100
AcDbLine
 10
29.75
 20
143.999985
 30
0.0
 11
29.75
 21
132.0999909999999
 31
0.0
  0
LINE
  5
1A31D
330
1A2B3
100
AcDbEntity
  8
1
  6
Continuous
100
AcDbLine
 10
26.5
 20
132.699982
 30
0.0
 11
29.75
 21
132.699982
 31
0.0
  0
ARC
  5
1A31E
330
1A2B3
100
AcDbEntity
  8
1
  6
Continuous
100
AcDbCircle
 10
34.25
 20
132.0999909999999
 30
0.0
 40
1.0
100
AcDbArc
 50
180.000005
 51
270.000001
  0
LINE
  5
1A31F
330
1A2B3
100
AcDbEntity
  8
1
  6
Continuous
100
AcDbLine
 10
33.25
 20
132.699982
 30
0.0
 11
36.5
 21
132.699982
 31
0.0
  0
LINE
  5
1A320
330
1A2B3
100
AcDbEntity
  8
1
  6
Continuous
100
AcDbLine
 10
33.25
 20
143.999985
 30
0.0
 11
33.25
 21
132.0999909999999
 31
0.0
  0
ARC
  5
1A321
330
1A2B3
100
AcDbEntity
  8
1
  6
Continuous
100
AcDbCircle
 10
110.282176
 20
131.0999909999999
 30
0.0
 40
1.6
100
AcDbArc
 50
269.9999969999999
 51
0.0
  0
LINE
  5
1A322
330
1A2B3
100
AcDbEntity
  8
1
  6
Continuous
100
AcDbLine
 10
100.282176
 20
131.0999909999999
 30
0.0
 11
100.282176
 21
129.499985
 31
0.0
  0
LINE
  5
1A323
330
1A2B3
100
AcDbEntity
  8
4
  6
CENTER
100
AcDbLine
 10
105.282176
 20
150.804123
 30
0.0
 11
105.282176
 21
89.58240299999998
 31
0.0
  0
LINE
  5
1A324
330
1A2B3
100
AcDbEntity
  8
4
  6
CENTER
100
AcDbLine
 10
119.982173
 20
116.999985
 30
0.0
 11
93.982173
 21
116.999985
 31
0.0
  0
ARC
  5
1A325
330
1A2B3
100
AcDbEntity
  8
1
  6
Continuous
100
AcDbCircle
 10
110.822032
 20
109.571136
 30
0.0
 40
2.0
100
AcDbArc
 50
144.1997869999999
 51
185.609421
  0
LINE
  5
1A326
330
1A2B3
100
AcDbEntity
  8
1
  6
Continuous
100
AcDbLine
 10
100.7342179999999
 20
112.545029
 30
0.0
 11
99.78420599999999
 21
102.045029
 31
0.0
  0
LINE
  5
1A327
330
1A2B3
100
AcDbEntity
  8
1
  6
Continuous
100
AcDbLine
 10
101.3821829999999
 20
112.690018
 30
0.0
 11
101.3821829999999
 21
101.4999849999999
 31
0.0
  0
LINE
  5
1A328
330
1A2B3
100
AcDbEntity
  8
1
  6
Continuous
100
AcDbLine
 10
101.3821829999999
 20
112.690018
 30
0.0
 11
101.3821829999999
 21
101.4999849999999
 31
0.0
  0
LINE
  5
1A329
330
1A2B3
100
AcDbEntity
  8
1
  6
Continuous
100
AcDbLine
 10
109.204387
 20
110.6955409999999
 30
0.0
 11
110.1587179999998
 21
100.978943
 31
0.0
  0
LINE
  5
1A32A
330
1A2B3
100
AcDbEntity
  8
1
  6
Continuous
100
AcDbLine
 10
110.733074
 20
111.499985
 30
0.0
 11
111.7510639999999
 21
101.135345
 31
0.0
  0
ARC
  5
1A32B
330
1A2B3
100
AcDbEntity
  8
1
  6
Continuous
100
AcDbCircle
 10
105.282176
 20
100.4999849999999
 30
0.0
 40
6.5
100
AcDbArc
 50
184.943577
 51
5.60942
  0
ARC
  5
1A32C
330
1A2B3
100
AcDbEntity
  8
1
  6
Continuous
100
AcDbCircle
 10
105.4918629999999
 20
103.783569
 30
0.0
 40
7.491863
100
AcDbArc
 50
163.892547
 51
205.9945979999999
  0
ARC
  5
1A32D
330
1A2B3
100
AcDbEntity
  8
1
  6
Continuous
100
AcDbCircle
 10
100.282176
 20
101.999985
 30
0.0
 40
0.5
100
AcDbArc
 50
174.830167
 51
270.000001
  0
ARC
  5
1A32E
330
1A2B3
100
AcDbEntity
  8
1
  6
Continuous
100
AcDbCircle
 10
99.21326800000001
 20
98.46817000000001
 30
0.0
 40
2.0
100
AcDbArc
 50
18.51009799999999
 51
53.58920300000001
  0
ARC
  5
1A32F
330
1A2B3
100
AcDbEntity
  8
1
  6
Continuous
100
AcDbCircle
 10
105.282176
 20
100.4999849999999
 30
0.0
 40
4.9
100
AcDbArc
 50
184.943577
 51
5.60942
  0
ARC
  5
1A330
330
1A2B3
100
AcDbEntity
  8
1
  6
Continuous
100
AcDbCircle
 10
105.282176
 20
100.4999849999999
 30
0.0
 40
4.4
100
AcDbArc
 50
198.510095
 51
5.609421
  0
LINE
  5
1A331
330
1A2B3
100
AcDbEntity
  8
1
  6
Continuous
100
AcDbLine
 10
101.3821829999999
 20
101.4999849999999
 30
0.0
 11
100.282176
 21
101.4999849999999
 31
0.0
  0
LINE
  5
1A332
330
1A2B3
100
AcDbEntity
  8
1
  6
Continuous
100
AcDbLine
 10
100.277385
 20
101.4999849999999
 30
0.0
 11
100.4004019999999
 21
100.0777279999999
 31
0.0
  0
LINE
  5
1A333
330
1A2B3
100
AcDbEntity
  8
1
  6
Continuous
100
AcDbLine
 10
108.8316149999998
 20
109.375656
 30
0.0
 11
109.6611129999998
 21
100.9300689999999
 31
0.0
  0
LINE
  5
1A334
330
1A2B3
100
AcDbEntity
  8
1
  6
Continuous
100
AcDbLine
 10
98.29410899999999
 20
105.862106
 30
0.0
 11
99.88814900000001
 21
105.999985
 31
0.0
  0
LINE
  5
1A335
330
1A2B3
100
AcDbEntity
  8
1
  6
Continuous
100
AcDbLine
 10
99.88814900000001
 20
105.999985
 30
0.0
 11
100.0122329999999
 21
104.5653689999999
 31
0.0
  0
LINE
  5
1A336
330
1A2B3
100
AcDbEntity
  8
1
  6
Continuous
100
AcDbLine
 10
98.29410899999999
 20
105.862106
 30
0.0
 11
98.80636199999999
 21
99.93985000000002
 31
0.0
  0
ARC
  5
1A337
330
1A2B3
100
AcDbEntity
  8
1
  6
Continuous
100
AcDbCircle
 10
109.280986
 20
116.999985
 30
0.0
 40
5.70119
100
AcDbArc
 50
285.266659
 51
74.73334100000002
  0
CIRCLE
  5
1A338
330
1A2B3
100
AcDbEntity
  8
1
  6
Continuous
100
AcDbCircle
 10
105.282176
 20
125.999985
 30
0.0
 40
1.5
  0
ARC
  5
1A339
330
1A2B3
100
AcDbEntity
  8
1
  6
Continuous
100
AcDbCircle
 10
102.258708
 20
119.749985
 30
0.0
 40
0.25
100
AcDbArc
 50
10.0
 51
190.0000029999999
  0
ARC
  5
1A33A
330
1A2B3
100
AcDbEntity
  8
1
  6
Continuous
100
AcDbCircle
 10
103.2285109999999
 20
114.249985
 30
0.0
 40
0.25
100
AcDbArc
 50
190.000007
 51
10.0
  0
ARC
  5
1A33B
330
1A2B3
100
AcDbEntity
  8
1
  6
Continuous
100
AcDbCircle
 10
105.7670699999998
 20
114.249985
 30
0.0
 40
0.25
100
AcDbArc
 50
190.000007
 51
10.0
  0
ARC
  5
1A33C
330
1A2B3
100
AcDbEntity
  8
1
  6
Continuous
100
AcDbCircle
 10
104.7972829999998
 20
119.749985
 30
0.0
 40
0.25
100
AcDbArc
 50
10.0
 51
190.0000029999999
  0
ARC
  5
1A33D
330
1A2B3
100
AcDbEntity
  8
1
  6
Continuous
100
AcDbCircle
 10
108.3056449999999
 20
114.249985
 30
0.0
 40
0.25
100
AcDbArc
 50
190.000007
 51
10.0
  0
ARC
  5
1A33E
330
1A2B3
100
AcDbEntity
  8
1
  6
Continuous
100
AcDbCircle
 10
107.3358419999999
 20
119.749985
 30
0.0
 40
0.25
100
AcDbArc
 50
10.0
 51
190.0000029999999
  0
ARC
  5
1A33F
330
1A2B3
100
AcDbEntity
  8
1
  6
Continuous
100
AcDbCircle
 10
111.7821759999998
 20
125.328415
 30
0.0
 40
3.0
100
AcDbArc
 50
179.9999909999999
 51
250.5287709999998
  0
ARC
  5
1A340
330
1A2B3
100
AcDbEntity
  8
1
  6
Continuous
100
AcDbCircle
 10
50.559124
 20
116.999985
 30
0.0
 40
60.473682
100
AcDbArc
 50
354.7818149999998
 51
5.218185
  0
ARC
  5
1A341
330
1A2B3
100
AcDbEntity
  8
1
  6
Continuous
100
AcDbCircle
 10
103.282176
 20
128.999985
 30
0.0
 40
0.5
100
AcDbArc
 50
90.00000300000001
 51
180.000005
  0
ARC
  5
1A342
330
1A2B3
100
AcDbEntity
  8
1
  6
Continuous
100
AcDbCircle
 10
105.802455
 20
115.3169249999999
 30
0.0
 40
8.0
100
AcDbArc
 50
58.05826099999999
 51
93.728876
  0
ARC
  5
1A343
330
1A2B3
100
AcDbEntity
  8
1
  6
Continuous
100
AcDbCircle
 10
103.282176
 20
123.7999879999998
 30
0.0
 40
0.5
100
AcDbArc
 50
216.8699029999999
 51
269.9999969999999
  0
ARC
  5
1A344
330
1A2B3
100
AcDbEntity
  8
1
  6
Continuous
100
AcDbCircle
 10
111.952251
 20
120.827255
 30
0.0
 40
10.0
100
AcDbArc
 50
165.241182
 51
184.434205
  0
ARC
  5
1A345
330
1A2B3
100
AcDbEntity
  8
1
  6
Continuous
100
AcDbCircle
 10
101.148754
 20
113.4254149999998
 30
0.0
 40
0.4291770000000001
100
AcDbArc
 50
275.151408
 51
330.45533
  0
ARC
  5
1A346
330
1A2B3
100
AcDbEntity
  8
1
  6
Continuous
100
AcDbCircle
 10
99.782176
 20
120.054108
 30
0.0
 40
2.2
100
AcDbArc
 50
0.0
 51
43.34175799999999
  0
ARC
  5
1A347
330
1A2B3
100
AcDbEntity
  8
1
  6
Continuous
100
AcDbCircle
 10
99.782176
 20
114.199982
 30
0.0
 40
2.2
100
AcDbArc
 50
316.6582419999999
 51
0.0
  0
ARC
  5
1A348
330
1A2B3
100
AcDbEntity
  8
1
  6
Continuous
100
AcDbCircle
 10
111.758937
 20
111.285629
 30
0.0
 40
1.0
100
AcDbArc
 50
167.622445
 51
185.609421
  0
ARC
  5
1A349
330
1A2B3
100
AcDbEntity
  8
1
  6
Continuous
100
AcDbCircle
 10
97.79537500000001
 20
119.7294309999999
 30
0.0
 40
4.0
100
AcDbArc
 50
4.655745999999997
 51
26.27231899999998
  0
ARC
  5
1A34A
330
1A2B3
100
AcDbEntity
  8
1
  6
Continuous
100
AcDbCircle
 10
99.782176
 20
114.199982
 30
0.0
 40
2.0
100
AcDbArc
 50
330.45533
 51
0.0
  0
ARC
  5
1A34B
330
1A2B3
100
AcDbEntity
  8
1
  6
Continuous
100
AcDbCircle
 10
99.48217300000001
 20
119.2657929999999
 30
0.0
 40
0.5
100
AcDbArc
 50
129.805573
 51
180.000005
  0
ARC
  5
1A34C
330
1A2B3
100
AcDbEntity
  8
1
  6
Continuous
100
AcDbCircle
 10
99.48217300000001
 20
114.734177
 30
0.0
 40
0.5
100
AcDbArc
 50
179.9999909999999
 51
230.194423
  0
ARC
  5
1A34D
330
1A2B3
100
AcDbEntity
  8
1
  6
Continuous
100
AcDbCircle
 10
102.882183
 20
121.999985
 30
0.0
 40
1.5
100
AcDbArc
 50
90.00000300000001
 51
180.000005
  0
ARC
  5
1A34E
330
1A2B3
100
AcDbEntity
  8
1
  6
Continuous
100
AcDbCircle
 10
101.232173
 20
112.499985
 30
0.0
 40
0.5
100
AcDbArc
 50
95.15141300000001
 51
180.000005
  0
ARC
  5
1A34F
330
1A2B3
100
AcDbEntity
  8
1
  6
Continuous
100
AcDbCircle
 10
115.203487
 20
113.7394709999999
 30
0.0
 40
5.0
100
AcDbArc
 50
175.354479
 51
206.6089059999999
  0
ARC
  5
1A350
330
1A2B3
100
AcDbEntity
  8
1
  6
Continuous
100
AcDbCircle
 10
80.71715899999999
 20
116.5417629999998
 30
0.0
 40
28.39999999999999
100
AcDbArc
 50
354.0998619999998
 51
8.547238
  0
ARC
  5
1A351
330
1A2B3
100
AcDbEntity
  8
1
  6
Continuous
100
AcDbCircle
 10
105.8350629999999
 20
120.316833
 30
0.0
 40
3.0
100
AcDbArc
 50
8.547238
 51
89.42156700000003
  0
ARC
  5
1A352
330
1A2B3
100
AcDbEntity
  8
1
  6
Continuous
100
AcDbCircle
 10
105.2316699999998
 20
125.999985
 30
0.0
 40
2.500509999999998
100
AcDbArc
 50
271.1574479999999
 51
88.842552
  0
ARC
  5
1A353
330
1A2B3
100
AcDbEntity
  8
1
  6
Continuous
100
AcDbCircle
 10
116.523006
 20
112.7443689999999
 30
0.0
 40
7.599999999999998
100
AcDbArc
 50
173.178326
 51
195.6394169999999
  0
ARC
  5
1A354
330
1A2B3
100
AcDbEntity
  8
1
  6
Continuous
100
AcDbCircle
 10
80.71715899999999
 20
116.5417629999998
 30
0.0
 40
29.6
100
AcDbArc
 50
355.3544790000001
 51
7.918647999999997
  0
LINE
  5
1A355
330
1A2B3
100
AcDbEntity
  8
1
  6
Continuous
100
AcDbLine
 10
105.520885
 20
114.2065729999999
 30
0.0
 11
104.551082
 21
119.706573
 31
0.0
  0
LINE
  5
1A356
330
1A2B3
100
AcDbEntity
  8
1
  6
Continuous
100
AcDbLine
 10
106.0132859999999
 20
114.293396
 30
0.0
 11
105.0434829999999
 21
119.793396
 31
0.0
  0
LINE
  5
1A357
330
1A2B3
100
AcDbEntity
  8
1
  6
Continuous
100
AcDbLine
 10
107.095424
 20
119.818558
 30
0.0
 11
105.8246419999999
 21
115.363235
 31
0.0
  0
LINE
  5
1A358
330
1A2B3
100
AcDbEntity
  8
1
  6
Continuous
100
AcDbLine
 10
107.2702749999999
 20
118.682175
 30
0.0
 11
106.007778
 21
114.182449
 31
0.0
  0
LINE
  5
1A359
330
1A2B3
100
AcDbEntity
  8
1
  6
Continuous
100
AcDbLine
 10
109.114803
 20
116.175384
 30
0.0
 11
108.546062
 21
114.181412
 31
0.0
  0
LINE
  5
1A35A
330
1A2B3
100
AcDbEntity
  8
1
  6
Continuous
100
AcDbLine
 10
108.551845
 20
114.293396
 30
0.0
 11
107.582057
 21
119.793396
 31
0.0
  0
LINE
  5
1A35B
330
1A2B3
100
AcDbEntity
  8
1
  6
Continuous
100
AcDbLine
 10
103.474712
 20
114.293396
 30
0.0
 11
102.5049239999999
 21
119.793396
 31
0.0
  0
LINE
  5
1A35C
330
1A2B3
100
AcDbEntity
  8
1
  6
Continuous
100
AcDbLine
 10
109.084972
 20
117.8936769999999
 30
0.0
 11
108.363201
 21
115.363235
 31
0.0
  0
LINE
  5
1A35D
330
1A2B3
100
AcDbEntity
  8
1
  6
Continuous
100
AcDbLine
 10
102.9823109999999
 20
114.2065729999999
 30
0.0
 11
102.0125079999999
 21
119.706573
 31
0.0
  0
LINE
  5
1A35E
330
1A2B3
100
AcDbEntity
  8
1
  6
Continuous
100
AcDbLine
 10
102.018291
 20
119.818558
 30
0.0
 11
101.982173
 21
119.6919099999999
 31
0.0
  0
LINE
  5
1A35F
330
1A2B3
100
AcDbEntity
  8
1
  6
Continuous
100
AcDbLine
 10
108.059444
 20
114.2065729999999
 30
0.0
 11
107.0896409999999
 21
119.706573
 31
0.0
  0
LINE
  5
1A360
330
1A2B3
100
AcDbEntity
  8
1
  6
Continuous
100
AcDbLine
 10
102.2011519999999
 20
118.636749
 30
0.0
 11
101.982173
 21
117.869034
 31
0.0
  0
LINE
  5
1A361
330
1A2B3
100
AcDbEntity
  8
1
  6
Continuous
100
AcDbLine
 10
103.294078
 20
115.3177789999999
 30
0.0
 11
104.5565749999999
 21
119.81752
 31
0.0
  0
LINE
  5
1A362
330
1A2B3
100
AcDbEntity
  8
1
  6
Continuous
100
AcDbLine
 10
103.474712
 20
114.293396
 30
0.0
 11
104.7378039999999
 21
118.6476129999998
 31
0.0
  0
LINE
  5
1A363
330
1A2B3
100
AcDbEntity
  8
1
  6
Continuous
100
AcDbLine
 10
101.3821829999999
 20
121.999985
 30
0.0
 11
101.3821829999999
 21
121.499985
 31
0.0
  0
LINE
  5
1A364
330
1A2B3
100
AcDbEntity
  8
1
  6
Continuous
100
AcDbLine
 10
100.732173
 20
128.499985
 30
0.0
 11
100.732173
 21
120.9583129999999
 31
0.0
  0
LINE
  5
1A365
330
1A2B3
100
AcDbEntity
  8
1
  6
Continuous
100
AcDbLine
 10
99.16209000000002
 20
114.350052
 30
0.0
 11
100.916698
 21
112.8878779999999
 31
0.0
  0
LINE
  5
1A366
330
1A2B3
100
AcDbEntity
  8
1
  6
Continuous
100
AcDbLine
 10
101.382167
 20
121.499985
 30
0.0
 11
99.162075
 21
119.649902
 31
0.0
  0
LINE
  5
1A367
330
1A2B3
100
AcDbEntity
  8
1
  6
Continuous
100
AcDbLine
 10
98.982173
 20
119.2657929999999
 30
0.0
 11
98.982173
 21
114.734177
 31
0.0
  0
LINE
  5
1A368
330
1A2B3
100
AcDbEntity
  8
1
  6
Continuous
100
AcDbLine
 10
101.982173
 20
120.054108
 30
0.0
 11
101.982173
 21
114.199982
 31
0.0
  0
LINE
  5
1A369
330
1A2B3
100
AcDbEntity
  8
1
  6
Continuous
100
AcDbLine
 10
103.5321759999998
 20
123.2999879999999
 30
0.0
 11
103.5321759999998
 21
122.499985
 31
0.0
  0
LINE
  5
1A36A
330
1A2B3
100
AcDbEntity
  8
1
  6
Continuous
100
AcDbLine
 10
105.282176
 20
123.2999879999999
 30
0.0
 11
103.282176
 21
123.2999879999999
 31
0.0
  0
LINE
  5
1A36B
330
1A2B3
100
AcDbEntity
  8
1
  6
Continuous
100
AcDbLine
 10
107.032176
 20
122.499985
 30
0.0
 11
103.5321759999998
 21
122.499985
 31
0.0
  0
LINE
  5
1A36C
330
1A2B3
100
AcDbEntity
  8
1
  6
Continuous
100
AcDbLine
 10
102.782176
 20
128.999985
 30
0.0
 11
102.782176
 21
128.499985
 31
0.0
  0
LINE
  5
1A36D
330
1A2B3
100
AcDbEntity
  8
1
  6
Continuous
100
AcDbLine
 10
105.282176
 20
128.499985
 30
0.0
 11
100.732173
 21
128.499985
 31
0.0
  0
LINE
  5
1A36E
330
1A2B3
100
AcDbEntity
  8
1
  6
Continuous
100
AcDbLine
 10
105.282176
 20
123.499985
 30
0.0
 11
102.882183
 21
123.499985
 31
0.0
  0
LINE
  5
1A36F
330
1A2B3
100
AcDbEntity
  8
4
  6
CENTER
100
AcDbLine
 10
108.282176
 20
125.999985
 30
0.0
 11
102.282176
 21
125.999985
 31
0.0
  0
LINE
  5
1A370
330
1A2B3
100
AcDbEntity
  8
1
  6
Continuous
100
AcDbLine
 10
107.032176
 20
123.067627
 30
0.0
 11
107.032176
 21
122.499985
 31
0.0
  0
LINE
  5
1A371
330
1A2B3
100
AcDbEntity
  8
1
  6
Continuous
100
AcDbLine
 10
110.282176
 20
129.499985
 30
0.0
 11
100.282176
 21
129.499985
 31
0.0
  0
LINE
  5
1A372
330
1A2B3
100
AcDbEntity
  8
1
  6
Continuous
100
AcDbLine
 10
101.782176
 20
120.054108
 30
0.0
 11
101.782176
 21
114.199982
 31
0.0
  0
LINE
  5
1A373
330
1A2B3
100
AcDbEntity
  8
1
  6
Continuous
100
AcDbLine
 10
108.782176
 20
129.499985
 30
0.0
 11
108.782176
 21
125.328415
 31
0.0
  0
LINE
  5
1A374
330
1A2B3
100
AcDbEntity
  8
1
  6
Continuous
100
AcDbLine
 10
110.0349079999999
 20
122.1056059999999
 30
0.0
 11
110.0349079999999
 21
120.619659
 31
0.0
  0
ARC
  5
1A375
330
1A2B3
100
AcDbEntity
  8
1
  6
Continuous
100
AcDbCircle
 10
108.882183
 20
138.448974
 30
0.0
 40
3.0
100
AcDbArc
 50
0.0
 51
36.30775899999999
  0
ARC
  5
1A376
330
1A2B3
100
AcDbEntity
  8
1
  6
Continuous
100
AcDbCircle
 10
107.3231159999999
 20
134.304123
 30
0.0
 40
10.0
100
AcDbArc
 50
106.9515139999999
 51
143.692236
  0
ARC
  5
1A377
330
1A2B3
100
AcDbEntity
  8
1
  6
Continuous
100
AcDbCircle
 10
103.241237
 20
134.304123
 30
0.0
 40
8.4
100
AcDbArc
 50
36.30775899999999
 51
73.048484
  0
ARC
  5
1A378
330
1A2B3
100
AcDbEntity
  8
1
  6
Continuous
100
AcDbCircle
 10
101.6821699999999
 20
138.448974
 30
0.0
 40
3.0
100
AcDbArc
 50
143.692236
 51
180.000005
  0
ARC
  5
1A379
330
1A2B3
100
AcDbEntity
  8
1
  6
Continuous
100
AcDbCircle
 10
105.282176
 20
140.999985
 30
0.0
 40
3.0
100
AcDbArc
 50
73.048484
 51
106.9515139999999
  0
ARC
  5
1A37A
330
1A2B3
100
AcDbEntity
  8
1
  6
Continuous
100
AcDbCircle
 10
105.282176
 20
140.999985
 30
0.0
 40
1.399999999999999
100
AcDbArc
 50
73.048484
 51
106.9515139999999
  0
ARC
  5
1A37B
330
1A2B3
100
AcDbEntity
  8
1
  6
Continuous
100
AcDbCircle
 10
100.282176
 20
132.699982
 30
0.0
 40
1.6
100
AcDbArc
 50
179.9999909999999
 51
270.000001
  0
ARC
  5
1A37C
330
1A2B3
100
AcDbEntity
  8
1
  6
Continuous
100
AcDbCircle
 10
101.6821699999999
 20
138.448974
 30
0.0
 40
1.399999999999999
100
AcDbArc
 50
143.692236
 51
180.000005
  0
ARC
  5
1A37D
330
1A2B3
100
AcDbEntity
  8
1
  6
Continuous
100
AcDbCircle
 10
107.3231159999999
 20
134.304123
 30
0.0
 40
8.4
100
AcDbArc
 50
106.9515139999999
 51
143.692236
  0
ARC
  5
1A37E
330
1A2B3
100
AcDbEntity
  8
1
  6
Continuous
100
AcDbCircle
 10
108.882183
 20
138.448974
 30
0.0
 40
1.399999999999999
100
AcDbArc
 50
0.0
 51
36.30775899999999
  0
ARC
  5
1A37F
330
1A2B3
100
AcDbEntity
  8
1
  6
Continuous
100
AcDbCircle
 10
103.241237
 20
134.304123
 30
0.0
 40
10.0
100
AcDbArc
 50
36.30775899999999
 51
73.048484
  0
ARC
  5
1A380
330
1A2B3
100
AcDbEntity
  8
1
  6
Continuous
100
AcDbCircle
 10
105.282176
 20
131.781473
 30
0.0
 40
3.618519
100
AcDbArc
 50
14.704759
 51
165.2952369999999
  0
LINE
  5
1A381
330
1A2B3
100
AcDbEntity
  8
1
  6
Continuous
100
AcDbLine
 10
100.282176
 20
138.448974
 30
0.0
 11
100.282176
 21
132.699982
 31
0.0
  0
LINE
  5
1A382
330
1A2B3
100
AcDbEntity
  8
1
  6
Continuous
100
AcDbLine
 10
110.282176
 20
132.699982
 30
0.0
 11
100.282176
 21
132.699982
 31
0.0
  0
LINE
  5
1A383
330
1A2B3
100
AcDbEntity
  8
1
  6
Continuous
100
AcDbLine
 10
110.282176
 20
131.0999909999999
 30
0.0
 11
100.282176
 21
131.0999909999999
 31
0.0
  0
LINE
  5
1A384
330
1A2B3
100
AcDbEntity
  8
1
  6
Continuous
100
AcDbLine
 10
98.68217000000001
 20
138.448974
 30
0.0
 11
98.68217000000001
 21
132.699982
 31
0.0
  0
LINE
  5
1A385
330
1A2B3
100
AcDbEntity
  8
1
  6
Continuous
100
AcDbLine
 10
110.282176
 20
138.448974
 30
0.0
 11
110.282176
 21
131.0999909999999
 31
0.0
  0
LINE
  5
1A386
330
1A2B3
100
AcDbEntity
  8
1
  6
Continuous
100
AcDbLine
 10
111.882183
 20
138.448974
 30
0.0
 11
111.882183
 21
131.0999909999999
 31
0.0
  0
LINE
  5
1A387
330
1A2B3
100
AcDbEntity
  8
4
  6
CENTER
100
AcDbLine
 10
192.982177
 20
116.999985
 30
0.0
 11
169.9821769999998
 21
116.999985
 31
0.0
  0
LINE
  5
1A388
330
1A2B3
100
AcDbEntity
  8
1
  6
Continuous
100
AcDbLine
 10
183.232177
 20
144.00412
 30
0.0
 11
183.232177
 21
130.499985
 31
0.0
  0
LINE
  5
1A389
330
1A2B3
100
AcDbEntity
  8
1
  6
Continuous
100
AcDbLine
 10
179.732177
 20
144.00412
 30
0.0
 11
179.732177
 21
130.499985
 31
0.0
  0
LINE
  5
1A38A
330
1A2B3
100
AcDbEntity
  8
1
  6
Continuous
100
AcDbLine
 10
176.482177
 20
132.699982
 30
0.0
 11
176.482177
 21
129.499985
 31
0.0
  0
LINE
  5
1A38B
330
1A2B3
100
AcDbEntity
  8
1
  6
Continuous
100
AcDbLine
 10
186.482177
 20
132.699982
 30
0.0
 11
186.482177
 21
129.499985
 31
0.0
  0
LINE
  5
1A38C
330
1A2B3
100
AcDbEntity
  8
4
  6
CENTER
100
AcDbLine
 10
181.482177
 20
150.804123
 30
0.0
 11
181.482177
 21
89.58240299999998
 31
0.0
  0
LINE
  5
1A38D
330
1A2B3
100
AcDbEntity
  8
1
  6
Continuous
100
AcDbLine
 10
182.982177
 20
110.67543
 30
0.0
 11
182.982177
 21
94.577164
 31
0.0
  0
LINE
  5
1A38E
330
1A2B3
100
AcDbEntity
  8
1
  6
Continuous
100
AcDbLine
 10
179.982177
 20
110.67543
 30
0.0
 11
179.982177
 21
94.577164
 31
0.0
  0
LINE
  5
1A38F
330
1A2B3
100
AcDbEntity
  8
1
  6
Continuous
100
AcDbLine
 10
177.982177
 20
108.499985
 30
0.0
 11
175.482177
 21
114.499985
 31
0.0
  0
LINE
  5
1A390
330
1A2B3
100
AcDbEntity
  8
1
  6
Continuous
100
AcDbLine
 10
184.982177
 20
108.499985
 30
0.0
 11
187.482177
 21
114.499985
 31
0.0
  0
ARC
  5
1A391
330
1A2B3
100
AcDbEntity
  8
1
  6
Continuous
100
AcDbCircle
 10
181.482177
 20
92.12786900000001
 30
0.0
 40
2.872109
100
AcDbArc
 50
58.51574
 51
121.484258
  0
ARC
  5
1A392
330
1A2B3
100
AcDbEntity
  8
1
  6
Continuous
100
AcDbCircle
 10
173.559966
 20
106.166748
 30
0.0
 40
5.0
100
AcDbArc
 50
1.974933999999999
 51
27.816867
  0
ARC
  5
1A393
330
1A2B3
100
AcDbEntity
  8
1
  6
Continuous
100
AcDbCircle
 10
189.404387
 20
106.166748
 30
0.0
 40
5.0
100
AcDbArc
 50
152.183131
 51
178.025069
  0
LINE
  5
1A394
330
1A2B3
100
AcDbEntity
  8
1
  6
Continuous
100
AcDbLine
 10
179.982192
 20
94.577179
 30
0.0
 11
178.9824819999998
 21
94.0
 31
0.0
  0
LINE
  5
1A395
330
1A2B3
100
AcDbEntity
  8
1
  6
Continuous
100
AcDbLine
 10
183.981887
 20
93.999985
 30
0.0
 11
182.982177
 21
94.577164
 31
0.0
  0
LINE
  5
1A396
330
1A2B3
100
AcDbEntity
  8
1
  6
Continuous
100
AcDbLine
 10
177.982177
 20
108.499985
 30
0.0
 11
178.4843439999999
 21
94.86277800000001
 31
0.0
  0
LINE
  5
1A397
330
1A2B3
100
AcDbEntity
  8
1
  6
Continuous
100
AcDbLine
 10
184.982177
 20
108.499985
 30
0.0
 11
184.48001
 21
94.86277800000001
 31
0.0
  0
LINE
  5
1A398
330
1A2B3
100
AcDbEntity
  8
1
  6
Continuous
100
AcDbLine
 10
178.9824819999998
 20
94.0
 30
0.0
 11
178.4843439999999
 21
94.86277800000001
 31
0.0
  0
LINE
  5
1A399
330
1A2B3
100
AcDbEntity
  8
1
  6
Continuous
100
AcDbLine
 10
184.48001
 20
94.86277800000001
 30
0.0
 11
183.981887
 21
93.999985
 31
0.0
  0
LINE
  5
1A39A
330
1A2B3
100
AcDbEntity
  8
1
  6
Continuous
100
AcDbLine
 10
178.5569909999999
 20
106.33905
 30
0.0
 11
178.981872
 21
94.017212
 31
0.0
  0
LINE
  5
1A39B
330
1A2B3
100
AcDbEntity
  8
1
  6
Continuous
100
AcDbLine
 10
184.4073629999998
 20
106.3390649999999
 30
0.0
 11
183.982482
 21
94.017212
 31
0.0
  0
ARC
  5
1A39C
330
1A2B3
100
AcDbEntity
  8
1
  6
Continuous
100
AcDbCircle
 10
181.482177
 20
116.999985
 30
0.0
 40
6.0
100
AcDbArc
 50
114.6243169999999
 51
245.3756929999999
  0
CIRCLE
  5
1A39D
330
1A2B3
100
AcDbEntity
  8
1
  6
Continuous
100
AcDbCircle
 10
181.482177
 20
116.999985
 30
0.0
 40
6.5
  0
LINE
  5
1A39E
330
1A2B3
100
AcDbEntity
  8
4
  6
CENTER
100
AcDbLine
 10
189.782165
 20
125.999985
 30
0.0
 11
173.682174
 21
125.999985
 31
0.0
  0
ARC
  5
1A39F
330
1A2B3
100
AcDbEntity
  8
1
  6
Continuous
100
AcDbCircle
 10
184.232177
 20
130.499985
 30
0.0
 40
1.0
100
AcDbArc
 50
179.9999909999999
 51
270.000001
  0
ARC
  5
1A3A0
330
1A2B3
100
AcDbEntity
  8
1
  6
Continuous
100
AcDbCircle
 10
178.732177
 20
130.499985
 30
0.0
 40
1.0
100
AcDbArc
 50
269.9999969999999
 51
0.0
  0
CIRCLE
  5
1A3A1
330
1A2B3
100
AcDbEntity
  8
1
  6
Continuous
100
AcDbCircle
 10
181.482177
 20
116.999985
 30
0.0
 40
2.334779
  0
ARC
  5
1A3A2
330
1A2B3
100
AcDbEntity
  8
1
  6
Continuous
100
AcDbCircle
 10
181.482177
 20
107.664139
 30
0.0
 40
15.0
100
AcDbArc
 50
80.40592900000001
 51
99.59406900000002
  0
ARC
  5
1A3A3
330
1A2B3
100
AcDbEntity
  8
1
  6
Continuous
100
AcDbCircle
 10
181.482177
 20
126.335831
 30
0.0
 40
15.0
100
AcDbArc
 50
260.405931
 51
279.5940709999999
  0
CIRCLE
  5
1A3A4
330
1A2B3
100
AcDbEntity
  8
1
  6
Continuous
100
AcDbCircle
 10
181.482177
 20
116.999985
 30
0.0
 40
5.5
  0
ARC
  5
1A3A5
330
1A2B3
100
AcDbEntity
  8
1
  6
Continuous
100
AcDbCircle
 10
177.807174
 20
125.999985
 30
0.0
 40
1.625
100
AcDbArc
 50
112.6198629999999
 51
247.3801369999999
  0
ARC
  5
1A3A6
330
1A2B3
100
AcDbEntity
  8
1
  6
Continuous
100
AcDbCircle
 10
184.46968
 20
125.999985
 30
0.0
 40
1.8125
100
AcDbArc
 50
316.3971870000001
 51
43.60281599999999
  0
ARC
  5
1A3A7
330
1A2B3
100
AcDbEntity
  8
1
  6
Continuous
100
AcDbCircle
 10
177.078765
 20
123.071228
 30
0.0
 40
1.0
100
AcDbArc
 50
305.9530609999999
 51
25.389084
  0
ARC
  5
1A3A8
330
1A2B3
100
AcDbEntity
  8
1
  6
Continuous
100
AcDbCircle
 10
185.8855889999999
 20
123.071228
 30
0.0
 40
1.0
100
AcDbArc
 50
154.610921
 51
234.04695
  0
ARC
  5
1A3A9
330
1A2B3
100
AcDbEntity
  8
1
  6
Continuous
100
AcDbCircle
 10
181.482177
 20
116.999985
 30
0.0
 40
6.0
100
AcDbArc
 50
294.624318
 51
65.37568199999999
  0
LINE
  5
1A3AA
330
1A2B3
100
AcDbEntity
  8
1
  6
Continuous
100
AcDbLine
 10
177.982177
 20
123.499481
 30
0.0
 11
177.182174
 21
123.499481
 31
0.0
  0
LINE
  5
1A3AB
330
1A2B3
100
AcDbEntity
  8
1
  6
Continuous
100
AcDbLine
 10
177.982177
 20
128.499985
 30
0.0
 11
177.182174
 21
128.499985
 31
0.0
  0
LINE
  5
1A3AC
330
1A2B3
100
AcDbEntity
  8
1
  6
Continuous
100
AcDbLine
 10
185.78218
 20
128.499985
 30
0.0
 11
185.78218
 21
123.499985
 31
0.0
  0
LINE
  5
1A3AD
330
1A2B3
100
AcDbEntity
  8
1
  6
Continuous
100
AcDbLine
 10
177.182174
 20
128.499985
 30
0.0
 11
177.182174
 21
123.499985
 31
0.0
  0
LINE
  5
1A3AE
330
1A2B3
100
AcDbEntity
  8
1
  6
Continuous
100
AcDbLine
 10
185.78218
 20
123.499481
 30
0.0
 11
184.982177
 21
123.499481
 31
0.0
  0
LINE
  5
1A3AF
330
1A2B3
100
AcDbEntity
  8
1
  6
Continuous
100
AcDbLine
 10
185.78218
 20
128.499985
 30
0.0
 11
184.982177
 21
128.499985
 31
0.0
  0
LINE
  5
1A3B0
330
1A2B3
100
AcDbEntity
  8
1
  6
Continuous
100
AcDbLine
 10
186.482177
 20
129.499985
 30
0.0
 11
176.482177
 21
129.499985
 31
0.0
  0
LINE
  5
1A3B1
330
1A2B3
100
AcDbEntity
  8
1
  6
Continuous
100
AcDbLine
 10
184.982177
 20
129.499985
 30
0.0
 11
184.982177
 21
123.499985
 31
0.0
  0
LINE
  5
1A3B2
330
1A2B3
100
AcDbEntity
  8
1
  6
Continuous
100
AcDbLine
 10
177.982177
 20
129.499985
 30
0.0
 11
177.982177
 21
123.499985
 31
0.0
  0
LINE
  5
1A3B3
330
1A2B3
100
AcDbEntity
  8
1
  6
Continuous
100
AcDbLine
 10
178.732177
 20
131.0999909999999
 30
0.0
 11
176.482177
 21
131.0999909999999
 31
0.0
  0
ARC
  5
1A3B4
330
1A2B3
100
AcDbEntity
  8
1
  6
Continuous
100
AcDbCircle
 10
178.732177
 20
132.0999909999999
 30
0.0
 40
1.0
100
AcDbArc
 50
269.9999969999999
 51
0.0
  0
ARC
  5
1A3B5
330
1A2B3
100
AcDbEntity
  8
1
  6
Continuous
100
AcDbCircle
 10
184.232177
 20
132.0999909999999
 30
0.0
 40
1.0
100
AcDbArc
 50
179.9999909999999
 51
270.000001
  0
LINE
  5
1A3B6
330
1A2B3
100
AcDbEntity
  8
1
  6
Continuous
100
AcDbLine
 10
183.232177
 20
144.00412
 30
0.0
 11
179.732177
 21
144.00412
 31
0.0
  0
LINE
  5
1A3B7
330
1A2B3
100
AcDbEntity
  8
1
  6
Continuous
100
AcDbLine
 10
179.732177
 20
132.699982
 30
0.0
 11
176.482177
 21
132.699982
 31
0.0
  0
LINE
  5
1A3B8
330
1A2B3
100
AcDbEntity
  8
1
  6
Continuous
100
AcDbLine
 10
186.482177
 20
131.0999909999999
 30
0.0
 11
184.232177
 21
131.0999909999999
 31
0.0
  0
LINE
  5
1A3B9
330
1A2B3
100
AcDbEntity
  8
1
  6
Continuous
100
AcDbLine
 10
186.482177
 20
132.699982
 30
0.0
 11
183.232177
 21
132.699982
 31
0.0
  0
LINE
  5
1A3BA
330
1A2B3
100
AcDbEntity
  8
4
  6
CENTER
100
AcDbLine
 10
119.482173
 20
192.4999719999999
 30
0.0
 11
92.999998
 21
192.4999719999999
 31
0.0
  0
ARC
  5
1A3BB
330
1A2B3
100
AcDbEntity
  8
1
  6
Continuous
100
AcDbCircle
 10
172.7830619999998
 20
192.4999719999999
 30
0.0
 40
63.94800599999999
100
AcDbArc
 50
174.616231
 51
176.265025
  0
ARC
  5
1A3BC
330
1A2B3
100
AcDbEntity
  8
1
  6
Continuous
100
AcDbCircle
 10
185.0222129999999
 20
192.4999719999999
 30
0.0
 40
74.987289
100
AcDbArc
 50
175.027286
 51
177.2436279999998
  0
ARC
  5
1A3BD
330
1A2B3
100
AcDbEntity
  8
1
  6
Continuous
100
AcDbCircle
 10
109.1773029999999
 20
192.5003079999999
 30
0.0
 40
5.804866999999998
100
AcDbArc
 50
23.954892
 51
71.358558
  0
ARC
  5
1A3BE
330
1A2B3
100
AcDbEntity
  8
1
  6
Continuous
100
AcDbCircle
 10
105.032176
 20
192.4999719999999
 30
0.0
 40
5.25
100
AcDbArc
 50
19.47122
 51
115.9320789999999
  0
LINE
  5
1A3BF
330
1A2B3
100
AcDbEntity
  8
1
  6
Continuous
100
AcDbLine
 10
111.032802
 20
198.5012839999999
 30
0.0
 11
111.032802
 21
198.0006429999999
 31
0.0
  0
LINE
  5
1A3C0
330
1A2B3
100
AcDbEntity
  8
4
  6
CENTER
100
AcDbLine
 10
105.282176
 20
203.999969
 30
0.0
 11
105.282176
 21
180.999972
 31
0.0
  0
ARC
  5
1A3C1
330
1A2B3
100
AcDbEntity
  8
1
  6
Continuous
100
AcDbCircle
 10
109.1773029999999
 20
192.5003079999999
 30
0.0
 40
5.804866999999998
100
AcDbArc
 50
288.6414419999999
 51
336.045108
  0
ARC
  5
1A3C2
330
1A2B3
100
AcDbEntity
  8
1
  6
Continuous
100
AcDbCircle
 10
110.882183
 20
189.7499719999999
 30
0.0
 40
1.0
100
AcDbArc
 50
0.0
 51
90.00000300000001
  0
ARC
  5
1A3C3
330
1A2B3
100
AcDbEntity
  8
1
  6
Continuous
100
AcDbCircle
 10
110.882183
 20
195.2499719999999
 30
0.0
 40
1.0
100
AcDbArc
 50
269.9999969999999
 51
0.0
  0
LINE
  5
1A3C4
330
1A2B3
100
AcDbEntity
  8
1
  6
Continuous
100
AcDbLine
 10
111.8821669999999
 20
189.7499719999999
 30
0.0
 11
107.828029
 21
187.7785669999999
 31
0.0
  0
LINE
  5
1A3C5
330
1A2B3
100
AcDbEntity
  8
1
  6
Continuous
100
AcDbLine
 10
111.882183
 20
195.2499719999999
 30
0.0
 11
107.828029
 21
197.2213769999999
 31
0.0
  0
LINE
  5
1A3C6
330
1A2B3
100
AcDbEntity
  8
1
  6
Continuous
100
AcDbLine
 10
111.882183
 20
194.2499719999999
 30
0.0
 11
98.68217000000001
 21
194.2499719999999
 31
0.0
  0
LINE
  5
1A3C7
330
1A2B3
100
AcDbEntity
  8
1
  6
Continuous
100
AcDbLine
 10
111.882183
 20
190.7499719999999
 30
0.0
 11
98.68217000000001
 21
190.7499719999999
 31
0.0
  0
ARC
  5
1A3C8
330
1A2B3
100
AcDbEntity
  8
1
  6
Continuous
100
AcDbCircle
 10
111.003749
 20
192.4999719999999
 30
0.0
 40
13.003752
100
AcDbArc
 50
167.7910559999999
 51
192.2089409999999
  0
ARC
  5
1A3C9
330
1A2B3
100
AcDbEntity
  8
1
  6
Continuous
100
AcDbCircle
 10
97.04005
 20
190.5634489999999
 30
0.0
 40
5.0
100
AcDbArc
 50
330.3079789999998
 51
333.9136219999998
  0
ARC
  5
1A3CA
330
1A2B3
100
AcDbEntity
  8
1
  6
Continuous
100
AcDbCircle
 10
100.1239889999999
 20
188.4932889999998
 30
0.0
 40
1.223538
100
AcDbArc
 50
340.594485
 51
358.1694479999999
  0
ARC
  5
1A3CB
330
1A2B3
100
AcDbEntity
  8
1
  6
Continuous
100
AcDbCircle
 10
99.782176
 20
195.5540799999999
 30
0.0
 40
2.2
100
AcDbArc
 50
31.34505600000001
 51
41.087969
  0
ARC
  5
1A3CC
330
1A2B3
100
AcDbEntity
  8
1
  6
Continuous
100
AcDbCircle
 10
97.79537500000001
 20
195.229434
 30
0.0
 40
4.0
100
AcDbArc
 50
20.63441
 51
26.27231899999998
  0
ARC
  5
1A3CD
330
1A2B3
100
AcDbEntity
  8
1
  6
Continuous
100
AcDbCircle
 10
171.2630879999998
 20
192.5003079999999
 30
0.0
 40
60.48090699999999
100
AcDbArc
 50
174.7821229999999
 51
176.927007
  0
ARC
  5
1A3CE
330
1A2B3
100
AcDbEntity
  8
1
  6
Continuous
100
AcDbCircle
 10
171.2630879999998
 20
192.5003079999999
 30
0.0
 40
60.48090699999999
100
AcDbArc
 50
183.073607
 51
185.2178769999999
  0
ARC
  5
1A3CF
330
1A2B3
100
AcDbEntity
  8
1
  6
Continuous
100
AcDbCircle
 10
172.7830619999998
 20
192.4999719999999
 30
0.0
 40
63.94800599999999
100
AcDbArc
 50
183.734975
 51
185.3837689999998
  0
ARC
  5
1A3D0
330
1A2B3
100
AcDbEntity
  8
1
  6
Continuous
100
AcDbCircle
 10
185.0222129999999
 20
192.4999719999999
 30
0.0
 40
74.987289
100
AcDbArc
 50
182.756372
 51
184.9727139999999
  0
ARC
  5
1A3D1
330
1A2B3
100
AcDbEntity
  8
1
  6
Continuous
100
AcDbCircle
 10
105.282176
 20
196.17496
 30
0.0
 40
1.625
100
AcDbArc
 50
75.40724200000003
 51
104.5927559999999
  0
ARC
  5
1A3D2
330
1A2B3
100
AcDbEntity
  8
1
  6
Continuous
100
AcDbCircle
 10
105.5321759999998
 20
192.4999719999999
 30
0.0
 40
5.25
100
AcDbArc
 50
267.270599
 51
295.9320809999999
  0
ARC
  5
1A3D3
330
1A2B3
100
AcDbEntity
  8
1
  6
Continuous
100
AcDbCircle
 10
105.5321759999998
 20
192.4999719999999
 30
0.0
 40
5.25
100
AcDbArc
 50
64.06791899999999
 51
92.72940099999999
  0
ARC
  5
1A3D4
330
1A2B3
100
AcDbEntity
  8
1
  6
Continuous
100
AcDbCircle
 10
105.032176
 20
192.4999719999999
 30
0.0
 40
5.25
100
AcDbArc
 50
244.0679209999999
 51
340.5287799999999
  0
ARC
  5
1A3D5
330
1A2B3
100
AcDbEntity
  8
1
  6
Continuous
100
AcDbCircle
 10
105.282176
 20
192.4999719999999
 30
0.0
 40
3.5
100
AcDbArc
 50
210.000003
 51
329.9999989999998
  0
ARC
  5
1A3D6
330
1A2B3
100
AcDbEntity
  8
1
  6
Continuous
100
AcDbCircle
 10
105.282176
 20
192.4999719999999
 30
0.0
 40
3.5
100
AcDbArc
 50
30.000001
 51
149.999997
  0
ARC
  5
1A3D7
330
1A2B3
100
AcDbEntity
  8
1
  6
Continuous
100
AcDbCircle
 10
99.68217000000002
 20
189.7499719999999
 30
0.0
 40
1.0
100
AcDbArc
 50
90.00000300000001
 51
180.000005
  0
ARC
  5
1A3D8
330
1A2B3
100
AcDbEntity
  8
1
  6
Continuous
100
AcDbCircle
 10
99.68217000000002
 20
195.2499719999999
 30
0.0
 40
1.0
100
AcDbArc
 50
179.9999909999999
 51
270.000001
  0
LINE
  5
1A3D9
330
1A2B3
100
AcDbEntity
  8
1
  6
Continuous
100
AcDbLine
 10
98.68217000000001
 20
195.2499719999999
 30
0.0
 11
98.29410899999999
 21
195.2499719999999
 31
0.0
  0
LINE
  5
1A3DA
330
1A2B3
100
AcDbEntity
  8
1
  6
Continuous
100
AcDbLine
 10
98.68217000000001
 20
189.7499719999999
 30
0.0
 11
98.29410899999999
 21
189.7499719999999
 31
0.0
  0
LINE
  5
1A3DB
330
1A2B3
100
AcDbEntity
  8
1
  6
Continuous
100
AcDbLine
 10
98.29410899999999
 20
195.2499719999999
 30
0.0
 11
98.29410899999999
 21
189.7499719999999
 31
0.0
  0
LINE
  5
1A3DC
330
1A2B3
100
AcDbEntity
  8
1
  6
Continuous
100
AcDbLine
 10
101.3835559999999
 20
188.0867639999999
 30
0.0
 11
101.2780259999999
 21
188.0867639999999
 31
0.0
  0
LINE
  5
1A3DD
330
1A2B3
100
AcDbEntity
  8
1
  6
Continuous
100
AcDbLine
 10
101.4403189999999
 20
196.9999719999999
 30
0.0
 11
101.3821829999999
 21
196.9999719999999
 31
0.0
  0
LINE
  5
1A3DE
330
1A2B3
100
AcDbEntity
  8
1
  6
Continuous
100
AcDbLine
 10
100.122814
 20
189.049441
 30
0.0
 11
101.2780259999999
 21
188.0867639999999
 31
0.0
  0
LINE
  5
1A3DF
330
1A2B3
100
AcDbEntity
  8
1
  6
Continuous
100
AcDbLine
 10
101.382167
 20
196.9999719999999
 30
0.0
 11
100.122814
 21
195.950503
 31
0.0
  0
LINE
  5
1A3E0
330
1A2B3
100
AcDbEntity
  8
1
  6
Continuous
100
AcDbLine
 10
111.032802
 20
186.4999719999999
 30
0.0
 11
110.3171499999999
 21
185.9999719999999
 31
0.0
  0
LINE
  5
1A3E1
330
1A2B3
100
AcDbEntity
  8
1
  6
Continuous
100
AcDbLine
 10
111.032802
 20
186.9999719999999
 30
0.0
 11
111.032802
 21
186.4999719999999
 31
0.0
  0
LINE
  5
1A3E2
330
1A2B3
100
AcDbEntity
  8
1
  6
Continuous
100
AcDbLine
 10
109.117153
 20
186.4999719999999
 30
0.0
 11
110.3171649999999
 21
185.9999719999999
 31
0.0
  0
LINE
  5
1A3E3
330
1A2B3
100
AcDbEntity
  8
1
  6
Continuous
100
AcDbLine
 10
98.68217000000001
 20
189.7499719999999
 30
0.0
 11
102.7363239999999
 21
187.7785669999999
 31
0.0
  0
LINE
  5
1A3E4
330
1A2B3
100
AcDbEntity
  8
1
  6
Continuous
100
AcDbLine
 10
98.682186
 20
195.2499719999999
 30
0.0
 11
102.7363239999999
 21
197.2213769999999
 31
0.0
  0
LINE
  5
1A3E5
330
1A2B3
100
AcDbEntity
  8
1
  6
Continuous
100
AcDbLine
 10
110.282176
 20
190.7499719999999
 30
0.0
 11
110.282176
 21
188.971957
 31
0.0
  0
LINE
  5
1A3E6
330
1A2B3
100
AcDbEntity
  8
1
  6
Continuous
100
AcDbLine
 10
100.282176
 20
190.7499719999999
 30
0.0
 11
100.282176
 21
188.971957
 31
0.0
  0
LINE
  5
1A3E7
330
1A2B3
100
AcDbEntity
  8
1
  6
Continuous
100
AcDbLine
 10
110.282176
 20
196.027987
 30
0.0
 11
110.282176
 21
194.2499719999999
 31
0.0
  0
LINE
  5
1A3E8
330
1A2B3
100
AcDbEntity
  8
1
  6
Continuous
100
AcDbLine
 10
100.282176
 20
196.027987
 30
0.0
 11
100.282176
 21
194.2499719999999
 31
0.0
  0
LINE
  5
1A3E9
330
1A2B3
100
AcDbEntity
  8
1
  6
Continuous
100
AcDbLine
 10
98.68217000000001
 20
195.2499719999999
 30
0.0
 11
98.68217000000001
 21
189.7499719999999
 31
0.0
  0
LINE
  5
1A3EA
330
1A2B3
100
AcDbEntity
  8
1
  6
Continuous
100
AcDbLine
 10
114.482173
 20
194.85718
 30
0.0
 11
114.482173
 21
190.143435
 31
0.0
  0
LINE
  5
1A3EB
330
1A2B3
100
AcDbEntity
  8
1
  6
Continuous
100
AcDbLine
 10
111.882183
 20
195.2499719999999
 30
0.0
 11
111.882183
 21
189.7499719999999
 31
0.0
  0
LINE
  5
1A3EC
330
1A2B3
100
AcDbEntity
  8
1
  6
Continuous
100
AcDbLine
 10
110.3171649999999
 20
198.9999719999999
 30
0.0
 11
111.032802
 21
198.5012839999999
 31
0.0
  0
LINE
  5
1A3ED
330
1A2B3
100
AcDbEntity
  8
1
  6
Continuous
100
AcDbLine
 10
110.3171649999999
 20
198.9999719999999
 30
0.0
 11
109.117153
 21
198.4999719999999
 31
0.0
  0
CIRCLE
  5
1A3EE
330
1A2B3
100
AcDbEntity
  8
1
  6
Continuous
100
AcDbCircle
 10
257.196008
 20
125.999985
 30
0.0
 40
1.25
  0
ARC
  5
1A3EF
330
1A2B3
100
AcDbEntity
  8
1
  6
Continuous
100
AcDbCircle
 10
109.1773029999999
 20
47.499659
 30
0.0
 40
5.804866999999998
100
AcDbArc
 50
288.6414419999999
 51
336.045108
  0
ARC
  5
1A3F0
330
1A2B3
100
AcDbEntity
  8
1
  6
Continuous
100
AcDbCircle
 10
106.463649
 20
50.10661999999999
 30
0.0
 40
6.236994
100
AcDbArc
 50
242.7918229999999
 51
259.0500359999999
  0
ARC
  5
1A3F1
330
1A2B3
100
AcDbEntity
  8
1
  6
Continuous
100
AcDbCircle
 10
106.463649
 20
50.10661999999999
 30
0.0
 40
6.236994
100
AcDbArc
 50
281.7351029999999
 51
293.110387
  0
ARC
  5
1A3F2
330
1A2B3
100
AcDbEntity
  8
1
  6
Continuous
100
AcDbCircle
 10
103.09193
 20
45.19998799999998
 30
0.0
 40
1.199999999999999
100
AcDbArc
 50
209.12955
 51
269.9999969999999
  0
ARC
  5
1A3F3
330
1A2B3
100
AcDbEntity
  8
1
  6
Continuous
100
AcDbCircle
 10
99.382183
 20
45.46507899999999
 30
0.0
 40
2.0
100
AcDbArc
 50
281.5964359999999
 51
335.817521
  0
ARC
  5
1A3F4
330
1A2B3
100
AcDbEntity
  8
1
  6
Continuous
100
AcDbCircle
 10
171.2630879999998
 20
47.499659
 30
0.0
 40
60.48090699999999
100
AcDbArc
 50
183.033309
 51
185.2178769999999
  0
ARC
  5
1A3F5
330
1A2B3
100
AcDbEntity
  8
1
  6
Continuous
100
AcDbCircle
 10
172.7830619999998
 20
47.499988
 30
0.0
 40
63.94800599999999
100
AcDbArc
 50
182.8053859999999
 51
185.3837689999998
  0
ARC
  5
1A3F6
330
1A2B3
100
AcDbEntity
  8
1
  6
Continuous
100
AcDbCircle
 10
99.782176
 20
44.44586499999998
 30
0.0
 40
2.2
100
AcDbArc
 50
318.912031
 51
4.495115
  0
ARC
  5
1A3F7
330
1A2B3
100
AcDbEntity
  8
1
  6
Continuous
100
AcDbCircle
 10
185.0222129999999
 20
47.499988
 30
0.0
 40
74.987289
100
AcDbArc
 50
182.424698
 51
184.9727139999999
  0
LINE
  5
1A3F8
330
1A2B3
100
AcDbEntity
  8
1
  6
Continuous
100
AcDbLine
 10
99.78420599999999
 20
44.124045
 30
0.0
 11
99.78420599999999
 21
43.505904
 31
0.0
  0
LINE
  5
1A3F9
330
1A2B3
100
AcDbEntity
  8
4
  6
CENTER
100
AcDbLine
 10
105.282176
 20
35.927607
 30
0.0
 11
105.282176
 21
58.999988
 31
0.0
  0
ARC
  5
1A3FA
330
1A2B3
100
AcDbEntity
  8
1
  6
Continuous
100
AcDbCircle
 10
105.5321759999998
 20
47.499988
 30
0.0
 40
5.25
100
AcDbArc
 50
231.978308
 51
260.4766169999999
  0
ARC
  5
1A3FB
330
1A2B3
100
AcDbEntity
  8
1
  6
Continuous
100
AcDbCircle
 10
103.09193
 20
45.19998799999998
 30
0.0
 40
2.0
100
AcDbArc
 50
230.949723
 51
269.9999969999999
  0
ARC
  5
1A3FC
330
1A2B3
100
AcDbEntity
  8
1
  6
Continuous
100
AcDbCircle
 10
105.5321759999998
 20
47.499988
 30
0.0
 40
5.25
100
AcDbArc
 50
271.740029
 51
295.9320809999999
  0
ARC
  5
1A3FD
330
1A2B3
100
AcDbEntity
  8
1
  6
Continuous
100
AcDbCircle
 10
105.032176
 20
47.499988
 30
0.0
 40
5.25
100
AcDbArc
 50
244.0679209999999
 51
268.259973
  0
ARC
  5
1A3FE
330
1A2B3
100
AcDbEntity
  8
1
  6
Continuous
100
AcDbCircle
 10
105.282176
 20
43.82498799999999
 30
0.0
 40
1.625
100
AcDbArc
 50
202.6198599999999
 51
337.3801349999999
  0
LINE
  5
1A3FF
330
1A2B3
100
AcDbEntity
  8
1
  6
Continuous
100
AcDbLine
 10
101.6610829999999
 20
43.301448
 30
0.0
 11
102.7363239999999
 21
42.77859799999997
 31
0.0
  0
LINE
  5
1A400
330
1A2B3
100
AcDbEntity
  8
1
  6
Continuous
100
AcDbLine
 10
107.7321729999999
 20
43.999988
 30
0.0
 11
107.7321729999999
 21
43.19998799999999
 31
0.0
  0
LINE
  5
1A401
330
1A2B3
100
AcDbEntity
  8
1
  6
Continuous
100
AcDbLine
 10
107.7321729999999
 20
43.999988
 30
0.0
 11
103.09193
 21
43.999988
 31
0.0
  0
LINE
  5
1A402
330
1A2B3
100
AcDbEntity
  8
1
  6
Continuous
100
AcDbLine
 10
107.7321729999999
 20
43.19998799999999
 30
0.0
 11
103.09193
 21
43.19998799999999
 31
0.0
  0
LINE
  5
1A403
330
1A2B3
100
AcDbEntity
  8
1
  6
Continuous
100
AcDbLine
 10
101.4403189999999
 20
42.999988
 30
0.0
 11
101.3821829999999
 21
42.999988
 31
0.0
  0
LINE
  5
1A404
330
1A2B3
100
AcDbEntity
  8
1
  6
Continuous
100
AcDbLine
 10
111.032802
 20
41.498671
 30
0.0
 11
111.032802
 21
41.999328
 31
0.0
  0
LINE
  5
1A405
330
1A2B3
100
AcDbEntity
  8
1
  6
Continuous
100
AcDbLine
 10
110.3171499999999
 20
40.999988
 30
0.0
 11
111.032817
 21
41.498675
 31
0.0
  0
LINE
  5
1A406
330
1A2B3
100
AcDbEntity
  8
1
  6
Continuous
100
AcDbLine
 10
110.3171649999999
 20
40.99999099999997
 30
0.0
 11
109.117153
 21
41.49999099999997
 31
0.0
  0
LINE
  5
1A407
330
1A2B3
100
AcDbEntity
  8
1
  6
Continuous
100
AcDbLine
 10
101.3821829999999
 20
42.99998399999998
 30
0.0
 11
100.4519149999999
 21
43.77520599999999
 31
0.0
  0
LINE
  5
1A408
330
1A2B3
100
AcDbEntity
  8
1
  6
Continuous
100
AcDbLine
 10
108.970867
 20
43.33431899999999
 30
0.0
 11
107.828029
 21
42.77859399999999
 31
0.0
  0
LINE
  5
1A409
330
1A2B3
100
AcDbEntity
  8
4
  6
CENTER
100
AcDbLine
 10
119.482173
 20
47.499988
 30
0.0
 11
92.999998
 21
47.499988
 31
0.0
  0
ARC
  5
1A40A
330
1A2B3
100
AcDbEntity
  8
1
  6
Continuous
100
AcDbCircle
 10
109.1773029999999
 20
47.499659
 30
0.0
 40
5.804866999999998
100
AcDbArc
 50
23.954892
 51
71.358558
  0
LINE
  5
1A40B
330
1A2B3
100
AcDbEntity
  8
1
  6
Continuous
100
AcDbLine
 10
111.2222399999998
 20
45.99999099999998
 30
0.0
 11
111.7821759999998
 21
44.75008299999998
 31
0.0
  0
LINE
  5
1A40C
330
1A2B3
100
AcDbEntity
  8
1
  6
Continuous
100
AcDbLine
 10
111.7821759999998
 20
50.249896
 30
0.0
 11
111.222225
 21
48.99998400000001
 31
0.0
  0
LINE
  5
1A40D
330
1A2B3
100
AcDbEntity
  8
1
  6
Continuous
100
AcDbLine
 10
110.8778339999999
 20
44.29979999999999
 30
0.0
 11
111.7821759999998
 21
44.750071
 31
0.0
  0
LINE
  5
1A40E
330
1A2B3
100
AcDbEntity
  8
1
  6
Continuous
100
AcDbLine
 10
110.8778189999999
 20
50.700175
 30
0.0
 11
111.7821759999998
 21
50.24989999999998
 31
0.0
  0
LINE
  5
1A40F
330
1A2B3
100
AcDbEntity
  8
1
  6
Continuous
100
AcDbLine
 10
98.71003299999999
 20
45.21773399999999
 30
0.0
 11
111.799419
 21
44.74946099999999
 31
0.0
  0
LINE
  5
1A410
330
1A2B3
100
AcDbEntity
  8
1
  6
Continuous
100
AcDbLine
 10
111.799419
 20
50.250514
 30
0.0
 11
98.71004800000001
 21
49.782237
 31
0.0
  0
ARC
  5
1A411
330
1A2B3
100
AcDbEntity
  8
1
  6
Continuous
100
AcDbCircle
 10
95.01726899999999
 20
47.499988
 30
0.0
 40
5.0
100
AcDbArc
 50
348.4630409999998
 51
11.53695899999999
  0
ARC
  5
1A412
330
1A2B3
100
AcDbEntity
  8
1
  6
Continuous
100
AcDbCircle
 10
105.282176
 20
50.487487
 30
0.0
 40
1.8125
100
AcDbArc
 50
46.39718099999999
 51
133.6028169999998
  0
ARC
  5
1A413
330
1A2B3
100
AcDbEntity
  8
1
  6
Continuous
100
AcDbCircle
 10
106.479198
 20
44.757651
 30
0.0
 40
6.356069999999997
100
AcDbArc
 50
67.498627
 51
78.630702
  0
ARC
  5
1A414
330
1A2B3
100
AcDbEntity
  8
1
  6
Continuous
100
AcDbCircle
 10
106.479198
 20
44.757651
 30
0.0
 40
6.356069999999997
100
AcDbArc
 50
100.8551269999999
 51
116.5991699999999
  0
ARC
  5
1A415
330
1A2B3
100
AcDbEntity
  8
1
  6
Continuous
100
AcDbCircle
 10
103.09193
 20
49.799987
 30
0.0
 40
1.199999999999999
100
AcDbArc
 50
90.00000300000001
 51
150.87045
  0
ARC
  5
1A416
330
1A2B3
100
AcDbEntity
  8
1
  6
Continuous
100
AcDbCircle
 10
103.09193
 20
49.799987
 30
0.0
 40
2.0
100
AcDbArc
 50
90.00000300000001
 51
133.9605409999998
  0
ARC
  5
1A417
330
1A2B3
100
AcDbEntity
  8
1
  6
Continuous
100
AcDbCircle
 10
111.003749
 20
47.499988
 30
0.0
 40
12.503752
100
AcDbArc
 50
169.483112
 51
190.5168839999998
  0
ARC
  5
1A418
330
1A2B3
100
AcDbEntity
  8
1
  6
Continuous
100
AcDbCircle
 10
99.382183
 20
45.46507899999999
 30
0.0
 40
1.399999999999999
100
AcDbArc
 50
286.688431
 51
325.387265
  0
ARC
  5
1A419
330
1A2B3
100
AcDbEntity
  8
1
  6
Continuous
100
AcDbCircle
 10
99.382183
 20
49.53489600000001
 30
0.0
 40
1.399999999999999
100
AcDbArc
 50
34.612735
 51
73.31156899999998
  0
ARC
  5
1A41A
330
1A2B3
100
AcDbEntity
  8
1
  6
Continuous
100
AcDbCircle
 10
99.382183
 20
49.53489600000001
 30
0.0
 40
2.0
100
AcDbArc
 50
24.182479
 51
78.40356400000001
  0
ARC
  5
1A41B
330
1A2B3
100
AcDbEntity
  8
1
  6
Continuous
100
AcDbCircle
 10
113.67152
 20
47.499988
 30
0.0
 40
2.872116999999999
100
AcDbArc
 50
148.515838
 51
211.484172
  0
ARC
  5
1A41C
330
1A2B3
100
AcDbEntity
  8
1
  6
Continuous
100
AcDbCircle
 10
97.04005
 20
49.436507
 30
0.0
 40
5.0
100
AcDbArc
 50
10.88596899999999
 51
29.692021
  0
ARC
  5
1A41D
330
1A2B3
100
AcDbEntity
  8
1
  6
Continuous
100
AcDbCircle
 10
111.003749
 20
47.499988
 30
0.0
 40
13.003752
100
AcDbArc
 50
167.7910559999999
 51
192.2089409999999
  0
ARC
  5
1A41E
330
1A2B3
100
AcDbEntity
  8
1
  6
Continuous
100
AcDbCircle
 10
171.2630879999998
 20
47.499659
 30
0.0
 40
60.48090699999999
100
AcDbArc
 50
174.7821229999999
 51
176.9660759999999
  0
ARC
  5
1A41F
330
1A2B3
100
AcDbEntity
  8
1
  6
Continuous
100
AcDbCircle
 10
185.0222129999999
 20
47.499988
 30
0.0
 40
74.987289
100
AcDbArc
 50
175.027286
 51
177.5753019999999
  0
ARC
  5
1A420
330
1A2B3
100
AcDbEntity
  8
1
  6
Continuous
100
AcDbCircle
 10
172.7830619999998
 20
47.499988
 30
0.0
 40
63.94800599999999
100
AcDbArc
 50
174.616231
 51
177.194614
  0
ARC
  5
1A421
330
1A2B3
100
AcDbEntity
  8
1
  6
Continuous
100
AcDbCircle
 10
105.032176
 20
47.499988
 30
0.0
 40
5.25
100
AcDbArc
 50
87.27059699999998
 51
115.9320789999999
  0
ARC
  5
1A422
330
1A2B3
100
AcDbEntity
  8
1
  6
Continuous
100
AcDbCircle
 10
105.5321759999998
 20
47.499988
 30
0.0
 40
5.25
100
AcDbArc
 50
64.06791899999999
 51
128.0216919999998
  0
LINE
  5
1A423
330
1A2B3
100
AcDbEntity
  8
1
  6
Continuous
100
AcDbLine
 10
101.5307119999998
 20
51.635131
 30
0.0
 11
102.7363239999999
 21
52.22137700000001
 31
0.0
  0
LINE
  5
1A424
330
1A2B3
100
AcDbEntity
  8
1
  6
Continuous
100
AcDbLine
 10
107.7321729999999
 20
50.999988
 30
0.0
 11
103.09193
 21
50.999988
 31
0.0
  0
LINE
  5
1A425
330
1A2B3
100
AcDbEntity
  8
1
  6
Continuous
100
AcDbLine
 10
107.7321729999999
 20
51.799987
 30
0.0
 11
107.7321729999999
 21
50.999988
 31
0.0
  0
LINE
  5
1A426
330
1A2B3
100
AcDbEntity
  8
1
  6
Continuous
100
AcDbLine
 10
107.7321729999999
 20
51.799987
 30
0.0
 11
103.09193
 21
51.799987
 31
0.0
  0
LINE
  5
1A427
330
1A2B3
100
AcDbEntity
  8
1
  6
Continuous
100
AcDbLine
 10
99.78420599999999
 20
51.49407100000001
 30
0.0
 11
99.78420599999999
 21
50.87593
 31
0.0
  0
LINE
  5
1A428
330
1A2B3
100
AcDbEntity
  8
1
  6
Continuous
100
AcDbLine
 10
111.222225
 20
45.999988
 30
0.0
 11
98.590297
 21
45.999988
 31
0.0
  0
LINE
  5
1A429
330
1A2B3
100
AcDbEntity
  8
1
  6
Continuous
100
AcDbLine
 10
111.222225
 20
48.999988
 30
0.0
 11
98.590297
 21
48.999988
 31
0.0
  0
LINE
  5
1A42A
330
1A2B3
100
AcDbEntity
  8
1
  6
Continuous
100
AcDbLine
 10
98.29409400000001
 20
44.749988
 30
0.0
 11
110.8778339999999
 21
44.29980399999998
 31
0.0
  0
LINE
  5
1A42B
330
1A2B3
100
AcDbEntity
  8
1
  6
Continuous
100
AcDbLine
 10
110.8778189999999
 20
50.700175
 30
0.0
 11
98.29410899999999
 21
50.249988
 31
0.0
  0
LINE
  5
1A42C
330
1A2B3
100
AcDbEntity
  8
1
  6
Continuous
100
AcDbLine
 10
101.3835559999999
 20
51.91319599999999
 30
0.0
 11
101.2780259999999
 21
51.91319599999999
 31
0.0
  0
LINE
  5
1A42D
330
1A2B3
100
AcDbEntity
  8
1
  6
Continuous
100
AcDbLine
 10
111.032802
 20
52.999988
 30
0.0
 11
111.032802
 21
53.499988
 31
0.0
  0
LINE
  5
1A42E
330
1A2B3
100
AcDbEntity
  8
1
  6
Continuous
100
AcDbLine
 10
111.032802
 20
53.499991
 30
0.0
 11
110.3171649999999
 21
53.999991
 31
0.0
  0
LINE
  5
1A42F
330
1A2B3
100
AcDbEntity
  8
1
  6
Continuous
100
AcDbLine
 10
100.4519149999999
 20
51.224769
 30
0.0
 11
101.2780259999999
 21
51.91319899999999
 31
0.0
  0
LINE
  5
1A430
330
1A2B3
100
AcDbEntity
  8
1
  6
Continuous
100
AcDbLine
 10
108.970882
 20
51.665652
 30
0.0
 11
107.828029
 21
52.221381
 31
0.0
  0
LINE
  5
1A431
330
1A2B3
100
AcDbEntity
  8
1
  6
Continuous
100
AcDbLine
 10
98.71299300000003
 20
50.264975
 30
0.0
 11
99.89255900000001
 21
50.83854999999999
 31
0.0
  0
LINE
  5
1A432
330
1A2B3
100
AcDbEntity
  8
1
  6
Continuous
100
AcDbLine
 10
109.117153
 20
53.499988
 30
0.0
 11
110.3171499999999
 21
53.999988
 31
0.0
  0
LINE
  5
1A433
330
1A2B3
100
AcDbEntity
  8
1
  6
Continuous
100
AcDbLine
 10
98.71299300000003
 20
44.735003
 30
0.0
 11
99.89255900000001
 21
44.161425
 31
0.0
  0
LINE
  5
1A434
330
1A2B3
100
AcDbEntity
  8
1
  6
Continuous
100
AcDbLine
 10
114.482173
 20
49.856536
 30
0.0
 11
114.482173
 21
45.14278299999999
 31
0.0
  0
ARC
  5
1A435
330
1A2B3
100
AcDbEntity
  8
1
  6
Continuous
100
AcDbCircle
 10
181.482177
 20
131.781473
 30
0.0
 40
3.618519
100
AcDbArc
 50
14.704759
 51
61.077684
  0
ARC
  5
1A436
330
1A2B3
100
AcDbEntity
  8
1
  6
Continuous
100
AcDbCircle
 10
181.482177
 20
131.781473
 30
0.0
 40
3.618519
100
AcDbArc
 50
118.9223149999999
 51
165.2952369999999
  0
ARC
  5
1A437
330
1A2B3
100
AcDbEntity
  8
1
  6
Continuous
100
AcDbCircle
 10
31.5
 20
131.781473
 30
0.0
 40
3.618519
100
AcDbArc
 50
14.704759
 51
61.077684
  0
ARC
  5
1A438
330
1A2B3
100
AcDbEntity
  8
1
  6
Continuous
100
AcDbCircle
 10
31.5
 20
131.781473
 30
0.0
 40
3.618519
100
AcDbArc
 50
118.9223149999999
 51
165.2952369999999
  0
LINE
  5
1A439
330
1A2B3
100
AcDbEntity
  8
4
  6
CENTER
100
AcDbLine
 10
257.196008
 20
150.804123
 30
0.0
 11
257.196008
 21
89.58240299999998
 31
0.0
  0
LINE
  5
1A43A
330
1A2B3
100
AcDbEntity
  8
1
  6
Continuous
100
AcDbLine
 10
252.1960079999999
 20
138.448974
 30
0.0
 11
252.1960079999999
 21
131.0999909999999
 31
0.0
  0
LINE
  5
1A43B
330
1A2B3
100
AcDbEntity
  8
1
  6
Continuous
100
AcDbLine
 10
250.5960019999999
 20
138.448974
 30
0.0
 11
250.5960019999999
 21
131.0999909999999
 31
0.0
  0
ARC
  5
1A43C
330
1A2B3
100
AcDbEntity
  8
1
  6
Continuous
100
AcDbCircle
 10
262.196008
 20
132.699982
 30
0.0
 40
1.6
100
AcDbArc
 50
269.999999
 51
0.000009
  0
LINE
  5
1A43D
330
1A2B3
100
AcDbEntity
  8
4
  6
CENTER
100
AcDbLine
 10
242.4960109999999
 20
116.999985
 30
0.0
 11
268.496011
 21
116.999985
 31
0.0
  0
LINE
  5
1A43E
330
1A2B3
100
AcDbEntity
  8
1
  6
Continuous
100
AcDbLine
 10
251.7451109999999
 20
111.499985
 30
0.0
 11
250.7271209999999
 21
101.135345
 31
0.0
  0
LINE
  5
1A43F
330
1A2B3
100
AcDbEntity
  8
1
  6
Continuous
100
AcDbLine
 10
253.2737979999999
 20
110.6955409999999
 30
0.0
 11
252.319467
 21
100.978943
 31
0.0
  0
LINE
  5
1A440
330
1A2B3
100
AcDbEntity
  8
1
  6
Continuous
100
AcDbLine
 10
261.0960019999998
 20
112.690018
 30
0.0
 11
261.0960019999998
 21
101.4999849999999
 31
0.0
  0
LINE
  5
1A441
330
1A2B3
100
AcDbEntity
  8
1
  6
Continuous
100
AcDbLine
 10
261.0960019999998
 20
112.690018
 30
0.0
 11
261.0960019999998
 21
101.4999849999999
 31
0.0
  0
LINE
  5
1A442
330
1A2B3
100
AcDbEntity
  8
1
  6
Continuous
100
AcDbLine
 10
261.7439669999999
 20
112.545029
 30
0.0
 11
262.693979
 21
102.045029
 31
0.0
  0
ARC
  5
1A443
330
1A2B3
100
AcDbEntity
  8
1
  6
Continuous
100
AcDbCircle
 10
251.6561519999999
 20
109.571136
 30
0.0
 40
2.0
100
AcDbArc
 50
354.390579
 51
35.800213
  0
ARC
  5
1A444
330
1A2B3
100
AcDbEntity
  8
1
  6
Continuous
100
AcDbCircle
 10
257.196008
 20
100.4999849999999
 30
0.0
 40
6.5
100
AcDbArc
 50
174.39058
 51
355.0564229999998
  0
LINE
  5
1A445
330
1A2B3
100
AcDbEntity
  8
1
  6
Continuous
100
AcDbLine
 10
264.184076
 20
105.862106
 30
0.0
 11
263.671823
 21
99.93985000000002
 31
0.0
  0
LINE
  5
1A446
330
1A2B3
100
AcDbEntity
  8
1
  6
Continuous
100
AcDbLine
 10
262.590036
 20
105.999985
 30
0.0
 11
262.465952
 21
104.5653689999999
 31
0.0
  0
LINE
  5
1A447
330
1A2B3
100
AcDbEntity
  8
1
  6
Continuous
100
AcDbLine
 10
264.184076
 20
105.862106
 30
0.0
 11
262.590036
 21
105.999985
 31
0.0
  0
LINE
  5
1A448
330
1A2B3
100
AcDbEntity
  8
1
  6
Continuous
100
AcDbLine
 10
253.64657
 20
109.375656
 30
0.0
 11
252.817072
 21
100.9300689999999
 31
0.0
  0
LINE
  5
1A449
330
1A2B3
100
AcDbEntity
  8
1
  6
Continuous
100
AcDbLine
 10
262.2008
 20
101.4999849999999
 30
0.0
 11
262.077783
 21
100.0777279999999
 31
0.0
  0
LINE
  5
1A44A
330
1A2B3
100
AcDbEntity
  8
1
  6
Continuous
100
AcDbLine
 10
261.0960019999998
 20
101.4999849999999
 30
0.0
 11
262.196008
 21
101.4999849999999
 31
0.0
  0
ARC
  5
1A44B
330
1A2B3
100
AcDbEntity
  8
1
  6
Continuous
100
AcDbCircle
 10
257.196008
 20
100.4999849999999
 30
0.0
 40
4.4
100
AcDbArc
 50
174.390579
 51
341.4899049999998
  0
ARC
  5
1A44C
330
1A2B3
100
AcDbEntity
  8
1
  6
Continuous
100
AcDbCircle
 10
257.196008
 20
100.4999849999999
 30
0.0
 40
4.9
100
AcDbArc
 50
174.39058
 51
355.0564229999998
  0
ARC
  5
1A44D
330
1A2B3
100
AcDbEntity
  8
1
  6
Continuous
100
AcDbCircle
 10
263.2649169999999
 20
98.46817000000001
 30
0.0
 40
2.0
100
AcDbArc
 50
126.4107969999998
 51
161.489902
  0
ARC
  5
1A44E
330
1A2B3
100
AcDbEntity
  8
1
  6
Continuous
100
AcDbCircle
 10
262.196008
 20
101.999985
 30
0.0
 40
0.5
100
AcDbArc
 50
269.999999
 51
5.169832999999998
  0
ARC
  5
1A44F
330
1A2B3
100
AcDbEntity
  8
1
  6
Continuous
100
AcDbCircle
 10
256.9863219999999
 20
103.783569
 30
0.0
 40
7.491863
100
AcDbArc
 50
334.005402
 51
16.107453
  0
ARC
  5
1A450
330
1A2B3
100
AcDbEntity
  8
1
  6
Continuous
100
AcDbCircle
 10
252.1960079999999
 20
131.0999909999999
 30
0.0
 40
1.6
100
AcDbArc
 50
180.0
 51
270.0000029999998
  0
ARC
  5
1A451
330
1A2B3
100
AcDbEntity
  8
1
  6
Continuous
100
AcDbCircle
 10
253.197199
 20
116.999985
 30
0.0
 40
5.70119
100
AcDbArc
 50
105.266659
 51
254.733341
  0
LINE
  5
1A452
330
1A2B3
100
AcDbEntity
  8
1
  6
Continuous
100
AcDbLine
 10
252.1960079999999
 20
131.0999909999999
 30
0.0
 11
262.196008
 21
131.0999909999999
 31
0.0
  0
LINE
  5
1A453
330
1A2B3
100
AcDbEntity
  8
1
  6
Continuous
100
AcDbLine
 10
252.1960079999999
 20
129.499985
 30
0.0
 11
262.196008
 21
129.499985
 31
0.0
  0
LINE
  5
1A454
330
1A2B3
100
AcDbEntity
  8
1
  6
Continuous
100
AcDbLine
 10
262.196008
 20
131.0999909999999
 30
0.0
 11
262.196008
 21
129.499985
 31
0.0
  0
LINE
  5
1A455
330
1A2B3
100
AcDbEntity
  8
1
  6
Continuous
100
AcDbLine
 10
252.443277
 20
122.1056059999999
 30
0.0
 11
252.443277
 21
120.619659
 31
0.0
  0
LINE
  5
1A456
330
1A2B3
100
AcDbEntity
  8
1
  6
Continuous
100
AcDbLine
 10
253.696008
 20
129.499985
 30
0.0
 11
253.696008
 21
125.328415
 31
0.0
  0
LINE
  5
1A457
330
1A2B3
100
AcDbEntity
  8
1
  6
Continuous
100
AcDbLine
 10
260.6960079999999
 20
120.054108
 30
0.0
 11
260.6960079999999
 21
114.199982
 31
0.0
  0
LINE
  5
1A458
330
1A2B3
100
AcDbEntity
  8
1
  6
Continuous
100
AcDbLine
 10
255.446008
 20
123.067627
 30
0.0
 11
255.446008
 21
122.499985
 31
0.0
  0
LINE
  5
1A459
330
1A2B3
100
AcDbEntity
  8
4
  6
CENTER
100
AcDbLine
 10
254.1960079999999
 20
125.999985
 30
0.0
 11
260.196008
 21
125.999985
 31
0.0
  0
LINE
  5
1A45A
330
1A2B3
100
AcDbEntity
  8
1
  6
Continuous
100
AcDbLine
 10
257.196008
 20
123.499985
 30
0.0
 11
259.596002
 21
123.499985
 31
0.0
  0
LINE
  5
1A45B
330
1A2B3
100
AcDbEntity
  8
1
  6
Continuous
100
AcDbLine
 10
257.196008
 20
128.499985
 30
0.0
 11
261.746011
 21
128.499985
 31
0.0
  0
LINE
  5
1A45C
330
1A2B3
100
AcDbEntity
  8
1
  6
Continuous
100
AcDbLine
 10
259.696008
 20
128.999985
 30
0.0
 11
259.696008
 21
128.499985
 31
0.0
  0
LINE
  5
1A45D
330
1A2B3
100
AcDbEntity
  8
1
  6
Continuous
100
AcDbLine
 10
255.446008
 20
122.499985
 30
0.0
 11
258.946008
 21
122.499985
 31
0.0
  0
LINE
  5
1A45E
330
1A2B3
100
AcDbEntity
  8
1
  6
Continuous
100
AcDbLine
 10
257.196008
 20
123.2999879999999
 30
0.0
 11
259.196008
 21
123.2999879999999
 31
0.0
  0
LINE
  5
1A45F
330
1A2B3
100
AcDbEntity
  8
1
  6
Continuous
100
AcDbLine
 10
258.946008
 20
123.2999879999999
 30
0.0
 11
258.946008
 21
122.499985
 31
0.0
  0
LINE
  5
1A460
330
1A2B3
100
AcDbEntity
  8
1
  6
Continuous
100
AcDbLine
 10
260.4960109999999
 20
120.054108
 30
0.0
 11
260.4960109999999
 21
114.199982
 31
0.0
  0
LINE
  5
1A461
330
1A2B3
100
AcDbEntity
  8
1
  6
Continuous
100
AcDbLine
 10
263.496011
 20
119.2657929999999
 30
0.0
 11
263.496011
 21
114.734177
 31
0.0
  0
LINE
  5
1A462
330
1A2B3
100
AcDbEntity
  8
1
  6
Continuous
100
AcDbLine
 10
261.096018
 20
121.499985
 30
0.0
 11
263.3161099999999
 21
119.649902
 31
0.0
  0
LINE
  5
1A463
330
1A2B3
100
AcDbEntity
  8
1
  6
Continuous
100
AcDbLine
 10
263.316095
 20
114.350052
 30
0.0
 11
261.5614869999999
 21
112.8878779999999
 31
0.0
  0
LINE
  5
1A464
330
1A2B3
100
AcDbEntity
  8
1
  6
Continuous
100
AcDbLine
 10
261.746011
 20
128.499985
 30
0.0
 11
261.746011
 21
120.9583129999999
 31
0.0
  0
LINE
  5
1A465
330
1A2B3
100
AcDbEntity
  8
1
  6
Continuous
100
AcDbLine
 10
261.0960019999998
 20
121.999985
 30
0.0
 11
261.0960019999998
 21
121.499985
 31
0.0
  0
LINE
  5
1A466
330
1A2B3
100
AcDbEntity
  8
1
  6
Continuous
100
AcDbLine
 10
259.0034729999998
 20
114.293396
 30
0.0
 11
257.740381
 21
118.6476129999998
 31
0.0
  0
LINE
  5
1A467
330
1A2B3
100
AcDbEntity
  8
1
  6
Continuous
100
AcDbLine
 10
259.184107
 20
115.3177789999999
 30
0.0
 11
257.92161
 21
119.81752
 31
0.0
  0
LINE
  5
1A468
330
1A2B3
100
AcDbEntity
  8
1
  6
Continuous
100
AcDbLine
 10
260.277033
 20
118.636749
 30
0.0
 11
260.4960109999999
 21
117.869034
 31
0.0
  0
LINE
  5
1A469
330
1A2B3
100
AcDbEntity
  8
1
  6
Continuous
100
AcDbLine
 10
254.418741
 20
114.2065729999999
 30
0.0
 11
255.388544
 21
119.706573
 31
0.0
  0
LINE
  5
1A46A
330
1A2B3
100
AcDbEntity
  8
1
  6
Continuous
100
AcDbLine
 10
260.459894
 20
119.818558
 30
0.0
 11
260.4960109999999
 21
119.6919099999999
 31
0.0
  0
LINE
  5
1A46B
330
1A2B3
100
AcDbEntity
  8
1
  6
Continuous
100
AcDbLine
 10
259.495874
 20
114.2065729999999
 30
0.0
 11
260.465677
 21
119.706573
 31
0.0
  0
LINE
  5
1A46C
330
1A2B3
100
AcDbEntity
  8
1
  6
Continuous
100
AcDbLine
 10
253.393213
 20
117.8936769999999
 30
0.0
 11
254.114984
 21
115.363235
 31
0.0
  0
LINE
  5
1A46D
330
1A2B3
100
AcDbEntity
  8
1
  6
Continuous
100
AcDbLine
 10
259.0034729999998
 20
114.293396
 30
0.0
 11
259.9732609999999
 21
119.793396
 31
0.0
  0
LINE
  5
1A46E
330
1A2B3
100
AcDbEntity
  8
1
  6
Continuous
100
AcDbLine
 10
253.9263399999999
 20
114.293396
 30
0.0
 11
254.8961269999999
 21
119.793396
 31
0.0
  0
LINE
  5
1A46F
330
1A2B3
100
AcDbEntity
  8
1
  6
Continuous
100
AcDbLine
 10
253.3633819999999
 20
116.175384
 30
0.0
 11
253.932123
 21
114.181412
 31
0.0
  0
LINE
  5
1A470
330
1A2B3
100
AcDbEntity
  8
1
  6
Continuous
100
AcDbLine
 10
255.2079099999999
 20
118.682175
 30
0.0
 11
256.4704069999999
 21
114.182449
 31
0.0
  0
LINE
  5
1A471
330
1A2B3
100
AcDbEntity
  8
1
  6
Continuous
100
AcDbLine
 10
255.3827609999999
 20
119.818558
 30
0.0
 11
256.653543
 21
115.363235
 31
0.0
  0
LINE
  5
1A472
330
1A2B3
100
AcDbEntity
  8
1
  6
Continuous
100
AcDbLine
 10
256.464899
 20
114.293396
 30
0.0
 11
257.434702
 21
119.793396
 31
0.0
  0
LINE
  5
1A473
330
1A2B3
100
AcDbEntity
  8
1
  6
Continuous
100
AcDbLine
 10
256.9572999999999
 20
114.2065729999999
 30
0.0
 11
257.927103
 21
119.706573
 31
0.0
  0
ARC
  5
1A474
330
1A2B3
100
AcDbEntity
  8
1
  6
Continuous
100
AcDbCircle
 10
281.7610259999998
 20
116.5417629999998
 30
0.0
 40
29.6
100
AcDbArc
 50
172.081352
 51
184.645521
  0
ARC
  5
1A475
330
1A2B3
100
AcDbEntity
  8
1
  6
Continuous
100
AcDbCircle
 10
245.9551789999999
 20
112.7443689999999
 30
0.0
 40
7.599999999999998
100
AcDbArc
 50
344.360583
 51
6.821673999999998
  0
ARC
  5
1A476
330
1A2B3
100
AcDbEntity
  8
1
  6
Continuous
100
AcDbCircle
 10
257.2465149999998
 20
125.999985
 30
0.0
 40
2.500509999999998
100
AcDbArc
 50
91.15744799999999
 51
268.842552
  0
ARC
  5
1A477
330
1A2B3
100
AcDbEntity
  8
1
  6
Continuous
100
AcDbCircle
 10
256.643121
 20
120.316833
 30
0.0
 40
3.0
100
AcDbArc
 50
90.578433
 51
171.452762
  0
ARC
  5
1A478
330
1A2B3
100
AcDbEntity
  8
1
  6
Continuous
100
AcDbCircle
 10
281.7610259999998
 20
116.5417629999998
 30
0.0
 40
28.39999999999999
100
AcDbArc
 50
171.452762
 51
185.900138
  0
ARC
  5
1A479
330
1A2B3
100
AcDbEntity
  8
1
  6
Continuous
100
AcDbCircle
 10
247.274698
 20
113.7394709999999
 30
0.0
 40
5.0
100
AcDbArc
 50
333.3910939999999
 51
4.645520999999998
  0
ARC
  5
1A47A
330
1A2B3
100
AcDbEntity
  8
1
  6
Continuous
100
AcDbCircle
 10
261.246011
 20
112.499985
 30
0.0
 40
0.5
100
AcDbArc
 50
359.999995
 51
84.84858699999998
  0
ARC
  5
1A47B
330
1A2B3
100
AcDbEntity
  8
1
  6
Continuous
100
AcDbCircle
 10
259.596002
 20
121.999985
 30
0.0
 40
1.5
100
AcDbArc
 50
359.999995
 51
89.99999700000001
  0
ARC
  5
1A47C
330
1A2B3
100
AcDbEntity
  8
1
  6
Continuous
100
AcDbCircle
 10
262.996011
 20
114.734177
 30
0.0
 40
0.5
100
AcDbArc
 50
309.8055770000001
 51
0.000009
  0
ARC
  5
1A47D
330
1A2B3
100
AcDbEntity
  8
1
  6
Continuous
100
AcDbCircle
 10
262.996011
 20
119.2657929999999
 30
0.0
 40
0.5
100
AcDbArc
 50
359.999995
 51
50.19442699999999
  0
ARC
  5
1A47E
330
1A2B3
100
AcDbEntity
  8
1
  6
Continuous
100
AcDbCircle
 10
262.6960079999999
 20
114.199982
 30
0.0
 40
2.0
100
AcDbArc
 50
180.0
 51
209.54467
  0
ARC
  5
1A47F
330
1A2B3
100
AcDbEntity
  8
1
  6
Continuous
100
AcDbCircle
 10
264.68281
 20
119.7294309999999
 30
0.0
 40
4.0
100
AcDbArc
 50
153.7276809999999
 51
175.3442539999998
  0
ARC
  5
1A480
330
1A2B3
100
AcDbEntity
  8
1
  6
Continuous
100
AcDbCircle
 10
250.719248
 20
111.285629
 30
0.0
 40
1.0
100
AcDbArc
 50
354.390579
 51
12.377555
  0
ARC
  5
1A481
330
1A2B3
100
AcDbEntity
  8
1
  6
Continuous
100
AcDbCircle
 10
262.6960079999999
 20
114.199982
 30
0.0
 40
2.2
100
AcDbArc
 50
180.0
 51
223.341758
  0
ARC
  5
1A482
330
1A2B3
100
AcDbEntity
  8
1
  6
Continuous
100
AcDbCircle
 10
262.6960079999999
 20
120.054108
 30
0.0
 40
2.2
100
AcDbArc
 50
136.658242
 51
180.0
  0
ARC
  5
1A483
330
1A2B3
100
AcDbEntity
  8
1
  6
Continuous
100
AcDbCircle
 10
261.329431
 20
113.4254149999998
 30
0.0
 40
0.4291770000000001
100
AcDbArc
 50
209.54467
 51
264.848592
  0
ARC
  5
1A484
330
1A2B3
100
AcDbEntity
  8
1
  6
Continuous
100
AcDbCircle
 10
250.5259339999998
 20
120.827255
 30
0.0
 40
10.0
100
AcDbArc
 50
355.565795
 51
14.75881799999998
  0
ARC
  5
1A485
330
1A2B3
100
AcDbEntity
  8
1
  6
Continuous
100
AcDbCircle
 10
259.196008
 20
123.7999879999998
 30
0.0
 40
0.5
100
AcDbArc
 50
270.0000029999998
 51
323.1300969999999
  0
ARC
  5
1A486
330
1A2B3
100
AcDbEntity
  8
1
  6
Continuous
100
AcDbCircle
 10
256.6757289999998
 20
115.3169249999999
 30
0.0
 40
8.0
100
AcDbArc
 50
86.27112399999999
 51
121.9417389999998
  0
ARC
  5
1A487
330
1A2B3
100
AcDbEntity
  8
1
  6
Continuous
100
AcDbCircle
 10
259.196008
 20
128.999985
 30
0.0
 40
0.5
100
AcDbArc
 50
359.999995
 51
89.99999700000001
  0
ARC
  5
1A488
330
1A2B3
100
AcDbEntity
  8
1
  6
Continuous
100
AcDbCircle
 10
311.9190609999999
 20
116.999985
 30
0.0
 40
60.473682
100
AcDbArc
 50
174.781815
 51
185.218185
  0
ARC
  5
1A489
330
1A2B3
100
AcDbEntity
  8
1
  6
Continuous
100
AcDbCircle
 10
250.696008
 20
125.328415
 30
0.0
 40
3.0
100
AcDbArc
 50
289.471229
 51
0.000009
  0
ARC
  5
1A48A
330
1A2B3
100
AcDbEntity
  8
1
  6
Continuous
100
AcDbCircle
 10
255.142343
 20
119.749985
 30
0.0
 40
0.25
100
AcDbArc
 50
349.999997
 51
170.0
  0
ARC
  5
1A48B
330
1A2B3
100
AcDbEntity
  8
1
  6
Continuous
100
AcDbCircle
 10
254.17254
 20
114.249985
 30
0.0
 40
0.25
100
AcDbArc
 50
170.0
 51
349.999993
  0
ARC
  5
1A48C
330
1A2B3
100
AcDbEntity
  8
1
  6
Continuous
100
AcDbCircle
 10
257.680902
 20
119.749985
 30
0.0
 40
0.25
100
AcDbArc
 50
349.999997
 51
170.0
  0
ARC
  5
1A48D
330
1A2B3
100
AcDbEntity
  8
1
  6
Continuous
100
AcDbCircle
 10
256.711115
 20
114.249985
 30
0.0
 40
0.25
100
AcDbArc
 50
170.0
 51
349.999993
  0
ARC
  5
1A48E
330
1A2B3
100
AcDbEntity
  8
1
  6
Continuous
100
AcDbCircle
 10
259.249674
 20
114.249985
 30
0.0
 40
0.25
100
AcDbArc
 50
170.0
 51
349.999993
  0
ARC
  5
1A48F
330
1A2B3
100
AcDbEntity
  8
1
  6
Continuous
100
AcDbCircle
 10
260.2194759999998
 20
119.749985
 30
0.0
 40
0.25
100
AcDbArc
 50
349.999997
 51
170.0
  0
ARC
  5
1A490
330
1A2B3
100
AcDbEntity
  8
1
  6
Continuous
100
AcDbCircle
 10
253.596002
 20
138.448974
 30
0.0
 40
3.0
100
AcDbArc
 50
143.692241
 51
180.0
  0
ARC
  5
1A491
330
1A2B3
100
AcDbEntity
  8
1
  6
Continuous
100
AcDbCircle
 10
257.196008
 20
131.781473
 30
0.0
 40
3.618519
100
AcDbArc
 50
14.704763
 51
165.295241
  0
LINE
  5
1A492
330
1A2B3
100
AcDbEntity
  8
1
  6
Continuous
100
AcDbLine
 10
263.796015
 20
138.448974
 30
0.0
 11
263.796015
 21
132.699982
 31
0.0
  0
LINE
  5
1A493
330
1A2B3
100
AcDbEntity
  8
1
  6
Continuous
100
AcDbLine
 10
262.196008
 20
138.448974
 30
0.0
 11
262.196008
 21
132.699982
 31
0.0
  0
ARC
  5
1A494
330
1A2B3
100
AcDbEntity
  8
1
  6
Continuous
100
AcDbCircle
 10
259.2369479999999
 20
134.304123
 30
0.0
 40
10.0
100
AcDbArc
 50
106.9515159999999
 51
143.692241
  0
ARC
  5
1A495
330
1A2B3
100
AcDbEntity
  8
1
  6
Continuous
100
AcDbCircle
 10
253.596002
 20
138.448974
 30
0.0
 40
1.399999999999999
100
AcDbArc
 50
143.692241
 51
180.0
  0
ARC
  5
1A496
330
1A2B3
100
AcDbEntity
  8
1
  6
Continuous
100
AcDbCircle
 10
255.155069
 20
134.304123
 30
0.0
 40
8.4
100
AcDbArc
 50
36.307764
 51
73.04848599999998
  0
ARC
  5
1A497
330
1A2B3
100
AcDbEntity
  8
1
  6
Continuous
100
AcDbCircle
 10
260.796015
 20
138.448974
 30
0.0
 40
1.399999999999999
100
AcDbArc
 50
359.999995
 51
36.307764
  0
ARC
  5
1A498
330
1A2B3
100
AcDbEntity
  8
1
  6
Continuous
100
AcDbCircle
 10
257.196008
 20
140.999985
 30
0.0
 40
1.399999999999999
100
AcDbArc
 50
73.04848599999998
 51
106.9515159999999
  0
ARC
  5
1A499
330
1A2B3
100
AcDbEntity
  8
1
  6
Continuous
100
AcDbCircle
 10
257.196008
 20
140.999985
 30
0.0
 40
3.0
100
AcDbArc
 50
73.04848599999998
 51
106.9515159999999
  0
ARC
  5
1A49A
330
1A2B3
100
AcDbEntity
  8
1
  6
Continuous
100
AcDbCircle
 10
260.796015
 20
138.448974
 30
0.0
 40
3.0
100
AcDbArc
 50
359.999995
 51
36.307764
  0
ARC
  5
1A49B
330
1A2B3
100
AcDbEntity
  8
1
  6
Continuous
100
AcDbCircle
 10
259.2369479999999
 20
134.304123
 30
0.0
 40
8.4
100
AcDbArc
 50
106.9515159999999
 51
143.692241
  0
ARC
  5
1A49C
330
1A2B3
100
AcDbEntity
  8
1
  6
Continuous
100
AcDbCircle
 10
255.155069
 20
134.304123
 30
0.0
 40
10.0
100
AcDbArc
 50
36.307764
 51
73.04848599999998
  0
LINE
  5
1A49D
330
1A2B3
100
AcDbEntity
  8
1
  6
Continuous
100
AcDbLine
 10
252.1960079999999
 20
132.699982
 30
0.0
 11
262.196008
 21
132.699982
 31
0.0
  0
ENDSEC
  0
SECTION
  2
OBJECTS
  0
DICTIONARY
  5
1A2A1
330
0
100
AcDbDictionary
281
     1
  3
ACAD_CIP_PREVIOUS_PRODUCT_INFO
350
1A4FD
  3
ACAD_COLOR
350
1A4DF
  3
ACAD_DETAILVIEWSTYLE
350
1A4F8
  3
ACAD_GROUP
350
1A2A2
  3
ACAD_LAYOUT
350
1A2AE
  3
ACAD_MATERIAL
350
1A4AD
  3
ACAD_MLEADERSTYLE
350
1A4F4
  3
ACAD_MLINESTYLE
350
1A2AB
  3
ACAD_PLOTSETTINGS
350
1A2AD
  3
ACAD_PLOTSTYLENAME
350
1A4AB
  3
ACAD_SCALELIST
350
1A4E2
  3
ACAD_SECTIONVIEWSTYLE
350
1A4F6
  3
ACAD_TABLESTYLE
350
1A4E0
  3
ACAD_VISUALSTYLE
350
1A4C6
  3
ACDB_RECOMPOSE_DATA
350
1A51B
  3
AcDbVariableDictionary
350
1A50E
  3
DWGPROPS
350
1A51C
  0
DICTIONARY
  5
1A4FE
330
1A2A5
100
AcDbDictionary
280
     1
281
     1
  3
ADSK_XREC_LAYER_RECONCILED
360
1A4FF
  0
DICTIONARY
  5
1A500
330
1A2BB
100
AcDbDictionary
280
     1
281
     1
  3
ADSK_XREC_LAYER_RECONCILED
360
1A501
  0
DICTIONARY
  5
1A502
330
1A2BC
100
AcDbDictionary
280
     1
281
     1
  3
ADSK_XREC_LAYER_RECONCILED
360
1A503
  0
DICTIONARY
  5
1A504
330
1A2BD
100
AcDbDictionary
280
     1
281
     1
  3
ADSK_XREC_LAYER_RECONCILED
360
1A505
  0
DICTIONARY
  5
1A506
330
1A2BE
100
AcDbDictionary
280
     1
281
     1
  3
ADSK_XREC_LAYER_RECONCILED
360
1A507
  0
DICTIONARY
  5
1A508
330
1A2BF
100
AcDbDictionary
280
     1
281
     1
  3
ADSK_XREC_LAYER_RECONCILED
360
1A509
  0
DICTIONARY
  5
1A50A
330
1A2C0
100
AcDbDictionary
280
     1
281
     1
  3
ADSK_XREC_LAYER_RECONCILED
360
1A50B
  0
DICTIONARY
  5
1A50C
330
1A2C1
100
AcDbDictionary
280
     1
281
     1
  3
ADSK_XREC_LAYER_RECONCILED
360
1A50D
  0
DICTIONARY
  5
1A4A6
330
1A2B3
100
AcDbDictionary
281
     1
  3
ACAD_LAYOUTSELFREF
350
1A4A7
  0
DICTIONARY
  5
1A4A4
330
1A2AF
100
AcDbDictionary
281
     1
  3
ACAD_LAYOUTSELFREF
350
1A4A5
  0
XRECORD
  5
1A4FD
102
{ACAD_REACTORS
330
1A2A1
102
}
330
1A2A1
100
AcDbXrecord
280
     1
300
ACDLT
300
2014
300
ACDLT_F_S
  0
DICTIONARY
  5
1A4DF
102
{ACAD_REACTORS
330
1A2A1
102
}
330
1A2A1
100
AcDbDictionary
281
     1
  0
DICTIONARY
  5
1A4F8
102
{ACAD_REACTORS
330
1A2A1
102
}
330
1A2A1
100
AcDbDictionary
281
     1
  3
Imperial24
350
1A4F9
  0
DICTIONARY
  5
1A2A2
102
{ACAD_REACTORS
330
1A2A1
102
}
330
1A2A1
100
AcDbDictionary
281
     1
  0
DICTIONARY
  5
1A2AE
102
{ACAD_REACTORS
330
1A2A1
102
}
330
1A2A1
100
AcDbDictionary
281
     1
  3
Model
350
1A4FA
  3
レイアウト1
350
1A4FB
  0
DICTIONARY
  5
1A4AD
102
{ACAD_REACTORS
330
1A2A1
102
}
330
1A2A1
100
AcDbDictionary
281
     1
  3
ByBlock
350
1A4B6
  3
ByLayer
350
1A4AE
  3
Global
350
1A4BE
  0
DICTIONARY
  5
1A4F4
102
{ACAD_REACTORS
330
1A2A1
102
}
330
1A2A1
100
AcDbDictionary
281
     1
  3
Standard
350
1A4F5
  0
DICTIONARY
  5
1A2AB
102
{ACAD_REACTORS
330
1A2A1
102
}
330
1A2A1
100
AcDbDictionary
281
     1
  3
STANDARD
350
1A2AC
  0
DICTIONARY
  5
1A2AD
102
{ACAD_REACTORS
330
1A2A1
102
}
330
1A2A1
100
AcDbDictionary
281
     1
  0
ACDBDICTIONARYWDFLT
  5
1A4AB
102
{ACAD_REACTORS
330
1A2A1
102
}
330
1A2A1
100
AcDbDictionary
281
     1
  3
Normal
350
1A4AC
100
AcDbDictionaryWithDefault
340
1A4AC
  0
DICTIONARY
  5
1A4E2
102
{ACAD_REACTORS
330
1A2A1
102
}
330
1A2A1
100
AcDbDictionary
281
     1
  3
A0
350
1A4E3
  3
A1
350
1A4E4
  3
A2
350
1A4E5
  3
A3
350
1A4E6
  3
A4
350
1A4E7
  3
A5
350
1A4E8
  3
A6
350
1A4E9
  3
A7
350
1A4EA
  3
A8
350
1A4EB
  3
A9
350
1A4EC
  3
B0
350
1A4ED
  3
B1
350
1A4EE
  3
B2
350
1A4EF
  3
B3
350
1A4F0
  3
B4
350
1A4F1
  3
B5
350
1A4F2
  3
B6
350
1A4F3
  0
DICTIONARY
  5
1A4F6
102
{ACAD_REACTORS
330
1A2A1
102
}
330
1A2A1
100
AcDbDictionary
281
     1
  3
Imperial24
350
1A4F7
  0
DICTIONARY
  5
1A4E0
102
{ACAD_REACTORS
330
1A2A1
102
}
330
1A2A1
100
AcDbDictionary
281
     1
  3
Standard
350
1A4E1
  0
DICTIONARY
  5
1A4C6
102
{ACAD_REACTORS
330
1A2A1
102
}
330
1A2A1
100
AcDbDictionary
281
     1
  3
2dWireframe
350
1A4CC
  3
Basic
350
1A4CB
  3
Brighten
350
1A4D2
  3
ColorChange
350
1A4D6
  3
Conceptual
350
1A4CF
  3
Dim
350
1A4D1
  3
EdgeColorOff
350
1A4DE
  3
Facepattern
350
1A4D5
  3
Flat
350
1A4C7
  3
FlatWithEdges
350
1A4C8
  3
Gouraud
350
1A4C9
  3
GouraudWithEdges
350
1A4CA
  3
Hidden
350
1A4CE
  3
JitterOff
350
1A4DC
  3
Linepattern
350
1A4D4
  3
OverhangOff
350
1A4DD
  3
Realistic
350
1A4D0
  3
Shaded
350
1A4DB
  3
Shaded with edges
350
1A4DA
  3
Shades of Gray
350
1A4D7
  3
Sketchy
350
1A4D8
  3
Thicken
350
1A4D3
  3
Wireframe
350
1A4CD
  3
X-Ray
350
1A4D9
  0
XRECORD
  5
1A51B
102
{ACAD_REACTORS
330
1A2A1
102
}
330
1A2A1
100
AcDbXrecord
280
     1
 90
        1
330
1A4E1
  0
DICTIONARY
  5
1A50E
102
{ACAD_REACTORS
330
1A2A1
102
}
330
1A2A1
100
AcDbDictionary
281
     1
  3
CANNOSCALE
350
1A513
  3
CMLEADERSTYLE
350
1A510
  3
CTABLESTYLE
350
1A50F
  3
CVIEWDETAILSTYLE
350
1A511
  3
CVIEWSECTIONSTYLE
350
1A512
  3
DIMASSOC
350
1A516
  3
INDEXCTL
350
1A515
  3
SORTENTS
350
1A514
  3
XCLIPFRAME
350
1A517
  0
XRECORD
  5
1A51C
102
{ACAD_REACTORS
330
1A2A1
102
}
330
1A2A1
100
AcDbXrecord
280
     1
  1
DWGPROPS COOKIE
  2

  3

  4

  6

  7

  8
Yoshitsune
  9

300
=
301
=
302
=
303
=
304
=
305
=
306
=
307
=
308
=
309
=
 40
0.0000102430555556
 41
2451300.690244908
 42
2457192.656887847
  1

 90
        0
  0
XRECORD
  5
1A4FF
102
{ACAD_REACTORS
330
1A4FE
102
}
330
1A4FE
100
AcDbXrecord
280
     1
290
     1
  0
XRECORD
  5
1A501
102
{ACAD_REACTORS
330
1A500
102
}
330
1A500
100
AcDbXrecord
280
     1
290
     1
  0
XRECORD
  5
1A503
102
{ACAD_REACTORS
330
1A502
102
}
330
1A502
100
AcDbXrecord
280
     1
290
     1
  0
XRECORD
  5
1A505
102
{ACAD_REACTORS
330
1A504
102
}
330
1A504
100
AcDbXrecord
280
     1
290
     1
  0
XRECORD
  5
1A507
102
{ACAD_REACTORS
330
1A506
102
}
330
1A506
100
AcDbXrecord
280
     1
290
     1
  0
XRECORD
  5
1A509
102
{ACAD_REACTORS
330
1A508
102
}
330
1A508
100
AcDbXrecord
280
     1
290
     1
  0
XRECORD
  5
1A50B
102
{ACAD_REACTORS
330
1A50A
102
}
330
1A50A
100
AcDbXrecord
280
     1
290
     1
  0
XRECORD
  5
1A50D
102
{ACAD_REACTORS
330
1A50C
102
}
330
1A50C
100
AcDbXrecord
280
     1
290
     1
  0
XRECORD
  5
1A4A7
102
{ACAD_REACTORS
330
1A4A6
102
}
330
1A4A6
100
AcDbXrecord
280
     1
340
1A2B3
  0
XRECORD
  5
1A4A5
102
{ACAD_REACTORS
330
1A4A4
102
}
330
1A4A4
100
AcDbXrecord
280
     1
340
1A2AF
  0
ACDBDETAILVIEWSTYLE
  5
1A4F9
102
{ACAD_XDICTIONARY
360
1A554
102
}
102
{ACAD_REACTORS
330
1A4F8
102
}
330
1A4F8
100
AcDbModelDocViewStyle
 70
     0
  3
Imperial24
290
     0
100
AcDbDetailViewStyle
 70
     0
 71
     0
 90
        3
 71
     1
340
1A2A6
 40
0.24
340
0
 40
0.24
300

 40
0.36
280
     3
 71
     2
340
1A2AA
 90
       25
 71
     3
340
1A2A6
 40
0.24
 90
        1
 40
0.75
 90
        1
300
%<\AcVar ViewType \f "%tc1">% %<\AcVar ViewDetailId>%\PSCALE %<\AcVar ViewScale \f "%sn">%
 71
     4
340
1A2AA
 90
       25
340
1A2AA
 90
       25
280
     0
  0
LAYOUT
  5
1A4FA
102
{ACAD_XDICTIONARY
360
1A556
102
}
102
{ACAD_REACTORS
330
1A2AE
102
}
330
1A2AE
100
AcDbPlotSettings
  1

  2
Canon LBP9100C
  4

  6

 40
0.0
 41
0.0
 42
0.0
 43
0.0
 44
0.0
 45
0.0
 46
0.0
 47
0.0
 48
0.0
 49
0.0
140
0.0
141
0.0
142
1.0
143
1.0
 70
  1712
 72
     0
 73
     0
 74
     0
  7

 75
     0
147
1.0
148
0.0
149
0.0
100
AcDbLayout
  1
Model
 70
     1
 71
     0
 10
0.0
 20
0.0
 11
12.0
 21
9.0
 12
0.0
 22
0.0
 32
0.0
 14
0.0
 24
0.0
 34
0.0
 15
0.0
 25
0.0
 35
0.0
146
0.0
 13
0.0
 23
0.0
 33
0.0
 16
1.0
 26
0.0
 36
0.0
 17
0.0
 27
1.0
 37
0.0
 76
     0
330
1A2B3
331
1A4A3
  0
LAYOUT
  5
1A4FB
102
{ACAD_XDICTIONARY
360
1A558
102
}
102
{ACAD_REACTORS
330
1A2AE
102
}
330
1A2AE
100
AcDbPlotSettings
  1

  2
Canon LBP9100C
  4

  6

 40
0.0
 41
0.0
 42
0.0
 43
0.0
 44
0.0
 45
0.0
 46
0.0
 47
0.0
 48
0.0
 49
0.0
140
0.0
141
0.0
142
1.0
143
1.0
 70
   688
 72
     0
 73
     0
 74
     5
  7

 75
    16
147
1.0
148
0.0
149
0.0
100
AcDbLayout
  1
レイアウト1
 70
     0
 71
     1
 10
0.0
 20
0.0
 11
420.0
 21
297.0
 12
0.0
 22
0.0
 32
0.0
 14
1.000000000000000E+20
 24
1.000000000000000E+20
 34
1.000000000000000E+20
 15
-1.000000000000000E+20
 25
-1.000000000000000E+20
 35
-1.000000000000000E+20
146
0.0
 13
0.0
 23
0.0
 33
0.0
 16
1.0
 26
0.0
 36
0.0
 17
0.0
 27
1.0
 37
0.0
 76
     0
330
1A2AF
  0
MATERIAL
  5
1A4B6
102
{ACAD_XDICTIONARY
360
1A4B7
102
}
102
{ACAD_REACTORS
330
1A4AD
102
}
330
1A4AD
100
AcDbMaterial
  1
ByBlock
 72
     0
 43
0.0208333333333333
 43
0.0
 43
0.0
 43
0.0
 43
0.0
 43
0.0208333333333333
 43
0.0
 43
0.0
 43
0.0
 43
0.0
 43
1.0
 43
0.0
 43
0.0
 43
0.0
 43
0.0
 43
1.0
 77
     0
 47
0.0208333333333333
 47
0.0
 47
0.0
 47
0.0
 47
0.0
 47
0.0208333333333333
 47
0.0
 47
0.0
 47
0.0
 47
0.0
 47
1.0
 47
0.0
 47
0.0
 47
0.0
 47
0.0
 47
1.0
171
     0
 49
0.0208333333333333
 49
0.0
 49
0.0
 49
0.0
 49
0.0
 49
0.0208333333333333
 49
0.0
 49
0.0
 49
0.0
 49
0.0
 49
1.0
 49
0.0
 49
0.0
 49
0.0
 49
0.0
 49
1.0
175
     0
142
0.0208333333333333
142
0.0
142
0.0
142
0.0
142
0.0
142
0.0208333333333333
142
0.0
142
0.0
142
0.0
142
0.0
142
1.0
142
0.0
142
0.0
142
0.0
142
0.0
142
1.0
179
     0
144
0.0208333333333333
144
0.0
144
0.0
144
0.0
144
0.0
144
0.0208333333333333
144
0.0
144
0.0
144
0.0
144
0.0
144
1.0
144
0.0
144
0.0
144
0.0
144
0.0
144
1.0
147
0.0208333333333333
147
0.0
147
0.0
147
0.0
147
0.0
147
0.0208333333333333
147
0.0
147
0.0
147
0.0
147
0.0
147
1.0
147
0.0
147
0.0
147
0.0
147
0.0
147
1.0
  0
MATERIAL
  5
1A4AE
102
{ACAD_XDICTIONARY
360
1A4AF
102
}
102
{ACAD_REACTORS
330
1A4AD
102
}
330
1A4AD
100
AcDbMaterial
  1
ByLayer
 72
     0
 43
0.0208333333333333
 43
0.0
 43
0.0
 43
0.0
 43
0.0
 43
0.0208333333333333
 43
0.0
 43
0.0
 43
0.0
 43
0.0
 43
1.0
 43
0.0
 43
0.0
 43
0.0
 43
0.0
 43
1.0
 77
     0
 47
0.0208333333333333
 47
0.0
 47
0.0
 47
0.0
 47
0.0
 47
0.0208333333333333
 47
0.0
 47
0.0
 47
0.0
 47
0.0
 47
1.0
 47
0.0
 47
0.0
 47
0.0
 47
0.0
 47
1.0
171
     0
 49
0.0208333333333333
 49
0.0
 49
0.0
 49
0.0
 49
0.0
 49
0.0208333333333333
 49
0.0
 49
0.0
 49
0.0
 49
0.0
 49
1.0
 49
0.0
 49
0.0
 49
0.0
 49
0.0
 49
1.0
175
     0
142
0.0208333333333333
142
0.0
142
0.0
142
0.0
142
0.0
142
0.0208333333333333
142
0.0
142
0.0
142
0.0
142
0.0
142
1.0
142
0.0
142
0.0
142
0.0
142
0.0
142
1.0
179
     0
144
0.0208333333333333
144
0.0
144
0.0
144
0.0
144
0.0
144
0.0208333333333333
144
0.0
144
0.0
144
0.0
144
0.0
144
1.0
144
0.0
144
0.0
144
0.0
144
0.0
144
1.0
147
0.0208333333333333
147
0.0
147
0.0
147
0.0
147
0.0
147
0.0208333333333333
147
0.0
147
0.0
147
0.0
147
0.0
147
1.0
147
0.0
147
0.0
147
0.0
147
0.0
147
1.0
  0
MATERIAL
  5
1A4BE
102
{ACAD_XDICTIONARY
360
1A4BF
102
}
102
{ACAD_REACTORS
330
1A4AD
102
}
330
1A4AD
100
AcDbMaterial
  1
Global
 72
     0
 43
0.0208333333333333
 43
0.0
 43
0.0
 43
0.0
 43
0.0
 43
0.0208333333333333
 43
0.0
 43
0.0
 43
0.0
 43
0.0
 43
1.0
 43
0.0
 43
0.0
 43
0.0
 43
0.0
 43
1.0
 77
     0
 47
0.0208333333333333
 47
0.0
 47
0.0
 47
0.0
 47
0.0
 47
0.0208333333333333
 47
0.0
 47
0.0
 47
0.0
 47
0.0
 47
1.0
 47
0.0
 47
0.0
 47
0.0
 47
0.0
 47
1.0
171
     0
 49
0.0208333333333333
 49
0.0
 49
0.0
 49
0.0
 49
0.0
 49
0.0208333333333333
 49
0.0
 49
0.0
 49
0.0
 49
0.0
 49
1.0
 49
0.0
 49
0.0
 49
0.0
 49
0.0
 49
1.0
175
     0
142
0.0208333333333333
142
0.0
142
0.0
142
0.0
142
0.0
142
0.0208333333333333
142
0.0
142
0.0
142
0.0
142
0.0
142
1.0
142
0.0
142
0.0
142
0.0
142
0.0
142
1.0
179
     0
144
0.0208333333333333
144
0.0
144
0.0
144
0.0
144
0.0
144
0.0208333333333333
144
0.0
144
0.0
144
0.0
144
0.0
144
1.0
144
0.0
144
0.0
144
0.0
144
0.0
144
1.0
147
0.0208333333333333
147
0.0
147
0.0
147
0.0
147
0.0
147
0.0208333333333333
147
0.0
147
0.0
147
0.0
147
0.0
147
1.0
147
0.0
147
0.0
147
0.0
147
0.0
147
1.0
  0
MLEADERSTYLE
  5
1A4F5
102
{ACAD_REACTORS
330
1A4F4
102
}
330
1A4F4
100
AcDbMLeaderStyle
170
     2
171
     1
172
     0
 90
        2
 40
0.0
 41
0.0
173
     1
 91
-1056964608
340
1A2A8
 92
       -2
290
     1
 42
0.09
291
     1
 43
0.36
  3
Standard
 44
0.18
300

342
1A2A6
174
     1
178
     6
175
     1
176
     0
 93
-1056964608
 45
0.18
292
     0
297
     0
 46
0.18
 94
-1056964608
 47
1.0
 49
1.0
140
1.0
293
     1
141
0.0
294
     1
177
     0
142
1.0
295
     0
296
     0
143
0.125
1001
ACAD_MLEADERVER
1070
     2
  0
MLINESTYLE
  5
1A2AC
102
{ACAD_REACTORS
330
1A2AB
102
}
330
1A2AB
100
AcDbMlineStyle
  2
STANDARD
 70
     0
  3

 62
   256
 51
90.0
 52
90.0
 71
     2
 49
0.5
 62
   256
  6
BYLAYER
 49
-0.5
 62
   256
  6
BYLAYER
  0
ACDBPLACEHOLDER
  5
1A4AC
102
{ACAD_REACTORS
330
1A4AB
102
}
330
1A4AB
  0
SCALE
  5
1A4E3
102
{ACAD_REACTORS
330
1A4E2
102
}
330
1A4E2
100
AcDbScale
 70
     0
300
1:1
140
1.0
141
1.0
290
     1
  0
SCALE
  5
1A4E4
102
{ACAD_REACTORS
330
1A4E2
102
}
330
1A4E2
100
AcDbScale
 70
     0
300
1/128" = 1'-0"
140
0.0078125
141
12.0
290
     0
  0
SCALE
  5
1A4E5
102
{ACAD_REACTORS
330
1A4E2
102
}
330
1A4E2
100
AcDbScale
 70
     0
300
1/64" = 1'-0"
140
0.015625
141
12.0
290
     0
  0
SCALE
  5
1A4E6
102
{ACAD_REACTORS
330
1A4E2
102
}
330
1A4E2
100
AcDbScale
 70
     0
300
1/32" = 1'-0"
140
0.03125
141
12.0
290
     0
  0
SCALE
  5
1A4E7
102
{ACAD_REACTORS
330
1A4E2
102
}
330
1A4E2
100
AcDbScale
 70
     0
300
1/16" = 1'-0"
140
0.0625
141
12.0
290
     0
  0
SCALE
  5
1A4E8
102
{ACAD_REACTORS
330
1A4E2
102
}
330
1A4E2
100
AcDbScale
 70
     0
300
3/32" = 1'-0"
140
0.09375
141
12.0
290
     0
  0
SCALE
  5
1A4E9
102
{ACAD_REACTORS
330
1A4E2
102
}
330
1A4E2
100
AcDbScale
 70
     0
300
1/8" = 1'-0"
140
0.125
141
12.0
290
     0
  0
SCALE
  5
1A4EA
102
{ACAD_REACTORS
330
1A4E2
102
}
330
1A4E2
100
AcDbScale
 70
     0
300
3/16" = 1'-0"
140
0.1875
141
12.0
290
     0
  0
SCALE
  5
1A4EB
102
{ACAD_REACTORS
330
1A4E2
102
}
330
1A4E2
100
AcDbScale
 70
     0
300
1/4" = 1'-0"
140
0.25
141
12.0
290
     0
  0
SCALE
  5
1A4EC
102
{ACAD_REACTORS
330
1A4E2
102
}
330
1A4E2
100
AcDbScale
 70
     0
300
3/8" = 1'-0"
140
0.375
141
12.0
290
     0
  0
SCALE
  5
1A4ED
102
{ACAD_REACTORS
330
1A4E2
102
}
330
1A4E2
100
AcDbScale
 70
     0
300
1/2" = 1'-0"
140
0.5
141
12.0
290
     0
  0
SCALE
  5
1A4EE
102
{ACAD_REACTORS
330
1A4E2
102
}
330
1A4E2
100
AcDbScale
 70
     0
300
3/4" = 1'-0"
140
0.75
141
12.0
290
     0
  0
SCALE
  5
1A4EF
102
{ACAD_REACTORS
330
1A4E2
102
}
330
1A4E2
100
AcDbScale
 70
     0
300
1" = 1'-0"
140
1.0
141
12.0
290
     0
  0
SCALE
  5
1A4F0
102
{ACAD_REACTORS
330
1A4E2
102
}
330
1A4E2
100
AcDbScale
 70
     0
300
1-1/2" = 1'-0"
140
1.5
141
12.0
290
     0
  0
SCALE
  5
1A4F1
102
{ACAD_REACTORS
330
1A4E2
102
}
330
1A4E2
100
AcDbScale
 70
     0
300
3" = 1'-0"
140
3.0
141
12.0
290
     0
  0
SCALE
  5
1A4F2
102
{ACAD_REACTORS
330
1A4E2
102
}
330
1A4E2
100
AcDbScale
 70
     0
300
6" = 1'-0"
140
6.0
141
12.0
290
     0
  0
SCALE
  5
1A4F3
102
{ACAD_REACTORS
330
1A4E2
102
}
330
1A4E2
100
AcDbScale
 70
     0
300
1'-0" = 1'-0"
140
12.0
141
12.0
290
     0
  0
ACDBSECTIONVIEWSTYLE
  5
1A4F7
102
{ACAD_XDICTIONARY
360
1A552
102
}
102
{ACAD_REACTORS
330
1A4F6
102
}
330
1A4F6
100
AcDbModelDocViewStyle
 70
     0
  3
Imperial24
290
     0
100
AcDbSectionViewStyle
 70
     0
 71
     0
 90
       78
 71
     1
340
1A2A6
 40
0.24
340
0
340
0
 40
0.24
300
I, O, Q, S, X, Z
 40
0.48
 90
        3
 40
0.18
 90
        1
 71
     2
340
1A2AA
 90
       25
340
1A2AA
 90
       50
 40
0.24
 40
0.0
 40
0.24
 71
     3
340
1A2A6
 40
0.24
 90
        1
 40
0.75
 90
        1
300
%<\AcVar ViewType \f "%tc1">% %<\AcVar ViewSectionStartId>%-%<\AcVar ViewSectionEndId>%\PSCALE %<\AcVar ViewScale \f "%sn">%
 71
     4
300
ANSI31
 40
1.0
 90
        0
290
     0
290
     0
 90
        6
 40
0.0
 40
1.570796326794896
 40
0.2617993877991494
 40
1.308996938995747
 40
-0.2617993877991494
 40
1.832595714594046
  0
TABLESTYLE
  5
1A4E1
102
{ACAD_XDICTIONARY
360
1A519
102
}
102
{ACAD_REACTORS
330
1A4E0
102
}
330
1A4E0
100
AcDbTableStyle
  3
Standard
 70
     0
 71
     0
 40
0.06
 41
0.06
280
     0
281
     0
  7
STANDARD
140
0.18
170
     2
 62
     0
 63
     7
283
     0
274
    -2
284
     1
 64
     0
275
    -2
285
     1
 65
     0
276
    -2
286
     1
 66
     0
277
    -2
287
     1
 67
     0
278
    -2
288
     1
 68
     0
279
    -2
289
     1
 69
     0
  7
STANDARD
140
0.25
170
     5
 62
     0
 63
     7
283
     0
274
    -2
284
     1
 64
     0
275
    -2
285
     1
 65
     0
276
    -2
286
     1
 66
     0
277
    -2
287
     1
 67
     0
278
    -2
288
     1
 68
     0
279
    -2
289
     1
 69
     0
  7
STANDARD
140
0.18
170
     5
 62
     0
 63
     7
283
     0
274
    -2
284
     1
 64
     0
275
    -2
285
     1
 65
     0
276
    -2
286
     1
 66
     0
277
    -2
287
     1
 67
     0
278
    -2
288
     1
 68
     0
279
    -2
289
     1
 69
     0
  0
VISUALSTYLE
  5
1A4CC
102
{ACAD_XDICTIONARY
360
1A52A
102
}
102
{ACAD_REACTORS
330
1A4C6
102
}
330
1A4C6
100
AcDbVisualStyle
  2
2dWireframe
 70
     4
 71
     0
 72
     2
 73
     0
 90
        0
 40
-0.6
 41
-30.0
 62
     5
 63
     7
 74
     1
 91
        4
 64
     7
 65
   257
 75
     1
175
     1
 42
1.0
 92
        0
 66
   257
 43
1.0
 76
     1
 77
     6
 78
     2
 67
     7
 79
     5
170
     0
171
     0
290
     0
174
     0
 93
        1
 44
0.0
173
     0
291
     0
 45
0.0
1001
ACAD
1000
AcDbSavedByObjectVersion
1070
     0
  0
VISUALSTYLE
  5
1A4CB
102
{ACAD_XDICTIONARY
360
1A528
102
}
102
{ACAD_REACTORS
330
1A4C6
102
}
330
1A4C6
100
AcDbVisualStyle
  2
Basic
 70
     7
 71
     1
 72
     0
 73
     1
 90
        0
 40
-0.6
 41
-30.0
 62
     5
 63
     7
 74
     0
 91
        4
 64
     7
 65
   257
 75
     1
175
     1
 42
1.0
 92
        8
 66
     7
 43
1.0
 76
     1
 77
     6
 78
     2
 67
     7
 79
     5
170
     0
171
     0
290
     0
174
     0
 93
        1
 44
0.0
173
     0
291
     1
 45
0.0
1001
ACAD
1000
AcDbSavedByObjectVersion
1070
     0
  0
VISUALSTYLE
  5
1A4D2
102
{ACAD_XDICTIONARY
360
1A536
102
}
102
{ACAD_REACTORS
330
1A4C6
102
}
330
1A4C6
100
AcDbVisualStyle
  2
Brighten
 70
    12
 71
     2
 72
     2
 73
     0
 90
        0
 40
-0.6
 41
-30.0
 62
     5
 63
     7
 74
     1
 91
        4
 64
     7
 65
   257
 75
     1
175
     1
 42
1.0
 92
        8
 66
     7
 43
1.0
 76
     1
 77
     6
 78
     2
 67
     7
 79
     5
170
     0
171
     0
290
     0
174
     0
 93
        1
 44
50.0
173
     0
291
     1
 45
0.0
1001
ACAD
1000
AcDbSavedByObjectVersion
1070
     0
  0
VISUALSTYLE
  5
1A4D6
102
{ACAD_XDICTIONARY
360
1A53E
102
}
102
{ACAD_REACTORS
330
1A4C6
102
}
330
1A4C6
100
AcDbVisualStyle
  2
ColorChange
 70
    16
 71
     2
 72
     2
 73
     3
 90
        0
 40
-0.6
 41
-30.0
 62
     5
 63
     8
 74
     1
 91
        4
 64
     7
 65
   257
 75
     1
175
     1
 42
1.0
 92
        8
 66
     8
 43
1.0
 76
     1
 77
     6
 78
     2
 67
     7
 79
     5
170
     0
171
     0
290
     0
174
     0
 93
        1
 44
0.0
173
     0
291
     1
 45
0.0
1001
ACAD
1000
AcDbSavedByObjectVersion
1070
     0
  0
VISUALSTYLE
  5
1A4CF
102
{ACAD_XDICTIONARY
360
1A530
102
}
102
{ACAD_REACTORS
330
1A4C6
102
}
330
1A4C6
100
AcDbVisualStyle
  2
Conceptual
 70
     9
 71
     3
 72
     2
 73
     0
 90
        0
 40
-0.6
 41
-30.0
 62
     5
 63
     7
 74
     2
 91
        2
 64
     7
 65
   257
 75
     1
175
     1
 42
179.0
 92
        8
 66
     7
 43
1.0
 76
     1
 77
     6
 78
     2
 67
     7
 79
     3
170
     0
171
     0
290
     0
174
     0
 93
        1
 44
0.0
173
     0
291
     0
 45
0.0
1001
ACAD
1000
AcDbSavedByObjectVersion
1070
     0
  0
VISUALSTYLE
  5
1A4D1
102
{ACAD_XDICTIONARY
360
1A534
102
}
102
{ACAD_REACTORS
330
1A4C6
102
}
330
1A4C6
100
AcDbVisualStyle
  2
Dim
 70
    11
 71
     2
 72
     2
 73
     0
 90
        0
 40
-0.6
 41
-30.0
 62
     5
 63
     7
 74
     1
 91
        4
 64
     7
 65
   257
 75
     1
175
     1
 42
1.0
 92
        8
 66
     7
 43
1.0
 76
     1
 77
     6
 78
     2
 67
     7
 79
     5
170
     0
171
     0
290
     0
174
     0
 93
        1
 44
-50.0
173
     0
291
     1
 45
0.0
1001
ACAD
1000
AcDbSavedByObjectVersion
1070
     0
  0
VISUALSTYLE
  5
1A4DE
102
{ACAD_XDICTIONARY
360
1A54E
102
}
102
{ACAD_REACTORS
330
1A4C6
102
}
330
1A4C6
100
AcDbVisualStyle
  2
EdgeColorOff
 70
    22
 71
     2
 72
     2
 73
     0
 90
        0
 40
-0.6
 41
-30.0
 62
     5
 63
     7
 74
     1
 91
        4
 64
     7
 65
   257
 75
     1
175
     1
 42
1.0
 92
        8
 66
     7
 43
1.0
 76
     1
 77
     6
 78
     2
 67
     7
 79
     5
170
     0
171
     0
290
     0
174
     0
 93
        1
 44
0.0
173
     0
291
     1
 45
0.0
1001
ACAD
1000
AcDbSavedByObjectVersion
1070
     0
  0
VISUALSTYLE
  5
1A4D5
102
{ACAD_XDICTIONARY
360
1A53C
102
}
102
{ACAD_REACTORS
330
1A4C6
102
}
330
1A4C6
100
AcDbVisualStyle
  2
Facepattern
 70
    15
 71
     2
 72
     2
 73
     0
 90
        0
 40
-0.6
 41
-30.0
 62
     5
 63
     7
 74
     1
 91
        4
 64
     7
 65
   257
 75
     1
175
     1
 42
1.0
 92
        8
 66
     7
 43
1.0
 76
     1
 77
     6
 78
     2
 67
     7
 79
     5
170
     0
171
     0
290
     0
174
     0
 93
        1
 44
0.0
173
     0
291
     1
 45
0.0
1001
ACAD
1000
AcDbSavedByObjectVersion
1070
     0
  0
VISUALSTYLE
  5
1A4C7
102
{ACAD_XDICTIONARY
360
1A520
102
}
102
{ACAD_REACTORS
330
1A4C6
102
}
330
1A4C6
100
AcDbVisualStyle
  2
Flat
 70
     0
 71
     2
 72
     1
 73
     1
 90
        2
 40
-0.6
 41
30.0
 62
     5
 63
     7
 74
     0
 91
        0
 64
     7
 65
   257
 75
     1
175
     1
 42
1.0
 92
        8
 66
     7
 43
1.0
 76
     1
 77
     6
 78
     2
 67
     7
 79
     5
170
     0
171
     0
290
     0
174
     0
 93
       13
 44
0.0
173
     0
291
     1
 45
0.0
1001
ACAD
1000
AcDbSavedByObjectVersion
1070
     0
  0
VISUALSTYLE
  5
1A4C8
102
{ACAD_XDICTIONARY
360
1A522
102
}
102
{ACAD_REACTORS
330
1A4C6
102
}
330
1A4C6
100
AcDbVisualStyle
  2
FlatWithEdges
 70
     1
 71
     2
 72
     1
 73
     1
 90
        2
 40
-0.6
 41
30.0
 62
     5
 63
     7
 74
     1
 91
        0
 64
     7
 65
   257
 75
     1
175
     1
 42
1.0
 92
        0
 66
   257
 43
1.0
 76
     1
 77
     6
 78
     2
 67
     7
 79
     5
170
     0
171
     0
290
     0
174
     0
 93
       13
 44
0.0
173
     0
291
     1
 45
0.0
1001
ACAD
1000
AcDbSavedByObjectVersion
1070
     0
  0
VISUALSTYLE
  5
1A4C9
102
{ACAD_XDICTIONARY
360
1A524
102
}
102
{ACAD_REACTORS
330
1A4C6
102
}
330
1A4C6
100
AcDbVisualStyle
  2
Gouraud
 70
     2
 71
     2
 72
     2
 73
     1
 90
        2
 40
-0.6
 41
30.0
 62
     5
 63
     7
 74
     0
 91
        0
 64
     7
 65
   257
 75
     1
175
     1
 42
1.0
 92
        0
 66
     7
 43
1.0
 76
     1
 77
     6
 78
     2
 67
     7
 79
     5
170
     0
171
     0
290
     0
174
     0
 93
       13
 44
0.0
173
     0
291
     1
 45
0.0
1001
ACAD
1000
AcDbSavedByObjectVersion
1070
     0
  0
VISUALSTYLE
  5
1A4CA
102
{ACAD_XDICTIONARY
360
1A526
102
}
102
{ACAD_REACTORS
330
1A4C6
102
}
330
1A4C6
100
AcDbVisualStyle
  2
GouraudWithEdges
 70
     3
 71
     2
 72
     2
 73
     1
 90
        2
 40
-0.6
 41
30.0
 62
     5
 63
     7
 74
     1
 91
        0
 64
     7
 65
   257
 75
     1
175
     1
 42
1.0
 92
        0
 66
   257
 43
1.0
 76
     1
 77
     6
 78
     2
 67
     7
 79
     5
170
     0
171
     0
290
     0
174
     0
 93
       13
 44
0.0
173
     0
291
     1
 45
0.0
1001
ACAD
1000
AcDbSavedByObjectVersion
1070
     0
  0
VISUALSTYLE
  5
1A4CE
102
{ACAD_XDICTIONARY
360
1A52E
102
}
102
{ACAD_REACTORS
330
1A4C6
102
}
330
1A4C6
100
AcDbVisualStyle
  2
Hidden
 70
     6
 71
     1
 72
     2
 73
     2
 90
        0
 40
-0.6
 41
-30.0
 62
     5
 63
     7
 74
     2
 91
        2
 64
     7
 65
   257
 75
     2
175
     1
 42
40.0
 92
        0
 66
   257
 43
1.0
 76
     1
 77
     6
 78
     2
 67
     7
 79
     3
170
     0
171
     0
290
     0
174
     0
 93
        1
 44
0.0
173
     0
291
     0
 45
0.0
1001
ACAD
1000
AcDbSavedByObjectVersion
1070
     0
  0
VISUALSTYLE
  5
1A4DC
102
{ACAD_XDICTIONARY
360
1A54A
102
}
102
{ACAD_REACTORS
330
1A4C6
102
}
330
1A4C6
100
AcDbVisualStyle
  2
JitterOff
 70
    20
 71
     2
 72
     2
 73
     0
 90
        0
 40
-0.6
 41
-30.0
 62
     5
 63
     7
 74
     1
 91
        4
 64
     7
 65
   257
 75
     1
175
     1
 42
1.0
 92
       10
 66
     7
 43
1.0
 76
     1
 77
     6
 78
     2
 67
     7
 79
     5
170
     0
171
     0
290
     0
174
     0
 93
        1
 44
0.0
173
     0
291
     1
 45
0.0
1001
ACAD
1000
AcDbSavedByObjectVersion
1070
     0
  0
VISUALSTYLE
  5
1A4D4
102
{ACAD_XDICTIONARY
360
1A53A
102
}
102
{ACAD_REACTORS
330
1A4C6
102
}
330
1A4C6
100
AcDbVisualStyle
  2
Linepattern
 70
    14
 71
     2
 72
     2
 73
     0
 90
        0
 40
-0.6
 41
-30.0
 62
     5
 63
     7
 74
     1
 91
        4
 64
     7
 65
   257
 75
     7
175
     7
 42
1.0
 92
        8
 66
     7
 43
1.0
 76
     1
 77
     6
 78
     2
 67
     7
 79
     5
170
     0
171
     0
290
     0
174
     0
 93
        1
 44
0.0
173
     0
291
     1
 45
0.0
1001
ACAD
1000
AcDbSavedByObjectVersion
1070
     0
  0
VISUALSTYLE
  5
1A4DD
102
{ACAD_XDICTIONARY
360
1A54C
102
}
102
{ACAD_REACTORS
330
1A4C6
102
}
330
1A4C6
100
AcDbVisualStyle
  2
OverhangOff
 70
    21
 71
     2
 72
     2
 73
     0
 90
        0
 40
-0.6
 41
-30.0
 62
     5
 63
     7
 74
     1
 91
        4
 64
     7
 65
   257
 75
     1
175
     1
 42
1.0
 92
        9
 66
     7
 43
1.0
 76
     1
 77
     6
 78
     2
 67
     7
 79
     5
170
     0
171
     0
290
     0
174
     0
 93
        1
 44
0.0
173
     0
291
     1
 45
0.0
1001
ACAD
1000
AcDbSavedByObjectVersion
1070
     0
  0
VISUALSTYLE
  5
1A4D0
102
{ACAD_XDICTIONARY
360
1A532
102
}
102
{ACAD_REACTORS
330
1A4C6
102
}
330
1A4C6
100
AcDbVisualStyle
  2
Realistic
 70
     8
 71
     2
 72
     3
 73
     0
 90
        2
 40
-0.6
 41
30.0
 62
     5
 63
     7
 74
     0
 91
        0
 64
     7
 65
   257
 75
     1
175
     1
 42
1.0
 92
        8
 66
   257
 43
1.0
 76
     1
 77
     6
 78
     2
 67
     7
 79
     3
170
     0
171
     0
290
     0
174
     0
 93
       13
 44
0.0
173
     0
291
     0
 45
0.0
1001
ACAD
1000
AcDbSavedByObjectVersion
1070
     0
  0
VISUALSTYLE
  5
1A4DB
102
{ACAD_XDICTIONARY
360
1A548
102
}
102
{ACAD_REACTORS
330
1A4C6
102
}
330
1A4C6
100
AcDbVisualStyle
  2
Shaded
 70
    27
 71
     2
 72
     2
 73
     1
 90
        2
 40
-0.6
 41
30.0
 62
     5
 63
     7
 74
     0
 91
        4
 64
     7
 65
   257
 75
     1
175
     1
 42
1.0
 92
        8
 66
   257
 43
1.0
 76
     1
 77
     6
 78
     2
 67
     8
 79
     3
170
     0
171
     0
290
     0
174
     0
 93
        5
 44
0.0
173
     0
291
     0
 45
0.0
1001
ACAD
1000
AcDbSavedByObjectVersion
1070
     0
  0
VISUALSTYLE
  5
1A4DA
102
{ACAD_XDICTIONARY
360
1A546
102
}
102
{ACAD_REACTORS
330
1A4C6
102
}
330
1A4C6
100
AcDbVisualStyle
  2
Shaded with edges
 70
    26
 71
     2
 72
     2
 73
     1
 90
        2
 40
-0.6
 41
30.0
 62
     5
 63
     7
 74
     1
 91
       10
 64
     7
 65
   257
 75
     2
175
     1
 42
1.0
 92
        8
 66
   257
 43
1.0
 76
     1
 77
     6
 78
     2
 67
     7
 79
     3
170
     0
171
     0
290
     0
174
     0
 93
        5
 44
0.0
173
     0
291
     0
 45
0.0
1001
ACAD
1000
AcDbSavedByObjectVersion
1070
     0
  0
VISUALSTYLE
  5
1A4D7
102
{ACAD_XDICTIONARY
360
1A540
102
}
102
{ACAD_REACTORS
330
1A4C6
102
}
330
1A4C6
100
AcDbVisualStyle
  2
Shades of Gray
 70
    23
 71
     2
 72
     2
 73
     3
 90
        0
 40
-0.6
 41
-30.0
 62
     5
 63
     7
 74
     2
 91
        2
 64
     7
 65
     7
 75
     1
175
     1
 42
40.0
 92
        8
 66
     7
 43
1.0
 76
     1
 77
     6
 78
     2
 67
     7
 79
     3
170
     0
171
     0
290
     0
174
     0
 93
        1
 44
0.0
173
     0
291
     0
 45
0.0
1001
ACAD
1000
AcDbSavedByObjectVersion
1070
     0
  0
VISUALSTYLE
  5
1A4D8
102
{ACAD_XDICTIONARY
360
1A542
102
}
102
{ACAD_REACTORS
330
1A4C6
102
}
330
1A4C6
100
AcDbVisualStyle
  2
Sketchy
 70
    24
 71
     1
 72
     2
 73
     2
 90
        0
 40
-0.6
 41
-30.0
 62
     5
 63
     7
 74
     2
 91
        2
 64
     7
 65
     7
 75
     1
175
     1
 42
40.0
 92
       11
 66
     7
 43
1.0
 76
     1
 77
     6
 78
     2
 67
     7
 79
     6
170
     0
171
     0
290
     0
174
     0
 93
        1
 44
0.0
173
     0
291
     0
 45
0.0
1001
ACAD
1000
AcDbSavedByObjectVersion
1070
     0
  0
VISUALSTYLE
  5
1A4D3
102
{ACAD_XDICTIONARY
360
1A538
102
}
102
{ACAD_REACTORS
330
1A4C6
102
}
330
1A4C6
100
AcDbVisualStyle
  2
Thicken
 70
    13
 71
     2
 72
     2
 73
     0
 90
        0
 40
-0.6
 41
-30.0
 62
     5
 63
     7
 74
     1
 91
        4
 64
     7
 65
   257
 75
     1
175
     1
 42
1.0
 92
       12
 66
     7
 43
1.0
 76
     1
 77
     6
 78
     2
 67
     7
 79
     5
170
     0
171
     0
290
     0
174
     0
 93
        1
 44
0.0
173
     0
291
     1
 45
0.0
1001
ACAD
1000
AcDbSavedByObjectVersion
1070
     0
  0
VISUALSTYLE
  5
1A4CD
102
{ACAD_XDICTIONARY
360
1A52C
102
}
102
{ACAD_REACTORS
330
1A4C6
102
}
330
1A4C6
100
AcDbVisualStyle
  2
Wireframe
 70
     5
 71
     0
 72
     2
 73
     0
 90
        0
 40
-0.6
 41
-30.0
 62
     5
 63
     7
 74
     1
 91
        4
 64
     7
 65
   257
 75
     1
175
     1
 42
1.0
 92
        0
 66
   257
 43
1.0
 76
     1
 77
     6
 78
     2
 67
     7
 79
     3
170
     0
171
     0
290
     0
174
     0
 93
        1
 44
0.0
173
     0
291
     0
 45
0.0
1001
ACAD
1000
AcDbSavedByObjectVersion
1070
     0
  0
VISUALSTYLE
  5
1A4D9
102
{ACAD_XDICTIONARY
360
1A544
102
}
102
{ACAD_REACTORS
330
1A4C6
102
}
330
1A4C6
100
AcDbVisualStyle
  2
X-Ray
 70
    25
 71
     2
 72
     2
 73
     1
 90
        1
 40
0.5
 41
-30.0
 62
     5
 63
     7
 74
     1
 91
        0
 64
     7
 65
   257
 75
     1
175
     1
 42
1.0
 92
        8
 66
     7
 43
1.0
 76
     1
 77
     6
 78
     2
 67
     7
 79
     3
170
     0
171
     0
290
     0
174
     0
 93
       13
 44
0.0
173
     0
291
     0
 45
0.0
1001
ACAD
1000
AcDbSavedByObjectVersion
1070
     0
  0
DICTIONARYVAR
  5
1A513
102
{ACAD_REACTORS
330
1A50E
102
}
330
1A50E
100
DictionaryVariables
280
     0
  1
1:1
  0
DICTIONARYVAR
  5
1A510
102
{ACAD_REACTORS
330
1A50E
102
}
330
1A50E
100
DictionaryVariables
280
     0
  1
STANDARD
  0
DICTIONARYVAR
  5
1A50F
102
{ACAD_REACTORS
330
1A50E
102
}
330
1A50E
100
DictionaryVariables
280
     0
  1
STANDARD
  0
DICTIONARYVAR
  5
1A511
102
{ACAD_REACTORS
330
1A50E
102
}
330
1A50E
100
DictionaryVariables
280
     0
  1
Imperial24
  0
DICTIONARYVAR
  5
1A512
102
{ACAD_REACTORS
330
1A50E
102
}
330
1A50E
100
DictionaryVariables
280
     0
  1
Imperial24
  0
DICTIONARYVAR
  5
1A516
102
{ACAD_REACTORS
330
1A50E
102
}
330
1A50E
100
DictionaryVariables
280
     0
  1
1
  0
DICTIONARYVAR
  5
1A515
102
{ACAD_REACTORS
330
1A50E
102
}
330
1A50E
100
DictionaryVariables
280
     0
  1
0
  0
DICTIONARYVAR
  5
1A514
102
{ACAD_REACTORS
330
1A50E
102
}
330
1A50E
100
DictionaryVariables
280
     0
  1
127
  0
DICTIONARYVAR
  5
1A517
102
{ACAD_REACTORS
330
1A50E
102
}
330
1A50E
100
DictionaryVariables
280
     0
  1
2
  0
DICTIONARY
  5
1A554
330
1A4F9
100
AcDbDictionary
280
     1
281
     1
  3
ACAD_XREC_ROUNDTRIP
360
1A555
  0
DICTIONARY
  5
1A556
330
1A4FA
100
AcDbDictionary
280
     1
281
     1
  3
ACAD_XREC_ROUNDTRIP
360
1A557
  0
DICTIONARY
  5
1A558
330
1A4FB
100
AcDbDictionary
280
     1
281
     1
  3
ACAD_XREC_ROUNDTRIP
360
1A559
  0
DICTIONARY
  5
1A4B7
330
1A4B6
100
AcDbDictionary
280
     1
281
     1
  3
ACAD_XREC_ROUNDTRIP
360
1A51E
  3
BUMPTILE
360
1A4B9
  3
DIFFUSETILE
360
1A4B8
  3
OPACITYTILE
360
1A4BC
  3
REFLECTIONTILE
360
1A4BB
  3
REFRACTIONTILE
360
1A4BD
  3
SPECULARTILE
360
1A4BA
  0
DICTIONARY
  5
1A4AF
330
1A4AE
100
AcDbDictionary
280
     1
281
     1
  3
ACAD_XREC_ROUNDTRIP
360
1A51D
  3
BUMPTILE
360
1A4B1
  3
DIFFUSETILE
360
1A4B0
  3
OPACITYTILE
360
1A4B4
  3
REFLECTIONTILE
360
1A4B3
  3
REFRACTIONTILE
360
1A4B5
  3
SPECULARTILE
360
1A4B2
  0
DICTIONARY
  5
1A4BF
330
1A4BE
100
AcDbDictionary
280
     1
281
     1
  3
ACAD_XREC_ROUNDTRIP
360
1A51F
  3
BUMPTILE
360
1A4C1
  3
DIFFUSETILE
360
1A4C0
  3
OPACITYTILE
360
1A4C4
  3
REFLECTIONTILE
360
1A4C3
  3
REFRACTIONTILE
360
1A4C5
  3
SPECULARTILE
360
1A4C2
  0
DICTIONARY
  5
1A552
330
1A4F7
100
AcDbDictionary
280
     1
281
     1
  3
ACAD_XREC_ROUNDTRIP
360
1A553
  0
DICTIONARY
  5
1A519
330
1A4E1
100
AcDbDictionary
280
     1
281
     1
  3
ACAD_ROUNDTRIP_2008_TABLESTYLE_CELLSTYLEMAP
360
1A51A
  3
ACAD_XREC_ROUNDTRIP
360
1A550
  0
DICTIONARY
  5
1A52A
330
1A4CC
100
AcDbDictionary
280
     1
281
     1
  3
ACAD_XREC_ROUNDTRIP
360
1A52B
  0
DICTIONARY
  5
1A528
330
1A4CB
100
AcDbDictionary
280
     1
281
     1
  3
ACAD_XREC_ROUNDTRIP
360
1A529
  0
DICTIONARY
  5
1A536
330
1A4D2
100
AcDbDictionary
280
     1
281
     1
  3
ACAD_XREC_ROUNDTRIP
360
1A537
  0
DICTIONARY
  5
1A53E
330
1A4D6
100
AcDbDictionary
280
     1
281
     1
  3
ACAD_XREC_ROUNDTRIP
360
1A53F
  0
DICTIONARY
  5
1A530
330
1A4CF
100
AcDbDictionary
280
     1
281
     1
  3
ACAD_XREC_ROUNDTRIP
360
1A531
  0
DICTIONARY
  5
1A534
330
1A4D1
100
AcDbDictionary
280
     1
281
     1
  3
ACAD_XREC_ROUNDTRIP
360
1A535
  0
DICTIONARY
  5
1A54E
330
1A4DE
100
AcDbDictionary
280
     1
281
     1
  3
ACAD_XREC_ROUNDTRIP
360
1A54F
  0
DICTIONARY
  5
1A53C
330
1A4D5
100
AcDbDictionary
280
     1
281
     1
  3
ACAD_XREC_ROUNDTRIP
360
1A53D
  0
DICTIONARY
  5
1A520
330
1A4C7
100
AcDbDictionary
280
     1
281
     1
  3
ACAD_XREC_ROUNDTRIP
360
1A521
  0
DICTIONARY
  5
1A522
330
1A4C8
100
AcDbDictionary
280
     1
281
     1
  3
ACAD_XREC_ROUNDTRIP
360
1A523
  0
DICTIONARY
  5
1A524
330
1A4C9
100
AcDbDictionary
280
     1
281
     1
  3
ACAD_XREC_ROUNDTRIP
360
1A525
  0
DICTIONARY
  5
1A526
330
1A4CA
100
AcDbDictionary
280
     1
281
     1
  3
ACAD_XREC_ROUNDTRIP
360
1A527
  0
DICTIONARY
  5
1A52E
330
1A4CE
100
AcDbDictionary
280
     1
281
     1
  3
ACAD_XREC_ROUNDTRIP
360
1A52F
  0
DICTIONARY
  5
1A54A
330
1A4DC
100
AcDbDictionary
280
     1
281
     1
  3
ACAD_XREC_ROUNDTRIP
360
1A54B
  0
DICTIONARY
  5
1A53A
330
1A4D4
100
AcDbDictionary
280
     1
281
     1
  3
ACAD_XREC_ROUNDTRIP
360
1A53B
  0
DICTIONARY
  5
1A54C
330
1A4DD
100
AcDbDictionary
280
     1
281
     1
  3
ACAD_XREC_ROUNDTRIP
360
1A54D
  0
DICTIONARY
  5
1A532
330
1A4D0
100
AcDbDictionary
280
     1
281
     1
  3
ACAD_XREC_ROUNDTRIP
360
1A533
  0
DICTIONARY
  5
1A548
330
1A4DB
100
AcDbDictionary
280
     1
281
     1
  3
ACAD_XREC_ROUNDTRIP
360
1A549
  0
DICTIONARY
  5
1A546
330
1A4DA
100
AcDbDictionary
280
     1
281
     1
  3
ACAD_XREC_ROUNDTRIP
360
1A547
  0
DICTIONARY
  5
1A540
330
1A4D7
100
AcDbDictionary
280
     1
281
     1
  3
ACAD_XREC_ROUNDTRIP
360
1A541
  0
DICTIONARY
  5
1A542
330
1A4D8
100
AcDbDictionary
280
     1
281
     1
  3
ACAD_XREC_ROUNDTRIP
360
1A543
  0
DICTIONARY
  5
1A538
330
1A4D3
100
AcDbDictionary
280
     1
281
     1
  3
ACAD_XREC_ROUNDTRIP
360
1A539
  0
DICTIONARY
  5
1A52C
330
1A4CD
100
AcDbDictionary
280
     1
281
     1
  3
ACAD_XREC_ROUNDTRIP
360
1A52D
  0
DICTIONARY
  5
1A544
330
1A4D9
100
AcDbDictionary
280
     1
281
     1
  3
ACAD_XREC_ROUNDTRIP
360
1A545
  0
XRECORD
  5
1A555
102
{ACAD_REACTORS
330
1A554
102
}
330
1A554
100
AcDbXrecord
280
     1
102
DISPLAYNAME
  1
Imperial24
102
FLAGS
 90
        0
  0
XRECORD
  5
1A557
102
{ACAD_REACTORS
330
1A556
102
}
330
1A556
100
AcDbXrecord
280
     1
102
SHADEPLOT
 70
     0
102
SHADEPLOTRESLEVEL
 70
     2
102
SHADEPLOTCUSTOMDPI
 70
   300
  0
XRECORD
  5
1A559
102
{ACAD_REACTORS
330
1A558
102
}
330
1A558
100
AcDbXrecord
280
     1
102
SHADEPLOT
 70
     0
102
SHADEPLOTRESLEVEL
 70
     2
102
SHADEPLOTCUSTOMDPI
 70
   300
  0
XRECORD
  5
1A51E
102
{ACAD_REACTORS
330
1A4B7
102
}
330
1A4B7
100
AcDbXrecord
280
     1
102
MATERIAL
148
0.0
149
0.0
149
0.0
 93
        0
 94
      127
282
     0
 72
     0
 77
     0
171
     0
175
     0
179
     0
273
     0
  0
XRECORD
  5
1A4B9
102
{ACAD_REACTORS
330
1A4B7
102
}
330
1A4B7
100
AcDbXrecord
280
     1
270
     1
271
     1
  0
XRECORD
  5
1A4B8
102
{ACAD_REACTORS
330
1A4B7
102
}
330
1A4B7
100
AcDbXrecord
280
     1
270
     1
271
     1
  0
XRECORD
  5
1A4BC
102
{ACAD_REACTORS
330
1A4B7
102
}
330
1A4B7
100
AcDbXrecord
280
     1
270
     1
271
     1
  0
XRECORD
  5
1A4BB
102
{ACAD_REACTORS
330
1A4B7
102
}
330
1A4B7
100
AcDbXrecord
280
     1
270
     1
271
     1
  0
XRECORD
  5
1A4BD
102
{ACAD_REACTORS
330
1A4B7
102
}
330
1A4B7
100
AcDbXrecord
280
     1
270
     1
271
     1
  0
XRECORD
  5
1A4BA
102
{ACAD_REACTORS
330
1A4B7
102
}
330
1A4B7
100
AcDbXrecord
280
     1
270
     1
271
     1
  0
XRECORD
  5
1A51D
102
{ACAD_REACTORS
330
1A4AF
102
}
330
1A4AF
100
AcDbXrecord
280
     1
102
MATERIAL
148
0.0
149
0.0
149
0.0
 93
        0
 94
      127
282
     0
 72
     0
 77
     0
171
     0
175
     0
179
     0
273
     0
  0
XRECORD
  5
1A4B1
102
{ACAD_REACTORS
330
1A4AF
102
}
330
1A4AF
100
AcDbXrecord
280
     1
270
     1
271
     1
  0
XRECORD
  5
1A4B0
102
{ACAD_REACTORS
330
1A4AF
102
}
330
1A4AF
100
AcDbXrecord
280
     1
270
     1
271
     1
  0
XRECORD
  5
1A4B4
102
{ACAD_REACTORS
330
1A4AF
102
}
330
1A4AF
100
AcDbXrecord
280
     1
270
     1
271
     1
  0
XRECORD
  5
1A4B3
102
{ACAD_REACTORS
330
1A4AF
102
}
330
1A4AF
100
AcDbXrecord
280
     1
270
     1
271
     1
  0
XRECORD
  5
1A4B5
102
{ACAD_REACTORS
330
1A4AF
102
}
330
1A4AF
100
AcDbXrecord
280
     1
270
     1
271
     1
  0
XRECORD
  5
1A4B2
102
{ACAD_REACTORS
330
1A4AF
102
}
330
1A4AF
100
AcDbXrecord
280
     1
270
     1
271
     1
  0
XRECORD
  5
1A51F
102
{ACAD_REACTORS
330
1A4BF
102
}
330
1A4BF
100
AcDbXrecord
280
     1
102
MATERIAL
148
0.0
149
0.0
149
0.0
 93
        0
 94
      127
282
     0
 72
     0
 77
     0
171
     0
175
     0
179
     0
273
     0
  0
XRECORD
  5
1A4C1
102
{ACAD_REACTORS
330
1A4BF
102
}
330
1A4BF
100
AcDbXrecord
280
     1
270
     1
271
     1
  0
XRECORD
  5
1A4C0
102
{ACAD_REACTORS
330
1A4BF
102
}
330
1A4BF
100
AcDbXrecord
280
     1
270
     1
271
     1
  0
XRECORD
  5
1A4C4
102
{ACAD_REACTORS
330
1A4BF
102
}
330
1A4BF
100
AcDbXrecord
280
     1
270
     1
271
     1
  0
XRECORD
  5
1A4C3
102
{ACAD_REACTORS
330
1A4BF
102
}
330
1A4BF
100
AcDbXrecord
280
     1
270
     1
271
     1
  0
XRECORD
  5
1A4C5
102
{ACAD_REACTORS
330
1A4BF
102
}
330
1A4BF
100
AcDbXrecord
280
     1
270
     1
271
     1
  0
XRECORD
  5
1A4C2
102
{ACAD_REACTORS
330
1A4BF
102
}
330
1A4BF
100
AcDbXrecord
280
     1
270
     1
271
     1
  0
XRECORD
  5
1A553
102
{ACAD_REACTORS
330
1A552
102
}
330
1A552
100
AcDbXrecord
280
     1
102
DISPLAYNAME
  1
Imperial24
102
FLAGS
 90
        0
  0
CELLSTYLEMAP
  5
1A51A
102
{ACAD_REACTORS
330
1A519
102
}
330
1A519
100
AcDbCellStyleMap
 90
        3
300
CELLSTYLE
  1
TABLEFORMAT_BEGIN
 90
        5
170
     1
 91
        0
 92
    32768
 62
   257
 93
        1
300
CONTENTFORMAT
  1
CONTENTFORMAT_BEGIN
 90
        0
 91
        0
 92
      512
 93
        0
300

 40
0.0
140
1.0
 94
        5
 62
     0
340
1A2A6
144
0.25
309
CONTENTFORMAT_END
171
     0
 94
        0
309
TABLEFORMAT_END
  1
CELLSTYLE_BEGIN
 90
        1
 91
        1
300
_TITLE
309
CELLSTYLE_END
300
CELLSTYLE
  1
TABLEFORMAT_BEGIN
 90
        5
170
     1
 91
        0
 92
        0
 62
   257
 93
        1
300
CONTENTFORMAT
  1
CONTENTFORMAT_BEGIN
 90
        0
 91
        0
 92
      512
 93
        0
300

 40
0.0
140
1.0
 94
        5
 62
     0
340
1A2A6
144
0.18
309
CONTENTFORMAT_END
171
     0
 94
        0
309
TABLEFORMAT_END
  1
CELLSTYLE_BEGIN
 90
        2
 91
        1
300
_HEADER
309
CELLSTYLE_END
300
CELLSTYLE
  1
TABLEFORMAT_BEGIN
 90
        5
170
     1
 91
        0
 92
        0
 62
   257
 93
        1
300
CONTENTFORMAT
  1
CONTENTFORMAT_BEGIN
 90
        0
 91
        0
 92
      512
 93
        0
300

 40
0.0
140
1.0
 94
        2
 62
     0
340
1A2A6
144
0.18
309
CONTENTFORMAT_END
171
     0
 94
        0
309
TABLEFORMAT_END
  1
CELLSTYLE_BEGIN
 90
        3
 91
        2
300
_DATA
309
CELLSTYLE_END
  0
XRECORD
  5
1A550
102
{ACAD_REACTORS
330
1A519
102
}
330
1A519
100
AcDbXrecord
280
     1
102
ACAD_ROUNDTRIP_PRE2007_TABLESTYLE
 90
      512
 91
        0
  1

 92
      512
 93
        0
  2

 94
      512
 95
        0
  3

  0
XRECORD
  5
1A52B
102
{ACAD_REACTORS
330
1A52A
102
}
330
1A52A
100
AcDbXrecord
280
     1
102
RTVSPost2010Prop28
280
     1
102
RTVSPost2010PropOp28
 70
     1
102
RTVSPost2010Prop29
280
     1
102
RTVSPost2010PropOp29
 70
     1
102
RTVSPost2010Prop30
280
     0
102
RTVSPost2010PropOp30
 70
     1
102
RTVSPost2010Prop31
280
     0
102
RTVSPost2010PropOp31
 70
     1
102
RTVSPost2010Prop32
280
     0
102
RTVSPost2010PropOp32
 70
     1
102
RTVSPost2010Prop33
280
     0
102
RTVSPost2010PropOp33
 70
     1
102
RTVSPost2010Prop34
280
     0
102
RTVSPost2010PropOp34
 70
     1
102
RTVSPost2010Prop35
280
     0
102
RTVSPost2010PropOp35
 70
     1
102
RTVSPost2010Prop36
280
     0
102
RTVSPost2010PropOp36
 70
     1
102
RTVSPost2010Prop37
 90
       50
102
RTVSPost2010PropOp37
 70
     1
102
RTVSPost2010Prop38
140
0.0
102
RTVSPost2010PropOp38
 70
     1
102
RTVSPost2010Prop39
140
1.0
102
RTVSPost2010PropOp39
 70
     1
102
RTVSPost2010Prop40
 90
        0
102
RTVSPost2010PropOp40
 70
     1
102
RTVSPost2010Prop41ColorIndex
 90
       18
102
RTVSPost2010Prop41ColorRGB
 90
        0
102
RTVSPost2010PropOp41
 70
     1
102
RTVSPost2010Prop42
 90
       50
102
RTVSPost2010PropOp42
 70
     1
102
RTVSPost2010Prop43
 90
        3
102
RTVSPost2010PropOp43
 70
     1
102
RTVSPost2010Prop44ColorIndex
 90
        5
102
RTVSPost2010Prop44ColorRGB
 90
      255
102
RTVSPost2010PropOp44
 70
     1
102
RTVSPost2010Prop45
280
     0
102
RTVSPost2010PropOp45
 70
     1
102
RTVSPost2010Prop46
 90
       50
102
RTVSPost2010PropOp46
 70
     1
102
RTVSPost2010Prop47
 90
       50
102
RTVSPost2010PropOp47
 70
     1
102
RTVSPost2010Prop48
 90
       50
102
RTVSPost2010PropOp48
 70
     1
102
RTVSPost2010Prop49
280
     0
102
RTVSPost2010PropOp49
 70
     1
102
RTVSPost2010Prop50
 90
       50
102
RTVSPost2010PropOp50
 70
     1
102
RTVSPost2010Prop51ColorIndex
 90
      256
102
RTVSPost2010Prop51ColorRGB
 90
-16777216
102
RTVSPost2010PropOp51
 70
     0
102
RTVSPost2010Prop52
140
1.0
102
RTVSPost2010PropOp52
 70
     0
102
RTVSPost2010Prop53
 90
        2
102
RTVSPost2010PropOp53
 70
     1
102
RTVSPost2010Prop54
  1
strokes_ogs.tif
102
RTVSPost2010PropOp54
 70
     1
102
RTVSPost2010Prop55
280
     0
102
RTVSPost2010PropOp55
 70
     1
102
RTVSPost2010Prop56
140
1.0
102
RTVSPost2010PropOp56
 70
     1
102
RTVSPost2010Prop57
140
1.0
102
RTVSPost2010PropOp57
 70
     1
102
RTVSPropertyOp0
 70
     1
102
RTVSPropertyOp1
 70
     1
102
RTVSPropertyOp2
 70
     1
102
RTVSPropertyOp3
 70
     1
102
RTVSPropertyOp4
 70
     1
102
RTVSPropertyOp5
 70
     1
102
RTVSPropertyOp6
 70
     1
102
RTVSPropertyOp7
 70
     1
102
RTVSPropertyOp8
 70
     1
102
RTVSPropertyOp9
 70
     1
102
RTVSPropertyOp10
 70
     1
102
RTVSPropertyOp11
 70
     1
102
RTVSPropertyOp12
 70
     1
102
RTVSPropertyOp13
 70
     1
102
RTVSPropertyOp14
 70
     1
102
RTVSPropertyOp15
 70
     1
102
RTVSPropertyOp16
 70
     1
102
RTVSPropertyOp17
 70
     1
102
RTVSPropertyOp18
 70
     1
102
RTVSPropertyOp19
 70
     1
102
RTVSPropertyOp20
 70
     1
102
RTVSPropertyOp21
 70
     1
102
RTVSPropertyOp22
 70
     1
102
RTVSPropertyOp23
 70
     1
102
RTVSPropertyOp24
 70
     1
102
RTVSPropertyOp25
 70
     1
102
RTVSPropertyOp26
 70
     1
102
RTVSPropertyOp27
 70
     1
102
RTVSPropertyOp28
 70
     1
102
RTVSPropertyOp29
 70
     1
102
RTVSPropertyOp30
 70
     1
102
RTVSPropertyOp31
 70
     1
102
RTVSPropertyOp32
 70
     1
102
RTVSPropertyOp33
 70
     1
102
RTVSPropertyOp34
 70
     1
102
RTVSPropertyOp35
 70
     1
102
RTVSPropertyOp36
 70
     1
102
RTVSPropertyOp37
 70
     1
102
RTVSPropertyOp38
 70
     1
102
RTVSPropertyOp39
 70
     1
102
RTVSPropertyOp40
 70
     1
102
RTVSPropertyOp41
 70
     1
102
RTVSPropertyOp42
 70
     1
102
RTVSPropertyOp43
 70
     1
102
RTVSPropertyOp44
 70
     1
102
RTVSPropertyOp45
 70
     1
102
RTVSPropertyOp46
 70
     1
102
RTVSPropertyOp47
 70
     1
102
RTVSPropertyOp48
 70
     1
102
RTVSPropertyOp49
 70
     1
102
RTVSPropertyOp50
 70
     1
102
RTVSPropertyOp51
 70
     0
102
RTVSPropertyOp52
 70
     0
102
RTVSPropertyOp53
 70
     1
102
RTVSPropertyOp54
 70
     1
102
RTVSPropertyOp55
 70
     1
102
RTVSPropertyOp56
 70
     1
102
RTVSPropertyOp57
 70
     1
102
RTVSPropertyOp58
 70
     1
102
RTVSPropertyOp59
 70
     1
102
RTVSPropertyOp60
 70
     1
102
RTVSPropertyOp61
 70
     1
102
RTVSPropertyOp62
 70
     1
  0
XRECORD
  5
1A529
102
{ACAD_REACTORS
330
1A528
102
}
330
1A528
100
AcDbXrecord
280
     1
102
RTVSPost2010Prop28
280
     0
102
RTVSPost2010PropOp28
 70
     1
102
RTVSPost2010Prop29
280
     1
102
RTVSPost2010PropOp29
 70
     1
102
RTVSPost2010Prop30
280
     1
102
RTVSPost2010PropOp30
 70
     1
102
RTVSPost2010Prop31
280
     0
102
RTVSPost2010PropOp31
 70
     1
102
RTVSPost2010Prop32
280
     0
102
RTVSPost2010PropOp32
 70
     1
102
RTVSPost2010Prop33
280
     0
102
RTVSPost2010PropOp33
 70
     1
102
RTVSPost2010Prop34
280
     0
102
RTVSPost2010PropOp34
 70
     1
102
RTVSPost2010Prop35
280
     0
102
RTVSPost2010PropOp35
 70
     1
102
RTVSPost2010Prop36
280
     0
102
RTVSPost2010PropOp36
 70
     1
102
RTVSPost2010Prop37
 90
       50
102
RTVSPost2010PropOp37
 70
     1
102
RTVSPost2010Prop38
140
0.0
102
RTVSPost2010PropOp38
 70
     1
102
RTVSPost2010Prop39
140
1.0
102
RTVSPost2010PropOp39
 70
     1
102
RTVSPost2010Prop40
 90
        0
102
RTVSPost2010PropOp40
 70
     1
102
RTVSPost2010Prop41ColorIndex
 90
       18
102
RTVSPost2010Prop41ColorRGB
 90
        0
102
RTVSPost2010PropOp41
 70
     1
102
RTVSPost2010Prop42
 90
       50
102
RTVSPost2010PropOp42
 70
     1
102
RTVSPost2010Prop43
 90
        3
102
RTVSPost2010PropOp43
 70
     1
102
RTVSPost2010Prop44ColorIndex
 90
        5
102
RTVSPost2010Prop44ColorRGB
 90
      255
102
RTVSPost2010PropOp44
 70
     1
102
RTVSPost2010Prop45
280
     0
102
RTVSPost2010PropOp45
 70
     1
102
RTVSPost2010Prop46
 90
       50
102
RTVSPost2010PropOp46
 70
     1
102
RTVSPost2010Prop47
 90
       50
102
RTVSPost2010PropOp47
 70
     1
102
RTVSPost2010Prop48
 90
       50
102
RTVSPost2010PropOp48
 70
     1
102
RTVSPost2010Prop49
280
     0
102
RTVSPost2010PropOp49
 70
     1
102
RTVSPost2010Prop50
 90
       50
102
RTVSPost2010PropOp50
 70
     1
102
RTVSPost2010Prop51ColorIndex
 90
      256
102
RTVSPost2010Prop51ColorRGB
 90
-16777216
102
RTVSPost2010PropOp51
 70
     0
102
RTVSPost2010Prop52
140
1.0
102
RTVSPost2010PropOp52
 70
     0
102
RTVSPost2010Prop53
 90
        2
102
RTVSPost2010PropOp53
 70
     1
102
RTVSPost2010Prop54
  1
strokes_ogs.tif
102
RTVSPost2010PropOp54
 70
     1
102
RTVSPost2010Prop55
280
     0
102
RTVSPost2010PropOp55
 70
     1
102
RTVSPost2010Prop56
140
1.0
102
RTVSPost2010PropOp56
 70
     1
102
RTVSPost2010Prop57
140
1.0
102
RTVSPost2010PropOp57
 70
     1
102
RTVSPropertyOp0
 70
     1
102
RTVSPropertyOp1
 70
     1
102
RTVSPropertyOp2
 70
     1
102
RTVSPropertyOp3
 70
     1
102
RTVSPropertyOp4
 70
     1
102
RTVSPropertyOp5
 70
     1
102
RTVSPropertyOp6
 70
     1
102
RTVSPropertyOp7
 70
     1
102
RTVSPropertyOp8
 70
     1
102
RTVSPropertyOp9
 70
     1
102
RTVSPropertyOp10
 70
     1
102
RTVSPropertyOp11
 70
     1
102
RTVSPropertyOp12
 70
     1
102
RTVSPropertyOp13
 70
     1
102
RTVSPropertyOp14
 70
     1
102
RTVSPropertyOp15
 70
     1
102
RTVSPropertyOp16
 70
     1
102
RTVSPropertyOp17
 70
     1
102
RTVSPropertyOp18
 70
     1
102
RTVSPropertyOp19
 70
     1
102
RTVSPropertyOp20
 70
     1
102
RTVSPropertyOp21
 70
     1
102
RTVSPropertyOp22
 70
     1
102
RTVSPropertyOp23
 70
     1
102
RTVSPropertyOp24
 70
     1
102
RTVSPropertyOp25
 70
     1
102
RTVSPropertyOp26
 70
     1
102
RTVSPropertyOp27
 70
     1
102
RTVSPropertyOp28
 70
     1
102
RTVSPropertyOp29
 70
     1
102
RTVSPropertyOp30
 70
     1
102
RTVSPropertyOp31
 70
     1
102
RTVSPropertyOp32
 70
     1
102
RTVSPropertyOp33
 70
     1
102
RTVSPropertyOp34
 70
     1
102
RTVSPropertyOp35
 70
     1
102
RTVSPropertyOp36
 70
     1
102
RTVSPropertyOp37
 70
     1
102
RTVSPropertyOp38
 70
     1
102
RTVSPropertyOp39
 70
     1
102
RTVSPropertyOp40
 70
     1
102
RTVSPropertyOp41
 70
     1
102
RTVSPropertyOp42
 70
     1
102
RTVSPropertyOp43
 70
     1
102
RTVSPropertyOp44
 70
     1
102
RTVSPropertyOp45
 70
     1
102
RTVSPropertyOp46
 70
     1
102
RTVSPropertyOp47
 70
     1
102
RTVSPropertyOp48
 70
     1
102
RTVSPropertyOp49
 70
     1
102
RTVSPropertyOp50
 70
     1
102
RTVSPropertyOp51
 70
     0
102
RTVSPropertyOp52
 70
     0
102
RTVSPropertyOp53
 70
     1
102
RTVSPropertyOp54
 70
     1
102
RTVSPropertyOp55
 70
     1
102
RTVSPropertyOp56
 70
     1
102
RTVSPropertyOp57
 70
     1
102
RTVSPropertyOp58
 70
     1
102
RTVSPropertyOp59
 70
     1
102
RTVSPropertyOp60
 70
     1
102
RTVSPropertyOp61
 70
     1
102
RTVSPropertyOp62
 70
     1
  0
XRECORD
  5
1A537
102
{ACAD_REACTORS
330
1A536
102
}
330
1A536
100
AcDbXrecord
280
     1
102
RTVSPost2010Prop28
280
     0
102
RTVSPost2010PropOp28
 70
     1
102
RTVSPost2010Prop29
280
     1
102
RTVSPost2010PropOp29
 70
     1
102
RTVSPost2010Prop30
280
     1
102
RTVSPost2010PropOp30
 70
     1
102
RTVSPost2010Prop31
280
     0
102
RTVSPost2010PropOp31
 70
     1
102
RTVSPost2010Prop32
280
     0
102
RTVSPost2010PropOp32
 70
     1
102
RTVSPost2010Prop33
280
     0
102
RTVSPost2010PropOp33
 70
     1
102
RTVSPost2010Prop34
280
     0
102
RTVSPost2010PropOp34
 70
     1
102
RTVSPost2010Prop35
280
     0
102
RTVSPost2010PropOp35
 70
     1
102
RTVSPost2010Prop36
280
     0
102
RTVSPost2010PropOp36
 70
     1
102
RTVSPost2010Prop37
 90
       50
102
RTVSPost2010PropOp37
 70
     1
102
RTVSPost2010Prop38
140
0.0
102
RTVSPost2010PropOp38
 70
     1
102
RTVSPost2010Prop39
140
1.0
102
RTVSPost2010PropOp39
 70
     1
102
RTVSPost2010Prop40
 90
        0
102
RTVSPost2010PropOp40
 70
     1
102
RTVSPost2010Prop41ColorIndex
 90
       18
102
RTVSPost2010Prop41ColorRGB
 90
        0
102
RTVSPost2010PropOp41
 70
     1
102
RTVSPost2010Prop42
 90
       50
102
RTVSPost2010PropOp42
 70
     1
102
RTVSPost2010Prop43
 90
        3
102
RTVSPost2010PropOp43
 70
     1
102
RTVSPost2010Prop44ColorIndex
 90
        5
102
RTVSPost2010Prop44ColorRGB
 90
      255
102
RTVSPost2010PropOp44
 70
     1
102
RTVSPost2010Prop45
280
     0
102
RTVSPost2010PropOp45
 70
     1
102
RTVSPost2010Prop46
 90
       50
102
RTVSPost2010PropOp46
 70
     1
102
RTVSPost2010Prop47
 90
       50
102
RTVSPost2010PropOp47
 70
     1
102
RTVSPost2010Prop48
 90
       50
102
RTVSPost2010PropOp48
 70
     1
102
RTVSPost2010Prop49
280
     0
102
RTVSPost2010PropOp49
 70
     1
102
RTVSPost2010Prop50
 90
       50
102
RTVSPost2010PropOp50
 70
     1
102
RTVSPost2010Prop51ColorIndex
 90
      256
102
RTVSPost2010Prop51ColorRGB
 90
-16777216
102
RTVSPost2010PropOp51
 70
     0
102
RTVSPost2010Prop52
140
1.0
102
RTVSPost2010PropOp52
 70
     0
102
RTVSPost2010Prop53
 90
        2
102
RTVSPost2010PropOp53
 70
     1
102
RTVSPost2010Prop54
  1
strokes_ogs.tif
102
RTVSPost2010PropOp54
 70
     1
102
RTVSPost2010Prop55
280
     0
102
RTVSPost2010PropOp55
 70
     1
102
RTVSPost2010Prop56
140
1.0
102
RTVSPost2010PropOp56
 70
     1
102
RTVSPost2010Prop57
140
1.0
102
RTVSPost2010PropOp57
 70
     1
102
RTVSPropertyOp0
 70
     1
102
RTVSPropertyOp1
 70
     1
102
RTVSPropertyOp2
 70
     1
102
RTVSPropertyOp3
 70
     1
102
RTVSPropertyOp4
 70
     1
102
RTVSPropertyOp5
 70
     1
102
RTVSPropertyOp6
 70
     1
102
RTVSPropertyOp7
 70
     1
102
RTVSPropertyOp8
 70
     1
102
RTVSPropertyOp9
 70
     1
102
RTVSPropertyOp10
 70
     1
102
RTVSPropertyOp11
 70
     1
102
RTVSPropertyOp12
 70
     1
102
RTVSPropertyOp13
 70
     1
102
RTVSPropertyOp14
 70
     1
102
RTVSPropertyOp15
 70
     1
102
RTVSPropertyOp16
 70
     1
102
RTVSPropertyOp17
 70
     1
102
RTVSPropertyOp18
 70
     1
102
RTVSPropertyOp19
 70
     1
102
RTVSPropertyOp20
 70
     1
102
RTVSPropertyOp21
 70
     1
102
RTVSPropertyOp22
 70
     1
102
RTVSPropertyOp23
 70
     1
102
RTVSPropertyOp24
 70
     1
102
RTVSPropertyOp25
 70
     1
102
RTVSPropertyOp26
 70
     1
102
RTVSPropertyOp27
 70
     1
102
RTVSPropertyOp28
 70
     1
102
RTVSPropertyOp29
 70
     1
102
RTVSPropertyOp30
 70
     1
102
RTVSPropertyOp31
 70
     1
102
RTVSPropertyOp32
 70
     1
102
RTVSPropertyOp33
 70
     1
102
RTVSPropertyOp34
 70
     1
102
RTVSPropertyOp35
 70
     1
102
RTVSPropertyOp36
 70
     1
102
RTVSPropertyOp37
 70
     1
102
RTVSPropertyOp38
 70
     1
102
RTVSPropertyOp39
 70
     1
102
RTVSPropertyOp40
 70
     1
102
RTVSPropertyOp41
 70
     1
102
RTVSPropertyOp42
 70
     1
102
RTVSPropertyOp43
 70
     1
102
RTVSPropertyOp44
 70
     1
102
RTVSPropertyOp45
 70
     1
102
RTVSPropertyOp46
 70
     1
102
RTVSPropertyOp47
 70
     1
102
RTVSPropertyOp48
 70
     1
102
RTVSPropertyOp49
 70
     1
102
RTVSPropertyOp50
 70
     1
102
RTVSPropertyOp51
 70
     0
102
RTVSPropertyOp52
 70
     0
102
RTVSPropertyOp53
 70
     1
102
RTVSPropertyOp54
 70
     1
102
RTVSPropertyOp55
 70
     1
102
RTVSPropertyOp56
 70
     1
102
RTVSPropertyOp57
 70
     1
102
RTVSPropertyOp58
 70
     1
102
RTVSPropertyOp59
 70
     1
102
RTVSPropertyOp60
 70
     1
102
RTVSPropertyOp61
 70
     1
102
RTVSPropertyOp62
 70
     1
  0
XRECORD
  5
1A53F
102
{ACAD_REACTORS
330
1A53E
102
}
330
1A53E
100
AcDbXrecord
280
     1
102
RTVSPost2010Prop28
280
     0
102
RTVSPost2010PropOp28
 70
     1
102
RTVSPost2010Prop29
280
     1
102
RTVSPost2010PropOp29
 70
     1
102
RTVSPost2010Prop30
280
     1
102
RTVSPost2010PropOp30
 70
     1
102
RTVSPost2010Prop31
280
     0
102
RTVSPost2010PropOp31
 70
     1
102
RTVSPost2010Prop32
280
     0
102
RTVSPost2010PropOp32
 70
     1
102
RTVSPost2010Prop33
280
     0
102
RTVSPost2010PropOp33
 70
     1
102
RTVSPost2010Prop34
280
     0
102
RTVSPost2010PropOp34
 70
     1
102
RTVSPost2010Prop35
280
     0
102
RTVSPost2010PropOp35
 70
     1
102
RTVSPost2010Prop36
280
     0
102
RTVSPost2010PropOp36
 70
     1
102
RTVSPost2010Prop37
 90
       50
102
RTVSPost2010PropOp37
 70
     1
102
RTVSPost2010Prop38
140
0.0
102
RTVSPost2010PropOp38
 70
     1
102
RTVSPost2010Prop39
140
1.0
102
RTVSPost2010PropOp39
 70
     1
102
RTVSPost2010Prop40
 90
        0
102
RTVSPost2010PropOp40
 70
     1
102
RTVSPost2010Prop41ColorIndex
 90
       18
102
RTVSPost2010Prop41ColorRGB
 90
        0
102
RTVSPost2010PropOp41
 70
     1
102
RTVSPost2010Prop42
 90
       50
102
RTVSPost2010PropOp42
 70
     1
102
RTVSPost2010Prop43
 90
        3
102
RTVSPost2010PropOp43
 70
     1
102
RTVSPost2010Prop44ColorIndex
 90
        5
102
RTVSPost2010Prop44ColorRGB
 90
      255
102
RTVSPost2010PropOp44
 70
     1
102
RTVSPost2010Prop45
280
     0
102
RTVSPost2010PropOp45
 70
     1
102
RTVSPost2010Prop46
 90
       50
102
RTVSPost2010PropOp46
 70
     1
102
RTVSPost2010Prop47
 90
       50
102
RTVSPost2010PropOp47
 70
     1
102
RTVSPost2010Prop48
 90
       50
102
RTVSPost2010PropOp48
 70
     1
102
RTVSPost2010Prop49
280
     0
102
RTVSPost2010PropOp49
 70
     1
102
RTVSPost2010Prop50
 90
       50
102
RTVSPost2010PropOp50
 70
     1
102
RTVSPost2010Prop51ColorIndex
 90
      256
102
RTVSPost2010Prop51ColorRGB
 90
-16777216
102
RTVSPost2010PropOp51
 70
     0
102
RTVSPost2010Prop52
140
1.0
102
RTVSPost2010PropOp52
 70
     0
102
RTVSPost2010Prop53
 90
        2
102
RTVSPost2010PropOp53
 70
     1
102
RTVSPost2010Prop54
  1
strokes_ogs.tif
102
RTVSPost2010PropOp54
 70
     1
102
RTVSPost2010Prop55
280
     0
102
RTVSPost2010PropOp55
 70
     1
102
RTVSPost2010Prop56
140
1.0
102
RTVSPost2010PropOp56
 70
     1
102
RTVSPost2010Prop57
140
1.0
102
RTVSPost2010PropOp57
 70
     1
102
RTVSPropertyOp0
 70
     1
102
RTVSPropertyOp1
 70
     1
102
RTVSPropertyOp2
 70
     1
102
RTVSPropertyOp3
 70
     1
102
RTVSPropertyOp4
 70
     1
102
RTVSPropertyOp5
 70
     1
102
RTVSPropertyOp6
 70
     1
102
RTVSPropertyOp7
 70
     1
102
RTVSPropertyOp8
 70
     1
102
RTVSPropertyOp9
 70
     1
102
RTVSPropertyOp10
 70
     1
102
RTVSPropertyOp11
 70
     1
102
RTVSPropertyOp12
 70
     1
102
RTVSPropertyOp13
 70
     1
102
RTVSPropertyOp14
 70
     1
102
RTVSPropertyOp15
 70
     1
102
RTVSPropertyOp16
 70
     1
102
RTVSPropertyOp17
 70
     1
102
RTVSPropertyOp18
 70
     1
102
RTVSPropertyOp19
 70
     1
102
RTVSPropertyOp20
 70
     1
102
RTVSPropertyOp21
 70
     1
102
RTVSPropertyOp22
 70
     1
102
RTVSPropertyOp23
 70
     1
102
RTVSPropertyOp24
 70
     1
102
RTVSPropertyOp25
 70
     1
102
RTVSPropertyOp26
 70
     1
102
RTVSPropertyOp27
 70
     1
102
RTVSPropertyOp28
 70
     1
102
RTVSPropertyOp29
 70
     1
102
RTVSPropertyOp30
 70
     1
102
RTVSPropertyOp31
 70
     1
102
RTVSPropertyOp32
 70
     1
102
RTVSPropertyOp33
 70
     1
102
RTVSPropertyOp34
 70
     1
102
RTVSPropertyOp35
 70
     1
102
RTVSPropertyOp36
 70
     1
102
RTVSPropertyOp37
 70
     1
102
RTVSPropertyOp38
 70
     1
102
RTVSPropertyOp39
 70
     1
102
RTVSPropertyOp40
 70
     1
102
RTVSPropertyOp41
 70
     1
102
RTVSPropertyOp42
 70
     1
102
RTVSPropertyOp43
 70
     1
102
RTVSPropertyOp44
 70
     1
102
RTVSPropertyOp45
 70
     1
102
RTVSPropertyOp46
 70
     1
102
RTVSPropertyOp47
 70
     1
102
RTVSPropertyOp48
 70
     1
102
RTVSPropertyOp49
 70
     1
102
RTVSPropertyOp50
 70
     1
102
RTVSPropertyOp51
 70
     0
102
RTVSPropertyOp52
 70
     0
102
RTVSPropertyOp53
 70
     1
102
RTVSPropertyOp54
 70
     1
102
RTVSPropertyOp55
 70
     1
102
RTVSPropertyOp56
 70
     1
102
RTVSPropertyOp57
 70
     1
102
RTVSPropertyOp58
 70
     1
102
RTVSPropertyOp59
 70
     1
102
RTVSPropertyOp60
 70
     1
102
RTVSPropertyOp61
 70
     1
102
RTVSPropertyOp62
 70
     1
  0
XRECORD
  5
1A531
102
{ACAD_REACTORS
330
1A530
102
}
330
1A530
100
AcDbXrecord
280
     1
102
RTVSPost2010Prop28
280
     0
102
RTVSPost2010PropOp28
 70
     1
102
RTVSPost2010Prop29
280
     1
102
RTVSPost2010PropOp29
 70
     1
102
RTVSPost2010Prop30
280
     1
102
RTVSPost2010PropOp30
 70
     1
102
RTVSPost2010Prop31
280
     0
102
RTVSPost2010PropOp31
 70
     1
102
RTVSPost2010Prop32
280
     0
102
RTVSPost2010PropOp32
 70
     1
102
RTVSPost2010Prop33
280
     0
102
RTVSPost2010PropOp33
 70
     1
102
RTVSPost2010Prop34
280
     0
102
RTVSPost2010PropOp34
 70
     1
102
RTVSPost2010Prop35
280
     0
102
RTVSPost2010PropOp35
 70
     1
102
RTVSPost2010Prop36
280
     0
102
RTVSPost2010PropOp36
 70
     1
102
RTVSPost2010Prop37
 90
       50
102
RTVSPost2010PropOp37
 70
     1
102
RTVSPost2010Prop38
140
0.0
102
RTVSPost2010PropOp38
 70
     1
102
RTVSPost2010Prop39
140
1.0
102
RTVSPost2010PropOp39
 70
     1
102
RTVSPost2010Prop40
 90
        0
102
RTVSPost2010PropOp40
 70
     1
102
RTVSPost2010Prop41ColorIndex
 90
       18
102
RTVSPost2010Prop41ColorRGB
 90
        0
102
RTVSPost2010PropOp41
 70
     1
102
RTVSPost2010Prop42
 90
       50
102
RTVSPost2010PropOp42
 70
     1
102
RTVSPost2010Prop43
 90
        3
102
RTVSPost2010PropOp43
 70
     1
102
RTVSPost2010Prop44ColorIndex
 90
        5
102
RTVSPost2010Prop44ColorRGB
 90
      255
102
RTVSPost2010PropOp44
 70
     1
102
RTVSPost2010Prop45
280
     0
102
RTVSPost2010PropOp45
 70
     1
102
RTVSPost2010Prop46
 90
       50
102
RTVSPost2010PropOp46
 70
     1
102
RTVSPost2010Prop47
 90
       50
102
RTVSPost2010PropOp47
 70
     1
102
RTVSPost2010Prop48
 90
       50
102
RTVSPost2010PropOp48
 70
     1
102
RTVSPost2010Prop49
280
     0
102
RTVSPost2010PropOp49
 70
     1
102
RTVSPost2010Prop50
 90
       50
102
RTVSPost2010PropOp50
 70
     1
102
RTVSPost2010Prop51ColorIndex
 90
      256
102
RTVSPost2010Prop51ColorRGB
 90
-16777216
102
RTVSPost2010PropOp51
 70
     0
102
RTVSPost2010Prop52
140
1.0
102
RTVSPost2010PropOp52
 70
     0
102
RTVSPost2010Prop53
 90
        2
102
RTVSPost2010PropOp53
 70
     1
102
RTVSPost2010Prop54
  1
strokes_ogs.tif
102
RTVSPost2010PropOp54
 70
     1
102
RTVSPost2010Prop55
280
     0
102
RTVSPost2010PropOp55
 70
     1
102
RTVSPost2010Prop56
140
1.0
102
RTVSPost2010PropOp56
 70
     1
102
RTVSPost2010Prop57
140
1.0
102
RTVSPost2010PropOp57
 70
     1
102
RTVSPropertyOp0
 70
     1
102
RTVSPropertyOp1
 70
     1
102
RTVSPropertyOp2
 70
     1
102
RTVSPropertyOp3
 70
     1
102
RTVSPropertyOp4
 70
     1
102
RTVSPropertyOp5
 70
     1
102
RTVSPropertyOp6
 70
     1
102
RTVSPropertyOp7
 70
     1
102
RTVSPropertyOp8
 70
     1
102
RTVSPropertyOp9
 70
     1
102
RTVSPropertyOp10
 70
     1
102
RTVSPropertyOp11
 70
     1
102
RTVSPropertyOp12
 70
     1
102
RTVSPropertyOp13
 70
     1
102
RTVSPropertyOp14
 70
     1
102
RTVSPropertyOp15
 70
     1
102
RTVSPropertyOp16
 70
     1
102
RTVSPropertyOp17
 70
     1
102
RTVSPropertyOp18
 70
     1
102
RTVSPropertyOp19
 70
     1
102
RTVSPropertyOp20
 70
     1
102
RTVSPropertyOp21
 70
     1
102
RTVSPropertyOp22
 70
     1
102
RTVSPropertyOp23
 70
     1
102
RTVSPropertyOp24
 70
     1
102
RTVSPropertyOp25
 70
     1
102
RTVSPropertyOp26
 70
     1
102
RTVSPropertyOp27
 70
     1
102
RTVSPropertyOp28
 70
     1
102
RTVSPropertyOp29
 70
     1
102
RTVSPropertyOp30
 70
     1
102
RTVSPropertyOp31
 70
     1
102
RTVSPropertyOp32
 70
     1
102
RTVSPropertyOp33
 70
     1
102
RTVSPropertyOp34
 70
     1
102
RTVSPropertyOp35
 70
     1
102
RTVSPropertyOp36
 70
     1
102
RTVSPropertyOp37
 70
     1
102
RTVSPropertyOp38
 70
     1
102
RTVSPropertyOp39
 70
     1
102
RTVSPropertyOp40
 70
     1
102
RTVSPropertyOp41
 70
     1
102
RTVSPropertyOp42
 70
     1
102
RTVSPropertyOp43
 70
     1
102
RTVSPropertyOp44
 70
     1
102
RTVSPropertyOp45
 70
     1
102
RTVSPropertyOp46
 70
     1
102
RTVSPropertyOp47
 70
     1
102
RTVSPropertyOp48
 70
     1
102
RTVSPropertyOp49
 70
     1
102
RTVSPropertyOp50
 70
     1
102
RTVSPropertyOp51
 70
     0
102
RTVSPropertyOp52
 70
     0
102
RTVSPropertyOp53
 70
     1
102
RTVSPropertyOp54
 70
     1
102
RTVSPropertyOp55
 70
     1
102
RTVSPropertyOp56
 70
     1
102
RTVSPropertyOp57
 70
     1
102
RTVSPropertyOp58
 70
     1
102
RTVSPropertyOp59
 70
     1
102
RTVSPropertyOp60
 70
     1
102
RTVSPropertyOp61
 70
     1
102
RTVSPropertyOp62
 70
     1
  0
XRECORD
  5
1A535
102
{ACAD_REACTORS
330
1A534
102
}
330
1A534
100
AcDbXrecord
280
     1
102
RTVSPost2010Prop28
280
     0
102
RTVSPost2010PropOp28
 70
     1
102
RTVSPost2010Prop29
280
     1
102
RTVSPost2010PropOp29
 70
     1
102
RTVSPost2010Prop30
280
     1
102
RTVSPost2010PropOp30
 70
     1
102
RTVSPost2010Prop31
280
     0
102
RTVSPost2010PropOp31
 70
     1
102
RTVSPost2010Prop32
280
     0
102
RTVSPost2010PropOp32
 70
     1
102
RTVSPost2010Prop33
280
     0
102
RTVSPost2010PropOp33
 70
     1
102
RTVSPost2010Prop34
280
     0
102
RTVSPost2010PropOp34
 70
     1
102
RTVSPost2010Prop35
280
     0
102
RTVSPost2010PropOp35
 70
     1
102
RTVSPost2010Prop36
280
     0
102
RTVSPost2010PropOp36
 70
     1
102
RTVSPost2010Prop37
 90
       50
102
RTVSPost2010PropOp37
 70
     1
102
RTVSPost2010Prop38
140
0.0
102
RTVSPost2010PropOp38
 70
     1
102
RTVSPost2010Prop39
140
1.0
102
RTVSPost2010PropOp39
 70
     1
102
RTVSPost2010Prop40
 90
        0
102
RTVSPost2010PropOp40
 70
     1
102
RTVSPost2010Prop41ColorIndex
 90
       18
102
RTVSPost2010Prop41ColorRGB
 90
        0
102
RTVSPost2010PropOp41
 70
     1
102
RTVSPost2010Prop42
 90
       50
102
RTVSPost2010PropOp42
 70
     1
102
RTVSPost2010Prop43
 90
        3
102
RTVSPost2010PropOp43
 70
     1
102
RTVSPost2010Prop44ColorIndex
 90
        5
102
RTVSPost2010Prop44ColorRGB
 90
      255
102
RTVSPost2010PropOp44
 70
     1
102
RTVSPost2010Prop45
280
     0
102
RTVSPost2010PropOp45
 70
     1
102
RTVSPost2010Prop46
 90
       50
102
RTVSPost2010PropOp46
 70
     1
102
RTVSPost2010Prop47
 90
       50
102
RTVSPost2010PropOp47
 70
     1
102
RTVSPost2010Prop48
 90
       50
102
RTVSPost2010PropOp48
 70
     1
102
RTVSPost2010Prop49
280
     0
102
RTVSPost2010PropOp49
 70
     1
102
RTVSPost2010Prop50
 90
       50
102
RTVSPost2010PropOp50
 70
     1
102
RTVSPost2010Prop51ColorIndex
 90
      256
102
RTVSPost2010Prop51ColorRGB
 90
-16777216
102
RTVSPost2010PropOp51
 70
     0
102
RTVSPost2010Prop52
140
1.0
102
RTVSPost2010PropOp52
 70
     0
102
RTVSPost2010Prop53
 90
        2
102
RTVSPost2010PropOp53
 70
     1
102
RTVSPost2010Prop54
  1
strokes_ogs.tif
102
RTVSPost2010PropOp54
 70
     1
102
RTVSPost2010Prop55
280
     0
102
RTVSPost2010PropOp55
 70
     1
102
RTVSPost2010Prop56
140
1.0
102
RTVSPost2010PropOp56
 70
     1
102
RTVSPost2010Prop57
140
1.0
102
RTVSPost2010PropOp57
 70
     1
102
RTVSPropertyOp0
 70
     1
102
RTVSPropertyOp1
 70
     1
102
RTVSPropertyOp2
 70
     1
102
RTVSPropertyOp3
 70
     1
102
RTVSPropertyOp4
 70
     1
102
RTVSPropertyOp5
 70
     1
102
RTVSPropertyOp6
 70
     1
102
RTVSPropertyOp7
 70
     1
102
RTVSPropertyOp8
 70
     1
102
RTVSPropertyOp9
 70
     1
102
RTVSPropertyOp10
 70
     1
102
RTVSPropertyOp11
 70
     1
102
RTVSPropertyOp12
 70
     1
102
RTVSPropertyOp13
 70
     1
102
RTVSPropertyOp14
 70
     1
102
RTVSPropertyOp15
 70
     1
102
RTVSPropertyOp16
 70
     1
102
RTVSPropertyOp17
 70
     1
102
RTVSPropertyOp18
 70
     1
102
RTVSPropertyOp19
 70
     1
102
RTVSPropertyOp20
 70
     1
102
RTVSPropertyOp21
 70
     1
102
RTVSPropertyOp22
 70
     1
102
RTVSPropertyOp23
 70
     1
102
RTVSPropertyOp24
 70
     1
102
RTVSPropertyOp25
 70
     1
102
RTVSPropertyOp26
 70
     1
102
RTVSPropertyOp27
 70
     1
102
RTVSPropertyOp28
 70
     1
102
RTVSPropertyOp29
 70
     1
102
RTVSPropertyOp30
 70
     1
102
RTVSPropertyOp31
 70
     1
102
RTVSPropertyOp32
 70
     1
102
RTVSPropertyOp33
 70
     1
102
RTVSPropertyOp34
 70
     1
102
RTVSPropertyOp35
 70
     1
102
RTVSPropertyOp36
 70
     1
102
RTVSPropertyOp37
 70
     1
102
RTVSPropertyOp38
 70
     1
102
RTVSPropertyOp39
 70
     1
102
RTVSPropertyOp40
 70
     1
102
RTVSPropertyOp41
 70
     1
102
RTVSPropertyOp42
 70
     1
102
RTVSPropertyOp43
 70
     1
102
RTVSPropertyOp44
 70
     1
102
RTVSPropertyOp45
 70
     1
102
RTVSPropertyOp46
 70
     1
102
RTVSPropertyOp47
 70
     1
102
RTVSPropertyOp48
 70
     1
102
RTVSPropertyOp49
 70
     1
102
RTVSPropertyOp50
 70
     1
102
RTVSPropertyOp51
 70
     0
102
RTVSPropertyOp52
 70
     0
102
RTVSPropertyOp53
 70
     1
102
RTVSPropertyOp54
 70
     1
102
RTVSPropertyOp55
 70
     1
102
RTVSPropertyOp56
 70
     1
102
RTVSPropertyOp57
 70
     1
102
RTVSPropertyOp58
 70
     1
102
RTVSPropertyOp59
 70
     1
102
RTVSPropertyOp60
 70
     1
102
RTVSPropertyOp61
 70
     1
102
RTVSPropertyOp62
 70
     1
  0
XRECORD
  5
1A54F
102
{ACAD_REACTORS
330
1A54E
102
}
330
1A54E
100
AcDbXrecord
280
     1
102
RTVSPost2010Prop28
280
     0
102
RTVSPost2010PropOp28
 70
     1
102
RTVSPost2010Prop29
280
     1
102
RTVSPost2010PropOp29
 70
     1
102
RTVSPost2010Prop30
280
     1
102
RTVSPost2010PropOp30
 70
     1
102
RTVSPost2010Prop31
280
     0
102
RTVSPost2010PropOp31
 70
     1
102
RTVSPost2010Prop32
280
     0
102
RTVSPost2010PropOp32
 70
     1
102
RTVSPost2010Prop33
280
     0
102
RTVSPost2010PropOp33
 70
     1
102
RTVSPost2010Prop34
280
     0
102
RTVSPost2010PropOp34
 70
     1
102
RTVSPost2010Prop35
280
     0
102
RTVSPost2010PropOp35
 70
     1
102
RTVSPost2010Prop36
280
     0
102
RTVSPost2010PropOp36
 70
     1
102
RTVSPost2010Prop37
 90
       50
102
RTVSPost2010PropOp37
 70
     0
102
RTVSPost2010Prop38
140
0.0
102
RTVSPost2010PropOp38
 70
     0
102
RTVSPost2010Prop39
140
1.0
102
RTVSPost2010PropOp39
 70
     0
102
RTVSPost2010Prop40
 90
        0
102
RTVSPost2010PropOp40
 70
     0
102
RTVSPost2010Prop41ColorIndex
 90
       18
102
RTVSPost2010Prop41ColorRGB
 90
        0
102
RTVSPost2010PropOp41
 70
     0
102
RTVSPost2010Prop42
 90
       50
102
RTVSPost2010PropOp42
 70
     0
102
RTVSPost2010Prop43
 90
        3
102
RTVSPost2010PropOp43
 70
     0
102
RTVSPost2010Prop44ColorIndex
 90
        5
102
RTVSPost2010Prop44ColorRGB
 90
      255
102
RTVSPost2010PropOp44
 70
     0
102
RTVSPost2010Prop45
280
     0
102
RTVSPost2010PropOp45
 70
     1
102
RTVSPost2010Prop46
 90
       50
102
RTVSPost2010PropOp46
 70
     0
102
RTVSPost2010Prop47
 90
       50
102
RTVSPost2010PropOp47
 70
     0
102
RTVSPost2010Prop48
 90
       50
102
RTVSPost2010PropOp48
 70
     0
102
RTVSPost2010Prop49
280
     0
102
RTVSPost2010PropOp49
 70
     1
102
RTVSPost2010Prop50
 90
       50
102
RTVSPost2010PropOp50
 70
     0
102
RTVSPost2010Prop51ColorIndex
 90
      256
102
RTVSPost2010Prop51ColorRGB
 90
-16777216
102
RTVSPost2010PropOp51
 70
     0
102
RTVSPost2010Prop52
140
1.0
102
RTVSPost2010PropOp52
 70
     0
102
RTVSPost2010Prop53
 90
        2
102
RTVSPost2010PropOp53
 70
     0
102
RTVSPost2010Prop54
  1
strokes_ogs.tif
102
RTVSPost2010PropOp54
 70
     0
102
RTVSPost2010Prop55
280
     0
102
RTVSPost2010PropOp55
 70
     1
102
RTVSPost2010Prop56
140
1.0
102
RTVSPost2010PropOp56
 70
     0
102
RTVSPost2010Prop57
140
1.0
102
RTVSPost2010PropOp57
 70
     0
102
RTVSPropertyOp0
 70
     0
102
RTVSPropertyOp1
 70
     0
102
RTVSPropertyOp2
 70
     0
102
RTVSPropertyOp3
 70
     0
102
RTVSPropertyOp4
 70
     0
102
RTVSPropertyOp5
 70
     0
102
RTVSPropertyOp6
 70
     0
102
RTVSPropertyOp7
 70
     0
102
RTVSPropertyOp8
 70
     0
102
RTVSPropertyOp9
 70
     0
102
RTVSPropertyOp10
 70
     0
102
RTVSPropertyOp11
 70
     0
102
RTVSPropertyOp12
 70
     0
102
RTVSPropertyOp13
 70
     0
102
RTVSPropertyOp14
 70
     2
102
RTVSPropertyOp15
 70
     0
102
RTVSPropertyOp16
 70
     0
102
RTVSPropertyOp17
 70
     0
102
RTVSPropertyOp18
 70
     0
102
RTVSPropertyOp19
 70
     0
102
RTVSPropertyOp20
 70
     0
102
RTVSPropertyOp21
 70
     0
102
RTVSPropertyOp22
 70
     0
102
RTVSPropertyOp23
 70
     0
102
RTVSPropertyOp24
 70
     0
102
RTVSPropertyOp25
 70
     0
102
RTVSPropertyOp26
 70
     0
102
RTVSPropertyOp27
 70
     0
102
RTVSPropertyOp28
 70
     1
102
RTVSPropertyOp29
 70
     1
102
RTVSPropertyOp30
 70
     1
102
RTVSPropertyOp31
 70
     1
102
RTVSPropertyOp32
 70
     1
102
RTVSPropertyOp33
 70
     1
102
RTVSPropertyOp34
 70
     1
102
RTVSPropertyOp35
 70
     1
102
RTVSPropertyOp36
 70
     1
102
RTVSPropertyOp37
 70
     0
102
RTVSPropertyOp38
 70
     0
102
RTVSPropertyOp39
 70
     0
102
RTVSPropertyOp40
 70
     0
102
RTVSPropertyOp41
 70
     0
102
RTVSPropertyOp42
 70
     0
102
RTVSPropertyOp43
 70
     0
102
RTVSPropertyOp44
 70
     0
102
RTVSPropertyOp45
 70
     1
102
RTVSPropertyOp46
 70
     0
102
RTVSPropertyOp47
 70
     0
102
RTVSPropertyOp48
 70
     0
102
RTVSPropertyOp49
 70
     1
102
RTVSPropertyOp50
 70
     0
102
RTVSPropertyOp51
 70
     0
102
RTVSPropertyOp52
 70
     0
102
RTVSPropertyOp53
 70
     0
102
RTVSPropertyOp54
 70
     0
102
RTVSPropertyOp55
 70
     1
102
RTVSPropertyOp56
 70
     0
102
RTVSPropertyOp57
 70
     0
102
RTVSPropertyOp58
 70
     0
102
RTVSPropertyOp59
 70
     0
102
RTVSPropertyOp60
 70
     0
102
RTVSPropertyOp61
 70
     0
102
RTVSPropertyOp62
 70
     0
  0
XRECORD
  5
1A53D
102
{ACAD_REACTORS
330
1A53C
102
}
330
1A53C
100
AcDbXrecord
280
     1
102
RTVSPost2010Prop28
280
     0
102
RTVSPost2010PropOp28
 70
     1
102
RTVSPost2010Prop29
280
     1
102
RTVSPost2010PropOp29
 70
     1
102
RTVSPost2010Prop30
280
     1
102
RTVSPost2010PropOp30
 70
     1
102
RTVSPost2010Prop31
280
     0
102
RTVSPost2010PropOp31
 70
     1
102
RTVSPost2010Prop32
280
     0
102
RTVSPost2010PropOp32
 70
     1
102
RTVSPost2010Prop33
280
     0
102
RTVSPost2010PropOp33
 70
     1
102
RTVSPost2010Prop34
280
     0
102
RTVSPost2010PropOp34
 70
     1
102
RTVSPost2010Prop35
280
     0
102
RTVSPost2010PropOp35
 70
     1
102
RTVSPost2010Prop36
280
     0
102
RTVSPost2010PropOp36
 70
     1
102
RTVSPost2010Prop37
 90
       50
102
RTVSPost2010PropOp37
 70
     1
102
RTVSPost2010Prop38
140
0.0
102
RTVSPost2010PropOp38
 70
     1
102
RTVSPost2010Prop39
140
1.0
102
RTVSPost2010PropOp39
 70
     1
102
RTVSPost2010Prop40
 90
        0
102
RTVSPost2010PropOp40
 70
     1
102
RTVSPost2010Prop41ColorIndex
 90
       18
102
RTVSPost2010Prop41ColorRGB
 90
        0
102
RTVSPost2010PropOp41
 70
     1
102
RTVSPost2010Prop42
 90
       50
102
RTVSPost2010PropOp42
 70
     1
102
RTVSPost2010Prop43
 90
        3
102
RTVSPost2010PropOp43
 70
     1
102
RTVSPost2010Prop44ColorIndex
 90
        5
102
RTVSPost2010Prop44ColorRGB
 90
      255
102
RTVSPost2010PropOp44
 70
     1
102
RTVSPost2010Prop45
280
     0
102
RTVSPost2010PropOp45
 70
     1
102
RTVSPost2010Prop46
 90
       50
102
RTVSPost2010PropOp46
 70
     1
102
RTVSPost2010Prop47
 90
       50
102
RTVSPost2010PropOp47
 70
     1
102
RTVSPost2010Prop48
 90
       50
102
RTVSPost2010PropOp48
 70
     1
102
RTVSPost2010Prop49
280
     0
102
RTVSPost2010PropOp49
 70
     1
102
RTVSPost2010Prop50
 90
       50
102
RTVSPost2010PropOp50
 70
     1
102
RTVSPost2010Prop51ColorIndex
 90
      256
102
RTVSPost2010Prop51ColorRGB
 90
-16777216
102
RTVSPost2010PropOp51
 70
     0
102
RTVSPost2010Prop52
140
1.0
102
RTVSPost2010PropOp52
 70
     0
102
RTVSPost2010Prop53
 90
        2
102
RTVSPost2010PropOp53
 70
     1
102
RTVSPost2010Prop54
  1
strokes_ogs.tif
102
RTVSPost2010PropOp54
 70
     1
102
RTVSPost2010Prop55
280
     0
102
RTVSPost2010PropOp55
 70
     1
102
RTVSPost2010Prop56
140
1.0
102
RTVSPost2010PropOp56
 70
     1
102
RTVSPost2010Prop57
140
1.0
102
RTVSPost2010PropOp57
 70
     1
102
RTVSPropertyOp0
 70
     1
102
RTVSPropertyOp1
 70
     1
102
RTVSPropertyOp2
 70
     1
102
RTVSPropertyOp3
 70
     1
102
RTVSPropertyOp4
 70
     1
102
RTVSPropertyOp5
 70
     1
102
RTVSPropertyOp6
 70
     1
102
RTVSPropertyOp7
 70
     1
102
RTVSPropertyOp8
 70
     1
102
RTVSPropertyOp9
 70
     1
102
RTVSPropertyOp10
 70
     1
102
RTVSPropertyOp11
 70
     1
102
RTVSPropertyOp12
 70
     1
102
RTVSPropertyOp13
 70
     1
102
RTVSPropertyOp14
 70
     1
102
RTVSPropertyOp15
 70
     1
102
RTVSPropertyOp16
 70
     1
102
RTVSPropertyOp17
 70
     1
102
RTVSPropertyOp18
 70
     1
102
RTVSPropertyOp19
 70
     1
102
RTVSPropertyOp20
 70
     1
102
RTVSPropertyOp21
 70
     1
102
RTVSPropertyOp22
 70
     1
102
RTVSPropertyOp23
 70
     1
102
RTVSPropertyOp24
 70
     1
102
RTVSPropertyOp25
 70
     1
102
RTVSPropertyOp26
 70
     1
102
RTVSPropertyOp27
 70
     1
102
RTVSPropertyOp28
 70
     1
102
RTVSPropertyOp29
 70
     1
102
RTVSPropertyOp30
 70
     1
102
RTVSPropertyOp31
 70
     1
102
RTVSPropertyOp32
 70
     1
102
RTVSPropertyOp33
 70
     1
102
RTVSPropertyOp34
 70
     1
102
RTVSPropertyOp35
 70
     1
102
RTVSPropertyOp36
 70
     1
102
RTVSPropertyOp37
 70
     1
102
RTVSPropertyOp38
 70
     1
102
RTVSPropertyOp39
 70
     1
102
RTVSPropertyOp40
 70
     1
102
RTVSPropertyOp41
 70
     1
102
RTVSPropertyOp42
 70
     1
102
RTVSPropertyOp43
 70
     1
102
RTVSPropertyOp44
 70
     1
102
RTVSPropertyOp45
 70
     1
102
RTVSPropertyOp46
 70
     1
102
RTVSPropertyOp47
 70
     1
102
RTVSPropertyOp48
 70
     1
102
RTVSPropertyOp49
 70
     1
102
RTVSPropertyOp50
 70
     1
102
RTVSPropertyOp51
 70
     0
102
RTVSPropertyOp52
 70
     0
102
RTVSPropertyOp53
 70
     1
102
RTVSPropertyOp54
 70
     1
102
RTVSPropertyOp55
 70
     1
102
RTVSPropertyOp56
 70
     1
102
RTVSPropertyOp57
 70
     1
102
RTVSPropertyOp58
 70
     1
102
RTVSPropertyOp59
 70
     1
102
RTVSPropertyOp60
 70
     1
102
RTVSPropertyOp61
 70
     1
102
RTVSPropertyOp62
 70
     1
  0
XRECORD
  5
1A521
102
{ACAD_REACTORS
330
1A520
102
}
330
1A520
100
AcDbXrecord
280
     1
102
RTVSPost2010Prop28
280
     0
102
RTVSPost2010PropOp28
 70
     1
102
RTVSPost2010Prop29
280
     1
102
RTVSPost2010PropOp29
 70
     1
102
RTVSPost2010Prop30
280
     1
102
RTVSPost2010PropOp30
 70
     1
102
RTVSPost2010Prop31
280
     0
102
RTVSPost2010PropOp31
 70
     1
102
RTVSPost2010Prop32
280
     0
102
RTVSPost2010PropOp32
 70
     1
102
RTVSPost2010Prop33
280
     0
102
RTVSPost2010PropOp33
 70
     1
102
RTVSPost2010Prop34
280
     0
102
RTVSPost2010PropOp34
 70
     1
102
RTVSPost2010Prop35
280
     0
102
RTVSPost2010PropOp35
 70
     1
102
RTVSPost2010Prop36
280
     0
102
RTVSPost2010PropOp36
 70
     1
102
RTVSPost2010Prop37
 90
       50
102
RTVSPost2010PropOp37
 70
     1
102
RTVSPost2010Prop38
140
0.0
102
RTVSPost2010PropOp38
 70
     1
102
RTVSPost2010Prop39
140
1.0
102
RTVSPost2010PropOp39
 70
     1
102
RTVSPost2010Prop40
 90
        0
102
RTVSPost2010PropOp40
 70
     1
102
RTVSPost2010Prop41ColorIndex
 90
       18
102
RTVSPost2010Prop41ColorRGB
 90
        0
102
RTVSPost2010PropOp41
 70
     1
102
RTVSPost2010Prop42
 90
       50
102
RTVSPost2010PropOp42
 70
     1
102
RTVSPost2010Prop43
 90
        3
102
RTVSPost2010PropOp43
 70
     1
102
RTVSPost2010Prop44ColorIndex
 90
        5
102
RTVSPost2010Prop44ColorRGB
 90
      255
102
RTVSPost2010PropOp44
 70
     1
102
RTVSPost2010Prop45
280
     0
102
RTVSPost2010PropOp45
 70
     1
102
RTVSPost2010Prop46
 90
       50
102
RTVSPost2010PropOp46
 70
     1
102
RTVSPost2010Prop47
 90
       50
102
RTVSPost2010PropOp47
 70
     1
102
RTVSPost2010Prop48
 90
       50
102
RTVSPost2010PropOp48
 70
     1
102
RTVSPost2010Prop49
280
     0
102
RTVSPost2010PropOp49
 70
     1
102
RTVSPost2010Prop50
 90
       50
102
RTVSPost2010PropOp50
 70
     1
102
RTVSPost2010Prop51ColorIndex
 90
      256
102
RTVSPost2010Prop51ColorRGB
 90
-16777216
102
RTVSPost2010PropOp51
 70
     0
102
RTVSPost2010Prop52
140
1.0
102
RTVSPost2010PropOp52
 70
     0
102
RTVSPost2010Prop53
 90
        2
102
RTVSPost2010PropOp53
 70
     1
102
RTVSPost2010Prop54
  1
strokes_ogs.tif
102
RTVSPost2010PropOp54
 70
     1
102
RTVSPost2010Prop55
280
     0
102
RTVSPost2010PropOp55
 70
     1
102
RTVSPost2010Prop56
140
1.0
102
RTVSPost2010PropOp56
 70
     1
102
RTVSPost2010Prop57
140
1.0
102
RTVSPost2010PropOp57
 70
     1
102
RTVSPropertyOp0
 70
     1
102
RTVSPropertyOp1
 70
     1
102
RTVSPropertyOp2
 70
     1
102
RTVSPropertyOp3
 70
     1
102
RTVSPropertyOp4
 70
     1
102
RTVSPropertyOp5
 70
     1
102
RTVSPropertyOp6
 70
     1
102
RTVSPropertyOp7
 70
     1
102
RTVSPropertyOp8
 70
     1
102
RTVSPropertyOp9
 70
     1
102
RTVSPropertyOp10
 70
     1
102
RTVSPropertyOp11
 70
     1
102
RTVSPropertyOp12
 70
     1
102
RTVSPropertyOp13
 70
     1
102
RTVSPropertyOp14
 70
     1
102
RTVSPropertyOp15
 70
     1
102
RTVSPropertyOp16
 70
     1
102
RTVSPropertyOp17
 70
     1
102
RTVSPropertyOp18
 70
     1
102
RTVSPropertyOp19
 70
     1
102
RTVSPropertyOp20
 70
     1
102
RTVSPropertyOp21
 70
     1
102
RTVSPropertyOp22
 70
     1
102
RTVSPropertyOp23
 70
     1
102
RTVSPropertyOp24
 70
     1
102
RTVSPropertyOp25
 70
     1
102
RTVSPropertyOp26
 70
     1
102
RTVSPropertyOp27
 70
     1
102
RTVSPropertyOp28
 70
     1
102
RTVSPropertyOp29
 70
     1
102
RTVSPropertyOp30
 70
     1
102
RTVSPropertyOp31
 70
     1
102
RTVSPropertyOp32
 70
     1
102
RTVSPropertyOp33
 70
     1
102
RTVSPropertyOp34
 70
     1
102
RTVSPropertyOp35
 70
     1
102
RTVSPropertyOp36
 70
     1
102
RTVSPropertyOp37
 70
     1
102
RTVSPropertyOp38
 70
     1
102
RTVSPropertyOp39
 70
     1
102
RTVSPropertyOp40
 70
     1
102
RTVSPropertyOp41
 70
     1
102
RTVSPropertyOp42
 70
     1
102
RTVSPropertyOp43
 70
     1
102
RTVSPropertyOp44
 70
     1
102
RTVSPropertyOp45
 70
     1
102
RTVSPropertyOp46
 70
     1
102
RTVSPropertyOp47
 70
     1
102
RTVSPropertyOp48
 70
     1
102
RTVSPropertyOp49
 70
     1
102
RTVSPropertyOp50
 70
     1
102
RTVSPropertyOp51
 70
     0
102
RTVSPropertyOp52
 70
     0
102
RTVSPropertyOp53
 70
     1
102
RTVSPropertyOp54
 70
     1
102
RTVSPropertyOp55
 70
     1
102
RTVSPropertyOp56
 70
     1
102
RTVSPropertyOp57
 70
     1
102
RTVSPropertyOp58
 70
     1
102
RTVSPropertyOp59
 70
     1
102
RTVSPropertyOp60
 70
     1
102
RTVSPropertyOp61
 70
     1
102
RTVSPropertyOp62
 70
     1
  0
XRECORD
  5
1A523
102
{ACAD_REACTORS
330
1A522
102
}
330
1A522
100
AcDbXrecord
280
     1
102
RTVSPost2010Prop28
280
     0
102
RTVSPost2010PropOp28
 70
     1
102
RTVSPost2010Prop29
280
     1
102
RTVSPost2010PropOp29
 70
     1
102
RTVSPost2010Prop30
280
     1
102
RTVSPost2010PropOp30
 70
     1
102
RTVSPost2010Prop31
280
     0
102
RTVSPost2010PropOp31
 70
     1
102
RTVSPost2010Prop32
280
     0
102
RTVSPost2010PropOp32
 70
     1
102
RTVSPost2010Prop33
280
     0
102
RTVSPost2010PropOp33
 70
     1
102
RTVSPost2010Prop34
280
     0
102
RTVSPost2010PropOp34
 70
     1
102
RTVSPost2010Prop35
280
     0
102
RTVSPost2010PropOp35
 70
     1
102
RTVSPost2010Prop36
280
     0
102
RTVSPost2010PropOp36
 70
     1
102
RTVSPost2010Prop37
 90
       50
102
RTVSPost2010PropOp37
 70
     1
102
RTVSPost2010Prop38
140
0.0
102
RTVSPost2010PropOp38
 70
     1
102
RTVSPost2010Prop39
140
1.0
102
RTVSPost2010PropOp39
 70
     1
102
RTVSPost2010Prop40
 90
        0
102
RTVSPost2010PropOp40
 70
     1
102
RTVSPost2010Prop41ColorIndex
 90
       18
102
RTVSPost2010Prop41ColorRGB
 90
        0
102
RTVSPost2010PropOp41
 70
     1
102
RTVSPost2010Prop42
 90
       50
102
RTVSPost2010PropOp42
 70
     1
102
RTVSPost2010Prop43
 90
        3
102
RTVSPost2010PropOp43
 70
     1
102
RTVSPost2010Prop44ColorIndex
 90
        5
102
RTVSPost2010Prop44ColorRGB
 90
      255
102
RTVSPost2010PropOp44
 70
     1
102
RTVSPost2010Prop45
280
     0
102
RTVSPost2010PropOp45
 70
     1
102
RTVSPost2010Prop46
 90
       50
102
RTVSPost2010PropOp46
 70
     1
102
RTVSPost2010Prop47
 90
       50
102
RTVSPost2010PropOp47
 70
     1
102
RTVSPost2010Prop48
 90
       50
102
RTVSPost2010PropOp48
 70
     1
102
RTVSPost2010Prop49
280
     0
102
RTVSPost2010PropOp49
 70
     1
102
RTVSPost2010Prop50
 90
       50
102
RTVSPost2010PropOp50
 70
     1
102
RTVSPost2010Prop51ColorIndex
 90
      256
102
RTVSPost2010Prop51ColorRGB
 90
-16777216
102
RTVSPost2010PropOp51
 70
     0
102
RTVSPost2010Prop52
140
1.0
102
RTVSPost2010PropOp52
 70
     0
102
RTVSPost2010Prop53
 90
        2
102
RTVSPost2010PropOp53
 70
     1
102
RTVSPost2010Prop54
  1
strokes_ogs.tif
102
RTVSPost2010PropOp54
 70
     1
102
RTVSPost2010Prop55
280
     0
102
RTVSPost2010PropOp55
 70
     1
102
RTVSPost2010Prop56
140
1.0
102
RTVSPost2010PropOp56
 70
     1
102
RTVSPost2010Prop57
140
1.0
102
RTVSPost2010PropOp57
 70
     1
102
RTVSPropertyOp0
 70
     1
102
RTVSPropertyOp1
 70
     1
102
RTVSPropertyOp2
 70
     1
102
RTVSPropertyOp3
 70
     1
102
RTVSPropertyOp4
 70
     1
102
RTVSPropertyOp5
 70
     1
102
RTVSPropertyOp6
 70
     1
102
RTVSPropertyOp7
 70
     1
102
RTVSPropertyOp8
 70
     1
102
RTVSPropertyOp9
 70
     1
102
RTVSPropertyOp10
 70
     1
102
RTVSPropertyOp11
 70
     1
102
RTVSPropertyOp12
 70
     1
102
RTVSPropertyOp13
 70
     1
102
RTVSPropertyOp14
 70
     1
102
RTVSPropertyOp15
 70
     1
102
RTVSPropertyOp16
 70
     1
102
RTVSPropertyOp17
 70
     1
102
RTVSPropertyOp18
 70
     1
102
RTVSPropertyOp19
 70
     1
102
RTVSPropertyOp20
 70
     1
102
RTVSPropertyOp21
 70
     1
102
RTVSPropertyOp22
 70
     1
102
RTVSPropertyOp23
 70
     1
102
RTVSPropertyOp24
 70
     1
102
RTVSPropertyOp25
 70
     1
102
RTVSPropertyOp26
 70
     1
102
RTVSPropertyOp27
 70
     1
102
RTVSPropertyOp28
 70
     1
102
RTVSPropertyOp29
 70
     1
102
RTVSPropertyOp30
 70
     1
102
RTVSPropertyOp31
 70
     1
102
RTVSPropertyOp32
 70
     1
102
RTVSPropertyOp33
 70
     1
102
RTVSPropertyOp34
 70
     1
102
RTVSPropertyOp35
 70
     1
102
RTVSPropertyOp36
 70
     1
102
RTVSPropertyOp37
 70
     1
102
RTVSPropertyOp38
 70
     1
102
RTVSPropertyOp39
 70
     1
102
RTVSPropertyOp40
 70
     1
102
RTVSPropertyOp41
 70
     1
102
RTVSPropertyOp42
 70
     1
102
RTVSPropertyOp43
 70
     1
102
RTVSPropertyOp44
 70
     1
102
RTVSPropertyOp45
 70
     1
102
RTVSPropertyOp46
 70
     1
102
RTVSPropertyOp47
 70
     1
102
RTVSPropertyOp48
 70
     1
102
RTVSPropertyOp49
 70
     1
102
RTVSPropertyOp50
 70
     1
102
RTVSPropertyOp51
 70
     0
102
RTVSPropertyOp52
 70
     0
102
RTVSPropertyOp53
 70
     1
102
RTVSPropertyOp54
 70
     1
102
RTVSPropertyOp55
 70
     1
102
RTVSPropertyOp56
 70
     1
102
RTVSPropertyOp57
 70
     1
102
RTVSPropertyOp58
 70
     1
102
RTVSPropertyOp59
 70
     1
102
RTVSPropertyOp60
 70
     1
102
RTVSPropertyOp61
 70
     1
102
RTVSPropertyOp62
 70
     1
  0
XRECORD
  5
1A525
102
{ACAD_REACTORS
330
1A524
102
}
330
1A524
100
AcDbXrecord
280
     1
102
RTVSPost2010Prop28
280
     0
102
RTVSPost2010PropOp28
 70
     1
102
RTVSPost2010Prop29
280
     1
102
RTVSPost2010PropOp29
 70
     1
102
RTVSPost2010Prop30
280
     1
102
RTVSPost2010PropOp30
 70
     1
102
RTVSPost2010Prop31
280
     0
102
RTVSPost2010PropOp31
 70
     1
102
RTVSPost2010Prop32
280
     0
102
RTVSPost2010PropOp32
 70
     1
102
RTVSPost2010Prop33
280
     0
102
RTVSPost2010PropOp33
 70
     1
102
RTVSPost2010Prop34
280
     0
102
RTVSPost2010PropOp34
 70
     1
102
RTVSPost2010Prop35
280
     0
102
RTVSPost2010PropOp35
 70
     1
102
RTVSPost2010Prop36
280
     0
102
RTVSPost2010PropOp36
 70
     1
102
RTVSPost2010Prop37
 90
       50
102
RTVSPost2010PropOp37
 70
     1
102
RTVSPost2010Prop38
140
0.0
102
RTVSPost2010PropOp38
 70
     1
102
RTVSPost2010Prop39
140
1.0
102
RTVSPost2010PropOp39
 70
     1
102
RTVSPost2010Prop40
 90
        0
102
RTVSPost2010PropOp40
 70
     1
102
RTVSPost2010Prop41ColorIndex
 90
       18
102
RTVSPost2010Prop41ColorRGB
 90
        0
102
RTVSPost2010PropOp41
 70
     1
102
RTVSPost2010Prop42
 90
       50
102
RTVSPost2010PropOp42
 70
     1
102
RTVSPost2010Prop43
 90
        3
102
RTVSPost2010PropOp43
 70
     1
102
RTVSPost2010Prop44ColorIndex
 90
        5
102
RTVSPost2010Prop44ColorRGB
 90
      255
102
RTVSPost2010PropOp44
 70
     1
102
RTVSPost2010Prop45
280
     0
102
RTVSPost2010PropOp45
 70
     1
102
RTVSPost2010Prop46
 90
       50
102
RTVSPost2010PropOp46
 70
     1
102
RTVSPost2010Prop47
 90
       50
102
RTVSPost2010PropOp47
 70
     1
102
RTVSPost2010Prop48
 90
       50
102
RTVSPost2010PropOp48
 70
     1
102
RTVSPost2010Prop49
280
     0
102
RTVSPost2010PropOp49
 70
     1
102
RTVSPost2010Prop50
 90
       50
102
RTVSPost2010PropOp50
 70
     1
102
RTVSPost2010Prop51ColorIndex
 90
      256
102
RTVSPost2010Prop51ColorRGB
 90
-16777216
102
RTVSPost2010PropOp51
 70
     0
102
RTVSPost2010Prop52
140
1.0
102
RTVSPost2010PropOp52
 70
     0
102
RTVSPost2010Prop53
 90
        2
102
RTVSPost2010PropOp53
 70
     1
102
RTVSPost2010Prop54
  1
strokes_ogs.tif
102
RTVSPost2010PropOp54
 70
     1
102
RTVSPost2010Prop55
280
     0
102
RTVSPost2010PropOp55
 70
     1
102
RTVSPost2010Prop56
140
1.0
102
RTVSPost2010PropOp56
 70
     1
102
RTVSPost2010Prop57
140
1.0
102
RTVSPost2010PropOp57
 70
     1
102
RTVSPropertyOp0
 70
     1
102
RTVSPropertyOp1
 70
     1
102
RTVSPropertyOp2
 70
     1
102
RTVSPropertyOp3
 70
     1
102
RTVSPropertyOp4
 70
     1
102
RTVSPropertyOp5
 70
     1
102
RTVSPropertyOp6
 70
     1
102
RTVSPropertyOp7
 70
     1
102
RTVSPropertyOp8
 70
     1
102
RTVSPropertyOp9
 70
     1
102
RTVSPropertyOp10
 70
     1
102
RTVSPropertyOp11
 70
     1
102
RTVSPropertyOp12
 70
     1
102
RTVSPropertyOp13
 70
     1
102
RTVSPropertyOp14
 70
     1
102
RTVSPropertyOp15
 70
     1
102
RTVSPropertyOp16
 70
     1
102
RTVSPropertyOp17
 70
     1
102
RTVSPropertyOp18
 70
     1
102
RTVSPropertyOp19
 70
     1
102
RTVSPropertyOp20
 70
     1
102
RTVSPropertyOp21
 70
     1
102
RTVSPropertyOp22
 70
     1
102
RTVSPropertyOp23
 70
     1
102
RTVSPropertyOp24
 70
     1
102
RTVSPropertyOp25
 70
     1
102
RTVSPropertyOp26
 70
     1
102
RTVSPropertyOp27
 70
     1
102
RTVSPropertyOp28
 70
     1
102
RTVSPropertyOp29
 70
     1
102
RTVSPropertyOp30
 70
     1
102
RTVSPropertyOp31
 70
     1
102
RTVSPropertyOp32
 70
     1
102
RTVSPropertyOp33
 70
     1
102
RTVSPropertyOp34
 70
     1
102
RTVSPropertyOp35
 70
     1
102
RTVSPropertyOp36
 70
     1
102
RTVSPropertyOp37
 70
     1
102
RTVSPropertyOp38
 70
     1
102
RTVSPropertyOp39
 70
     1
102
RTVSPropertyOp40
 70
     1
102
RTVSPropertyOp41
 70
     1
102
RTVSPropertyOp42
 70
     1
102
RTVSPropertyOp43
 70
     1
102
RTVSPropertyOp44
 70
     1
102
RTVSPropertyOp45
 70
     1
102
RTVSPropertyOp46
 70
     1
102
RTVSPropertyOp47
 70
     1
102
RTVSPropertyOp48
 70
     1
102
RTVSPropertyOp49
 70
     1
102
RTVSPropertyOp50
 70
     1
102
RTVSPropertyOp51
 70
     0
102
RTVSPropertyOp52
 70
     0
102
RTVSPropertyOp53
 70
     1
102
RTVSPropertyOp54
 70
     1
102
RTVSPropertyOp55
 70
     1
102
RTVSPropertyOp56
 70
     1
102
RTVSPropertyOp57
 70
     1
102
RTVSPropertyOp58
 70
     1
102
RTVSPropertyOp59
 70
     1
102
RTVSPropertyOp60
 70
     1
102
RTVSPropertyOp61
 70
     1
102
RTVSPropertyOp62
 70
     1
  0
XRECORD
  5
1A527
102
{ACAD_REACTORS
330
1A526
102
}
330
1A526
100
AcDbXrecord
280
     1
102
RTVSPost2010Prop28
280
     0
102
RTVSPost2010PropOp28
 70
     1
102
RTVSPost2010Prop29
280
     1
102
RTVSPost2010PropOp29
 70
     1
102
RTVSPost2010Prop30
280
     1
102
RTVSPost2010PropOp30
 70
     1
102
RTVSPost2010Prop31
280
     0
102
RTVSPost2010PropOp31
 70
     1
102
RTVSPost2010Prop32
280
     0
102
RTVSPost2010PropOp32
 70
     1
102
RTVSPost2010Prop33
280
     0
102
RTVSPost2010PropOp33
 70
     1
102
RTVSPost2010Prop34
280
     0
102
RTVSPost2010PropOp34
 70
     1
102
RTVSPost2010Prop35
280
     0
102
RTVSPost2010PropOp35
 70
     1
102
RTVSPost2010Prop36
280
     0
102
RTVSPost2010PropOp36
 70
     1
102
RTVSPost2010Prop37
 90
       50
102
RTVSPost2010PropOp37
 70
     1
102
RTVSPost2010Prop38
140
0.0
102
RTVSPost2010PropOp38
 70
     1
102
RTVSPost2010Prop39
140
1.0
102
RTVSPost2010PropOp39
 70
     1
102
RTVSPost2010Prop40
 90
        0
102
RTVSPost2010PropOp40
 70
     1
102
RTVSPost2010Prop41ColorIndex
 90
       18
102
RTVSPost2010Prop41ColorRGB
 90
        0
102
RTVSPost2010PropOp41
 70
     1
102
RTVSPost2010Prop42
 90
       50
102
RTVSPost2010PropOp42
 70
     1
102
RTVSPost2010Prop43
 90
        3
102
RTVSPost2010PropOp43
 70
     1
102
RTVSPost2010Prop44ColorIndex
 90
        5
102
RTVSPost2010Prop44ColorRGB
 90
      255
102
RTVSPost2010PropOp44
 70
     1
102
RTVSPost2010Prop45
280
     0
102
RTVSPost2010PropOp45
 70
     1
102
RTVSPost2010Prop46
 90
       50
102
RTVSPost2010PropOp46
 70
     1
102
RTVSPost2010Prop47
 90
       50
102
RTVSPost2010PropOp47
 70
     1
102
RTVSPost2010Prop48
 90
       50
102
RTVSPost2010PropOp48
 70
     1
102
RTVSPost2010Prop49
280
     0
102
RTVSPost2010PropOp49
 70
     1
102
RTVSPost2010Prop50
 90
       50
102
RTVSPost2010PropOp50
 70
     1
102
RTVSPost2010Prop51ColorIndex
 90
      256
102
RTVSPost2010Prop51ColorRGB
 90
-16777216
102
RTVSPost2010PropOp51
 70
     0
102
RTVSPost2010Prop52
140
1.0
102
RTVSPost2010PropOp52
 70
     0
102
RTVSPost2010Prop53
 90
        2
102
RTVSPost2010PropOp53
 70
     1
102
RTVSPost2010Prop54
  1
strokes_ogs.tif
102
RTVSPost2010PropOp54
 70
     1
102
RTVSPost2010Prop55
280
     0
102
RTVSPost2010PropOp55
 70
     1
102
RTVSPost2010Prop56
140
1.0
102
RTVSPost2010PropOp56
 70
     1
102
RTVSPost2010Prop57
140
1.0
102
RTVSPost2010PropOp57
 70
     1
102
RTVSPropertyOp0
 70
     1
102
RTVSPropertyOp1
 70
     1
102
RTVSPropertyOp2
 70
     1
102
RTVSPropertyOp3
 70
     1
102
RTVSPropertyOp4
 70
     1
102
RTVSPropertyOp5
 70
     1
102
RTVSPropertyOp6
 70
     1
102
RTVSPropertyOp7
 70
     1
102
RTVSPropertyOp8
 70
     1
102
RTVSPropertyOp9
 70
     1
102
RTVSPropertyOp10
 70
     1
102
RTVSPropertyOp11
 70
     1
102
RTVSPropertyOp12
 70
     1
102
RTVSPropertyOp13
 70
     1
102
RTVSPropertyOp14
 70
     1
102
RTVSPropertyOp15
 70
     1
102
RTVSPropertyOp16
 70
     1
102
RTVSPropertyOp17
 70
     1
102
RTVSPropertyOp18
 70
     1
102
RTVSPropertyOp19
 70
     1
102
RTVSPropertyOp20
 70
     1
102
RTVSPropertyOp21
 70
     1
102
RTVSPropertyOp22
 70
     1
102
RTVSPropertyOp23
 70
     1
102
RTVSPropertyOp24
 70
     1
102
RTVSPropertyOp25
 70
     1
102
RTVSPropertyOp26
 70
     1
102
RTVSPropertyOp27
 70
     1
102
RTVSPropertyOp28
 70
     1
102
RTVSPropertyOp29
 70
     1
102
RTVSPropertyOp30
 70
     1
102
RTVSPropertyOp31
 70
     1
102
RTVSPropertyOp32
 70
     1
102
RTVSPropertyOp33
 70
     1
102
RTVSPropertyOp34
 70
     1
102
RTVSPropertyOp35
 70
     1
102
RTVSPropertyOp36
 70
     1
102
RTVSPropertyOp37
 70
     1
102
RTVSPropertyOp38
 70
     1
102
RTVSPropertyOp39
 70
     1
102
RTVSPropertyOp40
 70
     1
102
RTVSPropertyOp41
 70
     1
102
RTVSPropertyOp42
 70
     1
102
RTVSPropertyOp43
 70
     1
102
RTVSPropertyOp44
 70
     1
102
RTVSPropertyOp45
 70
     1
102
RTVSPropertyOp46
 70
     1
102
RTVSPropertyOp47
 70
     1
102
RTVSPropertyOp48
 70
     1
102
RTVSPropertyOp49
 70
     1
102
RTVSPropertyOp50
 70
     1
102
RTVSPropertyOp51
 70
     0
102
RTVSPropertyOp52
 70
     0
102
RTVSPropertyOp53
 70
     1
102
RTVSPropertyOp54
 70
     1
102
RTVSPropertyOp55
 70
     1
102
RTVSPropertyOp56
 70
     1
102
RTVSPropertyOp57
 70
     1
102
RTVSPropertyOp58
 70
     1
102
RTVSPropertyOp59
 70
     1
102
RTVSPropertyOp60
 70
     1
102
RTVSPropertyOp61
 70
     1
102
RTVSPropertyOp62
 70
     1
  0
XRECORD
  5
1A52F
102
{ACAD_REACTORS
330
1A52E
102
}
330
1A52E
100
AcDbXrecord
280
     1
102
RTVSPost2010Prop28
280
     0
102
RTVSPost2010PropOp28
 70
     1
102
RTVSPost2010Prop29
280
     1
102
RTVSPost2010PropOp29
 70
     1
102
RTVSPost2010Prop30
280
     1
102
RTVSPost2010PropOp30
 70
     1
102
RTVSPost2010Prop31
280
     0
102
RTVSPost2010PropOp31
 70
     1
102
RTVSPost2010Prop32
280
     0
102
RTVSPost2010PropOp32
 70
     1
102
RTVSPost2010Prop33
280
     0
102
RTVSPost2010PropOp33
 70
     1
102
RTVSPost2010Prop34
280
     0
102
RTVSPost2010PropOp34
 70
     1
102
RTVSPost2010Prop35
280
     0
102
RTVSPost2010PropOp35
 70
     1
102
RTVSPost2010Prop36
280
     0
102
RTVSPost2010PropOp36
 70
     1
102
RTVSPost2010Prop37
 90
       50
102
RTVSPost2010PropOp37
 70
     1
102
RTVSPost2010Prop38
140
0.0
102
RTVSPost2010PropOp38
 70
     1
102
RTVSPost2010Prop39
140
1.0
102
RTVSPost2010PropOp39
 70
     1
102
RTVSPost2010Prop40
 90
        0
102
RTVSPost2010PropOp40
 70
     1
102
RTVSPost2010Prop41ColorIndex
 90
       18
102
RTVSPost2010Prop41ColorRGB
 90
        0
102
RTVSPost2010PropOp41
 70
     1
102
RTVSPost2010Prop42
 90
       50
102
RTVSPost2010PropOp42
 70
     1
102
RTVSPost2010Prop43
 90
        3
102
RTVSPost2010PropOp43
 70
     1
102
RTVSPost2010Prop44ColorIndex
 90
        5
102
RTVSPost2010Prop44ColorRGB
 90
      255
102
RTVSPost2010PropOp44
 70
     1
102
RTVSPost2010Prop45
280
     0
102
RTVSPost2010PropOp45
 70
     1
102
RTVSPost2010Prop46
 90
       50
102
RTVSPost2010PropOp46
 70
     1
102
RTVSPost2010Prop47
 90
       50
102
RTVSPost2010PropOp47
 70
     1
102
RTVSPost2010Prop48
 90
       50
102
RTVSPost2010PropOp48
 70
     1
102
RTVSPost2010Prop49
280
     0
102
RTVSPost2010PropOp49
 70
     1
102
RTVSPost2010Prop50
 90
       50
102
RTVSPost2010PropOp50
 70
     1
102
RTVSPost2010Prop51ColorIndex
 90
      256
102
RTVSPost2010Prop51ColorRGB
 90
-16777216
102
RTVSPost2010PropOp51
 70
     0
102
RTVSPost2010Prop52
140
1.0
102
RTVSPost2010PropOp52
 70
     0
102
RTVSPost2010Prop53
 90
        2
102
RTVSPost2010PropOp53
 70
     1
102
RTVSPost2010Prop54
  1
strokes_ogs.tif
102
RTVSPost2010PropOp54
 70
     1
102
RTVSPost2010Prop55
280
     0
102
RTVSPost2010PropOp55
 70
     1
102
RTVSPost2010Prop56
140
1.0
102
RTVSPost2010PropOp56
 70
     1
102
RTVSPost2010Prop57
140
1.0
102
RTVSPost2010PropOp57
 70
     1
102
RTVSPropertyOp0
 70
     1
102
RTVSPropertyOp1
 70
     1
102
RTVSPropertyOp2
 70
     1
102
RTVSPropertyOp3
 70
     1
102
RTVSPropertyOp4
 70
     1
102
RTVSPropertyOp5
 70
     1
102
RTVSPropertyOp6
 70
     1
102
RTVSPropertyOp7
 70
     1
102
RTVSPropertyOp8
 70
     1
102
RTVSPropertyOp9
 70
     1
102
RTVSPropertyOp10
 70
     1
102
RTVSPropertyOp11
 70
     1
102
RTVSPropertyOp12
 70
     1
102
RTVSPropertyOp13
 70
     1
102
RTVSPropertyOp14
 70
     1
102
RTVSPropertyOp15
 70
     1
102
RTVSPropertyOp16
 70
     1
102
RTVSPropertyOp17
 70
     1
102
RTVSPropertyOp18
 70
     1
102
RTVSPropertyOp19
 70
     1
102
RTVSPropertyOp20
 70
     1
102
RTVSPropertyOp21
 70
     1
102
RTVSPropertyOp22
 70
     1
102
RTVSPropertyOp23
 70
     1
102
RTVSPropertyOp24
 70
     1
102
RTVSPropertyOp25
 70
     1
102
RTVSPropertyOp26
 70
     1
102
RTVSPropertyOp27
 70
     1
102
RTVSPropertyOp28
 70
     1
102
RTVSPropertyOp29
 70
     1
102
RTVSPropertyOp30
 70
     1
102
RTVSPropertyOp31
 70
     1
102
RTVSPropertyOp32
 70
     1
102
RTVSPropertyOp33
 70
     1
102
RTVSPropertyOp34
 70
     1
102
RTVSPropertyOp35
 70
     1
102
RTVSPropertyOp36
 70
     1
102
RTVSPropertyOp37
 70
     1
102
RTVSPropertyOp38
 70
     1
102
RTVSPropertyOp39
 70
     1
102
RTVSPropertyOp40
 70
     1
102
RTVSPropertyOp41
 70
     1
102
RTVSPropertyOp42
 70
     1
102
RTVSPropertyOp43
 70
     1
102
RTVSPropertyOp44
 70
     1
102
RTVSPropertyOp45
 70
     1
102
RTVSPropertyOp46
 70
     1
102
RTVSPropertyOp47
 70
     1
102
RTVSPropertyOp48
 70
     1
102
RTVSPropertyOp49
 70
     1
102
RTVSPropertyOp50
 70
     1
102
RTVSPropertyOp51
 70
     0
102
RTVSPropertyOp52
 70
     0
102
RTVSPropertyOp53
 70
     1
102
RTVSPropertyOp54
 70
     1
102
RTVSPropertyOp55
 70
     1
102
RTVSPropertyOp56
 70
     1
102
RTVSPropertyOp57
 70
     1
102
RTVSPropertyOp58
 70
     1
102
RTVSPropertyOp59
 70
     1
102
RTVSPropertyOp60
 70
     1
102
RTVSPropertyOp61
 70
     1
102
RTVSPropertyOp62
 70
     1
  0
XRECORD
  5
1A54B
102
{ACAD_REACTORS
330
1A54A
102
}
330
1A54A
100
AcDbXrecord
280
     1
102
RTVSPost2010Prop28
280
     0
102
RTVSPost2010PropOp28
 70
     1
102
RTVSPost2010Prop29
280
     1
102
RTVSPost2010PropOp29
 70
     1
102
RTVSPost2010Prop30
280
     1
102
RTVSPost2010PropOp30
 70
     1
102
RTVSPost2010Prop31
280
     0
102
RTVSPost2010PropOp31
 70
     1
102
RTVSPost2010Prop32
280
     0
102
RTVSPost2010PropOp32
 70
     1
102
RTVSPost2010Prop33
280
     0
102
RTVSPost2010PropOp33
 70
     1
102
RTVSPost2010Prop34
280
     0
102
RTVSPost2010PropOp34
 70
     1
102
RTVSPost2010Prop35
280
     0
102
RTVSPost2010PropOp35
 70
     1
102
RTVSPost2010Prop36
280
     0
102
RTVSPost2010PropOp36
 70
     1
102
RTVSPost2010Prop37
 90
       50
102
RTVSPost2010PropOp37
 70
     0
102
RTVSPost2010Prop38
140
0.0
102
RTVSPost2010PropOp38
 70
     0
102
RTVSPost2010Prop39
140
1.0
102
RTVSPost2010PropOp39
 70
     0
102
RTVSPost2010Prop40
 90
        0
102
RTVSPost2010PropOp40
 70
     0
102
RTVSPost2010Prop41ColorIndex
 90
       18
102
RTVSPost2010Prop41ColorRGB
 90
        0
102
RTVSPost2010PropOp41
 70
     0
102
RTVSPost2010Prop42
 90
       50
102
RTVSPost2010PropOp42
 70
     0
102
RTVSPost2010Prop43
 90
        3
102
RTVSPost2010PropOp43
 70
     0
102
RTVSPost2010Prop44ColorIndex
 90
        5
102
RTVSPost2010Prop44ColorRGB
 90
      255
102
RTVSPost2010PropOp44
 70
     0
102
RTVSPost2010Prop45
280
     0
102
RTVSPost2010PropOp45
 70
     1
102
RTVSPost2010Prop46
 90
       50
102
RTVSPost2010PropOp46
 70
     0
102
RTVSPost2010Prop47
 90
       50
102
RTVSPost2010PropOp47
 70
     0
102
RTVSPost2010Prop48
 90
       50
102
RTVSPost2010PropOp48
 70
     0
102
RTVSPost2010Prop49
280
     0
102
RTVSPost2010PropOp49
 70
     1
102
RTVSPost2010Prop50
 90
       50
102
RTVSPost2010PropOp50
 70
     0
102
RTVSPost2010Prop51ColorIndex
 90
      256
102
RTVSPost2010Prop51ColorRGB
 90
-16777216
102
RTVSPost2010PropOp51
 70
     0
102
RTVSPost2010Prop52
140
1.0
102
RTVSPost2010PropOp52
 70
     0
102
RTVSPost2010Prop53
 90
        2
102
RTVSPost2010PropOp53
 70
     0
102
RTVSPost2010Prop54
  1
strokes_ogs.tif
102
RTVSPost2010PropOp54
 70
     0
102
RTVSPost2010Prop55
280
     0
102
RTVSPost2010PropOp55
 70
     1
102
RTVSPost2010Prop56
140
1.0
102
RTVSPost2010PropOp56
 70
     0
102
RTVSPost2010Prop57
140
1.0
102
RTVSPost2010PropOp57
 70
     0
102
RTVSPropertyOp0
 70
     0
102
RTVSPropertyOp1
 70
     0
102
RTVSPropertyOp2
 70
     0
102
RTVSPropertyOp3
 70
     0
102
RTVSPropertyOp4
 70
     0
102
RTVSPropertyOp5
 70
     0
102
RTVSPropertyOp6
 70
     0
102
RTVSPropertyOp7
 70
     0
102
RTVSPropertyOp8
 70
     0
102
RTVSPropertyOp9
 70
     0
102
RTVSPropertyOp10
 70
     0
102
RTVSPropertyOp11
 70
     0
102
RTVSPropertyOp12
 70
     0
102
RTVSPropertyOp13
 70
     0
102
RTVSPropertyOp14
 70
     2
102
RTVSPropertyOp15
 70
     0
102
RTVSPropertyOp16
 70
     0
102
RTVSPropertyOp17
 70
     0
102
RTVSPropertyOp18
 70
     0
102
RTVSPropertyOp19
 70
     0
102
RTVSPropertyOp20
 70
     0
102
RTVSPropertyOp21
 70
     0
102
RTVSPropertyOp22
 70
     0
102
RTVSPropertyOp23
 70
     0
102
RTVSPropertyOp24
 70
     0
102
RTVSPropertyOp25
 70
     0
102
RTVSPropertyOp26
 70
     0
102
RTVSPropertyOp27
 70
     0
102
RTVSPropertyOp28
 70
     1
102
RTVSPropertyOp29
 70
     1
102
RTVSPropertyOp30
 70
     1
102
RTVSPropertyOp31
 70
     1
102
RTVSPropertyOp32
 70
     1
102
RTVSPropertyOp33
 70
     1
102
RTVSPropertyOp34
 70
     1
102
RTVSPropertyOp35
 70
     1
102
RTVSPropertyOp36
 70
     1
102
RTVSPropertyOp37
 70
     0
102
RTVSPropertyOp38
 70
     0
102
RTVSPropertyOp39
 70
     0
102
RTVSPropertyOp40
 70
     0
102
RTVSPropertyOp41
 70
     0
102
RTVSPropertyOp42
 70
     0
102
RTVSPropertyOp43
 70
     0
102
RTVSPropertyOp44
 70
     0
102
RTVSPropertyOp45
 70
     1
102
RTVSPropertyOp46
 70
     0
102
RTVSPropertyOp47
 70
     0
102
RTVSPropertyOp48
 70
     0
102
RTVSPropertyOp49
 70
     1
102
RTVSPropertyOp50
 70
     0
102
RTVSPropertyOp51
 70
     0
102
RTVSPropertyOp52
 70
     0
102
RTVSPropertyOp53
 70
     0
102
RTVSPropertyOp54
 70
     0
102
RTVSPropertyOp55
 70
     1
102
RTVSPropertyOp56
 70
     0
102
RTVSPropertyOp57
 70
     0
102
RTVSPropertyOp58
 70
     0
102
RTVSPropertyOp59
 70
     0
102
RTVSPropertyOp60
 70
     0
102
RTVSPropertyOp61
 70
     0
102
RTVSPropertyOp62
 70
     0
  0
XRECORD
  5
1A53B
102
{ACAD_REACTORS
330
1A53A
102
}
330
1A53A
100
AcDbXrecord
280
     1
102
RTVSPost2010Prop28
280
     0
102
RTVSPost2010PropOp28
 70
     1
102
RTVSPost2010Prop29
280
     1
102
RTVSPost2010PropOp29
 70
     1
102
RTVSPost2010Prop30
280
     1
102
RTVSPost2010PropOp30
 70
     1
102
RTVSPost2010Prop31
280
     0
102
RTVSPost2010PropOp31
 70
     1
102
RTVSPost2010Prop32
280
     0
102
RTVSPost2010PropOp32
 70
     1
102
RTVSPost2010Prop33
280
     0
102
RTVSPost2010PropOp33
 70
     1
102
RTVSPost2010Prop34
280
     0
102
RTVSPost2010PropOp34
 70
     1
102
RTVSPost2010Prop35
280
     0
102
RTVSPost2010PropOp35
 70
     1
102
RTVSPost2010Prop36
280
     0
102
RTVSPost2010PropOp36
 70
     1
102
RTVSPost2010Prop37
 90
       50
102
RTVSPost2010PropOp37
 70
     1
102
RTVSPost2010Prop38
140
0.0
102
RTVSPost2010PropOp38
 70
     1
102
RTVSPost2010Prop39
140
1.0
102
RTVSPost2010PropOp39
 70
     1
102
RTVSPost2010Prop40
 90
        0
102
RTVSPost2010PropOp40
 70
     1
102
RTVSPost2010Prop41ColorIndex
 90
       18
102
RTVSPost2010Prop41ColorRGB
 90
        0
102
RTVSPost2010PropOp41
 70
     1
102
RTVSPost2010Prop42
 90
       50
102
RTVSPost2010PropOp42
 70
     1
102
RTVSPost2010Prop43
 90
        3
102
RTVSPost2010PropOp43
 70
     1
102
RTVSPost2010Prop44ColorIndex
 90
        5
102
RTVSPost2010Prop44ColorRGB
 90
      255
102
RTVSPost2010PropOp44
 70
     1
102
RTVSPost2010Prop45
280
     0
102
RTVSPost2010PropOp45
 70
     1
102
RTVSPost2010Prop46
 90
       50
102
RTVSPost2010PropOp46
 70
     1
102
RTVSPost2010Prop47
 90
       50
102
RTVSPost2010PropOp47
 70
     1
102
RTVSPost2010Prop48
 90
       50
102
RTVSPost2010PropOp48
 70
     1
102
RTVSPost2010Prop49
280
     0
102
RTVSPost2010PropOp49
 70
     1
102
RTVSPost2010Prop50
 90
       50
102
RTVSPost2010PropOp50
 70
     1
102
RTVSPost2010Prop51ColorIndex
 90
      256
102
RTVSPost2010Prop51ColorRGB
 90
-16777216
102
RTVSPost2010PropOp51
 70
     0
102
RTVSPost2010Prop52
140
1.0
102
RTVSPost2010PropOp52
 70
     0
102
RTVSPost2010Prop53
 90
        2
102
RTVSPost2010PropOp53
 70
     1
102
RTVSPost2010Prop54
  1
strokes_ogs.tif
102
RTVSPost2010PropOp54
 70
     1
102
RTVSPost2010Prop55
280
     0
102
RTVSPost2010PropOp55
 70
     1
102
RTVSPost2010Prop56
140
1.0
102
RTVSPost2010PropOp56
 70
     1
102
RTVSPost2010Prop57
140
1.0
102
RTVSPost2010PropOp57
 70
     1
102
RTVSPropertyOp0
 70
     1
102
RTVSPropertyOp1
 70
     1
102
RTVSPropertyOp2
 70
     1
102
RTVSPropertyOp3
 70
     1
102
RTVSPropertyOp4
 70
     1
102
RTVSPropertyOp5
 70
     1
102
RTVSPropertyOp6
 70
     1
102
RTVSPropertyOp7
 70
     1
102
RTVSPropertyOp8
 70
     1
102
RTVSPropertyOp9
 70
     1
102
RTVSPropertyOp10
 70
     1
102
RTVSPropertyOp11
 70
     1
102
RTVSPropertyOp12
 70
     1
102
RTVSPropertyOp13
 70
     1
102
RTVSPropertyOp14
 70
     1
102
RTVSPropertyOp15
 70
     1
102
RTVSPropertyOp16
 70
     1
102
RTVSPropertyOp17
 70
     1
102
RTVSPropertyOp18
 70
     1
102
RTVSPropertyOp19
 70
     1
102
RTVSPropertyOp20
 70
     1
102
RTVSPropertyOp21
 70
     1
102
RTVSPropertyOp22
 70
     1
102
RTVSPropertyOp23
 70
     1
102
RTVSPropertyOp24
 70
     1
102
RTVSPropertyOp25
 70
     1
102
RTVSPropertyOp26
 70
     1
102
RTVSPropertyOp27
 70
     1
102
RTVSPropertyOp28
 70
     1
102
RTVSPropertyOp29
 70
     1
102
RTVSPropertyOp30
 70
     1
102
RTVSPropertyOp31
 70
     1
102
RTVSPropertyOp32
 70
     1
102
RTVSPropertyOp33
 70
     1
102
RTVSPropertyOp34
 70
     1
102
RTVSPropertyOp35
 70
     1
102
RTVSPropertyOp36
 70
     1
102
RTVSPropertyOp37
 70
     1
102
RTVSPropertyOp38
 70
     1
102
RTVSPropertyOp39
 70
     1
102
RTVSPropertyOp40
 70
     1
102
RTVSPropertyOp41
 70
     1
102
RTVSPropertyOp42
 70
     1
102
RTVSPropertyOp43
 70
     1
102
RTVSPropertyOp44
 70
     1
102
RTVSPropertyOp45
 70
     1
102
RTVSPropertyOp46
 70
     1
102
RTVSPropertyOp47
 70
     1
102
RTVSPropertyOp48
 70
     1
102
RTVSPropertyOp49
 70
     1
102
RTVSPropertyOp50
 70
     1
102
RTVSPropertyOp51
 70
     0
102
RTVSPropertyOp52
 70
     0
102
RTVSPropertyOp53
 70
     1
102
RTVSPropertyOp54
 70
     1
102
RTVSPropertyOp55
 70
     1
102
RTVSPropertyOp56
 70
     1
102
RTVSPropertyOp57
 70
     1
102
RTVSPropertyOp58
 70
     1
102
RTVSPropertyOp59
 70
     1
102
RTVSPropertyOp60
 70
     1
102
RTVSPropertyOp61
 70
     1
102
RTVSPropertyOp62
 70
     1
  0
XRECORD
  5
1A54D
102
{ACAD_REACTORS
330
1A54C
102
}
330
1A54C
100
AcDbXrecord
280
     1
102
RTVSPost2010Prop28
280
     0
102
RTVSPost2010PropOp28
 70
     1
102
RTVSPost2010Prop29
280
     1
102
RTVSPost2010PropOp29
 70
     1
102
RTVSPost2010Prop30
280
     1
102
RTVSPost2010PropOp30
 70
     1
102
RTVSPost2010Prop31
280
     0
102
RTVSPost2010PropOp31
 70
     1
102
RTVSPost2010Prop32
280
     0
102
RTVSPost2010PropOp32
 70
     1
102
RTVSPost2010Prop33
280
     0
102
RTVSPost2010PropOp33
 70
     1
102
RTVSPost2010Prop34
280
     0
102
RTVSPost2010PropOp34
 70
     1
102
RTVSPost2010Prop35
280
     0
102
RTVSPost2010PropOp35
 70
     1
102
RTVSPost2010Prop36
280
     0
102
RTVSPost2010PropOp36
 70
     1
102
RTVSPost2010Prop37
 90
       50
102
RTVSPost2010PropOp37
 70
     0
102
RTVSPost2010Prop38
140
0.0
102
RTVSPost2010PropOp38
 70
     0
102
RTVSPost2010Prop39
140
1.0
102
RTVSPost2010PropOp39
 70
     0
102
RTVSPost2010Prop40
 90
        0
102
RTVSPost2010PropOp40
 70
     0
102
RTVSPost2010Prop41ColorIndex
 90
       18
102
RTVSPost2010Prop41ColorRGB
 90
        0
102
RTVSPost2010PropOp41
 70
     0
102
RTVSPost2010Prop42
 90
       50
102
RTVSPost2010PropOp42
 70
     0
102
RTVSPost2010Prop43
 90
        3
102
RTVSPost2010PropOp43
 70
     0
102
RTVSPost2010Prop44ColorIndex
 90
        5
102
RTVSPost2010Prop44ColorRGB
 90
      255
102
RTVSPost2010PropOp44
 70
     0
102
RTVSPost2010Prop45
280
     0
102
RTVSPost2010PropOp45
 70
     1
102
RTVSPost2010Prop46
 90
       50
102
RTVSPost2010PropOp46
 70
     0
102
RTVSPost2010Prop47
 90
       50
102
RTVSPost2010PropOp47
 70
     0
102
RTVSPost2010Prop48
 90
       50
102
RTVSPost2010PropOp48
 70
     0
102
RTVSPost2010Prop49
280
     0
102
RTVSPost2010PropOp49
 70
     1
102
RTVSPost2010Prop50
 90
       50
102
RTVSPost2010PropOp50
 70
     0
102
RTVSPost2010Prop51ColorIndex
 90
      256
102
RTVSPost2010Prop51ColorRGB
 90
-16777216
102
RTVSPost2010PropOp51
 70
     0
102
RTVSPost2010Prop52
140
1.0
102
RTVSPost2010PropOp52
 70
     0
102
RTVSPost2010Prop53
 90
        2
102
RTVSPost2010PropOp53
 70
     0
102
RTVSPost2010Prop54
  1
strokes_ogs.tif
102
RTVSPost2010PropOp54
 70
     0
102
RTVSPost2010Prop55
280
     0
102
RTVSPost2010PropOp55
 70
     1
102
RTVSPost2010Prop56
140
1.0
102
RTVSPost2010PropOp56
 70
     0
102
RTVSPost2010Prop57
140
1.0
102
RTVSPost2010PropOp57
 70
     0
102
RTVSPropertyOp0
 70
     0
102
RTVSPropertyOp1
 70
     0
102
RTVSPropertyOp2
 70
     0
102
RTVSPropertyOp3
 70
     0
102
RTVSPropertyOp4
 70
     0
102
RTVSPropertyOp5
 70
     0
102
RTVSPropertyOp6
 70
     0
102
RTVSPropertyOp7
 70
     0
102
RTVSPropertyOp8
 70
     0
102
RTVSPropertyOp9
 70
     0
102
RTVSPropertyOp10
 70
     0
102
RTVSPropertyOp11
 70
     0
102
RTVSPropertyOp12
 70
     0
102
RTVSPropertyOp13
 70
     0
102
RTVSPropertyOp14
 70
     2
102
RTVSPropertyOp15
 70
     0
102
RTVSPropertyOp16
 70
     0
102
RTVSPropertyOp17
 70
     0
102
RTVSPropertyOp18
 70
     0
102
RTVSPropertyOp19
 70
     0
102
RTVSPropertyOp20
 70
     0
102
RTVSPropertyOp21
 70
     0
102
RTVSPropertyOp22
 70
     0
102
RTVSPropertyOp23
 70
     0
102
RTVSPropertyOp24
 70
     0
102
RTVSPropertyOp25
 70
     0
102
RTVSPropertyOp26
 70
     0
102
RTVSPropertyOp27
 70
     0
102
RTVSPropertyOp28
 70
     1
102
RTVSPropertyOp29
 70
     1
102
RTVSPropertyOp30
 70
     1
102
RTVSPropertyOp31
 70
     1
102
RTVSPropertyOp32
 70
     1
102
RTVSPropertyOp33
 70
     1
102
RTVSPropertyOp34
 70
     1
102
RTVSPropertyOp35
 70
     1
102
RTVSPropertyOp36
 70
     1
102
RTVSPropertyOp37
 70
     0
102
RTVSPropertyOp38
 70
     0
102
RTVSPropertyOp39
 70
     0
102
RTVSPropertyOp40
 70
     0
102
RTVSPropertyOp41
 70
     0
102
RTVSPropertyOp42
 70
     0
102
RTVSPropertyOp43
 70
     0
102
RTVSPropertyOp44
 70
     0
102
RTVSPropertyOp45
 70
     1
102
RTVSPropertyOp46
 70
     0
102
RTVSPropertyOp47
 70
     0
102
RTVSPropertyOp48
 70
     0
102
RTVSPropertyOp49
 70
     1
102
RTVSPropertyOp50
 70
     0
102
RTVSPropertyOp51
 70
     0
102
RTVSPropertyOp52
 70
     0
102
RTVSPropertyOp53
 70
     0
102
RTVSPropertyOp54
 70
     0
102
RTVSPropertyOp55
 70
     1
102
RTVSPropertyOp56
 70
     0
102
RTVSPropertyOp57
 70
     0
102
RTVSPropertyOp58
 70
     0
102
RTVSPropertyOp59
 70
     0
102
RTVSPropertyOp60
 70
     0
102
RTVSPropertyOp61
 70
     0
102
RTVSPropertyOp62
 70
     0
  0
XRECORD
  5
1A533
102
{ACAD_REACTORS
330
1A532
102
}
330
1A532
100
AcDbXrecord
280
     1
102
RTVSPost2010Prop28
280
     0
102
RTVSPost2010PropOp28
 70
     1
102
RTVSPost2010Prop29
280
     1
102
RTVSPost2010PropOp29
 70
     1
102
RTVSPost2010Prop30
280
     1
102
RTVSPost2010PropOp30
 70
     1
102
RTVSPost2010Prop31
280
     0
102
RTVSPost2010PropOp31
 70
     1
102
RTVSPost2010Prop32
280
     0
102
RTVSPost2010PropOp32
 70
     1
102
RTVSPost2010Prop33
280
     0
102
RTVSPost2010PropOp33
 70
     1
102
RTVSPost2010Prop34
280
     0
102
RTVSPost2010PropOp34
 70
     1
102
RTVSPost2010Prop35
280
     0
102
RTVSPost2010PropOp35
 70
     1
102
RTVSPost2010Prop36
280
     0
102
RTVSPost2010PropOp36
 70
     1
102
RTVSPost2010Prop37
 90
       50
102
RTVSPost2010PropOp37
 70
     1
102
RTVSPost2010Prop38
140
0.0
102
RTVSPost2010PropOp38
 70
     1
102
RTVSPost2010Prop39
140
1.0
102
RTVSPost2010PropOp39
 70
     1
102
RTVSPost2010Prop40
 90
        0
102
RTVSPost2010PropOp40
 70
     1
102
RTVSPost2010Prop41ColorIndex
 90
       18
102
RTVSPost2010Prop41ColorRGB
 90
        0
102
RTVSPost2010PropOp41
 70
     1
102
RTVSPost2010Prop42
 90
       50
102
RTVSPost2010PropOp42
 70
     1
102
RTVSPost2010Prop43
 90
        3
102
RTVSPost2010PropOp43
 70
     1
102
RTVSPost2010Prop44ColorIndex
 90
        5
102
RTVSPost2010Prop44ColorRGB
 90
      255
102
RTVSPost2010PropOp44
 70
     1
102
RTVSPost2010Prop45
280
     0
102
RTVSPost2010PropOp45
 70
     1
102
RTVSPost2010Prop46
 90
       50
102
RTVSPost2010PropOp46
 70
     1
102
RTVSPost2010Prop47
 90
       50
102
RTVSPost2010PropOp47
 70
     1
102
RTVSPost2010Prop48
 90
       50
102
RTVSPost2010PropOp48
 70
     1
102
RTVSPost2010Prop49
280
     0
102
RTVSPost2010PropOp49
 70
     1
102
RTVSPost2010Prop50
 90
       50
102
RTVSPost2010PropOp50
 70
     1
102
RTVSPost2010Prop51ColorIndex
 90
      256
102
RTVSPost2010Prop51ColorRGB
 90
-16777216
102
RTVSPost2010PropOp51
 70
     0
102
RTVSPost2010Prop52
140
1.0
102
RTVSPost2010PropOp52
 70
     0
102
RTVSPost2010Prop53
 90
        2
102
RTVSPost2010PropOp53
 70
     1
102
RTVSPost2010Prop54
  1
strokes_ogs.tif
102
RTVSPost2010PropOp54
 70
     1
102
RTVSPost2010Prop55
280
     0
102
RTVSPost2010PropOp55
 70
     1
102
RTVSPost2010Prop56
140
1.0
102
RTVSPost2010PropOp56
 70
     1
102
RTVSPost2010Prop57
140
1.0
102
RTVSPost2010PropOp57
 70
     1
102
RTVSPropertyOp0
 70
     1
102
RTVSPropertyOp1
 70
     1
102
RTVSPropertyOp2
 70
     1
102
RTVSPropertyOp3
 70
     1
102
RTVSPropertyOp4
 70
     1
102
RTVSPropertyOp5
 70
     1
102
RTVSPropertyOp6
 70
     1
102
RTVSPropertyOp7
 70
     1
102
RTVSPropertyOp8
 70
     1
102
RTVSPropertyOp9
 70
     1
102
RTVSPropertyOp10
 70
     1
102
RTVSPropertyOp11
 70
     1
102
RTVSPropertyOp12
 70
     1
102
RTVSPropertyOp13
 70
     1
102
RTVSPropertyOp14
 70
     1
102
RTVSPropertyOp15
 70
     1
102
RTVSPropertyOp16
 70
     1
102
RTVSPropertyOp17
 70
     1
102
RTVSPropertyOp18
 70
     1
102
RTVSPropertyOp19
 70
     1
102
RTVSPropertyOp20
 70
     1
102
RTVSPropertyOp21
 70
     1
102
RTVSPropertyOp22
 70
     1
102
RTVSPropertyOp23
 70
     1
102
RTVSPropertyOp24
 70
     1
102
RTVSPropertyOp25
 70
     1
102
RTVSPropertyOp26
 70
     1
102
RTVSPropertyOp27
 70
     1
102
RTVSPropertyOp28
 70
     1
102
RTVSPropertyOp29
 70
     1
102
RTVSPropertyOp30
 70
     1
102
RTVSPropertyOp31
 70
     1
102
RTVSPropertyOp32
 70
     1
102
RTVSPropertyOp33
 70
     1
102
RTVSPropertyOp34
 70
     1
102
RTVSPropertyOp35
 70
     1
102
RTVSPropertyOp36
 70
     1
102
RTVSPropertyOp37
 70
     1
102
RTVSPropertyOp38
 70
     1
102
RTVSPropertyOp39
 70
     1
102
RTVSPropertyOp40
 70
     1
102
RTVSPropertyOp41
 70
     1
102
RTVSPropertyOp42
 70
     1
102
RTVSPropertyOp43
 70
     1
102
RTVSPropertyOp44
 70
     1
102
RTVSPropertyOp45
 70
     1
102
RTVSPropertyOp46
 70
     1
102
RTVSPropertyOp47
 70
     1
102
RTVSPropertyOp48
 70
     1
102
RTVSPropertyOp49
 70
     1
102
RTVSPropertyOp50
 70
     1
102
RTVSPropertyOp51
 70
     0
102
RTVSPropertyOp52
 70
     0
102
RTVSPropertyOp53
 70
     1
102
RTVSPropertyOp54
 70
     1
102
RTVSPropertyOp55
 70
     1
102
RTVSPropertyOp56
 70
     1
102
RTVSPropertyOp57
 70
     1
102
RTVSPropertyOp58
 70
     1
102
RTVSPropertyOp59
 70
     1
102
RTVSPropertyOp60
 70
     1
102
RTVSPropertyOp61
 70
     1
102
RTVSPropertyOp62
 70
     1
  0
XRECORD
  5
1A549
102
{ACAD_REACTORS
330
1A548
102
}
330
1A548
100
AcDbXrecord
280
     1
102
RTVSPost2010Prop28
280
     0
102
RTVSPost2010PropOp28
 70
     1
102
RTVSPost2010Prop29
280
     1
102
RTVSPost2010PropOp29
 70
     1
102
RTVSPost2010Prop30
280
     1
102
RTVSPost2010PropOp30
 70
     1
102
RTVSPost2010Prop31
280
     0
102
RTVSPost2010PropOp31
 70
     1
102
RTVSPost2010Prop32
280
     0
102
RTVSPost2010PropOp32
 70
     1
102
RTVSPost2010Prop33
280
     0
102
RTVSPost2010PropOp33
 70
     1
102
RTVSPost2010Prop34
280
     0
102
RTVSPost2010PropOp34
 70
     1
102
RTVSPost2010Prop35
280
     0
102
RTVSPost2010PropOp35
 70
     1
102
RTVSPost2010Prop36
280
     0
102
RTVSPost2010PropOp36
 70
     1
102
RTVSPost2010Prop37
 90
       50
102
RTVSPost2010PropOp37
 70
     1
102
RTVSPost2010Prop38
140
0.0
102
RTVSPost2010PropOp38
 70
     1
102
RTVSPost2010Prop39
140
1.0
102
RTVSPost2010PropOp39
 70
     1
102
RTVSPost2010Prop40
 90
        0
102
RTVSPost2010PropOp40
 70
     1
102
RTVSPost2010Prop41ColorIndex
 90
       18
102
RTVSPost2010Prop41ColorRGB
 90
        0
102
RTVSPost2010PropOp41
 70
     1
102
RTVSPost2010Prop42
 90
       50
102
RTVSPost2010PropOp42
 70
     1
102
RTVSPost2010Prop43
 90
        3
102
RTVSPost2010PropOp43
 70
     1
102
RTVSPost2010Prop44ColorIndex
 90
        5
102
RTVSPost2010Prop44ColorRGB
 90
      255
102
RTVSPost2010PropOp44
 70
     1
102
RTVSPost2010Prop45
280
     0
102
RTVSPost2010PropOp45
 70
     1
102
RTVSPost2010Prop46
 90
       50
102
RTVSPost2010PropOp46
 70
     1
102
RTVSPost2010Prop47
 90
       50
102
RTVSPost2010PropOp47
 70
     1
102
RTVSPost2010Prop48
 90
       50
102
RTVSPost2010PropOp48
 70
     1
102
RTVSPost2010Prop49
280
     0
102
RTVSPost2010PropOp49
 70
     1
102
RTVSPost2010Prop50
 90
       50
102
RTVSPost2010PropOp50
 70
     1
102
RTVSPost2010Prop51ColorIndex
 90
      256
102
RTVSPost2010Prop51ColorRGB
 90
-16777216
102
RTVSPost2010PropOp51
 70
     0
102
RTVSPost2010Prop52
140
1.0
102
RTVSPost2010PropOp52
 70
     0
102
RTVSPost2010Prop53
 90
        2
102
RTVSPost2010PropOp53
 70
     1
102
RTVSPost2010Prop54
  1
strokes_ogs.tif
102
RTVSPost2010PropOp54
 70
     1
102
RTVSPost2010Prop55
280
     0
102
RTVSPost2010PropOp55
 70
     1
102
RTVSPost2010Prop56
140
1.0
102
RTVSPost2010PropOp56
 70
     1
102
RTVSPost2010Prop57
140
1.0
102
RTVSPost2010PropOp57
 70
     1
102
RTVSPropertyOp0
 70
     1
102
RTVSPropertyOp1
 70
     1
102
RTVSPropertyOp2
 70
     1
102
RTVSPropertyOp3
 70
     1
102
RTVSPropertyOp4
 70
     1
102
RTVSPropertyOp5
 70
     1
102
RTVSPropertyOp6
 70
     1
102
RTVSPropertyOp7
 70
     1
102
RTVSPropertyOp8
 70
     1
102
RTVSPropertyOp9
 70
     1
102
RTVSPropertyOp10
 70
     1
102
RTVSPropertyOp11
 70
     1
102
RTVSPropertyOp12
 70
     1
102
RTVSPropertyOp13
 70
     1
102
RTVSPropertyOp14
 70
     1
102
RTVSPropertyOp15
 70
     1
102
RTVSPropertyOp16
 70
     1
102
RTVSPropertyOp17
 70
     1
102
RTVSPropertyOp18
 70
     1
102
RTVSPropertyOp19
 70
     1
102
RTVSPropertyOp20
 70
     1
102
RTVSPropertyOp21
 70
     1
102
RTVSPropertyOp22
 70
     1
102
RTVSPropertyOp23
 70
     1
102
RTVSPropertyOp24
 70
     1
102
RTVSPropertyOp25
 70
     1
102
RTVSPropertyOp26
 70
     1
102
RTVSPropertyOp27
 70
     1
102
RTVSPropertyOp28
 70
     1
102
RTVSPropertyOp29
 70
     1
102
RTVSPropertyOp30
 70
     1
102
RTVSPropertyOp31
 70
     1
102
RTVSPropertyOp32
 70
     1
102
RTVSPropertyOp33
 70
     1
102
RTVSPropertyOp34
 70
     1
102
RTVSPropertyOp35
 70
     1
102
RTVSPropertyOp36
 70
     1
102
RTVSPropertyOp37
 70
     1
102
RTVSPropertyOp38
 70
     1
102
RTVSPropertyOp39
 70
     1
102
RTVSPropertyOp40
 70
     1
102
RTVSPropertyOp41
 70
     1
102
RTVSPropertyOp42
 70
     1
102
RTVSPropertyOp43
 70
     1
102
RTVSPropertyOp44
 70
     1
102
RTVSPropertyOp45
 70
     1
102
RTVSPropertyOp46
 70
     1
102
RTVSPropertyOp47
 70
     1
102
RTVSPropertyOp48
 70
     1
102
RTVSPropertyOp49
 70
     1
102
RTVSPropertyOp50
 70
     1
102
RTVSPropertyOp51
 70
     0
102
RTVSPropertyOp52
 70
     0
102
RTVSPropertyOp53
 70
     1
102
RTVSPropertyOp54
 70
     1
102
RTVSPropertyOp55
 70
     1
102
RTVSPropertyOp56
 70
     1
102
RTVSPropertyOp57
 70
     1
102
RTVSPropertyOp58
 70
     1
102
RTVSPropertyOp59
 70
     1
102
RTVSPropertyOp60
 70
     1
102
RTVSPropertyOp61
 70
     1
102
RTVSPropertyOp62
 70
     1
  0
XRECORD
  5
1A547
102
{ACAD_REACTORS
330
1A546
102
}
330
1A546
100
AcDbXrecord
280
     1
102
RTVSPost2010Prop28
280
     0
102
RTVSPost2010PropOp28
 70
     1
102
RTVSPost2010Prop29
280
     1
102
RTVSPost2010PropOp29
 70
     1
102
RTVSPost2010Prop30
280
     1
102
RTVSPost2010PropOp30
 70
     1
102
RTVSPost2010Prop31
280
     0
102
RTVSPost2010PropOp31
 70
     1
102
RTVSPost2010Prop32
280
     0
102
RTVSPost2010PropOp32
 70
     1
102
RTVSPost2010Prop33
280
     0
102
RTVSPost2010PropOp33
 70
     1
102
RTVSPost2010Prop34
280
     0
102
RTVSPost2010PropOp34
 70
     1
102
RTVSPost2010Prop35
280
     0
102
RTVSPost2010PropOp35
 70
     1
102
RTVSPost2010Prop36
280
     0
102
RTVSPost2010PropOp36
 70
     1
102
RTVSPost2010Prop37
 90
       50
102
RTVSPost2010PropOp37
 70
     1
102
RTVSPost2010Prop38
140
0.0
102
RTVSPost2010PropOp38
 70
     1
102
RTVSPost2010Prop39
140
1.0
102
RTVSPost2010PropOp39
 70
     1
102
RTVSPost2010Prop40
 90
        0
102
RTVSPost2010PropOp40
 70
     1
102
RTVSPost2010Prop41ColorIndex
 90
       18
102
RTVSPost2010Prop41ColorRGB
 90
        0
102
RTVSPost2010PropOp41
 70
     1
102
RTVSPost2010Prop42
 90
       50
102
RTVSPost2010PropOp42
 70
     1
102
RTVSPost2010Prop43
 90
        3
102
RTVSPost2010PropOp43
 70
     1
102
RTVSPost2010Prop44ColorIndex
 90
        5
102
RTVSPost2010Prop44ColorRGB
 90
      255
102
RTVSPost2010PropOp44
 70
     1
102
RTVSPost2010Prop45
280
     0
102
RTVSPost2010PropOp45
 70
     1
102
RTVSPost2010Prop46
 90
       50
102
RTVSPost2010PropOp46
 70
     1
102
RTVSPost2010Prop47
 90
       50
102
RTVSPost2010PropOp47
 70
     1
102
RTVSPost2010Prop48
 90
       50
102
RTVSPost2010PropOp48
 70
     1
102
RTVSPost2010Prop49
280
     0
102
RTVSPost2010PropOp49
 70
     1
102
RTVSPost2010Prop50
 90
       50
102
RTVSPost2010PropOp50
 70
     1
102
RTVSPost2010Prop51ColorIndex
 90
      256
102
RTVSPost2010Prop51ColorRGB
 90
-16777216
102
RTVSPost2010PropOp51
 70
     0
102
RTVSPost2010Prop52
140
1.0
102
RTVSPost2010PropOp52
 70
     0
102
RTVSPost2010Prop53
 90
        2
102
RTVSPost2010PropOp53
 70
     1
102
RTVSPost2010Prop54
  1
strokes_ogs.tif
102
RTVSPost2010PropOp54
 70
     1
102
RTVSPost2010Prop55
280
     0
102
RTVSPost2010PropOp55
 70
     1
102
RTVSPost2010Prop56
140
1.0
102
RTVSPost2010PropOp56
 70
     1
102
RTVSPost2010Prop57
140
1.0
102
RTVSPost2010PropOp57
 70
     1
102
RTVSPropertyOp0
 70
     1
102
RTVSPropertyOp1
 70
     1
102
RTVSPropertyOp2
 70
     1
102
RTVSPropertyOp3
 70
     1
102
RTVSPropertyOp4
 70
     1
102
RTVSPropertyOp5
 70
     1
102
RTVSPropertyOp6
 70
     1
102
RTVSPropertyOp7
 70
     1
102
RTVSPropertyOp8
 70
     1
102
RTVSPropertyOp9
 70
     1
102
RTVSPropertyOp10
 70
     1
102
RTVSPropertyOp11
 70
     1
102
RTVSPropertyOp12
 70
     1
102
RTVSPropertyOp13
 70
     1
102
RTVSPropertyOp14
 70
     1
102
RTVSPropertyOp15
 70
     1
102
RTVSPropertyOp16
 70
     1
102
RTVSPropertyOp17
 70
     1
102
RTVSPropertyOp18
 70
     1
102
RTVSPropertyOp19
 70
     1
102
RTVSPropertyOp20
 70
     1
102
RTVSPropertyOp21
 70
     1
102
RTVSPropertyOp22
 70
     1
102
RTVSPropertyOp23
 70
     1
102
RTVSPropertyOp24
 70
     1
102
RTVSPropertyOp25
 70
     1
102
RTVSPropertyOp26
 70
     1
102
RTVSPropertyOp27
 70
     1
102
RTVSPropertyOp28
 70
     1
102
RTVSPropertyOp29
 70
     1
102
RTVSPropertyOp30
 70
     1
102
RTVSPropertyOp31
 70
     1
102
RTVSPropertyOp32
 70
     1
102
RTVSPropertyOp33
 70
     1
102
RTVSPropertyOp34
 70
     1
102
RTVSPropertyOp35
 70
     1
102
RTVSPropertyOp36
 70
     1
102
RTVSPropertyOp37
 70
     1
102
RTVSPropertyOp38
 70
     1
102
RTVSPropertyOp39
 70
     1
102
RTVSPropertyOp40
 70
     1
102
RTVSPropertyOp41
 70
     1
102
RTVSPropertyOp42
 70
     1
102
RTVSPropertyOp43
 70
     1
102
RTVSPropertyOp44
 70
     1
102
RTVSPropertyOp45
 70
     1
102
RTVSPropertyOp46
 70
     1
102
RTVSPropertyOp47
 70
     1
102
RTVSPropertyOp48
 70
     1
102
RTVSPropertyOp49
 70
     1
102
RTVSPropertyOp50
 70
     1
102
RTVSPropertyOp51
 70
     0
102
RTVSPropertyOp52
 70
     0
102
RTVSPropertyOp53
 70
     1
102
RTVSPropertyOp54
 70
     1
102
RTVSPropertyOp55
 70
     1
102
RTVSPropertyOp56
 70
     1
102
RTVSPropertyOp57
 70
     1
102
RTVSPropertyOp58
 70
     1
102
RTVSPropertyOp59
 70
     1
102
RTVSPropertyOp60
 70
     1
102
RTVSPropertyOp61
 70
     1
102
RTVSPropertyOp62
 70
     1
  0
XRECORD
  5
1A541
102
{ACAD_REACTORS
330
1A540
102
}
330
1A540
100
AcDbXrecord
280
     1
102
RTVSPost2010Prop28
280
     0
102
RTVSPost2010PropOp28
 70
     1
102
RTVSPost2010Prop29
280
     1
102
RTVSPost2010PropOp29
 70
     1
102
RTVSPost2010Prop30
280
     1
102
RTVSPost2010PropOp30
 70
     1
102
RTVSPost2010Prop31
280
     0
102
RTVSPost2010PropOp31
 70
     1
102
RTVSPost2010Prop32
280
     0
102
RTVSPost2010PropOp32
 70
     1
102
RTVSPost2010Prop33
280
     0
102
RTVSPost2010PropOp33
 70
     1
102
RTVSPost2010Prop34
280
     0
102
RTVSPost2010PropOp34
 70
     1
102
RTVSPost2010Prop35
280
     0
102
RTVSPost2010PropOp35
 70
     1
102
RTVSPost2010Prop36
280
     0
102
RTVSPost2010PropOp36
 70
     1
102
RTVSPost2010Prop37
 90
       50
102
RTVSPost2010PropOp37
 70
     1
102
RTVSPost2010Prop38
140
0.0
102
RTVSPost2010PropOp38
 70
     1
102
RTVSPost2010Prop39
140
1.0
102
RTVSPost2010PropOp39
 70
     1
102
RTVSPost2010Prop40
 90
        0
102
RTVSPost2010PropOp40
 70
     1
102
RTVSPost2010Prop41ColorIndex
 90
       18
102
RTVSPost2010Prop41ColorRGB
 90
        0
102
RTVSPost2010PropOp41
 70
     1
102
RTVSPost2010Prop42
 90
       50
102
RTVSPost2010PropOp42
 70
     1
102
RTVSPost2010Prop43
 90
        3
102
RTVSPost2010PropOp43
 70
     1
102
RTVSPost2010Prop44ColorIndex
 90
        5
102
RTVSPost2010Prop44ColorRGB
 90
      255
102
RTVSPost2010PropOp44
 70
     1
102
RTVSPost2010Prop45
280
     0
102
RTVSPost2010PropOp45
 70
     1
102
RTVSPost2010Prop46
 90
       50
102
RTVSPost2010PropOp46
 70
     1
102
RTVSPost2010Prop47
 90
       50
102
RTVSPost2010PropOp47
 70
     1
102
RTVSPost2010Prop48
 90
       50
102
RTVSPost2010PropOp48
 70
     1
102
RTVSPost2010Prop49
280
     0
102
RTVSPost2010PropOp49
 70
     1
102
RTVSPost2010Prop50
 90
       50
102
RTVSPost2010PropOp50
 70
     1
102
RTVSPost2010Prop51ColorIndex
 90
      256
102
RTVSPost2010Prop51ColorRGB
 90
-16777216
102
RTVSPost2010PropOp51
 70
     0
102
RTVSPost2010Prop52
140
1.0
102
RTVSPost2010PropOp52
 70
     0
102
RTVSPost2010Prop53
 90
        2
102
RTVSPost2010PropOp53
 70
     1
102
RTVSPost2010Prop54
  1
strokes_ogs.tif
102
RTVSPost2010PropOp54
 70
     1
102
RTVSPost2010Prop55
280
     0
102
RTVSPost2010PropOp55
 70
     1
102
RTVSPost2010Prop56
140
1.0
102
RTVSPost2010PropOp56
 70
     1
102
RTVSPost2010Prop57
140
1.0
102
RTVSPost2010PropOp57
 70
     1
102
RTVSPropertyOp0
 70
     1
102
RTVSPropertyOp1
 70
     1
102
RTVSPropertyOp2
 70
     1
102
RTVSPropertyOp3
 70
     1
102
RTVSPropertyOp4
 70
     1
102
RTVSPropertyOp5
 70
     1
102
RTVSPropertyOp6
 70
     1
102
RTVSPropertyOp7
 70
     1
102
RTVSPropertyOp8
 70
     1
102
RTVSPropertyOp9
 70
     1
102
RTVSPropertyOp10
 70
     1
102
RTVSPropertyOp11
 70
     1
102
RTVSPropertyOp12
 70
     1
102
RTVSPropertyOp13
 70
     1
102
RTVSPropertyOp14
 70
     1
102
RTVSPropertyOp15
 70
     1
102
RTVSPropertyOp16
 70
     1
102
RTVSPropertyOp17
 70
     1
102
RTVSPropertyOp18
 70
     1
102
RTVSPropertyOp19
 70
     1
102
RTVSPropertyOp20
 70
     1
102
RTVSPropertyOp21
 70
     1
102
RTVSPropertyOp22
 70
     1
102
RTVSPropertyOp23
 70
     1
102
RTVSPropertyOp24
 70
     1
102
RTVSPropertyOp25
 70
     1
102
RTVSPropertyOp26
 70
     1
102
RTVSPropertyOp27
 70
     1
102
RTVSPropertyOp28
 70
     1
102
RTVSPropertyOp29
 70
     1
102
RTVSPropertyOp30
 70
     1
102
RTVSPropertyOp31
 70
     1
102
RTVSPropertyOp32
 70
     1
102
RTVSPropertyOp33
 70
     1
102
RTVSPropertyOp34
 70
     1
102
RTVSPropertyOp35
 70
     1
102
RTVSPropertyOp36
 70
     1
102
RTVSPropertyOp37
 70
     1
102
RTVSPropertyOp38
 70
     1
102
RTVSPropertyOp39
 70
     1
102
RTVSPropertyOp40
 70
     1
102
RTVSPropertyOp41
 70
     1
102
RTVSPropertyOp42
 70
     1
102
RTVSPropertyOp43
 70
     1
102
RTVSPropertyOp44
 70
     1
102
RTVSPropertyOp45
 70
     1
102
RTVSPropertyOp46
 70
     1
102
RTVSPropertyOp47
 70
     1
102
RTVSPropertyOp48
 70
     1
102
RTVSPropertyOp49
 70
     1
102
RTVSPropertyOp50
 70
     1
102
RTVSPropertyOp51
 70
     0
102
RTVSPropertyOp52
 70
     0
102
RTVSPropertyOp53
 70
     1
102
RTVSPropertyOp54
 70
     1
102
RTVSPropertyOp55
 70
     1
102
RTVSPropertyOp56
 70
     1
102
RTVSPropertyOp57
 70
     1
102
RTVSPropertyOp58
 70
     1
102
RTVSPropertyOp59
 70
     1
102
RTVSPropertyOp60
 70
     1
102
RTVSPropertyOp61
 70
     1
102
RTVSPropertyOp62
 70
     1
  0
XRECORD
  5
1A543
102
{ACAD_REACTORS
330
1A542
102
}
330
1A542
100
AcDbXrecord
280
     1
102
RTVSPost2010Prop28
280
     0
102
RTVSPost2010PropOp28
 70
     1
102
RTVSPost2010Prop29
280
     1
102
RTVSPost2010PropOp29
 70
     1
102
RTVSPost2010Prop30
280
     1
102
RTVSPost2010PropOp30
 70
     1
102
RTVSPost2010Prop31
280
     0
102
RTVSPost2010PropOp31
 70
     1
102
RTVSPost2010Prop32
280
     0
102
RTVSPost2010PropOp32
 70
     1
102
RTVSPost2010Prop33
280
     0
102
RTVSPost2010PropOp33
 70
     1
102
RTVSPost2010Prop34
280
     0
102
RTVSPost2010PropOp34
 70
     1
102
RTVSPost2010Prop35
280
     0
102
RTVSPost2010PropOp35
 70
     1
102
RTVSPost2010Prop36
280
     0
102
RTVSPost2010PropOp36
 70
     1
102
RTVSPost2010Prop37
 90
       50
102
RTVSPost2010PropOp37
 70
     1
102
RTVSPost2010Prop38
140
0.0
102
RTVSPost2010PropOp38
 70
     1
102
RTVSPost2010Prop39
140
1.0
102
RTVSPost2010PropOp39
 70
     1
102
RTVSPost2010Prop40
 90
        0
102
RTVSPost2010PropOp40
 70
     1
102
RTVSPost2010Prop41ColorIndex
 90
       18
102
RTVSPost2010Prop41ColorRGB
 90
        0
102
RTVSPost2010PropOp41
 70
     1
102
RTVSPost2010Prop42
 90
       50
102
RTVSPost2010PropOp42
 70
     1
102
RTVSPost2010Prop43
 90
        3
102
RTVSPost2010PropOp43
 70
     1
102
RTVSPost2010Prop44ColorIndex
 90
        5
102
RTVSPost2010Prop44ColorRGB
 90
      255
102
RTVSPost2010PropOp44
 70
     1
102
RTVSPost2010Prop45
280
     0
102
RTVSPost2010PropOp45
 70
     1
102
RTVSPost2010Prop46
 90
       50
102
RTVSPost2010PropOp46
 70
     1
102
RTVSPost2010Prop47
 90
       50
102
RTVSPost2010PropOp47
 70
     1
102
RTVSPost2010Prop48
 90
       50
102
RTVSPost2010PropOp48
 70
     1
102
RTVSPost2010Prop49
280
     0
102
RTVSPost2010PropOp49
 70
     1
102
RTVSPost2010Prop50
 90
       50
102
RTVSPost2010PropOp50
 70
     1
102
RTVSPost2010Prop51ColorIndex
 90
      256
102
RTVSPost2010Prop51ColorRGB
 90
-16777216
102
RTVSPost2010PropOp51
 70
     0
102
RTVSPost2010Prop52
140
1.0
102
RTVSPost2010PropOp52
 70
     0
102
RTVSPost2010Prop53
 90
        2
102
RTVSPost2010PropOp53
 70
     1
102
RTVSPost2010Prop54
  1
strokes_ogs.tif
102
RTVSPost2010PropOp54
 70
     1
102
RTVSPost2010Prop55
280
     0
102
RTVSPost2010PropOp55
 70
     1
102
RTVSPost2010Prop56
140
1.0
102
RTVSPost2010PropOp56
 70
     1
102
RTVSPost2010Prop57
140
1.0
102
RTVSPost2010PropOp57
 70
     1
102
RTVSPropertyOp0
 70
     1
102
RTVSPropertyOp1
 70
     1
102
RTVSPropertyOp2
 70
     1
102
RTVSPropertyOp3
 70
     1
102
RTVSPropertyOp4
 70
     1
102
RTVSPropertyOp5
 70
     1
102
RTVSPropertyOp6
 70
     1
102
RTVSPropertyOp7
 70
     1
102
RTVSPropertyOp8
 70
     1
102
RTVSPropertyOp9
 70
     1
102
RTVSPropertyOp10
 70
     1
102
RTVSPropertyOp11
 70
     1
102
RTVSPropertyOp12
 70
     1
102
RTVSPropertyOp13
 70
     1
102
RTVSPropertyOp14
 70
     1
102
RTVSPropertyOp15
 70
     1
102
RTVSPropertyOp16
 70
     1
102
RTVSPropertyOp17
 70
     1
102
RTVSPropertyOp18
 70
     1
102
RTVSPropertyOp19
 70
     1
102
RTVSPropertyOp20
 70
     1
102
RTVSPropertyOp21
 70
     1
102
RTVSPropertyOp22
 70
     1
102
RTVSPropertyOp23
 70
     1
102
RTVSPropertyOp24
 70
     1
102
RTVSPropertyOp25
 70
     1
102
RTVSPropertyOp26
 70
     1
102
RTVSPropertyOp27
 70
     1
102
RTVSPropertyOp28
 70
     1
102
RTVSPropertyOp29
 70
     1
102
RTVSPropertyOp30
 70
     1
102
RTVSPropertyOp31
 70
     1
102
RTVSPropertyOp32
 70
     1
102
RTVSPropertyOp33
 70
     1
102
RTVSPropertyOp34
 70
     1
102
RTVSPropertyOp35
 70
     1
102
RTVSPropertyOp36
 70
     1
102
RTVSPropertyOp37
 70
     1
102
RTVSPropertyOp38
 70
     1
102
RTVSPropertyOp39
 70
     1
102
RTVSPropertyOp40
 70
     1
102
RTVSPropertyOp41
 70
     1
102
RTVSPropertyOp42
 70
     1
102
RTVSPropertyOp43
 70
     1
102
RTVSPropertyOp44
 70
     1
102
RTVSPropertyOp45
 70
     1
102
RTVSPropertyOp46
 70
     1
102
RTVSPropertyOp47
 70
     1
102
RTVSPropertyOp48
 70
     1
102
RTVSPropertyOp49
 70
     1
102
RTVSPropertyOp50
 70
     1
102
RTVSPropertyOp51
 70
     0
102
RTVSPropertyOp52
 70
     0
102
RTVSPropertyOp53
 70
     1
102
RTVSPropertyOp54
 70
     1
102
RTVSPropertyOp55
 70
     1
102
RTVSPropertyOp56
 70
     1
102
RTVSPropertyOp57
 70
     1
102
RTVSPropertyOp58
 70
     1
102
RTVSPropertyOp59
 70
     1
102
RTVSPropertyOp60
 70
     1
102
RTVSPropertyOp61
 70
     1
102
RTVSPropertyOp62
 70
     1
  0
XRECORD
  5
1A539
102
{ACAD_REACTORS
330
1A538
102
}
330
1A538
100
AcDbXrecord
280
     1
102
RTVSPost2010Prop28
280
     0
102
RTVSPost2010PropOp28
 70
     1
102
RTVSPost2010Prop29
280
     1
102
RTVSPost2010PropOp29
 70
     1
102
RTVSPost2010Prop30
280
     1
102
RTVSPost2010PropOp30
 70
     1
102
RTVSPost2010Prop31
280
     0
102
RTVSPost2010PropOp31
 70
     1
102
RTVSPost2010Prop32
280
     0
102
RTVSPost2010PropOp32
 70
     1
102
RTVSPost2010Prop33
280
     0
102
RTVSPost2010PropOp33
 70
     1
102
RTVSPost2010Prop34
280
     0
102
RTVSPost2010PropOp34
 70
     1
102
RTVSPost2010Prop35
280
     0
102
RTVSPost2010PropOp35
 70
     1
102
RTVSPost2010Prop36
280
     0
102
RTVSPost2010PropOp36
 70
     1
102
RTVSPost2010Prop37
 90
       50
102
RTVSPost2010PropOp37
 70
     1
102
RTVSPost2010Prop38
140
0.0
102
RTVSPost2010PropOp38
 70
     1
102
RTVSPost2010Prop39
140
1.0
102
RTVSPost2010PropOp39
 70
     1
102
RTVSPost2010Prop40
 90
        0
102
RTVSPost2010PropOp40
 70
     1
102
RTVSPost2010Prop41ColorIndex
 90
       18
102
RTVSPost2010Prop41ColorRGB
 90
        0
102
RTVSPost2010PropOp41
 70
     1
102
RTVSPost2010Prop42
 90
       50
102
RTVSPost2010PropOp42
 70
     1
102
RTVSPost2010Prop43
 90
        3
102
RTVSPost2010PropOp43
 70
     1
102
RTVSPost2010Prop44ColorIndex
 90
        5
102
RTVSPost2010Prop44ColorRGB
 90
      255
102
RTVSPost2010PropOp44
 70
     1
102
RTVSPost2010Prop45
280
     0
102
RTVSPost2010PropOp45
 70
     1
102
RTVSPost2010Prop46
 90
       50
102
RTVSPost2010PropOp46
 70
     1
102
RTVSPost2010Prop47
 90
       50
102
RTVSPost2010PropOp47
 70
     1
102
RTVSPost2010Prop48
 90
       50
102
RTVSPost2010PropOp48
 70
     1
102
RTVSPost2010Prop49
280
     0
102
RTVSPost2010PropOp49
 70
     1
102
RTVSPost2010Prop50
 90
       50
102
RTVSPost2010PropOp50
 70
     1
102
RTVSPost2010Prop51ColorIndex
 90
      256
102
RTVSPost2010Prop51ColorRGB
 90
-16777216
102
RTVSPost2010PropOp51
 70
     0
102
RTVSPost2010Prop52
140
1.0
102
RTVSPost2010PropOp52
 70
     0
102
RTVSPost2010Prop53
 90
        2
102
RTVSPost2010PropOp53
 70
     1
102
RTVSPost2010Prop54
  1
strokes_ogs.tif
102
RTVSPost2010PropOp54
 70
     1
102
RTVSPost2010Prop55
280
     0
102
RTVSPost2010PropOp55
 70
     1
102
RTVSPost2010Prop56
140
1.0
102
RTVSPost2010PropOp56
 70
     1
102
RTVSPost2010Prop57
140
1.0
102
RTVSPost2010PropOp57
 70
     1
102
RTVSPropertyOp0
 70
     1
102
RTVSPropertyOp1
 70
     1
102
RTVSPropertyOp2
 70
     1
102
RTVSPropertyOp3
 70
     1
102
RTVSPropertyOp4
 70
     1
102
RTVSPropertyOp5
 70
     1
102
RTVSPropertyOp6
 70
     1
102
RTVSPropertyOp7
 70
     1
102
RTVSPropertyOp8
 70
     1
102
RTVSPropertyOp9
 70
     1
102
RTVSPropertyOp10
 70
     1
102
RTVSPropertyOp11
 70
     1
102
RTVSPropertyOp12
 70
     1
102
RTVSPropertyOp13
 70
     1
102
RTVSPropertyOp14
 70
     1
102
RTVSPropertyOp15
 70
     1
102
RTVSPropertyOp16
 70
     1
102
RTVSPropertyOp17
 70
     1
102
RTVSPropertyOp18
 70
     1
102
RTVSPropertyOp19
 70
     1
102
RTVSPropertyOp20
 70
     1
102
RTVSPropertyOp21
 70
     1
102
RTVSPropertyOp22
 70
     1
102
RTVSPropertyOp23
 70
     1
102
RTVSPropertyOp24
 70
     1
102
RTVSPropertyOp25
 70
     1
102
RTVSPropertyOp26
 70
     1
102
RTVSPropertyOp27
 70
     1
102
RTVSPropertyOp28
 70
     1
102
RTVSPropertyOp29
 70
     1
102
RTVSPropertyOp30
 70
     1
102
RTVSPropertyOp31
 70
     1
102
RTVSPropertyOp32
 70
     1
102
RTVSPropertyOp33
 70
     1
102
RTVSPropertyOp34
 70
     1
102
RTVSPropertyOp35
 70
     1
102
RTVSPropertyOp36
 70
     1
102
RTVSPropertyOp37
 70
     1
102
RTVSPropertyOp38
 70
     1
102
RTVSPropertyOp39
 70
     1
102
RTVSPropertyOp40
 70
     1
102
RTVSPropertyOp41
 70
     1
102
RTVSPropertyOp42
 70
     1
102
RTVSPropertyOp43
 70
     1
102
RTVSPropertyOp44
 70
     1
102
RTVSPropertyOp45
 70
     1
102
RTVSPropertyOp46
 70
     1
102
RTVSPropertyOp47
 70
     1
102
RTVSPropertyOp48
 70
     1
102
RTVSPropertyOp49
 70
     1
102
RTVSPropertyOp50
 70
     1
102
RTVSPropertyOp51
 70
     0
102
RTVSPropertyOp52
 70
     0
102
RTVSPropertyOp53
 70
     1
102
RTVSPropertyOp54
 70
     1
102
RTVSPropertyOp55
 70
     1
102
RTVSPropertyOp56
 70
     1
102
RTVSPropertyOp57
 70
     1
102
RTVSPropertyOp58
 70
     1
102
RTVSPropertyOp59
 70
     1
102
RTVSPropertyOp60
 70
     1
102
RTVSPropertyOp61
 70
     1
102
RTVSPropertyOp62
 70
     1
  0
XRECORD
  5
1A52D
102
{ACAD_REACTORS
330
1A52C
102
}
330
1A52C
100
AcDbXrecord
280
     1
102
RTVSPost2010Prop28
280
     0
102
RTVSPost2010PropOp28
 70
     1
102
RTVSPost2010Prop29
280
     1
102
RTVSPost2010PropOp29
 70
     1
102
RTVSPost2010Prop30
280
     1
102
RTVSPost2010PropOp30
 70
     1
102
RTVSPost2010Prop31
280
     0
102
RTVSPost2010PropOp31
 70
     1
102
RTVSPost2010Prop32
280
     0
102
RTVSPost2010PropOp32
 70
     1
102
RTVSPost2010Prop33
280
     0
102
RTVSPost2010PropOp33
 70
     1
102
RTVSPost2010Prop34
280
     0
102
RTVSPost2010PropOp34
 70
     1
102
RTVSPost2010Prop35
280
     0
102
RTVSPost2010PropOp35
 70
     1
102
RTVSPost2010Prop36
280
     0
102
RTVSPost2010PropOp36
 70
     1
102
RTVSPost2010Prop37
 90
       50
102
RTVSPost2010PropOp37
 70
     1
102
RTVSPost2010Prop38
140
0.0
102
RTVSPost2010PropOp38
 70
     1
102
RTVSPost2010Prop39
140
1.0
102
RTVSPost2010PropOp39
 70
     1
102
RTVSPost2010Prop40
 90
        0
102
RTVSPost2010PropOp40
 70
     1
102
RTVSPost2010Prop41ColorIndex
 90
       18
102
RTVSPost2010Prop41ColorRGB
 90
        0
102
RTVSPost2010PropOp41
 70
     1
102
RTVSPost2010Prop42
 90
       50
102
RTVSPost2010PropOp42
 70
     1
102
RTVSPost2010Prop43
 90
        3
102
RTVSPost2010PropOp43
 70
     1
102
RTVSPost2010Prop44ColorIndex
 90
        5
102
RTVSPost2010Prop44ColorRGB
 90
      255
102
RTVSPost2010PropOp44
 70
     1
102
RTVSPost2010Prop45
280
     0
102
RTVSPost2010PropOp45
 70
     1
102
RTVSPost2010Prop46
 90
       50
102
RTVSPost2010PropOp46
 70
     1
102
RTVSPost2010Prop47
 90
       50
102
RTVSPost2010PropOp47
 70
     1
102
RTVSPost2010Prop48
 90
       50
102
RTVSPost2010PropOp48
 70
     1
102
RTVSPost2010Prop49
280
     0
102
RTVSPost2010PropOp49
 70
     1
102
RTVSPost2010Prop50
 90
       50
102
RTVSPost2010PropOp50
 70
     1
102
RTVSPost2010Prop51ColorIndex
 90
      256
102
RTVSPost2010Prop51ColorRGB
 90
-16777216
102
RTVSPost2010PropOp51
 70
     0
102
RTVSPost2010Prop52
140
1.0
102
RTVSPost2010PropOp52
 70
     0
102
RTVSPost2010Prop53
 90
        2
102
RTVSPost2010PropOp53
 70
     1
102
RTVSPost2010Prop54
  1
strokes_ogs.tif
102
RTVSPost2010PropOp54
 70
     1
102
RTVSPost2010Prop55
280
     0
102
RTVSPost2010PropOp55
 70
     1
102
RTVSPost2010Prop56
140
1.0
102
RTVSPost2010PropOp56
 70
     1
102
RTVSPost2010Prop57
140
1.0
102
RTVSPost2010PropOp57
 70
     1
102
RTVSPropertyOp0
 70
     1
102
RTVSPropertyOp1
 70
     1
102
RTVSPropertyOp2
 70
     1
102
RTVSPropertyOp3
 70
     1
102
RTVSPropertyOp4
 70
     1
102
RTVSPropertyOp5
 70
     1
102
RTVSPropertyOp6
 70
     1
102
RTVSPropertyOp7
 70
     1
102
RTVSPropertyOp8
 70
     1
102
RTVSPropertyOp9
 70
     1
102
RTVSPropertyOp10
 70
     1
102
RTVSPropertyOp11
 70
     1
102
RTVSPropertyOp12
 70
     1
102
RTVSPropertyOp13
 70
     1
102
RTVSPropertyOp14
 70
     1
102
RTVSPropertyOp15
 70
     1
102
RTVSPropertyOp16
 70
     1
102
RTVSPropertyOp17
 70
     1
102
RTVSPropertyOp18
 70
     1
102
RTVSPropertyOp19
 70
     1
102
RTVSPropertyOp20
 70
     1
102
RTVSPropertyOp21
 70
     1
102
RTVSPropertyOp22
 70
     1
102
RTVSPropertyOp23
 70
     1
102
RTVSPropertyOp24
 70
     1
102
RTVSPropertyOp25
 70
     1
102
RTVSPropertyOp26
 70
     1
102
RTVSPropertyOp27
 70
     1
102
RTVSPropertyOp28
 70
     1
102
RTVSPropertyOp29
 70
     1
102
RTVSPropertyOp30
 70
     1
102
RTVSPropertyOp31
 70
     1
102
RTVSPropertyOp32
 70
     1
102
RTVSPropertyOp33
 70
     1
102
RTVSPropertyOp34
 70
     1
102
RTVSPropertyOp35
 70
     1
102
RTVSPropertyOp36
 70
     1
102
RTVSPropertyOp37
 70
     1
102
RTVSPropertyOp38
 70
     1
102
RTVSPropertyOp39
 70
     1
102
RTVSPropertyOp40
 70
     1
102
RTVSPropertyOp41
 70
     1
102
RTVSPropertyOp42
 70
     1
102
RTVSPropertyOp43
 70
     1
102
RTVSPropertyOp44
 70
     1
102
RTVSPropertyOp45
 70
     1
102
RTVSPropertyOp46
 70
     1
102
RTVSPropertyOp47
 70
     1
102
RTVSPropertyOp48
 70
     1
102
RTVSPropertyOp49
 70
     1
102
RTVSPropertyOp50
 70
     1
102
RTVSPropertyOp51
 70
     0
102
RTVSPropertyOp52
 70
     0
102
RTVSPropertyOp53
 70
     1
102
RTVSPropertyOp54
 70
     1
102
RTVSPropertyOp55
 70
     1
102
RTVSPropertyOp56
 70
     1
102
RTVSPropertyOp57
 70
     1
102
RTVSPropertyOp58
 70
     1
102
RTVSPropertyOp59
 70
     1
102
RTVSPropertyOp60
 70
     1
102
RTVSPropertyOp61
 70
     1
102
RTVSPropertyOp62
 70
     1
  0
XRECORD
  5
1A545
102
{ACAD_REACTORS
330
1A544
102
}
330
1A544
100
AcDbXrecord
280
     1
102
RTVSPost2010Prop28
280
     0
102
RTVSPost2010PropOp28
 70
     1
102
RTVSPost2010Prop29
280
     1
102
RTVSPost2010PropOp29
 70
     1
102
RTVSPost2010Prop30
280
     1
102
RTVSPost2010PropOp30
 70
     1
102
RTVSPost2010Prop31
280
     0
102
RTVSPost2010PropOp31
 70
     1
102
RTVSPost2010Prop32
280
     0
102
RTVSPost2010PropOp32
 70
     1
102
RTVSPost2010Prop33
280
     0
102
RTVSPost2010PropOp33
 70
     1
102
RTVSPost2010Prop34
280
     0
102
RTVSPost2010PropOp34
 70
     1
102
RTVSPost2010Prop35
280
     0
102
RTVSPost2010PropOp35
 70
     1
102
RTVSPost2010Prop36
280
     0
102
RTVSPost2010PropOp36
 70
     1
102
RTVSPost2010Prop37
 90
       50
102
RTVSPost2010PropOp37
 70
     1
102
RTVSPost2010Prop38
140
0.0
102
RTVSPost2010PropOp38
 70
     1
102
RTVSPost2010Prop39
140
1.0
102
RTVSPost2010PropOp39
 70
     1
102
RTVSPost2010Prop40
 90
        0
102
RTVSPost2010PropOp40
 70
     1
102
RTVSPost2010Prop41ColorIndex
 90
       18
102
RTVSPost2010Prop41ColorRGB
 90
        0
102
RTVSPost2010PropOp41
 70
     1
102
RTVSPost2010Prop42
 90
       50
102
RTVSPost2010PropOp42
 70
     1
102
RTVSPost2010Prop43
 90
        3
102
RTVSPost2010PropOp43
 70
     1
102
RTVSPost2010Prop44ColorIndex
 90
        5
102
RTVSPost2010Prop44ColorRGB
 90
      255
102
RTVSPost2010PropOp44
 70
     1
102
RTVSPost2010Prop45
280
     0
102
RTVSPost2010PropOp45
 70
     1
102
RTVSPost2010Prop46
 90
       50
102
RTVSPost2010PropOp46
 70
     1
102
RTVSPost2010Prop47
 90
       50
102
RTVSPost2010PropOp47
 70
     1
102
RTVSPost2010Prop48
 90
       50
102
RTVSPost2010PropOp48
 70
     1
102
RTVSPost2010Prop49
280
     0
102
RTVSPost2010PropOp49
 70
     1
102
RTVSPost2010Prop50
 90
       50
102
RTVSPost2010PropOp50
 70
     1
102
RTVSPost2010Prop51ColorIndex
 90
      256
102
RTVSPost2010Prop51ColorRGB
 90
-16777216
102
RTVSPost2010PropOp51
 70
     0
102
RTVSPost2010Prop52
140
1.0
102
RTVSPost2010PropOp52
 70
     0
102
RTVSPost2010Prop53
 90
        2
102
RTVSPost2010PropOp53
 70
     1
102
RTVSPost2010Prop54
  1
strokes_ogs.tif
102
RTVSPost2010PropOp54
 70
     1
102
RTVSPost2010Prop55
280
     0
102
RTVSPost2010PropOp55
 70
     1
102
RTVSPost2010Prop56
140
1.0
102
RTVSPost2010PropOp56
 70
     1
102
RTVSPost2010Prop57
140
1.0
102
RTVSPost2010PropOp57
 70
     1
102
RTVSPropertyOp0
 70
     1
102
RTVSPropertyOp1
 70
     1
102
RTVSPropertyOp2
 70
     1
102
RTVSPropertyOp3
 70
     1
102
RTVSPropertyOp4
 70
     1
102
RTVSPropertyOp5
 70
     1
102
RTVSPropertyOp6
 70
     1
102
RTVSPropertyOp7
 70
     1
102
RTVSPropertyOp8
 70
     1
102
RTVSPropertyOp9
 70
     1
102
RTVSPropertyOp10
 70
     1
102
RTVSPropertyOp11
 70
     1
102
RTVSPropertyOp12
 70
     1
102
RTVSPropertyOp13
 70
     1
102
RTVSPropertyOp14
 70
     1
102
RTVSPropertyOp15
 70
     1
102
RTVSPropertyOp16
 70
     1
102
RTVSPropertyOp17
 70
     1
102
RTVSPropertyOp18
 70
     1
102
RTVSPropertyOp19
 70
     1
102
RTVSPropertyOp20
 70
     1
102
RTVSPropertyOp21
 70
     1
102
RTVSPropertyOp22
 70
     1
102
RTVSPropertyOp23
 70
     1
102
RTVSPropertyOp24
 70
     1
102
RTVSPropertyOp25
 70
     1
102
RTVSPropertyOp26
 70
     1
102
RTVSPropertyOp27
 70
     1
102
RTVSPropertyOp28
 70
     1
102
RTVSPropertyOp29
 70
     1
102
RTVSPropertyOp30
 70
     1
102
RTVSPropertyOp31
 70
     1
102
RTVSPropertyOp32
 70
     1
102
RTVSPropertyOp33
 70
     1
102
RTVSPropertyOp34
 70
     1
102
RTVSPropertyOp35
 70
     1
102
RTVSPropertyOp36
 70
     1
102
RTVSPropertyOp37
 70
     1
102
RTVSPropertyOp38
 70
     1
102
RTVSPropertyOp39
 70
     1
102
RTVSPropertyOp40
 70
     1
102
RTVSPropertyOp41
 70
     1
102
RTVSPropertyOp42
 70
     1
102
RTVSPropertyOp43
 70
     1
102
RTVSPropertyOp44
 70
     1
102
RTVSPropertyOp45
 70
     1
102
RTVSPropertyOp46
 70
     1
102
RTVSPropertyOp47
 70
     1
102
RTVSPropertyOp48
 70
     1
102
RTVSPropertyOp49
 70
     1
102
RTVSPropertyOp50
 70
     1
102
RTVSPropertyOp51
 70
     0
102
RTVSPropertyOp52
 70
     0
102
RTVSPropertyOp53
 70
     1
102
RTVSPropertyOp54
 70
     1
102
RTVSPropertyOp55
 70
     1
102
RTVSPropertyOp56
 70
     1
102
RTVSPropertyOp57
 70
     1
102
RTVSPropertyOp58
 70
     1
102
RTVSPropertyOp59
 70
     1
102
RTVSPropertyOp60
 70
     1
102
RTVSPropertyOp61
 70
     1
102
RTVSPropertyOp62
 70
     1
  0
ENDSEC
  0
EOF
