ISO-10303-21;
HEADER;
/****************************************************************
 * Generated by software with PDE/Lib inside                    *
 * PDElib Version 4.4.1-0003, patched  Thursday August 19 11:58 *
 * International Technegroup Inc. (www.iti-oh.com)              *
 ****************************************************************/
FILE_DESCRIPTION((''),'2;1');
FILE_NAME('','2005-12-14T15:07:01',(''),(''),'','CADfix','');
FILE_SCHEMA(('AUTOMOTIVE_DESIGN'));
ENDSEC;
DATA;
#5=APPLICATION_CONTEXT('automotive design');
#6=APPLICATION_PROTOCOL_DEFINITION('Draft International Standard','automotive_design',1998,#5);
#7=PRODUCT_CONTEXT('None',#5,'mechanical');
#8=PRODUCT('magnet','','None',(#7));
#9=PRODUCT_RELATED_PRODUCT_CATEGORY('part','description',(#8));
#10=PRODUCT_DEFINITION_FORMATION('None','None',#8);
#11=PRODUCT_DEFINITION_CONTEXT('part definition',#5,'design');
#12=PRODUCT_DEFINITION('None','None',#10,#11);
#18=(NAMED_UNIT(*)PLANE_ANGLE_UNIT()SI_UNIT($,.RADIAN.));
#19=DIMENSIONAL_EXPONENTS(0.0,0.0,0.0,0.0,0.0,0.0,0.0);
#20=PLANE_ANGLE_MEASURE_WITH_UNIT(PLANE_ANGLE_MEASURE(0.017453292500000),#18);
#24=(CONVERSION_BASED_UNIT('DEGREE',#20)NAMED_UNIT(#19)PLANE_ANGLE_UNIT());
#28=(NAMED_UNIT(*)SI_UNIT($,.STERADIAN.)SOLID_ANGLE_UNIT());
#32=(LENGTH_UNIT()NAMED_UNIT(*)SI_UNIT(.MILLI.,.METRE.));
#34=UNCERTAINTY_MEASURE_WITH_UNIT(LENGTH_MEASURE(0.001000000000000),#32,'DISTANCE_ACCURACY_VALUE','');
#36=(GEOMETRIC_REPRESENTATION_CONTEXT(3)GLOBAL_UNCERTAINTY_ASSIGNED_CONTEXT((#34))GLOBAL_UNIT_ASSIGNED_CONTEXT((#24,#28,#32))REPRESENTATION_CONTEXT('None','None'));
#37=AXIS2_PLACEMENT_3D('',#38,#39,#40);
#38=CARTESIAN_POINT('',(0.0,0.0,0.0));
#39=DIRECTION('',(0.0,0.0,1.0));
#40=DIRECTION('',(1.0,0.0,0.0));
#41=ADVANCED_BREP_SHAPE_REPRESENTATION('',(#37,#266),#36);
#42=PRODUCT_DEFINITION_SHAPE('','',#12);
#43=SHAPE_DEFINITION_REPRESENTATION(#42,#41);
#44=CARTESIAN_POINT('',(-0.199799992247226,-1.776357E-015,19.949049963174311));
#45=CARTESIAN_POINT('',(4.199800099535642,-1.776357E-015,19.949049963174311));
#46=CARTESIAN_POINT('',(-0.199799992247226,-1.776357E-015,-0.949050472794025));
#47=CARTESIAN_POINT('',(4.199800099535642,-1.776357E-015,-0.949050472794025));
#48=B_SPLINE_SURFACE_WITH_KNOTS('',1,1,((#44,#46),(#45,#47)),.UNSPECIFIED.,.F.,.F.,.U.,(2,2),(2,2),(0.0,4.399600091782868),(0.0,20.898100435968342),.UNSPECIFIED.);
#49=CARTESIAN_POINT('',(4.0,0.0,0.0));
#50=VERTEX_POINT('',#49);
#51=CARTESIAN_POINT('',(0.0,0.0,0.0));
#52=VERTEX_POINT('',#51);
#53=CARTESIAN_POINT('',(4.0,0.0,0.0));
#54=CARTESIAN_POINT('',(0.0,0.0,0.0));
#55=QUASI_UNIFORM_CURVE('',1,(#53,#54),.UNSPECIFIED.,.F.,.U.);
#56=EDGE_CURVE('',#50,#52,#55,.T.);
#57=ORIENTED_EDGE('',*,*,#56,.F.);
#58=CARTESIAN_POINT('',(4.000000000000055,0.0,9.249999999918581));
#59=VERTEX_POINT('',#58);
#60=CARTESIAN_POINT('',(4.000000000000055,0.0,9.249999999918581));
#61=CARTESIAN_POINT('',(4.0,0.0,0.0));
#62=QUASI_UNIFORM_CURVE('',1,(#60,#61),.UNSPECIFIED.,.F.,.U.);
#63=EDGE_CURVE('',#59,#50,#62,.T.);
#64=ORIENTED_EDGE('',*,*,#63,.F.);
#65=CARTESIAN_POINT('',(4.0,0.0,9.749999999918590));
#66=VERTEX_POINT('',#65);
#67=CARTESIAN_POINT('',(4.000000000000006,0.0,9.749999999918584));
#68=CARTESIAN_POINT('',(3.761904761904755,0.0,9.499999999918559));
#69=CARTESIAN_POINT('',(4.000000000000049,0.0,9.249999999918575));
#77=(BOUNDED_CURVE()B_SPLINE_CURVE(2,(#67,#68,#69),.UNSPECIFIED.,.F.,.U.)CURVE()GEOMETRIC_REPRESENTATION_ITEM()QUASI_UNIFORM_CURVE()RATIONAL_B_SPLINE_CURVE((1.0,0.724137931034440,1.0))REPRESENTATION_ITEM(''));
#78=EDGE_CURVE('',#66,#59,#77,.T.);
#79=ORIENTED_EDGE('',*,*,#78,.F.);
#80=CARTESIAN_POINT('',(4.0,0.0,19.0));
#81=VERTEX_POINT('',#80);
#82=CARTESIAN_POINT('',(4.0,0.0,19.0));
#83=CARTESIAN_POINT('',(4.0,0.0,9.749999999918590));
#84=QUASI_UNIFORM_CURVE('',1,(#82,#83),.UNSPECIFIED.,.F.,.U.);
#85=EDGE_CURVE('',#81,#66,#84,.T.);
#86=ORIENTED_EDGE('',*,*,#85,.F.);
#87=CARTESIAN_POINT('',(3.019807E-014,0.0,19.0));
#88=VERTEX_POINT('',#87);
#89=CARTESIAN_POINT('',(3.019807E-014,0.0,19.0));
#90=CARTESIAN_POINT('',(4.0,0.0,19.0));
#91=QUASI_UNIFORM_CURVE('',1,(#89,#90),.UNSPECIFIED.,.F.,.U.);
#92=EDGE_CURVE('',#88,#81,#91,.T.);
#93=ORIENTED_EDGE('',*,*,#92,.F.);
#94=CARTESIAN_POINT('',(0.0,0.0,0.0));
#95=CARTESIAN_POINT('',(3.019807E-014,0.0,19.0));
#96=QUASI_UNIFORM_CURVE('',1,(#94,#95),.UNSPECIFIED.,.F.,.U.);
#97=EDGE_CURVE('',#52,#88,#96,.T.);
#98=ORIENTED_EDGE('',*,*,#97,.F.);
#99=EDGE_LOOP('',(#57,#64,#79,#86,#93,#98));
#100=FACE_OUTER_BOUND('',#99,.T.);
#101=ADVANCED_FACE('',(#100),#48,.F.);
#102=CARTESIAN_POINT('',(-0.199799992247226,200.0,19.949049963174311));
#103=CARTESIAN_POINT('',(4.199800099535642,200.0,19.949049963174311));
#104=CARTESIAN_POINT('',(-0.199799992247226,200.0,-0.949050472794025));
#105=CARTESIAN_POINT('',(4.199800099535642,200.0,-0.949050472794025));
#106=B_SPLINE_SURFACE_WITH_KNOTS('',1,1,((#102,#104),(#103,#105)),.UNSPECIFIED.,.F.,.F.,.U.,(2,2),(2,2),(0.0,4.399600091782868),(0.0,20.898100435968342),.UNSPECIFIED.);
#107=CARTESIAN_POINT('',(4.0,200.0,0.0));
#108=VERTEX_POINT('',#107);
#109=CARTESIAN_POINT('',(0.0,200.0,0.0));
#110=VERTEX_POINT('',#109);
#111=CARTESIAN_POINT('',(4.0,200.0,0.0));
#112=CARTESIAN_POINT('',(0.0,200.0,0.0));
#113=QUASI_UNIFORM_CURVE('',1,(#111,#112),.UNSPECIFIED.,.F.,.U.);
#114=EDGE_CURVE('',#108,#110,#113,.T.);
#115=ORIENTED_EDGE('',*,*,#114,.T.);
#116=CARTESIAN_POINT('',(3.019807E-014,200.0,19.0));
#117=VERTEX_POINT('',#116);
#118=CARTESIAN_POINT('',(0.0,200.0,0.0));
#119=CARTESIAN_POINT('',(3.019807E-014,200.0,19.0));
#120=QUASI_UNIFORM_CURVE('',1,(#118,#119),.UNSPECIFIED.,.F.,.U.);
#121=EDGE_CURVE('',#110,#117,#120,.T.);
#122=ORIENTED_EDGE('',*,*,#121,.T.);
#123=CARTESIAN_POINT('',(4.0,200.0,19.0));
#124=VERTEX_POINT('',#123);
#125=CARTESIAN_POINT('',(3.019807E-014,200.0,19.0));
#126=CARTESIAN_POINT('',(4.0,200.0,19.0));
#127=QUASI_UNIFORM_CURVE('',1,(#125,#126),.UNSPECIFIED.,.F.,.U.);
#128=EDGE_CURVE('',#117,#124,#127,.T.);
#129=ORIENTED_EDGE('',*,*,#128,.T.);
#130=CARTESIAN_POINT('',(4.0,200.0,9.749999999918590));
#131=VERTEX_POINT('',#130);
#132=CARTESIAN_POINT('',(4.0,200.0,19.0));
#133=CARTESIAN_POINT('',(4.0,200.0,9.749999999918590));
#134=QUASI_UNIFORM_CURVE('',1,(#132,#133),.UNSPECIFIED.,.F.,.U.);
#135=EDGE_CURVE('',#124,#131,#134,.T.);
#136=ORIENTED_EDGE('',*,*,#135,.T.);
#137=CARTESIAN_POINT('',(4.000000000000055,200.0,9.249999999918581));
#138=VERTEX_POINT('',#137);
#139=CARTESIAN_POINT('',(4.000000000000006,200.0,9.749999999918584));
#140=CARTESIAN_POINT('',(3.761904761904755,199.999999999999910,9.499999999918559));
#141=CARTESIAN_POINT('',(4.000000000000049,200.0,9.249999999918575));
#149=(BOUNDED_CURVE()B_SPLINE_CURVE(2,(#139,#140,#141),.UNSPECIFIED.,.F.,.U.)CURVE()GEOMETRIC_REPRESENTATION_ITEM()QUASI_UNIFORM_CURVE()RATIONAL_B_SPLINE_CURVE((1.0,0.724137931034440,1.0))REPRESENTATION_ITEM(''));
#150=EDGE_CURVE('',#131,#138,#149,.T.);
#151=ORIENTED_EDGE('',*,*,#150,.T.);
#152=CARTESIAN_POINT('',(4.000000000000055,200.0,9.249999999918581));
#153=CARTESIAN_POINT('',(4.0,200.0,0.0));
#154=QUASI_UNIFORM_CURVE('',1,(#152,#153),.UNSPECIFIED.,.F.,.U.);
#155=EDGE_CURVE('',#138,#108,#154,.T.);
#156=ORIENTED_EDGE('',*,*,#155,.T.);
#157=EDGE_LOOP('',(#115,#122,#129,#136,#151,#156));
#158=FACE_OUTER_BOUND('',#157,.T.);
#159=ADVANCED_FACE('',(#158),#106,.T.);
#160=CARTESIAN_POINT('',(4.0,-9.989999612361194,-0.462037482067638));
#161=CARTESIAN_POINT('',(4.0,-9.989999612361194,9.712037730090556));
#162=CARTESIAN_POINT('',(4.0,209.990004976779200,-0.462037482067638));
#163=CARTESIAN_POINT('',(4.0,209.990004976779200,9.712037730090556));
#164=B_SPLINE_SURFACE_WITH_KNOTS('',1,1,((#160,#162),(#161,#163)),.UNSPECIFIED.,.F.,.F.,.U.,(2,2),(2,2),(0.0,10.174075212158190),(0.0,219.980004589140410),.UNSPECIFIED.);
#165=ORIENTED_EDGE('',*,*,#63,.T.);
#166=CARTESIAN_POINT('',(4.0,200.0,0.0));
#167=CARTESIAN_POINT('',(4.0,0.0,0.0));
#168=QUASI_UNIFORM_CURVE('',1,(#166,#167),.UNSPECIFIED.,.F.,.U.);
#169=EDGE_CURVE('',#108,#50,#168,.T.);
#170=ORIENTED_EDGE('',*,*,#169,.F.);
#171=ORIENTED_EDGE('',*,*,#155,.F.);
#172=CARTESIAN_POINT('',(4.000000000000055,200.0,9.249999999918581));
#173=CARTESIAN_POINT('',(4.000000000000055,0.0,9.249999999918581));
#174=QUASI_UNIFORM_CURVE('',1,(#172,#173),.UNSPECIFIED.,.F.,.U.);
#175=EDGE_CURVE('',#138,#59,#174,.T.);
#176=ORIENTED_EDGE('',*,*,#175,.T.);
#177=EDGE_LOOP('',(#165,#170,#171,#176));
#178=FACE_OUTER_BOUND('',#177,.T.);
#179=ADVANCED_FACE('',(#178),#164,.F.);
#180=CARTESIAN_POINT('',(4.010218803665653,205.0,9.239691628988856));
#181=CARTESIAN_POINT('',(4.010218803665653,-5.125000000000000,9.239691628988856));
#182=CARTESIAN_POINT('',(3.733872890565485,205.000000000000060,9.507515815011033));
#183=CARTESIAN_POINT('',(3.733872890565485,-5.125000000000001,9.507515815011033));
#184=CARTESIAN_POINT('',(4.017721206409848,205.000000000000030,9.767375376886148));
#185=CARTESIAN_POINT('',(4.017721206409848,-5.125000000000000,9.767375376886148));
#193=(BOUNDED_SURFACE()B_SPLINE_SURFACE(1,2,((#180,#182,#184),(#181,#183,#185)),.UNSPECIFIED.,.F.,.F.,.U.)B_SPLINE_SURFACE_WITH_KNOTS((2,2),(3,3),(0.0,210.125000000000000),(0.0,0.993135704241134),.UNSPECIFIED.)GEOMETRIC_REPRESENTATION_ITEM()RATIONAL_B_SPLINE_SURFACE(((1.0,0.684181217370833,0.995664252939657),(1.0,0.684181217370833,0.995664252939657)))REPRESENTATION_ITEM('')SURFACE());
#194=ORIENTED_EDGE('',*,*,#78,.T.);
#195=ORIENTED_EDGE('',*,*,#175,.F.);
#196=ORIENTED_EDGE('',*,*,#150,.F.);
#197=CARTESIAN_POINT('',(4.0,200.0,9.749999999918590));
#198=CARTESIAN_POINT('',(4.0,0.0,9.749999999918590));
#199=QUASI_UNIFORM_CURVE('',1,(#197,#198),.UNSPECIFIED.,.F.,.U.);
#200=EDGE_CURVE('',#131,#66,#199,.T.);
#201=ORIENTED_EDGE('',*,*,#200,.T.);
#202=EDGE_LOOP('',(#194,#195,#196,#201));
#203=FACE_OUTER_BOUND('',#202,.T.);
#204=ADVANCED_FACE('',(#203),#193,.F.);
#205=CARTESIAN_POINT('',(4.0,-9.989999612361194,9.287962517842820));
#206=CARTESIAN_POINT('',(4.0,-9.989999612361194,19.462037730180111));
#207=CARTESIAN_POINT('',(4.0,209.990004976779200,9.287962517842820));
#208=CARTESIAN_POINT('',(4.0,209.990004976779200,19.462037730180111));
#209=B_SPLINE_SURFACE_WITH_KNOTS('',1,1,((#205,#207),(#206,#208)),.UNSPECIFIED.,.F.,.F.,.U.,(2,2),(2,2),(0.0,10.174075212337289),(0.0,219.980004589140410),.UNSPECIFIED.);
#210=ORIENTED_EDGE('',*,*,#85,.T.);
#211=ORIENTED_EDGE('',*,*,#200,.F.);
#212=ORIENTED_EDGE('',*,*,#135,.F.);
#213=CARTESIAN_POINT('',(4.0,200.0,19.0));
#214=CARTESIAN_POINT('',(4.0,0.0,19.0));
#215=QUASI_UNIFORM_CURVE('',1,(#213,#214),.UNSPECIFIED.,.F.,.U.);
#216=EDGE_CURVE('',#124,#81,#215,.T.);
#217=ORIENTED_EDGE('',*,*,#216,.T.);
#218=EDGE_LOOP('',(#210,#211,#212,#217));
#219=FACE_OUTER_BOUND('',#218,.T.);
#220=ADVANCED_FACE('',(#219),#209,.F.);
#221=CARTESIAN_POINT('',(4.199799992247223,-9.989999612361194,19.0));
#222=CARTESIAN_POINT('',(-0.199800099535553,-9.989999612361194,19.0));
#223=CARTESIAN_POINT('',(4.199799992247223,209.990004976779200,19.0));
#224=CARTESIAN_POINT('',(-0.199800099535553,209.990004976779200,19.0));
#225=B_SPLINE_SURFACE_WITH_KNOTS('',1,1,((#221,#223),(#222,#224)),.UNSPECIFIED.,.F.,.F.,.U.,(2,2),(2,2),(0.0,4.399600091782776),(0.0,219.980004589140410),.UNSPECIFIED.);
#226=ORIENTED_EDGE('',*,*,#92,.T.);
#227=ORIENTED_EDGE('',*,*,#216,.F.);
#228=ORIENTED_EDGE('',*,*,#128,.F.);
#229=CARTESIAN_POINT('',(3.019807E-014,200.0,19.0));
#230=CARTESIAN_POINT('',(3.019807E-014,0.0,19.0));
#231=QUASI_UNIFORM_CURVE('',1,(#229,#230),.UNSPECIFIED.,.F.,.U.);
#232=EDGE_CURVE('',#117,#88,#231,.T.);
#233=ORIENTED_EDGE('',*,*,#232,.T.);
#234=EDGE_LOOP('',(#226,#227,#228,#233));
#235=FACE_OUTER_BOUND('',#234,.T.);
#236=ADVANCED_FACE('',(#235),#225,.F.);
#237=CARTESIAN_POINT('',(0.0,-9.989999612361171,19.949049963174311));
#238=CARTESIAN_POINT('',(0.0,-9.989999612361171,-0.949050472794025));
#239=CARTESIAN_POINT('',(0.0,209.990004976779200,19.949049963174311));
#240=CARTESIAN_POINT('',(0.0,209.990004976779200,-0.949050472794025));
#241=B_SPLINE_SURFACE_WITH_KNOTS('',1,1,((#237,#239),(#238,#240)),.UNSPECIFIED.,.F.,.F.,.U.,(2,2),(2,2),(0.0,20.898100435968342),(0.0,219.980004589140410),.UNSPECIFIED.);
#242=ORIENTED_EDGE('',*,*,#97,.T.);
#243=ORIENTED_EDGE('',*,*,#232,.F.);
#244=ORIENTED_EDGE('',*,*,#121,.F.);
#245=CARTESIAN_POINT('',(0.0,200.0,0.0));
#246=CARTESIAN_POINT('',(0.0,0.0,0.0));
#247=QUASI_UNIFORM_CURVE('',1,(#245,#246),.UNSPECIFIED.,.F.,.U.);
#248=EDGE_CURVE('',#110,#52,#247,.T.);
#249=ORIENTED_EDGE('',*,*,#248,.T.);
#250=EDGE_LOOP('',(#242,#243,#244,#249));
#251=FACE_OUTER_BOUND('',#250,.T.);
#252=ADVANCED_FACE('',(#251),#241,.F.);
#253=CARTESIAN_POINT('',(-0.199799992247224,-9.989999612361171,0.0));
#254=CARTESIAN_POINT('',(4.199800099535585,-9.989999612361171,0.0));
#255=CARTESIAN_POINT('',(-0.199799992247224,209.990004976779200,0.0));
#256=CARTESIAN_POINT('',(4.199800099535585,209.990004976779200,0.0));
#257=B_SPLINE_SURFACE_WITH_KNOTS('',1,1,((#253,#255),(#254,#256)),.UNSPECIFIED.,.F.,.F.,.U.,(2,2),(2,2),(0.0,4.399600091782808),(0.0,219.980004589140410),.UNSPECIFIED.);
#258=ORIENTED_EDGE('',*,*,#56,.T.);
#259=ORIENTED_EDGE('',*,*,#248,.F.);
#260=ORIENTED_EDGE('',*,*,#114,.F.);
#261=ORIENTED_EDGE('',*,*,#169,.T.);
#262=EDGE_LOOP('',(#258,#259,#260,#261));
#263=FACE_OUTER_BOUND('',#262,.T.);
#264=ADVANCED_FACE('',(#263),#257,.F.);
#265=CLOSED_SHELL('',(#101,#159,#179,#204,#220,#236,#252,#264));
#266=MANIFOLD_SOLID_BREP('magnet',#265);
#272=(NAMED_UNIT(*)PLANE_ANGLE_UNIT()SI_UNIT($,.RADIAN.));
#273=DIMENSIONAL_EXPONENTS(0.0,0.0,0.0,0.0,0.0,0.0,0.0);
#274=PLANE_ANGLE_MEASURE_WITH_UNIT(PLANE_ANGLE_MEASURE(0.017453292500000),#272);
#278=(CONVERSION_BASED_UNIT('DEGREE',#274)NAMED_UNIT(#273)PLANE_ANGLE_UNIT());
#282=(NAMED_UNIT(*)SI_UNIT($,.STERADIAN.)SOLID_ANGLE_UNIT());
#286=(LENGTH_UNIT()NAMED_UNIT(*)SI_UNIT(.MILLI.,.METRE.));
#288=UNCERTAINTY_MEASURE_WITH_UNIT(LENGTH_MEASURE(0.001000000000000),#286,'DISTANCE_ACCURACY_VALUE','');
#290=(GEOMETRIC_REPRESENTATION_CONTEXT(3)GLOBAL_UNCERTAINTY_ASSIGNED_CONTEXT((#288))GLOBAL_UNIT_ASSIGNED_CONTEXT((#278,#282,#286))REPRESENTATION_CONTEXT('','3D'));
ENDSEC;
END-ISO-10303-21;
