  0
SECTION
  2
HEADER
  9
$ACADVER
  1
AC1015
  9
$ACADMAINTVER
 70
    20
  9
$DWGCODEPAGE
  3
ANSI_932
  9
$INSBASE
 10
0.0
 20
0.0
 30
0.0
  9
$EXTMIN
 10
10.0
 20
9.999999999999998
 30
0.0
  9
$EXTMAX
 10
316.3459519999999
 20
295.2726
 30
0.0
  9
$LIMMIN
 10
0.0
 20
0.0
  9
$LIMMAX
 10
510.625
 20
352.0217799999999
  9
$ORTHOMODE
 70
     1
  9
$REGENMODE
 70
     1
  9
$FILLMODE
 70
     1
  9
$QTEXTMODE
 70
     0
  9
$MIRRTEXT
 70
     1
  9
$LTSCALE
 40
20.0
  9
$ATTMODE
 70
     1
  9
$TEXTSIZE
 40
5.0
  9
$TRACEWID
 40
1.0
  9
$TEXTSTYLE
  7
STANDARD
  9
$CLAYER
  8
0
  9
$CELTYPE
  6
BYLAYER
  9
$CECOLOR
 62
   256
  9
$CELTSCALE
 40
1.0
  9
$DISPSILH
 70
     0
  9
$DIMSCALE
 40
1.0
  9
$DIMASZ
 40
2.5
  9
$DIMEXO
 40
1.0
  9
$DIMDLI
 40
10.0
  9
$DIMRND
 40
0.0
  9
$DIMDLE
 40
0.0
  9
$DIMEXE
 40
1.0
  9
$DIMTP
 40
0.0
  9
$DIMTM
 40
0.0
  9
$DIMTXT
 40
3.2
  9
$DIMCEN
 40
0.0
  9
$DIMTSZ
 40
0.0
  9
$DIMTOL
 70
     0
  9
$DIMLIM
 70
     0
  9
$DIMTIH
 70
     0
  9
$DIMTOH
 70
     0
  9
$DIMSE1
 70
     0
  9
$DIMSE2
 70
     0
  9
$DIMTAD
 70
     3
  9
$DIMZIN
 70
     8
  9
$DIMBLK
  1

  9
$DIMASO
 70
     1
  9
$DIMSHO
 70
     1
  9
$DIMPOST
  1

  9
$DIMAPOST
  1

  9
$DIMALT
 70
     0
  9
$DIMALTD
 70
     2
  9
$DIMALTF
 40
25.4
  9
$DIMLFAC
 40
1.0
  9
$DIMTOFL
 70
     1
  9
$DIMTVP
 40
0.0
  9
$DIMTIX
 70
     0
  9
$DIMSOXD
 70
     0
  9
$DIMSAH
 70
     1
  9
$DIMBLK1
  1

  9
$DIMBLK2
  1

  9
$DIMSTYLE
  2
STANDARD
  9
$DIMCLRD
 70
     0
  9
$DIMCLRE
 70
     0
  9
$DIMCLRT
 70
     0
  9
$DIMTFAC
 40
1.0
  9
$DIMGAP
 40
1.0
  9
$DIMJUST
 70
     0
  9
$DIMSD1
 70
     0
  9
$DIMSD2
 70
     0
  9
$DIMTOLJ
 70
     1
  9
$DIMTZIN
 70
     0
  9
$DIMALTZ
 70
     0
  9
$DIMALTTZ
 70
     0
  9
$DIMUPT
 70
     0
  9
$DIMDEC
 70
     4
  9
$DIMTDEC
 70
     4
  9
$DIMALTU
 70
     2
  9
$DIMALTTD
 70
     2
  9
$DIMTXSTY
  7
STANDARD
  9
$DIMAUNIT
 70
     0
  9
$DIMADEC
 70
     0
  9
$DIMALTRND
 40
0.0
  9
$DIMAZIN
 70
     0
  9
$DIMDSEP
 70
    46
  9
$DIMATFIT
 70
     3
  9
$DIMFRAC
 70
     0
  9
$DIMLDRBLK
  1

  9
$DIMLUNIT
 70
     2
  9
$DIMLWD
 70
    -2
  9
$DIMLWE
 70
    -2
  9
$DIMTMOVE
 70
     0
  9
$LUNITS
 70
     2
  9
$LUPREC
 70
     4
  9
$SKETCHINC
 40
1.0
  9
$FILLETRAD
 40
1.0
  9
$AUNITS
 70
     0
  9
$AUPREC
 70
     2
  9
$MENU
  1
.
  9
$ELEVATION
 40
0.0
  9
$PELEVATION
 40
0.0
  9
$THICKNESS
 40
0.0
  9
$LIMCHECK
 70
     0
  9
$CHAMFERA
 40
10.0
  9
$CHAMFERB
 40
10.0
  9
$CHAMFERC
 40
0.0
  9
$CHAMFERD
 40
0.0
  9
$SKPOLY
 70
     0
  9
$TDCREATE
 40
2451296.792863426
  9
$TDUCREATE
 40
2451296.417863426
  9
$TDUPDATE
 40
2457192.658204977
  9
$TDUUPDATE
 40
2457192.283204977
  9
$TDINDWG
 40
0.0000103704
  9
$TDUSRTIMER
 40
0.0000098958
  9
$USRTIMER
 70
     1
  9
$ANGBASE
 50
0.0
  9
$ANGDIR
 70
     0
  9
$PDMODE
 70
     0
  9
$PDSIZE
 40
0.0
  9
$PLINEWID
 40
0.0
  9
$SPLFRAME
 70
     0
  9
$SPLINETYPE
 70
     6
  9
$SPLINESEGS
 70
     8
  9
$HANDSEED
  5
BF8F
  9
$SURFTAB1
 70
     6
  9
$SURFTAB2
 70
     6
  9
$SURFTYPE
 70
     6
  9
$SURFU
 70
     6
  9
$SURFV
 70
     6
  9
$UCSBASE
  2

  9
$UCSNAME
  2

  9
$UCSORG
 10
0.0
 20
0.0
 30
0.0
  9
$UCSXDIR
 10
1.0
 20
0.0
 30
0.0
  9
$UCSYDIR
 10
0.0
 20
1.0
 30
0.0
  9
$UCSORTHOREF
  2

  9
$UCSORTHOVIEW
 70
     0
  9
$UCSORGTOP
 10
0.0
 20
0.0
 30
0.0
  9
$UCSORGBOTTOM
 10
0.0
 20
0.0
 30
0.0
  9
$UCSORGLEFT
 10
0.0
 20
0.0
 30
0.0
  9
$UCSORGRIGHT
 10
0.0
 20
0.0
 30
0.0
  9
$UCSORGFRONT
 10
0.0
 20
0.0
 30
0.0
  9
$UCSORGBACK
 10
0.0
 20
0.0
 30
0.0
  9
$PUCSBASE
  2

  9
$PUCSNAME
  2

  9
$PUCSORG
 10
0.0
 20
0.0
 30
0.0
  9
$PUCSXDIR
 10
1.0
 20
0.0
 30
0.0
  9
$PUCSYDIR
 10
0.0
 20
1.0
 30
0.0
  9
$PUCSORTHOREF
  2

  9
$PUCSORTHOVIEW
 70
     0
  9
$PUCSORGTOP
 10
0.0
 20
0.0
 30
0.0
  9
$PUCSORGBOTTOM
 10
0.0
 20
0.0
 30
0.0
  9
$PUCSORGLEFT
 10
0.0
 20
0.0
 30
0.0
  9
$PUCSORGRIGHT
 10
0.0
 20
0.0
 30
0.0
  9
$PUCSORGFRONT
 10
0.0
 20
0.0
 30
0.0
  9
$PUCSORGBACK
 10
0.0
 20
0.0
 30
0.0
  9
$USERI1
 70
     0
  9
$USERI2
 70
     0
  9
$USERI3
 70
     0
  9
$USERI4
 70
     0
  9
$USERI5
 70
     0
  9
$USERR1
 40
0.0
  9
$USERR2
 40
0.0
  9
$USERR3
 40
0.0
  9
$USERR4
 40
0.0
  9
$USERR5
 40
0.0
  9
$WORLDVIEW
 70
     1
  9
$SHADEDGE
 70
     3
  9
$SHADEDIF
 70
    70
  9
$TILEMODE
 70
     1
  9
$MAXACTVP
 70
    16
  9
$PINSBASE
 10
0.0
 20
0.0
 30
0.0
  9
$PLIMCHECK
 70
     0
  9
$PEXTMIN
 10
1.000000000000000E+20
 20
1.000000000000000E+20
 30
1.000000000000000E+20
  9
$PEXTMAX
 10
-1.000000000000000E+20
 20
-1.000000000000000E+20
 30
-1.000000000000000E+20
  9
$PLIMMIN
 10
0.0
 20
0.0
  9
$PLIMMAX
 10
420.0
 20
297.0
  9
$UNITMODE
 70
     0
  9
$VISRETAIN
 70
     0
  9
$PLINEGEN
 70
     0
  9
$PSLTSCALE
 70
     0
  9
$TREEDEPTH
 70
  3020
  9
$CMLSTYLE
  2
STANDARD
  9
$CMLJUST
 70
     0
  9
$CMLSCALE
 40
1.0
  9
$PROXYGRAPHICS
 70
     1
  9
$MEASUREMENT
 70
     0
  9
$CELWEIGHT
370
    -1
  9
$ENDCAPS
280
     0
  9
$JOINSTYLE
280
     0
  9
$LWDISPLAY
290
     0
  9
$INSUNITS
 70
     0
  9
$HYPERLINKBASE
  1

  9
$STYLESHEET
  1

  9
$XEDIT
290
     1
  9
$CEPSNTYPE
380
     0
  9
$PSTYLEMODE
290
     1
  9
$FINGERPRINTGUID
  2
{5435B241-19EF-434E-A36D-17DA99876DA7}
  9
$VERSIONGUID
  2
{674E4F7C-1175-4B9C-8DC0-5938398CAF31}
  9
$EXTNAMES
290
     1
  9
$PSVPSCALE
 40
0.0
  9
$OLESTARTUP
290
     0
  0
ENDSEC
  0
SECTION
  2
CLASSES
  0
CLASS
  1
ACDBDICTIONARYWDFLT
  2
AcDbDictionaryWithDefault
  3
ObjectDBX Classes
 90
        0
280
     0
281
     0
  0
CLASS
  1
ACDBPLACEHOLDER
  2
AcDbPlaceHolder
  3
ObjectDBX Classes
 90
        0
280
     0
281
     0
  0
CLASS
  1
LAYOUT
  2
AcDbLayout
  3
ObjectDBX Classes
 90
        0
280
     0
281
     0
  0
CLASS
  1
DICTIONARYVAR
  2
AcDbDictionaryVar
  3
ObjectDBX Classes
 90
        0
280
     0
281
     0
  0
CLASS
  1
MATERIAL
  2
AcDbMaterial
  3
ObjectDBX Classes
 90
     1153
280
     0
281
     0
  0
CLASS
  1
VISUALSTYLE
  2
AcDbVisualStyle
  3
ObjectDBX Classes
 90
     4095
280
     0
281
     0
  0
CLASS
  1
TABLESTYLE
  2
AcDbTableStyle
  3
ObjectDBX Classes
 90
     4095
280
     0
281
     0
  0
CLASS
  1
SCALE
  2
AcDbScale
  3
ObjectDBX Classes
 90
     1153
280
     0
281
     0
  0
CLASS
  1
MLEADERSTYLE
  2
AcDbMLeaderStyle
  3
ACDB_MLEADERSTYLE_CLASS
 90
     4095
280
     0
281
     0
  0
CLASS
  1
ACDBSECTIONVIEWSTYLE
  2
AcDbSectionViewStyle
  3
ObjectDBX Classes
 90
     1025
280
     0
281
     0
  0
CLASS
  1
ACDBDETAILVIEWSTYLE
  2
AcDbDetailViewStyle
  3
ObjectDBX Classes
 90
     1025
280
     0
281
     0
  0
CLASS
  1
CELLSTYLEMAP
  2
AcDbCellStyleMap
  3
ObjectDBX Classes
 90
     1152
280
     0
281
     0
  0
ENDSEC
  0
SECTION
  2
TABLES
  0
TABLE
  2
VPORT
  5
BCC9
330
0
100
AcDbSymbolTable
 70
     1
  0
VPORT
  5
BED8
330
BCC9
100
AcDbSymbolTableRecord
100
AcDbViewportTableRecord
  2
*ACTIVE
 70
     0
 10
0.0
 20
0.0
 11
1.0
 21
1.0
 12
249.5910073948053
 22
152.6317587512294
 13
0.0
 23
0.0
 14
10.0
 24
10.0
 15
10.0
 25
10.0
 16
0.0
 26
0.0
 36
1.0
 17
0.0
 27
0.0
 37
0.0
 40
288.4942477366811
 41
1.899603698811096
 42
50.0
 43
0.0
 44
0.0
 50
0.0
 51
0.0
 71
     0
 72
   100
 73
     1
 74
     0
 75
     0
 76
     0
 77
     0
 78
     0
281
     0
 65
     1
110
0.0
120
0.0
130
0.0
111
1.0
121
0.0
131
0.0
112
0.0
122
1.0
132
0.0
 79
     0
146
0.0
1001
ACAD_NAV_VCDISPLAY
1070
     3
  0
ENDTAB
  0
TABLE
  2
LTYPE
  5
BCC6
330
0
100
AcDbSymbolTable
 70
     4
  0
LTYPE
  5
BCD4
330
BCC6
100
AcDbSymbolTableRecord
100
AcDbLinetypeTableRecord
  2
BYBLOCK
 70
     0
  3

 72
    65
 73
     0
 40
0.0
  0
LTYPE
  5
BCD5
330
BCC6
100
AcDbSymbolTableRecord
100
AcDbLinetypeTableRecord
  2
BYLAYER
 70
     0
  3

 72
    65
 73
     0
 40
0.0
  0
LTYPE
  5
BCD6
330
BCC6
100
AcDbSymbolTableRecord
100
AcDbLinetypeTableRecord
  2
CONTINUOUS
 70
     0
  3
Solid line
 72
    65
 73
     0
 40
0.0
  0
LTYPE
  5
BCE4
330
BCC6
100
AcDbSymbolTableRecord
100
AcDbLinetypeTableRecord
  2
DASHED
 70
     0
  3
__ __ __ __ __ __ __ __ __ __ __ __ __ __ __ __
 72
    65
 73
     2
 40
0.75
 49
0.5
 74
     0
 49
-0.25
 74
     0
  0
LTYPE
  5
BCE5
330
BCC6
100
AcDbSymbolTableRecord
100
AcDbLinetypeTableRecord
  2
CENTER
 70
     0
  3
____ _ ____ _ ____ _ ____ _ ____ _ ____ _ ____ 
 72
    65
 73
     4
 40
2.0
 49
1.25
 74
     0
 49
-0.25
 74
     0
 49
0.25
 74
     0
 49
-0.25
 74
     0
  0
LTYPE
  5
BCE6
330
BCC6
100
AcDbSymbolTableRecord
100
AcDbLinetypeTableRecord
  2
PHANTOM
 70
     0
  3
______  __  __  ______  __  __  ______  __  __ 
 72
    65
 73
     6
 40
2.5
 49
1.25
 74
     0
 49
-0.25
 74
     0
 49
0.25
 74
     0
 49
-0.25
 74
     0
 49
0.25
 74
     0
 49
-0.25
 74
     0
  0
ENDTAB
  0
TABLE
  2
LAYER
  5
BCC3
330
0
100
AcDbSymbolTable
 70
     8
  0
LAYER
  5
BCD1
102
{ACAD_XDICTIONARY
360
BF33
102
}
330
BCC3
100
AcDbSymbolTableRecord
100
AcDbLayerTableRecord
  2
0
 70
     0
 62
     7
  6
CONTINUOUS
370
    -3
390
BEE1
  0
LAYER
  5
BCE7
102
{ACAD_XDICTIONARY
360
BF35
102
}
330
BCC3
100
AcDbSymbolTableRecord
100
AcDbLayerTableRecord
  2
4
 70
     0
 62
     1
  6
CENTER
370
    -3
390
BEE1
  0
LAYER
  5
BCE8
102
{ACAD_XDICTIONARY
360
BF37
102
}
330
BCC3
100
AcDbSymbolTableRecord
100
AcDbLayerTableRecord
  2
5
 70
     0
 62
     6
  6
PHANTOM
370
    -3
390
BEE1
  0
LAYER
  5
BCE9
102
{ACAD_XDICTIONARY
360
BF39
102
}
330
BCC3
100
AcDbSymbolTableRecord
100
AcDbLayerTableRecord
  2
1
 70
     0
 62
     7
  6
CONTINUOUS
370
    -3
390
BEE1
  0
LAYER
  5
BCEA
102
{ACAD_XDICTIONARY
360
BF3B
102
}
330
BCC3
100
AcDbSymbolTableRecord
100
AcDbLayerTableRecord
  2
2
 70
     0
 62
     4
  6
CONTINUOUS
370
    -3
390
BEE1
  0
LAYER
  5
BCEB
102
{ACAD_XDICTIONARY
360
BF3D
102
}
330
BCC3
100
AcDbSymbolTableRecord
100
AcDbLayerTableRecord
  2
3
 70
     0
 62
     2
  6
DASHED
370
    -3
390
BEE1
  0
LAYER
  5
BCEC
102
{ACAD_XDICTIONARY
360
BF3F
102
}
330
BCC3
100
AcDbSymbolTableRecord
100
AcDbLayerTableRecord
  2
6
 70
     0
 62
     5
  6
CONTINUOUS
370
    -3
390
BEE1
  0
LAYER
  5
BCED
102
{ACAD_XDICTIONARY
360
BF41
102
}
330
BCC3
100
AcDbSymbolTableRecord
100
AcDbLayerTableRecord
  2
7
 70
     0
 62
     3
  6
CONTINUOUS
370
    -3
390
BEE1
  0
ENDTAB
  0
TABLE
  2
STYLE
  5
BCC4
330
0
100
AcDbSymbolTable
 70
     1
  0
STYLE
  5
BCD2
330
BCC4
100
AcDbSymbolTableRecord
100
AcDbTextStyleTableRecord
  2
STANDARD
 70
     0
 40
0.0
 41
1.0
 50
0.0
 71
     0
 42
5.0
  3
txt
  4

  0
ENDTAB
  0
TABLE
  2
VIEW
  5
BCC7
330
0
100
AcDbSymbolTable
 70
     1
  0
VIEW
  5
BCEE
330
BCC7
100
AcDbSymbolTableRecord
100
AcDbViewTableRecord
  2
7
 70
     0
 40
321.6424729999999
 10
309.8307429999999
 20
160.821236
 41
619.6614869999997
 11
0.0
 21
0.0
 31
1.0
 12
0.0
 22
0.0
 32
0.0
 42
50.0
 43
0.0
 44
0.0
 50
0.0
 71
     0
281
     0
 72
     0
  0
ENDTAB
  0
TABLE
  2
UCS
  5
BCC8
330
0
100
AcDbSymbolTable
 70
     0
  0
ENDTAB
  0
TABLE
  2
APPID
  5
BCCA
330
0
100
AcDbSymbolTable
 70
     3
  0
APPID
  5
BCD3
330
BCCA
100
AcDbSymbolTableRecord
100
AcDbRegAppTableRecord
  2
ACAD
 70
     0
  0
APPID
  5
BF4D
330
BCCA
100
AcDbSymbolTableRecord
100
AcDbRegAppTableRecord
  2
ACAD_NAV_VCDISPLAY
 70
     0
  0
APPID
  5
BF86
330
BCCA
100
AcDbSymbolTableRecord
100
AcDbRegAppTableRecord
  2
ACAD_MLEADERVER
 70
     0
  0
ENDTAB
  0
TABLE
  2
DIMSTYLE
  5
BCCB
330
0
100
AcDbSymbolTable
 70
     1
100
AcDbDimStyleTable
 71
     0
  0
DIMSTYLE
105
BCF0
330
BCCB
100
AcDbSymbolTableRecord
100
AcDbDimStyleTableRecord
  2
STANDARD
 70
     0
 41
2.5
 42
1.0
 43
10.0
 44
1.0
 73
     0
 74
     0
 77
     3
 78
     8
140
3.2
141
0.0
147
1.0
172
     1
173
     1
284
     8
285
     8
286
     8
340
BCD2
  0
ENDTAB
  0
TABLE
  2
BLOCK_RECORD
  5
BCC2
330
0
100
AcDbSymbolTable
 70
     0
  0
BLOCK_RECORD
  5
BCDF
102
{ACAD_XDICTIONARY
360
BEDB
102
}
330
BCC2
100
AcDbSymbolTableRecord
100
AcDbBlockTableRecord
  2
*MODEL_SPACE
340
BF2F
  0
BLOCK_RECORD
  5
BCDB
102
{ACAD_XDICTIONARY
360
BED9
102
}
330
BCC2
100
AcDbSymbolTableRecord
100
AcDbBlockTableRecord
  2
*PAPER_SPACE
340
BF30
  0
ENDTAB
  0
ENDSEC
  0
SECTION
  2
BLOCKS
  0
BLOCK
  5
BCE0
330
BCDF
100
AcDbEntity
  8
0
100
AcDbBlockBegin
  2
*MODEL_SPACE
 70
     0
 10
0.0
 20
0.0
 30
0.0
  3
*MODEL_SPACE
  1

  0
ENDBLK
  5
BCE1
330
BCDF
100
AcDbEntity
  8
0
100
AcDbBlockEnd
  0
BLOCK
  5
BCDC
330
BCDB
100
AcDbEntity
 67
     1
  8
0
100
AcDbBlockBegin
  2
*PAPER_SPACE
 70
     0
 10
0.0
 20
0.0
 30
0.0
  3
*PAPER_SPACE
  1

  0
ENDBLK
  5
BCDD
330
BCDB
100
AcDbEntity
 67
     1
  8
0
100
AcDbBlockEnd
  0
ENDSEC
  0
SECTION
  2
ENTITIES
  0
TEXT
  5
BCF8
330
BCDF
100
AcDbEntity
  8
7
  6
Continuous
100
AcDbText
 10
10.0
 20
18.0
 30
0.0
 40
3.0
  1
TYPE No.TM-144SS-125
100
AcDbText
  0
TEXT
  5
BCF9
330
BCDF
100
AcDbEntity
  8
7
  6
Continuous
100
AcDbText
 10
10.0
 20
26.0
 30
0.0
 40
3.0
  1
CODE No.5742
100
AcDbText
  0
TEXT
  5
BCFA
330
BCDF
100
AcDbEntity
  8
1
  6
Continuous
100
AcDbText
 10
10.0
 20
10.0
 30
0.0
 40
1.399999999999999
  1
LAYER
100
AcDbText
  0
TEXT
  5
BCFB
330
BCDF
100
AcDbEntity
  8
1
  6
Continuous
100
AcDbText
 10
17.97951099999998
 20
10.04873699999998
 30
0.0
 40
1.399999999999999
  1
1
100
AcDbText
  0
TEXT
  5
BCFC
330
BCDF
100
AcDbEntity
  8
7
  6
Continuous
100
AcDbText
 10
29.97951099999999
 20
10.04873699999998
 30
0.0
 40
1.399999999999999
  1
7
100
AcDbText
  0
TEXT
  5
BCFD
330
BCDF
100
AcDbEntity
  8
4
  6
CENTER
100
AcDbText
 10
23.97951099999999
 20
10.04873699999998
 30
0.0
 40
1.399999999999999
  1
4
100
AcDbText
  0
TEXT
  5
BCFE
330
BCDF
100
AcDbEntity
  8
3
  6
DASHED
100
AcDbText
 10
21.979511
 20
10.04873699999998
 30
0.0
 40
1.399999999999999
  1
3
100
AcDbText
  0
TEXT
  5
BCFF
330
BCDF
100
AcDbEntity
  8
2
  6
Continuous
100
AcDbText
 10
19.97951099999999
 20
10.04873699999998
 30
0.0
 40
1.399999999999999
  1
2
100
AcDbText
  0
TEXT
  5
BD00
330
BCDF
100
AcDbEntity
  8
6
  6
Continuous
100
AcDbText
 10
27.979511
 20
10.04873699999998
 30
0.0
 40
1.399999999999999
  1
6
100
AcDbText
  0
TEXT
  5
BD01
330
BCDF
100
AcDbEntity
  8
5
  6
PHANTOM
100
AcDbText
 10
25.97951099999999
 20
10.04873699999998
 30
0.0
 40
1.399999999999999
  1
5
100
AcDbText
  0
LINE
  5
BD02
330
BCDF
100
AcDbEntity
  8
1
  6
Continuous
100
AcDbLine
 10
158.545952
 20
220.7726
 30
0.0
 11
169.045952
 21
220.7726
 31
0.0
  0
LINE
  5
BD03
330
BCDF
100
AcDbEntity
  8
1
  6
Continuous
100
AcDbLine
 10
181.045952
 20
221.9036
 30
0.0
 11
181.045952
 21
225.7226
 31
0.0
  0
LINE
  5
BD04
330
BCDF
100
AcDbEntity
  8
1
  6
Continuous
100
AcDbLine
 10
177.0459519999998
 20
221.2725999999999
 30
0.0
 11
177.0459519999998
 21
231.7725999999999
 31
0.0
  0
LINE
  5
BD05
330
BCDF
100
AcDbEntity
  8
1
  6
Continuous
100
AcDbLine
 10
173.045952
 20
221.7726
 30
0.0
 11
173.045952
 21
231.2726
 31
0.0
  0
LINE
  5
BD06
330
BCDF
100
AcDbEntity
  8
1
  6
Continuous
100
AcDbLine
 10
154.545952
 20
223.7726
 30
0.0
 11
154.545952
 21
231.2726
 31
0.0
  0
LINE
  5
BD07
330
BCDF
100
AcDbEntity
  8
1
  6
Continuous
100
AcDbLine
 10
152.545952
 20
223.7706
 30
0.0
 11
152.545952
 21
229.7706
 31
0.0
  0
LINE
  5
BD08
330
BCDF
100
AcDbEntity
  8
4
  6
CENTER
100
AcDbLine
 10
163.795952
 20
81.499965
 30
0.0
 11
163.795952
 21
239.7726
 31
0.0
  0
LINE
  5
BD09
330
BCDF
100
AcDbEntity
  8
1
  6
Continuous
100
AcDbLine
 10
156.045952
 20
232.7726
 30
0.0
 11
171.545952
 21
232.7726
 31
0.0
  0
LINE
  5
BD0A
330
BCDF
100
AcDbEntity
  8
1
  6
Continuous
100
AcDbLine
 10
158.2959519999998
 20
272.7726
 30
0.0
 11
169.295952
 21
272.7726
 31
0.0
  0
LINE
  5
BD0B
330
BCDF
100
AcDbEntity
  8
1
  6
Continuous
100
AcDbLine
 10
158.2959519999998
 20
288.2726
 30
0.0
 11
169.295952
 21
288.2726
 31
0.0
  0
LINE
  5
BD0C
330
BCDF
100
AcDbEntity
  8
4
  6
CENTER
100
AcDbLine
 10
85.495952
 20
280.5226
 30
0.0
 11
242.095952
 21
280.5226
 31
0.0
  0
LINE
  5
BD0D
330
BCDF
100
AcDbEntity
  8
4
  6
CENTER
100
AcDbLine
 10
294.845952
 20
81.499965
 30
0.0
 11
294.845952
 21
239.7726379999999
 31
0.0
  0
LINE
  5
BD0E
330
BCDF
100
AcDbEntity
  8
1
  6
Continuous
100
AcDbLine
 10
181.045952
 20
276.5226
 30
0.0
 11
181.045952
 21
284.5226
 31
0.0
  0
LINE
  5
BD0F
330
BCDF
100
AcDbEntity
  8
1
  6
Continuous
100
AcDbLine
 10
177.0459519999998
 20
275.2726
 30
0.0
 11
177.0459519999998
 21
285.7725999999999
 31
0.0
  0
LINE
  5
BD10
330
BCDF
100
AcDbEntity
  8
1
  6
Continuous
100
AcDbLine
 10
173.045952
 20
275.2726
 30
0.0
 11
173.045952
 21
285.7725999999999
 31
0.0
  0
LINE
  5
BD11
330
BCDF
100
AcDbEntity
  8
4
  6
CENTER
100
AcDbLine
 10
163.795952
 20
265.7726
 30
0.0
 11
163.795952
 21
295.2726
 31
0.0
  0
LINE
  5
BD12
330
BCDF
100
AcDbEntity
  8
1
  6
Continuous
100
AcDbLine
 10
154.545952
 20
275.2726
 30
0.0
 11
154.545952
 21
285.7725999999999
 31
0.0
  0
LINE
  5
BD13
330
BCDF
100
AcDbEntity
  8
1
  6
Continuous
100
AcDbLine
 10
152.545952
 20
277.5225999999999
 30
0.0
 11
152.545952
 21
283.5226
 31
0.0
  0
LINE
  5
BD14
330
BCDF
100
AcDbEntity
  8
1
  6
Continuous
100
AcDbLine
 10
152.545952
 20
223.7726
 30
0.0
 11
158.2959519999998
 21
223.7726
 31
0.0
  0
LINE
  5
BD15
330
BCDF
100
AcDbEntity
  8
1
  6
Continuous
100
AcDbLine
 10
152.545952
 20
229.7726
 30
0.0
 11
154.545952
 21
229.7726
 31
0.0
  0
ARC
  5
BD16
330
BCDF
100
AcDbEntity
  8
1
  6
Continuous
100
AcDbCircle
 10
156.045952
 20
231.2726
 30
0.0
 40
1.5
100
AcDbArc
 50
90.0
 51
180.0
  0
ARC
  5
BD17
330
BCDF
100
AcDbEntity
  8
1
  6
Continuous
100
AcDbCircle
 10
171.545952
 20
231.2726
 30
0.0
 40
1.5
100
AcDbArc
 50
0.0
 51
90.0
  0
ARC
  5
BD18
330
BCDF
100
AcDbEntity
  8
1
  6
Continuous
100
AcDbCircle
 10
163.795952
 20
220.578156
 30
0.0
 40
7.694443999999997
100
AcDbArc
 50
24.52954699999999
 51
155.4704529999999
  0
LINE
  5
BD19
330
BCDF
100
AcDbEntity
  8
1
  6
Continuous
100
AcDbLine
 10
169.295952
 20
223.7726
 30
0.0
 11
169.045952
 21
220.7726
 31
0.0
  0
LINE
  5
BD1A
330
BCDF
100
AcDbEntity
  8
1
  6
Continuous
100
AcDbLine
 10
158.2959519999998
 20
223.7726
 30
0.0
 11
158.545952
 21
220.7726
 31
0.0
  0
ARC
  5
BD1B
330
BCDF
100
AcDbEntity
  8
1
  6
Continuous
100
AcDbCircle
 10
163.795952
 20
219.770814
 30
0.0
 40
6.801785999999997
100
AcDbArc
 50
36.039539
 51
143.960461
  0
LINE
  5
BD1C
330
BCDF
100
AcDbEntity
  8
1
  6
Continuous
100
AcDbLine
 10
169.295952
 20
223.7726
 30
0.0
 11
173.045952
 21
223.7726
 31
0.0
  0
LINE
  5
BD1D
330
BCDF
100
AcDbEntity
  8
1
  6
Continuous
100
AcDbLine
 10
173.045952
 20
231.2726
 30
0.0
 11
177.0459519999998
 21
231.7725999999999
 31
0.0
  0
LINE
  5
BD1E
330
BCDF
100
AcDbEntity
  8
1
  6
Continuous
100
AcDbLine
 10
173.045952
 20
221.7726
 30
0.0
 11
177.0459519999998
 21
221.2725999999999
 31
0.0
  0
LINE
  5
BD1F
330
BCDF
100
AcDbEntity
  8
4
  6
CENTER
100
AcDbLine
 10
144.040532
 20
226.5226
 30
0.0
 11
188.045952
 21
226.5226
 31
0.0
  0
LINE
  5
BD20
330
BCDF
100
AcDbEntity
  8
1
  6
Continuous
100
AcDbLine
 10
177.0459519999998
 20
231.1416
 30
0.0
 11
181.045952
 21
231.1416
 31
0.0
  0
LINE
  5
BD21
330
BCDF
100
AcDbEntity
  8
1
  6
Continuous
100
AcDbLine
 10
177.0459519999998
 20
221.9036
 30
0.0
 11
181.045952
 21
221.9036
 31
0.0
  0
LINE
  5
BD22
330
BCDF
100
AcDbEntity
  8
1
  6
Continuous
100
AcDbLine
 10
178.0459519999998
 20
227.3226
 30
0.0
 11
181.045952
 21
227.3226
 31
0.0
  0
LINE
  5
BD23
330
BCDF
100
AcDbEntity
  8
1
  6
Continuous
100
AcDbLine
 10
178.0459519999998
 20
225.7226
 30
0.0
 11
181.045952
 21
225.7226
 31
0.0
  0
LINE
  5
BD24
330
BCDF
100
AcDbEntity
  8
1
  6
Continuous
100
AcDbLine
 10
178.0459519999998
 20
225.7226
 30
0.0
 11
178.0459519999998
 21
227.3226
 31
0.0
  0
LINE
  5
BD25
330
BCDF
100
AcDbEntity
  8
1
  6
Continuous
100
AcDbLine
 10
181.045952
 20
227.3226
 30
0.0
 11
181.045952
 21
231.1416
 31
0.0
  0
LINE
  5
BD26
330
BCDF
100
AcDbEntity
  8
1
  6
Continuous
100
AcDbLine
 10
177.0459519999998
 20
228.8320999999999
 30
0.0
 11
179.545952
 21
228.8320999999999
 31
0.0
  0
LINE
  5
BD27
330
BCDF
100
AcDbEntity
  8
1
  6
Continuous
100
AcDbLine
 10
177.0459519999998
 20
224.2131
 30
0.0
 11
179.545952
 21
224.2131
 31
0.0
  0
LINE
  5
BD28
330
BCDF
100
AcDbEntity
  8
1
  6
Continuous
100
AcDbLine
 10
179.545952
 20
228.8320999999999
 30
0.0
 11
181.045952
 21
228.2321
 31
0.0
  0
LINE
  5
BD29
330
BCDF
100
AcDbEntity
  8
1
  6
Continuous
100
AcDbLine
 10
179.545952
 20
228.8320999999999
 30
0.0
 11
181.045952
 21
229.4321
 31
0.0
  0
LINE
  5
BD2A
330
BCDF
100
AcDbEntity
  8
1
  6
Continuous
100
AcDbLine
 10
179.545952
 20
224.2131
 30
0.0
 11
181.045952
 21
224.8130999999999
 31
0.0
  0
LINE
  5
BD2B
330
BCDF
100
AcDbEntity
  8
1
  6
Continuous
100
AcDbLine
 10
179.545952
 20
224.2131
 30
0.0
 11
181.045952
 21
223.6130999999998
 31
0.0
  0
LINE
  5
BD2C
330
BCDF
100
AcDbEntity
  8
4
  6
CENTER
100
AcDbLine
 10
281.345952
 20
226.522638
 30
0.0
 11
308.345952
 21
226.522638
 31
0.0
  0
ARC
  5
BD2D
330
BCDF
100
AcDbEntity
  8
1
  6
Continuous
100
AcDbCircle
 10
294.845952
 20
226.522638
 30
0.0
 40
3.0
100
AcDbArc
 50
15.46601
 51
164.5339899999999
  0
LINE
  5
BD2E
330
BCDF
100
AcDbEntity
  8
1
  6
Continuous
100
AcDbLine
 10
290.845952
 20
227.322638
 30
0.0
 11
298.845952
 21
227.322638
 31
0.0
  0
LINE
  5
BD2F
330
BCDF
100
AcDbEntity
  8
1
  6
Continuous
100
AcDbLine
 10
290.845952
 20
225.722638
 30
0.0
 11
298.845952
 21
225.722638
 31
0.0
  0
ARC
  5
BD30
330
BCDF
100
AcDbEntity
  8
1
  6
Continuous
100
AcDbCircle
 10
294.845952
 20
226.522638
 30
0.0
 40
3.0
100
AcDbArc
 50
195.4660099999999
 51
344.53399
  0
CIRCLE
  5
BD31
330
BCDF
100
AcDbEntity
  8
1
  6
Continuous
100
AcDbCircle
 10
294.845952
 20
226.522638
 30
0.0
 40
5.25
  0
LINE
  5
BD32
330
BCDF
100
AcDbEntity
  8
1
  6
Continuous
100
AcDbLine
 10
301.095952
 20
223.772638
 30
0.0
 11
301.095952
 21
227.2726379999999
 31
0.0
  0
LINE
  5
BD33
330
BCDF
100
AcDbEntity
  8
1
  6
Continuous
100
AcDbLine
 10
288.595952
 20
223.772638
 30
0.0
 11
288.595952
 21
227.2726379999999
 31
0.0
  0
LINE
  5
BD34
330
BCDF
100
AcDbEntity
  8
1
  6
Continuous
100
AcDbLine
 10
288.3421769999998
 20
223.772638
 30
0.0
 11
290.3738159999999
 21
223.772638
 31
0.0
  0
ARC
  5
BD35
330
BCDF
100
AcDbEntity
  8
1
  6
Continuous
100
AcDbCircle
 10
294.845952
 20
226.471502
 30
0.0
 40
6.301135999999998
100
AcDbArc
 50
7.304446000000001
 51
172.6955539999999
  0
LINE
  5
BD36
330
BCDF
100
AcDbEntity
  8
1
  6
Continuous
100
AcDbLine
 10
299.3180869999998
 20
223.772638
 30
0.0
 11
301.336102
 21
223.772638
 31
0.0
  0
ARC
  5
BD37
330
BCDF
100
AcDbEntity
  8
1
  6
Continuous
100
AcDbCircle
 10
288.595952
 20
222.272638
 30
0.0
 40
1.5
100
AcDbArc
 50
180.0
 51
260.405932
  0
ARC
  5
BD38
330
BCDF
100
AcDbEntity
  8
1
  6
Continuous
100
AcDbCircle
 10
301.095952
 20
222.272638
 30
0.0
 40
1.5
100
AcDbArc
 50
279.594068
 51
355.7894899999998
  0
LINE
  5
BD39
330
BCDF
100
AcDbEntity
  8
1
  6
Continuous
100
AcDbLine
 10
177.0459519999998
 20
284.5226
 30
0.0
 11
181.045952
 21
284.5226
 31
0.0
  0
LINE
  5
BD3A
330
BCDF
100
AcDbEntity
  8
1
  6
Continuous
100
AcDbLine
 10
177.0459519999998
 20
276.5226
 30
0.0
 11
181.045952
 21
276.5226
 31
0.0
  0
LINE
  5
BD3B
330
BCDF
100
AcDbEntity
  8
1
  6
Continuous
100
AcDbLine
 10
177.0459519999998
 20
285.7725999999999
 30
0.0
 11
173.045952
 21
285.2726
 31
0.0
  0
LINE
  5
BD3C
330
BCDF
100
AcDbEntity
  8
1
  6
Continuous
100
AcDbLine
 10
177.0459519999998
 20
275.2726
 30
0.0
 11
173.045952
 21
275.7726
 31
0.0
  0
LINE
  5
BD3D
330
BCDF
100
AcDbEntity
  8
1
  6
Continuous
100
AcDbLine
 10
155.545952
 20
286.7726
 30
0.0
 11
156.795952
 21
286.7726
 31
0.0
  0
LINE
  5
BD3E
330
BCDF
100
AcDbEntity
  8
1
  6
Continuous
100
AcDbLine
 10
155.545952
 20
274.2726
 30
0.0
 11
156.795952
 21
274.2726
 31
0.0
  0
LINE
  5
BD3F
330
BCDF
100
AcDbEntity
  8
1
  6
Continuous
100
AcDbLine
 10
152.545952
 20
283.5226
 30
0.0
 11
154.545952
 21
283.5226
 31
0.0
  0
LINE
  5
BD40
330
BCDF
100
AcDbEntity
  8
1
  6
Continuous
100
AcDbLine
 10
152.545952
 20
277.5225999999999
 30
0.0
 11
154.545952
 21
277.5225999999999
 31
0.0
  0
ARC
  5
BD41
330
BCDF
100
AcDbEntity
  8
1
  6
Continuous
100
AcDbCircle
 10
154.795952
 20
280.5226
 30
0.0
 40
3.75
100
AcDbArc
 50
126.869898
 51
233.130102
  0
ARC
  5
BD42
330
BCDF
100
AcDbEntity
  8
1
  6
Continuous
100
AcDbCircle
 10
172.045952
 20
285.7725999999999
 30
0.0
 40
1.0
100
AcDbArc
 50
0.0
 51
90.0
  0
ARC
  5
BD43
330
BCDF
100
AcDbEntity
  8
1
  6
Continuous
100
AcDbCircle
 10
172.045952
 20
275.2726
 30
0.0
 40
1.0
100
AcDbArc
 50
270.0
 51
0.0
  0
ARC
  5
BD44
330
BCDF
100
AcDbEntity
  8
1
  6
Continuous
100
AcDbCircle
 10
155.545952
 20
275.2726
 30
0.0
 40
1.0
100
AcDbArc
 50
180.0
 51
270.0
  0
ARC
  5
BD45
330
BCDF
100
AcDbEntity
  8
1
  6
Continuous
100
AcDbCircle
 10
155.545952
 20
285.7725999999999
 30
0.0
 40
1.0
100
AcDbArc
 50
90.0
 51
180.0
  0
ARC
  5
BD46
330
BCDF
100
AcDbEntity
  8
1
  6
Continuous
100
AcDbCircle
 10
163.795952
 20
305.7475999999998
 30
0.0
 40
20.225
100
AcDbArc
 50
249.750657
 51
290.249343
  0
ARC
  5
BD47
330
BCDF
100
AcDbEntity
  8
1
  6
Continuous
100
AcDbCircle
 10
163.795952
 20
255.2976
 30
0.0
 40
20.225
100
AcDbArc
 50
69.75065699999999
 51
110.249343
  0
LINE
  5
BD48
330
BCDF
100
AcDbEntity
  8
1
  6
Continuous
100
AcDbLine
 10
169.295952
 20
288.2726
 30
0.0
 11
170.7959519999998
 21
286.7726
 31
0.0
  0
LINE
  5
BD49
330
BCDF
100
AcDbEntity
  8
1
  6
Continuous
100
AcDbLine
 10
158.2959519999998
 20
288.2726
 30
0.0
 11
156.795952
 21
286.7726
 31
0.0
  0
LINE
  5
BD4A
330
BCDF
100
AcDbEntity
  8
1
  6
Continuous
100
AcDbLine
 10
156.795952
 20
274.2726
 30
0.0
 11
158.2959519999998
 21
272.7726
 31
0.0
  0
LINE
  5
BD4B
330
BCDF
100
AcDbEntity
  8
1
  6
Continuous
100
AcDbLine
 10
170.7959519999998
 20
274.2726
 30
0.0
 11
169.295952
 21
272.7726
 31
0.0
  0
LINE
  5
BD4C
330
BCDF
100
AcDbEntity
  8
1
  6
Continuous
100
AcDbLine
 10
170.7959519999998
 20
286.7726
 30
0.0
 11
172.045952
 21
286.7726
 31
0.0
  0
LINE
  5
BD4D
330
BCDF
100
AcDbEntity
  8
1
  6
Continuous
100
AcDbLine
 10
170.7959519999998
 20
274.2726
 30
0.0
 11
172.045952
 21
274.2726
 31
0.0
  0
LINE
  5
BD4E
330
BCDF
100
AcDbEntity
  8
1
  6
Continuous
100
AcDbLine
 10
181.045952
 20
281.1225999999999
 30
0.0
 11
179.545952
 21
280.5226
 31
0.0
  0
LINE
  5
BD4F
330
BCDF
100
AcDbEntity
  8
1
  6
Continuous
100
AcDbLine
 10
179.545952
 20
280.5226
 30
0.0
 11
181.045952
 21
279.9225999999998
 31
0.0
  0
LINE
  5
BD50
330
BCDF
100
AcDbEntity
  8
1
  6
Continuous
100
AcDbLine
 10
179.545952
 20
280.5226
 30
0.0
 11
177.0459519999998
 21
280.5226
 31
0.0
  0
LINE
  5
BD51
330
BCDF
100
AcDbEntity
  8
1
  6
Continuous
100
AcDbLine
 10
301.652706
 20
221.686404
 30
0.0
 11
301.345952
 21
221.6725999999999
 31
0.0
  0
LINE
  5
BD52
330
BCDF
100
AcDbEntity
  8
1
  6
Continuous
100
AcDbLine
 10
288.016718
 20
221.687416
 30
0.0
 11
288.345952
 21
221.6725999999999
 31
0.0
  0
LINE
  5
BD53
330
BCDF
100
AcDbEntity
  8
1
  6
Continuous
100
AcDbLine
 10
100.495952
 20
287.0226
 30
0.0
 11
157.0459519999998
 21
287.0226
 31
0.0
  0
LINE
  5
BD54
330
BCDF
100
AcDbEntity
  8
1
  6
Continuous
100
AcDbLine
 10
100.495952
 20
274.0226
 30
0.0
 11
157.0459519999998
 21
274.0226
 31
0.0
  0
LINE
  5
BD55
330
BCDF
100
AcDbEntity
  8
1
  6
Continuous
100
AcDbLine
 10
170.5459519999998
 20
287.0226
 30
0.0
 11
227.095952
 21
287.0226
 31
0.0
  0
LINE
  5
BD56
330
BCDF
100
AcDbEntity
  8
1
  6
Continuous
100
AcDbLine
 10
170.5459519999998
 20
274.0226
 30
0.0
 11
227.095952
 21
274.0226
 31
0.0
  0
ARC
  5
BD57
330
BCDF
100
AcDbEntity
  8
1
  6
Continuous
100
AcDbCircle
 10
154.7732849999999
 20
226.7716
 30
0.0
 40
3.735641
100
AcDbArc
 50
126.600977
 51
233.399023
  0
LINE
  5
BD58
330
BCDF
100
AcDbEntity
  8
1
  6
Continuous
100
AcDbLine
 10
301.345952
 20
96.499965
 30
0.0
 11
301.345952
 21
223.309025
 31
0.0
  0
LINE
  5
BD59
330
BCDF
100
AcDbEntity
  8
1
  6
Continuous
100
AcDbLine
 10
288.345952
 20
96.499965
 30
0.0
 11
288.345952
 21
223.309025
 31
0.0
  0
ARC
  5
BD5A
330
BCDF
100
AcDbEntity
  8
1
  6
Continuous
100
AcDbCircle
 10
300.845952
 20
227.0778889999998
 30
0.0
 40
1.0
100
AcDbArc
 50
0.0
 51
84.600387
  0
ARC
  5
BD5B
330
BCDF
100
AcDbEntity
  8
1
  6
Continuous
100
AcDbCircle
 10
288.8459519999999
 20
227.0778889999998
 30
0.0
 40
1.0
100
AcDbArc
 50
95.39961299999999
 51
180.0
  0
LINE
  5
BD5C
330
BCDF
100
AcDbEntity
  8
1
  6
Continuous
100
AcDbLine
 10
301.845952
 20
227.0778889999998
 30
0.0
 11
302.591903
 21
222.162506
 31
0.0
  0
LINE
  5
BD5D
330
BCDF
100
AcDbEntity
  8
1
  6
Continuous
100
AcDbLine
 10
287.845952
 20
227.0778889999998
 30
0.0
 11
287.0959519999999
 21
222.272638
 31
0.0
  0
ARC
  5
BD5E
330
BCDF
100
AcDbEntity
  8
1
  6
Continuous
100
AcDbCircle
 10
32.75
 20
226.471502
 30
0.0
 40
6.301135999999998
100
AcDbArc
 50
7.304446000000001
 51
172.6955539999999
  0
LINE
  5
BD5F
330
BCDF
100
AcDbEntity
  8
4
  6
CENTER
100
AcDbLine
 10
32.75
 20
81.499965
 30
0.0
 11
32.75
 21
239.7726379999999
 31
0.0
  0
LINE
  5
BD60
330
BCDF
100
AcDbEntity
  8
1
  6
Continuous
100
AcDbLine
 10
26.25
 20
96.499965
 30
0.0
 11
26.25
 21
223.073066
 31
0.0
  0
LINE
  5
BD61
330
BCDF
100
AcDbEntity
  8
1
  6
Continuous
100
AcDbLine
 10
39.25
 20
96.499965
 30
0.0
 11
39.25
 21
223.073066
 31
0.0
  0
LINE
  5
BD62
330
BCDF
100
AcDbEntity
  8
4
  6
CENTER
100
AcDbLine
 10
19.25
 20
226.522638
 30
0.0
 11
46.25
 21
226.522638
 31
0.0
  0
LINE
  5
BD63
330
BCDF
100
AcDbEntity
  8
1
  6
Continuous
100
AcDbLine
 10
25.75
 20
227.0778889999998
 30
0.0
 11
25.0
 21
222.272638
 31
0.0
  0
ARC
  5
BD64
330
BCDF
100
AcDbEntity
  8
1
  6
Continuous
100
AcDbCircle
 10
26.75
 20
227.0778889999998
 30
0.0
 40
1.0
100
AcDbArc
 50
95.39961299999999
 51
180.0
  0
LINE
  5
BD65
330
BCDF
100
AcDbEntity
  8
1
  6
Continuous
100
AcDbLine
 10
25.920766
 20
221.687416
 30
0.0
 11
26.25
 21
221.6725999999999
 31
0.0
  0
ARC
  5
BD66
330
BCDF
100
AcDbEntity
  8
1
  6
Continuous
100
AcDbCircle
 10
26.5
 20
222.272638
 30
0.0
 40
1.5
100
AcDbArc
 50
180.0
 51
260.405932
  0
LINE
  5
BD67
330
BCDF
100
AcDbEntity
  8
1
  6
Continuous
100
AcDbLine
 10
26.246226
 20
223.772638
 30
0.0
 11
27.833508
 21
223.772638
 31
0.0
  0
LINE
  5
BD68
330
BCDF
100
AcDbEntity
  8
1
  6
Continuous
100
AcDbLine
 10
26.5
 20
223.772638
 30
0.0
 11
26.5
 21
227.2726379999999
 31
0.0
  0
LINE
  5
BD69
330
BCDF
100
AcDbEntity
  8
1
  6
Continuous
100
AcDbLine
 10
39.75
 20
227.0778889999998
 30
0.0
 11
40.495952
 21
222.162506
 31
0.0
  0
ARC
  5
BD6A
330
BCDF
100
AcDbEntity
  8
1
  6
Continuous
100
AcDbCircle
 10
38.75
 20
227.0778889999998
 30
0.0
 40
1.0
100
AcDbArc
 50
0.0
 51
84.600387
  0
LINE
  5
BD6B
330
BCDF
100
AcDbEntity
  8
1
  6
Continuous
100
AcDbLine
 10
39.556754
 20
221.686404
 30
0.0
 11
39.25
 21
221.6725999999999
 31
0.0
  0
ARC
  5
BD6C
330
BCDF
100
AcDbEntity
  8
1
  6
Continuous
100
AcDbCircle
 10
39.0
 20
222.272638
 30
0.0
 40
1.5
100
AcDbArc
 50
279.594068
 51
355.7894899999998
  0
LINE
  5
BD6D
330
BCDF
100
AcDbEntity
  8
1
  6
Continuous
100
AcDbLine
 10
37.66649199999999
 20
223.772638
 30
0.0
 11
39.24015
 21
223.772638
 31
0.0
  0
LINE
  5
BD6E
330
BCDF
100
AcDbEntity
  8
1
  6
Continuous
100
AcDbLine
 10
39.0
 20
223.772638
 30
0.0
 11
39.0
 21
227.2726379999999
 31
0.0
  0
LINE
  5
BD6F
330
BCDF
100
AcDbEntity
  8
4
  6
CENTER
100
AcDbLine
 10
163.795952
 20
34.0
 30
0.0
 11
163.795952
 21
63.5
 31
0.0
  0
LINE
  5
BD70
330
BCDF
100
AcDbEntity
  8
1
  6
Continuous
100
AcDbLine
 10
100.495952
 20
42.25
 30
0.0
 11
227.095952
 21
42.25
 31
0.0
  0
LINE
  5
BD71
330
BCDF
100
AcDbEntity
  8
1
  6
Continuous
100
AcDbLine
 10
158.2959519999998
 20
41.0
 30
0.0
 11
169.295952
 21
41.0
 31
0.0
  0
LINE
  5
BD72
330
BCDF
100
AcDbEntity
  8
1
  6
Continuous
100
AcDbLine
 10
100.495952
 20
55.25
 30
0.0
 11
227.095952
 21
55.25
 31
0.0
  0
LINE
  5
BD73
330
BCDF
100
AcDbEntity
  8
4
  6
CENTER
100
AcDbLine
 10
85.495952
 20
48.75
 30
0.0
 11
242.095952
 21
48.75
 31
0.0
  0
LINE
  5
BD74
330
BCDF
100
AcDbEntity
  8
1
  6
Continuous
100
AcDbLine
 10
158.2959519999998
 20
56.5
 30
0.0
 11
169.295952
 21
56.5
 31
0.0
  0
LINE
  5
BD75
330
BCDF
100
AcDbEntity
  8
1
  6
Continuous
100
AcDbLine
 10
158.508094
 20
221.2268959999999
 30
0.0
 11
154.8927609999998
 21
216.9811709999999
 31
0.0
  0
LINE
  5
BD76
330
BCDF
100
AcDbEntity
  8
1
  6
Continuous
100
AcDbLine
 10
158.437846
 20
222.0698669999999
 30
0.0
 11
154.435941
 21
217.3701639999999
 31
0.0
  0
LINE
  5
BD77
330
BCDF
100
AcDbEntity
  8
1
  6
Continuous
100
AcDbLine
 10
154.435941
 20
217.3701639999999
 30
0.0
 11
154.8927609999998
 21
216.9811709999999
 31
0.0
  0
LINE
  5
BD78
330
BCDF
100
AcDbEntity
  8
1
  6
Continuous
100
AcDbLine
 10
155.991912
 20
219.197444
 30
0.0
 11
156.448732
 21
218.8084519999999
 31
0.0
  0
CIRCLE
  5
BD79
330
BCDF
100
AcDbEntity
  8
1
  6
Continuous
100
AcDbCircle
 10
32.75
 20
226.7705999999999
 30
0.0
 40
3.0
  0
LINE
  5
BD7A
330
BCDF
100
AcDbEntity
  8
1
  6
Continuous
100
AcDbLine
 10
29.75
 20
226.7705999999999
 30
0.0
 11
28.75649199999999
 21
224.3878
 31
0.0
  0
LINE
  5
BD7B
330
BCDF
100
AcDbEntity
  8
1
  6
Continuous
100
AcDbLine
 10
35.75
 20
226.7705999999999
 30
0.0
 11
36.743508
 21
224.3878
 31
0.0
  0
ARC
  5
BD7C
330
BCDF
100
AcDbEntity
  8
1
  6
Continuous
100
AcDbCircle
 10
37.66649199999999
 20
224.772638
 30
0.0
 40
1.0
100
AcDbArc
 50
202.6336909999999
 51
270.0
  0
ARC
  5
BD7D
330
BCDF
100
AcDbEntity
  8
1
  6
Continuous
100
AcDbCircle
 10
27.833508
 20
224.772638
 30
0.0
 40
1.0
100
AcDbArc
 50
270.0
 51
337.3663089999999
  0
LINE
  5
BD7E
330
BCDF
100
AcDbEntity
  8
1
  6
Continuous
100
AcDbLine
 10
158.545952
 20
56.5
 30
0.0
 11
158.545952
 21
55.25
 31
0.0
  0
LINE
  5
BD7F
330
BCDF
100
AcDbEntity
  8
1
  6
Continuous
100
AcDbLine
 10
169.045952
 20
41.00044699999997
 30
0.0
 11
169.045952
 21
42.25
 31
0.0
  0
LINE
  5
BD80
330
BCDF
100
AcDbEntity
  8
1
  6
Continuous
100
AcDbLine
 10
169.295952
 20
56.5
 30
0.0
 11
169.295952
 21
55.25
 31
0.0
  0
LINE
  5
BD81
330
BCDF
100
AcDbEntity
  8
1
  6
Continuous
100
AcDbLine
 10
158.2959519999998
 20
56.5
 30
0.0
 11
158.2959519999998
 21
55.25
 31
0.0
  0
LINE
  5
BD82
330
BCDF
100
AcDbEntity
  8
1
  6
Continuous
100
AcDbLine
 10
158.2959519999998
 20
56.5
 30
0.0
 11
157.0459519999998
 21
55.25
 31
0.0
  0
LINE
  5
BD83
330
BCDF
100
AcDbEntity
  8
1
  6
Continuous
100
AcDbLine
 10
169.295952
 20
56.5
 30
0.0
 11
170.5459519999998
 21
55.25
 31
0.0
  0
LINE
  5
BD84
330
BCDF
100
AcDbEntity
  8
1
  6
Continuous
100
AcDbLine
 10
158.2959519999998
 20
41.00044699999997
 30
0.0
 11
157.046026
 21
42.25
 31
0.0
  0
LINE
  5
BD85
330
BCDF
100
AcDbEntity
  8
1
  6
Continuous
100
AcDbLine
 10
169.295952
 20
41.0
 30
0.0
 11
170.5459519999998
 21
42.25
 31
0.0
  0
LINE
  5
BD86
330
BCDF
100
AcDbEntity
  8
1
  6
Continuous
100
AcDbLine
 10
169.295952
 20
42.25
 30
0.0
 11
169.295952
 21
41.00044699999997
 31
0.0
  0
LINE
  5
BD87
330
BCDF
100
AcDbEntity
  8
1
  6
Continuous
100
AcDbLine
 10
169.045952
 20
55.25
 30
0.0
 11
169.045952
 21
56.5
 31
0.0
  0
LINE
  5
BD88
330
BCDF
100
AcDbEntity
  8
1
  6
Continuous
100
AcDbLine
 10
158.545952
 20
42.25
 30
0.0
 11
158.545952
 21
41.00044699999997
 31
0.0
  0
LINE
  5
BD89
330
BCDF
100
AcDbEntity
  8
1
  6
Continuous
100
AcDbLine
 10
158.2959519999998
 20
42.25
 30
0.0
 11
158.2959519999998
 21
41.00044699999997
 31
0.0
  0
LINE
  5
BD8A
330
BCDF
100
AcDbEntity
  8
1
  6
Continuous
100
AcDbLine
 10
288.3421769999998
 20
223.772638
 30
0.0
 11
288.016718
 21
221.687416
 31
0.0
  0
LINE
  5
BD8B
330
BCDF
100
AcDbEntity
  8
1
  6
Continuous
100
AcDbLine
 10
301.336102
 20
223.772638
 30
0.0
 11
301.652706
 21
221.686404
 31
0.0
  0
LINE
  5
BD8C
330
BCDF
100
AcDbEntity
  8
1
  6
Continuous
100
AcDbLine
 10
26.246226
 20
223.772638
 30
0.0
 11
25.920766
 21
221.687416
 31
0.0
  0
LINE
  5
BD8D
330
BCDF
100
AcDbEntity
  8
1
  6
Continuous
100
AcDbLine
 10
39.24015
 20
223.772638
 30
0.0
 11
39.556754
 21
221.686404
 31
0.0
  0
LINE
  5
BD8E
330
BCDF
100
AcDbEntity
  8
1
  6
Continuous
100
AcDbLine
 10
26.25
 20
223.073066
 30
0.0
 11
39.25
 21
223.073066
 31
0.0
  0
LINE
  5
BD8F
330
BCDF
100
AcDbEntity
  8
1
  6
Continuous
100
AcDbLine
 10
288.345952
 20
223.309025
 30
0.0
 11
290.6944229999999
 21
223.309025
 31
0.0
  0
LINE
  5
BD90
330
BCDF
100
AcDbEntity
  8
1
  6
Continuous
100
AcDbLine
 10
298.99748
 20
223.309025
 30
0.0
 11
301.345952
 21
223.309025
 31
0.0
  0
ARC
  5
BD91
330
BCDF
100
AcDbEntity
  8
5
  6
PHANTOM
100
AcDbCircle
 10
164.0188929999998
 20
163.8099649999998
 30
0.0
 40
58.5
100
AcDbArc
 50
95.47231200000002
 51
54.88044399999999
  0
ARC
  5
BD92
330
BCDF
100
AcDbEntity
  8
1
  6
Continuous
100
AcDbCircle
 10
163.795952
 20
159.799965
 30
0.0
 40
62.5
100
AcDbArc
 50
94.917986
 51
59.797189
  0
ARC
  5
BD93
330
BCDF
100
AcDbEntity
  8
5
  6
PHANTOM
100
AcDbCircle
 10
164.0188929999998
 20
163.8099649999998
 30
0.0
 40
59.29999999999999
100
AcDbArc
 50
95.462751
 51
54.90191899999999
  0
ARC
  5
BD94
330
BCDF
100
AcDbEntity
  8
5
  6
PHANTOM
100
AcDbCircle
 10
164.0188929999998
 20
163.8099649999998
 30
0.0
 40
60.1
100
AcDbArc
 50
33.56658
 51
54.92281699999999
  0
ARC
  5
BD95
330
BCDF
100
AcDbEntity
  8
1
  6
Continuous
100
AcDbCircle
 10
163.795952
 20
159.799965
 30
0.0
 40
63.3
100
AcDbArc
 50
94.916035
 51
59.839838
  0
LINE
  5
BD96
330
BCDF
100
AcDbEntity
  8
5
  6
PHANTOM
100
AcDbLine
 10
214.09685
 20
197.0395919999999
 30
0.0
 11
213.430255
 21
196.5972679999999
 31
0.0
  0
LINE
  5
BD97
330
BCDF
100
AcDbEntity
  8
4
  6
CENTER
100
AcDbLine
 10
11.25
 20
159.799965
 30
0.0
 11
54.25
 21
159.799965
 31
0.0
  0
LINE
  5
BD98
330
BCDF
100
AcDbEntity
  8
1
  6
Continuous
100
AcDbLine
 10
195.9607059999999
 20
215.245781
 30
0.0
 11
195.5565789999999
 21
214.549145
 31
0.0
  0
LINE
  5
BD99
330
BCDF
100
AcDbEntity
  8
1
  6
Continuous
100
AcDbLine
 10
26.25
 20
96.499965
 30
0.0
 11
39.25
 21
96.499965
 31
0.0
  0
LINE
  5
BD9A
330
BCDF
100
AcDbEntity
  8
1
  6
Continuous
100
AcDbLine
 10
227.095952
 20
287.0226
 30
0.0
 11
227.095952
 21
274.0226
 31
0.0
  0
LINE
  5
BD9B
330
BCDF
100
AcDbEntity
  8
1
  6
Continuous
100
AcDbLine
 10
100.495952
 20
287.0226
 30
0.0
 11
100.495952
 21
274.0226
 31
0.0
  0
LINE
  5
BD9C
330
BCDF
100
AcDbEntity
  8
4
  6
CENTER
100
AcDbLine
 10
85.495952
 20
159.799965
 30
0.0
 11
242.095952
 21
159.799965
 31
0.0
  0
LINE
  5
BD9D
330
BCDF
100
AcDbEntity
  8
4
  6
CENTER
100
AcDbLine
 10
273.345952
 20
159.799965
 30
0.0
 11
316.3459519999999
 21
159.799965
 31
0.0
  0
LINE
  5
BD9E
330
BCDF
100
AcDbEntity
  8
1
  6
Continuous
100
AcDbLine
 10
288.345952
 20
96.499965
 30
0.0
 11
301.345952
 21
96.499965
 31
0.0
  0
LINE
  5
BD9F
330
BCDF
100
AcDbEntity
  8
1
  6
Continuous
100
AcDbLine
 10
100.495952
 20
55.25
 30
0.0
 11
100.495952
 21
42.25
 31
0.0
  0
LINE
  5
BDA0
330
BCDF
100
AcDbEntity
  8
1
  6
Continuous
100
AcDbLine
 10
227.095952
 20
55.25
 30
0.0
 11
227.095952
 21
42.25
 31
0.0
  0
LINE
  5
BDA1
330
BCDF
100
AcDbEntity
  8
1
  6
Continuous
100
AcDbLine
 10
151.7022499999999
 20
278.4032809999998
 30
0.0
 11
151.7022499999999
 21
277.7224079999999
 31
0.0
  0
ARC
  5
BDA2
330
BCDF
100
AcDbEntity
  8
1
  6
Continuous
100
AcDbCircle
 10
152.00225
 20
277.7224079999999
 30
0.0
 40
0.3
100
AcDbArc
 50
180.0
 51
0.0
  0
ARC
  5
BDA3
330
BCDF
100
AcDbEntity
  8
1
  6
Continuous
100
AcDbCircle
 10
152.60225
 20
283.422408
 30
0.0
 40
0.3
100
AcDbArc
 50
19.51006299999999
 51
180.0
  0
LINE
  5
BDA4
330
BCDF
100
AcDbEntity
  8
1
  6
Continuous
100
AcDbLine
 10
152.3022499999999
 20
283.422408
 30
0.0
 11
152.2765179999999
 21
283.300181
 31
0.0
  0
LINE
  5
BDA5
330
BCDF
100
AcDbEntity
  8
1
  6
Continuous
100
AcDbLine
 10
150.495675
 20
283.359942
 30
0.0
 11
149.90225
 21
277.7224079999999
 31
0.0
  0
LINE
  5
BDA6
330
BCDF
100
AcDbEntity
  8
1
  6
Continuous
100
AcDbLine
 10
149.3022499999999
 20
280.416225
 30
0.0
 11
149.3022499999999
 21
277.7224079999999
 31
0.0
  0
ARC
  5
BDA7
330
BCDF
100
AcDbEntity
  8
1
  6
Continuous
100
AcDbCircle
 10
149.60225
 20
277.7224079999999
 30
0.0
 40
0.3
100
AcDbArc
 50
180.0
 51
0.0
  0
ARC
  5
BDA8
330
BCDF
100
AcDbEntity
  8
1
  6
Continuous
100
AcDbCircle
 10
150.2022499999999
 20
283.422408
 30
0.0
 40
0.3
100
AcDbArc
 50
347.9819879999998
 51
180.0
  0
LINE
  5
BDA9
330
BCDF
100
AcDbEntity
  8
1
  6
Continuous
100
AcDbLine
 10
149.90225
 20
283.422408
 30
0.0
 11
149.334426
 21
280.7252409999999
 31
0.0
  0
ARC
  5
BDAA
330
BCDF
100
AcDbEntity
  8
1
  6
Continuous
100
AcDbCircle
 10
150.8022499999999
 20
280.416225
 30
0.0
 40
1.5
100
AcDbArc
 50
168.1113419999998
 51
180.0
  0
ARC
  5
BDAB
330
BCDF
100
AcDbEntity
  8
1
  6
Continuous
100
AcDbCircle
 10
154.40225
 20
277.7224079999999
 30
0.0
 40
0.3
100
AcDbArc
 50
221.7612069999999
 51
298.620402
  0
LINE
  5
BDAC
330
BCDF
100
AcDbEntity
  8
1
  6
Continuous
100
AcDbLine
 10
144.404145
 20
280.5440429999999
 30
0.0
 11
144.404145
 21
277.8502259999999
 31
0.0
  0
LINE
  5
BDAD
330
BCDF
100
AcDbEntity
  8
1
  6
Continuous
100
AcDbLine
 10
145.5975699999999
 20
283.48776
 30
0.0
 11
145.004145
 21
277.8502259999999
 31
0.0
  0
ARC
  5
BDAE
330
BCDF
100
AcDbEntity
  8
1
  6
Continuous
100
AcDbCircle
 10
144.7041449999999
 20
277.8502259999999
 30
0.0
 40
0.3
100
AcDbArc
 50
180.0
 51
0.0
  0
ARC
  5
BDAF
330
BCDF
100
AcDbEntity
  8
1
  6
Continuous
100
AcDbCircle
 10
145.9041449999998
 20
280.5440429999999
 30
0.0
 40
1.5
100
AcDbArc
 50
168.1113419999998
 51
180.0
  0
LINE
  5
BDB0
330
BCDF
100
AcDbEntity
  8
1
  6
Continuous
100
AcDbLine
 10
145.004145
 20
283.5502259999998
 30
0.0
 11
144.4363209999998
 21
280.8530589999999
 31
0.0
  0
ARC
  5
BDB1
330
BCDF
100
AcDbEntity
  8
1
  6
Continuous
100
AcDbCircle
 10
145.304145
 20
283.5502259999998
 30
0.0
 40
0.3
100
AcDbArc
 50
347.9819879999998
 51
180.0
  0
LINE
  5
BDB2
330
BCDF
100
AcDbEntity
  8
1
  6
Continuous
100
AcDbLine
 10
146.804145
 20
280.5440429999999
 30
0.0
 11
146.804145
 21
277.8502259999999
 31
0.0
  0
LINE
  5
BDB3
330
BCDF
100
AcDbEntity
  8
1
  6
Continuous
100
AcDbLine
 10
147.9975699999999
 20
283.48776
 30
0.0
 11
147.404145
 21
277.8502259999999
 31
0.0
  0
ARC
  5
BDB4
330
BCDF
100
AcDbEntity
  8
1
  6
Continuous
100
AcDbCircle
 10
147.1041449999999
 20
277.8502259999999
 30
0.0
 40
0.3
100
AcDbArc
 50
180.0
 51
0.0
  0
LINE
  5
BDB5
330
BCDF
100
AcDbEntity
  8
1
  6
Continuous
100
AcDbLine
 10
147.404145
 20
283.5502259999998
 30
0.0
 11
146.8363209999999
 21
280.8530589999999
 31
0.0
  0
ARC
  5
BDB6
330
BCDF
100
AcDbEntity
  8
1
  6
Continuous
100
AcDbCircle
 10
147.7041449999999
 20
283.5502259999998
 30
0.0
 40
0.3
100
AcDbArc
 50
347.9819879999998
 51
180.0
  0
ARC
  5
BDB7
330
BCDF
100
AcDbEntity
  8
1
  6
Continuous
100
AcDbCircle
 10
148.3041449999998
 20
280.5440429999999
 30
0.0
 40
1.5
100
AcDbArc
 50
168.1113419999998
 51
180.0
  0
LINE
  5
BDB8
330
BCDF
100
AcDbEntity
  8
1
  6
Continuous
100
AcDbLine
 10
143.1975699999999
 20
283.48776
 30
0.0
 11
142.6041449999999
 21
277.8502259999999
 31
0.0
  0
LINE
  5
BDB9
330
BCDF
100
AcDbEntity
  8
1
  6
Continuous
100
AcDbLine
 10
142.6041449999999
 20
283.5502259999998
 30
0.0
 11
142.0363209999998
 21
280.8530589999999
 31
0.0
  0
ARC
  5
BDBA
330
BCDF
100
AcDbEntity
  8
1
  6
Continuous
100
AcDbCircle
 10
142.9041449999998
 20
283.5502259999998
 30
0.0
 40
0.3
100
AcDbArc
 50
347.9819879999998
 51
180.0
  0
LINE
  5
BDBB
330
BCDF
100
AcDbEntity
  8
1
  6
Continuous
100
AcDbLine
 10
142.004145
 20
280.5440429999999
 30
0.0
 11
142.004145
 21
277.8502259999999
 31
0.0
  0
ARC
  5
BDBC
330
BCDF
100
AcDbEntity
  8
1
  6
Continuous
100
AcDbCircle
 10
142.304145
 20
277.8502259999999
 30
0.0
 40
0.3
100
AcDbArc
 50
180.0
 51
0.0
  0
ARC
  5
BDBD
330
BCDF
100
AcDbEntity
  8
1
  6
Continuous
100
AcDbCircle
 10
143.5041449999999
 20
280.5440429999999
 30
0.0
 40
1.5
100
AcDbArc
 50
168.1113419999998
 51
180.0
  0
LINE
  5
BDBE
330
BCDF
100
AcDbEntity
  8
1
  6
Continuous
100
AcDbLine
 10
140.79757
 20
283.48776
 30
0.0
 11
140.2041449999997
 21
277.8502259999999
 31
0.0
  0
ARC
  5
BDBF
330
BCDF
100
AcDbEntity
  8
1
  6
Continuous
100
AcDbCircle
 10
140.5041449999999
 20
283.5502259999998
 30
0.0
 40
0.3
100
AcDbArc
 50
347.9819879999998
 51
180.0
  0
LINE
  5
BDC0
330
BCDF
100
AcDbEntity
  8
1
  6
Continuous
100
AcDbLine
 10
140.2041449999997
 20
283.5502259999998
 30
0.0
 11
139.636321
 21
280.8530589999999
 31
0.0
  0
LINE
  5
BDC1
330
BCDF
100
AcDbEntity
  8
1
  6
Continuous
100
AcDbLine
 10
139.604145
 20
280.5440429999999
 30
0.0
 11
139.604145
 21
277.8502259999999
 31
0.0
  0
ARC
  5
BDC2
330
BCDF
100
AcDbEntity
  8
1
  6
Continuous
100
AcDbCircle
 10
139.904145
 20
277.8502259999999
 30
0.0
 40
0.3
100
AcDbArc
 50
180.0
 51
0.0
  0
ARC
  5
BDC3
330
BCDF
100
AcDbEntity
  8
1
  6
Continuous
100
AcDbCircle
 10
141.1041449999999
 20
280.5440429999999
 30
0.0
 40
1.5
100
AcDbArc
 50
168.1113419999998
 51
180.0
  0
LINE
  5
BDC4
330
BCDF
100
AcDbEntity
  8
1
  6
Continuous
100
AcDbLine
 10
138.39757
 20
283.48776
 30
0.0
 11
137.804145
 21
277.8502259999999
 31
0.0
  0
LINE
  5
BDC5
330
BCDF
100
AcDbEntity
  8
1
  6
Continuous
100
AcDbLine
 10
137.804145
 20
283.5502259999998
 30
0.0
 11
137.236321
 21
280.8530589999999
 31
0.0
  0
ARC
  5
BDC6
330
BCDF
100
AcDbEntity
  8
1
  6
Continuous
100
AcDbCircle
 10
138.1041449999998
 20
283.5502259999998
 30
0.0
 40
0.3
100
AcDbArc
 50
347.9819879999998
 51
180.0
  0
LINE
  5
BDC7
330
BCDF
100
AcDbEntity
  8
1
  6
Continuous
100
AcDbLine
 10
137.2041449999999
 20
280.5440429999999
 30
0.0
 11
137.2041449999999
 21
277.8502259999999
 31
0.0
  0
ARC
  5
BDC8
330
BCDF
100
AcDbEntity
  8
1
  6
Continuous
100
AcDbCircle
 10
137.5041449999999
 20
277.8502259999999
 30
0.0
 40
0.3
100
AcDbArc
 50
180.0
 51
0.0
  0
ARC
  5
BDC9
330
BCDF
100
AcDbEntity
  8
1
  6
Continuous
100
AcDbCircle
 10
138.7041449999999
 20
280.5440429999999
 30
0.0
 40
1.5
100
AcDbArc
 50
168.1113419999998
 51
180.0
  0
LINE
  5
BDCA
330
BCDF
100
AcDbEntity
  8
1
  6
Continuous
100
AcDbLine
 10
135.9975699999999
 20
283.48776
 30
0.0
 11
135.4041449999998
 21
277.8502259999999
 31
0.0
  0
ARC
  5
BDCB
330
BCDF
100
AcDbEntity
  8
1
  6
Continuous
100
AcDbCircle
 10
135.7041449999998
 20
283.5502259999998
 30
0.0
 40
0.3
100
AcDbArc
 50
347.9819879999998
 51
180.0
  0
LINE
  5
BDCC
330
BCDF
100
AcDbEntity
  8
1
  6
Continuous
100
AcDbLine
 10
135.4041449999998
 20
283.5502259999998
 30
0.0
 11
134.836321
 21
280.8530589999999
 31
0.0
  0
LINE
  5
BDCD
330
BCDF
100
AcDbEntity
  8
1
  6
Continuous
100
AcDbLine
 10
134.8041449999997
 20
280.5440429999999
 30
0.0
 11
134.8041449999997
 21
277.8502259999999
 31
0.0
  0
ARC
  5
BDCE
330
BCDF
100
AcDbEntity
  8
1
  6
Continuous
100
AcDbCircle
 10
135.1041449999998
 20
277.8502259999999
 30
0.0
 40
0.3
100
AcDbArc
 50
180.0
 51
0.0
  0
ARC
  5
BDCF
330
BCDF
100
AcDbEntity
  8
1
  6
Continuous
100
AcDbCircle
 10
136.304145
 20
280.5440429999999
 30
0.0
 40
1.5
100
AcDbArc
 50
168.1113419999998
 51
180.0
  0
LINE
  5
BDD0
330
BCDF
100
AcDbEntity
  8
1
  6
Continuous
100
AcDbLine
 10
133.5975699999999
 20
283.48776
 30
0.0
 11
133.0041449999999
 21
277.8502259999999
 31
0.0
  0
LINE
  5
BDD1
330
BCDF
100
AcDbEntity
  8
1
  6
Continuous
100
AcDbLine
 10
133.0041449999999
 20
283.5502259999998
 30
0.0
 11
132.436321
 21
280.8530589999999
 31
0.0
  0
ARC
  5
BDD2
330
BCDF
100
AcDbEntity
  8
1
  6
Continuous
100
AcDbCircle
 10
133.304145
 20
283.5502259999998
 30
0.0
 40
0.3
100
AcDbArc
 50
347.9819879999998
 51
180.0
  0
LINE
  5
BDD3
330
BCDF
100
AcDbEntity
  8
1
  6
Continuous
100
AcDbLine
 10
132.4041449999998
 20
280.5440429999999
 30
0.0
 11
132.4041449999998
 21
277.8502259999999
 31
0.0
  0
ARC
  5
BDD4
330
BCDF
100
AcDbEntity
  8
1
  6
Continuous
100
AcDbCircle
 10
132.7041449999998
 20
277.8502259999999
 30
0.0
 40
0.3
100
AcDbArc
 50
180.0
 51
0.0
  0
ARC
  5
BDD5
330
BCDF
100
AcDbEntity
  8
1
  6
Continuous
100
AcDbCircle
 10
133.904145
 20
280.5440429999999
 30
0.0
 40
1.5
100
AcDbArc
 50
168.1113419999998
 51
180.0
  0
LINE
  5
BDD6
330
BCDF
100
AcDbEntity
  8
1
  6
Continuous
100
AcDbLine
 10
131.1975699999998
 20
283.48776
 30
0.0
 11
130.6041449999999
 21
277.8502259999999
 31
0.0
  0
ARC
  5
BDD7
330
BCDF
100
AcDbEntity
  8
1
  6
Continuous
100
AcDbCircle
 10
130.904145
 20
283.5502259999998
 30
0.0
 40
0.3
100
AcDbArc
 50
347.9819879999998
 51
180.0
  0
LINE
  5
BDD8
330
BCDF
100
AcDbEntity
  8
1
  6
Continuous
100
AcDbLine
 10
130.6041449999999
 20
283.5502259999998
 30
0.0
 11
130.0363209999999
 21
280.8530589999999
 31
0.0
  0
LINE
  5
BDD9
330
BCDF
100
AcDbEntity
  8
1
  6
Continuous
100
AcDbLine
 10
130.0041449999999
 20
280.5440429999999
 30
0.0
 11
130.0041449999999
 21
277.8502259999999
 31
0.0
  0
ARC
  5
BDDA
330
BCDF
100
AcDbEntity
  8
1
  6
Continuous
100
AcDbCircle
 10
130.304145
 20
277.8502259999999
 30
0.0
 40
0.3
100
AcDbArc
 50
180.0
 51
0.0
  0
ARC
  5
BDDB
330
BCDF
100
AcDbEntity
  8
1
  6
Continuous
100
AcDbCircle
 10
131.504145
 20
280.5440429999999
 30
0.0
 40
1.5
100
AcDbArc
 50
168.1113419999998
 51
180.0
  0
LINE
  5
BDDC
330
BCDF
100
AcDbEntity
  8
1
  6
Continuous
100
AcDbLine
 10
128.79757
 20
283.48776
 30
0.0
 11
128.2041449999999
 21
277.8502259999999
 31
0.0
  0
LINE
  5
BDDD
330
BCDF
100
AcDbEntity
  8
1
  6
Continuous
100
AcDbLine
 10
128.2041449999999
 20
283.5502259999998
 30
0.0
 11
127.6363209999999
 21
280.8530589999999
 31
0.0
  0
ARC
  5
BDDE
330
BCDF
100
AcDbEntity
  8
1
  6
Continuous
100
AcDbCircle
 10
128.504145
 20
283.5502259999998
 30
0.0
 40
0.3
100
AcDbArc
 50
347.9819879999998
 51
180.0
  0
LINE
  5
BDDF
330
BCDF
100
AcDbEntity
  8
1
  6
Continuous
100
AcDbLine
 10
127.6041449999999
 20
280.5440429999999
 30
0.0
 11
127.6041449999999
 21
277.8502259999999
 31
0.0
  0
ARC
  5
BDE0
330
BCDF
100
AcDbEntity
  8
1
  6
Continuous
100
AcDbCircle
 10
127.904145
 20
277.8502259999999
 30
0.0
 40
0.3
100
AcDbArc
 50
180.0
 51
0.0
  0
ARC
  5
BDE1
330
BCDF
100
AcDbEntity
  8
1
  6
Continuous
100
AcDbCircle
 10
129.1041449999999
 20
280.5440429999999
 30
0.0
 40
1.5
100
AcDbArc
 50
168.1113419999998
 51
180.0
  0
LINE
  5
BDE2
330
BCDF
100
AcDbEntity
  8
1
  6
Continuous
100
AcDbLine
 10
126.39757
 20
283.48776
 30
0.0
 11
125.8041449999999
 21
277.8502259999999
 31
0.0
  0
ARC
  5
BDE3
330
BCDF
100
AcDbEntity
  8
1
  6
Continuous
100
AcDbCircle
 10
126.704145
 20
280.5440429999999
 30
0.0
 40
1.5
100
AcDbArc
 50
168.1113419999998
 51
180.0
  0
ARC
  5
BDE4
330
BCDF
100
AcDbEntity
  8
1
  6
Continuous
100
AcDbCircle
 10
126.104145
 20
283.5502259999998
 30
0.0
 40
0.3
100
AcDbArc
 50
347.9819879999998
 51
180.0
  0
LINE
  5
BDE5
330
BCDF
100
AcDbEntity
  8
1
  6
Continuous
100
AcDbLine
 10
125.8041449999999
 20
283.5502259999998
 30
0.0
 11
125.2363209999999
 21
280.8530589999999
 31
0.0
  0
LINE
  5
BDE6
330
BCDF
100
AcDbEntity
  8
1
  6
Continuous
100
AcDbLine
 10
125.2041449999999
 20
280.5440429999999
 30
0.0
 11
125.2041449999999
 21
277.8502259999999
 31
0.0
  0
ARC
  5
BDE7
330
BCDF
100
AcDbEntity
  8
1
  6
Continuous
100
AcDbCircle
 10
125.504145
 20
277.8502259999999
 30
0.0
 40
0.3
100
AcDbArc
 50
180.0
 51
0.0
  0
LINE
  5
BDE8
330
BCDF
100
AcDbEntity
  8
1
  6
Continuous
100
AcDbLine
 10
32.69407799999999
 20
215.045768
 30
0.0
 11
35.672578
 21
215.045768
 31
0.0
  0
LINE
  5
BDE9
330
BCDF
100
AcDbEntity
  8
1
  6
Continuous
100
AcDbLine
 10
32.69407799999999
 20
216.3867999999999
 30
0.0
 11
35.691578
 21
216.3867999999999
 31
0.0
  0
LINE
  5
BDEA
330
BCDF
100
AcDbEntity
  8
1
  6
Continuous
100
AcDbLine
 10
32.69407799999999
 20
217.5780389999999
 30
0.0
 11
35.754078
 21
217.5780389999999
 31
0.0
  0
LINE
  5
BDEB
330
BCDF
100
AcDbEntity
  8
1
  6
Continuous
100
AcDbLine
 10
32.69407799999999
 20
218.629895
 30
0.0
 11
35.72557800000001
 21
218.629895
 31
0.0
  0
LINE
  5
BDEC
330
BCDF
100
AcDbEntity
  8
1
  6
Continuous
100
AcDbLine
 10
32.69407799999999
 20
219.5507679999999
 30
0.0
 11
35.741328
 21
219.5507679999999
 31
0.0
  0
LINE
  5
BDED
330
BCDF
100
AcDbEntity
  8
1
  6
Continuous
100
AcDbLine
 10
32.69407799999999
 20
220.3474669999999
 30
0.0
 11
35.756078
 21
220.3474669999999
 31
0.0
  0
LINE
  5
BDEE
330
BCDF
100
AcDbEntity
  8
1
  6
Continuous
100
AcDbLine
 10
32.69407799999999
 20
221.0255049999999
 30
0.0
 11
35.78182799999999
 21
221.0255049999999
 31
0.0
  0
LINE
  5
BDEF
330
BCDF
100
AcDbEntity
  8
1
  6
Continuous
100
AcDbLine
 10
32.69407799999999
 20
221.58932
 30
0.0
 11
35.81432800000001
 21
221.58932
 31
0.0
  0
LINE
  5
BDF0
330
BCDF
100
AcDbEntity
  8
1
  6
Continuous
100
AcDbLine
 10
32.69407799999999
 20
222.042434
 30
0.0
 11
35.79782800000001
 21
222.042434
 31
0.0
  0
ARC
  5
BDF1
330
BCDF
100
AcDbEntity
  8
1
  6
Continuous
100
AcDbCircle
 10
29.75932800000001
 20
212.5041509999999
 30
0.0
 40
0.21525
100
AcDbArc
 50
90.0
 51
270.0
  0
ARC
  5
BDF2
330
BCDF
100
AcDbEntity
  8
1
  6
Continuous
100
AcDbCircle
 10
35.62882800000001
 20
212.0741339999999
 30
0.0
 40
0.21525
100
AcDbArc
 50
261.619662
 51
90.0
  0
ARC
  5
BDF3
330
BCDF
100
AcDbEntity
  8
1
  6
Continuous
100
AcDbCircle
 10
35.651828
 20
213.7341919999999
 30
0.0
 40
0.19225
100
AcDbArc
 50
270.0
 51
90.0
  0
ARC
  5
BDF4
330
BCDF
100
AcDbEntity
  8
1
  6
Continuous
100
AcDbCircle
 10
29.73632800000001
 20
214.11877
 30
0.0
 40
0.19225
100
AcDbArc
 50
90.0
 51
270.0
  0
LINE
  5
BDF5
330
BCDF
100
AcDbEntity
  8
1
  6
Continuous
100
AcDbLine
 10
29.75932800000001
 20
212.7194009999998
 30
0.0
 11
35.62882800000001
 21
212.2893839999999
 31
0.0
  0
LINE
  5
BDF6
330
BCDF
100
AcDbEntity
  8
1
  6
Continuous
100
AcDbLine
 10
35.597457
 20
211.8611819999999
 30
0.0
 11
32.69407799999999
 21
211.8611819999999
 31
0.0
  0
LINE
  5
BDF7
330
BCDF
100
AcDbEntity
  8
1
  6
Continuous
100
AcDbLine
 10
35.651828
 20
213.541942
 30
0.0
 11
32.69407799999999
 21
213.541942
 31
0.0
  0
LINE
  5
BDF8
330
BCDF
100
AcDbEntity
  8
1
  6
Continuous
100
AcDbLine
 10
29.75932800000001
 20
212.2889009999999
 30
0.0
 11
32.69407799999999
 21
211.8611819999999
 31
0.0
  0
LINE
  5
BDF9
330
BCDF
100
AcDbEntity
  8
1
  6
Continuous
100
AcDbLine
 10
29.73632800000001
 20
214.31102
 30
0.0
 11
35.651828
 21
213.9264419999999
 31
0.0
  0
LINE
  5
BDFA
330
BCDF
100
AcDbEntity
  8
1
  6
Continuous
100
AcDbLine
 10
29.73632800000001
 20
213.92652
 30
0.0
 11
32.69407799999999
 21
213.541942
 31
0.0
  0
ARC
  5
BDFB
330
BCDF
100
AcDbEntity
  8
1
  6
Continuous
100
AcDbCircle
 10
35.672578
 20
215.217268
 30
0.0
 40
0.1715
100
AcDbArc
 50
270.0
 51
90.0
  0
ARC
  5
BDFC
330
BCDF
100
AcDbEntity
  8
1
  6
Continuous
100
AcDbCircle
 10
29.71557800000001
 20
215.560578
 30
0.0
 40
0.1715
100
AcDbArc
 50
83.40322200000001
 51
270.0
  0
LINE
  5
BDFD
330
BCDF
100
AcDbEntity
  8
1
  6
Continuous
100
AcDbLine
 10
29.73527999999999
 20
215.730942
 30
0.0
 11
35.672578
 21
215.388768
 31
0.0
  0
LINE
  5
BDFE
330
BCDF
100
AcDbEntity
  8
1
  6
Continuous
100
AcDbLine
 10
29.71557800000001
 20
215.3890779999999
 30
0.0
 11
32.69407799999999
 21
215.045768
 31
0.0
  0
ARC
  5
BDFF
330
BCDF
100
AcDbEntity
  8
1
  6
Continuous
100
AcDbCircle
 10
35.691578
 20
216.5392999999999
 30
0.0
 40
0.1525
100
AcDbArc
 50
270.0
 51
90.0
  0
ARC
  5
BE00
330
BCDF
100
AcDbEntity
  8
1
  6
Continuous
100
AcDbCircle
 10
29.696578
 20
216.844677
 30
0.0
 40
0.1525
100
AcDbArc
 50
84.16789599999999
 51
270.0
  0
LINE
  5
BE01
330
BCDF
100
AcDbEntity
  8
1
  6
Continuous
100
AcDbLine
 10
29.71207399999999
 20
216.996388
 30
0.0
 11
35.691578
 21
216.6917999999999
 31
0.0
  0
LINE
  5
BE02
330
BCDF
100
AcDbEntity
  8
1
  6
Continuous
100
AcDbLine
 10
29.696578
 20
216.692177
 30
0.0
 11
32.69407799999999
 21
216.3867999999999
 31
0.0
  0
ARC
  5
BE03
330
BCDF
100
AcDbEntity
  8
1
  6
Continuous
100
AcDbCircle
 10
29.634078
 20
218.027942
 30
0.0
 40
0.09
100
AcDbArc
 50
90.0
 51
270.0
  0
ARC
  5
BE04
330
BCDF
100
AcDbEntity
  8
1
  6
Continuous
100
AcDbCircle
 10
35.754078
 20
217.668039
 30
0.0
 40
0.09
100
AcDbArc
 50
270.0
 51
90.0
  0
LINE
  5
BE05
330
BCDF
100
AcDbEntity
  8
1
  6
Continuous
100
AcDbLine
 10
29.634078
 20
218.1179419999998
 30
0.0
 11
35.754078
 21
217.758039
 31
0.0
  0
LINE
  5
BE06
330
BCDF
100
AcDbEntity
  8
1
  6
Continuous
100
AcDbLine
 10
29.634078
 20
217.937942
 30
0.0
 11
32.69407799999999
 21
217.5780389999999
 31
0.0
  0
ARC
  5
BE07
330
BCDF
100
AcDbEntity
  8
1
  6
Continuous
100
AcDbCircle
 10
29.66257800000001
 20
218.985223
 30
0.0
 40
0.1185
100
AcDbArc
 50
85.52619399999997
 51
270.0
  0
ARC
  5
BE08
330
BCDF
100
AcDbEntity
  8
1
  6
Continuous
100
AcDbCircle
 10
35.72557800000001
 20
218.7483949999999
 30
0.0
 40
0.1185
100
AcDbArc
 50
270.0
 51
90.0
  0
LINE
  5
BE09
330
BCDF
100
AcDbEntity
  8
1
  6
Continuous
100
AcDbLine
 10
29.671821
 20
219.103362
 30
0.0
 11
35.72557800000001
 21
218.866895
 31
0.0
  0
LINE
  5
BE0A
330
BCDF
100
AcDbEntity
  8
1
  6
Continuous
100
AcDbLine
 10
32.69407799999999
 20
218.629895
 30
0.0
 11
29.66257800000001
 21
218.866723
 31
0.0
  0
ARC
  5
BE0B
330
BCDF
100
AcDbEntity
  8
1
  6
Continuous
100
AcDbCircle
 10
29.646828
 20
219.8593349999999
 30
0.0
 40
0.10275
100
AcDbArc
 50
90.0
 51
270.0
  0
ARC
  5
BE0C
330
BCDF
100
AcDbEntity
  8
1
  6
Continuous
100
AcDbCircle
 10
35.741328
 20
219.653518
 30
0.0
 40
0.10275
100
AcDbArc
 50
270.0
 51
90.0
  0
LINE
  5
BE0D
330
BCDF
100
AcDbEntity
  8
1
  6
Continuous
100
AcDbLine
 10
29.646828
 20
219.962085
 30
0.0
 11
35.741328
 21
219.756268
 31
0.0
  0
LINE
  5
BE0E
330
BCDF
100
AcDbEntity
  8
1
  6
Continuous
100
AcDbLine
 10
29.646828
 20
219.756585
 30
0.0
 11
32.69407799999999
 21
219.5507679999999
 31
0.0
  0
ARC
  5
BE0F
330
BCDF
100
AcDbEntity
  8
1
  6
Continuous
100
AcDbCircle
 10
35.756078
 20
220.4354669999999
 30
0.0
 40
0.088
100
AcDbArc
 50
270.0
 51
90.0
  0
ARC
  5
BE10
330
BCDF
100
AcDbEntity
  8
1
  6
Continuous
100
AcDbCircle
 10
29.63207800000001
 20
220.6111609999999
 30
0.0
 40
0.088
100
AcDbArc
 50
86.71334399999997
 51
270.0
  0
LINE
  5
BE11
330
BCDF
100
AcDbEntity
  8
1
  6
Continuous
100
AcDbLine
 10
29.637123
 20
220.699016
 30
0.0
 11
35.756078
 21
220.5234669999999
 31
0.0
  0
LINE
  5
BE12
330
BCDF
100
AcDbEntity
  8
1
  6
Continuous
100
AcDbLine
 10
29.63207800000001
 20
220.5231609999999
 30
0.0
 11
32.69407799999999
 21
220.3474669999999
 31
0.0
  0
ARC
  5
BE13
330
BCDF
100
AcDbEntity
  8
1
  6
Continuous
100
AcDbCircle
 10
29.606328
 20
221.257656
 30
0.0
 40
0.06225
100
AcDbArc
 50
90.0
 51
270.0
  0
ARC
  5
BE14
330
BCDF
100
AcDbEntity
  8
1
  6
Continuous
100
AcDbCircle
 10
35.78182799999999
 20
221.0877549999999
 30
0.0
 40
0.06225
100
AcDbArc
 50
270.0
 51
90.0
  0
LINE
  5
BE15
330
BCDF
100
AcDbEntity
  8
1
  6
Continuous
100
AcDbLine
 10
29.606328
 20
221.3199059999999
 30
0.0
 11
35.78182799999999
 21
221.150005
 31
0.0
  0
LINE
  5
BE16
330
BCDF
100
AcDbEntity
  8
1
  6
Continuous
100
AcDbLine
 10
32.69407799999999
 20
221.0255049999999
 30
0.0
 11
29.606328
 21
221.195406
 31
0.0
  0
ARC
  5
BE17
330
BCDF
100
AcDbEntity
  8
1
  6
Continuous
100
AcDbCircle
 10
29.57382799999999
 20
221.7985349999999
 30
0.0
 40
0.02975
100
AcDbArc
 50
86.70546800000003
 51
270.0
  0
ARC
  5
BE18
330
BCDF
100
AcDbEntity
  8
1
  6
Continuous
100
AcDbCircle
 10
35.81432800000001
 20
221.6190699999999
 30
0.0
 40
0.02975
100
AcDbArc
 50
270.0
 51
90.0
  0
LINE
  5
BE19
330
BCDF
100
AcDbEntity
  8
1
  6
Continuous
100
AcDbLine
 10
35.81432800000001
 20
221.64882
 30
0.0
 11
29.575537
 21
221.8282359999999
 31
0.0
  0
LINE
  5
BE1A
330
BCDF
100
AcDbEntity
  8
1
  6
Continuous
100
AcDbLine
 10
29.57382799999999
 20
221.768785
 30
0.0
 11
32.69407799999999
 21
221.58932
 31
0.0
  0
LINE
  5
BE1B
330
BCDF
100
AcDbEntity
  8
1
  6
Continuous
100
AcDbLine
 10
32.69407799999999
 20
222.386774
 30
0.0
 11
35.810828
 21
222.386774
 31
0.0
  0
ARC
  5
BE1C
330
BCDF
100
AcDbEntity
  8
1
  6
Continuous
100
AcDbCircle
 10
29.577328
 20
222.4864039999999
 30
0.0
 40
0.03325
100
AcDbArc
 50
88.77976600000001
 51
270.0
  0
LINE
  5
BE1D
330
BCDF
100
AcDbEntity
  8
1
  6
Continuous
100
AcDbLine
 10
29.578036
 20
222.5196459999999
 30
0.0
 11
35.810828
 21
222.4532739999999
 31
0.0
  0
LINE
  5
BE1E
330
BCDF
100
AcDbEntity
  8
1
  6
Continuous
100
AcDbLine
 10
32.69407799999999
 20
222.386774
 30
0.0
 11
29.577328
 21
222.453154
 31
0.0
  0
ARC
  5
BE1F
330
BCDF
100
AcDbEntity
  8
1
  6
Continuous
100
AcDbCircle
 10
29.59032800000001
 20
222.1811629999999
 30
0.0
 40
0.04625
100
AcDbArc
 50
88.292947
 51
270.0
  0
LINE
  5
BE20
330
BCDF
100
AcDbEntity
  8
1
  6
Continuous
100
AcDbLine
 10
35.79782800000001
 20
222.1349339999999
 30
0.0
 11
29.591706
 21
222.2273919999999
 31
0.0
  0
LINE
  5
BE21
330
BCDF
100
AcDbEntity
  8
1
  6
Continuous
100
AcDbLine
 10
29.59032800000001
 20
222.1349129999999
 30
0.0
 11
32.69407799999999
 21
222.042434
 31
0.0
  0
LINE
  5
BE22
330
BCDF
100
AcDbEntity
  8
1
  6
Continuous
100
AcDbLine
 10
30.042954
 20
191.84402
 30
0.0
 11
35.68048799999999
 21
191.250595
 31
0.0
  0
LINE
  5
BE23
330
BCDF
100
AcDbEntity
  8
1
  6
Continuous
100
AcDbLine
 10
30.042954
 20
194.24402
 30
0.0
 11
35.68048799999999
 21
193.6505949999999
 31
0.0
  0
LINE
  5
BE24
330
BCDF
100
AcDbEntity
  8
1
  6
Continuous
100
AcDbLine
 10
30.042954
 20
196.6440199999999
 30
0.0
 11
35.68048799999999
 21
196.0505949999999
 31
0.0
  0
LINE
  5
BE25
330
BCDF
100
AcDbEntity
  8
1
  6
Continuous
100
AcDbLine
 10
30.042954
 20
199.0440199999999
 30
0.0
 11
35.68048799999999
 21
198.4505949999999
 31
0.0
  0
LINE
  5
BE26
330
BCDF
100
AcDbEntity
  8
1
  6
Continuous
100
AcDbLine
 10
30.042954
 20
201.44402
 30
0.0
 11
35.68048799999999
 21
200.8505949999999
 31
0.0
  0
LINE
  5
BE27
330
BCDF
100
AcDbEntity
  8
1
  6
Continuous
100
AcDbLine
 10
30.042954
 20
203.84402
 30
0.0
 11
35.68048799999999
 21
203.250595
 31
0.0
  0
LINE
  5
BE28
330
BCDF
100
AcDbEntity
  8
1
  6
Continuous
100
AcDbLine
 10
30.042954
 20
206.24402
 30
0.0
 11
35.68048799999999
 21
205.650595
 31
0.0
  0
LINE
  5
BE29
330
BCDF
100
AcDbEntity
  8
1
  6
Continuous
100
AcDbLine
 10
29.980488
 20
191.250595
 30
0.0
 11
32.677656
 21
190.68277
 31
0.0
  0
ARC
  5
BE2A
330
BCDF
100
AcDbEntity
  8
1
  6
Continuous
100
AcDbCircle
 10
29.980488
 20
191.550595
 30
0.0
 40
0.3
100
AcDbArc
 50
77.981988
 51
270.0
  0
ARC
  5
BE2B
330
BCDF
100
AcDbEntity
  8
1
  6
Continuous
100
AcDbCircle
 10
29.980488
 20
193.950595
 30
0.0
 40
0.3
100
AcDbArc
 50
77.981988
 51
270.0
  0
LINE
  5
BE2C
330
BCDF
100
AcDbEntity
  8
1
  6
Continuous
100
AcDbLine
 10
29.980488
 20
193.6505949999999
 30
0.0
 11
32.677656
 21
193.0827699999999
 31
0.0
  0
LINE
  5
BE2D
330
BCDF
100
AcDbEntity
  8
1
  6
Continuous
100
AcDbLine
 10
29.980488
 20
196.0505949999999
 30
0.0
 11
32.677656
 21
195.4827699999999
 31
0.0
  0
ARC
  5
BE2E
330
BCDF
100
AcDbEntity
  8
1
  6
Continuous
100
AcDbCircle
 10
29.980488
 20
196.350595
 30
0.0
 40
0.3
100
AcDbArc
 50
77.981988
 51
270.0
  0
ARC
  5
BE2F
330
BCDF
100
AcDbEntity
  8
1
  6
Continuous
100
AcDbCircle
 10
29.980488
 20
198.750595
 30
0.0
 40
0.3
100
AcDbArc
 50
77.981988
 51
270.0
  0
LINE
  5
BE30
330
BCDF
100
AcDbEntity
  8
1
  6
Continuous
100
AcDbLine
 10
29.980488
 20
198.4505949999999
 30
0.0
 11
32.677656
 21
197.88277
 31
0.0
  0
LINE
  5
BE31
330
BCDF
100
AcDbEntity
  8
1
  6
Continuous
100
AcDbLine
 10
29.980488
 20
200.8505949999999
 30
0.0
 11
32.677656
 21
200.28277
 31
0.0
  0
ARC
  5
BE32
330
BCDF
100
AcDbEntity
  8
1
  6
Continuous
100
AcDbCircle
 10
29.980488
 20
201.1505949999999
 30
0.0
 40
0.3
100
AcDbArc
 50
77.981988
 51
270.0
  0
ARC
  5
BE33
330
BCDF
100
AcDbEntity
  8
1
  6
Continuous
100
AcDbCircle
 10
29.980488
 20
203.550595
 30
0.0
 40
0.3
100
AcDbArc
 50
77.981988
 51
270.0
  0
LINE
  5
BE34
330
BCDF
100
AcDbEntity
  8
1
  6
Continuous
100
AcDbLine
 10
29.980488
 20
203.250595
 30
0.0
 11
32.677656
 21
202.68277
 31
0.0
  0
LINE
  5
BE35
330
BCDF
100
AcDbEntity
  8
1
  6
Continuous
100
AcDbLine
 10
29.980488
 20
205.650595
 30
0.0
 11
32.677656
 21
205.0827699999999
 31
0.0
  0
ARC
  5
BE36
330
BCDF
100
AcDbEntity
  8
1
  6
Continuous
100
AcDbCircle
 10
29.980488
 20
205.950595
 30
0.0
 40
0.3
100
AcDbArc
 50
77.981988
 51
270.0
  0
LINE
  5
BE37
330
BCDF
100
AcDbEntity
  8
1
  6
Continuous
100
AcDbLine
 10
30.042954
 20
208.6440199999999
 30
0.0
 11
35.68048799999999
 21
208.050595
 31
0.0
  0
LINE
  5
BE38
330
BCDF
100
AcDbEntity
  8
1
  6
Continuous
100
AcDbLine
 10
30.042954
 20
211.0440199999999
 30
0.0
 11
35.68048799999999
 21
210.450595
 31
0.0
  0
ARC
  5
BE39
330
BCDF
100
AcDbEntity
  8
1
  6
Continuous
100
AcDbCircle
 10
29.980488
 20
208.350595
 30
0.0
 40
0.3
100
AcDbArc
 50
77.981988
 51
270.0
  0
LINE
  5
BE3A
330
BCDF
100
AcDbEntity
  8
1
  6
Continuous
100
AcDbLine
 10
29.980488
 20
208.050595
 30
0.0
 11
32.677656
 21
207.4827699999999
 31
0.0
  0
ARC
  5
BE3B
330
BCDF
100
AcDbEntity
  8
1
  6
Continuous
100
AcDbCircle
 10
29.980488
 20
210.750595
 30
0.0
 40
0.3
100
AcDbArc
 50
77.981988
 51
270.0
  0
LINE
  5
BE3C
330
BCDF
100
AcDbEntity
  8
1
  6
Continuous
100
AcDbLine
 10
29.980488
 20
210.450595
 30
0.0
 11
32.677656
 21
209.88277
 31
0.0
  0
LINE
  5
BE3D
330
BCDF
100
AcDbEntity
  8
1
  6
Continuous
100
AcDbLine
 10
32.986671
 20
190.6505949999999
 30
0.0
 11
35.68048799999999
 21
190.6505949999999
 31
0.0
  0
LINE
  5
BE3E
330
BCDF
100
AcDbEntity
  8
1
  6
Continuous
100
AcDbLine
 10
32.986671
 20
193.0505949999999
 30
0.0
 11
35.68048799999999
 21
193.0505949999999
 31
0.0
  0
LINE
  5
BE3F
330
BCDF
100
AcDbEntity
  8
1
  6
Continuous
100
AcDbLine
 10
32.986671
 20
195.4505949999999
 30
0.0
 11
35.68048799999999
 21
195.4505949999999
 31
0.0
  0
LINE
  5
BE40
330
BCDF
100
AcDbEntity
  8
1
  6
Continuous
100
AcDbLine
 10
32.986671
 20
197.8505949999999
 30
0.0
 11
35.68048799999999
 21
197.8505949999999
 31
0.0
  0
LINE
  5
BE41
330
BCDF
100
AcDbEntity
  8
1
  6
Continuous
100
AcDbLine
 10
32.986671
 20
200.250595
 30
0.0
 11
35.68048799999999
 21
200.250595
 31
0.0
  0
LINE
  5
BE42
330
BCDF
100
AcDbEntity
  8
1
  6
Continuous
100
AcDbLine
 10
32.986671
 20
202.6505949999999
 30
0.0
 11
35.68048799999999
 21
202.6505949999999
 31
0.0
  0
LINE
  5
BE43
330
BCDF
100
AcDbEntity
  8
1
  6
Continuous
100
AcDbLine
 10
32.986671
 20
205.0505949999999
 30
0.0
 11
35.68048799999999
 21
205.0505949999999
 31
0.0
  0
ARC
  5
BE44
330
BCDF
100
AcDbEntity
  8
1
  6
Continuous
100
AcDbCircle
 10
35.68048799999999
 20
190.9505949999999
 30
0.0
 40
0.3
100
AcDbArc
 50
270.0
 51
90.0
  0
ARC
  5
BE45
330
BCDF
100
AcDbEntity
  8
1
  6
Continuous
100
AcDbCircle
 10
35.68048799999999
 20
193.3505949999999
 30
0.0
 40
0.3
100
AcDbArc
 50
270.0
 51
90.0
  0
ARC
  5
BE46
330
BCDF
100
AcDbEntity
  8
1
  6
Continuous
100
AcDbCircle
 10
35.68048799999999
 20
195.750595
 30
0.0
 40
0.3
100
AcDbArc
 50
270.0
 51
90.0
  0
ARC
  5
BE47
330
BCDF
100
AcDbEntity
  8
1
  6
Continuous
100
AcDbCircle
 10
35.68048799999999
 20
198.1505949999999
 30
0.0
 40
0.3
100
AcDbArc
 50
270.0
 51
90.0
  0
ARC
  5
BE48
330
BCDF
100
AcDbEntity
  8
1
  6
Continuous
100
AcDbCircle
 10
35.68048799999999
 20
200.5505949999999
 30
0.0
 40
0.3
100
AcDbArc
 50
270.0
 51
90.0
  0
ARC
  5
BE49
330
BCDF
100
AcDbEntity
  8
1
  6
Continuous
100
AcDbCircle
 10
35.68048799999999
 20
202.9505949999999
 30
0.0
 40
0.3
100
AcDbArc
 50
270.0
 51
90.0
  0
ARC
  5
BE4A
330
BCDF
100
AcDbEntity
  8
1
  6
Continuous
100
AcDbCircle
 10
35.68048799999999
 20
205.3505949999999
 30
0.0
 40
0.3
100
AcDbArc
 50
270.0
 51
90.0
  0
LINE
  5
BE4B
330
BCDF
100
AcDbEntity
  8
1
  6
Continuous
100
AcDbLine
 10
32.986671
 20
207.4505949999999
 30
0.0
 11
35.68048799999999
 21
207.4505949999999
 31
0.0
  0
LINE
  5
BE4C
330
BCDF
100
AcDbEntity
  8
1
  6
Continuous
100
AcDbLine
 10
32.986671
 20
209.850595
 30
0.0
 11
35.68048799999999
 21
209.850595
 31
0.0
  0
ARC
  5
BE4D
330
BCDF
100
AcDbEntity
  8
1
  6
Continuous
100
AcDbCircle
 10
35.68048799999999
 20
207.7505949999999
 30
0.0
 40
0.3
100
AcDbArc
 50
270.0
 51
90.0
  0
ARC
  5
BE4E
330
BCDF
100
AcDbEntity
  8
1
  6
Continuous
100
AcDbCircle
 10
35.68048799999999
 20
210.1505949999999
 30
0.0
 40
0.3
100
AcDbArc
 50
270.0
 51
90.0
  0
ARC
  5
BE4F
330
BCDF
100
AcDbEntity
  8
1
  6
Continuous
100
AcDbCircle
 10
32.986671
 20
192.1505949999999
 30
0.0
 40
1.5
100
AcDbArc
 50
258.1113419999999
 51
270.0
  0
ARC
  5
BE50
330
BCDF
100
AcDbEntity
  8
1
  6
Continuous
100
AcDbCircle
 10
32.986671
 20
194.5505949999999
 30
0.0
 40
1.5
100
AcDbArc
 50
258.1113419999999
 51
270.0
  0
ARC
  5
BE51
330
BCDF
100
AcDbEntity
  8
1
  6
Continuous
100
AcDbCircle
 10
32.986671
 20
196.950595
 30
0.0
 40
1.5
100
AcDbArc
 50
258.1113419999999
 51
270.0
  0
ARC
  5
BE52
330
BCDF
100
AcDbEntity
  8
1
  6
Continuous
100
AcDbCircle
 10
32.986671
 20
199.350595
 30
0.0
 40
1.5
100
AcDbArc
 50
258.1113419999999
 51
270.0
  0
ARC
  5
BE53
330
BCDF
100
AcDbEntity
  8
1
  6
Continuous
100
AcDbCircle
 10
32.986671
 20
201.7505949999998
 30
0.0
 40
1.5
100
AcDbArc
 50
258.1113419999999
 51
270.0
  0
ARC
  5
BE54
330
BCDF
100
AcDbEntity
  8
1
  6
Continuous
100
AcDbCircle
 10
32.986671
 20
204.1505949999999
 30
0.0
 40
1.5
100
AcDbArc
 50
258.1113419999999
 51
270.0
  0
ARC
  5
BE55
330
BCDF
100
AcDbEntity
  8
1
  6
Continuous
100
AcDbCircle
 10
32.986671
 20
206.5505949999999
 30
0.0
 40
1.5
100
AcDbArc
 50
258.1113419999999
 51
270.0
  0
ARC
  5
BE56
330
BCDF
100
AcDbEntity
  8
1
  6
Continuous
100
AcDbCircle
 10
32.986671
 20
208.9505949999999
 30
0.0
 40
1.5
100
AcDbArc
 50
258.1113419999999
 51
270.0
  0
ARC
  5
BE57
330
BCDF
100
AcDbEntity
  8
1
  6
Continuous
100
AcDbCircle
 10
32.986671
 20
211.350595
 30
0.0
 40
1.5
100
AcDbArc
 50
258.1113419999999
 51
270.0
  0
LINE
  5
BE58
330
BCDF
100
AcDbEntity
  8
1
  6
Continuous
100
AcDbLine
 10
119.5305429999998
 20
283.437705
 30
0.0
 11
118.9371189999999
 21
277.8001699999999
 31
0.0
  0
LINE
  5
BE59
330
BCDF
100
AcDbEntity
  8
1
  6
Continuous
100
AcDbLine
 10
121.930543
 20
283.437705
 30
0.0
 11
121.3371189999999
 21
277.8001699999999
 31
0.0
  0
LINE
  5
BE5A
330
BCDF
100
AcDbEntity
  8
1
  6
Continuous
100
AcDbLine
 10
124.3305429999999
 20
283.437705
 30
0.0
 11
123.7371189999998
 21
277.8001699999999
 31
0.0
  0
LINE
  5
BE5B
330
BCDF
100
AcDbEntity
  8
1
  6
Continuous
100
AcDbLine
 10
118.9371189999999
 20
283.50017
 30
0.0
 11
118.369294
 21
280.8030029999999
 31
0.0
  0
ARC
  5
BE5C
330
BCDF
100
AcDbEntity
  8
1
  6
Continuous
100
AcDbCircle
 10
119.237119
 20
283.50017
 30
0.0
 40
0.3
100
AcDbArc
 50
347.9819879999998
 51
180.0
  0
ARC
  5
BE5D
330
BCDF
100
AcDbEntity
  8
1
  6
Continuous
100
AcDbCircle
 10
121.637119
 20
283.50017
 30
0.0
 40
0.3
100
AcDbArc
 50
347.9819879999998
 51
180.0
  0
LINE
  5
BE5E
330
BCDF
100
AcDbEntity
  8
1
  6
Continuous
100
AcDbLine
 10
121.3371189999999
 20
283.50017
 30
0.0
 11
120.7692939999999
 21
280.8030029999999
 31
0.0
  0
LINE
  5
BE5F
330
BCDF
100
AcDbEntity
  8
1
  6
Continuous
100
AcDbLine
 10
123.7371189999998
 20
283.50017
 30
0.0
 11
123.169294
 21
280.8030029999999
 31
0.0
  0
ARC
  5
BE60
330
BCDF
100
AcDbEntity
  8
1
  6
Continuous
100
AcDbCircle
 10
124.0371189999999
 20
283.50017
 30
0.0
 40
0.3
100
AcDbArc
 50
347.9819879999998
 51
180.0
  0
LINE
  5
BE61
330
BCDF
100
AcDbEntity
  8
1
  6
Continuous
100
AcDbLine
 10
118.337119
 20
280.493988
 30
0.0
 11
118.337119
 21
277.8001699999999
 31
0.0
  0
LINE
  5
BE62
330
BCDF
100
AcDbEntity
  8
1
  6
Continuous
100
AcDbLine
 10
120.7371189999998
 20
280.493988
 30
0.0
 11
120.7371189999998
 21
277.8001699999999
 31
0.0
  0
LINE
  5
BE63
330
BCDF
100
AcDbEntity
  8
1
  6
Continuous
100
AcDbLine
 10
123.1371189999999
 20
280.493988
 30
0.0
 11
123.1371189999999
 21
277.8001699999999
 31
0.0
  0
ARC
  5
BE64
330
BCDF
100
AcDbEntity
  8
1
  6
Continuous
100
AcDbCircle
 10
118.637119
 20
277.8001699999999
 30
0.0
 40
0.3
100
AcDbArc
 50
180.0
 51
0.0
  0
ARC
  5
BE65
330
BCDF
100
AcDbEntity
  8
1
  6
Continuous
100
AcDbCircle
 10
121.0371189999999
 20
277.8001699999999
 30
0.0
 40
0.3
100
AcDbArc
 50
180.0
 51
0.0
  0
ARC
  5
BE66
330
BCDF
100
AcDbEntity
  8
1
  6
Continuous
100
AcDbCircle
 10
123.437119
 20
277.8001699999999
 30
0.0
 40
0.3
100
AcDbArc
 50
180.0
 51
0.0
  0
ARC
  5
BE67
330
BCDF
100
AcDbEntity
  8
1
  6
Continuous
100
AcDbCircle
 10
119.837119
 20
280.493988
 30
0.0
 40
1.5
100
AcDbArc
 50
168.1113419999998
 51
180.0
  0
ARC
  5
BE68
330
BCDF
100
AcDbEntity
  8
1
  6
Continuous
100
AcDbCircle
 10
122.237119
 20
280.493988
 30
0.0
 40
1.5
100
AcDbArc
 50
168.1113419999998
 51
180.0
  0
ARC
  5
BE69
330
BCDF
100
AcDbEntity
  8
1
  6
Continuous
100
AcDbCircle
 10
124.637119
 20
280.493988
 30
0.0
 40
1.5
100
AcDbArc
 50
168.1113419999998
 51
180.0
  0
LINE
  5
BE6A
330
BCDF
100
AcDbEntity
  8
1
  6
Continuous
100
AcDbLine
 10
288.345952
 20
216.2457809999999
 30
0.0
 11
290.0283939999998
 21
215.4045599999999
 31
0.0
  0
LINE
  5
BE6B
330
BCDF
100
AcDbEntity
  8
1
  6
Continuous
100
AcDbLine
 10
290.692538
 20
215.3227999999999
 30
0.0
 11
294.629021
 21
216.197574
 31
0.0
  0
LINE
  5
BE6C
330
BCDF
100
AcDbEntity
  8
1
  6
Continuous
100
AcDbLine
 10
295.062882
 20
216.197574
 30
0.0
 11
298.999365
 21
215.3227999999999
 31
0.0
  0
LINE
  5
BE6D
330
BCDF
100
AcDbEntity
  8
1
  6
Continuous
100
AcDbLine
 10
299.6635099999999
 20
215.4045599999999
 30
0.0
 11
301.345952
 21
216.2457809999999
 31
0.0
  0
LINE
  5
BE6E
330
BCDF
100
AcDbEntity
  8
1
  6
Continuous
100
AcDbLine
 10
301.345952
 20
215.55379
 30
0.0
 11
299.6635099999999
 21
214.712569
 31
0.0
  0
LINE
  5
BE6F
330
BCDF
100
AcDbEntity
  8
1
  6
Continuous
100
AcDbLine
 10
298.999365
 20
214.630809
 30
0.0
 11
295.062882
 21
215.505583
 31
0.0
  0
LINE
  5
BE70
330
BCDF
100
AcDbEntity
  8
1
  6
Continuous
100
AcDbLine
 10
294.629021
 20
215.505583
 30
0.0
 11
290.692538
 21
214.630809
 31
0.0
  0
LINE
  5
BE71
330
BCDF
100
AcDbEntity
  8
1
  6
Continuous
100
AcDbLine
 10
290.0283939999998
 20
214.712569
 30
0.0
 11
288.345952
 21
215.55379
 31
0.0
  0
ARC
  5
BE72
330
BCDF
100
AcDbEntity
  8
1
  6
Continuous
100
AcDbCircle
 10
299.2162959999999
 20
215.6069959999999
 30
0.0
 40
1.0
100
AcDbArc
 50
257.4711919999999
 51
296.5650509999999
  0
ARC
  5
BE73
330
BCDF
100
AcDbEntity
  8
1
  6
Continuous
100
AcDbCircle
 10
299.2162959999999
 20
216.298987
 30
0.0
 40
1.0
100
AcDbArc
 50
257.4711919999999
 51
296.5650509999999
  0
ARC
  5
BE74
330
BCDF
100
AcDbEntity
  8
1
  6
Continuous
100
AcDbCircle
 10
294.845952
 20
215.221387
 30
0.0
 40
1.0
100
AcDbArc
 50
77.471192
 51
102.5288079999999
  0
ARC
  5
BE75
330
BCDF
100
AcDbEntity
  8
1
  6
Continuous
100
AcDbCircle
 10
294.845952
 20
214.529396
 30
0.0
 40
1.0
100
AcDbArc
 50
77.471192
 51
102.5288079999999
  0
ARC
  5
BE76
330
BCDF
100
AcDbEntity
  8
1
  6
Continuous
100
AcDbCircle
 10
290.4756069999999
 20
215.6069959999999
 30
0.0
 40
1.0
100
AcDbArc
 50
243.4349489999999
 51
282.528808
  0
ARC
  5
BE77
330
BCDF
100
AcDbEntity
  8
1
  6
Continuous
100
AcDbCircle
 10
290.4756069999999
 20
216.298987
 30
0.0
 40
1.0
100
AcDbArc
 50
243.4349489999999
 51
282.528808
  0
LINE
  5
BE78
330
BCDF
100
AcDbEntity
  8
1
  6
Continuous
100
AcDbLine
 10
185.330109
 20
280.5440429999999
 30
0.0
 11
185.330109
 21
277.8502259999999
 31
0.0
  0
LINE
  5
BE79
330
BCDF
100
AcDbEntity
  8
1
  6
Continuous
100
AcDbLine
 10
186.523534
 20
283.48776
 30
0.0
 11
185.9301089999999
 21
277.8502259999999
 31
0.0
  0
LINE
  5
BE7A
330
BCDF
100
AcDbEntity
  8
1
  6
Continuous
100
AcDbLine
 10
187.7301089999999
 20
280.5440429999999
 30
0.0
 11
187.7301089999999
 21
277.8502259999999
 31
0.0
  0
LINE
  5
BE7B
330
BCDF
100
AcDbEntity
  8
1
  6
Continuous
100
AcDbLine
 10
188.9235339999999
 20
283.48776
 30
0.0
 11
188.3301089999999
 21
277.8502259999999
 31
0.0
  0
LINE
  5
BE7C
330
BCDF
100
AcDbEntity
  8
1
  6
Continuous
100
AcDbLine
 10
190.130109
 20
280.5440429999999
 30
0.0
 11
190.130109
 21
277.8502259999999
 31
0.0
  0
LINE
  5
BE7D
330
BCDF
100
AcDbEntity
  8
1
  6
Continuous
100
AcDbLine
 10
191.3235339999999
 20
283.48776
 30
0.0
 11
190.7301089999999
 21
277.8502259999999
 31
0.0
  0
LINE
  5
BE7E
330
BCDF
100
AcDbEntity
  8
1
  6
Continuous
100
AcDbLine
 10
192.5301089999999
 20
280.5440429999999
 30
0.0
 11
192.5301089999999
 21
277.8502259999999
 31
0.0
  0
LINE
  5
BE7F
330
BCDF
100
AcDbEntity
  8
1
  6
Continuous
100
AcDbLine
 10
193.7235339999998
 20
283.48776
 30
0.0
 11
193.130109
 21
277.8502259999999
 31
0.0
  0
ARC
  5
BE80
330
BCDF
100
AcDbEntity
  8
1
  6
Continuous
100
AcDbCircle
 10
185.630109
 20
277.8502259999999
 30
0.0
 40
0.3
100
AcDbArc
 50
180.0
 51
0.0
  0
ARC
  5
BE81
330
BCDF
100
AcDbEntity
  8
1
  6
Continuous
100
AcDbCircle
 10
188.030109
 20
277.8502259999999
 30
0.0
 40
0.3
100
AcDbArc
 50
180.0
 51
0.0
  0
ARC
  5
BE82
330
BCDF
100
AcDbEntity
  8
1
  6
Continuous
100
AcDbCircle
 10
190.4301089999999
 20
277.8502259999999
 30
0.0
 40
0.3
100
AcDbArc
 50
180.0
 51
0.0
  0
ARC
  5
BE83
330
BCDF
100
AcDbEntity
  8
1
  6
Continuous
100
AcDbCircle
 10
192.8301089999999
 20
277.8502259999999
 30
0.0
 40
0.3
100
AcDbArc
 50
180.0
 51
0.0
  0
ARC
  5
BE84
330
BCDF
100
AcDbEntity
  8
1
  6
Continuous
100
AcDbCircle
 10
186.8301089999999
 20
280.5440429999999
 30
0.0
 40
1.5
100
AcDbArc
 50
168.1113419999998
 51
180.0
  0
ARC
  5
BE85
330
BCDF
100
AcDbEntity
  8
1
  6
Continuous
100
AcDbCircle
 10
186.230109
 20
283.5502259999998
 30
0.0
 40
0.3
100
AcDbArc
 50
347.9819879999998
 51
180.0
  0
LINE
  5
BE86
330
BCDF
100
AcDbEntity
  8
1
  6
Continuous
100
AcDbLine
 10
185.9301089999999
 20
283.5502259999998
 30
0.0
 11
185.362285
 21
280.8530589999999
 31
0.0
  0
ARC
  5
BE87
330
BCDF
100
AcDbEntity
  8
1
  6
Continuous
100
AcDbCircle
 10
189.230109
 20
280.5440429999999
 30
0.0
 40
1.5
100
AcDbArc
 50
168.1113419999998
 51
180.0
  0
LINE
  5
BE88
330
BCDF
100
AcDbEntity
  8
1
  6
Continuous
100
AcDbLine
 10
188.3301089999999
 20
283.5502259999998
 30
0.0
 11
187.7622849999999
 21
280.8530589999999
 31
0.0
  0
ARC
  5
BE89
330
BCDF
100
AcDbEntity
  8
1
  6
Continuous
100
AcDbCircle
 10
188.630109
 20
283.5502259999998
 30
0.0
 40
0.3
100
AcDbArc
 50
347.9819879999998
 51
180.0
  0
ARC
  5
BE8A
330
BCDF
100
AcDbEntity
  8
1
  6
Continuous
100
AcDbCircle
 10
191.630109
 20
280.5440429999999
 30
0.0
 40
1.5
100
AcDbArc
 50
168.1113419999998
 51
180.0
  0
ARC
  5
BE8B
330
BCDF
100
AcDbEntity
  8
1
  6
Continuous
100
AcDbCircle
 10
191.030109
 20
283.5502259999998
 30
0.0
 40
0.3
100
AcDbArc
 50
347.9819879999998
 51
180.0
  0
LINE
  5
BE8C
330
BCDF
100
AcDbEntity
  8
1
  6
Continuous
100
AcDbLine
 10
190.7301089999999
 20
283.5502259999998
 30
0.0
 11
190.162285
 21
280.8530589999999
 31
0.0
  0
ARC
  5
BE8D
330
BCDF
100
AcDbEntity
  8
1
  6
Continuous
100
AcDbCircle
 10
194.030109
 20
280.5440429999999
 30
0.0
 40
1.5
100
AcDbArc
 50
168.1113419999998
 51
180.0
  0
LINE
  5
BE8E
330
BCDF
100
AcDbEntity
  8
1
  6
Continuous
100
AcDbLine
 10
193.130109
 20
283.5502259999998
 30
0.0
 11
192.562285
 21
280.8530589999999
 31
0.0
  0
ARC
  5
BE8F
330
BCDF
100
AcDbEntity
  8
1
  6
Continuous
100
AcDbCircle
 10
193.4301089999999
 20
283.5502259999998
 30
0.0
 40
0.3
100
AcDbArc
 50
347.9819879999998
 51
180.0
  0
LINE
  5
BE90
330
BCDF
100
AcDbEntity
  8
1
  6
Continuous
100
AcDbLine
 10
194.7607059999999
 20
287.0226
 30
0.0
 11
195.742871
 21
285.3856589999999
 31
0.0
  0
LINE
  5
BE91
330
BCDF
100
AcDbEntity
  8
1
  6
Continuous
100
AcDbLine
 10
195.8516129999999
 20
284.6134999999998
 30
0.0
 11
194.8294159999999
 21
280.7802629999999
 31
0.0
  0
LINE
  5
BE92
330
BCDF
100
AcDbEntity
  8
1
  6
Continuous
100
AcDbLine
 10
194.8294159999999
 20
280.2649369999999
 30
0.0
 11
195.8516129999999
 21
276.4316999999999
 31
0.0
  0
LINE
  5
BE93
330
BCDF
100
AcDbEntity
  8
1
  6
Continuous
100
AcDbLine
 10
195.742871
 20
275.659541
 30
0.0
 11
194.7607059999999
 21
274.0226
 31
0.0
  0
ARC
  5
BE94
330
BCDF
100
AcDbEntity
  8
1
  6
Continuous
100
AcDbCircle
 10
194.885378
 20
284.871163
 30
0.0
 40
1.0
100
AcDbArc
 50
345.0685829999998
 51
30.96375700000001
  0
ARC
  5
BE95
330
BCDF
100
AcDbEntity
  8
1
  6
Continuous
100
AcDbCircle
 10
194.885378
 20
276.174037
 30
0.0
 40
1.0
100
AcDbArc
 50
329.036243
 51
14.931417
  0
ARC
  5
BE96
330
BCDF
100
AcDbEntity
  8
1
  6
Continuous
100
AcDbCircle
 10
195.7956509999999
 20
280.5226
 30
0.0
 40
1.0
100
AcDbArc
 50
165.068583
 51
194.9314169999999
  0
ARC
  5
BE97
330
BCDF
100
AcDbEntity
  8
1
  6
Continuous
100
AcDbCircle
 10
291.813109
 20
222.081177
 30
0.0
 40
0.1715
100
AcDbArc
 50
96.70125000000002
 51
270.0
  0
LINE
  5
BE98
330
BCDF
100
AcDbEntity
  8
1
  6
Continuous
100
AcDbLine
 10
297.750407
 20
221.5675029999999
 30
0.0
 11
296.738946
 21
221.625795
 31
0.0
  0
ARC
  5
BE99
330
BCDF
100
AcDbEntity
  8
1
  6
Continuous
100
AcDbCircle
 10
291.8568529999999
 20
219.7280539999999
 30
0.0
 40
0.21525
100
AcDbArc
 50
81.619662
 51
270.0
  0
ARC
  5
BE9A
330
BCDF
100
AcDbEntity
  8
1
  6
Continuous
100
AcDbCircle
 10
291.8338589999999
 20
221.0078559999999
 30
0.0
 40
0.19225
100
AcDbArc
 50
90.0
 51
270.0
  0
LINE
  5
BE9B
330
BCDF
100
AcDbEntity
  8
1
  6
Continuous
100
AcDbLine
 10
297.7263529999999
 20
219.082787
 30
0.0
 11
291.8568529999999
 21
219.5128039999999
 31
0.0
  0
LINE
  5
BE9C
330
BCDF
100
AcDbEntity
  8
1
  6
Continuous
100
AcDbLine
 10
291.8882239999998
 20
219.9410059999999
 30
0.0
 11
294.7916029999999
 21
219.9410059999999
 31
0.0
  0
LINE
  5
BE9D
330
BCDF
100
AcDbEntity
  8
1
  6
Continuous
100
AcDbLine
 10
291.8338589999999
 20
221.2001059999999
 30
0.0
 11
294.791609
 21
221.2001059999999
 31
0.0
  0
LINE
  5
BE9E
330
BCDF
100
AcDbEntity
  8
1
  6
Continuous
100
AcDbLine
 10
297.506727
 20
217.1090289999999
 30
0.0
 11
291.8691929999998
 21
217.702454
 31
0.0
  0
LINE
  5
BE9F
330
BCDF
100
AcDbEntity
  8
1
  6
Continuous
100
AcDbLine
 10
294.56301
 20
218.302454
 30
0.0
 11
291.8691929999998
 21
218.302454
 31
0.0
  0
ARC
  5
BEA0
330
BCDF
100
AcDbEntity
  8
1
  6
Continuous
100
AcDbCircle
 10
291.8691929999998
 20
218.002454
 30
0.0
 40
0.3
100
AcDbArc
 50
90.0
 51
270.0
  0
LINE
  5
BEA1
330
BCDF
100
AcDbEntity
  8
1
  6
Continuous
100
AcDbLine
 10
297.7493589999999
 20
220.4310279999999
 30
0.0
 11
291.8338589999999
 21
220.8156059999998
 31
0.0
  0
ARC
  5
BEA2
330
BCDF
100
AcDbEntity
  8
1
  6
Continuous
100
AcDbCircle
 10
297.770109
 20
221.7378669999999
 30
0.0
 40
0.1715
100
AcDbArc
 50
263.403222
 51
90.0
  0
LINE
  5
BEA3
330
BCDF
100
AcDbEntity
  8
1
  6
Continuous
100
AcDbLine
 10
297.770109
 20
221.9093669999999
 30
0.0
 11
297.4240619999998
 21
221.9492529999999
 31
0.0
  0
ARC
  5
BEA4
330
BCDF
100
AcDbEntity
  8
1
  6
Continuous
100
AcDbCircle
 10
297.7263529999999
 20
219.2980369999999
 30
0.0
 40
0.21525
100
AcDbArc
 50
270.0
 51
90.0
  0
LINE
  5
BEA5
330
BCDF
100
AcDbEntity
  8
1
  6
Continuous
100
AcDbLine
 10
297.7263529999999
 20
219.513287
 30
0.0
 11
294.7916029999999
 21
219.9410059999999
 31
0.0
  0
LINE
  5
BEA6
330
BCDF
100
AcDbEntity
  8
1
  6
Continuous
100
AcDbLine
 10
297.7493589999999
 20
220.8155279999998
 30
0.0
 11
294.791609
 21
221.2001059999999
 31
0.0
  0
ARC
  5
BEA7
330
BCDF
100
AcDbEntity
  8
1
  6
Continuous
100
AcDbCircle
 10
297.5691929999999
 20
217.402454
 30
0.0
 40
0.3
100
AcDbArc
 50
257.981988
 51
90.0
  0
LINE
  5
BEA8
330
BCDF
100
AcDbEntity
  8
1
  6
Continuous
100
AcDbLine
 10
297.5691929999999
 20
217.702454
 30
0.0
 11
294.872025
 21
218.270279
 31
0.0
  0
ARC
  5
BEA9
330
BCDF
100
AcDbEntity
  8
1
  6
Continuous
100
AcDbCircle
 10
297.7493589999999
 20
220.6232779999999
 30
0.0
 40
0.19225
100
AcDbArc
 50
270.0
 51
90.0
  0
ARC
  5
BEAA
330
BCDF
100
AcDbEntity
  8
1
  6
Continuous
100
AcDbCircle
 10
294.56301
 20
216.802454
 30
0.0
 40
1.5
100
AcDbArc
 50
78.11134200000002
 51
90.0
  0
LINE
  5
BEAB
330
BCDF
100
AcDbEntity
  8
1
  6
Continuous
100
AcDbLine
 10
292.402936
 20
221.875685
 30
0.0
 11
291.813109
 21
221.9096769999999
 31
0.0
  0
LINE
  5
BEAC
330
BCDF
100
AcDbEntity
  8
1
  6
Continuous
100
AcDbLine
 10
35.810828
 20
222.4532739999999
 30
0.0
 11
35.810828
 21
222.386774
 31
0.0
  0
LINE
  5
BEAD
330
BCDF
100
AcDbEntity
  8
1
  6
Continuous
100
AcDbLine
 10
35.79782800000001
 20
222.1349339999999
 30
0.0
 11
35.79782800000001
 21
222.042434
 31
0.0
  0
LINE
  5
BEAE
330
BCDF
100
AcDbEntity
  8
1
  6
Continuous
100
AcDbLine
 10
35.77882499999999
 20
222.7248899999999
 30
0.0
 11
35.77882499999999
 21
222.65839
 31
0.0
  0
LINE
  5
BEAF
330
BCDF
100
AcDbEntity
  8
1
  6
Continuous
100
AcDbLine
 10
32.662075
 20
222.65839
 30
0.0
 11
29.545325
 21
222.7247699999999
 31
0.0
  0
LINE
  5
BEB0
330
BCDF
100
AcDbEntity
  8
1
  6
Continuous
100
AcDbLine
 10
29.546033
 20
222.791262
 30
0.0
 11
35.77882499999999
 21
222.7248899999999
 31
0.0
  0
ARC
  5
BEB1
330
BCDF
100
AcDbEntity
  8
1
  6
Continuous
100
AcDbCircle
 10
29.545325
 20
222.7580199999999
 30
0.0
 40
0.03325
100
AcDbArc
 50
88.77976600000001
 51
270.0
  0
LINE
  5
BEB2
330
BCDF
100
AcDbEntity
  8
1
  6
Continuous
100
AcDbLine
 10
32.662075
 20
222.65839
 30
0.0
 11
35.77882499999999
 21
222.65839
 31
0.0
  0
LINE
  5
BEB3
330
BCDF
100
AcDbEntity
  8
1
  6
Continuous
100
AcDbLine
 10
182.9301089999999
 20
280.5440429999999
 30
0.0
 11
182.9301089999999
 21
277.8502259999999
 31
0.0
  0
LINE
  5
BEB4
330
BCDF
100
AcDbEntity
  8
1
  6
Continuous
100
AcDbLine
 10
184.123534
 20
283.48776
 30
0.0
 11
183.530109
 21
277.8502259999999
 31
0.0
  0
ARC
  5
BEB5
330
BCDF
100
AcDbEntity
  8
1
  6
Continuous
100
AcDbCircle
 10
183.2301089999999
 20
277.8502259999999
 30
0.0
 40
0.3
100
AcDbArc
 50
180.0
 51
0.0
  0
ARC
  5
BEB6
330
BCDF
100
AcDbEntity
  8
1
  6
Continuous
100
AcDbCircle
 10
183.8301089999999
 20
283.5502259999998
 30
0.0
 40
0.3
100
AcDbArc
 50
347.9819879999998
 51
180.0
  0
ARC
  5
BEB7
330
BCDF
100
AcDbEntity
  8
1
  6
Continuous
100
AcDbCircle
 10
184.4301089999999
 20
280.5440429999999
 30
0.0
 40
1.5
100
AcDbArc
 50
168.1113419999998
 51
180.0
  0
LINE
  5
BEB8
330
BCDF
100
AcDbEntity
  8
1
  6
Continuous
100
AcDbLine
 10
183.530109
 20
283.5502259999998
 30
0.0
 11
182.9622849999998
 21
280.8530589999999
 31
0.0
  0
LINE
  5
BEB9
330
BCDF
100
AcDbEntity
  8
1
  6
Continuous
100
AcDbLine
 10
181.723534
 20
283.48776
 30
0.0
 11
181.130109
 21
277.8502259999999
 31
0.0
  0
ARC
  5
BEBA
330
BCDF
100
AcDbEntity
  8
1
  6
Continuous
100
AcDbCircle
 10
180.830109
 20
277.8502259999999
 30
0.0
 40
0.3
100
AcDbArc
 50
316.0110259999999
 51
0.0
  0
LINE
  5
BEBB
330
BCDF
100
AcDbEntity
  8
1
  6
Continuous
100
AcDbLine
 10
181.130109
 20
283.5502259999998
 30
0.0
 11
181.045952
 21
283.1504749999999
 31
0.0
  0
ARC
  5
BEBC
330
BCDF
100
AcDbEntity
  8
1
  6
Continuous
100
AcDbCircle
 10
181.4301089999999
 20
283.5502259999998
 30
0.0
 40
0.3
100
AcDbArc
 50
347.9819879999998
 51
180.0
  0
ARC
  5
BEBD
330
BCDF
100
AcDbEntity
  8
1
  6
Continuous
100
AcDbCircle
 10
155.190975
 20
193.3824119999999
 30
0.0
 40
33.40196799999999
100
AcDbArc
 50
57.686694
 51
65.038465
  0
ARC
  5
BEBE
330
BCDF
100
AcDbEntity
  8
1
  6
Continuous
100
AcDbCircle
 10
161.86687
 20
136.946232
 30
0.0
 40
85.400287
100
AcDbArc
 50
66.47033
 51
82.478273
  0
ARC
  5
BEBF
330
BCDF
100
AcDbEntity
  8
1
  6
Continuous
100
AcDbCircle
 10
155.190975
 20
193.3824119999999
 30
0.0
 40
32.601968
100
AcDbArc
 50
57.76170799999999
 51
64.52036800000001
  0
ARC
  5
BEC0
330
BCDF
100
AcDbEntity
  8
1
  6
Continuous
100
AcDbCircle
 10
161.86687
 20
136.946232
 30
0.0
 40
84.60028699999998
100
AcDbArc
 50
66.501542
 51
82.44888000000001
  0
ARC
  5
BEC1
330
BCDF
100
AcDbEntity
  8
1
  6
Continuous
100
AcDbCircle
 10
161.86687
 20
136.946232
 30
0.0
 40
83.80028699999998
100
AcDbArc
 50
66.53340199999999
 51
82.44888000000001
  0
ARC
  5
BEC2
330
BCDF
100
AcDbEntity
  8
1
  6
Continuous
100
AcDbCircle
 10
155.190975
 20
193.3824119999999
 30
0.0
 40
31.801968
100
AcDbArc
 50
57.76170799999999
 51
63.974288
  0
ARC
  5
BEC3
330
BCDF
100
AcDbEntity
  8
1
  6
Continuous
100
AcDbCircle
 10
173.115666
 20
221.8041939999999
 30
0.0
 40
1.0
100
AcDbArc
 50
237.7617079999999
 51
262.4488799999999
  0
ARC
  5
BEC4
330
BCDF
100
AcDbEntity
  8
1
  6
Continuous
100
AcDbCircle
 10
173.115666
 20
221.8041939999999
 30
0.0
 40
1.8
100
AcDbArc
 50
237.7617079999999
 51
262.4488799999999
  0
ARC
  5
BEC5
330
BCDF
100
AcDbEntity
  8
5
  6
PHANTOM
100
AcDbCircle
 10
155.192157
 20
193.396598
 30
0.0
 40
33.40196799999999
100
AcDbArc
 50
57.686694
 51
65.038465
  0
ARC
  5
BEC6
330
BCDF
100
AcDbEntity
  8
5
  6
PHANTOM
100
AcDbCircle
 10
155.196628
 20
193.450242
 30
0.0
 40
32.601968
100
AcDbArc
 50
57.564956
 51
64.52036800000001
  0
ARC
  5
BEC7
330
BCDF
100
AcDbEntity
  8
5
  6
PHANTOM
100
AcDbCircle
 10
155.201348
 20
193.5068799999999
 30
0.0
 40
31.801968
100
AcDbArc
 50
57.351016
 51
63.974288
  0
ARC
  5
BEC8
330
BCDF
100
AcDbEntity
  8
5
  6
PHANTOM
100
AcDbCircle
 10
167.526535
 20
163.296535
 30
0.0
 40
58.589993
100
AcDbArc
 50
58.02003599999999
 51
84.593327
  0
ARC
  5
BEC9
330
BCDF
100
AcDbEntity
  8
5
  6
PHANTOM
100
AcDbCircle
 10
167.526535
 20
163.296535
 30
0.0
 40
57.789993
100
AcDbArc
 50
58.041477
 51
84.44369399999997
  0
ARC
  5
BECA
330
BCDF
100
AcDbEntity
  8
5
  6
PHANTOM
100
AcDbCircle
 10
167.526535
 20
163.296535
 30
0.0
 40
56.989993
100
AcDbArc
 50
58.063516
 51
84.33549399999998
  0
ARC
  5
BECB
330
BCDF
100
AcDbEntity
  8
5
  6
PHANTOM
100
AcDbCircle
 10
173.3293009999999
 20
221.799451
 30
0.0
 40
1.8
100
AcDbArc
 50
237.3510159999999
 51
264.335494
  0
ARC
  5
BECC
330
BCDF
100
AcDbEntity
  8
5
  6
PHANTOM
100
AcDbCircle
 10
173.218812
 20
221.8103049999998
 30
0.0
 40
1.0
100
AcDbArc
 50
237.5649559999999
 51
264.4436939999998
  0
LINE
  5
BECD
330
BCDF
100
AcDbEntity
  8
1
  6
Continuous
100
AcDbLine
 10
290.845952
 20
224.2132369999999
 30
0.0
 11
294.845952
 21
221.9038359999999
 31
0.0
  0
LINE
  5
BECE
330
BCDF
100
AcDbEntity
  8
1
  6
Continuous
100
AcDbLine
 10
294.845952
 20
221.9038359999999
 30
0.0
 11
298.845952
 21
224.2132369999999
 31
0.0
  0
LINE
  5
BECF
330
BCDF
100
AcDbEntity
  8
1
  6
Continuous
100
AcDbLine
 10
298.845952
 20
224.2132369999999
 30
0.0
 11
298.845952
 21
228.8320389999999
 31
0.0
  0
LINE
  5
BED0
330
BCDF
100
AcDbEntity
  8
1
  6
Continuous
100
AcDbLine
 10
298.845952
 20
228.8320389999999
 30
0.0
 11
294.845952
 21
231.1414399999999
 31
0.0
  0
LINE
  5
BED1
330
BCDF
100
AcDbEntity
  8
1
  6
Continuous
100
AcDbLine
 10
294.845952
 20
231.1414399999999
 30
0.0
 11
290.845952
 21
228.8320389999999
 31
0.0
  0
LINE
  5
BED2
330
BCDF
100
AcDbEntity
  8
1
  6
Continuous
100
AcDbLine
 10
290.845952
 20
228.8320389999999
 30
0.0
 11
290.845952
 21
224.2132369999999
 31
0.0
  0
ENDSEC
  0
SECTION
  2
OBJECTS
  0
DICTIONARY
  5
BCCD
330
0
100
AcDbDictionary
281
     1
  3
ACAD_CIP_PREVIOUS_PRODUCT_INFO
350
BF32
  3
ACAD_COLOR
350
BF14
  3
ACAD_DETAILVIEWSTYLE
350
BF2D
  3
ACAD_GROUP
350
BCCE
  3
ACAD_LAYOUT
350
BCDA
  3
ACAD_MATERIAL
350
BEE2
  3
ACAD_MLEADERSTYLE
350
BF29
  3
ACAD_MLINESTYLE
350
BCD7
  3
ACAD_PLOTSETTINGS
350
BCD9
  3
ACAD_PLOTSTYLENAME
350
BEE0
  3
ACAD_SCALELIST
350
BF17
  3
ACAD_SECTIONVIEWSTYLE
350
BF2B
  3
ACAD_TABLESTYLE
350
BF15
  3
ACAD_VISUALSTYLE
350
BEFB
  3
ACDB_RECOMPOSE_DATA
350
BF50
  3
AcDbVariableDictionary
350
BF43
  3
DWGPROPS
350
BF51
  0
DICTIONARY
  5
BF33
330
BCD1
100
AcDbDictionary
280
     1
281
     1
  3
ADSK_XREC_LAYER_RECONCILED
360
BF34
  0
DICTIONARY
  5
BF35
330
BCE7
100
AcDbDictionary
280
     1
281
     1
  3
ADSK_XREC_LAYER_RECONCILED
360
BF36
  0
DICTIONARY
  5
BF37
330
BCE8
100
AcDbDictionary
280
     1
281
     1
  3
ADSK_XREC_LAYER_RECONCILED
360
BF38
  0
DICTIONARY
  5
BF39
330
BCE9
100
AcDbDictionary
280
     1
281
     1
  3
ADSK_XREC_LAYER_RECONCILED
360
BF3A
  0
DICTIONARY
  5
BF3B
330
BCEA
100
AcDbDictionary
280
     1
281
     1
  3
ADSK_XREC_LAYER_RECONCILED
360
BF3C
  0
DICTIONARY
  5
BF3D
330
BCEB
100
AcDbDictionary
280
     1
281
     1
  3
ADSK_XREC_LAYER_RECONCILED
360
BF3E
  0
DICTIONARY
  5
BF3F
330
BCEC
100
AcDbDictionary
280
     1
281
     1
  3
ADSK_XREC_LAYER_RECONCILED
360
BF40
  0
DICTIONARY
  5
BF41
330
BCED
100
AcDbDictionary
280
     1
281
     1
  3
ADSK_XREC_LAYER_RECONCILED
360
BF42
  0
DICTIONARY
  5
BEDB
330
BCDF
100
AcDbDictionary
281
     1
  3
ACAD_LAYOUTSELFREF
350
BEDC
  0
DICTIONARY
  5
BED9
330
BCDB
100
AcDbDictionary
281
     1
  3
ACAD_LAYOUTSELFREF
350
BEDA
  0
XRECORD
  5
BF32
102
{ACAD_REACTORS
330
BCCD
102
}
330
BCCD
100
AcDbXrecord
280
     1
300
ACDLT
300
2014
300
ACDLT_F_S
  0
DICTIONARY
  5
BF14
102
{ACAD_REACTORS
330
BCCD
102
}
330
BCCD
100
AcDbDictionary
281
     1
  0
DICTIONARY
  5
BF2D
102
{ACAD_REACTORS
330
BCCD
102
}
330
BCCD
100
AcDbDictionary
281
     1
  3
Imperial24
350
BF2E
  0
DICTIONARY
  5
BCCE
102
{ACAD_REACTORS
330
BCCD
102
}
330
BCCD
100
AcDbDictionary
281
     1
  0
DICTIONARY
  5
BCDA
102
{ACAD_REACTORS
330
BCCD
102
}
330
BCCD
100
AcDbDictionary
281
     1
  3
Model
350
BF2F
  3
レイアウト1
350
BF30
  0
DICTIONARY
  5
BEE2
102
{ACAD_REACTORS
330
BCCD
102
}
330
BCCD
100
AcDbDictionary
281
     1
  3
ByBlock
350
BEEB
  3
ByLayer
350
BEE3
  3
Global
350
BEF3
  0
DICTIONARY
  5
BF29
102
{ACAD_REACTORS
330
BCCD
102
}
330
BCCD
100
AcDbDictionary
281
     1
  3
Standard
350
BF2A
  0
DICTIONARY
  5
BCD7
102
{ACAD_REACTORS
330
BCCD
102
}
330
BCCD
100
AcDbDictionary
281
     1
  3
STANDARD
350
BCD8
  0
DICTIONARY
  5
BCD9
102
{ACAD_REACTORS
330
BCCD
102
}
330
BCCD
100
AcDbDictionary
281
     1
  0
ACDBDICTIONARYWDFLT
  5
BEE0
102
{ACAD_REACTORS
330
BCCD
102
}
330
BCCD
100
AcDbDictionary
281
     1
  3
Normal
350
BEE1
100
AcDbDictionaryWithDefault
340
BEE1
  0
DICTIONARY
  5
BF17
102
{ACAD_REACTORS
330
BCCD
102
}
330
BCCD
100
AcDbDictionary
281
     1
  3
A0
350
BF18
  3
A1
350
BF19
  3
A2
350
BF1A
  3
A3
350
BF1B
  3
A4
350
BF1C
  3
A5
350
BF1D
  3
A6
350
BF1E
  3
A7
350
BF1F
  3
A8
350
BF20
  3
A9
350
BF21
  3
B0
350
BF22
  3
B1
350
BF23
  3
B2
350
BF24
  3
B3
350
BF25
  3
B4
350
BF26
  3
B5
350
BF27
  3
B6
350
BF28
  0
DICTIONARY
  5
BF2B
102
{ACAD_REACTORS
330
BCCD
102
}
330
BCCD
100
AcDbDictionary
281
     1
  3
Imperial24
350
BF2C
  0
DICTIONARY
  5
BF15
102
{ACAD_REACTORS
330
BCCD
102
}
330
BCCD
100
AcDbDictionary
281
     1
  3
Standard
350
BF16
  0
DICTIONARY
  5
BEFB
102
{ACAD_REACTORS
330
BCCD
102
}
330
BCCD
100
AcDbDictionary
281
     1
  3
2dWireframe
350
BF01
  3
Basic
350
BF00
  3
Brighten
350
BF07
  3
ColorChange
350
BF0B
  3
Conceptual
350
BF04
  3
Dim
350
BF06
  3
EdgeColorOff
350
BF13
  3
Facepattern
350
BF0A
  3
Flat
350
BEFC
  3
FlatWithEdges
350
BEFD
  3
Gouraud
350
BEFE
  3
GouraudWithEdges
350
BEFF
  3
Hidden
350
BF03
  3
JitterOff
350
BF11
  3
Linepattern
350
BF09
  3
OverhangOff
350
BF12
  3
Realistic
350
BF05
  3
Shaded
350
BF10
  3
Shaded with edges
350
BF0F
  3
Shades of Gray
350
BF0C
  3
Sketchy
350
BF0D
  3
Thicken
350
BF08
  3
Wireframe
350
BF02
  3
X-Ray
350
BF0E
  0
XRECORD
  5
BF50
102
{ACAD_REACTORS
330
BCCD
102
}
330
BCCD
100
AcDbXrecord
280
     1
 90
        1
330
BF16
  0
DICTIONARY
  5
BF43
102
{ACAD_REACTORS
330
BCCD
102
}
330
BCCD
100
AcDbDictionary
281
     1
  3
CANNOSCALE
350
BF48
  3
CMLEADERSTYLE
350
BF45
  3
CTABLESTYLE
350
BF44
  3
CVIEWDETAILSTYLE
350
BF46
  3
CVIEWSECTIONSTYLE
350
BF47
  3
DIMASSOC
350
BF4B
  3
INDEXCTL
350
BF4A
  3
SORTENTS
350
BF49
  3
XCLIPFRAME
350
BF4C
  0
XRECORD
  5
BF51
102
{ACAD_REACTORS
330
BCCD
102
}
330
BCCD
100
AcDbXrecord
280
     1
  1
DWGPROPS COOKIE
  2

  3

  4

  6

  7

  8
Yoshitsune
  9

300
=
301
=
302
=
303
=
304
=
305
=
306
=
307
=
308
=
309
=
 40
0.0000097106481481
 41
2451296.792863426
 42
2457192.658204977
  1

 90
        0
  0
XRECORD
  5
BF34
102
{ACAD_REACTORS
330
BF33
102
}
330
BF33
100
AcDbXrecord
280
     1
290
     1
  0
XRECORD
  5
BF36
102
{ACAD_REACTORS
330
BF35
102
}
330
BF35
100
AcDbXrecord
280
     1
290
     1
  0
XRECORD
  5
BF38
102
{ACAD_REACTORS
330
BF37
102
}
330
BF37
100
AcDbXrecord
280
     1
290
     1
  0
XRECORD
  5
BF3A
102
{ACAD_REACTORS
330
BF39
102
}
330
BF39
100
AcDbXrecord
280
     1
290
     1
  0
XRECORD
  5
BF3C
102
{ACAD_REACTORS
330
BF3B
102
}
330
BF3B
100
AcDbXrecord
280
     1
290
     1
  0
XRECORD
  5
BF3E
102
{ACAD_REACTORS
330
BF3D
102
}
330
BF3D
100
AcDbXrecord
280
     1
290
     1
  0
XRECORD
  5
BF40
102
{ACAD_REACTORS
330
BF3F
102
}
330
BF3F
100
AcDbXrecord
280
     1
290
     1
  0
XRECORD
  5
BF42
102
{ACAD_REACTORS
330
BF41
102
}
330
BF41
100
AcDbXrecord
280
     1
290
     1
  0
XRECORD
  5
BEDC
102
{ACAD_REACTORS
330
BEDB
102
}
330
BEDB
100
AcDbXrecord
280
     1
340
BCDF
  0
XRECORD
  5
BEDA
102
{ACAD_REACTORS
330
BED9
102
}
330
BED9
100
AcDbXrecord
280
     1
340
BCDB
  0
ACDBDETAILVIEWSTYLE
  5
BF2E
102
{ACAD_XDICTIONARY
360
BF89
102
}
102
{ACAD_REACTORS
330
BF2D
102
}
330
BF2D
100
AcDbModelDocViewStyle
 70
     0
  3
Imperial24
290
     0
100
AcDbDetailViewStyle
 70
     0
 71
     0
 90
        3
 71
     1
340
BCD2
 40
0.24
340
0
 40
0.24
300

 40
0.36
280
     3
 71
     2
340
BCD6
 90
       25
 71
     3
340
BCD2
 40
0.24
 90
        1
 40
0.75
 90
        1
300
%<\AcVar ViewType \f "%tc1">% %<\AcVar ViewDetailId>%\PSCALE %<\AcVar ViewScale \f "%sn">%
 71
     4
340
BCD6
 90
       25
340
BCD6
 90
       25
280
     0
  0
LAYOUT
  5
BF2F
102
{ACAD_XDICTIONARY
360
BF8B
102
}
102
{ACAD_REACTORS
330
BCDA
102
}
330
BCDA
100
AcDbPlotSettings
  1

  2
Canon LBP9100C
  4

  6

 40
0.0
 41
0.0
 42
0.0
 43
0.0
 44
0.0
 45
0.0
 46
0.0
 47
0.0
 48
0.0
 49
0.0
140
0.0
141
0.0
142
1.0
143
1.0
 70
  1712
 72
     0
 73
     0
 74
     0
  7

 75
     0
147
1.0
148
0.0
149
0.0
100
AcDbLayout
  1
Model
 70
     1
 71
     0
 10
0.0
 20
0.0
 11
12.0
 21
9.0
 12
0.0
 22
0.0
 32
0.0
 14
0.0
 24
0.0
 34
0.0
 15
0.0
 25
0.0
 35
0.0
146
0.0
 13
0.0
 23
0.0
 33
0.0
 16
1.0
 26
0.0
 36
0.0
 17
0.0
 27
1.0
 37
0.0
 76
     0
330
BCDF
331
BED8
  0
LAYOUT
  5
BF30
102
{ACAD_XDICTIONARY
360
BF8D
102
}
102
{ACAD_REACTORS
330
BCDA
102
}
330
BCDA
100
AcDbPlotSettings
  1

  2
Canon LBP9100C
  4

  6

 40
0.0
 41
0.0
 42
0.0
 43
0.0
 44
0.0
 45
0.0
 46
0.0
 47
0.0
 48
0.0
 49
0.0
140
0.0
141
0.0
142
1.0
143
1.0
 70
   688
 72
     0
 73
     0
 74
     5
  7

 75
    16
147
1.0
148
0.0
149
0.0
100
AcDbLayout
  1
レイアウト1
 70
     0
 71
     1
 10
0.0
 20
0.0
 11
420.0
 21
297.0
 12
0.0
 22
0.0
 32
0.0
 14
1.000000000000000E+20
 24
1.000000000000000E+20
 34
1.000000000000000E+20
 15
-1.000000000000000E+20
 25
-1.000000000000000E+20
 35
-1.000000000000000E+20
146
0.0
 13
0.0
 23
0.0
 33
0.0
 16
1.0
 26
0.0
 36
0.0
 17
0.0
 27
1.0
 37
0.0
 76
     0
330
BCDB
  0
MATERIAL
  5
BEEB
102
{ACAD_XDICTIONARY
360
BEEC
102
}
102
{ACAD_REACTORS
330
BEE2
102
}
330
BEE2
100
AcDbMaterial
  1
ByBlock
 72
     0
 43
0.0208333333333333
 43
0.0
 43
0.0
 43
0.0
 43
0.0
 43
0.0208333333333333
 43
0.0
 43
0.0
 43
0.0
 43
0.0
 43
1.0
 43
0.0
 43
0.0
 43
0.0
 43
0.0
 43
1.0
 77
     0
 47
0.0208333333333333
 47
0.0
 47
0.0
 47
0.0
 47
0.0
 47
0.0208333333333333
 47
0.0
 47
0.0
 47
0.0
 47
0.0
 47
1.0
 47
0.0
 47
0.0
 47
0.0
 47
0.0
 47
1.0
171
     0
 49
0.0208333333333333
 49
0.0
 49
0.0
 49
0.0
 49
0.0
 49
0.0208333333333333
 49
0.0
 49
0.0
 49
0.0
 49
0.0
 49
1.0
 49
0.0
 49
0.0
 49
0.0
 49
0.0
 49
1.0
175
     0
142
0.0208333333333333
142
0.0
142
0.0
142
0.0
142
0.0
142
0.0208333333333333
142
0.0
142
0.0
142
0.0
142
0.0
142
1.0
142
0.0
142
0.0
142
0.0
142
0.0
142
1.0
179
     0
144
0.0208333333333333
144
0.0
144
0.0
144
0.0
144
0.0
144
0.0208333333333333
144
0.0
144
0.0
144
0.0
144
0.0
144
1.0
144
0.0
144
0.0
144
0.0
144
0.0
144
1.0
147
0.0208333333333333
147
0.0
147
0.0
147
0.0
147
0.0
147
0.0208333333333333
147
0.0
147
0.0
147
0.0
147
0.0
147
1.0
147
0.0
147
0.0
147
0.0
147
0.0
147
1.0
  0
MATERIAL
  5
BEE3
102
{ACAD_XDICTIONARY
360
BEE4
102
}
102
{ACAD_REACTORS
330
BEE2
102
}
330
BEE2
100
AcDbMaterial
  1
ByLayer
 72
     0
 43
0.0208333333333333
 43
0.0
 43
0.0
 43
0.0
 43
0.0
 43
0.0208333333333333
 43
0.0
 43
0.0
 43
0.0
 43
0.0
 43
1.0
 43
0.0
 43
0.0
 43
0.0
 43
0.0
 43
1.0
 77
     0
 47
0.0208333333333333
 47
0.0
 47
0.0
 47
0.0
 47
0.0
 47
0.0208333333333333
 47
0.0
 47
0.0
 47
0.0
 47
0.0
 47
1.0
 47
0.0
 47
0.0
 47
0.0
 47
0.0
 47
1.0
171
     0
 49
0.0208333333333333
 49
0.0
 49
0.0
 49
0.0
 49
0.0
 49
0.0208333333333333
 49
0.0
 49
0.0
 49
0.0
 49
0.0
 49
1.0
 49
0.0
 49
0.0
 49
0.0
 49
0.0
 49
1.0
175
     0
142
0.0208333333333333
142
0.0
142
0.0
142
0.0
142
0.0
142
0.0208333333333333
142
0.0
142
0.0
142
0.0
142
0.0
142
1.0
142
0.0
142
0.0
142
0.0
142
0.0
142
1.0
179
     0
144
0.0208333333333333
144
0.0
144
0.0
144
0.0
144
0.0
144
0.0208333333333333
144
0.0
144
0.0
144
0.0
144
0.0
144
1.0
144
0.0
144
0.0
144
0.0
144
0.0
144
1.0
147
0.0208333333333333
147
0.0
147
0.0
147
0.0
147
0.0
147
0.0208333333333333
147
0.0
147
0.0
147
0.0
147
0.0
147
1.0
147
0.0
147
0.0
147
0.0
147
0.0
147
1.0
  0
MATERIAL
  5
BEF3
102
{ACAD_XDICTIONARY
360
BEF4
102
}
102
{ACAD_REACTORS
330
BEE2
102
}
330
BEE2
100
AcDbMaterial
  1
Global
 72
     0
 43
0.0208333333333333
 43
0.0
 43
0.0
 43
0.0
 43
0.0
 43
0.0208333333333333
 43
0.0
 43
0.0
 43
0.0
 43
0.0
 43
1.0
 43
0.0
 43
0.0
 43
0.0
 43
0.0
 43
1.0
 77
     0
 47
0.0208333333333333
 47
0.0
 47
0.0
 47
0.0
 47
0.0
 47
0.0208333333333333
 47
0.0
 47
0.0
 47
0.0
 47
0.0
 47
1.0
 47
0.0
 47
0.0
 47
0.0
 47
0.0
 47
1.0
171
     0
 49
0.0208333333333333
 49
0.0
 49
0.0
 49
0.0
 49
0.0
 49
0.0208333333333333
 49
0.0
 49
0.0
 49
0.0
 49
0.0
 49
1.0
 49
0.0
 49
0.0
 49
0.0
 49
0.0
 49
1.0
175
     0
142
0.0208333333333333
142
0.0
142
0.0
142
0.0
142
0.0
142
0.0208333333333333
142
0.0
142
0.0
142
0.0
142
0.0
142
1.0
142
0.0
142
0.0
142
0.0
142
0.0
142
1.0
179
     0
144
0.0208333333333333
144
0.0
144
0.0
144
0.0
144
0.0
144
0.0208333333333333
144
0.0
144
0.0
144
0.0
144
0.0
144
1.0
144
0.0
144
0.0
144
0.0
144
0.0
144
1.0
147
0.0208333333333333
147
0.0
147
0.0
147
0.0
147
0.0
147
0.0208333333333333
147
0.0
147
0.0
147
0.0
147
0.0
147
1.0
147
0.0
147
0.0
147
0.0
147
0.0
147
1.0
  0
MLEADERSTYLE
  5
BF2A
102
{ACAD_REACTORS
330
BF29
102
}
330
BF29
100
AcDbMLeaderStyle
170
     2
171
     1
172
     0
 90
        2
 40
0.0
 41
0.0
173
     1
 91
-1056964608
340
BCD4
 92
       -2
290
     1
 42
0.09
291
     1
 43
0.36
  3
Standard
 44
0.18
300

342
BCD2
174
     1
178
     6
175
     1
176
     0
 93
-1056964608
 45
0.18
292
     0
297
     0
 46
0.18
 94
-1056964608
 47
1.0
 49
1.0
140
1.0
293
     1
141
0.0
294
     1
177
     0
142
1.0
295
     0
296
     0
143
0.125
1001
ACAD_MLEADERVER
1070
     2
  0
MLINESTYLE
  5
BCD8
102
{ACAD_REACTORS
330
BCD7
102
}
330
BCD7
100
AcDbMlineStyle
  2
STANDARD
 70
     0
  3

 62
   256
 51
90.0
 52
90.0
 71
     2
 49
0.5
 62
   256
  6
BYLAYER
 49
-0.5
 62
   256
  6
BYLAYER
  0
ACDBPLACEHOLDER
  5
BEE1
102
{ACAD_REACTORS
330
BEE0
102
}
330
BEE0
  0
SCALE
  5
BF18
102
{ACAD_REACTORS
330
BF17
102
}
330
BF17
100
AcDbScale
 70
     0
300
1:1
140
1.0
141
1.0
290
     1
  0
SCALE
  5
BF19
102
{ACAD_REACTORS
330
BF17
102
}
330
BF17
100
AcDbScale
 70
     0
300
1/128" = 1'-0"
140
0.0078125
141
12.0
290
     0
  0
SCALE
  5
BF1A
102
{ACAD_REACTORS
330
BF17
102
}
330
BF17
100
AcDbScale
 70
     0
300
1/64" = 1'-0"
140
0.015625
141
12.0
290
     0
  0
SCALE
  5
BF1B
102
{ACAD_REACTORS
330
BF17
102
}
330
BF17
100
AcDbScale
 70
     0
300
1/32" = 1'-0"
140
0.03125
141
12.0
290
     0
  0
SCALE
  5
BF1C
102
{ACAD_REACTORS
330
BF17
102
}
330
BF17
100
AcDbScale
 70
     0
300
1/16" = 1'-0"
140
0.0625
141
12.0
290
     0
  0
SCALE
  5
BF1D
102
{ACAD_REACTORS
330
BF17
102
}
330
BF17
100
AcDbScale
 70
     0
300
3/32" = 1'-0"
140
0.09375
141
12.0
290
     0
  0
SCALE
  5
BF1E
102
{ACAD_REACTORS
330
BF17
102
}
330
BF17
100
AcDbScale
 70
     0
300
1/8" = 1'-0"
140
0.125
141
12.0
290
     0
  0
SCALE
  5
BF1F
102
{ACAD_REACTORS
330
BF17
102
}
330
BF17
100
AcDbScale
 70
     0
300
3/16" = 1'-0"
140
0.1875
141
12.0
290
     0
  0
SCALE
  5
BF20
102
{ACAD_REACTORS
330
BF17
102
}
330
BF17
100
AcDbScale
 70
     0
300
1/4" = 1'-0"
140
0.25
141
12.0
290
     0
  0
SCALE
  5
BF21
102
{ACAD_REACTORS
330
BF17
102
}
330
BF17
100
AcDbScale
 70
     0
300
3/8" = 1'-0"
140
0.375
141
12.0
290
     0
  0
SCALE
  5
BF22
102
{ACAD_REACTORS
330
BF17
102
}
330
BF17
100
AcDbScale
 70
     0
300
1/2" = 1'-0"
140
0.5
141
12.0
290
     0
  0
SCALE
  5
BF23
102
{ACAD_REACTORS
330
BF17
102
}
330
BF17
100
AcDbScale
 70
     0
300
3/4" = 1'-0"
140
0.75
141
12.0
290
     0
  0
SCALE
  5
BF24
102
{ACAD_REACTORS
330
BF17
102
}
330
BF17
100
AcDbScale
 70
     0
300
1" = 1'-0"
140
1.0
141
12.0
290
     0
  0
SCALE
  5
BF25
102
{ACAD_REACTORS
330
BF17
102
}
330
BF17
100
AcDbScale
 70
     0
300
1-1/2" = 1'-0"
140
1.5
141
12.0
290
     0
  0
SCALE
  5
BF26
102
{ACAD_REACTORS
330
BF17
102
}
330
BF17
100
AcDbScale
 70
     0
300
3" = 1'-0"
140
3.0
141
12.0
290
     0
  0
SCALE
  5
BF27
102
{ACAD_REACTORS
330
BF17
102
}
330
BF17
100
AcDbScale
 70
     0
300
6" = 1'-0"
140
6.0
141
12.0
290
     0
  0
SCALE
  5
BF28
102
{ACAD_REACTORS
330
BF17
102
}
330
BF17
100
AcDbScale
 70
     0
300
1'-0" = 1'-0"
140
12.0
141
12.0
290
     0
  0
ACDBSECTIONVIEWSTYLE
  5
BF2C
102
{ACAD_XDICTIONARY
360
BF87
102
}
102
{ACAD_REACTORS
330
BF2B
102
}
330
BF2B
100
AcDbModelDocViewStyle
 70
     0
  3
Imperial24
290
     0
100
AcDbSectionViewStyle
 70
     0
 71
     0
 90
       78
 71
     1
340
BCD2
 40
0.24
340
0
340
0
 40
0.24
300
I, O, Q, S, X, Z
 40
0.48
 90
        3
 40
0.18
 90
        1
 71
     2
340
BCD6
 90
       25
340
BCD6
 90
       50
 40
0.24
 40
0.0
 40
0.24
 71
     3
340
BCD2
 40
0.24
 90
        1
 40
0.75
 90
        1
300
%<\AcVar ViewType \f "%tc1">% %<\AcVar ViewSectionStartId>%-%<\AcVar ViewSectionEndId>%\PSCALE %<\AcVar ViewScale \f "%sn">%
 71
     4
300
ANSI31
 40
1.0
 90
        0
290
     0
290
     0
 90
        6
 40
0.0
 40
1.570796326794896
 40
0.2617993877991494
 40
1.308996938995747
 40
-0.2617993877991494
 40
1.832595714594046
  0
TABLESTYLE
  5
BF16
102
{ACAD_XDICTIONARY
360
BF4E
102
}
102
{ACAD_REACTORS
330
BF15
102
}
330
BF15
100
AcDbTableStyle
  3
Standard
 70
     0
 71
     0
 40
0.06
 41
0.06
280
     0
281
     0
  7
STANDARD
140
0.18
170
     2
 62
     0
 63
     7
283
     0
274
    -2
284
     1
 64
     0
275
    -2
285
     1
 65
     0
276
    -2
286
     1
 66
     0
277
    -2
287
     1
 67
     0
278
    -2
288
     1
 68
     0
279
    -2
289
     1
 69
     0
  7
STANDARD
140
0.25
170
     5
 62
     0
 63
     7
283
     0
274
    -2
284
     1
 64
     0
275
    -2
285
     1
 65
     0
276
    -2
286
     1
 66
     0
277
    -2
287
     1
 67
     0
278
    -2
288
     1
 68
     0
279
    -2
289
     1
 69
     0
  7
STANDARD
140
0.18
170
     5
 62
     0
 63
     7
283
     0
274
    -2
284
     1
 64
     0
275
    -2
285
     1
 65
     0
276
    -2
286
     1
 66
     0
277
    -2
287
     1
 67
     0
278
    -2
288
     1
 68
     0
279
    -2
289
     1
 69
     0
  0
VISUALSTYLE
  5
BF01
102
{ACAD_XDICTIONARY
360
BF5F
102
}
102
{ACAD_REACTORS
330
BEFB
102
}
330
BEFB
100
AcDbVisualStyle
  2
2dWireframe
 70
     4
 71
     0
 72
     2
 73
     0
 90
        0
 40
-0.6
 41
-30.0
 62
     5
 63
     7
 74
     1
 91
        4
 64
     7
 65
   257
 75
     1
175
     1
 42
1.0
 92
        0
 66
   257
 43
1.0
 76
     1
 77
     6
 78
     2
 67
     7
 79
     5
170
     0
171
     0
290
     0
174
     0
 93
        1
 44
0.0
173
     0
291
     0
 45
0.0
1001
ACAD
1000
AcDbSavedByObjectVersion
1070
     0
  0
VISUALSTYLE
  5
BF00
102
{ACAD_XDICTIONARY
360
BF5D
102
}
102
{ACAD_REACTORS
330
BEFB
102
}
330
BEFB
100
AcDbVisualStyle
  2
Basic
 70
     7
 71
     1
 72
     0
 73
     1
 90
        0
 40
-0.6
 41
-30.0
 62
     5
 63
     7
 74
     0
 91
        4
 64
     7
 65
   257
 75
     1
175
     1
 42
1.0
 92
        8
 66
     7
 43
1.0
 76
     1
 77
     6
 78
     2
 67
     7
 79
     5
170
     0
171
     0
290
     0
174
     0
 93
        1
 44
0.0
173
     0
291
     1
 45
0.0
1001
ACAD
1000
AcDbSavedByObjectVersion
1070
     0
  0
VISUALSTYLE
  5
BF07
102
{ACAD_XDICTIONARY
360
BF6B
102
}
102
{ACAD_REACTORS
330
BEFB
102
}
330
BEFB
100
AcDbVisualStyle
  2
Brighten
 70
    12
 71
     2
 72
     2
 73
     0
 90
        0
 40
-0.6
 41
-30.0
 62
     5
 63
     7
 74
     1
 91
        4
 64
     7
 65
   257
 75
     1
175
     1
 42
1.0
 92
        8
 66
     7
 43
1.0
 76
     1
 77
     6
 78
     2
 67
     7
 79
     5
170
     0
171
     0
290
     0
174
     0
 93
        1
 44
50.0
173
     0
291
     1
 45
0.0
1001
ACAD
1000
AcDbSavedByObjectVersion
1070
     0
  0
VISUALSTYLE
  5
BF0B
102
{ACAD_XDICTIONARY
360
BF73
102
}
102
{ACAD_REACTORS
330
BEFB
102
}
330
BEFB
100
AcDbVisualStyle
  2
ColorChange
 70
    16
 71
     2
 72
     2
 73
     3
 90
        0
 40
-0.6
 41
-30.0
 62
     5
 63
     8
 74
     1
 91
        4
 64
     7
 65
   257
 75
     1
175
     1
 42
1.0
 92
        8
 66
     8
 43
1.0
 76
     1
 77
     6
 78
     2
 67
     7
 79
     5
170
     0
171
     0
290
     0
174
     0
 93
        1
 44
0.0
173
     0
291
     1
 45
0.0
1001
ACAD
1000
AcDbSavedByObjectVersion
1070
     0
  0
VISUALSTYLE
  5
BF04
102
{ACAD_XDICTIONARY
360
BF65
102
}
102
{ACAD_REACTORS
330
BEFB
102
}
330
BEFB
100
AcDbVisualStyle
  2
Conceptual
 70
     9
 71
     3
 72
     2
 73
     0
 90
        0
 40
-0.6
 41
-30.0
 62
     5
 63
     7
 74
     2
 91
        2
 64
     7
 65
   257
 75
     1
175
     1
 42
179.0
 92
        8
 66
     7
 43
1.0
 76
     1
 77
     6
 78
     2
 67
     7
 79
     3
170
     0
171
     0
290
     0
174
     0
 93
        1
 44
0.0
173
     0
291
     0
 45
0.0
1001
ACAD
1000
AcDbSavedByObjectVersion
1070
     0
  0
VISUALSTYLE
  5
BF06
102
{ACAD_XDICTIONARY
360
BF69
102
}
102
{ACAD_REACTORS
330
BEFB
102
}
330
BEFB
100
AcDbVisualStyle
  2
Dim
 70
    11
 71
     2
 72
     2
 73
     0
 90
        0
 40
-0.6
 41
-30.0
 62
     5
 63
     7
 74
     1
 91
        4
 64
     7
 65
   257
 75
     1
175
     1
 42
1.0
 92
        8
 66
     7
 43
1.0
 76
     1
 77
     6
 78
     2
 67
     7
 79
     5
170
     0
171
     0
290
     0
174
     0
 93
        1
 44
-50.0
173
     0
291
     1
 45
0.0
1001
ACAD
1000
AcDbSavedByObjectVersion
1070
     0
  0
VISUALSTYLE
  5
BF13
102
{ACAD_XDICTIONARY
360
BF83
102
}
102
{ACAD_REACTORS
330
BEFB
102
}
330
BEFB
100
AcDbVisualStyle
  2
EdgeColorOff
 70
    22
 71
     2
 72
     2
 73
     0
 90
        0
 40
-0.6
 41
-30.0
 62
     5
 63
     7
 74
     1
 91
        4
 64
     7
 65
   257
 75
     1
175
     1
 42
1.0
 92
        8
 66
     7
 43
1.0
 76
     1
 77
     6
 78
     2
 67
     7
 79
     5
170
     0
171
     0
290
     0
174
     0
 93
        1
 44
0.0
173
     0
291
     1
 45
0.0
1001
ACAD
1000
AcDbSavedByObjectVersion
1070
     0
  0
VISUALSTYLE
  5
BF0A
102
{ACAD_XDICTIONARY
360
BF71
102
}
102
{ACAD_REACTORS
330
BEFB
102
}
330
BEFB
100
AcDbVisualStyle
  2
Facepattern
 70
    15
 71
     2
 72
     2
 73
     0
 90
        0
 40
-0.6
 41
-30.0
 62
     5
 63
     7
 74
     1
 91
        4
 64
     7
 65
   257
 75
     1
175
     1
 42
1.0
 92
        8
 66
     7
 43
1.0
 76
     1
 77
     6
 78
     2
 67
     7
 79
     5
170
     0
171
     0
290
     0
174
     0
 93
        1
 44
0.0
173
     0
291
     1
 45
0.0
1001
ACAD
1000
AcDbSavedByObjectVersion
1070
     0
  0
VISUALSTYLE
  5
BEFC
102
{ACAD_XDICTIONARY
360
BF55
102
}
102
{ACAD_REACTORS
330
BEFB
102
}
330
BEFB
100
AcDbVisualStyle
  2
Flat
 70
     0
 71
     2
 72
     1
 73
     1
 90
        2
 40
-0.6
 41
30.0
 62
     5
 63
     7
 74
     0
 91
        0
 64
     7
 65
   257
 75
     1
175
     1
 42
1.0
 92
        8
 66
     7
 43
1.0
 76
     1
 77
     6
 78
     2
 67
     7
 79
     5
170
     0
171
     0
290
     0
174
     0
 93
       13
 44
0.0
173
     0
291
     1
 45
0.0
1001
ACAD
1000
AcDbSavedByObjectVersion
1070
     0
  0
VISUALSTYLE
  5
BEFD
102
{ACAD_XDICTIONARY
360
BF57
102
}
102
{ACAD_REACTORS
330
BEFB
102
}
330
BEFB
100
AcDbVisualStyle
  2
FlatWithEdges
 70
     1
 71
     2
 72
     1
 73
     1
 90
        2
 40
-0.6
 41
30.0
 62
     5
 63
     7
 74
     1
 91
        0
 64
     7
 65
   257
 75
     1
175
     1
 42
1.0
 92
        0
 66
   257
 43
1.0
 76
     1
 77
     6
 78
     2
 67
     7
 79
     5
170
     0
171
     0
290
     0
174
     0
 93
       13
 44
0.0
173
     0
291
     1
 45
0.0
1001
ACAD
1000
AcDbSavedByObjectVersion
1070
     0
  0
VISUALSTYLE
  5
BEFE
102
{ACAD_XDICTIONARY
360
BF59
102
}
102
{ACAD_REACTORS
330
BEFB
102
}
330
BEFB
100
AcDbVisualStyle
  2
Gouraud
 70
     2
 71
     2
 72
     2
 73
     1
 90
        2
 40
-0.6
 41
30.0
 62
     5
 63
     7
 74
     0
 91
        0
 64
     7
 65
   257
 75
     1
175
     1
 42
1.0
 92
        0
 66
     7
 43
1.0
 76
     1
 77
     6
 78
     2
 67
     7
 79
     5
170
     0
171
     0
290
     0
174
     0
 93
       13
 44
0.0
173
     0
291
     1
 45
0.0
1001
ACAD
1000
AcDbSavedByObjectVersion
1070
     0
  0
VISUALSTYLE
  5
BEFF
102
{ACAD_XDICTIONARY
360
BF5B
102
}
102
{ACAD_REACTORS
330
BEFB
102
}
330
BEFB
100
AcDbVisualStyle
  2
GouraudWithEdges
 70
     3
 71
     2
 72
     2
 73
     1
 90
        2
 40
-0.6
 41
30.0
 62
     5
 63
     7
 74
     1
 91
        0
 64
     7
 65
   257
 75
     1
175
     1
 42
1.0
 92
        0
 66
   257
 43
1.0
 76
     1
 77
     6
 78
     2
 67
     7
 79
     5
170
     0
171
     0
290
     0
174
     0
 93
       13
 44
0.0
173
     0
291
     1
 45
0.0
1001
ACAD
1000
AcDbSavedByObjectVersion
1070
     0
  0
VISUALSTYLE
  5
BF03
102
{ACAD_XDICTIONARY
360
BF63
102
}
102
{ACAD_REACTORS
330
BEFB
102
}
330
BEFB
100
AcDbVisualStyle
  2
Hidden
 70
     6
 71
     1
 72
     2
 73
     2
 90
        0
 40
-0.6
 41
-30.0
 62
     5
 63
     7
 74
     2
 91
        2
 64
     7
 65
   257
 75
     2
175
     1
 42
40.0
 92
        0
 66
   257
 43
1.0
 76
     1
 77
     6
 78
     2
 67
     7
 79
     3
170
     0
171
     0
290
     0
174
     0
 93
        1
 44
0.0
173
     0
291
     0
 45
0.0
1001
ACAD
1000
AcDbSavedByObjectVersion
1070
     0
  0
VISUALSTYLE
  5
BF11
102
{ACAD_XDICTIONARY
360
BF7F
102
}
102
{ACAD_REACTORS
330
BEFB
102
}
330
BEFB
100
AcDbVisualStyle
  2
JitterOff
 70
    20
 71
     2
 72
     2
 73
     0
 90
        0
 40
-0.6
 41
-30.0
 62
     5
 63
     7
 74
     1
 91
        4
 64
     7
 65
   257
 75
     1
175
     1
 42
1.0
 92
       10
 66
     7
 43
1.0
 76
     1
 77
     6
 78
     2
 67
     7
 79
     5
170
     0
171
     0
290
     0
174
     0
 93
        1
 44
0.0
173
     0
291
     1
 45
0.0
1001
ACAD
1000
AcDbSavedByObjectVersion
1070
     0
  0
VISUALSTYLE
  5
BF09
102
{ACAD_XDICTIONARY
360
BF6F
102
}
102
{ACAD_REACTORS
330
BEFB
102
}
330
BEFB
100
AcDbVisualStyle
  2
Linepattern
 70
    14
 71
     2
 72
     2
 73
     0
 90
        0
 40
-0.6
 41
-30.0
 62
     5
 63
     7
 74
     1
 91
        4
 64
     7
 65
   257
 75
     7
175
     7
 42
1.0
 92
        8
 66
     7
 43
1.0
 76
     1
 77
     6
 78
     2
 67
     7
 79
     5
170
     0
171
     0
290
     0
174
     0
 93
        1
 44
0.0
173
     0
291
     1
 45
0.0
1001
ACAD
1000
AcDbSavedByObjectVersion
1070
     0
  0
VISUALSTYLE
  5
BF12
102
{ACAD_XDICTIONARY
360
BF81
102
}
102
{ACAD_REACTORS
330
BEFB
102
}
330
BEFB
100
AcDbVisualStyle
  2
OverhangOff
 70
    21
 71
     2
 72
     2
 73
     0
 90
        0
 40
-0.6
 41
-30.0
 62
     5
 63
     7
 74
     1
 91
        4
 64
     7
 65
   257
 75
     1
175
     1
 42
1.0
 92
        9
 66
     7
 43
1.0
 76
     1
 77
     6
 78
     2
 67
     7
 79
     5
170
     0
171
     0
290
     0
174
     0
 93
        1
 44
0.0
173
     0
291
     1
 45
0.0
1001
ACAD
1000
AcDbSavedByObjectVersion
1070
     0
  0
VISUALSTYLE
  5
BF05
102
{ACAD_XDICTIONARY
360
BF67
102
}
102
{ACAD_REACTORS
330
BEFB
102
}
330
BEFB
100
AcDbVisualStyle
  2
Realistic
 70
     8
 71
     2
 72
     3
 73
     0
 90
        2
 40
-0.6
 41
30.0
 62
     5
 63
     7
 74
     0
 91
        0
 64
     7
 65
   257
 75
     1
175
     1
 42
1.0
 92
        8
 66
   257
 43
1.0
 76
     1
 77
     6
 78
     2
 67
     7
 79
     3
170
     0
171
     0
290
     0
174
     0
 93
       13
 44
0.0
173
     0
291
     0
 45
0.0
1001
ACAD
1000
AcDbSavedByObjectVersion
1070
     0
  0
VISUALSTYLE
  5
BF10
102
{ACAD_XDICTIONARY
360
BF7D
102
}
102
{ACAD_REACTORS
330
BEFB
102
}
330
BEFB
100
AcDbVisualStyle
  2
Shaded
 70
    27
 71
     2
 72
     2
 73
     1
 90
        2
 40
-0.6
 41
30.0
 62
     5
 63
     7
 74
     0
 91
        4
 64
     7
 65
   257
 75
     1
175
     1
 42
1.0
 92
        8
 66
   257
 43
1.0
 76
     1
 77
     6
 78
     2
 67
     8
 79
     3
170
     0
171
     0
290
     0
174
     0
 93
        5
 44
0.0
173
     0
291
     0
 45
0.0
1001
ACAD
1000
AcDbSavedByObjectVersion
1070
     0
  0
VISUALSTYLE
  5
BF0F
102
{ACAD_XDICTIONARY
360
BF7B
102
}
102
{ACAD_REACTORS
330
BEFB
102
}
330
BEFB
100
AcDbVisualStyle
  2
Shaded with edges
 70
    26
 71
     2
 72
     2
 73
     1
 90
        2
 40
-0.6
 41
30.0
 62
     5
 63
     7
 74
     1
 91
       10
 64
     7
 65
   257
 75
     2
175
     1
 42
1.0
 92
        8
 66
   257
 43
1.0
 76
     1
 77
     6
 78
     2
 67
     7
 79
     3
170
     0
171
     0
290
     0
174
     0
 93
        5
 44
0.0
173
     0
291
     0
 45
0.0
1001
ACAD
1000
AcDbSavedByObjectVersion
1070
     0
  0
VISUALSTYLE
  5
BF0C
102
{ACAD_XDICTIONARY
360
BF75
102
}
102
{ACAD_REACTORS
330
BEFB
102
}
330
BEFB
100
AcDbVisualStyle
  2
Shades of Gray
 70
    23
 71
     2
 72
     2
 73
     3
 90
        0
 40
-0.6
 41
-30.0
 62
     5
 63
     7
 74
     2
 91
        2
 64
     7
 65
     7
 75
     1
175
     1
 42
40.0
 92
        8
 66
     7
 43
1.0
 76
     1
 77
     6
 78
     2
 67
     7
 79
     3
170
     0
171
     0
290
     0
174
     0
 93
        1
 44
0.0
173
     0
291
     0
 45
0.0
1001
ACAD
1000
AcDbSavedByObjectVersion
1070
     0
  0
VISUALSTYLE
  5
BF0D
102
{ACAD_XDICTIONARY
360
BF77
102
}
102
{ACAD_REACTORS
330
BEFB
102
}
330
BEFB
100
AcDbVisualStyle
  2
Sketchy
 70
    24
 71
     1
 72
     2
 73
     2
 90
        0
 40
-0.6
 41
-30.0
 62
     5
 63
     7
 74
     2
 91
        2
 64
     7
 65
     7
 75
     1
175
     1
 42
40.0
 92
       11
 66
     7
 43
1.0
 76
     1
 77
     6
 78
     2
 67
     7
 79
     6
170
     0
171
     0
290
     0
174
     0
 93
        1
 44
0.0
173
     0
291
     0
 45
0.0
1001
ACAD
1000
AcDbSavedByObjectVersion
1070
     0
  0
VISUALSTYLE
  5
BF08
102
{ACAD_XDICTIONARY
360
BF6D
102
}
102
{ACAD_REACTORS
330
BEFB
102
}
330
BEFB
100
AcDbVisualStyle
  2
Thicken
 70
    13
 71
     2
 72
     2
 73
     0
 90
        0
 40
-0.6
 41
-30.0
 62
     5
 63
     7
 74
     1
 91
        4
 64
     7
 65
   257
 75
     1
175
     1
 42
1.0
 92
       12
 66
     7
 43
1.0
 76
     1
 77
     6
 78
     2
 67
     7
 79
     5
170
     0
171
     0
290
     0
174
     0
 93
        1
 44
0.0
173
     0
291
     1
 45
0.0
1001
ACAD
1000
AcDbSavedByObjectVersion
1070
     0
  0
VISUALSTYLE
  5
BF02
102
{ACAD_XDICTIONARY
360
BF61
102
}
102
{ACAD_REACTORS
330
BEFB
102
}
330
BEFB
100
AcDbVisualStyle
  2
Wireframe
 70
     5
 71
     0
 72
     2
 73
     0
 90
        0
 40
-0.6
 41
-30.0
 62
     5
 63
     7
 74
     1
 91
        4
 64
     7
 65
   257
 75
     1
175
     1
 42
1.0
 92
        0
 66
   257
 43
1.0
 76
     1
 77
     6
 78
     2
 67
     7
 79
     3
170
     0
171
     0
290
     0
174
     0
 93
        1
 44
0.0
173
     0
291
     0
 45
0.0
1001
ACAD
1000
AcDbSavedByObjectVersion
1070
     0
  0
VISUALSTYLE
  5
BF0E
102
{ACAD_XDICTIONARY
360
BF79
102
}
102
{ACAD_REACTORS
330
BEFB
102
}
330
BEFB
100
AcDbVisualStyle
  2
X-Ray
 70
    25
 71
     2
 72
     2
 73
     1
 90
        1
 40
0.5
 41
-30.0
 62
     5
 63
     7
 74
     1
 91
        0
 64
     7
 65
   257
 75
     1
175
     1
 42
1.0
 92
        8
 66
     7
 43
1.0
 76
     1
 77
     6
 78
     2
 67
     7
 79
     3
170
     0
171
     0
290
     0
174
     0
 93
       13
 44
0.0
173
     0
291
     0
 45
0.0
1001
ACAD
1000
AcDbSavedByObjectVersion
1070
     0
  0
DICTIONARYVAR
  5
BF48
102
{ACAD_REACTORS
330
BF43
102
}
330
BF43
100
DictionaryVariables
280
     0
  1
1:1
  0
DICTIONARYVAR
  5
BF45
102
{ACAD_REACTORS
330
BF43
102
}
330
BF43
100
DictionaryVariables
280
     0
  1
STANDARD
  0
DICTIONARYVAR
  5
BF44
102
{ACAD_REACTORS
330
BF43
102
}
330
BF43
100
DictionaryVariables
280
     0
  1
STANDARD
  0
DICTIONARYVAR
  5
BF46
102
{ACAD_REACTORS
330
BF43
102
}
330
BF43
100
DictionaryVariables
280
     0
  1
Imperial24
  0
DICTIONARYVAR
  5
BF47
102
{ACAD_REACTORS
330
BF43
102
}
330
BF43
100
DictionaryVariables
280
     0
  1
Imperial24
  0
DICTIONARYVAR
  5
BF4B
102
{ACAD_REACTORS
330
BF43
102
}
330
BF43
100
DictionaryVariables
280
     0
  1
1
  0
DICTIONARYVAR
  5
BF4A
102
{ACAD_REACTORS
330
BF43
102
}
330
BF43
100
DictionaryVariables
280
     0
  1
0
  0
DICTIONARYVAR
  5
BF49
102
{ACAD_REACTORS
330
BF43
102
}
330
BF43
100
DictionaryVariables
280
     0
  1
127
  0
DICTIONARYVAR
  5
BF4C
102
{ACAD_REACTORS
330
BF43
102
}
330
BF43
100
DictionaryVariables
280
     0
  1
2
  0
DICTIONARY
  5
BF89
330
BF2E
100
AcDbDictionary
280
     1
281
     1
  3
ACAD_XREC_ROUNDTRIP
360
BF8A
  0
DICTIONARY
  5
BF8B
330
BF2F
100
AcDbDictionary
280
     1
281
     1
  3
ACAD_XREC_ROUNDTRIP
360
BF8C
  0
DICTIONARY
  5
BF8D
330
BF30
100
AcDbDictionary
280
     1
281
     1
  3
ACAD_XREC_ROUNDTRIP
360
BF8E
  0
DICTIONARY
  5
BEEC
330
BEEB
100
AcDbDictionary
280
     1
281
     1
  3
ACAD_XREC_ROUNDTRIP
360
BF53
  3
BUMPTILE
360
BEEE
  3
DIFFUSETILE
360
BEED
  3
OPACITYTILE
360
BEF1
  3
REFLECTIONTILE
360
BEF0
  3
REFRACTIONTILE
360
BEF2
  3
SPECULARTILE
360
BEEF
  0
DICTIONARY
  5
BEE4
330
BEE3
100
AcDbDictionary
280
     1
281
     1
  3
ACAD_XREC_ROUNDTRIP
360
BF52
  3
BUMPTILE
360
BEE6
  3
DIFFUSETILE
360
BEE5
  3
OPACITYTILE
360
BEE9
  3
REFLECTIONTILE
360
BEE8
  3
REFRACTIONTILE
360
BEEA
  3
SPECULARTILE
360
BEE7
  0
DICTIONARY
  5
BEF4
330
BEF3
100
AcDbDictionary
280
     1
281
     1
  3
ACAD_XREC_ROUNDTRIP
360
BF54
  3
BUMPTILE
360
BEF6
  3
DIFFUSETILE
360
BEF5
  3
OPACITYTILE
360
BEF9
  3
REFLECTIONTILE
360
BEF8
  3
REFRACTIONTILE
360
BEFA
  3
SPECULARTILE
360
BEF7
  0
DICTIONARY
  5
BF87
330
BF2C
100
AcDbDictionary
280
     1
281
     1
  3
ACAD_XREC_ROUNDTRIP
360
BF88
  0
DICTIONARY
  5
BF4E
330
BF16
100
AcDbDictionary
280
     1
281
     1
  3
ACAD_ROUNDTRIP_2008_TABLESTYLE_CELLSTYLEMAP
360
BF4F
  3
ACAD_XREC_ROUNDTRIP
360
BF85
  0
DICTIONARY
  5
BF5F
330
BF01
100
AcDbDictionary
280
     1
281
     1
  3
ACAD_XREC_ROUNDTRIP
360
BF60
  0
DICTIONARY
  5
BF5D
330
BF00
100
AcDbDictionary
280
     1
281
     1
  3
ACAD_XREC_ROUNDTRIP
360
BF5E
  0
DICTIONARY
  5
BF6B
330
BF07
100
AcDbDictionary
280
     1
281
     1
  3
ACAD_XREC_ROUNDTRIP
360
BF6C
  0
DICTIONARY
  5
BF73
330
BF0B
100
AcDbDictionary
280
     1
281
     1
  3
ACAD_XREC_ROUNDTRIP
360
BF74
  0
DICTIONARY
  5
BF65
330
BF04
100
AcDbDictionary
280
     1
281
     1
  3
ACAD_XREC_ROUNDTRIP
360
BF66
  0
DICTIONARY
  5
BF69
330
BF06
100
AcDbDictionary
280
     1
281
     1
  3
ACAD_XREC_ROUNDTRIP
360
BF6A
  0
DICTIONARY
  5
BF83
330
BF13
100
AcDbDictionary
280
     1
281
     1
  3
ACAD_XREC_ROUNDTRIP
360
BF84
  0
DICTIONARY
  5
BF71
330
BF0A
100
AcDbDictionary
280
     1
281
     1
  3
ACAD_XREC_ROUNDTRIP
360
BF72
  0
DICTIONARY
  5
BF55
330
BEFC
100
AcDbDictionary
280
     1
281
     1
  3
ACAD_XREC_ROUNDTRIP
360
BF56
  0
DICTIONARY
  5
BF57
330
BEFD
100
AcDbDictionary
280
     1
281
     1
  3
ACAD_XREC_ROUNDTRIP
360
BF58
  0
DICTIONARY
  5
BF59
330
BEFE
100
AcDbDictionary
280
     1
281
     1
  3
ACAD_XREC_ROUNDTRIP
360
BF5A
  0
DICTIONARY
  5
BF5B
330
BEFF
100
AcDbDictionary
280
     1
281
     1
  3
ACAD_XREC_ROUNDTRIP
360
BF5C
  0
DICTIONARY
  5
BF63
330
BF03
100
AcDbDictionary
280
     1
281
     1
  3
ACAD_XREC_ROUNDTRIP
360
BF64
  0
DICTIONARY
  5
BF7F
330
BF11
100
AcDbDictionary
280
     1
281
     1
  3
ACAD_XREC_ROUNDTRIP
360
BF80
  0
DICTIONARY
  5
BF6F
330
BF09
100
AcDbDictionary
280
     1
281
     1
  3
ACAD_XREC_ROUNDTRIP
360
BF70
  0
DICTIONARY
  5
BF81
330
BF12
100
AcDbDictionary
280
     1
281
     1
  3
ACAD_XREC_ROUNDTRIP
360
BF82
  0
DICTIONARY
  5
BF67
330
BF05
100
AcDbDictionary
280
     1
281
     1
  3
ACAD_XREC_ROUNDTRIP
360
BF68
  0
DICTIONARY
  5
BF7D
330
BF10
100
AcDbDictionary
280
     1
281
     1
  3
ACAD_XREC_ROUNDTRIP
360
BF7E
  0
DICTIONARY
  5
BF7B
330
BF0F
100
AcDbDictionary
280
     1
281
     1
  3
ACAD_XREC_ROUNDTRIP
360
BF7C
  0
DICTIONARY
  5
BF75
330
BF0C
100
AcDbDictionary
280
     1
281
     1
  3
ACAD_XREC_ROUNDTRIP
360
BF76
  0
DICTIONARY
  5
BF77
330
BF0D
100
AcDbDictionary
280
     1
281
     1
  3
ACAD_XREC_ROUNDTRIP
360
BF78
  0
DICTIONARY
  5
BF6D
330
BF08
100
AcDbDictionary
280
     1
281
     1
  3
ACAD_XREC_ROUNDTRIP
360
BF6E
  0
DICTIONARY
  5
BF61
330
BF02
100
AcDbDictionary
280
     1
281
     1
  3
ACAD_XREC_ROUNDTRIP
360
BF62
  0
DICTIONARY
  5
BF79
330
BF0E
100
AcDbDictionary
280
     1
281
     1
  3
ACAD_XREC_ROUNDTRIP
360
BF7A
  0
XRECORD
  5
BF8A
102
{ACAD_REACTORS
330
BF89
102
}
330
BF89
100
AcDbXrecord
280
     1
102
DISPLAYNAME
  1
Imperial24
102
FLAGS
 90
        0
  0
XRECORD
  5
BF8C
102
{ACAD_REACTORS
330
BF8B
102
}
330
BF8B
100
AcDbXrecord
280
     1
102
SHADEPLOT
 70
     0
102
SHADEPLOTRESLEVEL
 70
     2
102
SHADEPLOTCUSTOMDPI
 70
   300
  0
XRECORD
  5
BF8E
102
{ACAD_REACTORS
330
BF8D
102
}
330
BF8D
100
AcDbXrecord
280
     1
102
SHADEPLOT
 70
     0
102
SHADEPLOTRESLEVEL
 70
     2
102
SHADEPLOTCUSTOMDPI
 70
   300
  0
XRECORD
  5
BF53
102
{ACAD_REACTORS
330
BEEC
102
}
330
BEEC
100
AcDbXrecord
280
     1
102
MATERIAL
148
0.0
149
0.0
149
0.0
 93
        0
 94
      127
282
     0
 72
     0
 77
     0
171
     0
175
     0
179
     0
273
     0
  0
XRECORD
  5
BEEE
102
{ACAD_REACTORS
330
BEEC
102
}
330
BEEC
100
AcDbXrecord
280
     1
270
     1
271
     1
  0
XRECORD
  5
BEED
102
{ACAD_REACTORS
330
BEEC
102
}
330
BEEC
100
AcDbXrecord
280
     1
270
     1
271
     1
  0
XRECORD
  5
BEF1
102
{ACAD_REACTORS
330
BEEC
102
}
330
BEEC
100
AcDbXrecord
280
     1
270
     1
271
     1
  0
XRECORD
  5
BEF0
102
{ACAD_REACTORS
330
BEEC
102
}
330
BEEC
100
AcDbXrecord
280
     1
270
     1
271
     1
  0
XRECORD
  5
BEF2
102
{ACAD_REACTORS
330
BEEC
102
}
330
BEEC
100
AcDbXrecord
280
     1
270
     1
271
     1
  0
XRECORD
  5
BEEF
102
{ACAD_REACTORS
330
BEEC
102
}
330
BEEC
100
AcDbXrecord
280
     1
270
     1
271
     1
  0
XRECORD
  5
BF52
102
{ACAD_REACTORS
330
BEE4
102
}
330
BEE4
100
AcDbXrecord
280
     1
102
MATERIAL
148
0.0
149
0.0
149
0.0
 93
        0
 94
      127
282
     0
 72
     0
 77
     0
171
     0
175
     0
179
     0
273
     0
  0
XRECORD
  5
BEE6
102
{ACAD_REACTORS
330
BEE4
102
}
330
BEE4
100
AcDbXrecord
280
     1
270
     1
271
     1
  0
XRECORD
  5
BEE5
102
{ACAD_REACTORS
330
BEE4
102
}
330
BEE4
100
AcDbXrecord
280
     1
270
     1
271
     1
  0
XRECORD
  5
BEE9
102
{ACAD_REACTORS
330
BEE4
102
}
330
BEE4
100
AcDbXrecord
280
     1
270
     1
271
     1
  0
XRECORD
  5
BEE8
102
{ACAD_REACTORS
330
BEE4
102
}
330
BEE4
100
AcDbXrecord
280
     1
270
     1
271
     1
  0
XRECORD
  5
BEEA
102
{ACAD_REACTORS
330
BEE4
102
}
330
BEE4
100
AcDbXrecord
280
     1
270
     1
271
     1
  0
XRECORD
  5
BEE7
102
{ACAD_REACTORS
330
BEE4
102
}
330
BEE4
100
AcDbXrecord
280
     1
270
     1
271
     1
  0
XRECORD
  5
BF54
102
{ACAD_REACTORS
330
BEF4
102
}
330
BEF4
100
AcDbXrecord
280
     1
102
MATERIAL
148
0.0
149
0.0
149
0.0
 93
        0
 94
      127
282
     0
 72
     0
 77
     0
171
     0
175
     0
179
     0
273
     0
  0
XRECORD
  5
BEF6
102
{ACAD_REACTORS
330
BEF4
102
}
330
BEF4
100
AcDbXrecord
280
     1
270
     1
271
     1
  0
XRECORD
  5
BEF5
102
{ACAD_REACTORS
330
BEF4
102
}
330
BEF4
100
AcDbXrecord
280
     1
270
     1
271
     1
  0
XRECORD
  5
BEF9
102
{ACAD_REACTORS
330
BEF4
102
}
330
BEF4
100
AcDbXrecord
280
     1
270
     1
271
     1
  0
XRECORD
  5
BEF8
102
{ACAD_REACTORS
330
BEF4
102
}
330
BEF4
100
AcDbXrecord
280
     1
270
     1
271
     1
  0
XRECORD
  5
BEFA
102
{ACAD_REACTORS
330
BEF4
102
}
330
BEF4
100
AcDbXrecord
280
     1
270
     1
271
     1
  0
XRECORD
  5
BEF7
102
{ACAD_REACTORS
330
BEF4
102
}
330
BEF4
100
AcDbXrecord
280
     1
270
     1
271
     1
  0
XRECORD
  5
BF88
102
{ACAD_REACTORS
330
BF87
102
}
330
BF87
100
AcDbXrecord
280
     1
102
DISPLAYNAME
  1
Imperial24
102
FLAGS
 90
        0
  0
CELLSTYLEMAP
  5
BF4F
102
{ACAD_REACTORS
330
BF4E
102
}
330
BF4E
100
AcDbCellStyleMap
 90
        3
300
CELLSTYLE
  1
TABLEFORMAT_BEGIN
 90
        5
170
     1
 91
        0
 92
    32768
 62
   257
 93
        1
300
CONTENTFORMAT
  1
CONTENTFORMAT_BEGIN
 90
        0
 91
        0
 92
      512
 93
        0
300

 40
0.0
140
1.0
 94
        5
 62
     0
340
BCD2
144
0.25
309
CONTENTFORMAT_END
171
     0
 94
        0
309
TABLEFORMAT_END
  1
CELLSTYLE_BEGIN
 90
        1
 91
        1
300
_TITLE
309
CELLSTYLE_END
300
CELLSTYLE
  1
TABLEFORMAT_BEGIN
 90
        5
170
     1
 91
        0
 92
        0
 62
   257
 93
        1
300
CONTENTFORMAT
  1
CONTENTFORMAT_BEGIN
 90
        0
 91
        0
 92
      512
 93
        0
300

 40
0.0
140
1.0
 94
        5
 62
     0
340
BCD2
144
0.18
309
CONTENTFORMAT_END
171
     0
 94
        0
309
TABLEFORMAT_END
  1
CELLSTYLE_BEGIN
 90
        2
 91
        1
300
_HEADER
309
CELLSTYLE_END
300
CELLSTYLE
  1
TABLEFORMAT_BEGIN
 90
        5
170
     1
 91
        0
 92
        0
 62
   257
 93
        1
300
CONTENTFORMAT
  1
CONTENTFORMAT_BEGIN
 90
        0
 91
        0
 92
      512
 93
        0
300

 40
0.0
140
1.0
 94
        2
 62
     0
340
BCD2
144
0.18
309
CONTENTFORMAT_END
171
     0
 94
        0
309
TABLEFORMAT_END
  1
CELLSTYLE_BEGIN
 90
        3
 91
        2
300
_DATA
309
CELLSTYLE_END
  0
XRECORD
  5
BF85
102
{ACAD_REACTORS
330
BF4E
102
}
330
BF4E
100
AcDbXrecord
280
     1
102
ACAD_ROUNDTRIP_PRE2007_TABLESTYLE
 90
      512
 91
        0
  1

 92
      512
 93
        0
  2

 94
      512
 95
        0
  3

  0
XRECORD
  5
BF60
102
{ACAD_REACTORS
330
BF5F
102
}
330
BF5F
100
AcDbXrecord
280
     1
102
RTVSPost2010Prop28
280
     1
102
RTVSPost2010PropOp28
 70
     1
102
RTVSPost2010Prop29
280
     1
102
RTVSPost2010PropOp29
 70
     1
102
RTVSPost2010Prop30
280
     0
102
RTVSPost2010PropOp30
 70
     1
102
RTVSPost2010Prop31
280
     0
102
RTVSPost2010PropOp31
 70
     1
102
RTVSPost2010Prop32
280
     0
102
RTVSPost2010PropOp32
 70
     1
102
RTVSPost2010Prop33
280
     0
102
RTVSPost2010PropOp33
 70
     1
102
RTVSPost2010Prop34
280
     0
102
RTVSPost2010PropOp34
 70
     1
102
RTVSPost2010Prop35
280
     0
102
RTVSPost2010PropOp35
 70
     1
102
RTVSPost2010Prop36
280
     0
102
RTVSPost2010PropOp36
 70
     1
102
RTVSPost2010Prop37
 90
       50
102
RTVSPost2010PropOp37
 70
     1
102
RTVSPost2010Prop38
140
0.0
102
RTVSPost2010PropOp38
 70
     1
102
RTVSPost2010Prop39
140
1.0
102
RTVSPost2010PropOp39
 70
     1
102
RTVSPost2010Prop40
 90
        0
102
RTVSPost2010PropOp40
 70
     1
102
RTVSPost2010Prop41ColorIndex
 90
       18
102
RTVSPost2010Prop41ColorRGB
 90
        0
102
RTVSPost2010PropOp41
 70
     1
102
RTVSPost2010Prop42
 90
       50
102
RTVSPost2010PropOp42
 70
     1
102
RTVSPost2010Prop43
 90
        3
102
RTVSPost2010PropOp43
 70
     1
102
RTVSPost2010Prop44ColorIndex
 90
        5
102
RTVSPost2010Prop44ColorRGB
 90
      255
102
RTVSPost2010PropOp44
 70
     1
102
RTVSPost2010Prop45
280
     0
102
RTVSPost2010PropOp45
 70
     1
102
RTVSPost2010Prop46
 90
       50
102
RTVSPost2010PropOp46
 70
     1
102
RTVSPost2010Prop47
 90
       50
102
RTVSPost2010PropOp47
 70
     1
102
RTVSPost2010Prop48
 90
       50
102
RTVSPost2010PropOp48
 70
     1
102
RTVSPost2010Prop49
280
     0
102
RTVSPost2010PropOp49
 70
     1
102
RTVSPost2010Prop50
 90
       50
102
RTVSPost2010PropOp50
 70
     1
102
RTVSPost2010Prop51ColorIndex
 90
      256
102
RTVSPost2010Prop51ColorRGB
 90
-16777216
102
RTVSPost2010PropOp51
 70
     0
102
RTVSPost2010Prop52
140
1.0
102
RTVSPost2010PropOp52
 70
     0
102
RTVSPost2010Prop53
 90
        2
102
RTVSPost2010PropOp53
 70
     1
102
RTVSPost2010Prop54
  1
strokes_ogs.tif
102
RTVSPost2010PropOp54
 70
     1
102
RTVSPost2010Prop55
280
     0
102
RTVSPost2010PropOp55
 70
     1
102
RTVSPost2010Prop56
140
1.0
102
RTVSPost2010PropOp56
 70
     1
102
RTVSPost2010Prop57
140
1.0
102
RTVSPost2010PropOp57
 70
     1
102
RTVSPropertyOp0
 70
     1
102
RTVSPropertyOp1
 70
     1
102
RTVSPropertyOp2
 70
     1
102
RTVSPropertyOp3
 70
     1
102
RTVSPropertyOp4
 70
     1
102
RTVSPropertyOp5
 70
     1
102
RTVSPropertyOp6
 70
     1
102
RTVSPropertyOp7
 70
     1
102
RTVSPropertyOp8
 70
     1
102
RTVSPropertyOp9
 70
     1
102
RTVSPropertyOp10
 70
     1
102
RTVSPropertyOp11
 70
     1
102
RTVSPropertyOp12
 70
     1
102
RTVSPropertyOp13
 70
     1
102
RTVSPropertyOp14
 70
     1
102
RTVSPropertyOp15
 70
     1
102
RTVSPropertyOp16
 70
     1
102
RTVSPropertyOp17
 70
     1
102
RTVSPropertyOp18
 70
     1
102
RTVSPropertyOp19
 70
     1
102
RTVSPropertyOp20
 70
     1
102
RTVSPropertyOp21
 70
     1
102
RTVSPropertyOp22
 70
     1
102
RTVSPropertyOp23
 70
     1
102
RTVSPropertyOp24
 70
     1
102
RTVSPropertyOp25
 70
     1
102
RTVSPropertyOp26
 70
     1
102
RTVSPropertyOp27
 70
     1
102
RTVSPropertyOp28
 70
     1
102
RTVSPropertyOp29
 70
     1
102
RTVSPropertyOp30
 70
     1
102
RTVSPropertyOp31
 70
     1
102
RTVSPropertyOp32
 70
     1
102
RTVSPropertyOp33
 70
     1
102
RTVSPropertyOp34
 70
     1
102
RTVSPropertyOp35
 70
     1
102
RTVSPropertyOp36
 70
     1
102
RTVSPropertyOp37
 70
     1
102
RTVSPropertyOp38
 70
     1
102
RTVSPropertyOp39
 70
     1
102
RTVSPropertyOp40
 70
     1
102
RTVSPropertyOp41
 70
     1
102
RTVSPropertyOp42
 70
     1
102
RTVSPropertyOp43
 70
     1
102
RTVSPropertyOp44
 70
     1
102
RTVSPropertyOp45
 70
     1
102
RTVSPropertyOp46
 70
     1
102
RTVSPropertyOp47
 70
     1
102
RTVSPropertyOp48
 70
     1
102
RTVSPropertyOp49
 70
     1
102
RTVSPropertyOp50
 70
     1
102
RTVSPropertyOp51
 70
     0
102
RTVSPropertyOp52
 70
     0
102
RTVSPropertyOp53
 70
     1
102
RTVSPropertyOp54
 70
     1
102
RTVSPropertyOp55
 70
     1
102
RTVSPropertyOp56
 70
     1
102
RTVSPropertyOp57
 70
     1
102
RTVSPropertyOp58
 70
     1
102
RTVSPropertyOp59
 70
     1
102
RTVSPropertyOp60
 70
     1
102
RTVSPropertyOp61
 70
     1
102
RTVSPropertyOp62
 70
     1
  0
XRECORD
  5
BF5E
102
{ACAD_REACTORS
330
BF5D
102
}
330
BF5D
100
AcDbXrecord
280
     1
102
RTVSPost2010Prop28
280
     0
102
RTVSPost2010PropOp28
 70
     1
102
RTVSPost2010Prop29
280
     1
102
RTVSPost2010PropOp29
 70
     1
102
RTVSPost2010Prop30
280
     1
102
RTVSPost2010PropOp30
 70
     1
102
RTVSPost2010Prop31
280
     0
102
RTVSPost2010PropOp31
 70
     1
102
RTVSPost2010Prop32
280
     0
102
RTVSPost2010PropOp32
 70
     1
102
RTVSPost2010Prop33
280
     0
102
RTVSPost2010PropOp33
 70
     1
102
RTVSPost2010Prop34
280
     0
102
RTVSPost2010PropOp34
 70
     1
102
RTVSPost2010Prop35
280
     0
102
RTVSPost2010PropOp35
 70
     1
102
RTVSPost2010Prop36
280
     0
102
RTVSPost2010PropOp36
 70
     1
102
RTVSPost2010Prop37
 90
       50
102
RTVSPost2010PropOp37
 70
     1
102
RTVSPost2010Prop38
140
0.0
102
RTVSPost2010PropOp38
 70
     1
102
RTVSPost2010Prop39
140
1.0
102
RTVSPost2010PropOp39
 70
     1
102
RTVSPost2010Prop40
 90
        0
102
RTVSPost2010PropOp40
 70
     1
102
RTVSPost2010Prop41ColorIndex
 90
       18
102
RTVSPost2010Prop41ColorRGB
 90
        0
102
RTVSPost2010PropOp41
 70
     1
102
RTVSPost2010Prop42
 90
       50
102
RTVSPost2010PropOp42
 70
     1
102
RTVSPost2010Prop43
 90
        3
102
RTVSPost2010PropOp43
 70
     1
102
RTVSPost2010Prop44ColorIndex
 90
        5
102
RTVSPost2010Prop44ColorRGB
 90
      255
102
RTVSPost2010PropOp44
 70
     1
102
RTVSPost2010Prop45
280
     0
102
RTVSPost2010PropOp45
 70
     1
102
RTVSPost2010Prop46
 90
       50
102
RTVSPost2010PropOp46
 70
     1
102
RTVSPost2010Prop47
 90
       50
102
RTVSPost2010PropOp47
 70
     1
102
RTVSPost2010Prop48
 90
       50
102
RTVSPost2010PropOp48
 70
     1
102
RTVSPost2010Prop49
280
     0
102
RTVSPost2010PropOp49
 70
     1
102
RTVSPost2010Prop50
 90
       50
102
RTVSPost2010PropOp50
 70
     1
102
RTVSPost2010Prop51ColorIndex
 90
      256
102
RTVSPost2010Prop51ColorRGB
 90
-16777216
102
RTVSPost2010PropOp51
 70
     0
102
RTVSPost2010Prop52
140
1.0
102
RTVSPost2010PropOp52
 70
     0
102
RTVSPost2010Prop53
 90
        2
102
RTVSPost2010PropOp53
 70
     1
102
RTVSPost2010Prop54
  1
strokes_ogs.tif
102
RTVSPost2010PropOp54
 70
     1
102
RTVSPost2010Prop55
280
     0
102
RTVSPost2010PropOp55
 70
     1
102
RTVSPost2010Prop56
140
1.0
102
RTVSPost2010PropOp56
 70
     1
102
RTVSPost2010Prop57
140
1.0
102
RTVSPost2010PropOp57
 70
     1
102
RTVSPropertyOp0
 70
     1
102
RTVSPropertyOp1
 70
     1
102
RTVSPropertyOp2
 70
     1
102
RTVSPropertyOp3
 70
     1
102
RTVSPropertyOp4
 70
     1
102
RTVSPropertyOp5
 70
     1
102
RTVSPropertyOp6
 70
     1
102
RTVSPropertyOp7
 70
     1
102
RTVSPropertyOp8
 70
     1
102
RTVSPropertyOp9
 70
     1
102
RTVSPropertyOp10
 70
     1
102
RTVSPropertyOp11
 70
     1
102
RTVSPropertyOp12
 70
     1
102
RTVSPropertyOp13
 70
     1
102
RTVSPropertyOp14
 70
     1
102
RTVSPropertyOp15
 70
     1
102
RTVSPropertyOp16
 70
     1
102
RTVSPropertyOp17
 70
     1
102
RTVSPropertyOp18
 70
     1
102
RTVSPropertyOp19
 70
     1
102
RTVSPropertyOp20
 70
     1
102
RTVSPropertyOp21
 70
     1
102
RTVSPropertyOp22
 70
     1
102
RTVSPropertyOp23
 70
     1
102
RTVSPropertyOp24
 70
     1
102
RTVSPropertyOp25
 70
     1
102
RTVSPropertyOp26
 70
     1
102
RTVSPropertyOp27
 70
     1
102
RTVSPropertyOp28
 70
     1
102
RTVSPropertyOp29
 70
     1
102
RTVSPropertyOp30
 70
     1
102
RTVSPropertyOp31
 70
     1
102
RTVSPropertyOp32
 70
     1
102
RTVSPropertyOp33
 70
     1
102
RTVSPropertyOp34
 70
     1
102
RTVSPropertyOp35
 70
     1
102
RTVSPropertyOp36
 70
     1
102
RTVSPropertyOp37
 70
     1
102
RTVSPropertyOp38
 70
     1
102
RTVSPropertyOp39
 70
     1
102
RTVSPropertyOp40
 70
     1
102
RTVSPropertyOp41
 70
     1
102
RTVSPropertyOp42
 70
     1
102
RTVSPropertyOp43
 70
     1
102
RTVSPropertyOp44
 70
     1
102
RTVSPropertyOp45
 70
     1
102
RTVSPropertyOp46
 70
     1
102
RTVSPropertyOp47
 70
     1
102
RTVSPropertyOp48
 70
     1
102
RTVSPropertyOp49
 70
     1
102
RTVSPropertyOp50
 70
     1
102
RTVSPropertyOp51
 70
     0
102
RTVSPropertyOp52
 70
     0
102
RTVSPropertyOp53
 70
     1
102
RTVSPropertyOp54
 70
     1
102
RTVSPropertyOp55
 70
     1
102
RTVSPropertyOp56
 70
     1
102
RTVSPropertyOp57
 70
     1
102
RTVSPropertyOp58
 70
     1
102
RTVSPropertyOp59
 70
     1
102
RTVSPropertyOp60
 70
     1
102
RTVSPropertyOp61
 70
     1
102
RTVSPropertyOp62
 70
     1
  0
XRECORD
  5
BF6C
102
{ACAD_REACTORS
330
BF6B
102
}
330
BF6B
100
AcDbXrecord
280
     1
102
RTVSPost2010Prop28
280
     0
102
RTVSPost2010PropOp28
 70
     1
102
RTVSPost2010Prop29
280
     1
102
RTVSPost2010PropOp29
 70
     1
102
RTVSPost2010Prop30
280
     1
102
RTVSPost2010PropOp30
 70
     1
102
RTVSPost2010Prop31
280
     0
102
RTVSPost2010PropOp31
 70
     1
102
RTVSPost2010Prop32
280
     0
102
RTVSPost2010PropOp32
 70
     1
102
RTVSPost2010Prop33
280
     0
102
RTVSPost2010PropOp33
 70
     1
102
RTVSPost2010Prop34
280
     0
102
RTVSPost2010PropOp34
 70
     1
102
RTVSPost2010Prop35
280
     0
102
RTVSPost2010PropOp35
 70
     1
102
RTVSPost2010Prop36
280
     0
102
RTVSPost2010PropOp36
 70
     1
102
RTVSPost2010Prop37
 90
       50
102
RTVSPost2010PropOp37
 70
     1
102
RTVSPost2010Prop38
140
0.0
102
RTVSPost2010PropOp38
 70
     1
102
RTVSPost2010Prop39
140
1.0
102
RTVSPost2010PropOp39
 70
     1
102
RTVSPost2010Prop40
 90
        0
102
RTVSPost2010PropOp40
 70
     1
102
RTVSPost2010Prop41ColorIndex
 90
       18
102
RTVSPost2010Prop41ColorRGB
 90
        0
102
RTVSPost2010PropOp41
 70
     1
102
RTVSPost2010Prop42
 90
       50
102
RTVSPost2010PropOp42
 70
     1
102
RTVSPost2010Prop43
 90
        3
102
RTVSPost2010PropOp43
 70
     1
102
RTVSPost2010Prop44ColorIndex
 90
        5
102
RTVSPost2010Prop44ColorRGB
 90
      255
102
RTVSPost2010PropOp44
 70
     1
102
RTVSPost2010Prop45
280
     0
102
RTVSPost2010PropOp45
 70
     1
102
RTVSPost2010Prop46
 90
       50
102
RTVSPost2010PropOp46
 70
     1
102
RTVSPost2010Prop47
 90
       50
102
RTVSPost2010PropOp47
 70
     1
102
RTVSPost2010Prop48
 90
       50
102
RTVSPost2010PropOp48
 70
     1
102
RTVSPost2010Prop49
280
     0
102
RTVSPost2010PropOp49
 70
     1
102
RTVSPost2010Prop50
 90
       50
102
RTVSPost2010PropOp50
 70
     1
102
RTVSPost2010Prop51ColorIndex
 90
      256
102
RTVSPost2010Prop51ColorRGB
 90
-16777216
102
RTVSPost2010PropOp51
 70
     0
102
RTVSPost2010Prop52
140
1.0
102
RTVSPost2010PropOp52
 70
     0
102
RTVSPost2010Prop53
 90
        2
102
RTVSPost2010PropOp53
 70
     1
102
RTVSPost2010Prop54
  1
strokes_ogs.tif
102
RTVSPost2010PropOp54
 70
     1
102
RTVSPost2010Prop55
280
     0
102
RTVSPost2010PropOp55
 70
     1
102
RTVSPost2010Prop56
140
1.0
102
RTVSPost2010PropOp56
 70
     1
102
RTVSPost2010Prop57
140
1.0
102
RTVSPost2010PropOp57
 70
     1
102
RTVSPropertyOp0
 70
     1
102
RTVSPropertyOp1
 70
     1
102
RTVSPropertyOp2
 70
     1
102
RTVSPropertyOp3
 70
     1
102
RTVSPropertyOp4
 70
     1
102
RTVSPropertyOp5
 70
     1
102
RTVSPropertyOp6
 70
     1
102
RTVSPropertyOp7
 70
     1
102
RTVSPropertyOp8
 70
     1
102
RTVSPropertyOp9
 70
     1
102
RTVSPropertyOp10
 70
     1
102
RTVSPropertyOp11
 70
     1
102
RTVSPropertyOp12
 70
     1
102
RTVSPropertyOp13
 70
     1
102
RTVSPropertyOp14
 70
     1
102
RTVSPropertyOp15
 70
     1
102
RTVSPropertyOp16
 70
     1
102
RTVSPropertyOp17
 70
     1
102
RTVSPropertyOp18
 70
     1
102
RTVSPropertyOp19
 70
     1
102
RTVSPropertyOp20
 70
     1
102
RTVSPropertyOp21
 70
     1
102
RTVSPropertyOp22
 70
     1
102
RTVSPropertyOp23
 70
     1
102
RTVSPropertyOp24
 70
     1
102
RTVSPropertyOp25
 70
     1
102
RTVSPropertyOp26
 70
     1
102
RTVSPropertyOp27
 70
     1
102
RTVSPropertyOp28
 70
     1
102
RTVSPropertyOp29
 70
     1
102
RTVSPropertyOp30
 70
     1
102
RTVSPropertyOp31
 70
     1
102
RTVSPropertyOp32
 70
     1
102
RTVSPropertyOp33
 70
     1
102
RTVSPropertyOp34
 70
     1
102
RTVSPropertyOp35
 70
     1
102
RTVSPropertyOp36
 70
     1
102
RTVSPropertyOp37
 70
     1
102
RTVSPropertyOp38
 70
     1
102
RTVSPropertyOp39
 70
     1
102
RTVSPropertyOp40
 70
     1
102
RTVSPropertyOp41
 70
     1
102
RTVSPropertyOp42
 70
     1
102
RTVSPropertyOp43
 70
     1
102
RTVSPropertyOp44
 70
     1
102
RTVSPropertyOp45
 70
     1
102
RTVSPropertyOp46
 70
     1
102
RTVSPropertyOp47
 70
     1
102
RTVSPropertyOp48
 70
     1
102
RTVSPropertyOp49
 70
     1
102
RTVSPropertyOp50
 70
     1
102
RTVSPropertyOp51
 70
     0
102
RTVSPropertyOp52
 70
     0
102
RTVSPropertyOp53
 70
     1
102
RTVSPropertyOp54
 70
     1
102
RTVSPropertyOp55
 70
     1
102
RTVSPropertyOp56
 70
     1
102
RTVSPropertyOp57
 70
     1
102
RTVSPropertyOp58
 70
     1
102
RTVSPropertyOp59
 70
     1
102
RTVSPropertyOp60
 70
     1
102
RTVSPropertyOp61
 70
     1
102
RTVSPropertyOp62
 70
     1
  0
XRECORD
  5
BF74
102
{ACAD_REACTORS
330
BF73
102
}
330
BF73
100
AcDbXrecord
280
     1
102
RTVSPost2010Prop28
280
     0
102
RTVSPost2010PropOp28
 70
     1
102
RTVSPost2010Prop29
280
     1
102
RTVSPost2010PropOp29
 70
     1
102
RTVSPost2010Prop30
280
     1
102
RTVSPost2010PropOp30
 70
     1
102
RTVSPost2010Prop31
280
     0
102
RTVSPost2010PropOp31
 70
     1
102
RTVSPost2010Prop32
280
     0
102
RTVSPost2010PropOp32
 70
     1
102
RTVSPost2010Prop33
280
     0
102
RTVSPost2010PropOp33
 70
     1
102
RTVSPost2010Prop34
280
     0
102
RTVSPost2010PropOp34
 70
     1
102
RTVSPost2010Prop35
280
     0
102
RTVSPost2010PropOp35
 70
     1
102
RTVSPost2010Prop36
280
     0
102
RTVSPost2010PropOp36
 70
     1
102
RTVSPost2010Prop37
 90
       50
102
RTVSPost2010PropOp37
 70
     1
102
RTVSPost2010Prop38
140
0.0
102
RTVSPost2010PropOp38
 70
     1
102
RTVSPost2010Prop39
140
1.0
102
RTVSPost2010PropOp39
 70
     1
102
RTVSPost2010Prop40
 90
        0
102
RTVSPost2010PropOp40
 70
     1
102
RTVSPost2010Prop41ColorIndex
 90
       18
102
RTVSPost2010Prop41ColorRGB
 90
        0
102
RTVSPost2010PropOp41
 70
     1
102
RTVSPost2010Prop42
 90
       50
102
RTVSPost2010PropOp42
 70
     1
102
RTVSPost2010Prop43
 90
        3
102
RTVSPost2010PropOp43
 70
     1
102
RTVSPost2010Prop44ColorIndex
 90
        5
102
RTVSPost2010Prop44ColorRGB
 90
      255
102
RTVSPost2010PropOp44
 70
     1
102
RTVSPost2010Prop45
280
     0
102
RTVSPost2010PropOp45
 70
     1
102
RTVSPost2010Prop46
 90
       50
102
RTVSPost2010PropOp46
 70
     1
102
RTVSPost2010Prop47
 90
       50
102
RTVSPost2010PropOp47
 70
     1
102
RTVSPost2010Prop48
 90
       50
102
RTVSPost2010PropOp48
 70
     1
102
RTVSPost2010Prop49
280
     0
102
RTVSPost2010PropOp49
 70
     1
102
RTVSPost2010Prop50
 90
       50
102
RTVSPost2010PropOp50
 70
     1
102
RTVSPost2010Prop51ColorIndex
 90
      256
102
RTVSPost2010Prop51ColorRGB
 90
-16777216
102
RTVSPost2010PropOp51
 70
     0
102
RTVSPost2010Prop52
140
1.0
102
RTVSPost2010PropOp52
 70
     0
102
RTVSPost2010Prop53
 90
        2
102
RTVSPost2010PropOp53
 70
     1
102
RTVSPost2010Prop54
  1
strokes_ogs.tif
102
RTVSPost2010PropOp54
 70
     1
102
RTVSPost2010Prop55
280
     0
102
RTVSPost2010PropOp55
 70
     1
102
RTVSPost2010Prop56
140
1.0
102
RTVSPost2010PropOp56
 70
     1
102
RTVSPost2010Prop57
140
1.0
102
RTVSPost2010PropOp57
 70
     1
102
RTVSPropertyOp0
 70
     1
102
RTVSPropertyOp1
 70
     1
102
RTVSPropertyOp2
 70
     1
102
RTVSPropertyOp3
 70
     1
102
RTVSPropertyOp4
 70
     1
102
RTVSPropertyOp5
 70
     1
102
RTVSPropertyOp6
 70
     1
102
RTVSPropertyOp7
 70
     1
102
RTVSPropertyOp8
 70
     1
102
RTVSPropertyOp9
 70
     1
102
RTVSPropertyOp10
 70
     1
102
RTVSPropertyOp11
 70
     1
102
RTVSPropertyOp12
 70
     1
102
RTVSPropertyOp13
 70
     1
102
RTVSPropertyOp14
 70
     1
102
RTVSPropertyOp15
 70
     1
102
RTVSPropertyOp16
 70
     1
102
RTVSPropertyOp17
 70
     1
102
RTVSPropertyOp18
 70
     1
102
RTVSPropertyOp19
 70
     1
102
RTVSPropertyOp20
 70
     1
102
RTVSPropertyOp21
 70
     1
102
RTVSPropertyOp22
 70
     1
102
RTVSPropertyOp23
 70
     1
102
RTVSPropertyOp24
 70
     1
102
RTVSPropertyOp25
 70
     1
102
RTVSPropertyOp26
 70
     1
102
RTVSPropertyOp27
 70
     1
102
RTVSPropertyOp28
 70
     1
102
RTVSPropertyOp29
 70
     1
102
RTVSPropertyOp30
 70
     1
102
RTVSPropertyOp31
 70
     1
102
RTVSPropertyOp32
 70
     1
102
RTVSPropertyOp33
 70
     1
102
RTVSPropertyOp34
 70
     1
102
RTVSPropertyOp35
 70
     1
102
RTVSPropertyOp36
 70
     1
102
RTVSPropertyOp37
 70
     1
102
RTVSPropertyOp38
 70
     1
102
RTVSPropertyOp39
 70
     1
102
RTVSPropertyOp40
 70
     1
102
RTVSPropertyOp41
 70
     1
102
RTVSPropertyOp42
 70
     1
102
RTVSPropertyOp43
 70
     1
102
RTVSPropertyOp44
 70
     1
102
RTVSPropertyOp45
 70
     1
102
RTVSPropertyOp46
 70
     1
102
RTVSPropertyOp47
 70
     1
102
RTVSPropertyOp48
 70
     1
102
RTVSPropertyOp49
 70
     1
102
RTVSPropertyOp50
 70
     1
102
RTVSPropertyOp51
 70
     0
102
RTVSPropertyOp52
 70
     0
102
RTVSPropertyOp53
 70
     1
102
RTVSPropertyOp54
 70
     1
102
RTVSPropertyOp55
 70
     1
102
RTVSPropertyOp56
 70
     1
102
RTVSPropertyOp57
 70
     1
102
RTVSPropertyOp58
 70
     1
102
RTVSPropertyOp59
 70
     1
102
RTVSPropertyOp60
 70
     1
102
RTVSPropertyOp61
 70
     1
102
RTVSPropertyOp62
 70
     1
  0
XRECORD
  5
BF66
102
{ACAD_REACTORS
330
BF65
102
}
330
BF65
100
AcDbXrecord
280
     1
102
RTVSPost2010Prop28
280
     0
102
RTVSPost2010PropOp28
 70
     1
102
RTVSPost2010Prop29
280
     1
102
RTVSPost2010PropOp29
 70
     1
102
RTVSPost2010Prop30
280
     1
102
RTVSPost2010PropOp30
 70
     1
102
RTVSPost2010Prop31
280
     0
102
RTVSPost2010PropOp31
 70
     1
102
RTVSPost2010Prop32
280
     0
102
RTVSPost2010PropOp32
 70
     1
102
RTVSPost2010Prop33
280
     0
102
RTVSPost2010PropOp33
 70
     1
102
RTVSPost2010Prop34
280
     0
102
RTVSPost2010PropOp34
 70
     1
102
RTVSPost2010Prop35
280
     0
102
RTVSPost2010PropOp35
 70
     1
102
RTVSPost2010Prop36
280
     0
102
RTVSPost2010PropOp36
 70
     1
102
RTVSPost2010Prop37
 90
       50
102
RTVSPost2010PropOp37
 70
     1
102
RTVSPost2010Prop38
140
0.0
102
RTVSPost2010PropOp38
 70
     1
102
RTVSPost2010Prop39
140
1.0
102
RTVSPost2010PropOp39
 70
     1
102
RTVSPost2010Prop40
 90
        0
102
RTVSPost2010PropOp40
 70
     1
102
RTVSPost2010Prop41ColorIndex
 90
       18
102
RTVSPost2010Prop41ColorRGB
 90
        0
102
RTVSPost2010PropOp41
 70
     1
102
RTVSPost2010Prop42
 90
       50
102
RTVSPost2010PropOp42
 70
     1
102
RTVSPost2010Prop43
 90
        3
102
RTVSPost2010PropOp43
 70
     1
102
RTVSPost2010Prop44ColorIndex
 90
        5
102
RTVSPost2010Prop44ColorRGB
 90
      255
102
RTVSPost2010PropOp44
 70
     1
102
RTVSPost2010Prop45
280
     0
102
RTVSPost2010PropOp45
 70
     1
102
RTVSPost2010Prop46
 90
       50
102
RTVSPost2010PropOp46
 70
     1
102
RTVSPost2010Prop47
 90
       50
102
RTVSPost2010PropOp47
 70
     1
102
RTVSPost2010Prop48
 90
       50
102
RTVSPost2010PropOp48
 70
     1
102
RTVSPost2010Prop49
280
     0
102
RTVSPost2010PropOp49
 70
     1
102
RTVSPost2010Prop50
 90
       50
102
RTVSPost2010PropOp50
 70
     1
102
RTVSPost2010Prop51ColorIndex
 90
      256
102
RTVSPost2010Prop51ColorRGB
 90
-16777216
102
RTVSPost2010PropOp51
 70
     0
102
RTVSPost2010Prop52
140
1.0
102
RTVSPost2010PropOp52
 70
     0
102
RTVSPost2010Prop53
 90
        2
102
RTVSPost2010PropOp53
 70
     1
102
RTVSPost2010Prop54
  1
strokes_ogs.tif
102
RTVSPost2010PropOp54
 70
     1
102
RTVSPost2010Prop55
280
     0
102
RTVSPost2010PropOp55
 70
     1
102
RTVSPost2010Prop56
140
1.0
102
RTVSPost2010PropOp56
 70
     1
102
RTVSPost2010Prop57
140
1.0
102
RTVSPost2010PropOp57
 70
     1
102
RTVSPropertyOp0
 70
     1
102
RTVSPropertyOp1
 70
     1
102
RTVSPropertyOp2
 70
     1
102
RTVSPropertyOp3
 70
     1
102
RTVSPropertyOp4
 70
     1
102
RTVSPropertyOp5
 70
     1
102
RTVSPropertyOp6
 70
     1
102
RTVSPropertyOp7
 70
     1
102
RTVSPropertyOp8
 70
     1
102
RTVSPropertyOp9
 70
     1
102
RTVSPropertyOp10
 70
     1
102
RTVSPropertyOp11
 70
     1
102
RTVSPropertyOp12
 70
     1
102
RTVSPropertyOp13
 70
     1
102
RTVSPropertyOp14
 70
     1
102
RTVSPropertyOp15
 70
     1
102
RTVSPropertyOp16
 70
     1
102
RTVSPropertyOp17
 70
     1
102
RTVSPropertyOp18
 70
     1
102
RTVSPropertyOp19
 70
     1
102
RTVSPropertyOp20
 70
     1
102
RTVSPropertyOp21
 70
     1
102
RTVSPropertyOp22
 70
     1
102
RTVSPropertyOp23
 70
     1
102
RTVSPropertyOp24
 70
     1
102
RTVSPropertyOp25
 70
     1
102
RTVSPropertyOp26
 70
     1
102
RTVSPropertyOp27
 70
     1
102
RTVSPropertyOp28
 70
     1
102
RTVSPropertyOp29
 70
     1
102
RTVSPropertyOp30
 70
     1
102
RTVSPropertyOp31
 70
     1
102
RTVSPropertyOp32
 70
     1
102
RTVSPropertyOp33
 70
     1
102
RTVSPropertyOp34
 70
     1
102
RTVSPropertyOp35
 70
     1
102
RTVSPropertyOp36
 70
     1
102
RTVSPropertyOp37
 70
     1
102
RTVSPropertyOp38
 70
     1
102
RTVSPropertyOp39
 70
     1
102
RTVSPropertyOp40
 70
     1
102
RTVSPropertyOp41
 70
     1
102
RTVSPropertyOp42
 70
     1
102
RTVSPropertyOp43
 70
     1
102
RTVSPropertyOp44
 70
     1
102
RTVSPropertyOp45
 70
     1
102
RTVSPropertyOp46
 70
     1
102
RTVSPropertyOp47
 70
     1
102
RTVSPropertyOp48
 70
     1
102
RTVSPropertyOp49
 70
     1
102
RTVSPropertyOp50
 70
     1
102
RTVSPropertyOp51
 70
     0
102
RTVSPropertyOp52
 70
     0
102
RTVSPropertyOp53
 70
     1
102
RTVSPropertyOp54
 70
     1
102
RTVSPropertyOp55
 70
     1
102
RTVSPropertyOp56
 70
     1
102
RTVSPropertyOp57
 70
     1
102
RTVSPropertyOp58
 70
     1
102
RTVSPropertyOp59
 70
     1
102
RTVSPropertyOp60
 70
     1
102
RTVSPropertyOp61
 70
     1
102
RTVSPropertyOp62
 70
     1
  0
XRECORD
  5
BF6A
102
{ACAD_REACTORS
330
BF69
102
}
330
BF69
100
AcDbXrecord
280
     1
102
RTVSPost2010Prop28
280
     0
102
RTVSPost2010PropOp28
 70
     1
102
RTVSPost2010Prop29
280
     1
102
RTVSPost2010PropOp29
 70
     1
102
RTVSPost2010Prop30
280
     1
102
RTVSPost2010PropOp30
 70
     1
102
RTVSPost2010Prop31
280
     0
102
RTVSPost2010PropOp31
 70
     1
102
RTVSPost2010Prop32
280
     0
102
RTVSPost2010PropOp32
 70
     1
102
RTVSPost2010Prop33
280
     0
102
RTVSPost2010PropOp33
 70
     1
102
RTVSPost2010Prop34
280
     0
102
RTVSPost2010PropOp34
 70
     1
102
RTVSPost2010Prop35
280
     0
102
RTVSPost2010PropOp35
 70
     1
102
RTVSPost2010Prop36
280
     0
102
RTVSPost2010PropOp36
 70
     1
102
RTVSPost2010Prop37
 90
       50
102
RTVSPost2010PropOp37
 70
     1
102
RTVSPost2010Prop38
140
0.0
102
RTVSPost2010PropOp38
 70
     1
102
RTVSPost2010Prop39
140
1.0
102
RTVSPost2010PropOp39
 70
     1
102
RTVSPost2010Prop40
 90
        0
102
RTVSPost2010PropOp40
 70
     1
102
RTVSPost2010Prop41ColorIndex
 90
       18
102
RTVSPost2010Prop41ColorRGB
 90
        0
102
RTVSPost2010PropOp41
 70
     1
102
RTVSPost2010Prop42
 90
       50
102
RTVSPost2010PropOp42
 70
     1
102
RTVSPost2010Prop43
 90
        3
102
RTVSPost2010PropOp43
 70
     1
102
RTVSPost2010Prop44ColorIndex
 90
        5
102
RTVSPost2010Prop44ColorRGB
 90
      255
102
RTVSPost2010PropOp44
 70
     1
102
RTVSPost2010Prop45
280
     0
102
RTVSPost2010PropOp45
 70
     1
102
RTVSPost2010Prop46
 90
       50
102
RTVSPost2010PropOp46
 70
     1
102
RTVSPost2010Prop47
 90
       50
102
RTVSPost2010PropOp47
 70
     1
102
RTVSPost2010Prop48
 90
       50
102
RTVSPost2010PropOp48
 70
     1
102
RTVSPost2010Prop49
280
     0
102
RTVSPost2010PropOp49
 70
     1
102
RTVSPost2010Prop50
 90
       50
102
RTVSPost2010PropOp50
 70
     1
102
RTVSPost2010Prop51ColorIndex
 90
      256
102
RTVSPost2010Prop51ColorRGB
 90
-16777216
102
RTVSPost2010PropOp51
 70
     0
102
RTVSPost2010Prop52
140
1.0
102
RTVSPost2010PropOp52
 70
     0
102
RTVSPost2010Prop53
 90
        2
102
RTVSPost2010PropOp53
 70
     1
102
RTVSPost2010Prop54
  1
strokes_ogs.tif
102
RTVSPost2010PropOp54
 70
     1
102
RTVSPost2010Prop55
280
     0
102
RTVSPost2010PropOp55
 70
     1
102
RTVSPost2010Prop56
140
1.0
102
RTVSPost2010PropOp56
 70
     1
102
RTVSPost2010Prop57
140
1.0
102
RTVSPost2010PropOp57
 70
     1
102
RTVSPropertyOp0
 70
     1
102
RTVSPropertyOp1
 70
     1
102
RTVSPropertyOp2
 70
     1
102
RTVSPropertyOp3
 70
     1
102
RTVSPropertyOp4
 70
     1
102
RTVSPropertyOp5
 70
     1
102
RTVSPropertyOp6
 70
     1
102
RTVSPropertyOp7
 70
     1
102
RTVSPropertyOp8
 70
     1
102
RTVSPropertyOp9
 70
     1
102
RTVSPropertyOp10
 70
     1
102
RTVSPropertyOp11
 70
     1
102
RTVSPropertyOp12
 70
     1
102
RTVSPropertyOp13
 70
     1
102
RTVSPropertyOp14
 70
     1
102
RTVSPropertyOp15
 70
     1
102
RTVSPropertyOp16
 70
     1
102
RTVSPropertyOp17
 70
     1
102
RTVSPropertyOp18
 70
     1
102
RTVSPropertyOp19
 70
     1
102
RTVSPropertyOp20
 70
     1
102
RTVSPropertyOp21
 70
     1
102
RTVSPropertyOp22
 70
     1
102
RTVSPropertyOp23
 70
     1
102
RTVSPropertyOp24
 70
     1
102
RTVSPropertyOp25
 70
     1
102
RTVSPropertyOp26
 70
     1
102
RTVSPropertyOp27
 70
     1
102
RTVSPropertyOp28
 70
     1
102
RTVSPropertyOp29
 70
     1
102
RTVSPropertyOp30
 70
     1
102
RTVSPropertyOp31
 70
     1
102
RTVSPropertyOp32
 70
     1
102
RTVSPropertyOp33
 70
     1
102
RTVSPropertyOp34
 70
     1
102
RTVSPropertyOp35
 70
     1
102
RTVSPropertyOp36
 70
     1
102
RTVSPropertyOp37
 70
     1
102
RTVSPropertyOp38
 70
     1
102
RTVSPropertyOp39
 70
     1
102
RTVSPropertyOp40
 70
     1
102
RTVSPropertyOp41
 70
     1
102
RTVSPropertyOp42
 70
     1
102
RTVSPropertyOp43
 70
     1
102
RTVSPropertyOp44
 70
     1
102
RTVSPropertyOp45
 70
     1
102
RTVSPropertyOp46
 70
     1
102
RTVSPropertyOp47
 70
     1
102
RTVSPropertyOp48
 70
     1
102
RTVSPropertyOp49
 70
     1
102
RTVSPropertyOp50
 70
     1
102
RTVSPropertyOp51
 70
     0
102
RTVSPropertyOp52
 70
     0
102
RTVSPropertyOp53
 70
     1
102
RTVSPropertyOp54
 70
     1
102
RTVSPropertyOp55
 70
     1
102
RTVSPropertyOp56
 70
     1
102
RTVSPropertyOp57
 70
     1
102
RTVSPropertyOp58
 70
     1
102
RTVSPropertyOp59
 70
     1
102
RTVSPropertyOp60
 70
     1
102
RTVSPropertyOp61
 70
     1
102
RTVSPropertyOp62
 70
     1
  0
XRECORD
  5
BF84
102
{ACAD_REACTORS
330
BF83
102
}
330
BF83
100
AcDbXrecord
280
     1
102
RTVSPost2010Prop28
280
     0
102
RTVSPost2010PropOp28
 70
     1
102
RTVSPost2010Prop29
280
     1
102
RTVSPost2010PropOp29
 70
     1
102
RTVSPost2010Prop30
280
     1
102
RTVSPost2010PropOp30
 70
     1
102
RTVSPost2010Prop31
280
     0
102
RTVSPost2010PropOp31
 70
     1
102
RTVSPost2010Prop32
280
     0
102
RTVSPost2010PropOp32
 70
     1
102
RTVSPost2010Prop33
280
     0
102
RTVSPost2010PropOp33
 70
     1
102
RTVSPost2010Prop34
280
     0
102
RTVSPost2010PropOp34
 70
     1
102
RTVSPost2010Prop35
280
     0
102
RTVSPost2010PropOp35
 70
     1
102
RTVSPost2010Prop36
280
     0
102
RTVSPost2010PropOp36
 70
     1
102
RTVSPost2010Prop37
 90
       50
102
RTVSPost2010PropOp37
 70
     0
102
RTVSPost2010Prop38
140
0.0
102
RTVSPost2010PropOp38
 70
     0
102
RTVSPost2010Prop39
140
1.0
102
RTVSPost2010PropOp39
 70
     0
102
RTVSPost2010Prop40
 90
        0
102
RTVSPost2010PropOp40
 70
     0
102
RTVSPost2010Prop41ColorIndex
 90
       18
102
RTVSPost2010Prop41ColorRGB
 90
        0
102
RTVSPost2010PropOp41
 70
     0
102
RTVSPost2010Prop42
 90
       50
102
RTVSPost2010PropOp42
 70
     0
102
RTVSPost2010Prop43
 90
        3
102
RTVSPost2010PropOp43
 70
     0
102
RTVSPost2010Prop44ColorIndex
 90
        5
102
RTVSPost2010Prop44ColorRGB
 90
      255
102
RTVSPost2010PropOp44
 70
     0
102
RTVSPost2010Prop45
280
     0
102
RTVSPost2010PropOp45
 70
     1
102
RTVSPost2010Prop46
 90
       50
102
RTVSPost2010PropOp46
 70
     0
102
RTVSPost2010Prop47
 90
       50
102
RTVSPost2010PropOp47
 70
     0
102
RTVSPost2010Prop48
 90
       50
102
RTVSPost2010PropOp48
 70
     0
102
RTVSPost2010Prop49
280
     0
102
RTVSPost2010PropOp49
 70
     1
102
RTVSPost2010Prop50
 90
       50
102
RTVSPost2010PropOp50
 70
     0
102
RTVSPost2010Prop51ColorIndex
 90
      256
102
RTVSPost2010Prop51ColorRGB
 90
-16777216
102
RTVSPost2010PropOp51
 70
     0
102
RTVSPost2010Prop52
140
1.0
102
RTVSPost2010PropOp52
 70
     0
102
RTVSPost2010Prop53
 90
        2
102
RTVSPost2010PropOp53
 70
     0
102
RTVSPost2010Prop54
  1
strokes_ogs.tif
102
RTVSPost2010PropOp54
 70
     0
102
RTVSPost2010Prop55
280
     0
102
RTVSPost2010PropOp55
 70
     1
102
RTVSPost2010Prop56
140
1.0
102
RTVSPost2010PropOp56
 70
     0
102
RTVSPost2010Prop57
140
1.0
102
RTVSPost2010PropOp57
 70
     0
102
RTVSPropertyOp0
 70
     0
102
RTVSPropertyOp1
 70
     0
102
RTVSPropertyOp2
 70
     0
102
RTVSPropertyOp3
 70
     0
102
RTVSPropertyOp4
 70
     0
102
RTVSPropertyOp5
 70
     0
102
RTVSPropertyOp6
 70
     0
102
RTVSPropertyOp7
 70
     0
102
RTVSPropertyOp8
 70
     0
102
RTVSPropertyOp9
 70
     0
102
RTVSPropertyOp10
 70
     0
102
RTVSPropertyOp11
 70
     0
102
RTVSPropertyOp12
 70
     0
102
RTVSPropertyOp13
 70
     0
102
RTVSPropertyOp14
 70
     2
102
RTVSPropertyOp15
 70
     0
102
RTVSPropertyOp16
 70
     0
102
RTVSPropertyOp17
 70
     0
102
RTVSPropertyOp18
 70
     0
102
RTVSPropertyOp19
 70
     0
102
RTVSPropertyOp20
 70
     0
102
RTVSPropertyOp21
 70
     0
102
RTVSPropertyOp22
 70
     0
102
RTVSPropertyOp23
 70
     0
102
RTVSPropertyOp24
 70
     0
102
RTVSPropertyOp25
 70
     0
102
RTVSPropertyOp26
 70
     0
102
RTVSPropertyOp27
 70
     0
102
RTVSPropertyOp28
 70
     1
102
RTVSPropertyOp29
 70
     1
102
RTVSPropertyOp30
 70
     1
102
RTVSPropertyOp31
 70
     1
102
RTVSPropertyOp32
 70
     1
102
RTVSPropertyOp33
 70
     1
102
RTVSPropertyOp34
 70
     1
102
RTVSPropertyOp35
 70
     1
102
RTVSPropertyOp36
 70
     1
102
RTVSPropertyOp37
 70
     0
102
RTVSPropertyOp38
 70
     0
102
RTVSPropertyOp39
 70
     0
102
RTVSPropertyOp40
 70
     0
102
RTVSPropertyOp41
 70
     0
102
RTVSPropertyOp42
 70
     0
102
RTVSPropertyOp43
 70
     0
102
RTVSPropertyOp44
 70
     0
102
RTVSPropertyOp45
 70
     1
102
RTVSPropertyOp46
 70
     0
102
RTVSPropertyOp47
 70
     0
102
RTVSPropertyOp48
 70
     0
102
RTVSPropertyOp49
 70
     1
102
RTVSPropertyOp50
 70
     0
102
RTVSPropertyOp51
 70
     0
102
RTVSPropertyOp52
 70
     0
102
RTVSPropertyOp53
 70
     0
102
RTVSPropertyOp54
 70
     0
102
RTVSPropertyOp55
 70
     1
102
RTVSPropertyOp56
 70
     0
102
RTVSPropertyOp57
 70
     0
102
RTVSPropertyOp58
 70
     0
102
RTVSPropertyOp59
 70
     0
102
RTVSPropertyOp60
 70
     0
102
RTVSPropertyOp61
 70
     0
102
RTVSPropertyOp62
 70
     0
  0
XRECORD
  5
BF72
102
{ACAD_REACTORS
330
BF71
102
}
330
BF71
100
AcDbXrecord
280
     1
102
RTVSPost2010Prop28
280
     0
102
RTVSPost2010PropOp28
 70
     1
102
RTVSPost2010Prop29
280
     1
102
RTVSPost2010PropOp29
 70
     1
102
RTVSPost2010Prop30
280
     1
102
RTVSPost2010PropOp30
 70
     1
102
RTVSPost2010Prop31
280
     0
102
RTVSPost2010PropOp31
 70
     1
102
RTVSPost2010Prop32
280
     0
102
RTVSPost2010PropOp32
 70
     1
102
RTVSPost2010Prop33
280
     0
102
RTVSPost2010PropOp33
 70
     1
102
RTVSPost2010Prop34
280
     0
102
RTVSPost2010PropOp34
 70
     1
102
RTVSPost2010Prop35
280
     0
102
RTVSPost2010PropOp35
 70
     1
102
RTVSPost2010Prop36
280
     0
102
RTVSPost2010PropOp36
 70
     1
102
RTVSPost2010Prop37
 90
       50
102
RTVSPost2010PropOp37
 70
     1
102
RTVSPost2010Prop38
140
0.0
102
RTVSPost2010PropOp38
 70
     1
102
RTVSPost2010Prop39
140
1.0
102
RTVSPost2010PropOp39
 70
     1
102
RTVSPost2010Prop40
 90
        0
102
RTVSPost2010PropOp40
 70
     1
102
RTVSPost2010Prop41ColorIndex
 90
       18
102
RTVSPost2010Prop41ColorRGB
 90
        0
102
RTVSPost2010PropOp41
 70
     1
102
RTVSPost2010Prop42
 90
       50
102
RTVSPost2010PropOp42
 70
     1
102
RTVSPost2010Prop43
 90
        3
102
RTVSPost2010PropOp43
 70
     1
102
RTVSPost2010Prop44ColorIndex
 90
        5
102
RTVSPost2010Prop44ColorRGB
 90
      255
102
RTVSPost2010PropOp44
 70
     1
102
RTVSPost2010Prop45
280
     0
102
RTVSPost2010PropOp45
 70
     1
102
RTVSPost2010Prop46
 90
       50
102
RTVSPost2010PropOp46
 70
     1
102
RTVSPost2010Prop47
 90
       50
102
RTVSPost2010PropOp47
 70
     1
102
RTVSPost2010Prop48
 90
       50
102
RTVSPost2010PropOp48
 70
     1
102
RTVSPost2010Prop49
280
     0
102
RTVSPost2010PropOp49
 70
     1
102
RTVSPost2010Prop50
 90
       50
102
RTVSPost2010PropOp50
 70
     1
102
RTVSPost2010Prop51ColorIndex
 90
      256
102
RTVSPost2010Prop51ColorRGB
 90
-16777216
102
RTVSPost2010PropOp51
 70
     0
102
RTVSPost2010Prop52
140
1.0
102
RTVSPost2010PropOp52
 70
     0
102
RTVSPost2010Prop53
 90
        2
102
RTVSPost2010PropOp53
 70
     1
102
RTVSPost2010Prop54
  1
strokes_ogs.tif
102
RTVSPost2010PropOp54
 70
     1
102
RTVSPost2010Prop55
280
     0
102
RTVSPost2010PropOp55
 70
     1
102
RTVSPost2010Prop56
140
1.0
102
RTVSPost2010PropOp56
 70
     1
102
RTVSPost2010Prop57
140
1.0
102
RTVSPost2010PropOp57
 70
     1
102
RTVSPropertyOp0
 70
     1
102
RTVSPropertyOp1
 70
     1
102
RTVSPropertyOp2
 70
     1
102
RTVSPropertyOp3
 70
     1
102
RTVSPropertyOp4
 70
     1
102
RTVSPropertyOp5
 70
     1
102
RTVSPropertyOp6
 70
     1
102
RTVSPropertyOp7
 70
     1
102
RTVSPropertyOp8
 70
     1
102
RTVSPropertyOp9
 70
     1
102
RTVSPropertyOp10
 70
     1
102
RTVSPropertyOp11
 70
     1
102
RTVSPropertyOp12
 70
     1
102
RTVSPropertyOp13
 70
     1
102
RTVSPropertyOp14
 70
     1
102
RTVSPropertyOp15
 70
     1
102
RTVSPropertyOp16
 70
     1
102
RTVSPropertyOp17
 70
     1
102
RTVSPropertyOp18
 70
     1
102
RTVSPropertyOp19
 70
     1
102
RTVSPropertyOp20
 70
     1
102
RTVSPropertyOp21
 70
     1
102
RTVSPropertyOp22
 70
     1
102
RTVSPropertyOp23
 70
     1
102
RTVSPropertyOp24
 70
     1
102
RTVSPropertyOp25
 70
     1
102
RTVSPropertyOp26
 70
     1
102
RTVSPropertyOp27
 70
     1
102
RTVSPropertyOp28
 70
     1
102
RTVSPropertyOp29
 70
     1
102
RTVSPropertyOp30
 70
     1
102
RTVSPropertyOp31
 70
     1
102
RTVSPropertyOp32
 70
     1
102
RTVSPropertyOp33
 70
     1
102
RTVSPropertyOp34
 70
     1
102
RTVSPropertyOp35
 70
     1
102
RTVSPropertyOp36
 70
     1
102
RTVSPropertyOp37
 70
     1
102
RTVSPropertyOp38
 70
     1
102
RTVSPropertyOp39
 70
     1
102
RTVSPropertyOp40
 70
     1
102
RTVSPropertyOp41
 70
     1
102
RTVSPropertyOp42
 70
     1
102
RTVSPropertyOp43
 70
     1
102
RTVSPropertyOp44
 70
     1
102
RTVSPropertyOp45
 70
     1
102
RTVSPropertyOp46
 70
     1
102
RTVSPropertyOp47
 70
     1
102
RTVSPropertyOp48
 70
     1
102
RTVSPropertyOp49
 70
     1
102
RTVSPropertyOp50
 70
     1
102
RTVSPropertyOp51
 70
     0
102
RTVSPropertyOp52
 70
     0
102
RTVSPropertyOp53
 70
     1
102
RTVSPropertyOp54
 70
     1
102
RTVSPropertyOp55
 70
     1
102
RTVSPropertyOp56
 70
     1
102
RTVSPropertyOp57
 70
     1
102
RTVSPropertyOp58
 70
     1
102
RTVSPropertyOp59
 70
     1
102
RTVSPropertyOp60
 70
     1
102
RTVSPropertyOp61
 70
     1
102
RTVSPropertyOp62
 70
     1
  0
XRECORD
  5
BF56
102
{ACAD_REACTORS
330
BF55
102
}
330
BF55
100
AcDbXrecord
280
     1
102
RTVSPost2010Prop28
280
     0
102
RTVSPost2010PropOp28
 70
     1
102
RTVSPost2010Prop29
280
     1
102
RTVSPost2010PropOp29
 70
     1
102
RTVSPost2010Prop30
280
     1
102
RTVSPost2010PropOp30
 70
     1
102
RTVSPost2010Prop31
280
     0
102
RTVSPost2010PropOp31
 70
     1
102
RTVSPost2010Prop32
280
     0
102
RTVSPost2010PropOp32
 70
     1
102
RTVSPost2010Prop33
280
     0
102
RTVSPost2010PropOp33
 70
     1
102
RTVSPost2010Prop34
280
     0
102
RTVSPost2010PropOp34
 70
     1
102
RTVSPost2010Prop35
280
     0
102
RTVSPost2010PropOp35
 70
     1
102
RTVSPost2010Prop36
280
     0
102
RTVSPost2010PropOp36
 70
     1
102
RTVSPost2010Prop37
 90
       50
102
RTVSPost2010PropOp37
 70
     1
102
RTVSPost2010Prop38
140
0.0
102
RTVSPost2010PropOp38
 70
     1
102
RTVSPost2010Prop39
140
1.0
102
RTVSPost2010PropOp39
 70
     1
102
RTVSPost2010Prop40
 90
        0
102
RTVSPost2010PropOp40
 70
     1
102
RTVSPost2010Prop41ColorIndex
 90
       18
102
RTVSPost2010Prop41ColorRGB
 90
        0
102
RTVSPost2010PropOp41
 70
     1
102
RTVSPost2010Prop42
 90
       50
102
RTVSPost2010PropOp42
 70
     1
102
RTVSPost2010Prop43
 90
        3
102
RTVSPost2010PropOp43
 70
     1
102
RTVSPost2010Prop44ColorIndex
 90
        5
102
RTVSPost2010Prop44ColorRGB
 90
      255
102
RTVSPost2010PropOp44
 70
     1
102
RTVSPost2010Prop45
280
     0
102
RTVSPost2010PropOp45
 70
     1
102
RTVSPost2010Prop46
 90
       50
102
RTVSPost2010PropOp46
 70
     1
102
RTVSPost2010Prop47
 90
       50
102
RTVSPost2010PropOp47
 70
     1
102
RTVSPost2010Prop48
 90
       50
102
RTVSPost2010PropOp48
 70
     1
102
RTVSPost2010Prop49
280
     0
102
RTVSPost2010PropOp49
 70
     1
102
RTVSPost2010Prop50
 90
       50
102
RTVSPost2010PropOp50
 70
     1
102
RTVSPost2010Prop51ColorIndex
 90
      256
102
RTVSPost2010Prop51ColorRGB
 90
-16777216
102
RTVSPost2010PropOp51
 70
     0
102
RTVSPost2010Prop52
140
1.0
102
RTVSPost2010PropOp52
 70
     0
102
RTVSPost2010Prop53
 90
        2
102
RTVSPost2010PropOp53
 70
     1
102
RTVSPost2010Prop54
  1
strokes_ogs.tif
102
RTVSPost2010PropOp54
 70
     1
102
RTVSPost2010Prop55
280
     0
102
RTVSPost2010PropOp55
 70
     1
102
RTVSPost2010Prop56
140
1.0
102
RTVSPost2010PropOp56
 70
     1
102
RTVSPost2010Prop57
140
1.0
102
RTVSPost2010PropOp57
 70
     1
102
RTVSPropertyOp0
 70
     1
102
RTVSPropertyOp1
 70
     1
102
RTVSPropertyOp2
 70
     1
102
RTVSPropertyOp3
 70
     1
102
RTVSPropertyOp4
 70
     1
102
RTVSPropertyOp5
 70
     1
102
RTVSPropertyOp6
 70
     1
102
RTVSPropertyOp7
 70
     1
102
RTVSPropertyOp8
 70
     1
102
RTVSPropertyOp9
 70
     1
102
RTVSPropertyOp10
 70
     1
102
RTVSPropertyOp11
 70
     1
102
RTVSPropertyOp12
 70
     1
102
RTVSPropertyOp13
 70
     1
102
RTVSPropertyOp14
 70
     1
102
RTVSPropertyOp15
 70
     1
102
RTVSPropertyOp16
 70
     1
102
RTVSPropertyOp17
 70
     1
102
RTVSPropertyOp18
 70
     1
102
RTVSPropertyOp19
 70
     1
102
RTVSPropertyOp20
 70
     1
102
RTVSPropertyOp21
 70
     1
102
RTVSPropertyOp22
 70
     1
102
RTVSPropertyOp23
 70
     1
102
RTVSPropertyOp24
 70
     1
102
RTVSPropertyOp25
 70
     1
102
RTVSPropertyOp26
 70
     1
102
RTVSPropertyOp27
 70
     1
102
RTVSPropertyOp28
 70
     1
102
RTVSPropertyOp29
 70
     1
102
RTVSPropertyOp30
 70
     1
102
RTVSPropertyOp31
 70
     1
102
RTVSPropertyOp32
 70
     1
102
RTVSPropertyOp33
 70
     1
102
RTVSPropertyOp34
 70
     1
102
RTVSPropertyOp35
 70
     1
102
RTVSPropertyOp36
 70
     1
102
RTVSPropertyOp37
 70
     1
102
RTVSPropertyOp38
 70
     1
102
RTVSPropertyOp39
 70
     1
102
RTVSPropertyOp40
 70
     1
102
RTVSPropertyOp41
 70
     1
102
RTVSPropertyOp42
 70
     1
102
RTVSPropertyOp43
 70
     1
102
RTVSPropertyOp44
 70
     1
102
RTVSPropertyOp45
 70
     1
102
RTVSPropertyOp46
 70
     1
102
RTVSPropertyOp47
 70
     1
102
RTVSPropertyOp48
 70
     1
102
RTVSPropertyOp49
 70
     1
102
RTVSPropertyOp50
 70
     1
102
RTVSPropertyOp51
 70
     0
102
RTVSPropertyOp52
 70
     0
102
RTVSPropertyOp53
 70
     1
102
RTVSPropertyOp54
 70
     1
102
RTVSPropertyOp55
 70
     1
102
RTVSPropertyOp56
 70
     1
102
RTVSPropertyOp57
 70
     1
102
RTVSPropertyOp58
 70
     1
102
RTVSPropertyOp59
 70
     1
102
RTVSPropertyOp60
 70
     1
102
RTVSPropertyOp61
 70
     1
102
RTVSPropertyOp62
 70
     1
  0
XRECORD
  5
BF58
102
{ACAD_REACTORS
330
BF57
102
}
330
BF57
100
AcDbXrecord
280
     1
102
RTVSPost2010Prop28
280
     0
102
RTVSPost2010PropOp28
 70
     1
102
RTVSPost2010Prop29
280
     1
102
RTVSPost2010PropOp29
 70
     1
102
RTVSPost2010Prop30
280
     1
102
RTVSPost2010PropOp30
 70
     1
102
RTVSPost2010Prop31
280
     0
102
RTVSPost2010PropOp31
 70
     1
102
RTVSPost2010Prop32
280
     0
102
RTVSPost2010PropOp32
 70
     1
102
RTVSPost2010Prop33
280
     0
102
RTVSPost2010PropOp33
 70
     1
102
RTVSPost2010Prop34
280
     0
102
RTVSPost2010PropOp34
 70
     1
102
RTVSPost2010Prop35
280
     0
102
RTVSPost2010PropOp35
 70
     1
102
RTVSPost2010Prop36
280
     0
102
RTVSPost2010PropOp36
 70
     1
102
RTVSPost2010Prop37
 90
       50
102
RTVSPost2010PropOp37
 70
     1
102
RTVSPost2010Prop38
140
0.0
102
RTVSPost2010PropOp38
 70
     1
102
RTVSPost2010Prop39
140
1.0
102
RTVSPost2010PropOp39
 70
     1
102
RTVSPost2010Prop40
 90
        0
102
RTVSPost2010PropOp40
 70
     1
102
RTVSPost2010Prop41ColorIndex
 90
       18
102
RTVSPost2010Prop41ColorRGB
 90
        0
102
RTVSPost2010PropOp41
 70
     1
102
RTVSPost2010Prop42
 90
       50
102
RTVSPost2010PropOp42
 70
     1
102
RTVSPost2010Prop43
 90
        3
102
RTVSPost2010PropOp43
 70
     1
102
RTVSPost2010Prop44ColorIndex
 90
        5
102
RTVSPost2010Prop44ColorRGB
 90
      255
102
RTVSPost2010PropOp44
 70
     1
102
RTVSPost2010Prop45
280
     0
102
RTVSPost2010PropOp45
 70
     1
102
RTVSPost2010Prop46
 90
       50
102
RTVSPost2010PropOp46
 70
     1
102
RTVSPost2010Prop47
 90
       50
102
RTVSPost2010PropOp47
 70
     1
102
RTVSPost2010Prop48
 90
       50
102
RTVSPost2010PropOp48
 70
     1
102
RTVSPost2010Prop49
280
     0
102
RTVSPost2010PropOp49
 70
     1
102
RTVSPost2010Prop50
 90
       50
102
RTVSPost2010PropOp50
 70
     1
102
RTVSPost2010Prop51ColorIndex
 90
      256
102
RTVSPost2010Prop51ColorRGB
 90
-16777216
102
RTVSPost2010PropOp51
 70
     0
102
RTVSPost2010Prop52
140
1.0
102
RTVSPost2010PropOp52
 70
     0
102
RTVSPost2010Prop53
 90
        2
102
RTVSPost2010PropOp53
 70
     1
102
RTVSPost2010Prop54
  1
strokes_ogs.tif
102
RTVSPost2010PropOp54
 70
     1
102
RTVSPost2010Prop55
280
     0
102
RTVSPost2010PropOp55
 70
     1
102
RTVSPost2010Prop56
140
1.0
102
RTVSPost2010PropOp56
 70
     1
102
RTVSPost2010Prop57
140
1.0
102
RTVSPost2010PropOp57
 70
     1
102
RTVSPropertyOp0
 70
     1
102
RTVSPropertyOp1
 70
     1
102
RTVSPropertyOp2
 70
     1
102
RTVSPropertyOp3
 70
     1
102
RTVSPropertyOp4
 70
     1
102
RTVSPropertyOp5
 70
     1
102
RTVSPropertyOp6
 70
     1
102
RTVSPropertyOp7
 70
     1
102
RTVSPropertyOp8
 70
     1
102
RTVSPropertyOp9
 70
     1
102
RTVSPropertyOp10
 70
     1
102
RTVSPropertyOp11
 70
     1
102
RTVSPropertyOp12
 70
     1
102
RTVSPropertyOp13
 70
     1
102
RTVSPropertyOp14
 70
     1
102
RTVSPropertyOp15
 70
     1
102
RTVSPropertyOp16
 70
     1
102
RTVSPropertyOp17
 70
     1
102
RTVSPropertyOp18
 70
     1
102
RTVSPropertyOp19
 70
     1
102
RTVSPropertyOp20
 70
     1
102
RTVSPropertyOp21
 70
     1
102
RTVSPropertyOp22
 70
     1
102
RTVSPropertyOp23
 70
     1
102
RTVSPropertyOp24
 70
     1
102
RTVSPropertyOp25
 70
     1
102
RTVSPropertyOp26
 70
     1
102
RTVSPropertyOp27
 70
     1
102
RTVSPropertyOp28
 70
     1
102
RTVSPropertyOp29
 70
     1
102
RTVSPropertyOp30
 70
     1
102
RTVSPropertyOp31
 70
     1
102
RTVSPropertyOp32
 70
     1
102
RTVSPropertyOp33
 70
     1
102
RTVSPropertyOp34
 70
     1
102
RTVSPropertyOp35
 70
     1
102
RTVSPropertyOp36
 70
     1
102
RTVSPropertyOp37
 70
     1
102
RTVSPropertyOp38
 70
     1
102
RTVSPropertyOp39
 70
     1
102
RTVSPropertyOp40
 70
     1
102
RTVSPropertyOp41
 70
     1
102
RTVSPropertyOp42
 70
     1
102
RTVSPropertyOp43
 70
     1
102
RTVSPropertyOp44
 70
     1
102
RTVSPropertyOp45
 70
     1
102
RTVSPropertyOp46
 70
     1
102
RTVSPropertyOp47
 70
     1
102
RTVSPropertyOp48
 70
     1
102
RTVSPropertyOp49
 70
     1
102
RTVSPropertyOp50
 70
     1
102
RTVSPropertyOp51
 70
     0
102
RTVSPropertyOp52
 70
     0
102
RTVSPropertyOp53
 70
     1
102
RTVSPropertyOp54
 70
     1
102
RTVSPropertyOp55
 70
     1
102
RTVSPropertyOp56
 70
     1
102
RTVSPropertyOp57
 70
     1
102
RTVSPropertyOp58
 70
     1
102
RTVSPropertyOp59
 70
     1
102
RTVSPropertyOp60
 70
     1
102
RTVSPropertyOp61
 70
     1
102
RTVSPropertyOp62
 70
     1
  0
XRECORD
  5
BF5A
102
{ACAD_REACTORS
330
BF59
102
}
330
BF59
100
AcDbXrecord
280
     1
102
RTVSPost2010Prop28
280
     0
102
RTVSPost2010PropOp28
 70
     1
102
RTVSPost2010Prop29
280
     1
102
RTVSPost2010PropOp29
 70
     1
102
RTVSPost2010Prop30
280
     1
102
RTVSPost2010PropOp30
 70
     1
102
RTVSPost2010Prop31
280
     0
102
RTVSPost2010PropOp31
 70
     1
102
RTVSPost2010Prop32
280
     0
102
RTVSPost2010PropOp32
 70
     1
102
RTVSPost2010Prop33
280
     0
102
RTVSPost2010PropOp33
 70
     1
102
RTVSPost2010Prop34
280
     0
102
RTVSPost2010PropOp34
 70
     1
102
RTVSPost2010Prop35
280
     0
102
RTVSPost2010PropOp35
 70
     1
102
RTVSPost2010Prop36
280
     0
102
RTVSPost2010PropOp36
 70
     1
102
RTVSPost2010Prop37
 90
       50
102
RTVSPost2010PropOp37
 70
     1
102
RTVSPost2010Prop38
140
0.0
102
RTVSPost2010PropOp38
 70
     1
102
RTVSPost2010Prop39
140
1.0
102
RTVSPost2010PropOp39
 70
     1
102
RTVSPost2010Prop40
 90
        0
102
RTVSPost2010PropOp40
 70
     1
102
RTVSPost2010Prop41ColorIndex
 90
       18
102
RTVSPost2010Prop41ColorRGB
 90
        0
102
RTVSPost2010PropOp41
 70
     1
102
RTVSPost2010Prop42
 90
       50
102
RTVSPost2010PropOp42
 70
     1
102
RTVSPost2010Prop43
 90
        3
102
RTVSPost2010PropOp43
 70
     1
102
RTVSPost2010Prop44ColorIndex
 90
        5
102
RTVSPost2010Prop44ColorRGB
 90
      255
102
RTVSPost2010PropOp44
 70
     1
102
RTVSPost2010Prop45
280
     0
102
RTVSPost2010PropOp45
 70
     1
102
RTVSPost2010Prop46
 90
       50
102
RTVSPost2010PropOp46
 70
     1
102
RTVSPost2010Prop47
 90
       50
102
RTVSPost2010PropOp47
 70
     1
102
RTVSPost2010Prop48
 90
       50
102
RTVSPost2010PropOp48
 70
     1
102
RTVSPost2010Prop49
280
     0
102
RTVSPost2010PropOp49
 70
     1
102
RTVSPost2010Prop50
 90
       50
102
RTVSPost2010PropOp50
 70
     1
102
RTVSPost2010Prop51ColorIndex
 90
      256
102
RTVSPost2010Prop51ColorRGB
 90
-16777216
102
RTVSPost2010PropOp51
 70
     0
102
RTVSPost2010Prop52
140
1.0
102
RTVSPost2010PropOp52
 70
     0
102
RTVSPost2010Prop53
 90
        2
102
RTVSPost2010PropOp53
 70
     1
102
RTVSPost2010Prop54
  1
strokes_ogs.tif
102
RTVSPost2010PropOp54
 70
     1
102
RTVSPost2010Prop55
280
     0
102
RTVSPost2010PropOp55
 70
     1
102
RTVSPost2010Prop56
140
1.0
102
RTVSPost2010PropOp56
 70
     1
102
RTVSPost2010Prop57
140
1.0
102
RTVSPost2010PropOp57
 70
     1
102
RTVSPropertyOp0
 70
     1
102
RTVSPropertyOp1
 70
     1
102
RTVSPropertyOp2
 70
     1
102
RTVSPropertyOp3
 70
     1
102
RTVSPropertyOp4
 70
     1
102
RTVSPropertyOp5
 70
     1
102
RTVSPropertyOp6
 70
     1
102
RTVSPropertyOp7
 70
     1
102
RTVSPropertyOp8
 70
     1
102
RTVSPropertyOp9
 70
     1
102
RTVSPropertyOp10
 70
     1
102
RTVSPropertyOp11
 70
     1
102
RTVSPropertyOp12
 70
     1
102
RTVSPropertyOp13
 70
     1
102
RTVSPropertyOp14
 70
     1
102
RTVSPropertyOp15
 70
     1
102
RTVSPropertyOp16
 70
     1
102
RTVSPropertyOp17
 70
     1
102
RTVSPropertyOp18
 70
     1
102
RTVSPropertyOp19
 70
     1
102
RTVSPropertyOp20
 70
     1
102
RTVSPropertyOp21
 70
     1
102
RTVSPropertyOp22
 70
     1
102
RTVSPropertyOp23
 70
     1
102
RTVSPropertyOp24
 70
     1
102
RTVSPropertyOp25
 70
     1
102
RTVSPropertyOp26
 70
     1
102
RTVSPropertyOp27
 70
     1
102
RTVSPropertyOp28
 70
     1
102
RTVSPropertyOp29
 70
     1
102
RTVSPropertyOp30
 70
     1
102
RTVSPropertyOp31
 70
     1
102
RTVSPropertyOp32
 70
     1
102
RTVSPropertyOp33
 70
     1
102
RTVSPropertyOp34
 70
     1
102
RTVSPropertyOp35
 70
     1
102
RTVSPropertyOp36
 70
     1
102
RTVSPropertyOp37
 70
     1
102
RTVSPropertyOp38
 70
     1
102
RTVSPropertyOp39
 70
     1
102
RTVSPropertyOp40
 70
     1
102
RTVSPropertyOp41
 70
     1
102
RTVSPropertyOp42
 70
     1
102
RTVSPropertyOp43
 70
     1
102
RTVSPropertyOp44
 70
     1
102
RTVSPropertyOp45
 70
     1
102
RTVSPropertyOp46
 70
     1
102
RTVSPropertyOp47
 70
     1
102
RTVSPropertyOp48
 70
     1
102
RTVSPropertyOp49
 70
     1
102
RTVSPropertyOp50
 70
     1
102
RTVSPropertyOp51
 70
     0
102
RTVSPropertyOp52
 70
     0
102
RTVSPropertyOp53
 70
     1
102
RTVSPropertyOp54
 70
     1
102
RTVSPropertyOp55
 70
     1
102
RTVSPropertyOp56
 70
     1
102
RTVSPropertyOp57
 70
     1
102
RTVSPropertyOp58
 70
     1
102
RTVSPropertyOp59
 70
     1
102
RTVSPropertyOp60
 70
     1
102
RTVSPropertyOp61
 70
     1
102
RTVSPropertyOp62
 70
     1
  0
XRECORD
  5
BF5C
102
{ACAD_REACTORS
330
BF5B
102
}
330
BF5B
100
AcDbXrecord
280
     1
102
RTVSPost2010Prop28
280
     0
102
RTVSPost2010PropOp28
 70
     1
102
RTVSPost2010Prop29
280
     1
102
RTVSPost2010PropOp29
 70
     1
102
RTVSPost2010Prop30
280
     1
102
RTVSPost2010PropOp30
 70
     1
102
RTVSPost2010Prop31
280
     0
102
RTVSPost2010PropOp31
 70
     1
102
RTVSPost2010Prop32
280
     0
102
RTVSPost2010PropOp32
 70
     1
102
RTVSPost2010Prop33
280
     0
102
RTVSPost2010PropOp33
 70
     1
102
RTVSPost2010Prop34
280
     0
102
RTVSPost2010PropOp34
 70
     1
102
RTVSPost2010Prop35
280
     0
102
RTVSPost2010PropOp35
 70
     1
102
RTVSPost2010Prop36
280
     0
102
RTVSPost2010PropOp36
 70
     1
102
RTVSPost2010Prop37
 90
       50
102
RTVSPost2010PropOp37
 70
     1
102
RTVSPost2010Prop38
140
0.0
102
RTVSPost2010PropOp38
 70
     1
102
RTVSPost2010Prop39
140
1.0
102
RTVSPost2010PropOp39
 70
     1
102
RTVSPost2010Prop40
 90
        0
102
RTVSPost2010PropOp40
 70
     1
102
RTVSPost2010Prop41ColorIndex
 90
       18
102
RTVSPost2010Prop41ColorRGB
 90
        0
102
RTVSPost2010PropOp41
 70
     1
102
RTVSPost2010Prop42
 90
       50
102
RTVSPost2010PropOp42
 70
     1
102
RTVSPost2010Prop43
 90
        3
102
RTVSPost2010PropOp43
 70
     1
102
RTVSPost2010Prop44ColorIndex
 90
        5
102
RTVSPost2010Prop44ColorRGB
 90
      255
102
RTVSPost2010PropOp44
 70
     1
102
RTVSPost2010Prop45
280
     0
102
RTVSPost2010PropOp45
 70
     1
102
RTVSPost2010Prop46
 90
       50
102
RTVSPost2010PropOp46
 70
     1
102
RTVSPost2010Prop47
 90
       50
102
RTVSPost2010PropOp47
 70
     1
102
RTVSPost2010Prop48
 90
       50
102
RTVSPost2010PropOp48
 70
     1
102
RTVSPost2010Prop49
280
     0
102
RTVSPost2010PropOp49
 70
     1
102
RTVSPost2010Prop50
 90
       50
102
RTVSPost2010PropOp50
 70
     1
102
RTVSPost2010Prop51ColorIndex
 90
      256
102
RTVSPost2010Prop51ColorRGB
 90
-16777216
102
RTVSPost2010PropOp51
 70
     0
102
RTVSPost2010Prop52
140
1.0
102
RTVSPost2010PropOp52
 70
     0
102
RTVSPost2010Prop53
 90
        2
102
RTVSPost2010PropOp53
 70
     1
102
RTVSPost2010Prop54
  1
strokes_ogs.tif
102
RTVSPost2010PropOp54
 70
     1
102
RTVSPost2010Prop55
280
     0
102
RTVSPost2010PropOp55
 70
     1
102
RTVSPost2010Prop56
140
1.0
102
RTVSPost2010PropOp56
 70
     1
102
RTVSPost2010Prop57
140
1.0
102
RTVSPost2010PropOp57
 70
     1
102
RTVSPropertyOp0
 70
     1
102
RTVSPropertyOp1
 70
     1
102
RTVSPropertyOp2
 70
     1
102
RTVSPropertyOp3
 70
     1
102
RTVSPropertyOp4
 70
     1
102
RTVSPropertyOp5
 70
     1
102
RTVSPropertyOp6
 70
     1
102
RTVSPropertyOp7
 70
     1
102
RTVSPropertyOp8
 70
     1
102
RTVSPropertyOp9
 70
     1
102
RTVSPropertyOp10
 70
     1
102
RTVSPropertyOp11
 70
     1
102
RTVSPropertyOp12
 70
     1
102
RTVSPropertyOp13
 70
     1
102
RTVSPropertyOp14
 70
     1
102
RTVSPropertyOp15
 70
     1
102
RTVSPropertyOp16
 70
     1
102
RTVSPropertyOp17
 70
     1
102
RTVSPropertyOp18
 70
     1
102
RTVSPropertyOp19
 70
     1
102
RTVSPropertyOp20
 70
     1
102
RTVSPropertyOp21
 70
     1
102
RTVSPropertyOp22
 70
     1
102
RTVSPropertyOp23
 70
     1
102
RTVSPropertyOp24
 70
     1
102
RTVSPropertyOp25
 70
     1
102
RTVSPropertyOp26
 70
     1
102
RTVSPropertyOp27
 70
     1
102
RTVSPropertyOp28
 70
     1
102
RTVSPropertyOp29
 70
     1
102
RTVSPropertyOp30
 70
     1
102
RTVSPropertyOp31
 70
     1
102
RTVSPropertyOp32
 70
     1
102
RTVSPropertyOp33
 70
     1
102
RTVSPropertyOp34
 70
     1
102
RTVSPropertyOp35
 70
     1
102
RTVSPropertyOp36
 70
     1
102
RTVSPropertyOp37
 70
     1
102
RTVSPropertyOp38
 70
     1
102
RTVSPropertyOp39
 70
     1
102
RTVSPropertyOp40
 70
     1
102
RTVSPropertyOp41
 70
     1
102
RTVSPropertyOp42
 70
     1
102
RTVSPropertyOp43
 70
     1
102
RTVSPropertyOp44
 70
     1
102
RTVSPropertyOp45
 70
     1
102
RTVSPropertyOp46
 70
     1
102
RTVSPropertyOp47
 70
     1
102
RTVSPropertyOp48
 70
     1
102
RTVSPropertyOp49
 70
     1
102
RTVSPropertyOp50
 70
     1
102
RTVSPropertyOp51
 70
     0
102
RTVSPropertyOp52
 70
     0
102
RTVSPropertyOp53
 70
     1
102
RTVSPropertyOp54
 70
     1
102
RTVSPropertyOp55
 70
     1
102
RTVSPropertyOp56
 70
     1
102
RTVSPropertyOp57
 70
     1
102
RTVSPropertyOp58
 70
     1
102
RTVSPropertyOp59
 70
     1
102
RTVSPropertyOp60
 70
     1
102
RTVSPropertyOp61
 70
     1
102
RTVSPropertyOp62
 70
     1
  0
XRECORD
  5
BF64
102
{ACAD_REACTORS
330
BF63
102
}
330
BF63
100
AcDbXrecord
280
     1
102
RTVSPost2010Prop28
280
     0
102
RTVSPost2010PropOp28
 70
     1
102
RTVSPost2010Prop29
280
     1
102
RTVSPost2010PropOp29
 70
     1
102
RTVSPost2010Prop30
280
     1
102
RTVSPost2010PropOp30
 70
     1
102
RTVSPost2010Prop31
280
     0
102
RTVSPost2010PropOp31
 70
     1
102
RTVSPost2010Prop32
280
     0
102
RTVSPost2010PropOp32
 70
     1
102
RTVSPost2010Prop33
280
     0
102
RTVSPost2010PropOp33
 70
     1
102
RTVSPost2010Prop34
280
     0
102
RTVSPost2010PropOp34
 70
     1
102
RTVSPost2010Prop35
280
     0
102
RTVSPost2010PropOp35
 70
     1
102
RTVSPost2010Prop36
280
     0
102
RTVSPost2010PropOp36
 70
     1
102
RTVSPost2010Prop37
 90
       50
102
RTVSPost2010PropOp37
 70
     1
102
RTVSPost2010Prop38
140
0.0
102
RTVSPost2010PropOp38
 70
     1
102
RTVSPost2010Prop39
140
1.0
102
RTVSPost2010PropOp39
 70
     1
102
RTVSPost2010Prop40
 90
        0
102
RTVSPost2010PropOp40
 70
     1
102
RTVSPost2010Prop41ColorIndex
 90
       18
102
RTVSPost2010Prop41ColorRGB
 90
        0
102
RTVSPost2010PropOp41
 70
     1
102
RTVSPost2010Prop42
 90
       50
102
RTVSPost2010PropOp42
 70
     1
102
RTVSPost2010Prop43
 90
        3
102
RTVSPost2010PropOp43
 70
     1
102
RTVSPost2010Prop44ColorIndex
 90
        5
102
RTVSPost2010Prop44ColorRGB
 90
      255
102
RTVSPost2010PropOp44
 70
     1
102
RTVSPost2010Prop45
280
     0
102
RTVSPost2010PropOp45
 70
     1
102
RTVSPost2010Prop46
 90
       50
102
RTVSPost2010PropOp46
 70
     1
102
RTVSPost2010Prop47
 90
       50
102
RTVSPost2010PropOp47
 70
     1
102
RTVSPost2010Prop48
 90
       50
102
RTVSPost2010PropOp48
 70
     1
102
RTVSPost2010Prop49
280
     0
102
RTVSPost2010PropOp49
 70
     1
102
RTVSPost2010Prop50
 90
       50
102
RTVSPost2010PropOp50
 70
     1
102
RTVSPost2010Prop51ColorIndex
 90
      256
102
RTVSPost2010Prop51ColorRGB
 90
-16777216
102
RTVSPost2010PropOp51
 70
     0
102
RTVSPost2010Prop52
140
1.0
102
RTVSPost2010PropOp52
 70
     0
102
RTVSPost2010Prop53
 90
        2
102
RTVSPost2010PropOp53
 70
     1
102
RTVSPost2010Prop54
  1
strokes_ogs.tif
102
RTVSPost2010PropOp54
 70
     1
102
RTVSPost2010Prop55
280
     0
102
RTVSPost2010PropOp55
 70
     1
102
RTVSPost2010Prop56
140
1.0
102
RTVSPost2010PropOp56
 70
     1
102
RTVSPost2010Prop57
140
1.0
102
RTVSPost2010PropOp57
 70
     1
102
RTVSPropertyOp0
 70
     1
102
RTVSPropertyOp1
 70
     1
102
RTVSPropertyOp2
 70
     1
102
RTVSPropertyOp3
 70
     1
102
RTVSPropertyOp4
 70
     1
102
RTVSPropertyOp5
 70
     1
102
RTVSPropertyOp6
 70
     1
102
RTVSPropertyOp7
 70
     1
102
RTVSPropertyOp8
 70
     1
102
RTVSPropertyOp9
 70
     1
102
RTVSPropertyOp10
 70
     1
102
RTVSPropertyOp11
 70
     1
102
RTVSPropertyOp12
 70
     1
102
RTVSPropertyOp13
 70
     1
102
RTVSPropertyOp14
 70
     1
102
RTVSPropertyOp15
 70
     1
102
RTVSPropertyOp16
 70
     1
102
RTVSPropertyOp17
 70
     1
102
RTVSPropertyOp18
 70
     1
102
RTVSPropertyOp19
 70
     1
102
RTVSPropertyOp20
 70
     1
102
RTVSPropertyOp21
 70
     1
102
RTVSPropertyOp22
 70
     1
102
RTVSPropertyOp23
 70
     1
102
RTVSPropertyOp24
 70
     1
102
RTVSPropertyOp25
 70
     1
102
RTVSPropertyOp26
 70
     1
102
RTVSPropertyOp27
 70
     1
102
RTVSPropertyOp28
 70
     1
102
RTVSPropertyOp29
 70
     1
102
RTVSPropertyOp30
 70
     1
102
RTVSPropertyOp31
 70
     1
102
RTVSPropertyOp32
 70
     1
102
RTVSPropertyOp33
 70
     1
102
RTVSPropertyOp34
 70
     1
102
RTVSPropertyOp35
 70
     1
102
RTVSPropertyOp36
 70
     1
102
RTVSPropertyOp37
 70
     1
102
RTVSPropertyOp38
 70
     1
102
RTVSPropertyOp39
 70
     1
102
RTVSPropertyOp40
 70
     1
102
RTVSPropertyOp41
 70
     1
102
RTVSPropertyOp42
 70
     1
102
RTVSPropertyOp43
 70
     1
102
RTVSPropertyOp44
 70
     1
102
RTVSPropertyOp45
 70
     1
102
RTVSPropertyOp46
 70
     1
102
RTVSPropertyOp47
 70
     1
102
RTVSPropertyOp48
 70
     1
102
RTVSPropertyOp49
 70
     1
102
RTVSPropertyOp50
 70
     1
102
RTVSPropertyOp51
 70
     0
102
RTVSPropertyOp52
 70
     0
102
RTVSPropertyOp53
 70
     1
102
RTVSPropertyOp54
 70
     1
102
RTVSPropertyOp55
 70
     1
102
RTVSPropertyOp56
 70
     1
102
RTVSPropertyOp57
 70
     1
102
RTVSPropertyOp58
 70
     1
102
RTVSPropertyOp59
 70
     1
102
RTVSPropertyOp60
 70
     1
102
RTVSPropertyOp61
 70
     1
102
RTVSPropertyOp62
 70
     1
  0
XRECORD
  5
BF80
102
{ACAD_REACTORS
330
BF7F
102
}
330
BF7F
100
AcDbXrecord
280
     1
102
RTVSPost2010Prop28
280
     0
102
RTVSPost2010PropOp28
 70
     1
102
RTVSPost2010Prop29
280
     1
102
RTVSPost2010PropOp29
 70
     1
102
RTVSPost2010Prop30
280
     1
102
RTVSPost2010PropOp30
 70
     1
102
RTVSPost2010Prop31
280
     0
102
RTVSPost2010PropOp31
 70
     1
102
RTVSPost2010Prop32
280
     0
102
RTVSPost2010PropOp32
 70
     1
102
RTVSPost2010Prop33
280
     0
102
RTVSPost2010PropOp33
 70
     1
102
RTVSPost2010Prop34
280
     0
102
RTVSPost2010PropOp34
 70
     1
102
RTVSPost2010Prop35
280
     0
102
RTVSPost2010PropOp35
 70
     1
102
RTVSPost2010Prop36
280
     0
102
RTVSPost2010PropOp36
 70
     1
102
RTVSPost2010Prop37
 90
       50
102
RTVSPost2010PropOp37
 70
     0
102
RTVSPost2010Prop38
140
0.0
102
RTVSPost2010PropOp38
 70
     0
102
RTVSPost2010Prop39
140
1.0
102
RTVSPost2010PropOp39
 70
     0
102
RTVSPost2010Prop40
 90
        0
102
RTVSPost2010PropOp40
 70
     0
102
RTVSPost2010Prop41ColorIndex
 90
       18
102
RTVSPost2010Prop41ColorRGB
 90
        0
102
RTVSPost2010PropOp41
 70
     0
102
RTVSPost2010Prop42
 90
       50
102
RTVSPost2010PropOp42
 70
     0
102
RTVSPost2010Prop43
 90
        3
102
RTVSPost2010PropOp43
 70
     0
102
RTVSPost2010Prop44ColorIndex
 90
        5
102
RTVSPost2010Prop44ColorRGB
 90
      255
102
RTVSPost2010PropOp44
 70
     0
102
RTVSPost2010Prop45
280
     0
102
RTVSPost2010PropOp45
 70
     1
102
RTVSPost2010Prop46
 90
       50
102
RTVSPost2010PropOp46
 70
     0
102
RTVSPost2010Prop47
 90
       50
102
RTVSPost2010PropOp47
 70
     0
102
RTVSPost2010Prop48
 90
       50
102
RTVSPost2010PropOp48
 70
     0
102
RTVSPost2010Prop49
280
     0
102
RTVSPost2010PropOp49
 70
     1
102
RTVSPost2010Prop50
 90
       50
102
RTVSPost2010PropOp50
 70
     0
102
RTVSPost2010Prop51ColorIndex
 90
      256
102
RTVSPost2010Prop51ColorRGB
 90
-16777216
102
RTVSPost2010PropOp51
 70
     0
102
RTVSPost2010Prop52
140
1.0
102
RTVSPost2010PropOp52
 70
     0
102
RTVSPost2010Prop53
 90
        2
102
RTVSPost2010PropOp53
 70
     0
102
RTVSPost2010Prop54
  1
strokes_ogs.tif
102
RTVSPost2010PropOp54
 70
     0
102
RTVSPost2010Prop55
280
     0
102
RTVSPost2010PropOp55
 70
     1
102
RTVSPost2010Prop56
140
1.0
102
RTVSPost2010PropOp56
 70
     0
102
RTVSPost2010Prop57
140
1.0
102
RTVSPost2010PropOp57
 70
     0
102
RTVSPropertyOp0
 70
     0
102
RTVSPropertyOp1
 70
     0
102
RTVSPropertyOp2
 70
     0
102
RTVSPropertyOp3
 70
     0
102
RTVSPropertyOp4
 70
     0
102
RTVSPropertyOp5
 70
     0
102
RTVSPropertyOp6
 70
     0
102
RTVSPropertyOp7
 70
     0
102
RTVSPropertyOp8
 70
     0
102
RTVSPropertyOp9
 70
     0
102
RTVSPropertyOp10
 70
     0
102
RTVSPropertyOp11
 70
     0
102
RTVSPropertyOp12
 70
     0
102
RTVSPropertyOp13
 70
     0
102
RTVSPropertyOp14
 70
     2
102
RTVSPropertyOp15
 70
     0
102
RTVSPropertyOp16
 70
     0
102
RTVSPropertyOp17
 70
     0
102
RTVSPropertyOp18
 70
     0
102
RTVSPropertyOp19
 70
     0
102
RTVSPropertyOp20
 70
     0
102
RTVSPropertyOp21
 70
     0
102
RTVSPropertyOp22
 70
     0
102
RTVSPropertyOp23
 70
     0
102
RTVSPropertyOp24
 70
     0
102
RTVSPropertyOp25
 70
     0
102
RTVSPropertyOp26
 70
     0
102
RTVSPropertyOp27
 70
     0
102
RTVSPropertyOp28
 70
     1
102
RTVSPropertyOp29
 70
     1
102
RTVSPropertyOp30
 70
     1
102
RTVSPropertyOp31
 70
     1
102
RTVSPropertyOp32
 70
     1
102
RTVSPropertyOp33
 70
     1
102
RTVSPropertyOp34
 70
     1
102
RTVSPropertyOp35
 70
     1
102
RTVSPropertyOp36
 70
     1
102
RTVSPropertyOp37
 70
     0
102
RTVSPropertyOp38
 70
     0
102
RTVSPropertyOp39
 70
     0
102
RTVSPropertyOp40
 70
     0
102
RTVSPropertyOp41
 70
     0
102
RTVSPropertyOp42
 70
     0
102
RTVSPropertyOp43
 70
     0
102
RTVSPropertyOp44
 70
     0
102
RTVSPropertyOp45
 70
     1
102
RTVSPropertyOp46
 70
     0
102
RTVSPropertyOp47
 70
     0
102
RTVSPropertyOp48
 70
     0
102
RTVSPropertyOp49
 70
     1
102
RTVSPropertyOp50
 70
     0
102
RTVSPropertyOp51
 70
     0
102
RTVSPropertyOp52
 70
     0
102
RTVSPropertyOp53
 70
     0
102
RTVSPropertyOp54
 70
     0
102
RTVSPropertyOp55
 70
     1
102
RTVSPropertyOp56
 70
     0
102
RTVSPropertyOp57
 70
     0
102
RTVSPropertyOp58
 70
     0
102
RTVSPropertyOp59
 70
     0
102
RTVSPropertyOp60
 70
     0
102
RTVSPropertyOp61
 70
     0
102
RTVSPropertyOp62
 70
     0
  0
XRECORD
  5
BF70
102
{ACAD_REACTORS
330
BF6F
102
}
330
BF6F
100
AcDbXrecord
280
     1
102
RTVSPost2010Prop28
280
     0
102
RTVSPost2010PropOp28
 70
     1
102
RTVSPost2010Prop29
280
     1
102
RTVSPost2010PropOp29
 70
     1
102
RTVSPost2010Prop30
280
     1
102
RTVSPost2010PropOp30
 70
     1
102
RTVSPost2010Prop31
280
     0
102
RTVSPost2010PropOp31
 70
     1
102
RTVSPost2010Prop32
280
     0
102
RTVSPost2010PropOp32
 70
     1
102
RTVSPost2010Prop33
280
     0
102
RTVSPost2010PropOp33
 70
     1
102
RTVSPost2010Prop34
280
     0
102
RTVSPost2010PropOp34
 70
     1
102
RTVSPost2010Prop35
280
     0
102
RTVSPost2010PropOp35
 70
     1
102
RTVSPost2010Prop36
280
     0
102
RTVSPost2010PropOp36
 70
     1
102
RTVSPost2010Prop37
 90
       50
102
RTVSPost2010PropOp37
 70
     1
102
RTVSPost2010Prop38
140
0.0
102
RTVSPost2010PropOp38
 70
     1
102
RTVSPost2010Prop39
140
1.0
102
RTVSPost2010PropOp39
 70
     1
102
RTVSPost2010Prop40
 90
        0
102
RTVSPost2010PropOp40
 70
     1
102
RTVSPost2010Prop41ColorIndex
 90
       18
102
RTVSPost2010Prop41ColorRGB
 90
        0
102
RTVSPost2010PropOp41
 70
     1
102
RTVSPost2010Prop42
 90
       50
102
RTVSPost2010PropOp42
 70
     1
102
RTVSPost2010Prop43
 90
        3
102
RTVSPost2010PropOp43
 70
     1
102
RTVSPost2010Prop44ColorIndex
 90
        5
102
RTVSPost2010Prop44ColorRGB
 90
      255
102
RTVSPost2010PropOp44
 70
     1
102
RTVSPost2010Prop45
280
     0
102
RTVSPost2010PropOp45
 70
     1
102
RTVSPost2010Prop46
 90
       50
102
RTVSPost2010PropOp46
 70
     1
102
RTVSPost2010Prop47
 90
       50
102
RTVSPost2010PropOp47
 70
     1
102
RTVSPost2010Prop48
 90
       50
102
RTVSPost2010PropOp48
 70
     1
102
RTVSPost2010Prop49
280
     0
102
RTVSPost2010PropOp49
 70
     1
102
RTVSPost2010Prop50
 90
       50
102
RTVSPost2010PropOp50
 70
     1
102
RTVSPost2010Prop51ColorIndex
 90
      256
102
RTVSPost2010Prop51ColorRGB
 90
-16777216
102
RTVSPost2010PropOp51
 70
     0
102
RTVSPost2010Prop52
140
1.0
102
RTVSPost2010PropOp52
 70
     0
102
RTVSPost2010Prop53
 90
        2
102
RTVSPost2010PropOp53
 70
     1
102
RTVSPost2010Prop54
  1
strokes_ogs.tif
102
RTVSPost2010PropOp54
 70
     1
102
RTVSPost2010Prop55
280
     0
102
RTVSPost2010PropOp55
 70
     1
102
RTVSPost2010Prop56
140
1.0
102
RTVSPost2010PropOp56
 70
     1
102
RTVSPost2010Prop57
140
1.0
102
RTVSPost2010PropOp57
 70
     1
102
RTVSPropertyOp0
 70
     1
102
RTVSPropertyOp1
 70
     1
102
RTVSPropertyOp2
 70
     1
102
RTVSPropertyOp3
 70
     1
102
RTVSPropertyOp4
 70
     1
102
RTVSPropertyOp5
 70
     1
102
RTVSPropertyOp6
 70
     1
102
RTVSPropertyOp7
 70
     1
102
RTVSPropertyOp8
 70
     1
102
RTVSPropertyOp9
 70
     1
102
RTVSPropertyOp10
 70
     1
102
RTVSPropertyOp11
 70
     1
102
RTVSPropertyOp12
 70
     1
102
RTVSPropertyOp13
 70
     1
102
RTVSPropertyOp14
 70
     1
102
RTVSPropertyOp15
 70
     1
102
RTVSPropertyOp16
 70
     1
102
RTVSPropertyOp17
 70
     1
102
RTVSPropertyOp18
 70
     1
102
RTVSPropertyOp19
 70
     1
102
RTVSPropertyOp20
 70
     1
102
RTVSPropertyOp21
 70
     1
102
RTVSPropertyOp22
 70
     1
102
RTVSPropertyOp23
 70
     1
102
RTVSPropertyOp24
 70
     1
102
RTVSPropertyOp25
 70
     1
102
RTVSPropertyOp26
 70
     1
102
RTVSPropertyOp27
 70
     1
102
RTVSPropertyOp28
 70
     1
102
RTVSPropertyOp29
 70
     1
102
RTVSPropertyOp30
 70
     1
102
RTVSPropertyOp31
 70
     1
102
RTVSPropertyOp32
 70
     1
102
RTVSPropertyOp33
 70
     1
102
RTVSPropertyOp34
 70
     1
102
RTVSPropertyOp35
 70
     1
102
RTVSPropertyOp36
 70
     1
102
RTVSPropertyOp37
 70
     1
102
RTVSPropertyOp38
 70
     1
102
RTVSPropertyOp39
 70
     1
102
RTVSPropertyOp40
 70
     1
102
RTVSPropertyOp41
 70
     1
102
RTVSPropertyOp42
 70
     1
102
RTVSPropertyOp43
 70
     1
102
RTVSPropertyOp44
 70
     1
102
RTVSPropertyOp45
 70
     1
102
RTVSPropertyOp46
 70
     1
102
RTVSPropertyOp47
 70
     1
102
RTVSPropertyOp48
 70
     1
102
RTVSPropertyOp49
 70
     1
102
RTVSPropertyOp50
 70
     1
102
RTVSPropertyOp51
 70
     0
102
RTVSPropertyOp52
 70
     0
102
RTVSPropertyOp53
 70
     1
102
RTVSPropertyOp54
 70
     1
102
RTVSPropertyOp55
 70
     1
102
RTVSPropertyOp56
 70
     1
102
RTVSPropertyOp57
 70
     1
102
RTVSPropertyOp58
 70
     1
102
RTVSPropertyOp59
 70
     1
102
RTVSPropertyOp60
 70
     1
102
RTVSPropertyOp61
 70
     1
102
RTVSPropertyOp62
 70
     1
  0
XRECORD
  5
BF82
102
{ACAD_REACTORS
330
BF81
102
}
330
BF81
100
AcDbXrecord
280
     1
102
RTVSPost2010Prop28
280
     0
102
RTVSPost2010PropOp28
 70
     1
102
RTVSPost2010Prop29
280
     1
102
RTVSPost2010PropOp29
 70
     1
102
RTVSPost2010Prop30
280
     1
102
RTVSPost2010PropOp30
 70
     1
102
RTVSPost2010Prop31
280
     0
102
RTVSPost2010PropOp31
 70
     1
102
RTVSPost2010Prop32
280
     0
102
RTVSPost2010PropOp32
 70
     1
102
RTVSPost2010Prop33
280
     0
102
RTVSPost2010PropOp33
 70
     1
102
RTVSPost2010Prop34
280
     0
102
RTVSPost2010PropOp34
 70
     1
102
RTVSPost2010Prop35
280
     0
102
RTVSPost2010PropOp35
 70
     1
102
RTVSPost2010Prop36
280
     0
102
RTVSPost2010PropOp36
 70
     1
102
RTVSPost2010Prop37
 90
       50
102
RTVSPost2010PropOp37
 70
     0
102
RTVSPost2010Prop38
140
0.0
102
RTVSPost2010PropOp38
 70
     0
102
RTVSPost2010Prop39
140
1.0
102
RTVSPost2010PropOp39
 70
     0
102
RTVSPost2010Prop40
 90
        0
102
RTVSPost2010PropOp40
 70
     0
102
RTVSPost2010Prop41ColorIndex
 90
       18
102
RTVSPost2010Prop41ColorRGB
 90
        0
102
RTVSPost2010PropOp41
 70
     0
102
RTVSPost2010Prop42
 90
       50
102
RTVSPost2010PropOp42
 70
     0
102
RTVSPost2010Prop43
 90
        3
102
RTVSPost2010PropOp43
 70
     0
102
RTVSPost2010Prop44ColorIndex
 90
        5
102
RTVSPost2010Prop44ColorRGB
 90
      255
102
RTVSPost2010PropOp44
 70
     0
102
RTVSPost2010Prop45
280
     0
102
RTVSPost2010PropOp45
 70
     1
102
RTVSPost2010Prop46
 90
       50
102
RTVSPost2010PropOp46
 70
     0
102
RTVSPost2010Prop47
 90
       50
102
RTVSPost2010PropOp47
 70
     0
102
RTVSPost2010Prop48
 90
       50
102
RTVSPost2010PropOp48
 70
     0
102
RTVSPost2010Prop49
280
     0
102
RTVSPost2010PropOp49
 70
     1
102
RTVSPost2010Prop50
 90
       50
102
RTVSPost2010PropOp50
 70
     0
102
RTVSPost2010Prop51ColorIndex
 90
      256
102
RTVSPost2010Prop51ColorRGB
 90
-16777216
102
RTVSPost2010PropOp51
 70
     0
102
RTVSPost2010Prop52
140
1.0
102
RTVSPost2010PropOp52
 70
     0
102
RTVSPost2010Prop53
 90
        2
102
RTVSPost2010PropOp53
 70
     0
102
RTVSPost2010Prop54
  1
strokes_ogs.tif
102
RTVSPost2010PropOp54
 70
     0
102
RTVSPost2010Prop55
280
     0
102
RTVSPost2010PropOp55
 70
     1
102
RTVSPost2010Prop56
140
1.0
102
RTVSPost2010PropOp56
 70
     0
102
RTVSPost2010Prop57
140
1.0
102
RTVSPost2010PropOp57
 70
     0
102
RTVSPropertyOp0
 70
     0
102
RTVSPropertyOp1
 70
     0
102
RTVSPropertyOp2
 70
     0
102
RTVSPropertyOp3
 70
     0
102
RTVSPropertyOp4
 70
     0
102
RTVSPropertyOp5
 70
     0
102
RTVSPropertyOp6
 70
     0
102
RTVSPropertyOp7
 70
     0
102
RTVSPropertyOp8
 70
     0
102
RTVSPropertyOp9
 70
     0
102
RTVSPropertyOp10
 70
     0
102
RTVSPropertyOp11
 70
     0
102
RTVSPropertyOp12
 70
     0
102
RTVSPropertyOp13
 70
     0
102
RTVSPropertyOp14
 70
     2
102
RTVSPropertyOp15
 70
     0
102
RTVSPropertyOp16
 70
     0
102
RTVSPropertyOp17
 70
     0
102
RTVSPropertyOp18
 70
     0
102
RTVSPropertyOp19
 70
     0
102
RTVSPropertyOp20
 70
     0
102
RTVSPropertyOp21
 70
     0
102
RTVSPropertyOp22
 70
     0
102
RTVSPropertyOp23
 70
     0
102
RTVSPropertyOp24
 70
     0
102
RTVSPropertyOp25
 70
     0
102
RTVSPropertyOp26
 70
     0
102
RTVSPropertyOp27
 70
     0
102
RTVSPropertyOp28
 70
     1
102
RTVSPropertyOp29
 70
     1
102
RTVSPropertyOp30
 70
     1
102
RTVSPropertyOp31
 70
     1
102
RTVSPropertyOp32
 70
     1
102
RTVSPropertyOp33
 70
     1
102
RTVSPropertyOp34
 70
     1
102
RTVSPropertyOp35
 70
     1
102
RTVSPropertyOp36
 70
     1
102
RTVSPropertyOp37
 70
     0
102
RTVSPropertyOp38
 70
     0
102
RTVSPropertyOp39
 70
     0
102
RTVSPropertyOp40
 70
     0
102
RTVSPropertyOp41
 70
     0
102
RTVSPropertyOp42
 70
     0
102
RTVSPropertyOp43
 70
     0
102
RTVSPropertyOp44
 70
     0
102
RTVSPropertyOp45
 70
     1
102
RTVSPropertyOp46
 70
     0
102
RTVSPropertyOp47
 70
     0
102
RTVSPropertyOp48
 70
     0
102
RTVSPropertyOp49
 70
     1
102
RTVSPropertyOp50
 70
     0
102
RTVSPropertyOp51
 70
     0
102
RTVSPropertyOp52
 70
     0
102
RTVSPropertyOp53
 70
     0
102
RTVSPropertyOp54
 70
     0
102
RTVSPropertyOp55
 70
     1
102
RTVSPropertyOp56
 70
     0
102
RTVSPropertyOp57
 70
     0
102
RTVSPropertyOp58
 70
     0
102
RTVSPropertyOp59
 70
     0
102
RTVSPropertyOp60
 70
     0
102
RTVSPropertyOp61
 70
     0
102
RTVSPropertyOp62
 70
     0
  0
XRECORD
  5
BF68
102
{ACAD_REACTORS
330
BF67
102
}
330
BF67
100
AcDbXrecord
280
     1
102
RTVSPost2010Prop28
280
     0
102
RTVSPost2010PropOp28
 70
     1
102
RTVSPost2010Prop29
280
     1
102
RTVSPost2010PropOp29
 70
     1
102
RTVSPost2010Prop30
280
     1
102
RTVSPost2010PropOp30
 70
     1
102
RTVSPost2010Prop31
280
     0
102
RTVSPost2010PropOp31
 70
     1
102
RTVSPost2010Prop32
280
     0
102
RTVSPost2010PropOp32
 70
     1
102
RTVSPost2010Prop33
280
     0
102
RTVSPost2010PropOp33
 70
     1
102
RTVSPost2010Prop34
280
     0
102
RTVSPost2010PropOp34
 70
     1
102
RTVSPost2010Prop35
280
     0
102
RTVSPost2010PropOp35
 70
     1
102
RTVSPost2010Prop36
280
     0
102
RTVSPost2010PropOp36
 70
     1
102
RTVSPost2010Prop37
 90
       50
102
RTVSPost2010PropOp37
 70
     1
102
RTVSPost2010Prop38
140
0.0
102
RTVSPost2010PropOp38
 70
     1
102
RTVSPost2010Prop39
140
1.0
102
RTVSPost2010PropOp39
 70
     1
102
RTVSPost2010Prop40
 90
        0
102
RTVSPost2010PropOp40
 70
     1
102
RTVSPost2010Prop41ColorIndex
 90
       18
102
RTVSPost2010Prop41ColorRGB
 90
        0
102
RTVSPost2010PropOp41
 70
     1
102
RTVSPost2010Prop42
 90
       50
102
RTVSPost2010PropOp42
 70
     1
102
RTVSPost2010Prop43
 90
        3
102
RTVSPost2010PropOp43
 70
     1
102
RTVSPost2010Prop44ColorIndex
 90
        5
102
RTVSPost2010Prop44ColorRGB
 90
      255
102
RTVSPost2010PropOp44
 70
     1
102
RTVSPost2010Prop45
280
     0
102
RTVSPost2010PropOp45
 70
     1
102
RTVSPost2010Prop46
 90
       50
102
RTVSPost2010PropOp46
 70
     1
102
RTVSPost2010Prop47
 90
       50
102
RTVSPost2010PropOp47
 70
     1
102
RTVSPost2010Prop48
 90
       50
102
RTVSPost2010PropOp48
 70
     1
102
RTVSPost2010Prop49
280
     0
102
RTVSPost2010PropOp49
 70
     1
102
RTVSPost2010Prop50
 90
       50
102
RTVSPost2010PropOp50
 70
     1
102
RTVSPost2010Prop51ColorIndex
 90
      256
102
RTVSPost2010Prop51ColorRGB
 90
-16777216
102
RTVSPost2010PropOp51
 70
     0
102
RTVSPost2010Prop52
140
1.0
102
RTVSPost2010PropOp52
 70
     0
102
RTVSPost2010Prop53
 90
        2
102
RTVSPost2010PropOp53
 70
     1
102
RTVSPost2010Prop54
  1
strokes_ogs.tif
102
RTVSPost2010PropOp54
 70
     1
102
RTVSPost2010Prop55
280
     0
102
RTVSPost2010PropOp55
 70
     1
102
RTVSPost2010Prop56
140
1.0
102
RTVSPost2010PropOp56
 70
     1
102
RTVSPost2010Prop57
140
1.0
102
RTVSPost2010PropOp57
 70
     1
102
RTVSPropertyOp0
 70
     1
102
RTVSPropertyOp1
 70
     1
102
RTVSPropertyOp2
 70
     1
102
RTVSPropertyOp3
 70
     1
102
RTVSPropertyOp4
 70
     1
102
RTVSPropertyOp5
 70
     1
102
RTVSPropertyOp6
 70
     1
102
RTVSPropertyOp7
 70
     1
102
RTVSPropertyOp8
 70
     1
102
RTVSPropertyOp9
 70
     1
102
RTVSPropertyOp10
 70
     1
102
RTVSPropertyOp11
 70
     1
102
RTVSPropertyOp12
 70
     1
102
RTVSPropertyOp13
 70
     1
102
RTVSPropertyOp14
 70
     1
102
RTVSPropertyOp15
 70
     1
102
RTVSPropertyOp16
 70
     1
102
RTVSPropertyOp17
 70
     1
102
RTVSPropertyOp18
 70
     1
102
RTVSPropertyOp19
 70
     1
102
RTVSPropertyOp20
 70
     1
102
RTVSPropertyOp21
 70
     1
102
RTVSPropertyOp22
 70
     1
102
RTVSPropertyOp23
 70
     1
102
RTVSPropertyOp24
 70
     1
102
RTVSPropertyOp25
 70
     1
102
RTVSPropertyOp26
 70
     1
102
RTVSPropertyOp27
 70
     1
102
RTVSPropertyOp28
 70
     1
102
RTVSPropertyOp29
 70
     1
102
RTVSPropertyOp30
 70
     1
102
RTVSPropertyOp31
 70
     1
102
RTVSPropertyOp32
 70
     1
102
RTVSPropertyOp33
 70
     1
102
RTVSPropertyOp34
 70
     1
102
RTVSPropertyOp35
 70
     1
102
RTVSPropertyOp36
 70
     1
102
RTVSPropertyOp37
 70
     1
102
RTVSPropertyOp38
 70
     1
102
RTVSPropertyOp39
 70
     1
102
RTVSPropertyOp40
 70
     1
102
RTVSPropertyOp41
 70
     1
102
RTVSPropertyOp42
 70
     1
102
RTVSPropertyOp43
 70
     1
102
RTVSPropertyOp44
 70
     1
102
RTVSPropertyOp45
 70
     1
102
RTVSPropertyOp46
 70
     1
102
RTVSPropertyOp47
 70
     1
102
RTVSPropertyOp48
 70
     1
102
RTVSPropertyOp49
 70
     1
102
RTVSPropertyOp50
 70
     1
102
RTVSPropertyOp51
 70
     0
102
RTVSPropertyOp52
 70
     0
102
RTVSPropertyOp53
 70
     1
102
RTVSPropertyOp54
 70
     1
102
RTVSPropertyOp55
 70
     1
102
RTVSPropertyOp56
 70
     1
102
RTVSPropertyOp57
 70
     1
102
RTVSPropertyOp58
 70
     1
102
RTVSPropertyOp59
 70
     1
102
RTVSPropertyOp60
 70
     1
102
RTVSPropertyOp61
 70
     1
102
RTVSPropertyOp62
 70
     1
  0
XRECORD
  5
BF7E
102
{ACAD_REACTORS
330
BF7D
102
}
330
BF7D
100
AcDbXrecord
280
     1
102
RTVSPost2010Prop28
280
     0
102
RTVSPost2010PropOp28
 70
     1
102
RTVSPost2010Prop29
280
     1
102
RTVSPost2010PropOp29
 70
     1
102
RTVSPost2010Prop30
280
     1
102
RTVSPost2010PropOp30
 70
     1
102
RTVSPost2010Prop31
280
     0
102
RTVSPost2010PropOp31
 70
     1
102
RTVSPost2010Prop32
280
     0
102
RTVSPost2010PropOp32
 70
     1
102
RTVSPost2010Prop33
280
     0
102
RTVSPost2010PropOp33
 70
     1
102
RTVSPost2010Prop34
280
     0
102
RTVSPost2010PropOp34
 70
     1
102
RTVSPost2010Prop35
280
     0
102
RTVSPost2010PropOp35
 70
     1
102
RTVSPost2010Prop36
280
     0
102
RTVSPost2010PropOp36
 70
     1
102
RTVSPost2010Prop37
 90
       50
102
RTVSPost2010PropOp37
 70
     1
102
RTVSPost2010Prop38
140
0.0
102
RTVSPost2010PropOp38
 70
     1
102
RTVSPost2010Prop39
140
1.0
102
RTVSPost2010PropOp39
 70
     1
102
RTVSPost2010Prop40
 90
        0
102
RTVSPost2010PropOp40
 70
     1
102
RTVSPost2010Prop41ColorIndex
 90
       18
102
RTVSPost2010Prop41ColorRGB
 90
        0
102
RTVSPost2010PropOp41
 70
     1
102
RTVSPost2010Prop42
 90
       50
102
RTVSPost2010PropOp42
 70
     1
102
RTVSPost2010Prop43
 90
        3
102
RTVSPost2010PropOp43
 70
     1
102
RTVSPost2010Prop44ColorIndex
 90
        5
102
RTVSPost2010Prop44ColorRGB
 90
      255
102
RTVSPost2010PropOp44
 70
     1
102
RTVSPost2010Prop45
280
     0
102
RTVSPost2010PropOp45
 70
     1
102
RTVSPost2010Prop46
 90
       50
102
RTVSPost2010PropOp46
 70
     1
102
RTVSPost2010Prop47
 90
       50
102
RTVSPost2010PropOp47
 70
     1
102
RTVSPost2010Prop48
 90
       50
102
RTVSPost2010PropOp48
 70
     1
102
RTVSPost2010Prop49
280
     0
102
RTVSPost2010PropOp49
 70
     1
102
RTVSPost2010Prop50
 90
       50
102
RTVSPost2010PropOp50
 70
     1
102
RTVSPost2010Prop51ColorIndex
 90
      256
102
RTVSPost2010Prop51ColorRGB
 90
-16777216
102
RTVSPost2010PropOp51
 70
     0
102
RTVSPost2010Prop52
140
1.0
102
RTVSPost2010PropOp52
 70
     0
102
RTVSPost2010Prop53
 90
        2
102
RTVSPost2010PropOp53
 70
     1
102
RTVSPost2010Prop54
  1
strokes_ogs.tif
102
RTVSPost2010PropOp54
 70
     1
102
RTVSPost2010Prop55
280
     0
102
RTVSPost2010PropOp55
 70
     1
102
RTVSPost2010Prop56
140
1.0
102
RTVSPost2010PropOp56
 70
     1
102
RTVSPost2010Prop57
140
1.0
102
RTVSPost2010PropOp57
 70
     1
102
RTVSPropertyOp0
 70
     1
102
RTVSPropertyOp1
 70
     1
102
RTVSPropertyOp2
 70
     1
102
RTVSPropertyOp3
 70
     1
102
RTVSPropertyOp4
 70
     1
102
RTVSPropertyOp5
 70
     1
102
RTVSPropertyOp6
 70
     1
102
RTVSPropertyOp7
 70
     1
102
RTVSPropertyOp8
 70
     1
102
RTVSPropertyOp9
 70
     1
102
RTVSPropertyOp10
 70
     1
102
RTVSPropertyOp11
 70
     1
102
RTVSPropertyOp12
 70
     1
102
RTVSPropertyOp13
 70
     1
102
RTVSPropertyOp14
 70
     1
102
RTVSPropertyOp15
 70
     1
102
RTVSPropertyOp16
 70
     1
102
RTVSPropertyOp17
 70
     1
102
RTVSPropertyOp18
 70
     1
102
RTVSPropertyOp19
 70
     1
102
RTVSPropertyOp20
 70
     1
102
RTVSPropertyOp21
 70
     1
102
RTVSPropertyOp22
 70
     1
102
RTVSPropertyOp23
 70
     1
102
RTVSPropertyOp24
 70
     1
102
RTVSPropertyOp25
 70
     1
102
RTVSPropertyOp26
 70
     1
102
RTVSPropertyOp27
 70
     1
102
RTVSPropertyOp28
 70
     1
102
RTVSPropertyOp29
 70
     1
102
RTVSPropertyOp30
 70
     1
102
RTVSPropertyOp31
 70
     1
102
RTVSPropertyOp32
 70
     1
102
RTVSPropertyOp33
 70
     1
102
RTVSPropertyOp34
 70
     1
102
RTVSPropertyOp35
 70
     1
102
RTVSPropertyOp36
 70
     1
102
RTVSPropertyOp37
 70
     1
102
RTVSPropertyOp38
 70
     1
102
RTVSPropertyOp39
 70
     1
102
RTVSPropertyOp40
 70
     1
102
RTVSPropertyOp41
 70
     1
102
RTVSPropertyOp42
 70
     1
102
RTVSPropertyOp43
 70
     1
102
RTVSPropertyOp44
 70
     1
102
RTVSPropertyOp45
 70
     1
102
RTVSPropertyOp46
 70
     1
102
RTVSPropertyOp47
 70
     1
102
RTVSPropertyOp48
 70
     1
102
RTVSPropertyOp49
 70
     1
102
RTVSPropertyOp50
 70
     1
102
RTVSPropertyOp51
 70
     0
102
RTVSPropertyOp52
 70
     0
102
RTVSPropertyOp53
 70
     1
102
RTVSPropertyOp54
 70
     1
102
RTVSPropertyOp55
 70
     1
102
RTVSPropertyOp56
 70
     1
102
RTVSPropertyOp57
 70
     1
102
RTVSPropertyOp58
 70
     1
102
RTVSPropertyOp59
 70
     1
102
RTVSPropertyOp60
 70
     1
102
RTVSPropertyOp61
 70
     1
102
RTVSPropertyOp62
 70
     1
  0
XRECORD
  5
BF7C
102
{ACAD_REACTORS
330
BF7B
102
}
330
BF7B
100
AcDbXrecord
280
     1
102
RTVSPost2010Prop28
280
     0
102
RTVSPost2010PropOp28
 70
     1
102
RTVSPost2010Prop29
280
     1
102
RTVSPost2010PropOp29
 70
     1
102
RTVSPost2010Prop30
280
     1
102
RTVSPost2010PropOp30
 70
     1
102
RTVSPost2010Prop31
280
     0
102
RTVSPost2010PropOp31
 70
     1
102
RTVSPost2010Prop32
280
     0
102
RTVSPost2010PropOp32
 70
     1
102
RTVSPost2010Prop33
280
     0
102
RTVSPost2010PropOp33
 70
     1
102
RTVSPost2010Prop34
280
     0
102
RTVSPost2010PropOp34
 70
     1
102
RTVSPost2010Prop35
280
     0
102
RTVSPost2010PropOp35
 70
     1
102
RTVSPost2010Prop36
280
     0
102
RTVSPost2010PropOp36
 70
     1
102
RTVSPost2010Prop37
 90
       50
102
RTVSPost2010PropOp37
 70
     1
102
RTVSPost2010Prop38
140
0.0
102
RTVSPost2010PropOp38
 70
     1
102
RTVSPost2010Prop39
140
1.0
102
RTVSPost2010PropOp39
 70
     1
102
RTVSPost2010Prop40
 90
        0
102
RTVSPost2010PropOp40
 70
     1
102
RTVSPost2010Prop41ColorIndex
 90
       18
102
RTVSPost2010Prop41ColorRGB
 90
        0
102
RTVSPost2010PropOp41
 70
     1
102
RTVSPost2010Prop42
 90
       50
102
RTVSPost2010PropOp42
 70
     1
102
RTVSPost2010Prop43
 90
        3
102
RTVSPost2010PropOp43
 70
     1
102
RTVSPost2010Prop44ColorIndex
 90
        5
102
RTVSPost2010Prop44ColorRGB
 90
      255
102
RTVSPost2010PropOp44
 70
     1
102
RTVSPost2010Prop45
280
     0
102
RTVSPost2010PropOp45
 70
     1
102
RTVSPost2010Prop46
 90
       50
102
RTVSPost2010PropOp46
 70
     1
102
RTVSPost2010Prop47
 90
       50
102
RTVSPost2010PropOp47
 70
     1
102
RTVSPost2010Prop48
 90
       50
102
RTVSPost2010PropOp48
 70
     1
102
RTVSPost2010Prop49
280
     0
102
RTVSPost2010PropOp49
 70
     1
102
RTVSPost2010Prop50
 90
       50
102
RTVSPost2010PropOp50
 70
     1
102
RTVSPost2010Prop51ColorIndex
 90
      256
102
RTVSPost2010Prop51ColorRGB
 90
-16777216
102
RTVSPost2010PropOp51
 70
     0
102
RTVSPost2010Prop52
140
1.0
102
RTVSPost2010PropOp52
 70
     0
102
RTVSPost2010Prop53
 90
        2
102
RTVSPost2010PropOp53
 70
     1
102
RTVSPost2010Prop54
  1
strokes_ogs.tif
102
RTVSPost2010PropOp54
 70
     1
102
RTVSPost2010Prop55
280
     0
102
RTVSPost2010PropOp55
 70
     1
102
RTVSPost2010Prop56
140
1.0
102
RTVSPost2010PropOp56
 70
     1
102
RTVSPost2010Prop57
140
1.0
102
RTVSPost2010PropOp57
 70
     1
102
RTVSPropertyOp0
 70
     1
102
RTVSPropertyOp1
 70
     1
102
RTVSPropertyOp2
 70
     1
102
RTVSPropertyOp3
 70
     1
102
RTVSPropertyOp4
 70
     1
102
RTVSPropertyOp5
 70
     1
102
RTVSPropertyOp6
 70
     1
102
RTVSPropertyOp7
 70
     1
102
RTVSPropertyOp8
 70
     1
102
RTVSPropertyOp9
 70
     1
102
RTVSPropertyOp10
 70
     1
102
RTVSPropertyOp11
 70
     1
102
RTVSPropertyOp12
 70
     1
102
RTVSPropertyOp13
 70
     1
102
RTVSPropertyOp14
 70
     1
102
RTVSPropertyOp15
 70
     1
102
RTVSPropertyOp16
 70
     1
102
RTVSPropertyOp17
 70
     1
102
RTVSPropertyOp18
 70
     1
102
RTVSPropertyOp19
 70
     1
102
RTVSPropertyOp20
 70
     1
102
RTVSPropertyOp21
 70
     1
102
RTVSPropertyOp22
 70
     1
102
RTVSPropertyOp23
 70
     1
102
RTVSPropertyOp24
 70
     1
102
RTVSPropertyOp25
 70
     1
102
RTVSPropertyOp26
 70
     1
102
RTVSPropertyOp27
 70
     1
102
RTVSPropertyOp28
 70
     1
102
RTVSPropertyOp29
 70
     1
102
RTVSPropertyOp30
 70
     1
102
RTVSPropertyOp31
 70
     1
102
RTVSPropertyOp32
 70
     1
102
RTVSPropertyOp33
 70
     1
102
RTVSPropertyOp34
 70
     1
102
RTVSPropertyOp35
 70
     1
102
RTVSPropertyOp36
 70
     1
102
RTVSPropertyOp37
 70
     1
102
RTVSPropertyOp38
 70
     1
102
RTVSPropertyOp39
 70
     1
102
RTVSPropertyOp40
 70
     1
102
RTVSPropertyOp41
 70
     1
102
RTVSPropertyOp42
 70
     1
102
RTVSPropertyOp43
 70
     1
102
RTVSPropertyOp44
 70
     1
102
RTVSPropertyOp45
 70
     1
102
RTVSPropertyOp46
 70
     1
102
RTVSPropertyOp47
 70
     1
102
RTVSPropertyOp48
 70
     1
102
RTVSPropertyOp49
 70
     1
102
RTVSPropertyOp50
 70
     1
102
RTVSPropertyOp51
 70
     0
102
RTVSPropertyOp52
 70
     0
102
RTVSPropertyOp53
 70
     1
102
RTVSPropertyOp54
 70
     1
102
RTVSPropertyOp55
 70
     1
102
RTVSPropertyOp56
 70
     1
102
RTVSPropertyOp57
 70
     1
102
RTVSPropertyOp58
 70
     1
102
RTVSPropertyOp59
 70
     1
102
RTVSPropertyOp60
 70
     1
102
RTVSPropertyOp61
 70
     1
102
RTVSPropertyOp62
 70
     1
  0
XRECORD
  5
BF76
102
{ACAD_REACTORS
330
BF75
102
}
330
BF75
100
AcDbXrecord
280
     1
102
RTVSPost2010Prop28
280
     0
102
RTVSPost2010PropOp28
 70
     1
102
RTVSPost2010Prop29
280
     1
102
RTVSPost2010PropOp29
 70
     1
102
RTVSPost2010Prop30
280
     1
102
RTVSPost2010PropOp30
 70
     1
102
RTVSPost2010Prop31
280
     0
102
RTVSPost2010PropOp31
 70
     1
102
RTVSPost2010Prop32
280
     0
102
RTVSPost2010PropOp32
 70
     1
102
RTVSPost2010Prop33
280
     0
102
RTVSPost2010PropOp33
 70
     1
102
RTVSPost2010Prop34
280
     0
102
RTVSPost2010PropOp34
 70
     1
102
RTVSPost2010Prop35
280
     0
102
RTVSPost2010PropOp35
 70
     1
102
RTVSPost2010Prop36
280
     0
102
RTVSPost2010PropOp36
 70
     1
102
RTVSPost2010Prop37
 90
       50
102
RTVSPost2010PropOp37
 70
     1
102
RTVSPost2010Prop38
140
0.0
102
RTVSPost2010PropOp38
 70
     1
102
RTVSPost2010Prop39
140
1.0
102
RTVSPost2010PropOp39
 70
     1
102
RTVSPost2010Prop40
 90
        0
102
RTVSPost2010PropOp40
 70
     1
102
RTVSPost2010Prop41ColorIndex
 90
       18
102
RTVSPost2010Prop41ColorRGB
 90
        0
102
RTVSPost2010PropOp41
 70
     1
102
RTVSPost2010Prop42
 90
       50
102
RTVSPost2010PropOp42
 70
     1
102
RTVSPost2010Prop43
 90
        3
102
RTVSPost2010PropOp43
 70
     1
102
RTVSPost2010Prop44ColorIndex
 90
        5
102
RTVSPost2010Prop44ColorRGB
 90
      255
102
RTVSPost2010PropOp44
 70
     1
102
RTVSPost2010Prop45
280
     0
102
RTVSPost2010PropOp45
 70
     1
102
RTVSPost2010Prop46
 90
       50
102
RTVSPost2010PropOp46
 70
     1
102
RTVSPost2010Prop47
 90
       50
102
RTVSPost2010PropOp47
 70
     1
102
RTVSPost2010Prop48
 90
       50
102
RTVSPost2010PropOp48
 70
     1
102
RTVSPost2010Prop49
280
     0
102
RTVSPost2010PropOp49
 70
     1
102
RTVSPost2010Prop50
 90
       50
102
RTVSPost2010PropOp50
 70
     1
102
RTVSPost2010Prop51ColorIndex
 90
      256
102
RTVSPost2010Prop51ColorRGB
 90
-16777216
102
RTVSPost2010PropOp51
 70
     0
102
RTVSPost2010Prop52
140
1.0
102
RTVSPost2010PropOp52
 70
     0
102
RTVSPost2010Prop53
 90
        2
102
RTVSPost2010PropOp53
 70
     1
102
RTVSPost2010Prop54
  1
strokes_ogs.tif
102
RTVSPost2010PropOp54
 70
     1
102
RTVSPost2010Prop55
280
     0
102
RTVSPost2010PropOp55
 70
     1
102
RTVSPost2010Prop56
140
1.0
102
RTVSPost2010PropOp56
 70
     1
102
RTVSPost2010Prop57
140
1.0
102
RTVSPost2010PropOp57
 70
     1
102
RTVSPropertyOp0
 70
     1
102
RTVSPropertyOp1
 70
     1
102
RTVSPropertyOp2
 70
     1
102
RTVSPropertyOp3
 70
     1
102
RTVSPropertyOp4
 70
     1
102
RTVSPropertyOp5
 70
     1
102
RTVSPropertyOp6
 70
     1
102
RTVSPropertyOp7
 70
     1
102
RTVSPropertyOp8
 70
     1
102
RTVSPropertyOp9
 70
     1
102
RTVSPropertyOp10
 70
     1
102
RTVSPropertyOp11
 70
     1
102
RTVSPropertyOp12
 70
     1
102
RTVSPropertyOp13
 70
     1
102
RTVSPropertyOp14
 70
     1
102
RTVSPropertyOp15
 70
     1
102
RTVSPropertyOp16
 70
     1
102
RTVSPropertyOp17
 70
     1
102
RTVSPropertyOp18
 70
     1
102
RTVSPropertyOp19
 70
     1
102
RTVSPropertyOp20
 70
     1
102
RTVSPropertyOp21
 70
     1
102
RTVSPropertyOp22
 70
     1
102
RTVSPropertyOp23
 70
     1
102
RTVSPropertyOp24
 70
     1
102
RTVSPropertyOp25
 70
     1
102
RTVSPropertyOp26
 70
     1
102
RTVSPropertyOp27
 70
     1
102
RTVSPropertyOp28
 70
     1
102
RTVSPropertyOp29
 70
     1
102
RTVSPropertyOp30
 70
     1
102
RTVSPropertyOp31
 70
     1
102
RTVSPropertyOp32
 70
     1
102
RTVSPropertyOp33
 70
     1
102
RTVSPropertyOp34
 70
     1
102
RTVSPropertyOp35
 70
     1
102
RTVSPropertyOp36
 70
     1
102
RTVSPropertyOp37
 70
     1
102
RTVSPropertyOp38
 70
     1
102
RTVSPropertyOp39
 70
     1
102
RTVSPropertyOp40
 70
     1
102
RTVSPropertyOp41
 70
     1
102
RTVSPropertyOp42
 70
     1
102
RTVSPropertyOp43
 70
     1
102
RTVSPropertyOp44
 70
     1
102
RTVSPropertyOp45
 70
     1
102
RTVSPropertyOp46
 70
     1
102
RTVSPropertyOp47
 70
     1
102
RTVSPropertyOp48
 70
     1
102
RTVSPropertyOp49
 70
     1
102
RTVSPropertyOp50
 70
     1
102
RTVSPropertyOp51
 70
     0
102
RTVSPropertyOp52
 70
     0
102
RTVSPropertyOp53
 70
     1
102
RTVSPropertyOp54
 70
     1
102
RTVSPropertyOp55
 70
     1
102
RTVSPropertyOp56
 70
     1
102
RTVSPropertyOp57
 70
     1
102
RTVSPropertyOp58
 70
     1
102
RTVSPropertyOp59
 70
     1
102
RTVSPropertyOp60
 70
     1
102
RTVSPropertyOp61
 70
     1
102
RTVSPropertyOp62
 70
     1
  0
XRECORD
  5
BF78
102
{ACAD_REACTORS
330
BF77
102
}
330
BF77
100
AcDbXrecord
280
     1
102
RTVSPost2010Prop28
280
     0
102
RTVSPost2010PropOp28
 70
     1
102
RTVSPost2010Prop29
280
     1
102
RTVSPost2010PropOp29
 70
     1
102
RTVSPost2010Prop30
280
     1
102
RTVSPost2010PropOp30
 70
     1
102
RTVSPost2010Prop31
280
     0
102
RTVSPost2010PropOp31
 70
     1
102
RTVSPost2010Prop32
280
     0
102
RTVSPost2010PropOp32
 70
     1
102
RTVSPost2010Prop33
280
     0
102
RTVSPost2010PropOp33
 70
     1
102
RTVSPost2010Prop34
280
     0
102
RTVSPost2010PropOp34
 70
     1
102
RTVSPost2010Prop35
280
     0
102
RTVSPost2010PropOp35
 70
     1
102
RTVSPost2010Prop36
280
     0
102
RTVSPost2010PropOp36
 70
     1
102
RTVSPost2010Prop37
 90
       50
102
RTVSPost2010PropOp37
 70
     1
102
RTVSPost2010Prop38
140
0.0
102
RTVSPost2010PropOp38
 70
     1
102
RTVSPost2010Prop39
140
1.0
102
RTVSPost2010PropOp39
 70
     1
102
RTVSPost2010Prop40
 90
        0
102
RTVSPost2010PropOp40
 70
     1
102
RTVSPost2010Prop41ColorIndex
 90
       18
102
RTVSPost2010Prop41ColorRGB
 90
        0
102
RTVSPost2010PropOp41
 70
     1
102
RTVSPost2010Prop42
 90
       50
102
RTVSPost2010PropOp42
 70
     1
102
RTVSPost2010Prop43
 90
        3
102
RTVSPost2010PropOp43
 70
     1
102
RTVSPost2010Prop44ColorIndex
 90
        5
102
RTVSPost2010Prop44ColorRGB
 90
      255
102
RTVSPost2010PropOp44
 70
     1
102
RTVSPost2010Prop45
280
     0
102
RTVSPost2010PropOp45
 70
     1
102
RTVSPost2010Prop46
 90
       50
102
RTVSPost2010PropOp46
 70
     1
102
RTVSPost2010Prop47
 90
       50
102
RTVSPost2010PropOp47
 70
     1
102
RTVSPost2010Prop48
 90
       50
102
RTVSPost2010PropOp48
 70
     1
102
RTVSPost2010Prop49
280
     0
102
RTVSPost2010PropOp49
 70
     1
102
RTVSPost2010Prop50
 90
       50
102
RTVSPost2010PropOp50
 70
     1
102
RTVSPost2010Prop51ColorIndex
 90
      256
102
RTVSPost2010Prop51ColorRGB
 90
-16777216
102
RTVSPost2010PropOp51
 70
     0
102
RTVSPost2010Prop52
140
1.0
102
RTVSPost2010PropOp52
 70
     0
102
RTVSPost2010Prop53
 90
        2
102
RTVSPost2010PropOp53
 70
     1
102
RTVSPost2010Prop54
  1
strokes_ogs.tif
102
RTVSPost2010PropOp54
 70
     1
102
RTVSPost2010Prop55
280
     0
102
RTVSPost2010PropOp55
 70
     1
102
RTVSPost2010Prop56
140
1.0
102
RTVSPost2010PropOp56
 70
     1
102
RTVSPost2010Prop57
140
1.0
102
RTVSPost2010PropOp57
 70
     1
102
RTVSPropertyOp0
 70
     1
102
RTVSPropertyOp1
 70
     1
102
RTVSPropertyOp2
 70
     1
102
RTVSPropertyOp3
 70
     1
102
RTVSPropertyOp4
 70
     1
102
RTVSPropertyOp5
 70
     1
102
RTVSPropertyOp6
 70
     1
102
RTVSPropertyOp7
 70
     1
102
RTVSPropertyOp8
 70
     1
102
RTVSPropertyOp9
 70
     1
102
RTVSPropertyOp10
 70
     1
102
RTVSPropertyOp11
 70
     1
102
RTVSPropertyOp12
 70
     1
102
RTVSPropertyOp13
 70
     1
102
RTVSPropertyOp14
 70
     1
102
RTVSPropertyOp15
 70
     1
102
RTVSPropertyOp16
 70
     1
102
RTVSPropertyOp17
 70
     1
102
RTVSPropertyOp18
 70
     1
102
RTVSPropertyOp19
 70
     1
102
RTVSPropertyOp20
 70
     1
102
RTVSPropertyOp21
 70
     1
102
RTVSPropertyOp22
 70
     1
102
RTVSPropertyOp23
 70
     1
102
RTVSPropertyOp24
 70
     1
102
RTVSPropertyOp25
 70
     1
102
RTVSPropertyOp26
 70
     1
102
RTVSPropertyOp27
 70
     1
102
RTVSPropertyOp28
 70
     1
102
RTVSPropertyOp29
 70
     1
102
RTVSPropertyOp30
 70
     1
102
RTVSPropertyOp31
 70
     1
102
RTVSPropertyOp32
 70
     1
102
RTVSPropertyOp33
 70
     1
102
RTVSPropertyOp34
 70
     1
102
RTVSPropertyOp35
 70
     1
102
RTVSPropertyOp36
 70
     1
102
RTVSPropertyOp37
 70
     1
102
RTVSPropertyOp38
 70
     1
102
RTVSPropertyOp39
 70
     1
102
RTVSPropertyOp40
 70
     1
102
RTVSPropertyOp41
 70
     1
102
RTVSPropertyOp42
 70
     1
102
RTVSPropertyOp43
 70
     1
102
RTVSPropertyOp44
 70
     1
102
RTVSPropertyOp45
 70
     1
102
RTVSPropertyOp46
 70
     1
102
RTVSPropertyOp47
 70
     1
102
RTVSPropertyOp48
 70
     1
102
RTVSPropertyOp49
 70
     1
102
RTVSPropertyOp50
 70
     1
102
RTVSPropertyOp51
 70
     0
102
RTVSPropertyOp52
 70
     0
102
RTVSPropertyOp53
 70
     1
102
RTVSPropertyOp54
 70
     1
102
RTVSPropertyOp55
 70
     1
102
RTVSPropertyOp56
 70
     1
102
RTVSPropertyOp57
 70
     1
102
RTVSPropertyOp58
 70
     1
102
RTVSPropertyOp59
 70
     1
102
RTVSPropertyOp60
 70
     1
102
RTVSPropertyOp61
 70
     1
102
RTVSPropertyOp62
 70
     1
  0
XRECORD
  5
BF6E
102
{ACAD_REACTORS
330
BF6D
102
}
330
BF6D
100
AcDbXrecord
280
     1
102
RTVSPost2010Prop28
280
     0
102
RTVSPost2010PropOp28
 70
     1
102
RTVSPost2010Prop29
280
     1
102
RTVSPost2010PropOp29
 70
     1
102
RTVSPost2010Prop30
280
     1
102
RTVSPost2010PropOp30
 70
     1
102
RTVSPost2010Prop31
280
     0
102
RTVSPost2010PropOp31
 70
     1
102
RTVSPost2010Prop32
280
     0
102
RTVSPost2010PropOp32
 70
     1
102
RTVSPost2010Prop33
280
     0
102
RTVSPost2010PropOp33
 70
     1
102
RTVSPost2010Prop34
280
     0
102
RTVSPost2010PropOp34
 70
     1
102
RTVSPost2010Prop35
280
     0
102
RTVSPost2010PropOp35
 70
     1
102
RTVSPost2010Prop36
280
     0
102
RTVSPost2010PropOp36
 70
     1
102
RTVSPost2010Prop37
 90
       50
102
RTVSPost2010PropOp37
 70
     1
102
RTVSPost2010Prop38
140
0.0
102
RTVSPost2010PropOp38
 70
     1
102
RTVSPost2010Prop39
140
1.0
102
RTVSPost2010PropOp39
 70
     1
102
RTVSPost2010Prop40
 90
        0
102
RTVSPost2010PropOp40
 70
     1
102
RTVSPost2010Prop41ColorIndex
 90
       18
102
RTVSPost2010Prop41ColorRGB
 90
        0
102
RTVSPost2010PropOp41
 70
     1
102
RTVSPost2010Prop42
 90
       50
102
RTVSPost2010PropOp42
 70
     1
102
RTVSPost2010Prop43
 90
        3
102
RTVSPost2010PropOp43
 70
     1
102
RTVSPost2010Prop44ColorIndex
 90
        5
102
RTVSPost2010Prop44ColorRGB
 90
      255
102
RTVSPost2010PropOp44
 70
     1
102
RTVSPost2010Prop45
280
     0
102
RTVSPost2010PropOp45
 70
     1
102
RTVSPost2010Prop46
 90
       50
102
RTVSPost2010PropOp46
 70
     1
102
RTVSPost2010Prop47
 90
       50
102
RTVSPost2010PropOp47
 70
     1
102
RTVSPost2010Prop48
 90
       50
102
RTVSPost2010PropOp48
 70
     1
102
RTVSPost2010Prop49
280
     0
102
RTVSPost2010PropOp49
 70
     1
102
RTVSPost2010Prop50
 90
       50
102
RTVSPost2010PropOp50
 70
     1
102
RTVSPost2010Prop51ColorIndex
 90
      256
102
RTVSPost2010Prop51ColorRGB
 90
-16777216
102
RTVSPost2010PropOp51
 70
     0
102
RTVSPost2010Prop52
140
1.0
102
RTVSPost2010PropOp52
 70
     0
102
RTVSPost2010Prop53
 90
        2
102
RTVSPost2010PropOp53
 70
     1
102
RTVSPost2010Prop54
  1
strokes_ogs.tif
102
RTVSPost2010PropOp54
 70
     1
102
RTVSPost2010Prop55
280
     0
102
RTVSPost2010PropOp55
 70
     1
102
RTVSPost2010Prop56
140
1.0
102
RTVSPost2010PropOp56
 70
     1
102
RTVSPost2010Prop57
140
1.0
102
RTVSPost2010PropOp57
 70
     1
102
RTVSPropertyOp0
 70
     1
102
RTVSPropertyOp1
 70
     1
102
RTVSPropertyOp2
 70
     1
102
RTVSPropertyOp3
 70
     1
102
RTVSPropertyOp4
 70
     1
102
RTVSPropertyOp5
 70
     1
102
RTVSPropertyOp6
 70
     1
102
RTVSPropertyOp7
 70
     1
102
RTVSPropertyOp8
 70
     1
102
RTVSPropertyOp9
 70
     1
102
RTVSPropertyOp10
 70
     1
102
RTVSPropertyOp11
 70
     1
102
RTVSPropertyOp12
 70
     1
102
RTVSPropertyOp13
 70
     1
102
RTVSPropertyOp14
 70
     1
102
RTVSPropertyOp15
 70
     1
102
RTVSPropertyOp16
 70
     1
102
RTVSPropertyOp17
 70
     1
102
RTVSPropertyOp18
 70
     1
102
RTVSPropertyOp19
 70
     1
102
RTVSPropertyOp20
 70
     1
102
RTVSPropertyOp21
 70
     1
102
RTVSPropertyOp22
 70
     1
102
RTVSPropertyOp23
 70
     1
102
RTVSPropertyOp24
 70
     1
102
RTVSPropertyOp25
 70
     1
102
RTVSPropertyOp26
 70
     1
102
RTVSPropertyOp27
 70
     1
102
RTVSPropertyOp28
 70
     1
102
RTVSPropertyOp29
 70
     1
102
RTVSPropertyOp30
 70
     1
102
RTVSPropertyOp31
 70
     1
102
RTVSPropertyOp32
 70
     1
102
RTVSPropertyOp33
 70
     1
102
RTVSPropertyOp34
 70
     1
102
RTVSPropertyOp35
 70
     1
102
RTVSPropertyOp36
 70
     1
102
RTVSPropertyOp37
 70
     1
102
RTVSPropertyOp38
 70
     1
102
RTVSPropertyOp39
 70
     1
102
RTVSPropertyOp40
 70
     1
102
RTVSPropertyOp41
 70
     1
102
RTVSPropertyOp42
 70
     1
102
RTVSPropertyOp43
 70
     1
102
RTVSPropertyOp44
 70
     1
102
RTVSPropertyOp45
 70
     1
102
RTVSPropertyOp46
 70
     1
102
RTVSPropertyOp47
 70
     1
102
RTVSPropertyOp48
 70
     1
102
RTVSPropertyOp49
 70
     1
102
RTVSPropertyOp50
 70
     1
102
RTVSPropertyOp51
 70
     0
102
RTVSPropertyOp52
 70
     0
102
RTVSPropertyOp53
 70
     1
102
RTVSPropertyOp54
 70
     1
102
RTVSPropertyOp55
 70
     1
102
RTVSPropertyOp56
 70
     1
102
RTVSPropertyOp57
 70
     1
102
RTVSPropertyOp58
 70
     1
102
RTVSPropertyOp59
 70
     1
102
RTVSPropertyOp60
 70
     1
102
RTVSPropertyOp61
 70
     1
102
RTVSPropertyOp62
 70
     1
  0
XRECORD
  5
BF62
102
{ACAD_REACTORS
330
BF61
102
}
330
BF61
100
AcDbXrecord
280
     1
102
RTVSPost2010Prop28
280
     0
102
RTVSPost2010PropOp28
 70
     1
102
RTVSPost2010Prop29
280
     1
102
RTVSPost2010PropOp29
 70
     1
102
RTVSPost2010Prop30
280
     1
102
RTVSPost2010PropOp30
 70
     1
102
RTVSPost2010Prop31
280
     0
102
RTVSPost2010PropOp31
 70
     1
102
RTVSPost2010Prop32
280
     0
102
RTVSPost2010PropOp32
 70
     1
102
RTVSPost2010Prop33
280
     0
102
RTVSPost2010PropOp33
 70
     1
102
RTVSPost2010Prop34
280
     0
102
RTVSPost2010PropOp34
 70
     1
102
RTVSPost2010Prop35
280
     0
102
RTVSPost2010PropOp35
 70
     1
102
RTVSPost2010Prop36
280
     0
102
RTVSPost2010PropOp36
 70
     1
102
RTVSPost2010Prop37
 90
       50
102
RTVSPost2010PropOp37
 70
     1
102
RTVSPost2010Prop38
140
0.0
102
RTVSPost2010PropOp38
 70
     1
102
RTVSPost2010Prop39
140
1.0
102
RTVSPost2010PropOp39
 70
     1
102
RTVSPost2010Prop40
 90
        0
102
RTVSPost2010PropOp40
 70
     1
102
RTVSPost2010Prop41ColorIndex
 90
       18
102
RTVSPost2010Prop41ColorRGB
 90
        0
102
RTVSPost2010PropOp41
 70
     1
102
RTVSPost2010Prop42
 90
       50
102
RTVSPost2010PropOp42
 70
     1
102
RTVSPost2010Prop43
 90
        3
102
RTVSPost2010PropOp43
 70
     1
102
RTVSPost2010Prop44ColorIndex
 90
        5
102
RTVSPost2010Prop44ColorRGB
 90
      255
102
RTVSPost2010PropOp44
 70
     1
102
RTVSPost2010Prop45
280
     0
102
RTVSPost2010PropOp45
 70
     1
102
RTVSPost2010Prop46
 90
       50
102
RTVSPost2010PropOp46
 70
     1
102
RTVSPost2010Prop47
 90
       50
102
RTVSPost2010PropOp47
 70
     1
102
RTVSPost2010Prop48
 90
       50
102
RTVSPost2010PropOp48
 70
     1
102
RTVSPost2010Prop49
280
     0
102
RTVSPost2010PropOp49
 70
     1
102
RTVSPost2010Prop50
 90
       50
102
RTVSPost2010PropOp50
 70
     1
102
RTVSPost2010Prop51ColorIndex
 90
      256
102
RTVSPost2010Prop51ColorRGB
 90
-16777216
102
RTVSPost2010PropOp51
 70
     0
102
RTVSPost2010Prop52
140
1.0
102
RTVSPost2010PropOp52
 70
     0
102
RTVSPost2010Prop53
 90
        2
102
RTVSPost2010PropOp53
 70
     1
102
RTVSPost2010Prop54
  1
strokes_ogs.tif
102
RTVSPost2010PropOp54
 70
     1
102
RTVSPost2010Prop55
280
     0
102
RTVSPost2010PropOp55
 70
     1
102
RTVSPost2010Prop56
140
1.0
102
RTVSPost2010PropOp56
 70
     1
102
RTVSPost2010Prop57
140
1.0
102
RTVSPost2010PropOp57
 70
     1
102
RTVSPropertyOp0
 70
     1
102
RTVSPropertyOp1
 70
     1
102
RTVSPropertyOp2
 70
     1
102
RTVSPropertyOp3
 70
     1
102
RTVSPropertyOp4
 70
     1
102
RTVSPropertyOp5
 70
     1
102
RTVSPropertyOp6
 70
     1
102
RTVSPropertyOp7
 70
     1
102
RTVSPropertyOp8
 70
     1
102
RTVSPropertyOp9
 70
     1
102
RTVSPropertyOp10
 70
     1
102
RTVSPropertyOp11
 70
     1
102
RTVSPropertyOp12
 70
     1
102
RTVSPropertyOp13
 70
     1
102
RTVSPropertyOp14
 70
     1
102
RTVSPropertyOp15
 70
     1
102
RTVSPropertyOp16
 70
     1
102
RTVSPropertyOp17
 70
     1
102
RTVSPropertyOp18
 70
     1
102
RTVSPropertyOp19
 70
     1
102
RTVSPropertyOp20
 70
     1
102
RTVSPropertyOp21
 70
     1
102
RTVSPropertyOp22
 70
     1
102
RTVSPropertyOp23
 70
     1
102
RTVSPropertyOp24
 70
     1
102
RTVSPropertyOp25
 70
     1
102
RTVSPropertyOp26
 70
     1
102
RTVSPropertyOp27
 70
     1
102
RTVSPropertyOp28
 70
     1
102
RTVSPropertyOp29
 70
     1
102
RTVSPropertyOp30
 70
     1
102
RTVSPropertyOp31
 70
     1
102
RTVSPropertyOp32
 70
     1
102
RTVSPropertyOp33
 70
     1
102
RTVSPropertyOp34
 70
     1
102
RTVSPropertyOp35
 70
     1
102
RTVSPropertyOp36
 70
     1
102
RTVSPropertyOp37
 70
     1
102
RTVSPropertyOp38
 70
     1
102
RTVSPropertyOp39
 70
     1
102
RTVSPropertyOp40
 70
     1
102
RTVSPropertyOp41
 70
     1
102
RTVSPropertyOp42
 70
     1
102
RTVSPropertyOp43
 70
     1
102
RTVSPropertyOp44
 70
     1
102
RTVSPropertyOp45
 70
     1
102
RTVSPropertyOp46
 70
     1
102
RTVSPropertyOp47
 70
     1
102
RTVSPropertyOp48
 70
     1
102
RTVSPropertyOp49
 70
     1
102
RTVSPropertyOp50
 70
     1
102
RTVSPropertyOp51
 70
     0
102
RTVSPropertyOp52
 70
     0
102
RTVSPropertyOp53
 70
     1
102
RTVSPropertyOp54
 70
     1
102
RTVSPropertyOp55
 70
     1
102
RTVSPropertyOp56
 70
     1
102
RTVSPropertyOp57
 70
     1
102
RTVSPropertyOp58
 70
     1
102
RTVSPropertyOp59
 70
     1
102
RTVSPropertyOp60
 70
     1
102
RTVSPropertyOp61
 70
     1
102
RTVSPropertyOp62
 70
     1
  0
XRECORD
  5
BF7A
102
{ACAD_REACTORS
330
BF79
102
}
330
BF79
100
AcDbXrecord
280
     1
102
RTVSPost2010Prop28
280
     0
102
RTVSPost2010PropOp28
 70
     1
102
RTVSPost2010Prop29
280
     1
102
RTVSPost2010PropOp29
 70
     1
102
RTVSPost2010Prop30
280
     1
102
RTVSPost2010PropOp30
 70
     1
102
RTVSPost2010Prop31
280
     0
102
RTVSPost2010PropOp31
 70
     1
102
RTVSPost2010Prop32
280
     0
102
RTVSPost2010PropOp32
 70
     1
102
RTVSPost2010Prop33
280
     0
102
RTVSPost2010PropOp33
 70
     1
102
RTVSPost2010Prop34
280
     0
102
RTVSPost2010PropOp34
 70
     1
102
RTVSPost2010Prop35
280
     0
102
RTVSPost2010PropOp35
 70
     1
102
RTVSPost2010Prop36
280
     0
102
RTVSPost2010PropOp36
 70
     1
102
RTVSPost2010Prop37
 90
       50
102
RTVSPost2010PropOp37
 70
     1
102
RTVSPost2010Prop38
140
0.0
102
RTVSPost2010PropOp38
 70
     1
102
RTVSPost2010Prop39
140
1.0
102
RTVSPost2010PropOp39
 70
     1
102
RTVSPost2010Prop40
 90
        0
102
RTVSPost2010PropOp40
 70
     1
102
RTVSPost2010Prop41ColorIndex
 90
       18
102
RTVSPost2010Prop41ColorRGB
 90
        0
102
RTVSPost2010PropOp41
 70
     1
102
RTVSPost2010Prop42
 90
       50
102
RTVSPost2010PropOp42
 70
     1
102
RTVSPost2010Prop43
 90
        3
102
RTVSPost2010PropOp43
 70
     1
102
RTVSPost2010Prop44ColorIndex
 90
        5
102
RTVSPost2010Prop44ColorRGB
 90
      255
102
RTVSPost2010PropOp44
 70
     1
102
RTVSPost2010Prop45
280
     0
102
RTVSPost2010PropOp45
 70
     1
102
RTVSPost2010Prop46
 90
       50
102
RTVSPost2010PropOp46
 70
     1
102
RTVSPost2010Prop47
 90
       50
102
RTVSPost2010PropOp47
 70
     1
102
RTVSPost2010Prop48
 90
       50
102
RTVSPost2010PropOp48
 70
     1
102
RTVSPost2010Prop49
280
     0
102
RTVSPost2010PropOp49
 70
     1
102
RTVSPost2010Prop50
 90
       50
102
RTVSPost2010PropOp50
 70
     1
102
RTVSPost2010Prop51ColorIndex
 90
      256
102
RTVSPost2010Prop51ColorRGB
 90
-16777216
102
RTVSPost2010PropOp51
 70
     0
102
RTVSPost2010Prop52
140
1.0
102
RTVSPost2010PropOp52
 70
     0
102
RTVSPost2010Prop53
 90
        2
102
RTVSPost2010PropOp53
 70
     1
102
RTVSPost2010Prop54
  1
strokes_ogs.tif
102
RTVSPost2010PropOp54
 70
     1
102
RTVSPost2010Prop55
280
     0
102
RTVSPost2010PropOp55
 70
     1
102
RTVSPost2010Prop56
140
1.0
102
RTVSPost2010PropOp56
 70
     1
102
RTVSPost2010Prop57
140
1.0
102
RTVSPost2010PropOp57
 70
     1
102
RTVSPropertyOp0
 70
     1
102
RTVSPropertyOp1
 70
     1
102
RTVSPropertyOp2
 70
     1
102
RTVSPropertyOp3
 70
     1
102
RTVSPropertyOp4
 70
     1
102
RTVSPropertyOp5
 70
     1
102
RTVSPropertyOp6
 70
     1
102
RTVSPropertyOp7
 70
     1
102
RTVSPropertyOp8
 70
     1
102
RTVSPropertyOp9
 70
     1
102
RTVSPropertyOp10
 70
     1
102
RTVSPropertyOp11
 70
     1
102
RTVSPropertyOp12
 70
     1
102
RTVSPropertyOp13
 70
     1
102
RTVSPropertyOp14
 70
     1
102
RTVSPropertyOp15
 70
     1
102
RTVSPropertyOp16
 70
     1
102
RTVSPropertyOp17
 70
     1
102
RTVSPropertyOp18
 70
     1
102
RTVSPropertyOp19
 70
     1
102
RTVSPropertyOp20
 70
     1
102
RTVSPropertyOp21
 70
     1
102
RTVSPropertyOp22
 70
     1
102
RTVSPropertyOp23
 70
     1
102
RTVSPropertyOp24
 70
     1
102
RTVSPropertyOp25
 70
     1
102
RTVSPropertyOp26
 70
     1
102
RTVSPropertyOp27
 70
     1
102
RTVSPropertyOp28
 70
     1
102
RTVSPropertyOp29
 70
     1
102
RTVSPropertyOp30
 70
     1
102
RTVSPropertyOp31
 70
     1
102
RTVSPropertyOp32
 70
     1
102
RTVSPropertyOp33
 70
     1
102
RTVSPropertyOp34
 70
     1
102
RTVSPropertyOp35
 70
     1
102
RTVSPropertyOp36
 70
     1
102
RTVSPropertyOp37
 70
     1
102
RTVSPropertyOp38
 70
     1
102
RTVSPropertyOp39
 70
     1
102
RTVSPropertyOp40
 70
     1
102
RTVSPropertyOp41
 70
     1
102
RTVSPropertyOp42
 70
     1
102
RTVSPropertyOp43
 70
     1
102
RTVSPropertyOp44
 70
     1
102
RTVSPropertyOp45
 70
     1
102
RTVSPropertyOp46
 70
     1
102
RTVSPropertyOp47
 70
     1
102
RTVSPropertyOp48
 70
     1
102
RTVSPropertyOp49
 70
     1
102
RTVSPropertyOp50
 70
     1
102
RTVSPropertyOp51
 70
     0
102
RTVSPropertyOp52
 70
     0
102
RTVSPropertyOp53
 70
     1
102
RTVSPropertyOp54
 70
     1
102
RTVSPropertyOp55
 70
     1
102
RTVSPropertyOp56
 70
     1
102
RTVSPropertyOp57
 70
     1
102
RTVSPropertyOp58
 70
     1
102
RTVSPropertyOp59
 70
     1
102
RTVSPropertyOp60
 70
     1
102
RTVSPropertyOp61
 70
     1
102
RTVSPropertyOp62
 70
     1
  0
ENDSEC
  0
EOF
