  0
SECTION
  2
HEADER
  9
$ACADVER
  1
AC1015
  9
$ACADMAINTVER
 70
    20
  9
$DWGCODEPAGE
  3
ANSI_932
  9
$INSBASE
 10
0.0
 20
0.0
 30
0.0
  9
$EXTMIN
 10
10.0
 20
9.999999999999998
 30
0.0
  9
$EXTMAX
 10
341.280303
 20
320.2916
 30
0.0
  9
$LIMMIN
 10
0.0
 20
0.0
  9
$LIMMAX
 10
495.0
 20
341.25
  9
$ORTHOMODE
 70
     1
  9
$REGENMODE
 70
     1
  9
$FILLMODE
 70
     1
  9
$QTEXTMODE
 70
     0
  9
$MIRRTEXT
 70
     1
  9
$LTSCALE
 40
20.0
  9
$ATTMODE
 70
     1
  9
$TEXTSIZE
 40
5.0
  9
$TRACEWID
 40
1.0
  9
$TEXTSTYLE
  7
STANDARD
  9
$CLAYER
  8
0
  9
$CELTYPE
  6
BYLAYER
  9
$CECOLOR
 62
   256
  9
$CELTSCALE
 40
1.0
  9
$DISPSILH
 70
     0
  9
$DIMSCALE
 40
1.0
  9
$DIMASZ
 40
2.5
  9
$DIMEXO
 40
1.0
  9
$DIMDLI
 40
10.0
  9
$DIMRND
 40
0.0
  9
$DIMDLE
 40
0.0
  9
$DIMEXE
 40
1.0
  9
$DIMTP
 40
0.0
  9
$DIMTM
 40
0.0
  9
$DIMTXT
 40
3.2
  9
$DIMCEN
 40
0.0
  9
$DIMTSZ
 40
0.0
  9
$DIMTOL
 70
     0
  9
$DIMLIM
 70
     0
  9
$DIMTIH
 70
     0
  9
$DIMTOH
 70
     0
  9
$DIMSE1
 70
     0
  9
$DIMSE2
 70
     0
  9
$DIMTAD
 70
     3
  9
$DIMZIN
 70
     8
  9
$DIMBLK
  1

  9
$DIMASO
 70
     1
  9
$DIMSHO
 70
     1
  9
$DIMPOST
  1

  9
$DIMAPOST
  1

  9
$DIMALT
 70
     0
  9
$DIMALTD
 70
     2
  9
$DIMALTF
 40
25.4
  9
$DIMLFAC
 40
1.0
  9
$DIMTOFL
 70
     1
  9
$DIMTVP
 40
0.0
  9
$DIMTIX
 70
     0
  9
$DIMSOXD
 70
     0
  9
$DIMSAH
 70
     1
  9
$DIMBLK1
  1

  9
$DIMBLK2
  1

  9
$DIMSTYLE
  2
STANDARD
  9
$DIMCLRD
 70
     0
  9
$DIMCLRE
 70
     0
  9
$DIMCLRT
 70
     0
  9
$DIMTFAC
 40
1.0
  9
$DIMGAP
 40
1.0
  9
$DIMJUST
 70
     0
  9
$DIMSD1
 70
     0
  9
$DIMSD2
 70
     0
  9
$DIMTOLJ
 70
     1
  9
$DIMTZIN
 70
     0
  9
$DIMALTZ
 70
     0
  9
$DIMALTTZ
 70
     0
  9
$DIMUPT
 70
     0
  9
$DIMDEC
 70
     4
  9
$DIMTDEC
 70
     4
  9
$DIMALTU
 70
     2
  9
$DIMALTTD
 70
     2
  9
$DIMTXSTY
  7
STANDARD
  9
$DIMAUNIT
 70
     0
  9
$DIMADEC
 70
     0
  9
$DIMALTRND
 40
0.0
  9
$DIMAZIN
 70
     0
  9
$DIMDSEP
 70
    46
  9
$DIMATFIT
 70
     3
  9
$DIMFRAC
 70
     0
  9
$DIMLDRBLK
  1

  9
$DIMLUNIT
 70
     2
  9
$DIMLWD
 70
    -2
  9
$DIMLWE
 70
    -2
  9
$DIMTMOVE
 70
     0
  9
$LUNITS
 70
     2
  9
$LUPREC
 70
     4
  9
$SKETCHINC
 40
1.0
  9
$FILLETRAD
 40
1.8
  9
$AUNITS
 70
     0
  9
$AUPREC
 70
     2
  9
$MENU
  1
.
  9
$ELEVATION
 40
0.0
  9
$PELEVATION
 40
0.0
  9
$THICKNESS
 40
0.0
  9
$LIMCHECK
 70
     0
  9
$CHAMFERA
 40
10.0
  9
$CHAMFERB
 40
10.0
  9
$CHAMFERC
 40
0.0
  9
$CHAMFERD
 40
0.0
  9
$SKPOLY
 70
     0
  9
$TDCREATE
 40
2451296.793099885
  9
$TDUCREATE
 40
2451296.418099885
  9
$TDUPDATE
 40
2457192.658214039
  9
$TDUUPDATE
 40
2457192.283214039
  9
$TDINDWG
 40
0.0000109259
  9
$TDUSRTIMER
 40
0.0000104398
  9
$USRTIMER
 70
     1
  9
$ANGBASE
 50
0.0
  9
$ANGDIR
 70
     0
  9
$PDMODE
 70
     0
  9
$PDSIZE
 40
0.0
  9
$PLINEWID
 40
0.0
  9
$SPLFRAME
 70
     0
  9
$SPLINETYPE
 70
     6
  9
$SPLINESEGS
 70
     8
  9
$HANDSEED
  5
CA7B
  9
$SURFTAB1
 70
     6
  9
$SURFTAB2
 70
     6
  9
$SURFTYPE
 70
     6
  9
$SURFU
 70
     6
  9
$SURFV
 70
     6
  9
$UCSBASE
  2

  9
$UCSNAME
  2

  9
$UCSORG
 10
0.0
 20
0.0
 30
0.0
  9
$UCSXDIR
 10
1.0
 20
0.0
 30
0.0
  9
$UCSYDIR
 10
0.0
 20
1.0
 30
0.0
  9
$UCSORTHOREF
  2

  9
$UCSORTHOVIEW
 70
     0
  9
$UCSORGTOP
 10
0.0
 20
0.0
 30
0.0
  9
$UCSORGBOTTOM
 10
0.0
 20
0.0
 30
0.0
  9
$UCSORGLEFT
 10
0.0
 20
0.0
 30
0.0
  9
$UCSORGRIGHT
 10
0.0
 20
0.0
 30
0.0
  9
$UCSORGFRONT
 10
0.0
 20
0.0
 30
0.0
  9
$UCSORGBACK
 10
0.0
 20
0.0
 30
0.0
  9
$PUCSBASE
  2

  9
$PUCSNAME
  2

  9
$PUCSORG
 10
0.0
 20
0.0
 30
0.0
  9
$PUCSXDIR
 10
1.0
 20
0.0
 30
0.0
  9
$PUCSYDIR
 10
0.0
 20
1.0
 30
0.0
  9
$PUCSORTHOREF
  2

  9
$PUCSORTHOVIEW
 70
     0
  9
$PUCSORGTOP
 10
0.0
 20
0.0
 30
0.0
  9
$PUCSORGBOTTOM
 10
0.0
 20
0.0
 30
0.0
  9
$PUCSORGLEFT
 10
0.0
 20
0.0
 30
0.0
  9
$PUCSORGRIGHT
 10
0.0
 20
0.0
 30
0.0
  9
$PUCSORGFRONT
 10
0.0
 20
0.0
 30
0.0
  9
$PUCSORGBACK
 10
0.0
 20
0.0
 30
0.0
  9
$USERI1
 70
     0
  9
$USERI2
 70
     0
  9
$USERI3
 70
     0
  9
$USERI4
 70
     0
  9
$USERI5
 70
     0
  9
$USERR1
 40
0.0
  9
$USERR2
 40
0.0
  9
$USERR3
 40
0.0
  9
$USERR4
 40
0.0
  9
$USERR5
 40
0.0
  9
$WORLDVIEW
 70
     1
  9
$SHADEDGE
 70
     3
  9
$SHADEDIF
 70
    70
  9
$TILEMODE
 70
     1
  9
$MAXACTVP
 70
    16
  9
$PINSBASE
 10
0.0
 20
0.0
 30
0.0
  9
$PLIMCHECK
 70
     0
  9
$PEXTMIN
 10
1.000000000000000E+20
 20
1.000000000000000E+20
 30
1.000000000000000E+20
  9
$PEXTMAX
 10
-1.000000000000000E+20
 20
-1.000000000000000E+20
 30
-1.000000000000000E+20
  9
$PLIMMIN
 10
0.0
 20
0.0
  9
$PLIMMAX
 10
420.0
 20
297.0
  9
$UNITMODE
 70
     0
  9
$VISRETAIN
 70
     0
  9
$PLINEGEN
 70
     0
  9
$PSLTSCALE
 70
     0
  9
$TREEDEPTH
 70
  3020
  9
$CMLSTYLE
  2
STANDARD
  9
$CMLJUST
 70
     0
  9
$CMLSCALE
 40
1.0
  9
$PROXYGRAPHICS
 70
     1
  9
$MEASUREMENT
 70
     0
  9
$CELWEIGHT
370
    -1
  9
$ENDCAPS
280
     0
  9
$JOINSTYLE
280
     0
  9
$LWDISPLAY
290
     0
  9
$INSUNITS
 70
     0
  9
$HYPERLINKBASE
  1

  9
$STYLESHEET
  1

  9
$XEDIT
290
     1
  9
$CEPSNTYPE
380
     0
  9
$PSTYLEMODE
290
     1
  9
$FINGERPRINTGUID
  2
{5C104594-F283-4702-88E1-6707DF5F0923}
  9
$VERSIONGUID
  2
{40F32C1F-44D6-4478-A0E8-572479E25AE1}
  9
$EXTNAMES
290
     1
  9
$PSVPSCALE
 40
0.0
  9
$OLESTARTUP
290
     0
  0
ENDSEC
  0
SECTION
  2
CLASSES
  0
CLASS
  1
ACDBDICTIONARYWDFLT
  2
AcDbDictionaryWithDefault
  3
ObjectDBX Classes
 90
        0
280
     0
281
     0
  0
CLASS
  1
ACDBPLACEHOLDER
  2
AcDbPlaceHolder
  3
ObjectDBX Classes
 90
        0
280
     0
281
     0
  0
CLASS
  1
LAYOUT
  2
AcDbLayout
  3
ObjectDBX Classes
 90
        0
280
     0
281
     0
  0
CLASS
  1
DICTIONARYVAR
  2
AcDbDictionaryVar
  3
ObjectDBX Classes
 90
        0
280
     0
281
     0
  0
CLASS
  1
MATERIAL
  2
AcDbMaterial
  3
ObjectDBX Classes
 90
     1153
280
     0
281
     0
  0
CLASS
  1
VISUALSTYLE
  2
AcDbVisualStyle
  3
ObjectDBX Classes
 90
     4095
280
     0
281
     0
  0
CLASS
  1
TABLESTYLE
  2
AcDbTableStyle
  3
ObjectDBX Classes
 90
     4095
280
     0
281
     0
  0
CLASS
  1
SCALE
  2
AcDbScale
  3
ObjectDBX Classes
 90
     1153
280
     0
281
     0
  0
CLASS
  1
MLEADERSTYLE
  2
AcDbMLeaderStyle
  3
ACDB_MLEADERSTYLE_CLASS
 90
     4095
280
     0
281
     0
  0
CLASS
  1
ACDBSECTIONVIEWSTYLE
  2
AcDbSectionViewStyle
  3
ObjectDBX Classes
 90
     1025
280
     0
281
     0
  0
CLASS
  1
ACDBDETAILVIEWSTYLE
  2
AcDbDetailViewStyle
  3
ObjectDBX Classes
 90
     1025
280
     0
281
     0
  0
CLASS
  1
CELLSTYLEMAP
  2
AcDbCellStyleMap
  3
ObjectDBX Classes
 90
     1152
280
     0
281
     0
  0
ENDSEC
  0
SECTION
  2
TABLES
  0
TABLE
  2
VPORT
  5
C7B2
330
0
100
AcDbSymbolTable
 70
     1
  0
VPORT
  5
C9C4
330
C7B2
100
AcDbSymbolTableRecord
100
AcDbViewportTableRecord
  2
*ACTIVE
 70
     0
 10
0.0
 20
0.0
 11
1.0
 21
1.0
 12
269.6398992149318
 22
165.1445682777785
 13
0.0
 23
0.0
 14
10.0
 24
10.0
 15
10.0
 25
10.0
 16
0.0
 26
0.0
 36
1.0
 17
0.0
 27
0.0
 37
0.0
 40
313.7855368531075
 41
1.899603698811096
 42
50.0
 43
0.0
 44
0.0
 50
0.0
 51
0.0
 71
     0
 72
   100
 73
     1
 74
     0
 75
     0
 76
     0
 77
     0
 78
     0
281
     0
 65
     1
110
0.0
120
0.0
130
0.0
111
1.0
121
0.0
131
0.0
112
0.0
122
1.0
132
0.0
 79
     0
146
0.0
1001
ACAD_NAV_VCDISPLAY
1070
     3
  0
ENDTAB
  0
TABLE
  2
LTYPE
  5
C7AF
330
0
100
AcDbSymbolTable
 70
     4
  0
LTYPE
  5
C7BD
330
C7AF
100
AcDbSymbolTableRecord
100
AcDbLinetypeTableRecord
  2
BYBLOCK
 70
     0
  3

 72
    65
 73
     0
 40
0.0
  0
LTYPE
  5
C7BE
330
C7AF
100
AcDbSymbolTableRecord
100
AcDbLinetypeTableRecord
  2
BYLAYER
 70
     0
  3

 72
    65
 73
     0
 40
0.0
  0
LTYPE
  5
C7BF
330
C7AF
100
AcDbSymbolTableRecord
100
AcDbLinetypeTableRecord
  2
CONTINUOUS
 70
     0
  3
Solid line
 72
    65
 73
     0
 40
0.0
  0
LTYPE
  5
C7CD
330
C7AF
100
AcDbSymbolTableRecord
100
AcDbLinetypeTableRecord
  2
DASHED
 70
     0
  3
__ __ __ __ __ __ __ __ __ __ __ __ __ __ __ __
 72
    65
 73
     2
 40
0.75
 49
0.5
 74
     0
 49
-0.25
 74
     0
  0
LTYPE
  5
C7CE
330
C7AF
100
AcDbSymbolTableRecord
100
AcDbLinetypeTableRecord
  2
CENTER
 70
     0
  3
____ _ ____ _ ____ _ ____ _ ____ _ ____ _ ____ 
 72
    65
 73
     4
 40
2.0
 49
1.25
 74
     0
 49
-0.25
 74
     0
 49
0.25
 74
     0
 49
-0.25
 74
     0
  0
LTYPE
  5
C7CF
330
C7AF
100
AcDbSymbolTableRecord
100
AcDbLinetypeTableRecord
  2
PHANTOM
 70
     0
  3
______  __  __  ______  __  __  ______  __  __ 
 72
    65
 73
     6
 40
2.5
 49
1.25
 74
     0
 49
-0.25
 74
     0
 49
0.25
 74
     0
 49
-0.25
 74
     0
 49
0.25
 74
     0
 49
-0.25
 74
     0
  0
ENDTAB
  0
TABLE
  2
LAYER
  5
C7AC
330
0
100
AcDbSymbolTable
 70
     8
  0
LAYER
  5
C7BA
102
{ACAD_XDICTIONARY
360
CA1F
102
}
330
C7AC
100
AcDbSymbolTableRecord
100
AcDbLayerTableRecord
  2
0
 70
     0
 62
     7
  6
CONTINUOUS
370
    -3
390
C9CD
  0
LAYER
  5
C7D0
102
{ACAD_XDICTIONARY
360
CA21
102
}
330
C7AC
100
AcDbSymbolTableRecord
100
AcDbLayerTableRecord
  2
4
 70
     0
 62
     1
  6
CENTER
370
    -3
390
C9CD
  0
LAYER
  5
C7D1
102
{ACAD_XDICTIONARY
360
CA23
102
}
330
C7AC
100
AcDbSymbolTableRecord
100
AcDbLayerTableRecord
  2
5
 70
     0
 62
     6
  6
PHANTOM
370
    -3
390
C9CD
  0
LAYER
  5
C7D2
102
{ACAD_XDICTIONARY
360
CA25
102
}
330
C7AC
100
AcDbSymbolTableRecord
100
AcDbLayerTableRecord
  2
1
 70
     0
 62
     7
  6
CONTINUOUS
370
    -3
390
C9CD
  0
LAYER
  5
C7D3
102
{ACAD_XDICTIONARY
360
CA27
102
}
330
C7AC
100
AcDbSymbolTableRecord
100
AcDbLayerTableRecord
  2
2
 70
     0
 62
     4
  6
CONTINUOUS
370
    -3
390
C9CD
  0
LAYER
  5
C7D4
102
{ACAD_XDICTIONARY
360
CA29
102
}
330
C7AC
100
AcDbSymbolTableRecord
100
AcDbLayerTableRecord
  2
3
 70
     0
 62
     2
  6
DASHED
370
    -3
390
C9CD
  0
LAYER
  5
C7D5
102
{ACAD_XDICTIONARY
360
CA2B
102
}
330
C7AC
100
AcDbSymbolTableRecord
100
AcDbLayerTableRecord
  2
6
 70
     0
 62
     5
  6
CONTINUOUS
370
    -3
390
C9CD
  0
LAYER
  5
C7D6
102
{ACAD_XDICTIONARY
360
CA2D
102
}
330
C7AC
100
AcDbSymbolTableRecord
100
AcDbLayerTableRecord
  2
7
 70
     0
 62
     3
  6
CONTINUOUS
370
    -3
390
C9CD
  0
ENDTAB
  0
TABLE
  2
STYLE
  5
C7AD
330
0
100
AcDbSymbolTable
 70
     1
  0
STYLE
  5
C7BB
330
C7AD
100
AcDbSymbolTableRecord
100
AcDbTextStyleTableRecord
  2
STANDARD
 70
     0
 40
0.0
 41
1.0
 50
0.0
 71
     0
 42
5.0
  3
txt
  4

  0
ENDTAB
  0
TABLE
  2
VIEW
  5
C7B0
330
0
100
AcDbSymbolTable
 70
     1
  0
VIEW
  5
C7D7
330
C7B0
100
AcDbSymbolTableRecord
100
AcDbViewTableRecord
  2
7
 70
     0
 40
348.906129
 10
336.093192
 20
174.4530649999999
 41
672.186385
 11
0.0
 21
0.0
 31
1.0
 12
0.0
 22
0.0
 32
0.0
 42
50.0
 43
0.0
 44
0.0
 50
0.0
 71
     0
281
     0
 72
     0
  0
ENDTAB
  0
TABLE
  2
UCS
  5
C7B1
330
0
100
AcDbSymbolTable
 70
     0
  0
ENDTAB
  0
TABLE
  2
APPID
  5
C7B3
330
0
100
AcDbSymbolTable
 70
     3
  0
APPID
  5
C7BC
330
C7B3
100
AcDbSymbolTableRecord
100
AcDbRegAppTableRecord
  2
ACAD
 70
     0
  0
APPID
  5
CA39
330
C7B3
100
AcDbSymbolTableRecord
100
AcDbRegAppTableRecord
  2
ACAD_NAV_VCDISPLAY
 70
     0
  0
APPID
  5
CA72
330
C7B3
100
AcDbSymbolTableRecord
100
AcDbRegAppTableRecord
  2
ACAD_MLEADERVER
 70
     0
  0
ENDTAB
  0
TABLE
  2
DIMSTYLE
  5
C7B4
330
0
100
AcDbSymbolTable
 70
     1
100
AcDbDimStyleTable
 71
     0
  0
DIMSTYLE
105
C7D9
330
C7B4
100
AcDbSymbolTableRecord
100
AcDbDimStyleTableRecord
  2
STANDARD
 70
     0
 41
2.5
 42
1.0
 43
10.0
 44
1.0
 73
     0
 74
     0
 77
     3
 78
     8
140
3.2
141
0.0
147
1.0
172
     1
173
     1
284
     8
285
     8
286
     8
340
C7BB
  0
ENDTAB
  0
TABLE
  2
BLOCK_RECORD
  5
C7AB
330
0
100
AcDbSymbolTable
 70
     0
  0
BLOCK_RECORD
  5
C7C8
102
{ACAD_XDICTIONARY
360
C9C7
102
}
330
C7AB
100
AcDbSymbolTableRecord
100
AcDbBlockTableRecord
  2
*MODEL_SPACE
340
CA1B
  0
BLOCK_RECORD
  5
C7C4
102
{ACAD_XDICTIONARY
360
C9C5
102
}
330
C7AB
100
AcDbSymbolTableRecord
100
AcDbBlockTableRecord
  2
*PAPER_SPACE
340
CA1C
  0
ENDTAB
  0
ENDSEC
  0
SECTION
  2
BLOCKS
  0
BLOCK
  5
C7C9
330
C7C8
100
AcDbEntity
  8
0
100
AcDbBlockBegin
  2
*MODEL_SPACE
 70
     0
 10
0.0
 20
0.0
 30
0.0
  3
*MODEL_SPACE
  1

  0
ENDBLK
  5
C7CA
330
C7C8
100
AcDbEntity
  8
0
100
AcDbBlockEnd
  0
BLOCK
  5
C7C5
330
C7C4
100
AcDbEntity
 67
     1
  8
0
100
AcDbBlockBegin
  2
*PAPER_SPACE
 70
     0
 10
0.0
 20
0.0
 30
0.0
  3
*PAPER_SPACE
  1

  0
ENDBLK
  5
C7C6
330
C7C4
100
AcDbEntity
 67
     1
  8
0
100
AcDbBlockEnd
  0
ENDSEC
  0
SECTION
  2
ENTITIES
  0
TEXT
  5
C7E1
330
C7C8
100
AcDbEntity
  8
7
  6
Continuous
100
AcDbText
 10
10.0
 20
18.0
 30
0.0
 40
3.0
  1
TYPE No.TM-144SS-150
100
AcDbText
  0
TEXT
  5
C7E2
330
C7C8
100
AcDbEntity
  8
7
  6
Continuous
100
AcDbText
 10
10.0
 20
26.0
 30
0.0
 40
3.0
  1
CODE No.5743
100
AcDbText
  0
TEXT
  5
C7E3
330
C7C8
100
AcDbEntity
  8
1
  6
Continuous
100
AcDbText
 10
10.0
 20
10.0
 30
0.0
 40
1.399999999999999
  1
LAYER
100
AcDbText
  0
TEXT
  5
C7E4
330
C7C8
100
AcDbEntity
  8
1
  6
Continuous
100
AcDbText
 10
17.97951099999998
 20
10.04873699999998
 30
0.0
 40
1.399999999999999
  1
1
100
AcDbText
  0
TEXT
  5
C7E5
330
C7C8
100
AcDbEntity
  8
7
  6
Continuous
100
AcDbText
 10
29.97951099999999
 20
10.04873699999998
 30
0.0
 40
1.399999999999999
  1
7
100
AcDbText
  0
TEXT
  5
C7E6
330
C7C8
100
AcDbEntity
  8
4
  6
CENTER
100
AcDbText
 10
23.97951099999999
 20
10.04873699999998
 30
0.0
 40
1.399999999999999
  1
4
100
AcDbText
  0
TEXT
  5
C7E7
330
C7C8
100
AcDbEntity
  8
3
  6
DASHED
100
AcDbText
 10
21.979511
 20
10.04873699999998
 30
0.0
 40
1.399999999999999
  1
3
100
AcDbText
  0
TEXT
  5
C7E8
330
C7C8
100
AcDbEntity
  8
2
  6
Continuous
100
AcDbText
 10
19.97951099999999
 20
10.04873699999998
 30
0.0
 40
1.399999999999999
  1
2
100
AcDbText
  0
TEXT
  5
C7E9
330
C7C8
100
AcDbEntity
  8
6
  6
Continuous
100
AcDbText
 10
27.979511
 20
10.04873699999998
 30
0.0
 40
1.399999999999999
  1
6
100
AcDbText
  0
TEXT
  5
C7EA
330
C7C8
100
AcDbEntity
  8
5
  6
PHANTOM
100
AcDbText
 10
25.97951099999999
 20
10.04873699999998
 30
0.0
 40
1.399999999999999
  1
5
100
AcDbText
  0
LINE
  5
C7EB
330
C7C8
100
AcDbEntity
  8
1
  6
Continuous
100
AcDbLine
 10
171.045952
 20
245.7915999999999
 30
0.0
 11
181.545952
 21
245.7915999999999
 31
0.0
  0
LINE
  5
C7EC
330
C7C8
100
AcDbEntity
  8
1
  6
Continuous
100
AcDbLine
 10
193.545952
 20
246.9225999999999
 30
0.0
 11
193.545952
 21
250.7416
 31
0.0
  0
LINE
  5
C7ED
330
C7C8
100
AcDbEntity
  8
1
  6
Continuous
100
AcDbLine
 10
189.5459519999998
 20
246.2915999999999
 30
0.0
 11
189.5459519999998
 21
256.7916
 31
0.0
  0
LINE
  5
C7EE
330
C7C8
100
AcDbEntity
  8
1
  6
Continuous
100
AcDbLine
 10
185.545952
 20
246.7915999999999
 30
0.0
 11
185.545952
 21
256.2916
 31
0.0
  0
LINE
  5
C7EF
330
C7C8
100
AcDbEntity
  8
1
  6
Continuous
100
AcDbLine
 10
167.045952
 20
248.7915999999999
 30
0.0
 11
167.045952
 21
256.2916
 31
0.0
  0
LINE
  5
C7F0
330
C7C8
100
AcDbEntity
  8
1
  6
Continuous
100
AcDbLine
 10
165.045952
 20
248.7896
 30
0.0
 11
165.045952
 21
254.7896
 31
0.0
  0
LINE
  5
C7F1
330
C7C8
100
AcDbEntity
  8
4
  6
CENTER
100
AcDbLine
 10
176.295952
 20
81.50002200000001
 30
0.0
 11
176.295952
 21
264.7916
 31
0.0
  0
LINE
  5
C7F2
330
C7C8
100
AcDbEntity
  8
1
  6
Continuous
100
AcDbLine
 10
168.545952
 20
257.7916
 30
0.0
 11
184.0459519999998
 21
257.7916
 31
0.0
  0
LINE
  5
C7F3
330
C7C8
100
AcDbEntity
  8
1
  6
Continuous
100
AcDbLine
 10
170.7959519999998
 20
297.7916
 30
0.0
 11
181.795952
 21
297.7916
 31
0.0
  0
LINE
  5
C7F4
330
C7C8
100
AcDbEntity
  8
1
  6
Continuous
100
AcDbLine
 10
170.7959519999998
 20
313.2916
 30
0.0
 11
181.795952
 21
313.2916
 31
0.0
  0
LINE
  5
C7F5
330
C7C8
100
AcDbEntity
  8
4
  6
CENTER
100
AcDbLine
 10
85.495952
 20
305.5416
 30
0.0
 11
267.095952
 21
305.5416
 31
0.0
  0
LINE
  5
C7F6
330
C7C8
100
AcDbEntity
  8
4
  6
CENTER
100
AcDbLine
 10
319.780303
 20
81.50002200000001
 30
0.0
 11
319.780303
 21
264.7916379999999
 31
0.0
  0
LINE
  5
C7F7
330
C7C8
100
AcDbEntity
  8
1
  6
Continuous
100
AcDbLine
 10
193.545952
 20
301.5416
 30
0.0
 11
193.545952
 21
309.5416
 31
0.0
  0
LINE
  5
C7F8
330
C7C8
100
AcDbEntity
  8
1
  6
Continuous
100
AcDbLine
 10
189.5459519999998
 20
300.2916
 30
0.0
 11
189.5459519999998
 21
310.7916
 31
0.0
  0
LINE
  5
C7F9
330
C7C8
100
AcDbEntity
  8
1
  6
Continuous
100
AcDbLine
 10
185.545952
 20
300.2916
 30
0.0
 11
185.545952
 21
310.7916
 31
0.0
  0
LINE
  5
C7FA
330
C7C8
100
AcDbEntity
  8
4
  6
CENTER
100
AcDbLine
 10
176.295952
 20
290.7916
 30
0.0
 11
176.295952
 21
320.2916
 31
0.0
  0
LINE
  5
C7FB
330
C7C8
100
AcDbEntity
  8
1
  6
Continuous
100
AcDbLine
 10
167.045952
 20
300.2916
 30
0.0
 11
167.045952
 21
310.7916
 31
0.0
  0
LINE
  5
C7FC
330
C7C8
100
AcDbEntity
  8
1
  6
Continuous
100
AcDbLine
 10
165.045952
 20
302.5416
 30
0.0
 11
165.045952
 21
308.5416
 31
0.0
  0
LINE
  5
C7FD
330
C7C8
100
AcDbEntity
  8
1
  6
Continuous
100
AcDbLine
 10
165.045952
 20
248.7915999999999
 30
0.0
 11
170.7959519999998
 21
248.7915999999999
 31
0.0
  0
LINE
  5
C7FE
330
C7C8
100
AcDbEntity
  8
1
  6
Continuous
100
AcDbLine
 10
165.045952
 20
254.7915999999999
 30
0.0
 11
167.045952
 21
254.7915999999999
 31
0.0
  0
ARC
  5
C7FF
330
C7C8
100
AcDbEntity
  8
1
  6
Continuous
100
AcDbCircle
 10
168.545952
 20
256.2916
 30
0.0
 40
1.5
100
AcDbArc
 50
90.0
 51
180.0
  0
ARC
  5
C800
330
C7C8
100
AcDbEntity
  8
1
  6
Continuous
100
AcDbCircle
 10
184.0459519999998
 20
256.2916
 30
0.0
 40
1.5
100
AcDbArc
 50
0.0
 51
90.0
  0
ARC
  5
C801
330
C7C8
100
AcDbEntity
  8
1
  6
Continuous
100
AcDbCircle
 10
176.295952
 20
245.597156
 30
0.0
 40
7.694443999999997
100
AcDbArc
 50
24.52954699999999
 51
155.4704529999999
  0
LINE
  5
C802
330
C7C8
100
AcDbEntity
  8
1
  6
Continuous
100
AcDbLine
 10
181.795952
 20
248.7915999999999
 30
0.0
 11
181.545952
 21
245.7915999999999
 31
0.0
  0
LINE
  5
C803
330
C7C8
100
AcDbEntity
  8
1
  6
Continuous
100
AcDbLine
 10
170.7959519999998
 20
248.7915999999999
 30
0.0
 11
171.045952
 21
245.7915999999999
 31
0.0
  0
ARC
  5
C804
330
C7C8
100
AcDbEntity
  8
1
  6
Continuous
100
AcDbCircle
 10
176.295952
 20
244.7898139999999
 30
0.0
 40
6.801785999999997
100
AcDbArc
 50
36.039539
 51
143.960461
  0
LINE
  5
C805
330
C7C8
100
AcDbEntity
  8
1
  6
Continuous
100
AcDbLine
 10
181.795952
 20
248.7915999999999
 30
0.0
 11
185.545952
 21
248.7915999999999
 31
0.0
  0
LINE
  5
C806
330
C7C8
100
AcDbEntity
  8
1
  6
Continuous
100
AcDbLine
 10
185.545952
 20
256.2916
 30
0.0
 11
189.5459519999998
 21
256.7916
 31
0.0
  0
LINE
  5
C807
330
C7C8
100
AcDbEntity
  8
1
  6
Continuous
100
AcDbLine
 10
185.545952
 20
246.7915999999999
 30
0.0
 11
189.5459519999998
 21
246.2915999999999
 31
0.0
  0
LINE
  5
C808
330
C7C8
100
AcDbEntity
  8
4
  6
CENTER
100
AcDbLine
 10
156.540532
 20
251.5416
 30
0.0
 11
200.545952
 21
251.5416
 31
0.0
  0
LINE
  5
C809
330
C7C8
100
AcDbEntity
  8
1
  6
Continuous
100
AcDbLine
 10
189.5459519999998
 20
256.1605999999998
 30
0.0
 11
193.545952
 21
256.1605999999998
 31
0.0
  0
LINE
  5
C80A
330
C7C8
100
AcDbEntity
  8
1
  6
Continuous
100
AcDbLine
 10
189.5459519999998
 20
246.9225999999999
 30
0.0
 11
193.545952
 21
246.9225999999999
 31
0.0
  0
LINE
  5
C80B
330
C7C8
100
AcDbEntity
  8
1
  6
Continuous
100
AcDbLine
 10
190.5459519999998
 20
252.3416
 30
0.0
 11
193.545952
 21
252.3416
 31
0.0
  0
LINE
  5
C80C
330
C7C8
100
AcDbEntity
  8
1
  6
Continuous
100
AcDbLine
 10
190.5459519999998
 20
250.7416
 30
0.0
 11
193.545952
 21
250.7416
 31
0.0
  0
LINE
  5
C80D
330
C7C8
100
AcDbEntity
  8
1
  6
Continuous
100
AcDbLine
 10
190.5459519999998
 20
250.7416
 30
0.0
 11
190.5459519999998
 21
252.3416
 31
0.0
  0
LINE
  5
C80E
330
C7C8
100
AcDbEntity
  8
1
  6
Continuous
100
AcDbLine
 10
193.545952
 20
252.3416
 30
0.0
 11
193.545952
 21
256.1605999999998
 31
0.0
  0
LINE
  5
C80F
330
C7C8
100
AcDbEntity
  8
1
  6
Continuous
100
AcDbLine
 10
189.5459519999998
 20
253.8511
 30
0.0
 11
192.0459519999998
 21
253.8511
 31
0.0
  0
LINE
  5
C810
330
C7C8
100
AcDbEntity
  8
1
  6
Continuous
100
AcDbLine
 10
189.5459519999998
 20
249.2321
 30
0.0
 11
192.0459519999998
 21
249.2321
 31
0.0
  0
LINE
  5
C811
330
C7C8
100
AcDbEntity
  8
1
  6
Continuous
100
AcDbLine
 10
192.0459519999998
 20
253.8511
 30
0.0
 11
193.545952
 21
253.2510999999999
 31
0.0
  0
LINE
  5
C812
330
C7C8
100
AcDbEntity
  8
1
  6
Continuous
100
AcDbLine
 10
192.0459519999998
 20
253.8511
 30
0.0
 11
193.545952
 21
254.4510999999999
 31
0.0
  0
LINE
  5
C813
330
C7C8
100
AcDbEntity
  8
1
  6
Continuous
100
AcDbLine
 10
192.0459519999998
 20
249.2321
 30
0.0
 11
193.545952
 21
249.8321
 31
0.0
  0
LINE
  5
C814
330
C7C8
100
AcDbEntity
  8
1
  6
Continuous
100
AcDbLine
 10
192.0459519999998
 20
249.2321
 30
0.0
 11
193.545952
 21
248.6321
 31
0.0
  0
LINE
  5
C815
330
C7C8
100
AcDbEntity
  8
4
  6
CENTER
100
AcDbLine
 10
306.2803029999999
 20
251.541638
 30
0.0
 11
333.2803029999999
 21
251.541638
 31
0.0
  0
ARC
  5
C816
330
C7C8
100
AcDbEntity
  8
1
  6
Continuous
100
AcDbCircle
 10
319.780303
 20
251.541638
 30
0.0
 40
3.0
100
AcDbArc
 50
15.46601
 51
164.5339899999999
  0
LINE
  5
C817
330
C7C8
100
AcDbEntity
  8
1
  6
Continuous
100
AcDbLine
 10
315.780303
 20
252.341638
 30
0.0
 11
323.780303
 21
252.341638
 31
0.0
  0
LINE
  5
C818
330
C7C8
100
AcDbEntity
  8
1
  6
Continuous
100
AcDbLine
 10
315.780303
 20
250.741638
 30
0.0
 11
323.780303
 21
250.741638
 31
0.0
  0
ARC
  5
C819
330
C7C8
100
AcDbEntity
  8
1
  6
Continuous
100
AcDbCircle
 10
319.780303
 20
251.541638
 30
0.0
 40
3.0
100
AcDbArc
 50
195.4660099999999
 51
344.53399
  0
CIRCLE
  5
C81A
330
C7C8
100
AcDbEntity
  8
1
  6
Continuous
100
AcDbCircle
 10
319.780303
 20
251.541638
 30
0.0
 40
5.25
  0
LINE
  5
C81B
330
C7C8
100
AcDbEntity
  8
1
  6
Continuous
100
AcDbLine
 10
326.030303
 20
248.7916379999998
 30
0.0
 11
326.030303
 21
252.2916379999998
 31
0.0
  0
LINE
  5
C81C
330
C7C8
100
AcDbEntity
  8
1
  6
Continuous
100
AcDbLine
 10
313.530303
 20
248.7916379999998
 30
0.0
 11
313.530303
 21
252.2916379999998
 31
0.0
  0
LINE
  5
C81D
330
C7C8
100
AcDbEntity
  8
1
  6
Continuous
100
AcDbLine
 10
313.276528
 20
248.7916379999998
 30
0.0
 11
315.3081669999999
 21
248.7916379999998
 31
0.0
  0
ARC
  5
C81E
330
C7C8
100
AcDbEntity
  8
1
  6
Continuous
100
AcDbCircle
 10
319.780303
 20
251.490502
 30
0.0
 40
6.301135999999998
100
AcDbArc
 50
7.304446000000001
 51
172.6955539999999
  0
LINE
  5
C81F
330
C7C8
100
AcDbEntity
  8
1
  6
Continuous
100
AcDbLine
 10
324.2524379999999
 20
248.7916379999998
 30
0.0
 11
326.2704529999999
 21
248.7916379999998
 31
0.0
  0
ARC
  5
C820
330
C7C8
100
AcDbEntity
  8
1
  6
Continuous
100
AcDbCircle
 10
313.530303
 20
247.291638
 30
0.0
 40
1.5
100
AcDbArc
 50
180.0
 51
260.405932
  0
ARC
  5
C821
330
C7C8
100
AcDbEntity
  8
1
  6
Continuous
100
AcDbCircle
 10
326.030303
 20
247.291638
 30
0.0
 40
1.5
100
AcDbArc
 50
279.594068
 51
355.7894899999998
  0
LINE
  5
C822
330
C7C8
100
AcDbEntity
  8
1
  6
Continuous
100
AcDbLine
 10
189.5459519999998
 20
309.5416
 30
0.0
 11
193.545952
 21
309.5416
 31
0.0
  0
LINE
  5
C823
330
C7C8
100
AcDbEntity
  8
1
  6
Continuous
100
AcDbLine
 10
189.5459519999998
 20
301.5416
 30
0.0
 11
193.545952
 21
301.5416
 31
0.0
  0
LINE
  5
C824
330
C7C8
100
AcDbEntity
  8
1
  6
Continuous
100
AcDbLine
 10
189.5459519999998
 20
310.7916
 30
0.0
 11
185.545952
 21
310.2916
 31
0.0
  0
LINE
  5
C825
330
C7C8
100
AcDbEntity
  8
1
  6
Continuous
100
AcDbLine
 10
189.5459519999998
 20
300.2916
 30
0.0
 11
185.545952
 21
300.7916
 31
0.0
  0
LINE
  5
C826
330
C7C8
100
AcDbEntity
  8
1
  6
Continuous
100
AcDbLine
 10
168.045952
 20
311.7916
 30
0.0
 11
169.295952
 21
311.7916
 31
0.0
  0
LINE
  5
C827
330
C7C8
100
AcDbEntity
  8
1
  6
Continuous
100
AcDbLine
 10
168.045952
 20
299.2916
 30
0.0
 11
169.295952
 21
299.2916
 31
0.0
  0
LINE
  5
C828
330
C7C8
100
AcDbEntity
  8
1
  6
Continuous
100
AcDbLine
 10
165.045952
 20
308.5416
 30
0.0
 11
167.045952
 21
308.5416
 31
0.0
  0
LINE
  5
C829
330
C7C8
100
AcDbEntity
  8
1
  6
Continuous
100
AcDbLine
 10
165.045952
 20
302.5416
 30
0.0
 11
167.045952
 21
302.5416
 31
0.0
  0
ARC
  5
C82A
330
C7C8
100
AcDbEntity
  8
1
  6
Continuous
100
AcDbCircle
 10
167.295952
 20
305.5416
 30
0.0
 40
3.75
100
AcDbArc
 50
126.869898
 51
233.130102
  0
ARC
  5
C82B
330
C7C8
100
AcDbEntity
  8
1
  6
Continuous
100
AcDbCircle
 10
184.545952
 20
310.7916
 30
0.0
 40
1.0
100
AcDbArc
 50
0.0
 51
90.0
  0
ARC
  5
C82C
330
C7C8
100
AcDbEntity
  8
1
  6
Continuous
100
AcDbCircle
 10
184.545952
 20
300.2916
 30
0.0
 40
1.0
100
AcDbArc
 50
270.0
 51
0.0
  0
ARC
  5
C82D
330
C7C8
100
AcDbEntity
  8
1
  6
Continuous
100
AcDbCircle
 10
168.045952
 20
300.2916
 30
0.0
 40
1.0
100
AcDbArc
 50
180.0
 51
270.0
  0
ARC
  5
C82E
330
C7C8
100
AcDbEntity
  8
1
  6
Continuous
100
AcDbCircle
 10
168.045952
 20
310.7916
 30
0.0
 40
1.0
100
AcDbArc
 50
90.0
 51
180.0
  0
ARC
  5
C82F
330
C7C8
100
AcDbEntity
  8
1
  6
Continuous
100
AcDbCircle
 10
176.295952
 20
330.7665999999999
 30
0.0
 40
20.225
100
AcDbArc
 50
249.750657
 51
290.249343
  0
ARC
  5
C830
330
C7C8
100
AcDbEntity
  8
1
  6
Continuous
100
AcDbCircle
 10
176.295952
 20
280.3166
 30
0.0
 40
20.225
100
AcDbArc
 50
69.75065699999999
 51
110.249343
  0
LINE
  5
C831
330
C7C8
100
AcDbEntity
  8
1
  6
Continuous
100
AcDbLine
 10
181.795952
 20
313.2916
 30
0.0
 11
183.2959519999998
 21
311.7916
 31
0.0
  0
LINE
  5
C832
330
C7C8
100
AcDbEntity
  8
1
  6
Continuous
100
AcDbLine
 10
170.7959519999998
 20
313.2916
 30
0.0
 11
169.295952
 21
311.7916
 31
0.0
  0
LINE
  5
C833
330
C7C8
100
AcDbEntity
  8
1
  6
Continuous
100
AcDbLine
 10
169.295952
 20
299.2916
 30
0.0
 11
170.7959519999998
 21
297.7916
 31
0.0
  0
LINE
  5
C834
330
C7C8
100
AcDbEntity
  8
1
  6
Continuous
100
AcDbLine
 10
183.2959519999998
 20
299.2916
 30
0.0
 11
181.795952
 21
297.7916
 31
0.0
  0
LINE
  5
C835
330
C7C8
100
AcDbEntity
  8
1
  6
Continuous
100
AcDbLine
 10
183.2959519999998
 20
311.7916
 30
0.0
 11
184.545952
 21
311.7916
 31
0.0
  0
LINE
  5
C836
330
C7C8
100
AcDbEntity
  8
1
  6
Continuous
100
AcDbLine
 10
183.2959519999998
 20
299.2916
 30
0.0
 11
184.545952
 21
299.2916
 31
0.0
  0
LINE
  5
C837
330
C7C8
100
AcDbEntity
  8
1
  6
Continuous
100
AcDbLine
 10
193.545952
 20
306.1415999999999
 30
0.0
 11
192.0459519999998
 21
305.5416
 31
0.0
  0
LINE
  5
C838
330
C7C8
100
AcDbEntity
  8
1
  6
Continuous
100
AcDbLine
 10
192.0459519999998
 20
305.5416
 30
0.0
 11
193.545952
 21
304.9415999999999
 31
0.0
  0
LINE
  5
C839
330
C7C8
100
AcDbEntity
  8
1
  6
Continuous
100
AcDbLine
 10
192.0459519999998
 20
305.5416
 30
0.0
 11
189.5459519999998
 21
305.5416
 31
0.0
  0
LINE
  5
C83A
330
C7C8
100
AcDbEntity
  8
1
  6
Continuous
100
AcDbLine
 10
326.5870569999999
 20
246.7054039999999
 30
0.0
 11
326.280303
 21
246.6915999999999
 31
0.0
  0
LINE
  5
C83B
330
C7C8
100
AcDbEntity
  8
1
  6
Continuous
100
AcDbLine
 10
312.951069
 20
246.706416
 30
0.0
 11
313.280303
 21
246.6915999999999
 31
0.0
  0
LINE
  5
C83C
330
C7C8
100
AcDbEntity
  8
1
  6
Continuous
100
AcDbLine
 10
100.495952
 20
312.0416
 30
0.0
 11
169.5459519999998
 21
312.0416
 31
0.0
  0
LINE
  5
C83D
330
C7C8
100
AcDbEntity
  8
1
  6
Continuous
100
AcDbLine
 10
100.495952
 20
299.0416
 30
0.0
 11
169.5459519999998
 21
299.0416
 31
0.0
  0
LINE
  5
C83E
330
C7C8
100
AcDbEntity
  8
1
  6
Continuous
100
AcDbLine
 10
183.0459519999998
 20
312.0416
 30
0.0
 11
252.095952
 21
312.0416
 31
0.0
  0
LINE
  5
C83F
330
C7C8
100
AcDbEntity
  8
1
  6
Continuous
100
AcDbLine
 10
183.0459519999998
 20
299.0416
 30
0.0
 11
252.095952
 21
299.0416
 31
0.0
  0
ARC
  5
C840
330
C7C8
100
AcDbEntity
  8
1
  6
Continuous
100
AcDbCircle
 10
167.2732849999999
 20
251.7905999999999
 30
0.0
 40
3.735641
100
AcDbArc
 50
126.600977
 51
233.399023
  0
LINE
  5
C841
330
C7C8
100
AcDbEntity
  8
1
  6
Continuous
100
AcDbLine
 10
326.280303
 20
96.50002200000001
 30
0.0
 11
326.280303
 21
248.3280249999999
 31
0.0
  0
LINE
  5
C842
330
C7C8
100
AcDbEntity
  8
1
  6
Continuous
100
AcDbLine
 10
313.280303
 20
96.50002200000001
 30
0.0
 11
313.280303
 21
248.3280249999999
 31
0.0
  0
ARC
  5
C843
330
C7C8
100
AcDbEntity
  8
1
  6
Continuous
100
AcDbCircle
 10
325.780303
 20
252.096889
 30
0.0
 40
1.0
100
AcDbArc
 50
0.0
 51
84.600387
  0
ARC
  5
C844
330
C7C8
100
AcDbEntity
  8
1
  6
Continuous
100
AcDbCircle
 10
313.780303
 20
252.096889
 30
0.0
 40
1.0
100
AcDbArc
 50
95.39961299999999
 51
180.0
  0
LINE
  5
C845
330
C7C8
100
AcDbEntity
  8
1
  6
Continuous
100
AcDbLine
 10
326.780303
 20
252.096889
 30
0.0
 11
327.5262539999999
 21
247.181506
 31
0.0
  0
LINE
  5
C846
330
C7C8
100
AcDbEntity
  8
1
  6
Continuous
100
AcDbLine
 10
312.7803029999999
 20
252.096889
 30
0.0
 11
312.030303
 21
247.291638
 31
0.0
  0
ARC
  5
C847
330
C7C8
100
AcDbEntity
  8
1
  6
Continuous
100
AcDbCircle
 10
32.75
 20
251.490502
 30
0.0
 40
6.301135999999998
100
AcDbArc
 50
7.304446000000001
 51
172.6955539999999
  0
LINE
  5
C848
330
C7C8
100
AcDbEntity
  8
4
  6
CENTER
100
AcDbLine
 10
32.75
 20
81.50002200000001
 30
0.0
 11
32.75
 21
264.7916379999999
 31
0.0
  0
LINE
  5
C849
330
C7C8
100
AcDbEntity
  8
1
  6
Continuous
100
AcDbLine
 10
26.25
 20
96.50002200000001
 30
0.0
 11
26.25
 21
248.0920659999999
 31
0.0
  0
LINE
  5
C84A
330
C7C8
100
AcDbEntity
  8
1
  6
Continuous
100
AcDbLine
 10
39.25
 20
96.50002200000001
 30
0.0
 11
39.25
 21
248.0920659999999
 31
0.0
  0
LINE
  5
C84B
330
C7C8
100
AcDbEntity
  8
4
  6
CENTER
100
AcDbLine
 10
19.25
 20
251.541638
 30
0.0
 11
46.25
 21
251.541638
 31
0.0
  0
LINE
  5
C84C
330
C7C8
100
AcDbEntity
  8
1
  6
Continuous
100
AcDbLine
 10
25.75
 20
252.096889
 30
0.0
 11
25.0
 21
247.291638
 31
0.0
  0
ARC
  5
C84D
330
C7C8
100
AcDbEntity
  8
1
  6
Continuous
100
AcDbCircle
 10
26.75
 20
252.096889
 30
0.0
 40
1.0
100
AcDbArc
 50
95.39961299999999
 51
180.0
  0
LINE
  5
C84E
330
C7C8
100
AcDbEntity
  8
1
  6
Continuous
100
AcDbLine
 10
25.920766
 20
246.706416
 30
0.0
 11
26.25
 21
246.6915999999999
 31
0.0
  0
ARC
  5
C84F
330
C7C8
100
AcDbEntity
  8
1
  6
Continuous
100
AcDbCircle
 10
26.5
 20
247.291638
 30
0.0
 40
1.5
100
AcDbArc
 50
180.0
 51
260.405932
  0
LINE
  5
C850
330
C7C8
100
AcDbEntity
  8
1
  6
Continuous
100
AcDbLine
 10
26.246226
 20
248.7916379999998
 30
0.0
 11
27.833508
 21
248.7916379999998
 31
0.0
  0
LINE
  5
C851
330
C7C8
100
AcDbEntity
  8
1
  6
Continuous
100
AcDbLine
 10
26.5
 20
248.7916379999998
 30
0.0
 11
26.5
 21
252.2916379999998
 31
0.0
  0
LINE
  5
C852
330
C7C8
100
AcDbEntity
  8
1
  6
Continuous
100
AcDbLine
 10
39.75
 20
252.096889
 30
0.0
 11
40.495952
 21
247.181506
 31
0.0
  0
ARC
  5
C853
330
C7C8
100
AcDbEntity
  8
1
  6
Continuous
100
AcDbCircle
 10
38.75
 20
252.096889
 30
0.0
 40
1.0
100
AcDbArc
 50
0.0
 51
84.600387
  0
LINE
  5
C854
330
C7C8
100
AcDbEntity
  8
1
  6
Continuous
100
AcDbLine
 10
39.556754
 20
246.7054039999999
 30
0.0
 11
39.25
 21
246.6915999999999
 31
0.0
  0
ARC
  5
C855
330
C7C8
100
AcDbEntity
  8
1
  6
Continuous
100
AcDbCircle
 10
39.0
 20
247.291638
 30
0.0
 40
1.5
100
AcDbArc
 50
279.594068
 51
355.7894899999998
  0
LINE
  5
C856
330
C7C8
100
AcDbEntity
  8
1
  6
Continuous
100
AcDbLine
 10
37.66649199999999
 20
248.7916379999998
 30
0.0
 11
39.24015
 21
248.7916379999998
 31
0.0
  0
LINE
  5
C857
330
C7C8
100
AcDbEntity
  8
1
  6
Continuous
100
AcDbLine
 10
39.0
 20
248.7916379999998
 30
0.0
 11
39.0
 21
252.2916379999998
 31
0.0
  0
LINE
  5
C858
330
C7C8
100
AcDbEntity
  8
4
  6
CENTER
100
AcDbLine
 10
176.295952
 20
34.0
 30
0.0
 11
176.295952
 21
63.5
 31
0.0
  0
LINE
  5
C859
330
C7C8
100
AcDbEntity
  8
1
  6
Continuous
100
AcDbLine
 10
100.495952
 20
42.25
 30
0.0
 11
252.095952
 21
42.25
 31
0.0
  0
LINE
  5
C85A
330
C7C8
100
AcDbEntity
  8
1
  6
Continuous
100
AcDbLine
 10
170.7959519999998
 20
41.0
 30
0.0
 11
181.795952
 21
41.0
 31
0.0
  0
LINE
  5
C85B
330
C7C8
100
AcDbEntity
  8
1
  6
Continuous
100
AcDbLine
 10
100.495952
 20
55.25
 30
0.0
 11
252.095952
 21
55.25
 31
0.0
  0
LINE
  5
C85C
330
C7C8
100
AcDbEntity
  8
4
  6
CENTER
100
AcDbLine
 10
85.495952
 20
48.75
 30
0.0
 11
267.095952
 21
48.75
 31
0.0
  0
LINE
  5
C85D
330
C7C8
100
AcDbEntity
  8
1
  6
Continuous
100
AcDbLine
 10
170.7959519999998
 20
56.5
 30
0.0
 11
181.795952
 21
56.5
 31
0.0
  0
LINE
  5
C85E
330
C7C8
100
AcDbEntity
  8
1
  6
Continuous
100
AcDbLine
 10
171.0064769999999
 20
246.265296
 30
0.0
 11
167.3911439999999
 21
242.0195709999999
 31
0.0
  0
LINE
  5
C85F
330
C7C8
100
AcDbEntity
  8
1
  6
Continuous
100
AcDbLine
 10
170.936229
 20
247.1082659999999
 30
0.0
 11
166.934324
 21
242.408564
 31
0.0
  0
LINE
  5
C860
330
C7C8
100
AcDbEntity
  8
1
  6
Continuous
100
AcDbLine
 10
166.934324
 20
242.408564
 30
0.0
 11
167.3911439999999
 21
242.0195709999999
 31
0.0
  0
LINE
  5
C861
330
C7C8
100
AcDbEntity
  8
1
  6
Continuous
100
AcDbLine
 10
168.490295
 20
244.235844
 30
0.0
 11
168.9471149999999
 21
243.8468509999999
 31
0.0
  0
CIRCLE
  5
C862
330
C7C8
100
AcDbEntity
  8
1
  6
Continuous
100
AcDbCircle
 10
32.75
 20
251.7895999999999
 30
0.0
 40
3.0
  0
LINE
  5
C863
330
C7C8
100
AcDbEntity
  8
1
  6
Continuous
100
AcDbLine
 10
29.75
 20
251.7895999999999
 30
0.0
 11
28.75649199999999
 21
249.4067999999999
 31
0.0
  0
LINE
  5
C864
330
C7C8
100
AcDbEntity
  8
1
  6
Continuous
100
AcDbLine
 10
35.75
 20
251.7895999999999
 30
0.0
 11
36.743508
 21
249.4067999999999
 31
0.0
  0
ARC
  5
C865
330
C7C8
100
AcDbEntity
  8
1
  6
Continuous
100
AcDbCircle
 10
37.66649199999999
 20
249.7916379999999
 30
0.0
 40
1.0
100
AcDbArc
 50
202.6336909999999
 51
270.0
  0
ARC
  5
C866
330
C7C8
100
AcDbEntity
  8
1
  6
Continuous
100
AcDbCircle
 10
27.833508
 20
249.7916379999999
 30
0.0
 40
1.0
100
AcDbArc
 50
270.0
 51
337.3663089999999
  0
LINE
  5
C867
330
C7C8
100
AcDbEntity
  8
1
  6
Continuous
100
AcDbLine
 10
171.045952
 20
56.5
 30
0.0
 11
171.045952
 21
55.25
 31
0.0
  0
LINE
  5
C868
330
C7C8
100
AcDbEntity
  8
1
  6
Continuous
100
AcDbLine
 10
181.545952
 20
41.00044699999997
 30
0.0
 11
181.545952
 21
42.25
 31
0.0
  0
LINE
  5
C869
330
C7C8
100
AcDbEntity
  8
1
  6
Continuous
100
AcDbLine
 10
181.795952
 20
56.5
 30
0.0
 11
181.795952
 21
55.25
 31
0.0
  0
LINE
  5
C86A
330
C7C8
100
AcDbEntity
  8
1
  6
Continuous
100
AcDbLine
 10
170.7959519999998
 20
56.5
 30
0.0
 11
170.7959519999998
 21
55.25
 31
0.0
  0
LINE
  5
C86B
330
C7C8
100
AcDbEntity
  8
1
  6
Continuous
100
AcDbLine
 10
170.7959519999998
 20
56.5
 30
0.0
 11
169.5459519999998
 21
55.25
 31
0.0
  0
LINE
  5
C86C
330
C7C8
100
AcDbEntity
  8
1
  6
Continuous
100
AcDbLine
 10
181.795952
 20
56.5
 30
0.0
 11
183.0459519999998
 21
55.25
 31
0.0
  0
LINE
  5
C86D
330
C7C8
100
AcDbEntity
  8
1
  6
Continuous
100
AcDbLine
 10
170.7959519999998
 20
41.00044699999997
 30
0.0
 11
169.546026
 21
42.25
 31
0.0
  0
LINE
  5
C86E
330
C7C8
100
AcDbEntity
  8
1
  6
Continuous
100
AcDbLine
 10
181.795952
 20
41.0
 30
0.0
 11
183.0459519999998
 21
42.25
 31
0.0
  0
LINE
  5
C86F
330
C7C8
100
AcDbEntity
  8
1
  6
Continuous
100
AcDbLine
 10
181.795952
 20
42.25
 30
0.0
 11
181.795952
 21
41.00044699999997
 31
0.0
  0
LINE
  5
C870
330
C7C8
100
AcDbEntity
  8
1
  6
Continuous
100
AcDbLine
 10
181.545952
 20
55.25
 30
0.0
 11
181.545952
 21
56.5
 31
0.0
  0
LINE
  5
C871
330
C7C8
100
AcDbEntity
  8
1
  6
Continuous
100
AcDbLine
 10
171.045952
 20
42.25
 30
0.0
 11
171.045952
 21
41.00044699999997
 31
0.0
  0
LINE
  5
C872
330
C7C8
100
AcDbEntity
  8
1
  6
Continuous
100
AcDbLine
 10
170.7959519999998
 20
42.25
 30
0.0
 11
170.7959519999998
 21
41.00044699999997
 31
0.0
  0
LINE
  5
C873
330
C7C8
100
AcDbEntity
  8
1
  6
Continuous
100
AcDbLine
 10
313.276528
 20
248.7916379999998
 30
0.0
 11
312.951069
 21
246.706416
 31
0.0
  0
LINE
  5
C874
330
C7C8
100
AcDbEntity
  8
1
  6
Continuous
100
AcDbLine
 10
326.2704529999999
 20
248.7916379999998
 30
0.0
 11
326.5870569999999
 21
246.7054039999999
 31
0.0
  0
LINE
  5
C875
330
C7C8
100
AcDbEntity
  8
1
  6
Continuous
100
AcDbLine
 10
26.246226
 20
248.7916379999998
 30
0.0
 11
25.920766
 21
246.706416
 31
0.0
  0
LINE
  5
C876
330
C7C8
100
AcDbEntity
  8
1
  6
Continuous
100
AcDbLine
 10
39.24015
 20
248.7916379999998
 30
0.0
 11
39.556754
 21
246.7054039999999
 31
0.0
  0
LINE
  5
C877
330
C7C8
100
AcDbEntity
  8
1
  6
Continuous
100
AcDbLine
 10
26.25
 20
248.0920659999999
 30
0.0
 11
39.25
 21
248.0920659999999
 31
0.0
  0
LINE
  5
C878
330
C7C8
100
AcDbEntity
  8
1
  6
Continuous
100
AcDbLine
 10
313.280303
 20
248.3280249999999
 30
0.0
 11
315.628774
 21
248.3280249999999
 31
0.0
  0
LINE
  5
C879
330
C7C8
100
AcDbEntity
  8
1
  6
Continuous
100
AcDbLine
 10
323.9318309999998
 20
248.3280249999999
 30
0.0
 11
326.280303
 21
248.3280249999999
 31
0.0
  0
ARC
  5
C87A
330
C7C8
100
AcDbEntity
  8
5
  6
PHANTOM
100
AcDbCircle
 10
176.5167299999999
 20
176.3049649999999
 30
0.0
 40
71.0
100
AcDbArc
 50
94.50647899999998
 51
53.866328
  0
ARC
  5
C87B
330
C7C8
100
AcDbEntity
  8
1
  6
Continuous
100
AcDbCircle
 10
176.295952
 20
172.3000219999999
 30
0.0
 40
75.0
100
AcDbArc
 50
94.09801899999996
 51
63.53315900000001
  0
ARC
  5
C87C
330
C7C8
100
AcDbEntity
  8
5
  6
PHANTOM
100
AcDbCircle
 10
176.5167299999999
 20
176.3049649999999
 30
0.0
 40
71.79999999999998
100
AcDbArc
 50
94.509345
 51
53.90305399999999
  0
ARC
  5
C87D
330
C7C8
100
AcDbEntity
  8
5
  6
PHANTOM
100
AcDbCircle
 10
176.5167299999999
 20
176.3049649999999
 30
0.0
 40
72.59999999999998
100
AcDbArc
 50
42.22607199999997
 51
53.93902199999999
  0
ARC
  5
C87E
330
C7C8
100
AcDbEntity
  8
1
  6
Continuous
100
AcDbCircle
 10
176.295952
 20
172.3000219999999
 30
0.0
 40
75.79999999999998
100
AcDbArc
 50
94.105045
 51
63.584378
  0
LINE
  5
C87F
330
C7C8
100
AcDbEntity
  8
5
  6
PHANTOM
100
AcDbLine
 10
230.276947
 20
225.096347
 30
0.0
 11
229.6845479999999
 21
224.5587009999999
 31
0.0
  0
LINE
  5
C880
330
C7C8
100
AcDbEntity
  8
4
  6
CENTER
100
AcDbLine
 10
11.25
 20
172.3000219999999
 30
0.0
 11
54.25
 21
172.3000219999999
 31
0.0
  0
LINE
  5
C881
330
C7C8
100
AcDbEntity
  8
1
  6
Continuous
100
AcDbLine
 10
210.1818779999999
 20
240.9972129999999
 30
0.0
 11
209.8225789999999
 21
240.2688019999999
 31
0.0
  0
LINE
  5
C882
330
C7C8
100
AcDbEntity
  8
1
  6
Continuous
100
AcDbLine
 10
26.25
 20
96.50002200000001
 30
0.0
 11
39.25
 21
96.50002200000001
 31
0.0
  0
LINE
  5
C883
330
C7C8
100
AcDbEntity
  8
1
  6
Continuous
100
AcDbLine
 10
100.495952
 20
42.25
 30
0.0
 11
100.495952
 21
55.25
 31
0.0
  0
LINE
  5
C884
330
C7C8
100
AcDbEntity
  8
1
  6
Continuous
100
AcDbLine
 10
252.095952
 20
42.25
 30
0.0
 11
252.095952
 21
55.25
 31
0.0
  0
LINE
  5
C885
330
C7C8
100
AcDbEntity
  8
1
  6
Continuous
100
AcDbLine
 10
100.495952
 20
299.0416
 30
0.0
 11
100.495952
 21
312.0416
 31
0.0
  0
LINE
  5
C886
330
C7C8
100
AcDbEntity
  8
1
  6
Continuous
100
AcDbLine
 10
252.095952
 20
299.0416
 30
0.0
 11
252.095952
 21
312.0416
 31
0.0
  0
LINE
  5
C887
330
C7C8
100
AcDbEntity
  8
4
  6
CENTER
100
AcDbLine
 10
85.495952
 20
172.3000219999999
 30
0.0
 11
267.095952
 21
172.3000219999999
 31
0.0
  0
LINE
  5
C888
330
C7C8
100
AcDbEntity
  8
4
  6
CENTER
100
AcDbLine
 10
298.2803029999999
 20
172.3000219999999
 30
0.0
 11
341.280303
 21
172.3000219999999
 31
0.0
  0
LINE
  5
C889
330
C7C8
100
AcDbEntity
  8
1
  6
Continuous
100
AcDbLine
 10
313.280303
 20
96.50002200000001
 30
0.0
 11
326.280303
 21
96.50002200000001
 31
0.0
  0
ARC
  5
C88A
330
C7C8
100
AcDbEntity
  8
1
  6
Continuous
100
AcDbCircle
 10
165.658479
 20
302.760509
 30
0.0
 40
0.3
100
AcDbArc
 50
226.8609269999998
 51
313.139073
  0
ARC
  5
C88B
330
C7C8
100
AcDbEntity
  8
1
  6
Continuous
100
AcDbCircle
 10
166.2584789999999
 20
308.460509
 30
0.0
 40
0.3
100
AcDbArc
 50
15.682348
 51
164.317652
  0
LINE
  5
C88C
330
C7C8
100
AcDbEntity
  8
1
  6
Continuous
100
AcDbLine
 10
160.4603739999998
 20
305.5821439999999
 30
0.0
 11
160.4603739999998
 21
302.888327
 31
0.0
  0
LINE
  5
C88D
330
C7C8
100
AcDbEntity
  8
1
  6
Continuous
100
AcDbLine
 10
161.6537989999999
 20
308.5258609999999
 30
0.0
 11
161.0603739999999
 21
302.888327
 31
0.0
  0
ARC
  5
C88E
330
C7C8
100
AcDbEntity
  8
1
  6
Continuous
100
AcDbCircle
 10
160.760374
 20
302.888327
 30
0.0
 40
0.3
100
AcDbArc
 50
180.0
 51
0.0
  0
ARC
  5
C88F
330
C7C8
100
AcDbEntity
  8
1
  6
Continuous
100
AcDbCircle
 10
161.960374
 20
305.5821439999999
 30
0.0
 40
1.5
100
AcDbArc
 50
168.1113419999998
 51
180.0
  0
LINE
  5
C890
330
C7C8
100
AcDbEntity
  8
1
  6
Continuous
100
AcDbLine
 10
161.0603739999999
 20
308.588327
 30
0.0
 11
160.49255
 21
305.89116
 31
0.0
  0
ARC
  5
C891
330
C7C8
100
AcDbEntity
  8
1
  6
Continuous
100
AcDbCircle
 10
161.360374
 20
308.588327
 30
0.0
 40
0.3
100
AcDbArc
 50
347.9819879999998
 51
180.0
  0
LINE
  5
C892
330
C7C8
100
AcDbEntity
  8
1
  6
Continuous
100
AcDbLine
 10
162.860374
 20
305.5821439999999
 30
0.0
 11
162.860374
 21
302.888327
 31
0.0
  0
LINE
  5
C893
330
C7C8
100
AcDbEntity
  8
1
  6
Continuous
100
AcDbLine
 10
164.053799
 20
308.5258609999999
 30
0.0
 11
163.9091359999999
 21
307.151562
 31
0.0
  0
ARC
  5
C894
330
C7C8
100
AcDbEntity
  8
1
  6
Continuous
100
AcDbCircle
 10
163.1603739999999
 20
302.888327
 30
0.0
 40
0.3
100
AcDbArc
 50
180.0
 51
0.0
  0
LINE
  5
C895
330
C7C8
100
AcDbEntity
  8
1
  6
Continuous
100
AcDbLine
 10
163.460374
 20
308.588327
 30
0.0
 11
162.89255
 21
305.89116
 31
0.0
  0
ARC
  5
C896
330
C7C8
100
AcDbEntity
  8
1
  6
Continuous
100
AcDbCircle
 10
163.760374
 20
308.588327
 30
0.0
 40
0.3
100
AcDbArc
 50
347.9819879999998
 51
180.0
  0
ARC
  5
C897
330
C7C8
100
AcDbEntity
  8
1
  6
Continuous
100
AcDbCircle
 10
164.360374
 20
305.5821439999999
 30
0.0
 40
1.5
100
AcDbArc
 50
168.1113419999998
 51
180.0
  0
LINE
  5
C898
330
C7C8
100
AcDbEntity
  8
1
  6
Continuous
100
AcDbLine
 10
159.2537989999998
 20
308.5258609999999
 30
0.0
 11
158.6603739999999
 21
302.888327
 31
0.0
  0
LINE
  5
C899
330
C7C8
100
AcDbEntity
  8
1
  6
Continuous
100
AcDbLine
 10
158.6603739999999
 20
308.588327
 30
0.0
 11
158.09255
 21
305.89116
 31
0.0
  0
ARC
  5
C89A
330
C7C8
100
AcDbEntity
  8
1
  6
Continuous
100
AcDbCircle
 10
158.960374
 20
308.588327
 30
0.0
 40
0.3
100
AcDbArc
 50
347.9819879999998
 51
180.0
  0
LINE
  5
C89B
330
C7C8
100
AcDbEntity
  8
1
  6
Continuous
100
AcDbLine
 10
158.0603739999999
 20
305.5821439999999
 30
0.0
 11
158.0603739999999
 21
302.888327
 31
0.0
  0
ARC
  5
C89C
330
C7C8
100
AcDbEntity
  8
1
  6
Continuous
100
AcDbCircle
 10
158.360374
 20
302.888327
 30
0.0
 40
0.3
100
AcDbArc
 50
180.0
 51
0.0
  0
ARC
  5
C89D
330
C7C8
100
AcDbEntity
  8
1
  6
Continuous
100
AcDbCircle
 10
159.560374
 20
305.5821439999999
 30
0.0
 40
1.5
100
AcDbArc
 50
168.1113419999998
 51
180.0
  0
LINE
  5
C89E
330
C7C8
100
AcDbEntity
  8
1
  6
Continuous
100
AcDbLine
 10
156.853799
 20
308.5258609999999
 30
0.0
 11
156.260374
 21
302.888327
 31
0.0
  0
ARC
  5
C89F
330
C7C8
100
AcDbEntity
  8
1
  6
Continuous
100
AcDbCircle
 10
156.560374
 20
308.588327
 30
0.0
 40
0.3
100
AcDbArc
 50
347.9819879999998
 51
180.0
  0
LINE
  5
C8A0
330
C7C8
100
AcDbEntity
  8
1
  6
Continuous
100
AcDbLine
 10
156.260374
 20
308.588327
 30
0.0
 11
155.69255
 21
305.89116
 31
0.0
  0
LINE
  5
C8A1
330
C7C8
100
AcDbEntity
  8
1
  6
Continuous
100
AcDbLine
 10
155.6603739999999
 20
305.5821439999999
 30
0.0
 11
155.6603739999999
 21
302.888327
 31
0.0
  0
ARC
  5
C8A2
330
C7C8
100
AcDbEntity
  8
1
  6
Continuous
100
AcDbCircle
 10
155.960374
 20
302.888327
 30
0.0
 40
0.3
100
AcDbArc
 50
180.0
 51
0.0
  0
ARC
  5
C8A3
330
C7C8
100
AcDbEntity
  8
1
  6
Continuous
100
AcDbCircle
 10
157.160374
 20
305.5821439999999
 30
0.0
 40
1.5
100
AcDbArc
 50
168.1113419999998
 51
180.0
  0
LINE
  5
C8A4
330
C7C8
100
AcDbEntity
  8
1
  6
Continuous
100
AcDbLine
 10
154.453799
 20
308.5258609999999
 30
0.0
 11
153.860374
 21
302.888327
 31
0.0
  0
LINE
  5
C8A5
330
C7C8
100
AcDbEntity
  8
1
  6
Continuous
100
AcDbLine
 10
153.860374
 20
308.588327
 30
0.0
 11
153.29255
 21
305.89116
 31
0.0
  0
ARC
  5
C8A6
330
C7C8
100
AcDbEntity
  8
1
  6
Continuous
100
AcDbCircle
 10
154.160374
 20
308.588327
 30
0.0
 40
0.3
100
AcDbArc
 50
347.9819879999998
 51
180.0
  0
LINE
  5
C8A7
330
C7C8
100
AcDbEntity
  8
1
  6
Continuous
100
AcDbLine
 10
153.260374
 20
305.5821439999999
 30
0.0
 11
153.260374
 21
302.888327
 31
0.0
  0
ARC
  5
C8A8
330
C7C8
100
AcDbEntity
  8
1
  6
Continuous
100
AcDbCircle
 10
153.5603739999999
 20
302.888327
 30
0.0
 40
0.3
100
AcDbArc
 50
180.0
 51
0.0
  0
ARC
  5
C8A9
330
C7C8
100
AcDbEntity
  8
1
  6
Continuous
100
AcDbCircle
 10
154.760374
 20
305.5821439999999
 30
0.0
 40
1.5
100
AcDbArc
 50
168.1113419999998
 51
180.0
  0
LINE
  5
C8AA
330
C7C8
100
AcDbEntity
  8
1
  6
Continuous
100
AcDbLine
 10
152.053799
 20
308.5258609999999
 30
0.0
 11
151.460374
 21
302.888327
 31
0.0
  0
ARC
  5
C8AB
330
C7C8
100
AcDbEntity
  8
1
  6
Continuous
100
AcDbCircle
 10
151.760374
 20
308.588327
 30
0.0
 40
0.3
100
AcDbArc
 50
347.9819879999998
 51
180.0
  0
LINE
  5
C8AC
330
C7C8
100
AcDbEntity
  8
1
  6
Continuous
100
AcDbLine
 10
151.460374
 20
308.588327
 30
0.0
 11
150.89255
 21
305.89116
 31
0.0
  0
LINE
  5
C8AD
330
C7C8
100
AcDbEntity
  8
1
  6
Continuous
100
AcDbLine
 10
150.860374
 20
305.5821439999999
 30
0.0
 11
150.860374
 21
302.888327
 31
0.0
  0
ARC
  5
C8AE
330
C7C8
100
AcDbEntity
  8
1
  6
Continuous
100
AcDbCircle
 10
151.1603739999999
 20
302.888327
 30
0.0
 40
0.3
100
AcDbArc
 50
180.0
 51
0.0
  0
ARC
  5
C8AF
330
C7C8
100
AcDbEntity
  8
1
  6
Continuous
100
AcDbCircle
 10
152.360374
 20
305.5821439999999
 30
0.0
 40
1.5
100
AcDbArc
 50
168.1113419999998
 51
180.0
  0
LINE
  5
C8B0
330
C7C8
100
AcDbEntity
  8
1
  6
Continuous
100
AcDbLine
 10
149.653799
 20
308.5258609999999
 30
0.0
 11
149.060374
 21
302.888327
 31
0.0
  0
LINE
  5
C8B1
330
C7C8
100
AcDbEntity
  8
1
  6
Continuous
100
AcDbLine
 10
149.060374
 20
308.588327
 30
0.0
 11
148.4925499999999
 21
305.89116
 31
0.0
  0
ARC
  5
C8B2
330
C7C8
100
AcDbEntity
  8
1
  6
Continuous
100
AcDbCircle
 10
149.360374
 20
308.588327
 30
0.0
 40
0.3
100
AcDbArc
 50
347.9819879999998
 51
180.0
  0
LINE
  5
C8B3
330
C7C8
100
AcDbEntity
  8
1
  6
Continuous
100
AcDbLine
 10
148.460374
 20
305.5821439999999
 30
0.0
 11
148.460374
 21
302.888327
 31
0.0
  0
ARC
  5
C8B4
330
C7C8
100
AcDbEntity
  8
1
  6
Continuous
100
AcDbCircle
 10
148.760374
 20
302.888327
 30
0.0
 40
0.3
100
AcDbArc
 50
180.0
 51
0.0
  0
ARC
  5
C8B5
330
C7C8
100
AcDbEntity
  8
1
  6
Continuous
100
AcDbCircle
 10
149.9603739999998
 20
305.5821439999999
 30
0.0
 40
1.5
100
AcDbArc
 50
168.1113419999998
 51
180.0
  0
LINE
  5
C8B6
330
C7C8
100
AcDbEntity
  8
1
  6
Continuous
100
AcDbLine
 10
147.253799
 20
308.5258609999999
 30
0.0
 11
146.6603739999999
 21
302.888327
 31
0.0
  0
ARC
  5
C8B7
330
C7C8
100
AcDbEntity
  8
1
  6
Continuous
100
AcDbCircle
 10
146.9603739999998
 20
308.588327
 30
0.0
 40
0.3
100
AcDbArc
 50
347.9819879999998
 51
180.0
  0
LINE
  5
C8B8
330
C7C8
100
AcDbEntity
  8
1
  6
Continuous
100
AcDbLine
 10
146.6603739999999
 20
308.588327
 30
0.0
 11
146.0925499999999
 21
305.89116
 31
0.0
  0
LINE
  5
C8B9
330
C7C8
100
AcDbEntity
  8
1
  6
Continuous
100
AcDbLine
 10
146.0603739999999
 20
305.5821439999999
 30
0.0
 11
146.0603739999999
 21
302.888327
 31
0.0
  0
ARC
  5
C8BA
330
C7C8
100
AcDbEntity
  8
1
  6
Continuous
100
AcDbCircle
 10
146.360374
 20
302.888327
 30
0.0
 40
0.3
100
AcDbArc
 50
180.0
 51
0.0
  0
ARC
  5
C8BB
330
C7C8
100
AcDbEntity
  8
1
  6
Continuous
100
AcDbCircle
 10
147.5603739999999
 20
305.5821439999999
 30
0.0
 40
1.5
100
AcDbArc
 50
168.1113419999998
 51
180.0
  0
LINE
  5
C8BC
330
C7C8
100
AcDbEntity
  8
1
  6
Continuous
100
AcDbLine
 10
144.853799
 20
308.5258609999999
 30
0.0
 11
144.260374
 21
302.888327
 31
0.0
  0
LINE
  5
C8BD
330
C7C8
100
AcDbEntity
  8
1
  6
Continuous
100
AcDbLine
 10
144.260374
 20
308.588327
 30
0.0
 11
143.69255
 21
305.89116
 31
0.0
  0
ARC
  5
C8BE
330
C7C8
100
AcDbEntity
  8
1
  6
Continuous
100
AcDbCircle
 10
144.5603739999999
 20
308.588327
 30
0.0
 40
0.3
100
AcDbArc
 50
347.9819879999998
 51
180.0
  0
LINE
  5
C8BF
330
C7C8
100
AcDbEntity
  8
1
  6
Continuous
100
AcDbLine
 10
143.6603739999999
 20
305.5821439999999
 30
0.0
 11
143.6603739999999
 21
302.888327
 31
0.0
  0
ARC
  5
C8C0
330
C7C8
100
AcDbEntity
  8
1
  6
Continuous
100
AcDbCircle
 10
143.960374
 20
302.888327
 30
0.0
 40
0.3
100
AcDbArc
 50
180.0
 51
0.0
  0
ARC
  5
C8C1
330
C7C8
100
AcDbEntity
  8
1
  6
Continuous
100
AcDbCircle
 10
145.1603739999999
 20
305.5821439999999
 30
0.0
 40
1.5
100
AcDbArc
 50
168.1113419999998
 51
180.0
  0
LINE
  5
C8C2
330
C7C8
100
AcDbEntity
  8
1
  6
Continuous
100
AcDbLine
 10
142.453799
 20
308.5258609999999
 30
0.0
 11
141.860374
 21
302.888327
 31
0.0
  0
ARC
  5
C8C3
330
C7C8
100
AcDbEntity
  8
1
  6
Continuous
100
AcDbCircle
 10
142.760374
 20
305.5821439999999
 30
0.0
 40
1.5
100
AcDbArc
 50
168.1113419999998
 51
180.0
  0
ARC
  5
C8C4
330
C7C8
100
AcDbEntity
  8
1
  6
Continuous
100
AcDbCircle
 10
142.1603739999999
 20
308.588327
 30
0.0
 40
0.3
100
AcDbArc
 50
347.9819879999998
 51
180.0
  0
LINE
  5
C8C5
330
C7C8
100
AcDbEntity
  8
1
  6
Continuous
100
AcDbLine
 10
141.860374
 20
308.588327
 30
0.0
 11
141.29255
 21
305.89116
 31
0.0
  0
LINE
  5
C8C6
330
C7C8
100
AcDbEntity
  8
1
  6
Continuous
100
AcDbLine
 10
141.260374
 20
305.5821439999999
 30
0.0
 11
141.260374
 21
302.888327
 31
0.0
  0
ARC
  5
C8C7
330
C7C8
100
AcDbEntity
  8
1
  6
Continuous
100
AcDbCircle
 10
141.5603739999999
 20
302.888327
 30
0.0
 40
0.3
100
AcDbArc
 50
180.0
 51
0.0
  0
LINE
  5
C8C8
330
C7C8
100
AcDbEntity
  8
1
  6
Continuous
100
AcDbLine
 10
32.5529
 20
239.6975659999999
 30
0.0
 11
35.53139999999999
 21
239.6975659999999
 31
0.0
  0
LINE
  5
C8C9
330
C7C8
100
AcDbEntity
  8
1
  6
Continuous
100
AcDbLine
 10
32.5529
 20
241.038598
 30
0.0
 11
35.55040000000001
 21
241.038598
 31
0.0
  0
LINE
  5
C8CA
330
C7C8
100
AcDbEntity
  8
1
  6
Continuous
100
AcDbLine
 10
32.5529
 20
242.229837
 30
0.0
 11
35.61290000000001
 21
242.229837
 31
0.0
  0
LINE
  5
C8CB
330
C7C8
100
AcDbEntity
  8
1
  6
Continuous
100
AcDbLine
 10
32.5529
 20
243.2816929999999
 30
0.0
 11
35.5844
 21
243.2816929999999
 31
0.0
  0
LINE
  5
C8CC
330
C7C8
100
AcDbEntity
  8
1
  6
Continuous
100
AcDbLine
 10
32.5529
 20
244.202566
 30
0.0
 11
35.60014999999999
 21
244.202566
 31
0.0
  0
LINE
  5
C8CD
330
C7C8
100
AcDbEntity
  8
1
  6
Continuous
100
AcDbLine
 10
32.5529
 20
244.9992649999999
 30
0.0
 11
35.6149
 21
244.9992649999999
 31
0.0
  0
LINE
  5
C8CE
330
C7C8
100
AcDbEntity
  8
1
  6
Continuous
100
AcDbLine
 10
32.5529
 20
245.6773029999999
 30
0.0
 11
35.64065
 21
245.6773029999999
 31
0.0
  0
LINE
  5
C8CF
330
C7C8
100
AcDbEntity
  8
1
  6
Continuous
100
AcDbLine
 10
32.5529
 20
246.241118
 30
0.0
 11
35.67315
 21
246.241118
 31
0.0
  0
LINE
  5
C8D0
330
C7C8
100
AcDbEntity
  8
1
  6
Continuous
100
AcDbLine
 10
32.5529
 20
246.6942319999998
 30
0.0
 11
35.65665
 21
246.6942319999998
 31
0.0
  0
ARC
  5
C8D1
330
C7C8
100
AcDbEntity
  8
1
  6
Continuous
100
AcDbCircle
 10
29.61814999999999
 20
237.155949
 30
0.0
 40
0.21525
100
AcDbArc
 50
90.0
 51
270.0
  0
ARC
  5
C8D2
330
C7C8
100
AcDbEntity
  8
1
  6
Continuous
100
AcDbCircle
 10
35.48765
 20
236.7259319999998
 30
0.0
 40
0.21525
100
AcDbArc
 50
261.619662
 51
90.0
  0
ARC
  5
C8D3
330
C7C8
100
AcDbEntity
  8
1
  6
Continuous
100
AcDbCircle
 10
35.51064999999999
 20
238.38599
 30
0.0
 40
0.19225
100
AcDbArc
 50
270.0
 51
90.0
  0
ARC
  5
C8D4
330
C7C8
100
AcDbEntity
  8
1
  6
Continuous
100
AcDbCircle
 10
29.59515
 20
238.770568
 30
0.0
 40
0.19225
100
AcDbArc
 50
90.0
 51
270.0
  0
LINE
  5
C8D5
330
C7C8
100
AcDbEntity
  8
1
  6
Continuous
100
AcDbLine
 10
29.61814999999999
 20
237.3711989999999
 30
0.0
 11
35.48765
 21
236.9411819999999
 31
0.0
  0
LINE
  5
C8D6
330
C7C8
100
AcDbEntity
  8
1
  6
Continuous
100
AcDbLine
 10
35.45627899999999
 20
236.5129799999999
 30
0.0
 11
32.5529
 21
236.5129799999999
 31
0.0
  0
LINE
  5
C8D7
330
C7C8
100
AcDbEntity
  8
1
  6
Continuous
100
AcDbLine
 10
35.51064999999999
 20
238.1937399999999
 30
0.0
 11
32.5529
 21
238.1937399999999
 31
0.0
  0
LINE
  5
C8D8
330
C7C8
100
AcDbEntity
  8
1
  6
Continuous
100
AcDbLine
 10
29.61814999999999
 20
236.940699
 30
0.0
 11
32.5529
 21
236.5129799999999
 31
0.0
  0
LINE
  5
C8D9
330
C7C8
100
AcDbEntity
  8
1
  6
Continuous
100
AcDbLine
 10
29.59515
 20
238.962818
 30
0.0
 11
35.51064999999999
 21
238.57824
 31
0.0
  0
LINE
  5
C8DA
330
C7C8
100
AcDbEntity
  8
1
  6
Continuous
100
AcDbLine
 10
29.59515
 20
238.578318
 30
0.0
 11
32.5529
 21
238.1937399999999
 31
0.0
  0
ARC
  5
C8DB
330
C7C8
100
AcDbEntity
  8
1
  6
Continuous
100
AcDbCircle
 10
35.53139999999999
 20
239.869066
 30
0.0
 40
0.1715
100
AcDbArc
 50
270.0
 51
90.0
  0
ARC
  5
C8DC
330
C7C8
100
AcDbEntity
  8
1
  6
Continuous
100
AcDbCircle
 10
29.5744
 20
240.2123759999998
 30
0.0
 40
0.1715
100
AcDbArc
 50
83.40322200000001
 51
270.0
  0
LINE
  5
C8DD
330
C7C8
100
AcDbEntity
  8
1
  6
Continuous
100
AcDbLine
 10
29.59410200000001
 20
240.3827399999999
 30
0.0
 11
35.53139999999999
 21
240.040566
 31
0.0
  0
LINE
  5
C8DE
330
C7C8
100
AcDbEntity
  8
1
  6
Continuous
100
AcDbLine
 10
29.5744
 20
240.0408759999999
 30
0.0
 11
32.5529
 21
239.6975659999999
 31
0.0
  0
ARC
  5
C8DF
330
C7C8
100
AcDbEntity
  8
1
  6
Continuous
100
AcDbCircle
 10
35.55040000000001
 20
241.191098
 30
0.0
 40
0.1525
100
AcDbArc
 50
270.0
 51
90.0
  0
ARC
  5
C8E0
330
C7C8
100
AcDbEntity
  8
1
  6
Continuous
100
AcDbCircle
 10
29.5554
 20
241.496475
 30
0.0
 40
0.1525
100
AcDbArc
 50
84.16789599999999
 51
270.0
  0
LINE
  5
C8E1
330
C7C8
100
AcDbEntity
  8
1
  6
Continuous
100
AcDbLine
 10
29.570896
 20
241.6481859999999
 30
0.0
 11
35.55040000000001
 21
241.343598
 31
0.0
  0
LINE
  5
C8E2
330
C7C8
100
AcDbEntity
  8
1
  6
Continuous
100
AcDbLine
 10
29.5554
 20
241.343975
 30
0.0
 11
32.5529
 21
241.038598
 31
0.0
  0
ARC
  5
C8E3
330
C7C8
100
AcDbEntity
  8
1
  6
Continuous
100
AcDbCircle
 10
29.49289999999999
 20
242.6797399999999
 30
0.0
 40
0.09
100
AcDbArc
 50
90.0
 51
270.0
  0
ARC
  5
C8E4
330
C7C8
100
AcDbEntity
  8
1
  6
Continuous
100
AcDbCircle
 10
35.61290000000001
 20
242.319837
 30
0.0
 40
0.09
100
AcDbArc
 50
270.0
 51
90.0
  0
LINE
  5
C8E5
330
C7C8
100
AcDbEntity
  8
1
  6
Continuous
100
AcDbLine
 10
29.49289999999999
 20
242.76974
 30
0.0
 11
35.61290000000001
 21
242.409837
 31
0.0
  0
LINE
  5
C8E6
330
C7C8
100
AcDbEntity
  8
1
  6
Continuous
100
AcDbLine
 10
29.49289999999999
 20
242.5897399999998
 30
0.0
 11
32.5529
 21
242.229837
 31
0.0
  0
ARC
  5
C8E7
330
C7C8
100
AcDbEntity
  8
1
  6
Continuous
100
AcDbCircle
 10
29.52139999999999
 20
243.637021
 30
0.0
 40
0.1185
100
AcDbArc
 50
85.52619399999997
 51
270.0
  0
ARC
  5
C8E8
330
C7C8
100
AcDbEntity
  8
1
  6
Continuous
100
AcDbCircle
 10
35.5844
 20
243.400193
 30
0.0
 40
0.1185
100
AcDbArc
 50
270.0
 51
90.0
  0
LINE
  5
C8E9
330
C7C8
100
AcDbEntity
  8
1
  6
Continuous
100
AcDbLine
 10
29.53064299999999
 20
243.7551599999999
 30
0.0
 11
35.5844
 21
243.5186929999999
 31
0.0
  0
LINE
  5
C8EA
330
C7C8
100
AcDbEntity
  8
1
  6
Continuous
100
AcDbLine
 10
32.5529
 20
243.2816929999999
 30
0.0
 11
29.52139999999999
 21
243.5185209999999
 31
0.0
  0
ARC
  5
C8EB
330
C7C8
100
AcDbEntity
  8
1
  6
Continuous
100
AcDbCircle
 10
29.50565
 20
244.511133
 30
0.0
 40
0.10275
100
AcDbArc
 50
90.0
 51
270.0
  0
ARC
  5
C8EC
330
C7C8
100
AcDbEntity
  8
1
  6
Continuous
100
AcDbCircle
 10
35.60014999999999
 20
244.305316
 30
0.0
 40
0.10275
100
AcDbArc
 50
270.0
 51
90.0
  0
LINE
  5
C8ED
330
C7C8
100
AcDbEntity
  8
1
  6
Continuous
100
AcDbLine
 10
29.50565
 20
244.6138829999999
 30
0.0
 11
35.60014999999999
 21
244.408066
 31
0.0
  0
LINE
  5
C8EE
330
C7C8
100
AcDbEntity
  8
1
  6
Continuous
100
AcDbLine
 10
29.50565
 20
244.4083829999999
 30
0.0
 11
32.5529
 21
244.202566
 31
0.0
  0
ARC
  5
C8EF
330
C7C8
100
AcDbEntity
  8
1
  6
Continuous
100
AcDbCircle
 10
35.6149
 20
245.0872649999999
 30
0.0
 40
0.088
100
AcDbArc
 50
270.0
 51
90.0
  0
ARC
  5
C8F0
330
C7C8
100
AcDbEntity
  8
1
  6
Continuous
100
AcDbCircle
 10
29.49089999999999
 20
245.2629589999999
 30
0.0
 40
0.088
100
AcDbArc
 50
86.71334399999997
 51
270.0
  0
LINE
  5
C8F1
330
C7C8
100
AcDbEntity
  8
1
  6
Continuous
100
AcDbLine
 10
29.49594499999999
 20
245.350814
 30
0.0
 11
35.6149
 21
245.1752649999999
 31
0.0
  0
LINE
  5
C8F2
330
C7C8
100
AcDbEntity
  8
1
  6
Continuous
100
AcDbLine
 10
29.49089999999999
 20
245.1749589999999
 30
0.0
 11
32.5529
 21
244.9992649999999
 31
0.0
  0
ARC
  5
C8F3
330
C7C8
100
AcDbEntity
  8
1
  6
Continuous
100
AcDbCircle
 10
29.46515
 20
245.909454
 30
0.0
 40
0.06225
100
AcDbArc
 50
90.0
 51
270.0
  0
ARC
  5
C8F4
330
C7C8
100
AcDbEntity
  8
1
  6
Continuous
100
AcDbCircle
 10
35.64065
 20
245.7395529999998
 30
0.0
 40
0.06225
100
AcDbArc
 50
270.0
 51
90.0
  0
LINE
  5
C8F5
330
C7C8
100
AcDbEntity
  8
1
  6
Continuous
100
AcDbLine
 10
29.46515
 20
245.971704
 30
0.0
 11
35.64065
 21
245.8018029999998
 31
0.0
  0
LINE
  5
C8F6
330
C7C8
100
AcDbEntity
  8
1
  6
Continuous
100
AcDbLine
 10
32.5529
 20
245.6773029999999
 30
0.0
 11
29.46515
 21
245.847204
 31
0.0
  0
ARC
  5
C8F7
330
C7C8
100
AcDbEntity
  8
1
  6
Continuous
100
AcDbCircle
 10
29.43265
 20
246.4503329999998
 30
0.0
 40
0.02975
100
AcDbArc
 50
86.70546800000003
 51
270.0
  0
ARC
  5
C8F8
330
C7C8
100
AcDbEntity
  8
1
  6
Continuous
100
AcDbCircle
 10
35.67315
 20
246.2708679999999
 30
0.0
 40
0.02975
100
AcDbArc
 50
270.0
 51
90.0
  0
LINE
  5
C8F9
330
C7C8
100
AcDbEntity
  8
1
  6
Continuous
100
AcDbLine
 10
35.67315
 20
246.3006179999999
 30
0.0
 11
29.43435900000001
 21
246.480034
 31
0.0
  0
LINE
  5
C8FA
330
C7C8
100
AcDbEntity
  8
1
  6
Continuous
100
AcDbLine
 10
29.43265
 20
246.420583
 30
0.0
 11
32.5529
 21
246.241118
 31
0.0
  0
LINE
  5
C8FB
330
C7C8
100
AcDbEntity
  8
1
  6
Continuous
100
AcDbLine
 10
32.5529
 20
247.0385719999999
 30
0.0
 11
35.66964999999999
 21
247.0385719999999
 31
0.0
  0
ARC
  5
C8FC
330
C7C8
100
AcDbEntity
  8
1
  6
Continuous
100
AcDbCircle
 10
29.43615
 20
247.138202
 30
0.0
 40
0.03325
100
AcDbArc
 50
88.77976600000001
 51
270.0
  0
LINE
  5
C8FD
330
C7C8
100
AcDbEntity
  8
1
  6
Continuous
100
AcDbLine
 10
29.436858
 20
247.1714439999999
 30
0.0
 11
35.66964999999999
 21
247.105072
 31
0.0
  0
LINE
  5
C8FE
330
C7C8
100
AcDbEntity
  8
1
  6
Continuous
100
AcDbLine
 10
32.5529
 20
247.0385719999999
 30
0.0
 11
29.43615
 21
247.104952
 31
0.0
  0
ARC
  5
C8FF
330
C7C8
100
AcDbEntity
  8
1
  6
Continuous
100
AcDbCircle
 10
29.44914999999999
 20
246.832961
 30
0.0
 40
0.04625
100
AcDbArc
 50
88.292947
 51
270.0
  0
LINE
  5
C900
330
C7C8
100
AcDbEntity
  8
1
  6
Continuous
100
AcDbLine
 10
35.65665
 20
246.7867319999998
 30
0.0
 11
29.450528
 21
246.8791899999999
 31
0.0
  0
LINE
  5
C901
330
C7C8
100
AcDbEntity
  8
1
  6
Continuous
100
AcDbLine
 10
29.44914999999999
 20
246.7867109999999
 30
0.0
 11
32.5529
 21
246.6942319999998
 31
0.0
  0
LINE
  5
C902
330
C7C8
100
AcDbEntity
  8
1
  6
Continuous
100
AcDbLine
 10
29.901776
 20
216.495818
 30
0.0
 11
35.53931
 21
215.902393
 31
0.0
  0
LINE
  5
C903
330
C7C8
100
AcDbEntity
  8
1
  6
Continuous
100
AcDbLine
 10
29.901776
 20
218.8958179999999
 30
0.0
 11
35.53931
 21
218.302393
 31
0.0
  0
LINE
  5
C904
330
C7C8
100
AcDbEntity
  8
1
  6
Continuous
100
AcDbLine
 10
29.901776
 20
221.295818
 30
0.0
 11
35.53931
 21
220.702393
 31
0.0
  0
LINE
  5
C905
330
C7C8
100
AcDbEntity
  8
1
  6
Continuous
100
AcDbLine
 10
29.901776
 20
223.695818
 30
0.0
 11
35.53931
 21
223.102393
 31
0.0
  0
LINE
  5
C906
330
C7C8
100
AcDbEntity
  8
1
  6
Continuous
100
AcDbLine
 10
29.901776
 20
226.095818
 30
0.0
 11
35.53931
 21
225.502393
 31
0.0
  0
LINE
  5
C907
330
C7C8
100
AcDbEntity
  8
1
  6
Continuous
100
AcDbLine
 10
29.901776
 20
228.495818
 30
0.0
 11
35.53931
 21
227.902393
 31
0.0
  0
LINE
  5
C908
330
C7C8
100
AcDbEntity
  8
1
  6
Continuous
100
AcDbLine
 10
29.901776
 20
230.8958179999999
 30
0.0
 11
35.53931
 21
230.302393
 31
0.0
  0
LINE
  5
C909
330
C7C8
100
AcDbEntity
  8
1
  6
Continuous
100
AcDbLine
 10
29.83931
 20
215.902393
 30
0.0
 11
32.536478
 21
215.334568
 31
0.0
  0
ARC
  5
C90A
330
C7C8
100
AcDbEntity
  8
1
  6
Continuous
100
AcDbCircle
 10
29.83931
 20
216.202393
 30
0.0
 40
0.3
100
AcDbArc
 50
77.981988
 51
270.0
  0
ARC
  5
C90B
330
C7C8
100
AcDbEntity
  8
1
  6
Continuous
100
AcDbCircle
 10
29.83931
 20
218.602393
 30
0.0
 40
0.3
100
AcDbArc
 50
77.981988
 51
270.0
  0
LINE
  5
C90C
330
C7C8
100
AcDbEntity
  8
1
  6
Continuous
100
AcDbLine
 10
29.83931
 20
218.302393
 30
0.0
 11
32.536478
 21
217.734568
 31
0.0
  0
LINE
  5
C90D
330
C7C8
100
AcDbEntity
  8
1
  6
Continuous
100
AcDbLine
 10
29.83931
 20
220.702393
 30
0.0
 11
32.536478
 21
220.134568
 31
0.0
  0
ARC
  5
C90E
330
C7C8
100
AcDbEntity
  8
1
  6
Continuous
100
AcDbCircle
 10
29.83931
 20
221.002393
 30
0.0
 40
0.3
100
AcDbArc
 50
77.981988
 51
270.0
  0
ARC
  5
C90F
330
C7C8
100
AcDbEntity
  8
1
  6
Continuous
100
AcDbCircle
 10
29.83931
 20
223.4023929999999
 30
0.0
 40
0.3
100
AcDbArc
 50
77.981988
 51
270.0
  0
LINE
  5
C910
330
C7C8
100
AcDbEntity
  8
1
  6
Continuous
100
AcDbLine
 10
29.83931
 20
223.102393
 30
0.0
 11
32.536478
 21
222.534568
 31
0.0
  0
LINE
  5
C911
330
C7C8
100
AcDbEntity
  8
1
  6
Continuous
100
AcDbLine
 10
29.83931
 20
225.502393
 30
0.0
 11
32.536478
 21
224.934568
 31
0.0
  0
ARC
  5
C912
330
C7C8
100
AcDbEntity
  8
1
  6
Continuous
100
AcDbCircle
 10
29.83931
 20
225.802393
 30
0.0
 40
0.3
100
AcDbArc
 50
77.981988
 51
270.0
  0
ARC
  5
C913
330
C7C8
100
AcDbEntity
  8
1
  6
Continuous
100
AcDbCircle
 10
29.83931
 20
228.202393
 30
0.0
 40
0.3
100
AcDbArc
 50
77.981988
 51
270.0
  0
LINE
  5
C914
330
C7C8
100
AcDbEntity
  8
1
  6
Continuous
100
AcDbLine
 10
29.83931
 20
227.902393
 30
0.0
 11
32.536478
 21
227.3345679999999
 31
0.0
  0
LINE
  5
C915
330
C7C8
100
AcDbEntity
  8
1
  6
Continuous
100
AcDbLine
 10
29.83931
 20
230.302393
 30
0.0
 11
32.536478
 21
229.734568
 31
0.0
  0
ARC
  5
C916
330
C7C8
100
AcDbEntity
  8
1
  6
Continuous
100
AcDbCircle
 10
29.83931
 20
230.602393
 30
0.0
 40
0.3
100
AcDbArc
 50
77.981988
 51
270.0
  0
LINE
  5
C917
330
C7C8
100
AcDbEntity
  8
1
  6
Continuous
100
AcDbLine
 10
29.901776
 20
233.295818
 30
0.0
 11
35.53931
 21
232.702393
 31
0.0
  0
LINE
  5
C918
330
C7C8
100
AcDbEntity
  8
1
  6
Continuous
100
AcDbLine
 10
29.901776
 20
235.6958179999999
 30
0.0
 11
35.53931
 21
235.102393
 31
0.0
  0
ARC
  5
C919
330
C7C8
100
AcDbEntity
  8
1
  6
Continuous
100
AcDbCircle
 10
29.83931
 20
233.002393
 30
0.0
 40
0.3
100
AcDbArc
 50
77.981988
 51
270.0
  0
LINE
  5
C91A
330
C7C8
100
AcDbEntity
  8
1
  6
Continuous
100
AcDbLine
 10
29.83931
 20
232.702393
 30
0.0
 11
32.536478
 21
232.134568
 31
0.0
  0
ARC
  5
C91B
330
C7C8
100
AcDbEntity
  8
1
  6
Continuous
100
AcDbCircle
 10
29.83931
 20
235.4023929999999
 30
0.0
 40
0.3
100
AcDbArc
 50
77.981988
 51
270.0
  0
LINE
  5
C91C
330
C7C8
100
AcDbEntity
  8
1
  6
Continuous
100
AcDbLine
 10
29.83931
 20
235.102393
 30
0.0
 11
32.536478
 21
234.534568
 31
0.0
  0
LINE
  5
C91D
330
C7C8
100
AcDbEntity
  8
1
  6
Continuous
100
AcDbLine
 10
32.845493
 20
215.302393
 30
0.0
 11
35.53931
 21
215.302393
 31
0.0
  0
LINE
  5
C91E
330
C7C8
100
AcDbEntity
  8
1
  6
Continuous
100
AcDbLine
 10
32.845493
 20
217.702393
 30
0.0
 11
35.53931
 21
217.702393
 31
0.0
  0
LINE
  5
C91F
330
C7C8
100
AcDbEntity
  8
1
  6
Continuous
100
AcDbLine
 10
32.845493
 20
220.102393
 30
0.0
 11
35.53931
 21
220.102393
 31
0.0
  0
LINE
  5
C920
330
C7C8
100
AcDbEntity
  8
1
  6
Continuous
100
AcDbLine
 10
32.845493
 20
222.502393
 30
0.0
 11
35.53931
 21
222.502393
 31
0.0
  0
LINE
  5
C921
330
C7C8
100
AcDbEntity
  8
1
  6
Continuous
100
AcDbLine
 10
32.845493
 20
224.9023929999999
 30
0.0
 11
35.53931
 21
224.9023929999999
 31
0.0
  0
LINE
  5
C922
330
C7C8
100
AcDbEntity
  8
1
  6
Continuous
100
AcDbLine
 10
32.845493
 20
227.302393
 30
0.0
 11
35.53931
 21
227.302393
 31
0.0
  0
LINE
  5
C923
330
C7C8
100
AcDbEntity
  8
1
  6
Continuous
100
AcDbLine
 10
32.845493
 20
229.702393
 30
0.0
 11
35.53931
 21
229.702393
 31
0.0
  0
ARC
  5
C924
330
C7C8
100
AcDbEntity
  8
1
  6
Continuous
100
AcDbCircle
 10
35.53931
 20
215.6023929999999
 30
0.0
 40
0.3
100
AcDbArc
 50
270.0
 51
90.0
  0
ARC
  5
C925
330
C7C8
100
AcDbEntity
  8
1
  6
Continuous
100
AcDbCircle
 10
35.53931
 20
218.002393
 30
0.0
 40
0.3
100
AcDbArc
 50
270.0
 51
90.0
  0
ARC
  5
C926
330
C7C8
100
AcDbEntity
  8
1
  6
Continuous
100
AcDbCircle
 10
35.53931
 20
220.4023929999999
 30
0.0
 40
0.3
100
AcDbArc
 50
270.0
 51
90.0
  0
ARC
  5
C927
330
C7C8
100
AcDbEntity
  8
1
  6
Continuous
100
AcDbCircle
 10
35.53931
 20
222.802393
 30
0.0
 40
0.3
100
AcDbArc
 50
270.0
 51
90.0
  0
ARC
  5
C928
330
C7C8
100
AcDbEntity
  8
1
  6
Continuous
100
AcDbCircle
 10
35.53931
 20
225.202393
 30
0.0
 40
0.3
100
AcDbArc
 50
270.0
 51
90.0
  0
ARC
  5
C929
330
C7C8
100
AcDbEntity
  8
1
  6
Continuous
100
AcDbCircle
 10
35.53931
 20
227.602393
 30
0.0
 40
0.3
100
AcDbArc
 50
270.0
 51
90.0
  0
ARC
  5
C92A
330
C7C8
100
AcDbEntity
  8
1
  6
Continuous
100
AcDbCircle
 10
35.53931
 20
230.002393
 30
0.0
 40
0.3
100
AcDbArc
 50
270.0
 51
90.0
  0
LINE
  5
C92B
330
C7C8
100
AcDbEntity
  8
1
  6
Continuous
100
AcDbLine
 10
32.845493
 20
232.1023929999999
 30
0.0
 11
35.53931
 21
232.1023929999999
 31
0.0
  0
LINE
  5
C92C
330
C7C8
100
AcDbEntity
  8
1
  6
Continuous
100
AcDbLine
 10
32.845493
 20
234.5023929999999
 30
0.0
 11
35.53931
 21
234.5023929999999
 31
0.0
  0
ARC
  5
C92D
330
C7C8
100
AcDbEntity
  8
1
  6
Continuous
100
AcDbCircle
 10
35.53931
 20
232.402393
 30
0.0
 40
0.3
100
AcDbArc
 50
270.0
 51
90.0
  0
ARC
  5
C92E
330
C7C8
100
AcDbEntity
  8
1
  6
Continuous
100
AcDbCircle
 10
35.53931
 20
234.802393
 30
0.0
 40
0.3
100
AcDbArc
 50
270.0
 51
90.0
  0
ARC
  5
C92F
330
C7C8
100
AcDbEntity
  8
1
  6
Continuous
100
AcDbCircle
 10
32.845493
 20
216.802393
 30
0.0
 40
1.5
100
AcDbArc
 50
258.1113419999999
 51
270.0
  0
ARC
  5
C930
330
C7C8
100
AcDbEntity
  8
1
  6
Continuous
100
AcDbCircle
 10
32.845493
 20
219.202393
 30
0.0
 40
1.5
100
AcDbArc
 50
258.1113419999999
 51
270.0
  0
ARC
  5
C931
330
C7C8
100
AcDbEntity
  8
1
  6
Continuous
100
AcDbCircle
 10
32.845493
 20
221.6023929999999
 30
0.0
 40
1.5
100
AcDbArc
 50
258.1113419999999
 51
270.0
  0
ARC
  5
C932
330
C7C8
100
AcDbEntity
  8
1
  6
Continuous
100
AcDbCircle
 10
32.845493
 20
224.0023929999999
 30
0.0
 40
1.5
100
AcDbArc
 50
258.1113419999999
 51
270.0
  0
ARC
  5
C933
330
C7C8
100
AcDbEntity
  8
1
  6
Continuous
100
AcDbCircle
 10
32.845493
 20
226.402393
 30
0.0
 40
1.5
100
AcDbArc
 50
258.1113419999999
 51
270.0
  0
ARC
  5
C934
330
C7C8
100
AcDbEntity
  8
1
  6
Continuous
100
AcDbCircle
 10
32.845493
 20
228.802393
 30
0.0
 40
1.5
100
AcDbArc
 50
258.1113419999999
 51
270.0
  0
ARC
  5
C935
330
C7C8
100
AcDbEntity
  8
1
  6
Continuous
100
AcDbCircle
 10
32.845493
 20
231.202393
 30
0.0
 40
1.5
100
AcDbArc
 50
258.1113419999999
 51
270.0
  0
ARC
  5
C936
330
C7C8
100
AcDbEntity
  8
1
  6
Continuous
100
AcDbCircle
 10
32.845493
 20
233.602393
 30
0.0
 40
1.5
100
AcDbArc
 50
258.1113419999999
 51
270.0
  0
ARC
  5
C937
330
C7C8
100
AcDbEntity
  8
1
  6
Continuous
100
AcDbCircle
 10
32.845493
 20
236.002393
 30
0.0
 40
1.5
100
AcDbArc
 50
258.1113419999999
 51
270.0
  0
LINE
  5
C938
330
C7C8
100
AcDbEntity
  8
1
  6
Continuous
100
AcDbLine
 10
135.5867719999999
 20
308.4758059999999
 30
0.0
 11
134.993348
 21
302.838271
 31
0.0
  0
LINE
  5
C939
330
C7C8
100
AcDbEntity
  8
1
  6
Continuous
100
AcDbLine
 10
137.986772
 20
308.4758059999999
 30
0.0
 11
137.393348
 21
302.838271
 31
0.0
  0
LINE
  5
C93A
330
C7C8
100
AcDbEntity
  8
1
  6
Continuous
100
AcDbLine
 10
140.386772
 20
308.4758059999999
 30
0.0
 11
139.793348
 21
302.838271
 31
0.0
  0
LINE
  5
C93B
330
C7C8
100
AcDbEntity
  8
1
  6
Continuous
100
AcDbLine
 10
134.993348
 20
308.538271
 30
0.0
 11
134.4255229999999
 21
305.8411039999999
 31
0.0
  0
ARC
  5
C93C
330
C7C8
100
AcDbEntity
  8
1
  6
Continuous
100
AcDbCircle
 10
135.293348
 20
308.538271
 30
0.0
 40
0.3
100
AcDbArc
 50
347.9819879999998
 51
180.0
  0
ARC
  5
C93D
330
C7C8
100
AcDbEntity
  8
1
  6
Continuous
100
AcDbCircle
 10
137.6933479999999
 20
308.538271
 30
0.0
 40
0.3
100
AcDbArc
 50
347.9819879999998
 51
180.0
  0
LINE
  5
C93E
330
C7C8
100
AcDbEntity
  8
1
  6
Continuous
100
AcDbLine
 10
137.393348
 20
308.538271
 30
0.0
 11
136.825523
 21
305.8411039999999
 31
0.0
  0
LINE
  5
C93F
330
C7C8
100
AcDbEntity
  8
1
  6
Continuous
100
AcDbLine
 10
139.793348
 20
308.538271
 30
0.0
 11
139.225523
 21
305.8411039999999
 31
0.0
  0
ARC
  5
C940
330
C7C8
100
AcDbEntity
  8
1
  6
Continuous
100
AcDbCircle
 10
140.0933479999999
 20
308.538271
 30
0.0
 40
0.3
100
AcDbArc
 50
347.9819879999998
 51
180.0
  0
LINE
  5
C941
330
C7C8
100
AcDbEntity
  8
1
  6
Continuous
100
AcDbLine
 10
134.393348
 20
305.5320889999999
 30
0.0
 11
134.393348
 21
302.838271
 31
0.0
  0
LINE
  5
C942
330
C7C8
100
AcDbEntity
  8
1
  6
Continuous
100
AcDbLine
 10
136.793348
 20
305.5320889999999
 30
0.0
 11
136.793348
 21
302.838271
 31
0.0
  0
LINE
  5
C943
330
C7C8
100
AcDbEntity
  8
1
  6
Continuous
100
AcDbLine
 10
139.1933479999998
 20
305.5320889999999
 30
0.0
 11
139.1933479999998
 21
302.838271
 31
0.0
  0
ARC
  5
C944
330
C7C8
100
AcDbEntity
  8
1
  6
Continuous
100
AcDbCircle
 10
134.6933479999999
 20
302.838271
 30
0.0
 40
0.3
100
AcDbArc
 50
180.0
 51
0.0
  0
ARC
  5
C945
330
C7C8
100
AcDbEntity
  8
1
  6
Continuous
100
AcDbCircle
 10
137.0933479999999
 20
302.838271
 30
0.0
 40
0.3
100
AcDbArc
 50
180.0
 51
0.0
  0
ARC
  5
C946
330
C7C8
100
AcDbEntity
  8
1
  6
Continuous
100
AcDbCircle
 10
139.4933479999999
 20
302.838271
 30
0.0
 40
0.3
100
AcDbArc
 50
180.0
 51
0.0
  0
ARC
  5
C947
330
C7C8
100
AcDbEntity
  8
1
  6
Continuous
100
AcDbCircle
 10
135.893348
 20
305.5320889999999
 30
0.0
 40
1.5
100
AcDbArc
 50
168.1113419999998
 51
180.0
  0
ARC
  5
C948
330
C7C8
100
AcDbEntity
  8
1
  6
Continuous
100
AcDbCircle
 10
138.293348
 20
305.5320889999999
 30
0.0
 40
1.5
100
AcDbArc
 50
168.1113419999998
 51
180.0
  0
ARC
  5
C949
330
C7C8
100
AcDbEntity
  8
1
  6
Continuous
100
AcDbCircle
 10
140.693348
 20
305.5320889999999
 30
0.0
 40
1.5
100
AcDbArc
 50
168.1113419999998
 51
180.0
  0
LINE
  5
C94A
330
C7C8
100
AcDbEntity
  8
1
  6
Continuous
100
AcDbLine
 10
199.1781609999999
 20
305.1597779999998
 30
0.0
 11
199.1781609999999
 21
302.465961
 31
0.0
  0
LINE
  5
C94B
330
C7C8
100
AcDbEntity
  8
1
  6
Continuous
100
AcDbLine
 10
200.371586
 20
308.103495
 30
0.0
 11
199.778161
 21
302.465961
 31
0.0
  0
LINE
  5
C94C
330
C7C8
100
AcDbEntity
  8
1
  6
Continuous
100
AcDbLine
 10
201.5781609999999
 20
305.1597779999998
 30
0.0
 11
201.5781609999999
 21
302.465961
 31
0.0
  0
LINE
  5
C94D
330
C7C8
100
AcDbEntity
  8
1
  6
Continuous
100
AcDbLine
 10
202.771586
 20
308.103495
 30
0.0
 11
202.178161
 21
302.465961
 31
0.0
  0
LINE
  5
C94E
330
C7C8
100
AcDbEntity
  8
1
  6
Continuous
100
AcDbLine
 10
203.9781609999999
 20
305.1597779999998
 30
0.0
 11
203.9781609999999
 21
302.465961
 31
0.0
  0
LINE
  5
C94F
330
C7C8
100
AcDbEntity
  8
1
  6
Continuous
100
AcDbLine
 10
205.1715859999999
 20
308.103495
 30
0.0
 11
204.578161
 21
302.465961
 31
0.0
  0
LINE
  5
C950
330
C7C8
100
AcDbEntity
  8
1
  6
Continuous
100
AcDbLine
 10
206.3781609999999
 20
305.1597779999998
 30
0.0
 11
206.3781609999999
 21
302.465961
 31
0.0
  0
LINE
  5
C951
330
C7C8
100
AcDbEntity
  8
1
  6
Continuous
100
AcDbLine
 10
207.5715859999998
 20
308.103495
 30
0.0
 11
206.978161
 21
302.465961
 31
0.0
  0
ARC
  5
C952
330
C7C8
100
AcDbEntity
  8
1
  6
Continuous
100
AcDbCircle
 10
199.478161
 20
302.465961
 30
0.0
 40
0.3
100
AcDbArc
 50
180.0
 51
0.0
  0
ARC
  5
C953
330
C7C8
100
AcDbEntity
  8
1
  6
Continuous
100
AcDbCircle
 10
201.878161
 20
302.465961
 30
0.0
 40
0.3
100
AcDbArc
 50
180.0
 51
0.0
  0
ARC
  5
C954
330
C7C8
100
AcDbEntity
  8
1
  6
Continuous
100
AcDbCircle
 10
204.278161
 20
302.465961
 30
0.0
 40
0.3
100
AcDbArc
 50
180.0
 51
0.0
  0
ARC
  5
C955
330
C7C8
100
AcDbEntity
  8
1
  6
Continuous
100
AcDbCircle
 10
206.678161
 20
302.465961
 30
0.0
 40
0.3
100
AcDbArc
 50
180.0
 51
0.0
  0
ARC
  5
C956
330
C7C8
100
AcDbEntity
  8
1
  6
Continuous
100
AcDbCircle
 10
200.6781609999999
 20
305.1597779999998
 30
0.0
 40
1.5
100
AcDbArc
 50
168.1113419999998
 51
180.0
  0
ARC
  5
C957
330
C7C8
100
AcDbEntity
  8
1
  6
Continuous
100
AcDbCircle
 10
200.0781609999999
 20
308.1659609999999
 30
0.0
 40
0.3
100
AcDbArc
 50
347.9819879999998
 51
180.0
  0
LINE
  5
C958
330
C7C8
100
AcDbEntity
  8
1
  6
Continuous
100
AcDbLine
 10
199.778161
 20
308.1659609999999
 30
0.0
 11
199.210337
 21
305.4687939999999
 31
0.0
  0
ARC
  5
C959
330
C7C8
100
AcDbEntity
  8
1
  6
Continuous
100
AcDbCircle
 10
203.078161
 20
305.1597779999998
 30
0.0
 40
1.5
100
AcDbArc
 50
168.1113419999998
 51
180.0
  0
LINE
  5
C95A
330
C7C8
100
AcDbEntity
  8
1
  6
Continuous
100
AcDbLine
 10
202.178161
 20
308.1659609999999
 30
0.0
 11
201.6103369999999
 21
305.4687939999999
 31
0.0
  0
ARC
  5
C95B
330
C7C8
100
AcDbEntity
  8
1
  6
Continuous
100
AcDbCircle
 10
202.478161
 20
308.1659609999999
 30
0.0
 40
0.3
100
AcDbArc
 50
347.9819879999998
 51
180.0
  0
ARC
  5
C95C
330
C7C8
100
AcDbEntity
  8
1
  6
Continuous
100
AcDbCircle
 10
205.478161
 20
305.1597779999998
 30
0.0
 40
1.5
100
AcDbArc
 50
168.1113419999998
 51
180.0
  0
ARC
  5
C95D
330
C7C8
100
AcDbEntity
  8
1
  6
Continuous
100
AcDbCircle
 10
204.878161
 20
308.1659609999999
 30
0.0
 40
0.3
100
AcDbArc
 50
347.9819879999998
 51
180.0
  0
LINE
  5
C95E
330
C7C8
100
AcDbEntity
  8
1
  6
Continuous
100
AcDbLine
 10
204.578161
 20
308.1659609999999
 30
0.0
 11
204.0103369999999
 21
305.4687939999999
 31
0.0
  0
ARC
  5
C95F
330
C7C8
100
AcDbEntity
  8
1
  6
Continuous
100
AcDbCircle
 10
207.878161
 20
305.1597779999998
 30
0.0
 40
1.5
100
AcDbArc
 50
168.1113419999998
 51
180.0
  0
LINE
  5
C960
330
C7C8
100
AcDbEntity
  8
1
  6
Continuous
100
AcDbLine
 10
206.978161
 20
308.1659609999999
 30
0.0
 11
206.410337
 21
305.4687939999999
 31
0.0
  0
ARC
  5
C961
330
C7C8
100
AcDbEntity
  8
1
  6
Continuous
100
AcDbCircle
 10
207.278161
 20
308.1659609999999
 30
0.0
 40
0.3
100
AcDbArc
 50
347.9819879999998
 51
180.0
  0
ARC
  5
C962
330
C7C8
100
AcDbEntity
  8
1
  6
Continuous
100
AcDbCircle
 10
316.8337769999999
 20
242.932681
 30
0.0
 40
0.21525
100
AcDbArc
 50
81.619662
 51
270.0
  0
ARC
  5
C963
330
C7C8
100
AcDbEntity
  8
1
  6
Continuous
100
AcDbCircle
 10
316.810783
 20
244.212482
 30
0.0
 40
0.19225
100
AcDbArc
 50
90.0
 51
270.0
  0
LINE
  5
C964
330
C7C8
100
AcDbEntity
  8
1
  6
Continuous
100
AcDbLine
 10
322.703277
 20
242.287414
 30
0.0
 11
316.8337769999999
 21
242.717431
 31
0.0
  0
LINE
  5
C965
330
C7C8
100
AcDbEntity
  8
1
  6
Continuous
100
AcDbLine
 10
316.8651479999998
 20
243.145633
 30
0.0
 11
319.768527
 21
243.145633
 31
0.0
  0
LINE
  5
C966
330
C7C8
100
AcDbEntity
  8
1
  6
Continuous
100
AcDbLine
 10
316.810783
 20
244.404732
 30
0.0
 11
319.768533
 21
244.404732
 31
0.0
  0
LINE
  5
C967
330
C7C8
100
AcDbEntity
  8
1
  6
Continuous
100
AcDbLine
 10
322.726283
 20
243.6356539999999
 30
0.0
 11
316.810783
 21
244.020232
 31
0.0
  0
ARC
  5
C968
330
C7C8
100
AcDbEntity
  8
1
  6
Continuous
100
AcDbCircle
 10
322.703277
 20
242.502664
 30
0.0
 40
0.21525
100
AcDbArc
 50
270.0
 51
90.0
  0
LINE
  5
C969
330
C7C8
100
AcDbEntity
  8
1
  6
Continuous
100
AcDbLine
 10
322.703277
 20
242.717914
 30
0.0
 11
319.768527
 21
243.145633
 31
0.0
  0
LINE
  5
C96A
330
C7C8
100
AcDbEntity
  8
1
  6
Continuous
100
AcDbLine
 10
322.726283
 20
244.0201539999999
 30
0.0
 11
319.768533
 21
244.404732
 31
0.0
  0
ARC
  5
C96B
330
C7C8
100
AcDbEntity
  8
1
  6
Continuous
100
AcDbCircle
 10
322.726283
 20
243.8279039999999
 30
0.0
 40
0.19225
100
AcDbArc
 50
270.0
 51
90.0
  0
LINE
  5
C96C
330
C7C8
100
AcDbEntity
  8
1
  6
Continuous
100
AcDbLine
 10
209.0572059999999
 20
312.0416
 30
0.0
 11
210.039371
 21
310.4046589999999
 31
0.0
  0
LINE
  5
C96D
330
C7C8
100
AcDbEntity
  8
1
  6
Continuous
100
AcDbLine
 10
210.1481129999998
 20
309.6325
 30
0.0
 11
209.0572059999999
 21
305.5416
 31
0.0
  0
LINE
  5
C96E
330
C7C8
100
AcDbEntity
  8
1
  6
Continuous
100
AcDbLine
 10
209.0572059999999
 20
305.5416
 30
0.0
 11
210.1481129999998
 21
301.4507
 31
0.0
  0
LINE
  5
C96F
330
C7C8
100
AcDbEntity
  8
1
  6
Continuous
100
AcDbLine
 10
210.039371
 20
300.6785409999999
 30
0.0
 11
209.0572059999999
 21
299.0416
 31
0.0
  0
ARC
  5
C970
330
C7C8
100
AcDbEntity
  8
1
  6
Continuous
100
AcDbCircle
 10
209.181878
 20
309.8901629999998
 30
0.0
 40
1.0
100
AcDbArc
 50
345.0685829999998
 51
30.96375700000001
  0
ARC
  5
C971
330
C7C8
100
AcDbEntity
  8
1
  6
Continuous
100
AcDbCircle
 10
209.181878
 20
301.1930369999999
 30
0.0
 40
1.0
100
AcDbArc
 50
329.036243
 51
14.931417
  0
LINE
  5
C972
330
C7C8
100
AcDbEntity
  8
1
  6
Continuous
100
AcDbLine
 10
313.280303
 20
241.997213
 30
0.0
 11
314.962745
 21
241.155992
 31
0.0
  0
LINE
  5
C973
330
C7C8
100
AcDbEntity
  8
1
  6
Continuous
100
AcDbLine
 10
315.626889
 20
241.074232
 30
0.0
 11
319.780303
 21
241.997213
 31
0.0
  0
LINE
  5
C974
330
C7C8
100
AcDbEntity
  8
1
  6
Continuous
100
AcDbLine
 10
319.780303
 20
241.997213
 30
0.0
 11
323.933716
 21
241.074232
 31
0.0
  0
LINE
  5
C975
330
C7C8
100
AcDbEntity
  8
1
  6
Continuous
100
AcDbLine
 10
324.5978609999998
 20
241.155992
 30
0.0
 11
326.280303
 21
241.997213
 31
0.0
  0
LINE
  5
C976
330
C7C8
100
AcDbEntity
  8
1
  6
Continuous
100
AcDbLine
 10
326.280303
 20
241.279748
 30
0.0
 11
324.5978609999998
 21
240.438527
 31
0.0
  0
LINE
  5
C977
330
C7C8
100
AcDbEntity
  8
1
  6
Continuous
100
AcDbLine
 10
323.933716
 20
240.356768
 30
0.0
 11
319.780303
 21
241.279748
 31
0.0
  0
LINE
  5
C978
330
C7C8
100
AcDbEntity
  8
1
  6
Continuous
100
AcDbLine
 10
319.780303
 20
241.279748
 30
0.0
 11
315.626889
 21
240.356768
 31
0.0
  0
LINE
  5
C979
330
C7C8
100
AcDbEntity
  8
1
  6
Continuous
100
AcDbLine
 10
314.962745
 20
240.438527
 30
0.0
 11
313.280303
 21
241.279748
 31
0.0
  0
ARC
  5
C97A
330
C7C8
100
AcDbEntity
  8
1
  6
Continuous
100
AcDbCircle
 10
324.150647
 20
242.0504189999999
 30
0.0
 40
1.0
100
AcDbArc
 50
257.4711919999999
 51
296.5650509999999
  0
ARC
  5
C97B
330
C7C8
100
AcDbEntity
  8
1
  6
Continuous
100
AcDbCircle
 10
324.150647
 20
241.3329549999999
 30
0.0
 40
1.0
100
AcDbArc
 50
257.4711919999999
 51
296.5650509999999
  0
ARC
  5
C97C
330
C7C8
100
AcDbEntity
  8
1
  6
Continuous
100
AcDbCircle
 10
315.409958
 20
241.3329549999999
 30
0.0
 40
1.0
100
AcDbArc
 50
243.4349489999999
 51
282.528808
  0
ARC
  5
C97D
330
C7C8
100
AcDbEntity
  8
1
  6
Continuous
100
AcDbCircle
 10
315.409958
 20
242.0504189999999
 30
0.0
 40
1.0
100
AcDbArc
 50
243.4349489999999
 51
282.528808
  0
LINE
  5
C97E
330
C7C8
100
AcDbEntity
  8
1
  6
Continuous
100
AcDbLine
 10
35.665399
 20
247.4242609999998
 30
0.0
 11
29.459277
 21
247.516719
 31
0.0
  0
LINE
  5
C97F
330
C7C8
100
AcDbEntity
  8
1
  6
Continuous
100
AcDbLine
 10
32.56164899999999
 20
247.331761
 30
0.0
 11
35.665399
 21
247.331761
 31
0.0
  0
LINE
  5
C980
330
C7C8
100
AcDbEntity
  8
1
  6
Continuous
100
AcDbLine
 10
29.445607
 20
247.808973
 30
0.0
 11
35.678399
 21
247.7426009999998
 31
0.0
  0
LINE
  5
C981
330
C7C8
100
AcDbEntity
  8
1
  6
Continuous
100
AcDbLine
 10
32.56164899999999
 20
247.676101
 30
0.0
 11
35.678399
 21
247.676101
 31
0.0
  0
LINE
  5
C982
330
C7C8
100
AcDbEntity
  8
1
  6
Continuous
100
AcDbLine
 10
29.45789899999999
 20
247.42424
 30
0.0
 11
32.56164899999999
 21
247.331761
 31
0.0
  0
ARC
  5
C983
330
C7C8
100
AcDbEntity
  8
1
  6
Continuous
100
AcDbCircle
 10
29.45789899999999
 20
247.4704899999999
 30
0.0
 40
0.04625
100
AcDbArc
 50
88.292947
 51
270.0
  0
LINE
  5
C984
330
C7C8
100
AcDbEntity
  8
1
  6
Continuous
100
AcDbLine
 10
32.56164899999999
 20
247.676101
 30
0.0
 11
29.444899
 21
247.742481
 31
0.0
  0
ARC
  5
C985
330
C7C8
100
AcDbEntity
  8
1
  6
Continuous
100
AcDbCircle
 10
29.444899
 20
247.775731
 30
0.0
 40
0.03325
100
AcDbArc
 50
88.77976600000001
 51
270.0
  0
ARC
  5
C986
330
C7C8
100
AcDbEntity
  8
1
  6
Continuous
100
AcDbCircle
 10
316.6724259999999
 20
246.7201629999999
 30
0.0
 40
0.088
100
AcDbArc
 50
90.0
 51
270.0
  0
LINE
  5
C987
330
C7C8
100
AcDbEntity
  8
1
  6
Continuous
100
AcDbLine
 10
322.892085
 20
245.7724569999998
 30
0.0
 11
316.797585
 21
245.978274
 31
0.0
  0
ARC
  5
C988
330
C7C8
100
AcDbEntity
  8
1
  6
Continuous
100
AcDbCircle
 10
316.797585
 20
246.081024
 30
0.0
 40
0.10275
100
AcDbArc
 50
90.0
 51
270.0
  0
LINE
  5
C989
330
C7C8
100
AcDbEntity
  8
1
  6
Continuous
100
AcDbLine
 10
322.908695
 20
244.862672
 30
0.0
 11
316.8549379999999
 21
245.0991389999999
 31
0.0
  0
ARC
  5
C98A
330
C7C8
100
AcDbEntity
  8
1
  6
Continuous
100
AcDbCircle
 10
316.8549379999999
 20
245.2176389999999
 30
0.0
 40
0.1185
100
AcDbArc
 50
90.0
 51
270.0
  0
LINE
  5
C98B
330
C7C8
100
AcDbEntity
  8
1
  6
Continuous
100
AcDbLine
 10
317.5094629999999
 20
246.8081629999999
 30
0.0
 11
316.6724259999999
 21
246.8081629999999
 31
0.0
  0
LINE
  5
C98C
330
C7C8
100
AcDbEntity
  8
1
  6
Continuous
100
AcDbLine
 10
319.844835
 20
246.183774
 30
0.0
 11
316.797585
 21
246.183774
 31
0.0
  0
LINE
  5
C98D
330
C7C8
100
AcDbEntity
  8
1
  6
Continuous
100
AcDbLine
 10
319.8864379999998
 20
245.3361389999999
 30
0.0
 11
316.8549379999999
 21
245.3361389999999
 31
0.0
  0
LINE
  5
C98E
330
C7C8
100
AcDbEntity
  8
1
  6
Continuous
100
AcDbLine
 10
322.7913809999999
 20
246.456614
 30
0.0
 11
321.247767
 21
246.500899
 31
0.0
  0
LINE
  5
C98F
330
C7C8
100
AcDbEntity
  8
1
  6
Continuous
100
AcDbLine
 10
322.796426
 20
246.6324689999999
 30
0.0
 11
321.787229
 21
246.6903749999999
 31
0.0
  0
LINE
  5
C990
330
C7C8
100
AcDbEntity
  8
1
  6
Continuous
100
AcDbLine
 10
322.892085
 20
245.9779569999998
 30
0.0
 11
319.844835
 21
246.183774
 31
0.0
  0
ARC
  5
C991
330
C7C8
100
AcDbEntity
  8
1
  6
Continuous
100
AcDbCircle
 10
322.892085
 20
245.875207
 30
0.0
 40
0.10275
100
AcDbArc
 50
270.0
 51
90.0
  0
LINE
  5
C992
330
C7C8
100
AcDbEntity
  8
1
  6
Continuous
100
AcDbLine
 10
319.8864379999998
 20
245.3361389999999
 30
0.0
 11
322.917938
 21
245.099311
 31
0.0
  0
ARC
  5
C993
330
C7C8
100
AcDbEntity
  8
1
  6
Continuous
100
AcDbCircle
 10
322.917938
 20
244.9808109999999
 30
0.0
 40
0.1185
100
AcDbArc
 50
265.5261939999999
 51
90.0
  0
ARC
  5
C994
330
C7C8
100
AcDbEntity
  8
1
  6
Continuous
100
AcDbCircle
 10
322.796426
 20
246.5444689999999
 30
0.0
 40
0.088
100
AcDbArc
 50
266.713344
 51
90.0
  0
LINE
  5
C995
330
C7C8
100
AcDbEntity
  8
1
  6
Continuous
100
AcDbLine
 10
318.0262579999999
 20
246.593322
 30
0.0
 11
316.6724259999999
 21
246.6321629999999
 31
0.0
  0
LINE
  5
C996
330
C7C8
100
AcDbEntity
  8
1
  6
Continuous
100
AcDbLine
 10
35.678399
 20
247.7426009999998
 30
0.0
 11
35.678399
 21
247.676101
 31
0.0
  0
LINE
  5
C997
330
C7C8
100
AcDbEntity
  8
1
  6
Continuous
100
AcDbLine
 10
35.665399
 20
247.4242609999998
 30
0.0
 11
35.665399
 21
247.331761
 31
0.0
  0
LINE
  5
C998
330
C7C8
100
AcDbEntity
  8
1
  6
Continuous
100
AcDbLine
 10
35.66964999999999
 20
247.105072
 30
0.0
 11
35.66964999999999
 21
247.0385719999999
 31
0.0
  0
LINE
  5
C999
330
C7C8
100
AcDbEntity
  8
1
  6
Continuous
100
AcDbLine
 10
35.65665
 20
246.7867319999998
 30
0.0
 11
35.65665
 21
246.6942319999998
 31
0.0
  0
LINE
  5
C99A
330
C7C8
100
AcDbEntity
  8
1
  6
Continuous
100
AcDbLine
 10
163.6481419999998
 20
304.672125
 30
0.0
 11
163.460374
 21
302.888327
 31
0.0
  0
LINE
  5
C99B
330
C7C8
100
AcDbEntity
  8
1
  6
Continuous
100
AcDbLine
 10
196.778161
 20
305.1597779999998
 30
0.0
 11
196.778161
 21
302.465961
 31
0.0
  0
LINE
  5
C99C
330
C7C8
100
AcDbEntity
  8
1
  6
Continuous
100
AcDbLine
 10
197.9715859999998
 20
308.103495
 30
0.0
 11
197.3781609999998
 21
302.465961
 31
0.0
  0
ARC
  5
C99D
330
C7C8
100
AcDbEntity
  8
1
  6
Continuous
100
AcDbCircle
 10
197.0781609999999
 20
302.465961
 30
0.0
 40
0.3
100
AcDbArc
 50
180.0
 51
0.0
  0
ARC
  5
C99E
330
C7C8
100
AcDbEntity
  8
1
  6
Continuous
100
AcDbCircle
 10
198.278161
 20
305.1597779999998
 30
0.0
 40
1.5
100
AcDbArc
 50
168.1113419999998
 51
180.0
  0
ARC
  5
C99F
330
C7C8
100
AcDbEntity
  8
1
  6
Continuous
100
AcDbCircle
 10
197.6781609999999
 20
308.1659609999999
 30
0.0
 40
0.3
100
AcDbArc
 50
347.9819879999998
 51
180.0
  0
LINE
  5
C9A0
330
C7C8
100
AcDbEntity
  8
1
  6
Continuous
100
AcDbLine
 10
197.3781609999998
 20
308.1659609999999
 30
0.0
 11
196.810337
 21
305.4687939999999
 31
0.0
  0
LINE
  5
C9A1
330
C7C8
100
AcDbEntity
  8
1
  6
Continuous
100
AcDbLine
 10
194.978161
 20
308.1659609999999
 30
0.0
 11
194.410337
 21
305.4687939999999
 31
0.0
  0
ARC
  5
C9A2
330
C7C8
100
AcDbEntity
  8
1
  6
Continuous
100
AcDbCircle
 10
195.278161
 20
308.1659609999999
 30
0.0
 40
0.3
100
AcDbArc
 50
347.9819879999998
 51
180.0
  0
ARC
  5
C9A3
330
C7C8
100
AcDbEntity
  8
1
  6
Continuous
100
AcDbCircle
 10
195.878161
 20
305.1597779999998
 30
0.0
 40
1.5
100
AcDbArc
 50
168.1113419999998
 51
180.0
  0
ARC
  5
C9A4
330
C7C8
100
AcDbEntity
  8
1
  6
Continuous
100
AcDbCircle
 10
194.678161
 20
302.465961
 30
0.0
 40
0.3
100
AcDbArc
 50
180.0
 51
0.0
  0
LINE
  5
C9A5
330
C7C8
100
AcDbEntity
  8
1
  6
Continuous
100
AcDbLine
 10
195.5715859999999
 20
308.103495
 30
0.0
 11
194.978161
 21
302.465961
 31
0.0
  0
LINE
  5
C9A6
330
C7C8
100
AcDbEntity
  8
1
  6
Continuous
100
AcDbLine
 10
194.378161
 20
305.1597779999998
 30
0.0
 11
194.378161
 21
302.465961
 31
0.0
  0
ARC
  5
C9A7
330
C7C8
100
AcDbEntity
  8
1
  6
Continuous
100
AcDbCircle
 10
162.448562
 20
207.334324
 30
0.0
 40
45.666068
100
AcDbArc
 50
59.616267
 51
64.943673
  0
ARC
  5
C9A8
330
C7C8
100
AcDbEntity
  8
1
  6
Continuous
100
AcDbCircle
 10
157.085816
 20
68.578025
 30
0.0
 40
180.409445
100
AcDbArc
 50
72.883914
 51
80.923502
  0
ARC
  5
C9A9
330
C7C8
100
AcDbEntity
  8
1
  6
Continuous
100
AcDbCircle
 10
162.448562
 20
207.334324
 30
0.0
 40
44.86606799999999
100
AcDbArc
 50
59.663301
 51
64.565444
  0
ARC
  5
C9AA
330
C7C8
100
AcDbEntity
  8
1
  6
Continuous
100
AcDbCircle
 10
157.085816
 20
68.578025
 30
0.0
 40
179.609445
100
AcDbArc
 50
72.951216
 51
80.91157700000001
  0
ARC
  5
C9AB
330
C7C8
100
AcDbEntity
  8
1
  6
Continuous
100
AcDbCircle
 10
157.085816
 20
68.578025
 30
0.0
 40
178.8094449999999
100
AcDbArc
 50
72.97246499999999
 51
80.91157700000001
  0
ARC
  5
C9AC
330
C7C8
100
AcDbEntity
  8
1
  6
Continuous
100
AcDbCircle
 10
162.448562
 20
207.334324
 30
0.0
 40
44.066068
100
AcDbArc
 50
59.663301
 51
64.172484
  0
ARC
  5
C9AD
330
C7C8
100
AcDbEntity
  8
1
  6
Continuous
100
AcDbCircle
 10
185.614621
 20
246.920054
 30
0.0
 40
1.0
100
AcDbArc
 50
239.6633009999999
 51
260.911577
  0
ARC
  5
C9AE
330
C7C8
100
AcDbEntity
  8
1
  6
Continuous
100
AcDbCircle
 10
185.614621
 20
246.920054
 30
0.0
 40
1.8
100
AcDbArc
 50
239.6633009999999
 51
260.911577
  0
ARC
  5
C9AF
330
C7C8
100
AcDbEntity
  8
1
  6
Continuous
100
AcDbCircle
 10
209.217026
 20
238.5737189999999
 30
0.0
 40
1.8
100
AcDbArc
 50
63.584378
 51
72.951216
  0
ARC
  5
C9B0
330
C7C8
100
AcDbEntity
  8
1
  6
Continuous
100
AcDbCircle
 10
208.919713
 20
237.8281089999999
 30
0.0
 40
1.8
100
AcDbArc
 50
63.53315900000001
 51
72.97246499999999
  0
ARC
  5
C9B1
330
C7C8
100
AcDbEntity
  8
5
  6
PHANTOM
100
AcDbCircle
 10
162.4585679999999
 20
207.4543869999998
 30
0.0
 40
44.066068
100
AcDbArc
 50
59.29155399999999
 51
64.172484
  0
ARC
  5
C9B2
330
C7C8
100
AcDbEntity
  8
5
  6
PHANTOM
100
AcDbCircle
 10
162.453908
 20
207.3984729999998
 30
0.0
 40
44.86606799999999
100
AcDbArc
 50
59.48093499999998
 51
64.565444
  0
ARC
  5
C9B3
330
C7C8
100
AcDbEntity
  8
5
  6
PHANTOM
100
AcDbCircle
 10
162.449429
 20
207.3447219999999
 30
0.0
 40
45.666068
100
AcDbArc
 50
59.616267
 51
64.943673
  0
ARC
  5
C9B4
330
C7C8
100
AcDbEntity
  8
5
  6
PHANTOM
100
AcDbCircle
 10
170.390535
 20
149.0053399999998
 30
0.0
 40
98.901768
100
AcDbArc
 50
60.39322700000001
 51
81.18492600000001
  0
ARC
  5
C9B5
330
C7C8
100
AcDbEntity
  8
5
  6
PHANTOM
100
AcDbCircle
 10
170.390535
 20
149.0053399999998
 30
0.0
 40
98.101768
100
AcDbArc
 50
60.41959099999999
 51
81.08639999999999
  0
ARC
  5
C9B6
330
C7C8
100
AcDbEntity
  8
5
  6
PHANTOM
100
AcDbCircle
 10
170.390535
 20
149.0053399999998
 30
0.0
 40
97.30176800000002
100
AcDbArc
 50
60.44642900000001
 51
81.007311
  0
ARC
  5
C9B7
330
C7C8
100
AcDbEntity
  8
5
  6
PHANTOM
100
AcDbCircle
 10
185.745846
 20
246.910267
 30
0.0
 40
1.0
100
AcDbArc
 50
239.4809349999999
 51
261.0864
  0
ARC
  5
C9B8
330
C7C8
100
AcDbEntity
  8
5
  6
PHANTOM
100
AcDbCircle
 10
185.880977
 20
246.888978
 30
0.0
 40
1.8
100
AcDbArc
 50
239.291554
 51
261.0073109999999
  0
LINE
  5
C9B9
330
C7C8
100
AcDbEntity
  8
1
  6
Continuous
100
AcDbLine
 10
315.780303
 20
249.232237
 30
0.0
 11
319.780303
 21
246.9228359999999
 31
0.0
  0
LINE
  5
C9BA
330
C7C8
100
AcDbEntity
  8
1
  6
Continuous
100
AcDbLine
 10
319.780303
 20
246.9228359999999
 30
0.0
 11
323.780303
 21
249.232237
 31
0.0
  0
LINE
  5
C9BB
330
C7C8
100
AcDbEntity
  8
1
  6
Continuous
100
AcDbLine
 10
323.780303
 20
249.232237
 30
0.0
 11
323.780303
 21
253.8510389999999
 31
0.0
  0
LINE
  5
C9BC
330
C7C8
100
AcDbEntity
  8
1
  6
Continuous
100
AcDbLine
 10
323.780303
 20
253.8510389999999
 30
0.0
 11
319.780303
 21
256.1604399999998
 31
0.0
  0
LINE
  5
C9BD
330
C7C8
100
AcDbEntity
  8
1
  6
Continuous
100
AcDbLine
 10
319.780303
 20
256.1604399999998
 30
0.0
 11
315.780303
 21
253.8510389999999
 31
0.0
  0
LINE
  5
C9BE
330
C7C8
100
AcDbEntity
  8
1
  6
Continuous
100
AcDbLine
 10
315.780303
 20
253.8510389999999
 30
0.0
 11
315.780303
 21
249.232237
 31
0.0
  0
ENDSEC
  0
SECTION
  2
OBJECTS
  0
DICTIONARY
  5
C7B6
330
0
100
AcDbDictionary
281
     1
  3
ACAD_CIP_PREVIOUS_PRODUCT_INFO
350
CA1E
  3
ACAD_COLOR
350
CA00
  3
ACAD_DETAILVIEWSTYLE
350
CA19
  3
ACAD_GROUP
350
C7B7
  3
ACAD_LAYOUT
350
C7C3
  3
ACAD_MATERIAL
350
C9CE
  3
ACAD_MLEADERSTYLE
350
CA15
  3
ACAD_MLINESTYLE
350
C7C0
  3
ACAD_PLOTSETTINGS
350
C7C2
  3
ACAD_PLOTSTYLENAME
350
C9CC
  3
ACAD_SCALELIST
350
CA03
  3
ACAD_SECTIONVIEWSTYLE
350
CA17
  3
ACAD_TABLESTYLE
350
CA01
  3
ACAD_VISUALSTYLE
350
C9E7
  3
ACDB_RECOMPOSE_DATA
350
CA3C
  3
AcDbVariableDictionary
350
CA2F
  3
DWGPROPS
350
CA3D
  0
DICTIONARY
  5
CA1F
330
C7BA
100
AcDbDictionary
280
     1
281
     1
  3
ADSK_XREC_LAYER_RECONCILED
360
CA20
  0
DICTIONARY
  5
CA21
330
C7D0
100
AcDbDictionary
280
     1
281
     1
  3
ADSK_XREC_LAYER_RECONCILED
360
CA22
  0
DICTIONARY
  5
CA23
330
C7D1
100
AcDbDictionary
280
     1
281
     1
  3
ADSK_XREC_LAYER_RECONCILED
360
CA24
  0
DICTIONARY
  5
CA25
330
C7D2
100
AcDbDictionary
280
     1
281
     1
  3
ADSK_XREC_LAYER_RECONCILED
360
CA26
  0
DICTIONARY
  5
CA27
330
C7D3
100
AcDbDictionary
280
     1
281
     1
  3
ADSK_XREC_LAYER_RECONCILED
360
CA28
  0
DICTIONARY
  5
CA29
330
C7D4
100
AcDbDictionary
280
     1
281
     1
  3
ADSK_XREC_LAYER_RECONCILED
360
CA2A
  0
DICTIONARY
  5
CA2B
330
C7D5
100
AcDbDictionary
280
     1
281
     1
  3
ADSK_XREC_LAYER_RECONCILED
360
CA2C
  0
DICTIONARY
  5
CA2D
330
C7D6
100
AcDbDictionary
280
     1
281
     1
  3
ADSK_XREC_LAYER_RECONCILED
360
CA2E
  0
DICTIONARY
  5
C9C7
330
C7C8
100
AcDbDictionary
281
     1
  3
ACAD_LAYOUTSELFREF
350
C9C8
  0
DICTIONARY
  5
C9C5
330
C7C4
100
AcDbDictionary
281
     1
  3
ACAD_LAYOUTSELFREF
350
C9C6
  0
XRECORD
  5
CA1E
102
{ACAD_REACTORS
330
C7B6
102
}
330
C7B6
100
AcDbXrecord
280
     1
300
ACDLT
300
2014
300
ACDLT_F_S
  0
DICTIONARY
  5
CA00
102
{ACAD_REACTORS
330
C7B6
102
}
330
C7B6
100
AcDbDictionary
281
     1
  0
DICTIONARY
  5
CA19
102
{ACAD_REACTORS
330
C7B6
102
}
330
C7B6
100
AcDbDictionary
281
     1
  3
Imperial24
350
CA1A
  0
DICTIONARY
  5
C7B7
102
{ACAD_REACTORS
330
C7B6
102
}
330
C7B6
100
AcDbDictionary
281
     1
  0
DICTIONARY
  5
C7C3
102
{ACAD_REACTORS
330
C7B6
102
}
330
C7B6
100
AcDbDictionary
281
     1
  3
Model
350
CA1B
  3
レイアウト1
350
CA1C
  0
DICTIONARY
  5
C9CE
102
{ACAD_REACTORS
330
C7B6
102
}
330
C7B6
100
AcDbDictionary
281
     1
  3
ByBlock
350
C9D7
  3
ByLayer
350
C9CF
  3
Global
350
C9DF
  0
DICTIONARY
  5
CA15
102
{ACAD_REACTORS
330
C7B6
102
}
330
C7B6
100
AcDbDictionary
281
     1
  3
Standard
350
CA16
  0
DICTIONARY
  5
C7C0
102
{ACAD_REACTORS
330
C7B6
102
}
330
C7B6
100
AcDbDictionary
281
     1
  3
STANDARD
350
C7C1
  0
DICTIONARY
  5
C7C2
102
{ACAD_REACTORS
330
C7B6
102
}
330
C7B6
100
AcDbDictionary
281
     1
  0
ACDBDICTIONARYWDFLT
  5
C9CC
102
{ACAD_REACTORS
330
C7B6
102
}
330
C7B6
100
AcDbDictionary
281
     1
  3
Normal
350
C9CD
100
AcDbDictionaryWithDefault
340
C9CD
  0
DICTIONARY
  5
CA03
102
{ACAD_REACTORS
330
C7B6
102
}
330
C7B6
100
AcDbDictionary
281
     1
  3
A0
350
CA04
  3
A1
350
CA05
  3
A2
350
CA06
  3
A3
350
CA07
  3
A4
350
CA08
  3
A5
350
CA09
  3
A6
350
CA0A
  3
A7
350
CA0B
  3
A8
350
CA0C
  3
A9
350
CA0D
  3
B0
350
CA0E
  3
B1
350
CA0F
  3
B2
350
CA10
  3
B3
350
CA11
  3
B4
350
CA12
  3
B5
350
CA13
  3
B6
350
CA14
  0
DICTIONARY
  5
CA17
102
{ACAD_REACTORS
330
C7B6
102
}
330
C7B6
100
AcDbDictionary
281
     1
  3
Imperial24
350
CA18
  0
DICTIONARY
  5
CA01
102
{ACAD_REACTORS
330
C7B6
102
}
330
C7B6
100
AcDbDictionary
281
     1
  3
Standard
350
CA02
  0
DICTIONARY
  5
C9E7
102
{ACAD_REACTORS
330
C7B6
102
}
330
C7B6
100
AcDbDictionary
281
     1
  3
2dWireframe
350
C9ED
  3
Basic
350
C9EC
  3
Brighten
350
C9F3
  3
ColorChange
350
C9F7
  3
Conceptual
350
C9F0
  3
Dim
350
C9F2
  3
EdgeColorOff
350
C9FF
  3
Facepattern
350
C9F6
  3
Flat
350
C9E8
  3
FlatWithEdges
350
C9E9
  3
Gouraud
350
C9EA
  3
GouraudWithEdges
350
C9EB
  3
Hidden
350
C9EF
  3
JitterOff
350
C9FD
  3
Linepattern
350
C9F5
  3
OverhangOff
350
C9FE
  3
Realistic
350
C9F1
  3
Shaded
350
C9FC
  3
Shaded with edges
350
C9FB
  3
Shades of Gray
350
C9F8
  3
Sketchy
350
C9F9
  3
Thicken
350
C9F4
  3
Wireframe
350
C9EE
  3
X-Ray
350
C9FA
  0
XRECORD
  5
CA3C
102
{ACAD_REACTORS
330
C7B6
102
}
330
C7B6
100
AcDbXrecord
280
     1
 90
        1
330
CA02
  0
DICTIONARY
  5
CA2F
102
{ACAD_REACTORS
330
C7B6
102
}
330
C7B6
100
AcDbDictionary
281
     1
  3
CANNOSCALE
350
CA34
  3
CMLEADERSTYLE
350
CA31
  3
CTABLESTYLE
350
CA30
  3
CVIEWDETAILSTYLE
350
CA32
  3
CVIEWSECTIONSTYLE
350
CA33
  3
DIMASSOC
350
CA37
  3
INDEXCTL
350
CA36
  3
SORTENTS
350
CA35
  3
XCLIPFRAME
350
CA38
  0
XRECORD
  5
CA3D
102
{ACAD_REACTORS
330
C7B6
102
}
330
C7B6
100
AcDbXrecord
280
     1
  1
DWGPROPS COOKIE
  2

  3

  4

  6

  7

  8
Yoshitsune
  9

300
=
301
=
302
=
303
=
304
=
305
=
306
=
307
=
308
=
309
=
 40
0.0000102546296296
 41
2451296.793099885
 42
2457192.658214039
  1

 90
        0
  0
XRECORD
  5
CA20
102
{ACAD_REACTORS
330
CA1F
102
}
330
CA1F
100
AcDbXrecord
280
     1
290
     1
  0
XRECORD
  5
CA22
102
{ACAD_REACTORS
330
CA21
102
}
330
CA21
100
AcDbXrecord
280
     1
290
     1
  0
XRECORD
  5
CA24
102
{ACAD_REACTORS
330
CA23
102
}
330
CA23
100
AcDbXrecord
280
     1
290
     1
  0
XRECORD
  5
CA26
102
{ACAD_REACTORS
330
CA25
102
}
330
CA25
100
AcDbXrecord
280
     1
290
     1
  0
XRECORD
  5
CA28
102
{ACAD_REACTORS
330
CA27
102
}
330
CA27
100
AcDbXrecord
280
     1
290
     1
  0
XRECORD
  5
CA2A
102
{ACAD_REACTORS
330
CA29
102
}
330
CA29
100
AcDbXrecord
280
     1
290
     1
  0
XRECORD
  5
CA2C
102
{ACAD_REACTORS
330
CA2B
102
}
330
CA2B
100
AcDbXrecord
280
     1
290
     1
  0
XRECORD
  5
CA2E
102
{ACAD_REACTORS
330
CA2D
102
}
330
CA2D
100
AcDbXrecord
280
     1
290
     1
  0
XRECORD
  5
C9C8
102
{ACAD_REACTORS
330
C9C7
102
}
330
C9C7
100
AcDbXrecord
280
     1
340
C7C8
  0
XRECORD
  5
C9C6
102
{ACAD_REACTORS
330
C9C5
102
}
330
C9C5
100
AcDbXrecord
280
     1
340
C7C4
  0
ACDBDETAILVIEWSTYLE
  5
CA1A
102
{ACAD_XDICTIONARY
360
CA75
102
}
102
{ACAD_REACTORS
330
CA19
102
}
330
CA19
100
AcDbModelDocViewStyle
 70
     0
  3
Imperial24
290
     0
100
AcDbDetailViewStyle
 70
     0
 71
     0
 90
        3
 71
     1
340
C7BB
 40
0.24
340
0
 40
0.24
300

 40
0.36
280
     3
 71
     2
340
C7BF
 90
       25
 71
     3
340
C7BB
 40
0.24
 90
        1
 40
0.75
 90
        1
300
%<\AcVar ViewType \f "%tc1">% %<\AcVar ViewDetailId>%\PSCALE %<\AcVar ViewScale \f "%sn">%
 71
     4
340
C7BF
 90
       25
340
C7BF
 90
       25
280
     0
  0
LAYOUT
  5
CA1B
102
{ACAD_XDICTIONARY
360
CA77
102
}
102
{ACAD_REACTORS
330
C7C3
102
}
330
C7C3
100
AcDbPlotSettings
  1

  2
Canon LBP9100C
  4

  6

 40
0.0
 41
0.0
 42
0.0
 43
0.0
 44
0.0
 45
0.0
 46
0.0
 47
0.0
 48
0.0
 49
0.0
140
0.0
141
0.0
142
1.0
143
1.0
 70
  1712
 72
     0
 73
     0
 74
     0
  7

 75
     0
147
1.0
148
0.0
149
0.0
100
AcDbLayout
  1
Model
 70
     1
 71
     0
 10
0.0
 20
0.0
 11
12.0
 21
9.0
 12
0.0
 22
0.0
 32
0.0
 14
0.0
 24
0.0
 34
0.0
 15
0.0
 25
0.0
 35
0.0
146
0.0
 13
0.0
 23
0.0
 33
0.0
 16
1.0
 26
0.0
 36
0.0
 17
0.0
 27
1.0
 37
0.0
 76
     0
330
C7C8
331
C9C4
  0
LAYOUT
  5
CA1C
102
{ACAD_XDICTIONARY
360
CA79
102
}
102
{ACAD_REACTORS
330
C7C3
102
}
330
C7C3
100
AcDbPlotSettings
  1

  2
Canon LBP9100C
  4

  6

 40
0.0
 41
0.0
 42
0.0
 43
0.0
 44
0.0
 45
0.0
 46
0.0
 47
0.0
 48
0.0
 49
0.0
140
0.0
141
0.0
142
1.0
143
1.0
 70
   688
 72
     0
 73
     0
 74
     5
  7

 75
    16
147
1.0
148
0.0
149
0.0
100
AcDbLayout
  1
レイアウト1
 70
     0
 71
     1
 10
0.0
 20
0.0
 11
420.0
 21
297.0
 12
0.0
 22
0.0
 32
0.0
 14
1.000000000000000E+20
 24
1.000000000000000E+20
 34
1.000000000000000E+20
 15
-1.000000000000000E+20
 25
-1.000000000000000E+20
 35
-1.000000000000000E+20
146
0.0
 13
0.0
 23
0.0
 33
0.0
 16
1.0
 26
0.0
 36
0.0
 17
0.0
 27
1.0
 37
0.0
 76
     0
330
C7C4
  0
MATERIAL
  5
C9D7
102
{ACAD_XDICTIONARY
360
C9D8
102
}
102
{ACAD_REACTORS
330
C9CE
102
}
330
C9CE
100
AcDbMaterial
  1
ByBlock
 72
     0
 43
0.0208333333333333
 43
0.0
 43
0.0
 43
0.0
 43
0.0
 43
0.0208333333333333
 43
0.0
 43
0.0
 43
0.0
 43
0.0
 43
1.0
 43
0.0
 43
0.0
 43
0.0
 43
0.0
 43
1.0
 77
     0
 47
0.0208333333333333
 47
0.0
 47
0.0
 47
0.0
 47
0.0
 47
0.0208333333333333
 47
0.0
 47
0.0
 47
0.0
 47
0.0
 47
1.0
 47
0.0
 47
0.0
 47
0.0
 47
0.0
 47
1.0
171
     0
 49
0.0208333333333333
 49
0.0
 49
0.0
 49
0.0
 49
0.0
 49
0.0208333333333333
 49
0.0
 49
0.0
 49
0.0
 49
0.0
 49
1.0
 49
0.0
 49
0.0
 49
0.0
 49
0.0
 49
1.0
175
     0
142
0.0208333333333333
142
0.0
142
0.0
142
0.0
142
0.0
142
0.0208333333333333
142
0.0
142
0.0
142
0.0
142
0.0
142
1.0
142
0.0
142
0.0
142
0.0
142
0.0
142
1.0
179
     0
144
0.0208333333333333
144
0.0
144
0.0
144
0.0
144
0.0
144
0.0208333333333333
144
0.0
144
0.0
144
0.0
144
0.0
144
1.0
144
0.0
144
0.0
144
0.0
144
0.0
144
1.0
147
0.0208333333333333
147
0.0
147
0.0
147
0.0
147
0.0
147
0.0208333333333333
147
0.0
147
0.0
147
0.0
147
0.0
147
1.0
147
0.0
147
0.0
147
0.0
147
0.0
147
1.0
  0
MATERIAL
  5
C9CF
102
{ACAD_XDICTIONARY
360
C9D0
102
}
102
{ACAD_REACTORS
330
C9CE
102
}
330
C9CE
100
AcDbMaterial
  1
ByLayer
 72
     0
 43
0.0208333333333333
 43
0.0
 43
0.0
 43
0.0
 43
0.0
 43
0.0208333333333333
 43
0.0
 43
0.0
 43
0.0
 43
0.0
 43
1.0
 43
0.0
 43
0.0
 43
0.0
 43
0.0
 43
1.0
 77
     0
 47
0.0208333333333333
 47
0.0
 47
0.0
 47
0.0
 47
0.0
 47
0.0208333333333333
 47
0.0
 47
0.0
 47
0.0
 47
0.0
 47
1.0
 47
0.0
 47
0.0
 47
0.0
 47
0.0
 47
1.0
171
     0
 49
0.0208333333333333
 49
0.0
 49
0.0
 49
0.0
 49
0.0
 49
0.0208333333333333
 49
0.0
 49
0.0
 49
0.0
 49
0.0
 49
1.0
 49
0.0
 49
0.0
 49
0.0
 49
0.0
 49
1.0
175
     0
142
0.0208333333333333
142
0.0
142
0.0
142
0.0
142
0.0
142
0.0208333333333333
142
0.0
142
0.0
142
0.0
142
0.0
142
1.0
142
0.0
142
0.0
142
0.0
142
0.0
142
1.0
179
     0
144
0.0208333333333333
144
0.0
144
0.0
144
0.0
144
0.0
144
0.0208333333333333
144
0.0
144
0.0
144
0.0
144
0.0
144
1.0
144
0.0
144
0.0
144
0.0
144
0.0
144
1.0
147
0.0208333333333333
147
0.0
147
0.0
147
0.0
147
0.0
147
0.0208333333333333
147
0.0
147
0.0
147
0.0
147
0.0
147
1.0
147
0.0
147
0.0
147
0.0
147
0.0
147
1.0
  0
MATERIAL
  5
C9DF
102
{ACAD_XDICTIONARY
360
C9E0
102
}
102
{ACAD_REACTORS
330
C9CE
102
}
330
C9CE
100
AcDbMaterial
  1
Global
 72
     0
 43
0.0208333333333333
 43
0.0
 43
0.0
 43
0.0
 43
0.0
 43
0.0208333333333333
 43
0.0
 43
0.0
 43
0.0
 43
0.0
 43
1.0
 43
0.0
 43
0.0
 43
0.0
 43
0.0
 43
1.0
 77
     0
 47
0.0208333333333333
 47
0.0
 47
0.0
 47
0.0
 47
0.0
 47
0.0208333333333333
 47
0.0
 47
0.0
 47
0.0
 47
0.0
 47
1.0
 47
0.0
 47
0.0
 47
0.0
 47
0.0
 47
1.0
171
     0
 49
0.0208333333333333
 49
0.0
 49
0.0
 49
0.0
 49
0.0
 49
0.0208333333333333
 49
0.0
 49
0.0
 49
0.0
 49
0.0
 49
1.0
 49
0.0
 49
0.0
 49
0.0
 49
0.0
 49
1.0
175
     0
142
0.0208333333333333
142
0.0
142
0.0
142
0.0
142
0.0
142
0.0208333333333333
142
0.0
142
0.0
142
0.0
142
0.0
142
1.0
142
0.0
142
0.0
142
0.0
142
0.0
142
1.0
179
     0
144
0.0208333333333333
144
0.0
144
0.0
144
0.0
144
0.0
144
0.0208333333333333
144
0.0
144
0.0
144
0.0
144
0.0
144
1.0
144
0.0
144
0.0
144
0.0
144
0.0
144
1.0
147
0.0208333333333333
147
0.0
147
0.0
147
0.0
147
0.0
147
0.0208333333333333
147
0.0
147
0.0
147
0.0
147
0.0
147
1.0
147
0.0
147
0.0
147
0.0
147
0.0
147
1.0
  0
MLEADERSTYLE
  5
CA16
102
{ACAD_REACTORS
330
CA15
102
}
330
CA15
100
AcDbMLeaderStyle
170
     2
171
     1
172
     0
 90
        2
 40
0.0
 41
0.0
173
     1
 91
-1056964608
340
C7BD
 92
       -2
290
     1
 42
0.09
291
     1
 43
0.36
  3
Standard
 44
0.18
300

342
C7BB
174
     1
178
     6
175
     1
176
     0
 93
-1056964608
 45
0.18
292
     0
297
     0
 46
0.18
 94
-1056964608
 47
1.0
 49
1.0
140
1.0
293
     1
141
0.0
294
     1
177
     0
142
1.0
295
     0
296
     0
143
0.125
1001
ACAD_MLEADERVER
1070
     2
  0
MLINESTYLE
  5
C7C1
102
{ACAD_REACTORS
330
C7C0
102
}
330
C7C0
100
AcDbMlineStyle
  2
STANDARD
 70
     0
  3

 62
   256
 51
90.0
 52
90.0
 71
     2
 49
0.5
 62
   256
  6
BYLAYER
 49
-0.5
 62
   256
  6
BYLAYER
  0
ACDBPLACEHOLDER
  5
C9CD
102
{ACAD_REACTORS
330
C9CC
102
}
330
C9CC
  0
SCALE
  5
CA04
102
{ACAD_REACTORS
330
CA03
102
}
330
CA03
100
AcDbScale
 70
     0
300
1:1
140
1.0
141
1.0
290
     1
  0
SCALE
  5
CA05
102
{ACAD_REACTORS
330
CA03
102
}
330
CA03
100
AcDbScale
 70
     0
300
1/128" = 1'-0"
140
0.0078125
141
12.0
290
     0
  0
SCALE
  5
CA06
102
{ACAD_REACTORS
330
CA03
102
}
330
CA03
100
AcDbScale
 70
     0
300
1/64" = 1'-0"
140
0.015625
141
12.0
290
     0
  0
SCALE
  5
CA07
102
{ACAD_REACTORS
330
CA03
102
}
330
CA03
100
AcDbScale
 70
     0
300
1/32" = 1'-0"
140
0.03125
141
12.0
290
     0
  0
SCALE
  5
CA08
102
{ACAD_REACTORS
330
CA03
102
}
330
CA03
100
AcDbScale
 70
     0
300
1/16" = 1'-0"
140
0.0625
141
12.0
290
     0
  0
SCALE
  5
CA09
102
{ACAD_REACTORS
330
CA03
102
}
330
CA03
100
AcDbScale
 70
     0
300
3/32" = 1'-0"
140
0.09375
141
12.0
290
     0
  0
SCALE
  5
CA0A
102
{ACAD_REACTORS
330
CA03
102
}
330
CA03
100
AcDbScale
 70
     0
300
1/8" = 1'-0"
140
0.125
141
12.0
290
     0
  0
SCALE
  5
CA0B
102
{ACAD_REACTORS
330
CA03
102
}
330
CA03
100
AcDbScale
 70
     0
300
3/16" = 1'-0"
140
0.1875
141
12.0
290
     0
  0
SCALE
  5
CA0C
102
{ACAD_REACTORS
330
CA03
102
}
330
CA03
100
AcDbScale
 70
     0
300
1/4" = 1'-0"
140
0.25
141
12.0
290
     0
  0
SCALE
  5
CA0D
102
{ACAD_REACTORS
330
CA03
102
}
330
CA03
100
AcDbScale
 70
     0
300
3/8" = 1'-0"
140
0.375
141
12.0
290
     0
  0
SCALE
  5
CA0E
102
{ACAD_REACTORS
330
CA03
102
}
330
CA03
100
AcDbScale
 70
     0
300
1/2" = 1'-0"
140
0.5
141
12.0
290
     0
  0
SCALE
  5
CA0F
102
{ACAD_REACTORS
330
CA03
102
}
330
CA03
100
AcDbScale
 70
     0
300
3/4" = 1'-0"
140
0.75
141
12.0
290
     0
  0
SCALE
  5
CA10
102
{ACAD_REACTORS
330
CA03
102
}
330
CA03
100
AcDbScale
 70
     0
300
1" = 1'-0"
140
1.0
141
12.0
290
     0
  0
SCALE
  5
CA11
102
{ACAD_REACTORS
330
CA03
102
}
330
CA03
100
AcDbScale
 70
     0
300
1-1/2" = 1'-0"
140
1.5
141
12.0
290
     0
  0
SCALE
  5
CA12
102
{ACAD_REACTORS
330
CA03
102
}
330
CA03
100
AcDbScale
 70
     0
300
3" = 1'-0"
140
3.0
141
12.0
290
     0
  0
SCALE
  5
CA13
102
{ACAD_REACTORS
330
CA03
102
}
330
CA03
100
AcDbScale
 70
     0
300
6" = 1'-0"
140
6.0
141
12.0
290
     0
  0
SCALE
  5
CA14
102
{ACAD_REACTORS
330
CA03
102
}
330
CA03
100
AcDbScale
 70
     0
300
1'-0" = 1'-0"
140
12.0
141
12.0
290
     0
  0
ACDBSECTIONVIEWSTYLE
  5
CA18
102
{ACAD_XDICTIONARY
360
CA73
102
}
102
{ACAD_REACTORS
330
CA17
102
}
330
CA17
100
AcDbModelDocViewStyle
 70
     0
  3
Imperial24
290
     0
100
AcDbSectionViewStyle
 70
     0
 71
     0
 90
       78
 71
     1
340
C7BB
 40
0.24
340
0
340
0
 40
0.24
300
I, O, Q, S, X, Z
 40
0.48
 90
        3
 40
0.18
 90
        1
 71
     2
340
C7BF
 90
       25
340
C7BF
 90
       50
 40
0.24
 40
0.0
 40
0.24
 71
     3
340
C7BB
 40
0.24
 90
        1
 40
0.75
 90
        1
300
%<\AcVar ViewType \f "%tc1">% %<\AcVar ViewSectionStartId>%-%<\AcVar ViewSectionEndId>%\PSCALE %<\AcVar ViewScale \f "%sn">%
 71
     4
300
ANSI31
 40
1.0
 90
        0
290
     0
290
     0
 90
        6
 40
0.0
 40
1.570796326794896
 40
0.2617993877991494
 40
1.308996938995747
 40
-0.2617993877991494
 40
1.832595714594046
  0
TABLESTYLE
  5
CA02
102
{ACAD_XDICTIONARY
360
CA3A
102
}
102
{ACAD_REACTORS
330
CA01
102
}
330
CA01
100
AcDbTableStyle
  3
Standard
 70
     0
 71
     0
 40
0.06
 41
0.06
280
     0
281
     0
  7
STANDARD
140
0.18
170
     2
 62
     0
 63
     7
283
     0
274
    -2
284
     1
 64
     0
275
    -2
285
     1
 65
     0
276
    -2
286
     1
 66
     0
277
    -2
287
     1
 67
     0
278
    -2
288
     1
 68
     0
279
    -2
289
     1
 69
     0
  7
STANDARD
140
0.25
170
     5
 62
     0
 63
     7
283
     0
274
    -2
284
     1
 64
     0
275
    -2
285
     1
 65
     0
276
    -2
286
     1
 66
     0
277
    -2
287
     1
 67
     0
278
    -2
288
     1
 68
     0
279
    -2
289
     1
 69
     0
  7
STANDARD
140
0.18
170
     5
 62
     0
 63
     7
283
     0
274
    -2
284
     1
 64
     0
275
    -2
285
     1
 65
     0
276
    -2
286
     1
 66
     0
277
    -2
287
     1
 67
     0
278
    -2
288
     1
 68
     0
279
    -2
289
     1
 69
     0
  0
VISUALSTYLE
  5
C9ED
102
{ACAD_XDICTIONARY
360
CA4B
102
}
102
{ACAD_REACTORS
330
C9E7
102
}
330
C9E7
100
AcDbVisualStyle
  2
2dWireframe
 70
     4
 71
     0
 72
     2
 73
     0
 90
        0
 40
-0.6
 41
-30.0
 62
     5
 63
     7
 74
     1
 91
        4
 64
     7
 65
   257
 75
     1
175
     1
 42
1.0
 92
        0
 66
   257
 43
1.0
 76
     1
 77
     6
 78
     2
 67
     7
 79
     5
170
     0
171
     0
290
     0
174
     0
 93
        1
 44
0.0
173
     0
291
     0
 45
0.0
1001
ACAD
1000
AcDbSavedByObjectVersion
1070
     0
  0
VISUALSTYLE
  5
C9EC
102
{ACAD_XDICTIONARY
360
CA49
102
}
102
{ACAD_REACTORS
330
C9E7
102
}
330
C9E7
100
AcDbVisualStyle
  2
Basic
 70
     7
 71
     1
 72
     0
 73
     1
 90
        0
 40
-0.6
 41
-30.0
 62
     5
 63
     7
 74
     0
 91
        4
 64
     7
 65
   257
 75
     1
175
     1
 42
1.0
 92
        8
 66
     7
 43
1.0
 76
     1
 77
     6
 78
     2
 67
     7
 79
     5
170
     0
171
     0
290
     0
174
     0
 93
        1
 44
0.0
173
     0
291
     1
 45
0.0
1001
ACAD
1000
AcDbSavedByObjectVersion
1070
     0
  0
VISUALSTYLE
  5
C9F3
102
{ACAD_XDICTIONARY
360
CA57
102
}
102
{ACAD_REACTORS
330
C9E7
102
}
330
C9E7
100
AcDbVisualStyle
  2
Brighten
 70
    12
 71
     2
 72
     2
 73
     0
 90
        0
 40
-0.6
 41
-30.0
 62
     5
 63
     7
 74
     1
 91
        4
 64
     7
 65
   257
 75
     1
175
     1
 42
1.0
 92
        8
 66
     7
 43
1.0
 76
     1
 77
     6
 78
     2
 67
     7
 79
     5
170
     0
171
     0
290
     0
174
     0
 93
        1
 44
50.0
173
     0
291
     1
 45
0.0
1001
ACAD
1000
AcDbSavedByObjectVersion
1070
     0
  0
VISUALSTYLE
  5
C9F7
102
{ACAD_XDICTIONARY
360
CA5F
102
}
102
{ACAD_REACTORS
330
C9E7
102
}
330
C9E7
100
AcDbVisualStyle
  2
ColorChange
 70
    16
 71
     2
 72
     2
 73
     3
 90
        0
 40
-0.6
 41
-30.0
 62
     5
 63
     8
 74
     1
 91
        4
 64
     7
 65
   257
 75
     1
175
     1
 42
1.0
 92
        8
 66
     8
 43
1.0
 76
     1
 77
     6
 78
     2
 67
     7
 79
     5
170
     0
171
     0
290
     0
174
     0
 93
        1
 44
0.0
173
     0
291
     1
 45
0.0
1001
ACAD
1000
AcDbSavedByObjectVersion
1070
     0
  0
VISUALSTYLE
  5
C9F0
102
{ACAD_XDICTIONARY
360
CA51
102
}
102
{ACAD_REACTORS
330
C9E7
102
}
330
C9E7
100
AcDbVisualStyle
  2
Conceptual
 70
     9
 71
     3
 72
     2
 73
     0
 90
        0
 40
-0.6
 41
-30.0
 62
     5
 63
     7
 74
     2
 91
        2
 64
     7
 65
   257
 75
     1
175
     1
 42
179.0
 92
        8
 66
     7
 43
1.0
 76
     1
 77
     6
 78
     2
 67
     7
 79
     3
170
     0
171
     0
290
     0
174
     0
 93
        1
 44
0.0
173
     0
291
     0
 45
0.0
1001
ACAD
1000
AcDbSavedByObjectVersion
1070
     0
  0
VISUALSTYLE
  5
C9F2
102
{ACAD_XDICTIONARY
360
CA55
102
}
102
{ACAD_REACTORS
330
C9E7
102
}
330
C9E7
100
AcDbVisualStyle
  2
Dim
 70
    11
 71
     2
 72
     2
 73
     0
 90
        0
 40
-0.6
 41
-30.0
 62
     5
 63
     7
 74
     1
 91
        4
 64
     7
 65
   257
 75
     1
175
     1
 42
1.0
 92
        8
 66
     7
 43
1.0
 76
     1
 77
     6
 78
     2
 67
     7
 79
     5
170
     0
171
     0
290
     0
174
     0
 93
        1
 44
-50.0
173
     0
291
     1
 45
0.0
1001
ACAD
1000
AcDbSavedByObjectVersion
1070
     0
  0
VISUALSTYLE
  5
C9FF
102
{ACAD_XDICTIONARY
360
CA6F
102
}
102
{ACAD_REACTORS
330
C9E7
102
}
330
C9E7
100
AcDbVisualStyle
  2
EdgeColorOff
 70
    22
 71
     2
 72
     2
 73
     0
 90
        0
 40
-0.6
 41
-30.0
 62
     5
 63
     7
 74
     1
 91
        4
 64
     7
 65
   257
 75
     1
175
     1
 42
1.0
 92
        8
 66
     7
 43
1.0
 76
     1
 77
     6
 78
     2
 67
     7
 79
     5
170
     0
171
     0
290
     0
174
     0
 93
        1
 44
0.0
173
     0
291
     1
 45
0.0
1001
ACAD
1000
AcDbSavedByObjectVersion
1070
     0
  0
VISUALSTYLE
  5
C9F6
102
{ACAD_XDICTIONARY
360
CA5D
102
}
102
{ACAD_REACTORS
330
C9E7
102
}
330
C9E7
100
AcDbVisualStyle
  2
Facepattern
 70
    15
 71
     2
 72
     2
 73
     0
 90
        0
 40
-0.6
 41
-30.0
 62
     5
 63
     7
 74
     1
 91
        4
 64
     7
 65
   257
 75
     1
175
     1
 42
1.0
 92
        8
 66
     7
 43
1.0
 76
     1
 77
     6
 78
     2
 67
     7
 79
     5
170
     0
171
     0
290
     0
174
     0
 93
        1
 44
0.0
173
     0
291
     1
 45
0.0
1001
ACAD
1000
AcDbSavedByObjectVersion
1070
     0
  0
VISUALSTYLE
  5
C9E8
102
{ACAD_XDICTIONARY
360
CA41
102
}
102
{ACAD_REACTORS
330
C9E7
102
}
330
C9E7
100
AcDbVisualStyle
  2
Flat
 70
     0
 71
     2
 72
     1
 73
     1
 90
        2
 40
-0.6
 41
30.0
 62
     5
 63
     7
 74
     0
 91
        0
 64
     7
 65
   257
 75
     1
175
     1
 42
1.0
 92
        8
 66
     7
 43
1.0
 76
     1
 77
     6
 78
     2
 67
     7
 79
     5
170
     0
171
     0
290
     0
174
     0
 93
       13
 44
0.0
173
     0
291
     1
 45
0.0
1001
ACAD
1000
AcDbSavedByObjectVersion
1070
     0
  0
VISUALSTYLE
  5
C9E9
102
{ACAD_XDICTIONARY
360
CA43
102
}
102
{ACAD_REACTORS
330
C9E7
102
}
330
C9E7
100
AcDbVisualStyle
  2
FlatWithEdges
 70
     1
 71
     2
 72
     1
 73
     1
 90
        2
 40
-0.6
 41
30.0
 62
     5
 63
     7
 74
     1
 91
        0
 64
     7
 65
   257
 75
     1
175
     1
 42
1.0
 92
        0
 66
   257
 43
1.0
 76
     1
 77
     6
 78
     2
 67
     7
 79
     5
170
     0
171
     0
290
     0
174
     0
 93
       13
 44
0.0
173
     0
291
     1
 45
0.0
1001
ACAD
1000
AcDbSavedByObjectVersion
1070
     0
  0
VISUALSTYLE
  5
C9EA
102
{ACAD_XDICTIONARY
360
CA45
102
}
102
{ACAD_REACTORS
330
C9E7
102
}
330
C9E7
100
AcDbVisualStyle
  2
Gouraud
 70
     2
 71
     2
 72
     2
 73
     1
 90
        2
 40
-0.6
 41
30.0
 62
     5
 63
     7
 74
     0
 91
        0
 64
     7
 65
   257
 75
     1
175
     1
 42
1.0
 92
        0
 66
     7
 43
1.0
 76
     1
 77
     6
 78
     2
 67
     7
 79
     5
170
     0
171
     0
290
     0
174
     0
 93
       13
 44
0.0
173
     0
291
     1
 45
0.0
1001
ACAD
1000
AcDbSavedByObjectVersion
1070
     0
  0
VISUALSTYLE
  5
C9EB
102
{ACAD_XDICTIONARY
360
CA47
102
}
102
{ACAD_REACTORS
330
C9E7
102
}
330
C9E7
100
AcDbVisualStyle
  2
GouraudWithEdges
 70
     3
 71
     2
 72
     2
 73
     1
 90
        2
 40
-0.6
 41
30.0
 62
     5
 63
     7
 74
     1
 91
        0
 64
     7
 65
   257
 75
     1
175
     1
 42
1.0
 92
        0
 66
   257
 43
1.0
 76
     1
 77
     6
 78
     2
 67
     7
 79
     5
170
     0
171
     0
290
     0
174
     0
 93
       13
 44
0.0
173
     0
291
     1
 45
0.0
1001
ACAD
1000
AcDbSavedByObjectVersion
1070
     0
  0
VISUALSTYLE
  5
C9EF
102
{ACAD_XDICTIONARY
360
CA4F
102
}
102
{ACAD_REACTORS
330
C9E7
102
}
330
C9E7
100
AcDbVisualStyle
  2
Hidden
 70
     6
 71
     1
 72
     2
 73
     2
 90
        0
 40
-0.6
 41
-30.0
 62
     5
 63
     7
 74
     2
 91
        2
 64
     7
 65
   257
 75
     2
175
     1
 42
40.0
 92
        0
 66
   257
 43
1.0
 76
     1
 77
     6
 78
     2
 67
     7
 79
     3
170
     0
171
     0
290
     0
174
     0
 93
        1
 44
0.0
173
     0
291
     0
 45
0.0
1001
ACAD
1000
AcDbSavedByObjectVersion
1070
     0
  0
VISUALSTYLE
  5
C9FD
102
{ACAD_XDICTIONARY
360
CA6B
102
}
102
{ACAD_REACTORS
330
C9E7
102
}
330
C9E7
100
AcDbVisualStyle
  2
JitterOff
 70
    20
 71
     2
 72
     2
 73
     0
 90
        0
 40
-0.6
 41
-30.0
 62
     5
 63
     7
 74
     1
 91
        4
 64
     7
 65
   257
 75
     1
175
     1
 42
1.0
 92
       10
 66
     7
 43
1.0
 76
     1
 77
     6
 78
     2
 67
     7
 79
     5
170
     0
171
     0
290
     0
174
     0
 93
        1
 44
0.0
173
     0
291
     1
 45
0.0
1001
ACAD
1000
AcDbSavedByObjectVersion
1070
     0
  0
VISUALSTYLE
  5
C9F5
102
{ACAD_XDICTIONARY
360
CA5B
102
}
102
{ACAD_REACTORS
330
C9E7
102
}
330
C9E7
100
AcDbVisualStyle
  2
Linepattern
 70
    14
 71
     2
 72
     2
 73
     0
 90
        0
 40
-0.6
 41
-30.0
 62
     5
 63
     7
 74
     1
 91
        4
 64
     7
 65
   257
 75
     7
175
     7
 42
1.0
 92
        8
 66
     7
 43
1.0
 76
     1
 77
     6
 78
     2
 67
     7
 79
     5
170
     0
171
     0
290
     0
174
     0
 93
        1
 44
0.0
173
     0
291
     1
 45
0.0
1001
ACAD
1000
AcDbSavedByObjectVersion
1070
     0
  0
VISUALSTYLE
  5
C9FE
102
{ACAD_XDICTIONARY
360
CA6D
102
}
102
{ACAD_REACTORS
330
C9E7
102
}
330
C9E7
100
AcDbVisualStyle
  2
OverhangOff
 70
    21
 71
     2
 72
     2
 73
     0
 90
        0
 40
-0.6
 41
-30.0
 62
     5
 63
     7
 74
     1
 91
        4
 64
     7
 65
   257
 75
     1
175
     1
 42
1.0
 92
        9
 66
     7
 43
1.0
 76
     1
 77
     6
 78
     2
 67
     7
 79
     5
170
     0
171
     0
290
     0
174
     0
 93
        1
 44
0.0
173
     0
291
     1
 45
0.0
1001
ACAD
1000
AcDbSavedByObjectVersion
1070
     0
  0
VISUALSTYLE
  5
C9F1
102
{ACAD_XDICTIONARY
360
CA53
102
}
102
{ACAD_REACTORS
330
C9E7
102
}
330
C9E7
100
AcDbVisualStyle
  2
Realistic
 70
     8
 71
     2
 72
     3
 73
     0
 90
        2
 40
-0.6
 41
30.0
 62
     5
 63
     7
 74
     0
 91
        0
 64
     7
 65
   257
 75
     1
175
     1
 42
1.0
 92
        8
 66
   257
 43
1.0
 76
     1
 77
     6
 78
     2
 67
     7
 79
     3
170
     0
171
     0
290
     0
174
     0
 93
       13
 44
0.0
173
     0
291
     0
 45
0.0
1001
ACAD
1000
AcDbSavedByObjectVersion
1070
     0
  0
VISUALSTYLE
  5
C9FC
102
{ACAD_XDICTIONARY
360
CA69
102
}
102
{ACAD_REACTORS
330
C9E7
102
}
330
C9E7
100
AcDbVisualStyle
  2
Shaded
 70
    27
 71
     2
 72
     2
 73
     1
 90
        2
 40
-0.6
 41
30.0
 62
     5
 63
     7
 74
     0
 91
        4
 64
     7
 65
   257
 75
     1
175
     1
 42
1.0
 92
        8
 66
   257
 43
1.0
 76
     1
 77
     6
 78
     2
 67
     8
 79
     3
170
     0
171
     0
290
     0
174
     0
 93
        5
 44
0.0
173
     0
291
     0
 45
0.0
1001
ACAD
1000
AcDbSavedByObjectVersion
1070
     0
  0
VISUALSTYLE
  5
C9FB
102
{ACAD_XDICTIONARY
360
CA67
102
}
102
{ACAD_REACTORS
330
C9E7
102
}
330
C9E7
100
AcDbVisualStyle
  2
Shaded with edges
 70
    26
 71
     2
 72
     2
 73
     1
 90
        2
 40
-0.6
 41
30.0
 62
     5
 63
     7
 74
     1
 91
       10
 64
     7
 65
   257
 75
     2
175
     1
 42
1.0
 92
        8
 66
   257
 43
1.0
 76
     1
 77
     6
 78
     2
 67
     7
 79
     3
170
     0
171
     0
290
     0
174
     0
 93
        5
 44
0.0
173
     0
291
     0
 45
0.0
1001
ACAD
1000
AcDbSavedByObjectVersion
1070
     0
  0
VISUALSTYLE
  5
C9F8
102
{ACAD_XDICTIONARY
360
CA61
102
}
102
{ACAD_REACTORS
330
C9E7
102
}
330
C9E7
100
AcDbVisualStyle
  2
Shades of Gray
 70
    23
 71
     2
 72
     2
 73
     3
 90
        0
 40
-0.6
 41
-30.0
 62
     5
 63
     7
 74
     2
 91
        2
 64
     7
 65
     7
 75
     1
175
     1
 42
40.0
 92
        8
 66
     7
 43
1.0
 76
     1
 77
     6
 78
     2
 67
     7
 79
     3
170
     0
171
     0
290
     0
174
     0
 93
        1
 44
0.0
173
     0
291
     0
 45
0.0
1001
ACAD
1000
AcDbSavedByObjectVersion
1070
     0
  0
VISUALSTYLE
  5
C9F9
102
{ACAD_XDICTIONARY
360
CA63
102
}
102
{ACAD_REACTORS
330
C9E7
102
}
330
C9E7
100
AcDbVisualStyle
  2
Sketchy
 70
    24
 71
     1
 72
     2
 73
     2
 90
        0
 40
-0.6
 41
-30.0
 62
     5
 63
     7
 74
     2
 91
        2
 64
     7
 65
     7
 75
     1
175
     1
 42
40.0
 92
       11
 66
     7
 43
1.0
 76
     1
 77
     6
 78
     2
 67
     7
 79
     6
170
     0
171
     0
290
     0
174
     0
 93
        1
 44
0.0
173
     0
291
     0
 45
0.0
1001
ACAD
1000
AcDbSavedByObjectVersion
1070
     0
  0
VISUALSTYLE
  5
C9F4
102
{ACAD_XDICTIONARY
360
CA59
102
}
102
{ACAD_REACTORS
330
C9E7
102
}
330
C9E7
100
AcDbVisualStyle
  2
Thicken
 70
    13
 71
     2
 72
     2
 73
     0
 90
        0
 40
-0.6
 41
-30.0
 62
     5
 63
     7
 74
     1
 91
        4
 64
     7
 65
   257
 75
     1
175
     1
 42
1.0
 92
       12
 66
     7
 43
1.0
 76
     1
 77
     6
 78
     2
 67
     7
 79
     5
170
     0
171
     0
290
     0
174
     0
 93
        1
 44
0.0
173
     0
291
     1
 45
0.0
1001
ACAD
1000
AcDbSavedByObjectVersion
1070
     0
  0
VISUALSTYLE
  5
C9EE
102
{ACAD_XDICTIONARY
360
CA4D
102
}
102
{ACAD_REACTORS
330
C9E7
102
}
330
C9E7
100
AcDbVisualStyle
  2
Wireframe
 70
     5
 71
     0
 72
     2
 73
     0
 90
        0
 40
-0.6
 41
-30.0
 62
     5
 63
     7
 74
     1
 91
        4
 64
     7
 65
   257
 75
     1
175
     1
 42
1.0
 92
        0
 66
   257
 43
1.0
 76
     1
 77
     6
 78
     2
 67
     7
 79
     3
170
     0
171
     0
290
     0
174
     0
 93
        1
 44
0.0
173
     0
291
     0
 45
0.0
1001
ACAD
1000
AcDbSavedByObjectVersion
1070
     0
  0
VISUALSTYLE
  5
C9FA
102
{ACAD_XDICTIONARY
360
CA65
102
}
102
{ACAD_REACTORS
330
C9E7
102
}
330
C9E7
100
AcDbVisualStyle
  2
X-Ray
 70
    25
 71
     2
 72
     2
 73
     1
 90
        1
 40
0.5
 41
-30.0
 62
     5
 63
     7
 74
     1
 91
        0
 64
     7
 65
   257
 75
     1
175
     1
 42
1.0
 92
        8
 66
     7
 43
1.0
 76
     1
 77
     6
 78
     2
 67
     7
 79
     3
170
     0
171
     0
290
     0
174
     0
 93
       13
 44
0.0
173
     0
291
     0
 45
0.0
1001
ACAD
1000
AcDbSavedByObjectVersion
1070
     0
  0
DICTIONARYVAR
  5
CA34
102
{ACAD_REACTORS
330
CA2F
102
}
330
CA2F
100
DictionaryVariables
280
     0
  1
1:1
  0
DICTIONARYVAR
  5
CA31
102
{ACAD_REACTORS
330
CA2F
102
}
330
CA2F
100
DictionaryVariables
280
     0
  1
STANDARD
  0
DICTIONARYVAR
  5
CA30
102
{ACAD_REACTORS
330
CA2F
102
}
330
CA2F
100
DictionaryVariables
280
     0
  1
STANDARD
  0
DICTIONARYVAR
  5
CA32
102
{ACAD_REACTORS
330
CA2F
102
}
330
CA2F
100
DictionaryVariables
280
     0
  1
Imperial24
  0
DICTIONARYVAR
  5
CA33
102
{ACAD_REACTORS
330
CA2F
102
}
330
CA2F
100
DictionaryVariables
280
     0
  1
Imperial24
  0
DICTIONARYVAR
  5
CA37
102
{ACAD_REACTORS
330
CA2F
102
}
330
CA2F
100
DictionaryVariables
280
     0
  1
1
  0
DICTIONARYVAR
  5
CA36
102
{ACAD_REACTORS
330
CA2F
102
}
330
CA2F
100
DictionaryVariables
280
     0
  1
0
  0
DICTIONARYVAR
  5
CA35
102
{ACAD_REACTORS
330
CA2F
102
}
330
CA2F
100
DictionaryVariables
280
     0
  1
127
  0
DICTIONARYVAR
  5
CA38
102
{ACAD_REACTORS
330
CA2F
102
}
330
CA2F
100
DictionaryVariables
280
     0
  1
2
  0
DICTIONARY
  5
CA75
330
CA1A
100
AcDbDictionary
280
     1
281
     1
  3
ACAD_XREC_ROUNDTRIP
360
CA76
  0
DICTIONARY
  5
CA77
330
CA1B
100
AcDbDictionary
280
     1
281
     1
  3
ACAD_XREC_ROUNDTRIP
360
CA78
  0
DICTIONARY
  5
CA79
330
CA1C
100
AcDbDictionary
280
     1
281
     1
  3
ACAD_XREC_ROUNDTRIP
360
CA7A
  0
DICTIONARY
  5
C9D8
330
C9D7
100
AcDbDictionary
280
     1
281
     1
  3
ACAD_XREC_ROUNDTRIP
360
CA3F
  3
BUMPTILE
360
C9DA
  3
DIFFUSETILE
360
C9D9
  3
OPACITYTILE
360
C9DD
  3
REFLECTIONTILE
360
C9DC
  3
REFRACTIONTILE
360
C9DE
  3
SPECULARTILE
360
C9DB
  0
DICTIONARY
  5
C9D0
330
C9CF
100
AcDbDictionary
280
     1
281
     1
  3
ACAD_XREC_ROUNDTRIP
360
CA3E
  3
BUMPTILE
360
C9D2
  3
DIFFUSETILE
360
C9D1
  3
OPACITYTILE
360
C9D5
  3
REFLECTIONTILE
360
C9D4
  3
REFRACTIONTILE
360
C9D6
  3
SPECULARTILE
360
C9D3
  0
DICTIONARY
  5
C9E0
330
C9DF
100
AcDbDictionary
280
     1
281
     1
  3
ACAD_XREC_ROUNDTRIP
360
CA40
  3
BUMPTILE
360
C9E2
  3
DIFFUSETILE
360
C9E1
  3
OPACITYTILE
360
C9E5
  3
REFLECTIONTILE
360
C9E4
  3
REFRACTIONTILE
360
C9E6
  3
SPECULARTILE
360
C9E3
  0
DICTIONARY
  5
CA73
330
CA18
100
AcDbDictionary
280
     1
281
     1
  3
ACAD_XREC_ROUNDTRIP
360
CA74
  0
DICTIONARY
  5
CA3A
330
CA02
100
AcDbDictionary
280
     1
281
     1
  3
ACAD_ROUNDTRIP_2008_TABLESTYLE_CELLSTYLEMAP
360
CA3B
  3
ACAD_XREC_ROUNDTRIP
360
CA71
  0
DICTIONARY
  5
CA4B
330
C9ED
100
AcDbDictionary
280
     1
281
     1
  3
ACAD_XREC_ROUNDTRIP
360
CA4C
  0
DICTIONARY
  5
CA49
330
C9EC
100
AcDbDictionary
280
     1
281
     1
  3
ACAD_XREC_ROUNDTRIP
360
CA4A
  0
DICTIONARY
  5
CA57
330
C9F3
100
AcDbDictionary
280
     1
281
     1
  3
ACAD_XREC_ROUNDTRIP
360
CA58
  0
DICTIONARY
  5
CA5F
330
C9F7
100
AcDbDictionary
280
     1
281
     1
  3
ACAD_XREC_ROUNDTRIP
360
CA60
  0
DICTIONARY
  5
CA51
330
C9F0
100
AcDbDictionary
280
     1
281
     1
  3
ACAD_XREC_ROUNDTRIP
360
CA52
  0
DICTIONARY
  5
CA55
330
C9F2
100
AcDbDictionary
280
     1
281
     1
  3
ACAD_XREC_ROUNDTRIP
360
CA56
  0
DICTIONARY
  5
CA6F
330
C9FF
100
AcDbDictionary
280
     1
281
     1
  3
ACAD_XREC_ROUNDTRIP
360
CA70
  0
DICTIONARY
  5
CA5D
330
C9F6
100
AcDbDictionary
280
     1
281
     1
  3
ACAD_XREC_ROUNDTRIP
360
CA5E
  0
DICTIONARY
  5
CA41
330
C9E8
100
AcDbDictionary
280
     1
281
     1
  3
ACAD_XREC_ROUNDTRIP
360
CA42
  0
DICTIONARY
  5
CA43
330
C9E9
100
AcDbDictionary
280
     1
281
     1
  3
ACAD_XREC_ROUNDTRIP
360
CA44
  0
DICTIONARY
  5
CA45
330
C9EA
100
AcDbDictionary
280
     1
281
     1
  3
ACAD_XREC_ROUNDTRIP
360
CA46
  0
DICTIONARY
  5
CA47
330
C9EB
100
AcDbDictionary
280
     1
281
     1
  3
ACAD_XREC_ROUNDTRIP
360
CA48
  0
DICTIONARY
  5
CA4F
330
C9EF
100
AcDbDictionary
280
     1
281
     1
  3
ACAD_XREC_ROUNDTRIP
360
CA50
  0
DICTIONARY
  5
CA6B
330
C9FD
100
AcDbDictionary
280
     1
281
     1
  3
ACAD_XREC_ROUNDTRIP
360
CA6C
  0
DICTIONARY
  5
CA5B
330
C9F5
100
AcDbDictionary
280
     1
281
     1
  3
ACAD_XREC_ROUNDTRIP
360
CA5C
  0
DICTIONARY
  5
CA6D
330
C9FE
100
AcDbDictionary
280
     1
281
     1
  3
ACAD_XREC_ROUNDTRIP
360
CA6E
  0
DICTIONARY
  5
CA53
330
C9F1
100
AcDbDictionary
280
     1
281
     1
  3
ACAD_XREC_ROUNDTRIP
360
CA54
  0
DICTIONARY
  5
CA69
330
C9FC
100
AcDbDictionary
280
     1
281
     1
  3
ACAD_XREC_ROUNDTRIP
360
CA6A
  0
DICTIONARY
  5
CA67
330
C9FB
100
AcDbDictionary
280
     1
281
     1
  3
ACAD_XREC_ROUNDTRIP
360
CA68
  0
DICTIONARY
  5
CA61
330
C9F8
100
AcDbDictionary
280
     1
281
     1
  3
ACAD_XREC_ROUNDTRIP
360
CA62
  0
DICTIONARY
  5
CA63
330
C9F9
100
AcDbDictionary
280
     1
281
     1
  3
ACAD_XREC_ROUNDTRIP
360
CA64
  0
DICTIONARY
  5
CA59
330
C9F4
100
AcDbDictionary
280
     1
281
     1
  3
ACAD_XREC_ROUNDTRIP
360
CA5A
  0
DICTIONARY
  5
CA4D
330
C9EE
100
AcDbDictionary
280
     1
281
     1
  3
ACAD_XREC_ROUNDTRIP
360
CA4E
  0
DICTIONARY
  5
CA65
330
C9FA
100
AcDbDictionary
280
     1
281
     1
  3
ACAD_XREC_ROUNDTRIP
360
CA66
  0
XRECORD
  5
CA76
102
{ACAD_REACTORS
330
CA75
102
}
330
CA75
100
AcDbXrecord
280
     1
102
DISPLAYNAME
  1
Imperial24
102
FLAGS
 90
        0
  0
XRECORD
  5
CA78
102
{ACAD_REACTORS
330
CA77
102
}
330
CA77
100
AcDbXrecord
280
     1
102
SHADEPLOT
 70
     0
102
SHADEPLOTRESLEVEL
 70
     2
102
SHADEPLOTCUSTOMDPI
 70
   300
  0
XRECORD
  5
CA7A
102
{ACAD_REACTORS
330
CA79
102
}
330
CA79
100
AcDbXrecord
280
     1
102
SHADEPLOT
 70
     0
102
SHADEPLOTRESLEVEL
 70
     2
102
SHADEPLOTCUSTOMDPI
 70
   300
  0
XRECORD
  5
CA3F
102
{ACAD_REACTORS
330
C9D8
102
}
330
C9D8
100
AcDbXrecord
280
     1
102
MATERIAL
148
0.0
149
0.0
149
0.0
 93
        0
 94
      127
282
     0
 72
     0
 77
     0
171
     0
175
     0
179
     0
273
     0
  0
XRECORD
  5
C9DA
102
{ACAD_REACTORS
330
C9D8
102
}
330
C9D8
100
AcDbXrecord
280
     1
270
     1
271
     1
  0
XRECORD
  5
C9D9
102
{ACAD_REACTORS
330
C9D8
102
}
330
C9D8
100
AcDbXrecord
280
     1
270
     1
271
     1
  0
XRECORD
  5
C9DD
102
{ACAD_REACTORS
330
C9D8
102
}
330
C9D8
100
AcDbXrecord
280
     1
270
     1
271
     1
  0
XRECORD
  5
C9DC
102
{ACAD_REACTORS
330
C9D8
102
}
330
C9D8
100
AcDbXrecord
280
     1
270
     1
271
     1
  0
XRECORD
  5
C9DE
102
{ACAD_REACTORS
330
C9D8
102
}
330
C9D8
100
AcDbXrecord
280
     1
270
     1
271
     1
  0
XRECORD
  5
C9DB
102
{ACAD_REACTORS
330
C9D8
102
}
330
C9D8
100
AcDbXrecord
280
     1
270
     1
271
     1
  0
XRECORD
  5
CA3E
102
{ACAD_REACTORS
330
C9D0
102
}
330
C9D0
100
AcDbXrecord
280
     1
102
MATERIAL
148
0.0
149
0.0
149
0.0
 93
        0
 94
      127
282
     0
 72
     0
 77
     0
171
     0
175
     0
179
     0
273
     0
  0
XRECORD
  5
C9D2
102
{ACAD_REACTORS
330
C9D0
102
}
330
C9D0
100
AcDbXrecord
280
     1
270
     1
271
     1
  0
XRECORD
  5
C9D1
102
{ACAD_REACTORS
330
C9D0
102
}
330
C9D0
100
AcDbXrecord
280
     1
270
     1
271
     1
  0
XRECORD
  5
C9D5
102
{ACAD_REACTORS
330
C9D0
102
}
330
C9D0
100
AcDbXrecord
280
     1
270
     1
271
     1
  0
XRECORD
  5
C9D4
102
{ACAD_REACTORS
330
C9D0
102
}
330
C9D0
100
AcDbXrecord
280
     1
270
     1
271
     1
  0
XRECORD
  5
C9D6
102
{ACAD_REACTORS
330
C9D0
102
}
330
C9D0
100
AcDbXrecord
280
     1
270
     1
271
     1
  0
XRECORD
  5
C9D3
102
{ACAD_REACTORS
330
C9D0
102
}
330
C9D0
100
AcDbXrecord
280
     1
270
     1
271
     1
  0
XRECORD
  5
CA40
102
{ACAD_REACTORS
330
C9E0
102
}
330
C9E0
100
AcDbXrecord
280
     1
102
MATERIAL
148
0.0
149
0.0
149
0.0
 93
        0
 94
      127
282
     0
 72
     0
 77
     0
171
     0
175
     0
179
     0
273
     0
  0
XRECORD
  5
C9E2
102
{ACAD_REACTORS
330
C9E0
102
}
330
C9E0
100
AcDbXrecord
280
     1
270
     1
271
     1
  0
XRECORD
  5
C9E1
102
{ACAD_REACTORS
330
C9E0
102
}
330
C9E0
100
AcDbXrecord
280
     1
270
     1
271
     1
  0
XRECORD
  5
C9E5
102
{ACAD_REACTORS
330
C9E0
102
}
330
C9E0
100
AcDbXrecord
280
     1
270
     1
271
     1
  0
XRECORD
  5
C9E4
102
{ACAD_REACTORS
330
C9E0
102
}
330
C9E0
100
AcDbXrecord
280
     1
270
     1
271
     1
  0
XRECORD
  5
C9E6
102
{ACAD_REACTORS
330
C9E0
102
}
330
C9E0
100
AcDbXrecord
280
     1
270
     1
271
     1
  0
XRECORD
  5
C9E3
102
{ACAD_REACTORS
330
C9E0
102
}
330
C9E0
100
AcDbXrecord
280
     1
270
     1
271
     1
  0
XRECORD
  5
CA74
102
{ACAD_REACTORS
330
CA73
102
}
330
CA73
100
AcDbXrecord
280
     1
102
DISPLAYNAME
  1
Imperial24
102
FLAGS
 90
        0
  0
CELLSTYLEMAP
  5
CA3B
102
{ACAD_REACTORS
330
CA3A
102
}
330
CA3A
100
AcDbCellStyleMap
 90
        3
300
CELLSTYLE
  1
TABLEFORMAT_BEGIN
 90
        5
170
     1
 91
        0
 92
    32768
 62
   257
 93
        1
300
CONTENTFORMAT
  1
CONTENTFORMAT_BEGIN
 90
        0
 91
        0
 92
      512
 93
        0
300

 40
0.0
140
1.0
 94
        5
 62
     0
340
C7BB
144
0.25
309
CONTENTFORMAT_END
171
     0
 94
        0
309
TABLEFORMAT_END
  1
CELLSTYLE_BEGIN
 90
        1
 91
        1
300
_TITLE
309
CELLSTYLE_END
300
CELLSTYLE
  1
TABLEFORMAT_BEGIN
 90
        5
170
     1
 91
        0
 92
        0
 62
   257
 93
        1
300
CONTENTFORMAT
  1
CONTENTFORMAT_BEGIN
 90
        0
 91
        0
 92
      512
 93
        0
300

 40
0.0
140
1.0
 94
        5
 62
     0
340
C7BB
144
0.18
309
CONTENTFORMAT_END
171
     0
 94
        0
309
TABLEFORMAT_END
  1
CELLSTYLE_BEGIN
 90
        2
 91
        1
300
_HEADER
309
CELLSTYLE_END
300
CELLSTYLE
  1
TABLEFORMAT_BEGIN
 90
        5
170
     1
 91
        0
 92
        0
 62
   257
 93
        1
300
CONTENTFORMAT
  1
CONTENTFORMAT_BEGIN
 90
        0
 91
        0
 92
      512
 93
        0
300

 40
0.0
140
1.0
 94
        2
 62
     0
340
C7BB
144
0.18
309
CONTENTFORMAT_END
171
     0
 94
        0
309
TABLEFORMAT_END
  1
CELLSTYLE_BEGIN
 90
        3
 91
        2
300
_DATA
309
CELLSTYLE_END
  0
XRECORD
  5
CA71
102
{ACAD_REACTORS
330
CA3A
102
}
330
CA3A
100
AcDbXrecord
280
     1
102
ACAD_ROUNDTRIP_PRE2007_TABLESTYLE
 90
      512
 91
        0
  1

 92
      512
 93
        0
  2

 94
      512
 95
        0
  3

  0
XRECORD
  5
CA4C
102
{ACAD_REACTORS
330
CA4B
102
}
330
CA4B
100
AcDbXrecord
280
     1
102
RTVSPost2010Prop28
280
     1
102
RTVSPost2010PropOp28
 70
     1
102
RTVSPost2010Prop29
280
     1
102
RTVSPost2010PropOp29
 70
     1
102
RTVSPost2010Prop30
280
     0
102
RTVSPost2010PropOp30
 70
     1
102
RTVSPost2010Prop31
280
     0
102
RTVSPost2010PropOp31
 70
     1
102
RTVSPost2010Prop32
280
     0
102
RTVSPost2010PropOp32
 70
     1
102
RTVSPost2010Prop33
280
     0
102
RTVSPost2010PropOp33
 70
     1
102
RTVSPost2010Prop34
280
     0
102
RTVSPost2010PropOp34
 70
     1
102
RTVSPost2010Prop35
280
     0
102
RTVSPost2010PropOp35
 70
     1
102
RTVSPost2010Prop36
280
     0
102
RTVSPost2010PropOp36
 70
     1
102
RTVSPost2010Prop37
 90
       50
102
RTVSPost2010PropOp37
 70
     1
102
RTVSPost2010Prop38
140
0.0
102
RTVSPost2010PropOp38
 70
     1
102
RTVSPost2010Prop39
140
1.0
102
RTVSPost2010PropOp39
 70
     1
102
RTVSPost2010Prop40
 90
        0
102
RTVSPost2010PropOp40
 70
     1
102
RTVSPost2010Prop41ColorIndex
 90
       18
102
RTVSPost2010Prop41ColorRGB
 90
        0
102
RTVSPost2010PropOp41
 70
     1
102
RTVSPost2010Prop42
 90
       50
102
RTVSPost2010PropOp42
 70
     1
102
RTVSPost2010Prop43
 90
        3
102
RTVSPost2010PropOp43
 70
     1
102
RTVSPost2010Prop44ColorIndex
 90
        5
102
RTVSPost2010Prop44ColorRGB
 90
      255
102
RTVSPost2010PropOp44
 70
     1
102
RTVSPost2010Prop45
280
     0
102
RTVSPost2010PropOp45
 70
     1
102
RTVSPost2010Prop46
 90
       50
102
RTVSPost2010PropOp46
 70
     1
102
RTVSPost2010Prop47
 90
       50
102
RTVSPost2010PropOp47
 70
     1
102
RTVSPost2010Prop48
 90
       50
102
RTVSPost2010PropOp48
 70
     1
102
RTVSPost2010Prop49
280
     0
102
RTVSPost2010PropOp49
 70
     1
102
RTVSPost2010Prop50
 90
       50
102
RTVSPost2010PropOp50
 70
     1
102
RTVSPost2010Prop51ColorIndex
 90
      256
102
RTVSPost2010Prop51ColorRGB
 90
-16777216
102
RTVSPost2010PropOp51
 70
     0
102
RTVSPost2010Prop52
140
1.0
102
RTVSPost2010PropOp52
 70
     0
102
RTVSPost2010Prop53
 90
        2
102
RTVSPost2010PropOp53
 70
     1
102
RTVSPost2010Prop54
  1
strokes_ogs.tif
102
RTVSPost2010PropOp54
 70
     1
102
RTVSPost2010Prop55
280
     0
102
RTVSPost2010PropOp55
 70
     1
102
RTVSPost2010Prop56
140
1.0
102
RTVSPost2010PropOp56
 70
     1
102
RTVSPost2010Prop57
140
1.0
102
RTVSPost2010PropOp57
 70
     1
102
RTVSPropertyOp0
 70
     1
102
RTVSPropertyOp1
 70
     1
102
RTVSPropertyOp2
 70
     1
102
RTVSPropertyOp3
 70
     1
102
RTVSPropertyOp4
 70
     1
102
RTVSPropertyOp5
 70
     1
102
RTVSPropertyOp6
 70
     1
102
RTVSPropertyOp7
 70
     1
102
RTVSPropertyOp8
 70
     1
102
RTVSPropertyOp9
 70
     1
102
RTVSPropertyOp10
 70
     1
102
RTVSPropertyOp11
 70
     1
102
RTVSPropertyOp12
 70
     1
102
RTVSPropertyOp13
 70
     1
102
RTVSPropertyOp14
 70
     1
102
RTVSPropertyOp15
 70
     1
102
RTVSPropertyOp16
 70
     1
102
RTVSPropertyOp17
 70
     1
102
RTVSPropertyOp18
 70
     1
102
RTVSPropertyOp19
 70
     1
102
RTVSPropertyOp20
 70
     1
102
RTVSPropertyOp21
 70
     1
102
RTVSPropertyOp22
 70
     1
102
RTVSPropertyOp23
 70
     1
102
RTVSPropertyOp24
 70
     1
102
RTVSPropertyOp25
 70
     1
102
RTVSPropertyOp26
 70
     1
102
RTVSPropertyOp27
 70
     1
102
RTVSPropertyOp28
 70
     1
102
RTVSPropertyOp29
 70
     1
102
RTVSPropertyOp30
 70
     1
102
RTVSPropertyOp31
 70
     1
102
RTVSPropertyOp32
 70
     1
102
RTVSPropertyOp33
 70
     1
102
RTVSPropertyOp34
 70
     1
102
RTVSPropertyOp35
 70
     1
102
RTVSPropertyOp36
 70
     1
102
RTVSPropertyOp37
 70
     1
102
RTVSPropertyOp38
 70
     1
102
RTVSPropertyOp39
 70
     1
102
RTVSPropertyOp40
 70
     1
102
RTVSPropertyOp41
 70
     1
102
RTVSPropertyOp42
 70
     1
102
RTVSPropertyOp43
 70
     1
102
RTVSPropertyOp44
 70
     1
102
RTVSPropertyOp45
 70
     1
102
RTVSPropertyOp46
 70
     1
102
RTVSPropertyOp47
 70
     1
102
RTVSPropertyOp48
 70
     1
102
RTVSPropertyOp49
 70
     1
102
RTVSPropertyOp50
 70
     1
102
RTVSPropertyOp51
 70
     0
102
RTVSPropertyOp52
 70
     0
102
RTVSPropertyOp53
 70
     1
102
RTVSPropertyOp54
 70
     1
102
RTVSPropertyOp55
 70
     1
102
RTVSPropertyOp56
 70
     1
102
RTVSPropertyOp57
 70
     1
102
RTVSPropertyOp58
 70
     1
102
RTVSPropertyOp59
 70
     1
102
RTVSPropertyOp60
 70
     1
102
RTVSPropertyOp61
 70
     1
102
RTVSPropertyOp62
 70
     1
  0
XRECORD
  5
CA4A
102
{ACAD_REACTORS
330
CA49
102
}
330
CA49
100
AcDbXrecord
280
     1
102
RTVSPost2010Prop28
280
     0
102
RTVSPost2010PropOp28
 70
     1
102
RTVSPost2010Prop29
280
     1
102
RTVSPost2010PropOp29
 70
     1
102
RTVSPost2010Prop30
280
     1
102
RTVSPost2010PropOp30
 70
     1
102
RTVSPost2010Prop31
280
     0
102
RTVSPost2010PropOp31
 70
     1
102
RTVSPost2010Prop32
280
     0
102
RTVSPost2010PropOp32
 70
     1
102
RTVSPost2010Prop33
280
     0
102
RTVSPost2010PropOp33
 70
     1
102
RTVSPost2010Prop34
280
     0
102
RTVSPost2010PropOp34
 70
     1
102
RTVSPost2010Prop35
280
     0
102
RTVSPost2010PropOp35
 70
     1
102
RTVSPost2010Prop36
280
     0
102
RTVSPost2010PropOp36
 70
     1
102
RTVSPost2010Prop37
 90
       50
102
RTVSPost2010PropOp37
 70
     1
102
RTVSPost2010Prop38
140
0.0
102
RTVSPost2010PropOp38
 70
     1
102
RTVSPost2010Prop39
140
1.0
102
RTVSPost2010PropOp39
 70
     1
102
RTVSPost2010Prop40
 90
        0
102
RTVSPost2010PropOp40
 70
     1
102
RTVSPost2010Prop41ColorIndex
 90
       18
102
RTVSPost2010Prop41ColorRGB
 90
        0
102
RTVSPost2010PropOp41
 70
     1
102
RTVSPost2010Prop42
 90
       50
102
RTVSPost2010PropOp42
 70
     1
102
RTVSPost2010Prop43
 90
        3
102
RTVSPost2010PropOp43
 70
     1
102
RTVSPost2010Prop44ColorIndex
 90
        5
102
RTVSPost2010Prop44ColorRGB
 90
      255
102
RTVSPost2010PropOp44
 70
     1
102
RTVSPost2010Prop45
280
     0
102
RTVSPost2010PropOp45
 70
     1
102
RTVSPost2010Prop46
 90
       50
102
RTVSPost2010PropOp46
 70
     1
102
RTVSPost2010Prop47
 90
       50
102
RTVSPost2010PropOp47
 70
     1
102
RTVSPost2010Prop48
 90
       50
102
RTVSPost2010PropOp48
 70
     1
102
RTVSPost2010Prop49
280
     0
102
RTVSPost2010PropOp49
 70
     1
102
RTVSPost2010Prop50
 90
       50
102
RTVSPost2010PropOp50
 70
     1
102
RTVSPost2010Prop51ColorIndex
 90
      256
102
RTVSPost2010Prop51ColorRGB
 90
-16777216
102
RTVSPost2010PropOp51
 70
     0
102
RTVSPost2010Prop52
140
1.0
102
RTVSPost2010PropOp52
 70
     0
102
RTVSPost2010Prop53
 90
        2
102
RTVSPost2010PropOp53
 70
     1
102
RTVSPost2010Prop54
  1
strokes_ogs.tif
102
RTVSPost2010PropOp54
 70
     1
102
RTVSPost2010Prop55
280
     0
102
RTVSPost2010PropOp55
 70
     1
102
RTVSPost2010Prop56
140
1.0
102
RTVSPost2010PropOp56
 70
     1
102
RTVSPost2010Prop57
140
1.0
102
RTVSPost2010PropOp57
 70
     1
102
RTVSPropertyOp0
 70
     1
102
RTVSPropertyOp1
 70
     1
102
RTVSPropertyOp2
 70
     1
102
RTVSPropertyOp3
 70
     1
102
RTVSPropertyOp4
 70
     1
102
RTVSPropertyOp5
 70
     1
102
RTVSPropertyOp6
 70
     1
102
RTVSPropertyOp7
 70
     1
102
RTVSPropertyOp8
 70
     1
102
RTVSPropertyOp9
 70
     1
102
RTVSPropertyOp10
 70
     1
102
RTVSPropertyOp11
 70
     1
102
RTVSPropertyOp12
 70
     1
102
RTVSPropertyOp13
 70
     1
102
RTVSPropertyOp14
 70
     1
102
RTVSPropertyOp15
 70
     1
102
RTVSPropertyOp16
 70
     1
102
RTVSPropertyOp17
 70
     1
102
RTVSPropertyOp18
 70
     1
102
RTVSPropertyOp19
 70
     1
102
RTVSPropertyOp20
 70
     1
102
RTVSPropertyOp21
 70
     1
102
RTVSPropertyOp22
 70
     1
102
RTVSPropertyOp23
 70
     1
102
RTVSPropertyOp24
 70
     1
102
RTVSPropertyOp25
 70
     1
102
RTVSPropertyOp26
 70
     1
102
RTVSPropertyOp27
 70
     1
102
RTVSPropertyOp28
 70
     1
102
RTVSPropertyOp29
 70
     1
102
RTVSPropertyOp30
 70
     1
102
RTVSPropertyOp31
 70
     1
102
RTVSPropertyOp32
 70
     1
102
RTVSPropertyOp33
 70
     1
102
RTVSPropertyOp34
 70
     1
102
RTVSPropertyOp35
 70
     1
102
RTVSPropertyOp36
 70
     1
102
RTVSPropertyOp37
 70
     1
102
RTVSPropertyOp38
 70
     1
102
RTVSPropertyOp39
 70
     1
102
RTVSPropertyOp40
 70
     1
102
RTVSPropertyOp41
 70
     1
102
RTVSPropertyOp42
 70
     1
102
RTVSPropertyOp43
 70
     1
102
RTVSPropertyOp44
 70
     1
102
RTVSPropertyOp45
 70
     1
102
RTVSPropertyOp46
 70
     1
102
RTVSPropertyOp47
 70
     1
102
RTVSPropertyOp48
 70
     1
102
RTVSPropertyOp49
 70
     1
102
RTVSPropertyOp50
 70
     1
102
RTVSPropertyOp51
 70
     0
102
RTVSPropertyOp52
 70
     0
102
RTVSPropertyOp53
 70
     1
102
RTVSPropertyOp54
 70
     1
102
RTVSPropertyOp55
 70
     1
102
RTVSPropertyOp56
 70
     1
102
RTVSPropertyOp57
 70
     1
102
RTVSPropertyOp58
 70
     1
102
RTVSPropertyOp59
 70
     1
102
RTVSPropertyOp60
 70
     1
102
RTVSPropertyOp61
 70
     1
102
RTVSPropertyOp62
 70
     1
  0
XRECORD
  5
CA58
102
{ACAD_REACTORS
330
CA57
102
}
330
CA57
100
AcDbXrecord
280
     1
102
RTVSPost2010Prop28
280
     0
102
RTVSPost2010PropOp28
 70
     1
102
RTVSPost2010Prop29
280
     1
102
RTVSPost2010PropOp29
 70
     1
102
RTVSPost2010Prop30
280
     1
102
RTVSPost2010PropOp30
 70
     1
102
RTVSPost2010Prop31
280
     0
102
RTVSPost2010PropOp31
 70
     1
102
RTVSPost2010Prop32
280
     0
102
RTVSPost2010PropOp32
 70
     1
102
RTVSPost2010Prop33
280
     0
102
RTVSPost2010PropOp33
 70
     1
102
RTVSPost2010Prop34
280
     0
102
RTVSPost2010PropOp34
 70
     1
102
RTVSPost2010Prop35
280
     0
102
RTVSPost2010PropOp35
 70
     1
102
RTVSPost2010Prop36
280
     0
102
RTVSPost2010PropOp36
 70
     1
102
RTVSPost2010Prop37
 90
       50
102
RTVSPost2010PropOp37
 70
     1
102
RTVSPost2010Prop38
140
0.0
102
RTVSPost2010PropOp38
 70
     1
102
RTVSPost2010Prop39
140
1.0
102
RTVSPost2010PropOp39
 70
     1
102
RTVSPost2010Prop40
 90
        0
102
RTVSPost2010PropOp40
 70
     1
102
RTVSPost2010Prop41ColorIndex
 90
       18
102
RTVSPost2010Prop41ColorRGB
 90
        0
102
RTVSPost2010PropOp41
 70
     1
102
RTVSPost2010Prop42
 90
       50
102
RTVSPost2010PropOp42
 70
     1
102
RTVSPost2010Prop43
 90
        3
102
RTVSPost2010PropOp43
 70
     1
102
RTVSPost2010Prop44ColorIndex
 90
        5
102
RTVSPost2010Prop44ColorRGB
 90
      255
102
RTVSPost2010PropOp44
 70
     1
102
RTVSPost2010Prop45
280
     0
102
RTVSPost2010PropOp45
 70
     1
102
RTVSPost2010Prop46
 90
       50
102
RTVSPost2010PropOp46
 70
     1
102
RTVSPost2010Prop47
 90
       50
102
RTVSPost2010PropOp47
 70
     1
102
RTVSPost2010Prop48
 90
       50
102
RTVSPost2010PropOp48
 70
     1
102
RTVSPost2010Prop49
280
     0
102
RTVSPost2010PropOp49
 70
     1
102
RTVSPost2010Prop50
 90
       50
102
RTVSPost2010PropOp50
 70
     1
102
RTVSPost2010Prop51ColorIndex
 90
      256
102
RTVSPost2010Prop51ColorRGB
 90
-16777216
102
RTVSPost2010PropOp51
 70
     0
102
RTVSPost2010Prop52
140
1.0
102
RTVSPost2010PropOp52
 70
     0
102
RTVSPost2010Prop53
 90
        2
102
RTVSPost2010PropOp53
 70
     1
102
RTVSPost2010Prop54
  1
strokes_ogs.tif
102
RTVSPost2010PropOp54
 70
     1
102
RTVSPost2010Prop55
280
     0
102
RTVSPost2010PropOp55
 70
     1
102
RTVSPost2010Prop56
140
1.0
102
RTVSPost2010PropOp56
 70
     1
102
RTVSPost2010Prop57
140
1.0
102
RTVSPost2010PropOp57
 70
     1
102
RTVSPropertyOp0
 70
     1
102
RTVSPropertyOp1
 70
     1
102
RTVSPropertyOp2
 70
     1
102
RTVSPropertyOp3
 70
     1
102
RTVSPropertyOp4
 70
     1
102
RTVSPropertyOp5
 70
     1
102
RTVSPropertyOp6
 70
     1
102
RTVSPropertyOp7
 70
     1
102
RTVSPropertyOp8
 70
     1
102
RTVSPropertyOp9
 70
     1
102
RTVSPropertyOp10
 70
     1
102
RTVSPropertyOp11
 70
     1
102
RTVSPropertyOp12
 70
     1
102
RTVSPropertyOp13
 70
     1
102
RTVSPropertyOp14
 70
     1
102
RTVSPropertyOp15
 70
     1
102
RTVSPropertyOp16
 70
     1
102
RTVSPropertyOp17
 70
     1
102
RTVSPropertyOp18
 70
     1
102
RTVSPropertyOp19
 70
     1
102
RTVSPropertyOp20
 70
     1
102
RTVSPropertyOp21
 70
     1
102
RTVSPropertyOp22
 70
     1
102
RTVSPropertyOp23
 70
     1
102
RTVSPropertyOp24
 70
     1
102
RTVSPropertyOp25
 70
     1
102
RTVSPropertyOp26
 70
     1
102
RTVSPropertyOp27
 70
     1
102
RTVSPropertyOp28
 70
     1
102
RTVSPropertyOp29
 70
     1
102
RTVSPropertyOp30
 70
     1
102
RTVSPropertyOp31
 70
     1
102
RTVSPropertyOp32
 70
     1
102
RTVSPropertyOp33
 70
     1
102
RTVSPropertyOp34
 70
     1
102
RTVSPropertyOp35
 70
     1
102
RTVSPropertyOp36
 70
     1
102
RTVSPropertyOp37
 70
     1
102
RTVSPropertyOp38
 70
     1
102
RTVSPropertyOp39
 70
     1
102
RTVSPropertyOp40
 70
     1
102
RTVSPropertyOp41
 70
     1
102
RTVSPropertyOp42
 70
     1
102
RTVSPropertyOp43
 70
     1
102
RTVSPropertyOp44
 70
     1
102
RTVSPropertyOp45
 70
     1
102
RTVSPropertyOp46
 70
     1
102
RTVSPropertyOp47
 70
     1
102
RTVSPropertyOp48
 70
     1
102
RTVSPropertyOp49
 70
     1
102
RTVSPropertyOp50
 70
     1
102
RTVSPropertyOp51
 70
     0
102
RTVSPropertyOp52
 70
     0
102
RTVSPropertyOp53
 70
     1
102
RTVSPropertyOp54
 70
     1
102
RTVSPropertyOp55
 70
     1
102
RTVSPropertyOp56
 70
     1
102
RTVSPropertyOp57
 70
     1
102
RTVSPropertyOp58
 70
     1
102
RTVSPropertyOp59
 70
     1
102
RTVSPropertyOp60
 70
     1
102
RTVSPropertyOp61
 70
     1
102
RTVSPropertyOp62
 70
     1
  0
XRECORD
  5
CA60
102
{ACAD_REACTORS
330
CA5F
102
}
330
CA5F
100
AcDbXrecord
280
     1
102
RTVSPost2010Prop28
280
     0
102
RTVSPost2010PropOp28
 70
     1
102
RTVSPost2010Prop29
280
     1
102
RTVSPost2010PropOp29
 70
     1
102
RTVSPost2010Prop30
280
     1
102
RTVSPost2010PropOp30
 70
     1
102
RTVSPost2010Prop31
280
     0
102
RTVSPost2010PropOp31
 70
     1
102
RTVSPost2010Prop32
280
     0
102
RTVSPost2010PropOp32
 70
     1
102
RTVSPost2010Prop33
280
     0
102
RTVSPost2010PropOp33
 70
     1
102
RTVSPost2010Prop34
280
     0
102
RTVSPost2010PropOp34
 70
     1
102
RTVSPost2010Prop35
280
     0
102
RTVSPost2010PropOp35
 70
     1
102
RTVSPost2010Prop36
280
     0
102
RTVSPost2010PropOp36
 70
     1
102
RTVSPost2010Prop37
 90
       50
102
RTVSPost2010PropOp37
 70
     1
102
RTVSPost2010Prop38
140
0.0
102
RTVSPost2010PropOp38
 70
     1
102
RTVSPost2010Prop39
140
1.0
102
RTVSPost2010PropOp39
 70
     1
102
RTVSPost2010Prop40
 90
        0
102
RTVSPost2010PropOp40
 70
     1
102
RTVSPost2010Prop41ColorIndex
 90
       18
102
RTVSPost2010Prop41ColorRGB
 90
        0
102
RTVSPost2010PropOp41
 70
     1
102
RTVSPost2010Prop42
 90
       50
102
RTVSPost2010PropOp42
 70
     1
102
RTVSPost2010Prop43
 90
        3
102
RTVSPost2010PropOp43
 70
     1
102
RTVSPost2010Prop44ColorIndex
 90
        5
102
RTVSPost2010Prop44ColorRGB
 90
      255
102
RTVSPost2010PropOp44
 70
     1
102
RTVSPost2010Prop45
280
     0
102
RTVSPost2010PropOp45
 70
     1
102
RTVSPost2010Prop46
 90
       50
102
RTVSPost2010PropOp46
 70
     1
102
RTVSPost2010Prop47
 90
       50
102
RTVSPost2010PropOp47
 70
     1
102
RTVSPost2010Prop48
 90
       50
102
RTVSPost2010PropOp48
 70
     1
102
RTVSPost2010Prop49
280
     0
102
RTVSPost2010PropOp49
 70
     1
102
RTVSPost2010Prop50
 90
       50
102
RTVSPost2010PropOp50
 70
     1
102
RTVSPost2010Prop51ColorIndex
 90
      256
102
RTVSPost2010Prop51ColorRGB
 90
-16777216
102
RTVSPost2010PropOp51
 70
     0
102
RTVSPost2010Prop52
140
1.0
102
RTVSPost2010PropOp52
 70
     0
102
RTVSPost2010Prop53
 90
        2
102
RTVSPost2010PropOp53
 70
     1
102
RTVSPost2010Prop54
  1
strokes_ogs.tif
102
RTVSPost2010PropOp54
 70
     1
102
RTVSPost2010Prop55
280
     0
102
RTVSPost2010PropOp55
 70
     1
102
RTVSPost2010Prop56
140
1.0
102
RTVSPost2010PropOp56
 70
     1
102
RTVSPost2010Prop57
140
1.0
102
RTVSPost2010PropOp57
 70
     1
102
RTVSPropertyOp0
 70
     1
102
RTVSPropertyOp1
 70
     1
102
RTVSPropertyOp2
 70
     1
102
RTVSPropertyOp3
 70
     1
102
RTVSPropertyOp4
 70
     1
102
RTVSPropertyOp5
 70
     1
102
RTVSPropertyOp6
 70
     1
102
RTVSPropertyOp7
 70
     1
102
RTVSPropertyOp8
 70
     1
102
RTVSPropertyOp9
 70
     1
102
RTVSPropertyOp10
 70
     1
102
RTVSPropertyOp11
 70
     1
102
RTVSPropertyOp12
 70
     1
102
RTVSPropertyOp13
 70
     1
102
RTVSPropertyOp14
 70
     1
102
RTVSPropertyOp15
 70
     1
102
RTVSPropertyOp16
 70
     1
102
RTVSPropertyOp17
 70
     1
102
RTVSPropertyOp18
 70
     1
102
RTVSPropertyOp19
 70
     1
102
RTVSPropertyOp20
 70
     1
102
RTVSPropertyOp21
 70
     1
102
RTVSPropertyOp22
 70
     1
102
RTVSPropertyOp23
 70
     1
102
RTVSPropertyOp24
 70
     1
102
RTVSPropertyOp25
 70
     1
102
RTVSPropertyOp26
 70
     1
102
RTVSPropertyOp27
 70
     1
102
RTVSPropertyOp28
 70
     1
102
RTVSPropertyOp29
 70
     1
102
RTVSPropertyOp30
 70
     1
102
RTVSPropertyOp31
 70
     1
102
RTVSPropertyOp32
 70
     1
102
RTVSPropertyOp33
 70
     1
102
RTVSPropertyOp34
 70
     1
102
RTVSPropertyOp35
 70
     1
102
RTVSPropertyOp36
 70
     1
102
RTVSPropertyOp37
 70
     1
102
RTVSPropertyOp38
 70
     1
102
RTVSPropertyOp39
 70
     1
102
RTVSPropertyOp40
 70
     1
102
RTVSPropertyOp41
 70
     1
102
RTVSPropertyOp42
 70
     1
102
RTVSPropertyOp43
 70
     1
102
RTVSPropertyOp44
 70
     1
102
RTVSPropertyOp45
 70
     1
102
RTVSPropertyOp46
 70
     1
102
RTVSPropertyOp47
 70
     1
102
RTVSPropertyOp48
 70
     1
102
RTVSPropertyOp49
 70
     1
102
RTVSPropertyOp50
 70
     1
102
RTVSPropertyOp51
 70
     0
102
RTVSPropertyOp52
 70
     0
102
RTVSPropertyOp53
 70
     1
102
RTVSPropertyOp54
 70
     1
102
RTVSPropertyOp55
 70
     1
102
RTVSPropertyOp56
 70
     1
102
RTVSPropertyOp57
 70
     1
102
RTVSPropertyOp58
 70
     1
102
RTVSPropertyOp59
 70
     1
102
RTVSPropertyOp60
 70
     1
102
RTVSPropertyOp61
 70
     1
102
RTVSPropertyOp62
 70
     1
  0
XRECORD
  5
CA52
102
{ACAD_REACTORS
330
CA51
102
}
330
CA51
100
AcDbXrecord
280
     1
102
RTVSPost2010Prop28
280
     0
102
RTVSPost2010PropOp28
 70
     1
102
RTVSPost2010Prop29
280
     1
102
RTVSPost2010PropOp29
 70
     1
102
RTVSPost2010Prop30
280
     1
102
RTVSPost2010PropOp30
 70
     1
102
RTVSPost2010Prop31
280
     0
102
RTVSPost2010PropOp31
 70
     1
102
RTVSPost2010Prop32
280
     0
102
RTVSPost2010PropOp32
 70
     1
102
RTVSPost2010Prop33
280
     0
102
RTVSPost2010PropOp33
 70
     1
102
RTVSPost2010Prop34
280
     0
102
RTVSPost2010PropOp34
 70
     1
102
RTVSPost2010Prop35
280
     0
102
RTVSPost2010PropOp35
 70
     1
102
RTVSPost2010Prop36
280
     0
102
RTVSPost2010PropOp36
 70
     1
102
RTVSPost2010Prop37
 90
       50
102
RTVSPost2010PropOp37
 70
     1
102
RTVSPost2010Prop38
140
0.0
102
RTVSPost2010PropOp38
 70
     1
102
RTVSPost2010Prop39
140
1.0
102
RTVSPost2010PropOp39
 70
     1
102
RTVSPost2010Prop40
 90
        0
102
RTVSPost2010PropOp40
 70
     1
102
RTVSPost2010Prop41ColorIndex
 90
       18
102
RTVSPost2010Prop41ColorRGB
 90
        0
102
RTVSPost2010PropOp41
 70
     1
102
RTVSPost2010Prop42
 90
       50
102
RTVSPost2010PropOp42
 70
     1
102
RTVSPost2010Prop43
 90
        3
102
RTVSPost2010PropOp43
 70
     1
102
RTVSPost2010Prop44ColorIndex
 90
        5
102
RTVSPost2010Prop44ColorRGB
 90
      255
102
RTVSPost2010PropOp44
 70
     1
102
RTVSPost2010Prop45
280
     0
102
RTVSPost2010PropOp45
 70
     1
102
RTVSPost2010Prop46
 90
       50
102
RTVSPost2010PropOp46
 70
     1
102
RTVSPost2010Prop47
 90
       50
102
RTVSPost2010PropOp47
 70
     1
102
RTVSPost2010Prop48
 90
       50
102
RTVSPost2010PropOp48
 70
     1
102
RTVSPost2010Prop49
280
     0
102
RTVSPost2010PropOp49
 70
     1
102
RTVSPost2010Prop50
 90
       50
102
RTVSPost2010PropOp50
 70
     1
102
RTVSPost2010Prop51ColorIndex
 90
      256
102
RTVSPost2010Prop51ColorRGB
 90
-16777216
102
RTVSPost2010PropOp51
 70
     0
102
RTVSPost2010Prop52
140
1.0
102
RTVSPost2010PropOp52
 70
     0
102
RTVSPost2010Prop53
 90
        2
102
RTVSPost2010PropOp53
 70
     1
102
RTVSPost2010Prop54
  1
strokes_ogs.tif
102
RTVSPost2010PropOp54
 70
     1
102
RTVSPost2010Prop55
280
     0
102
RTVSPost2010PropOp55
 70
     1
102
RTVSPost2010Prop56
140
1.0
102
RTVSPost2010PropOp56
 70
     1
102
RTVSPost2010Prop57
140
1.0
102
RTVSPost2010PropOp57
 70
     1
102
RTVSPropertyOp0
 70
     1
102
RTVSPropertyOp1
 70
     1
102
RTVSPropertyOp2
 70
     1
102
RTVSPropertyOp3
 70
     1
102
RTVSPropertyOp4
 70
     1
102
RTVSPropertyOp5
 70
     1
102
RTVSPropertyOp6
 70
     1
102
RTVSPropertyOp7
 70
     1
102
RTVSPropertyOp8
 70
     1
102
RTVSPropertyOp9
 70
     1
102
RTVSPropertyOp10
 70
     1
102
RTVSPropertyOp11
 70
     1
102
RTVSPropertyOp12
 70
     1
102
RTVSPropertyOp13
 70
     1
102
RTVSPropertyOp14
 70
     1
102
RTVSPropertyOp15
 70
     1
102
RTVSPropertyOp16
 70
     1
102
RTVSPropertyOp17
 70
     1
102
RTVSPropertyOp18
 70
     1
102
RTVSPropertyOp19
 70
     1
102
RTVSPropertyOp20
 70
     1
102
RTVSPropertyOp21
 70
     1
102
RTVSPropertyOp22
 70
     1
102
RTVSPropertyOp23
 70
     1
102
RTVSPropertyOp24
 70
     1
102
RTVSPropertyOp25
 70
     1
102
RTVSPropertyOp26
 70
     1
102
RTVSPropertyOp27
 70
     1
102
RTVSPropertyOp28
 70
     1
102
RTVSPropertyOp29
 70
     1
102
RTVSPropertyOp30
 70
     1
102
RTVSPropertyOp31
 70
     1
102
RTVSPropertyOp32
 70
     1
102
RTVSPropertyOp33
 70
     1
102
RTVSPropertyOp34
 70
     1
102
RTVSPropertyOp35
 70
     1
102
RTVSPropertyOp36
 70
     1
102
RTVSPropertyOp37
 70
     1
102
RTVSPropertyOp38
 70
     1
102
RTVSPropertyOp39
 70
     1
102
RTVSPropertyOp40
 70
     1
102
RTVSPropertyOp41
 70
     1
102
RTVSPropertyOp42
 70
     1
102
RTVSPropertyOp43
 70
     1
102
RTVSPropertyOp44
 70
     1
102
RTVSPropertyOp45
 70
     1
102
RTVSPropertyOp46
 70
     1
102
RTVSPropertyOp47
 70
     1
102
RTVSPropertyOp48
 70
     1
102
RTVSPropertyOp49
 70
     1
102
RTVSPropertyOp50
 70
     1
102
RTVSPropertyOp51
 70
     0
102
RTVSPropertyOp52
 70
     0
102
RTVSPropertyOp53
 70
     1
102
RTVSPropertyOp54
 70
     1
102
RTVSPropertyOp55
 70
     1
102
RTVSPropertyOp56
 70
     1
102
RTVSPropertyOp57
 70
     1
102
RTVSPropertyOp58
 70
     1
102
RTVSPropertyOp59
 70
     1
102
RTVSPropertyOp60
 70
     1
102
RTVSPropertyOp61
 70
     1
102
RTVSPropertyOp62
 70
     1
  0
XRECORD
  5
CA56
102
{ACAD_REACTORS
330
CA55
102
}
330
CA55
100
AcDbXrecord
280
     1
102
RTVSPost2010Prop28
280
     0
102
RTVSPost2010PropOp28
 70
     1
102
RTVSPost2010Prop29
280
     1
102
RTVSPost2010PropOp29
 70
     1
102
RTVSPost2010Prop30
280
     1
102
RTVSPost2010PropOp30
 70
     1
102
RTVSPost2010Prop31
280
     0
102
RTVSPost2010PropOp31
 70
     1
102
RTVSPost2010Prop32
280
     0
102
RTVSPost2010PropOp32
 70
     1
102
RTVSPost2010Prop33
280
     0
102
RTVSPost2010PropOp33
 70
     1
102
RTVSPost2010Prop34
280
     0
102
RTVSPost2010PropOp34
 70
     1
102
RTVSPost2010Prop35
280
     0
102
RTVSPost2010PropOp35
 70
     1
102
RTVSPost2010Prop36
280
     0
102
RTVSPost2010PropOp36
 70
     1
102
RTVSPost2010Prop37
 90
       50
102
RTVSPost2010PropOp37
 70
     1
102
RTVSPost2010Prop38
140
0.0
102
RTVSPost2010PropOp38
 70
     1
102
RTVSPost2010Prop39
140
1.0
102
RTVSPost2010PropOp39
 70
     1
102
RTVSPost2010Prop40
 90
        0
102
RTVSPost2010PropOp40
 70
     1
102
RTVSPost2010Prop41ColorIndex
 90
       18
102
RTVSPost2010Prop41ColorRGB
 90
        0
102
RTVSPost2010PropOp41
 70
     1
102
RTVSPost2010Prop42
 90
       50
102
RTVSPost2010PropOp42
 70
     1
102
RTVSPost2010Prop43
 90
        3
102
RTVSPost2010PropOp43
 70
     1
102
RTVSPost2010Prop44ColorIndex
 90
        5
102
RTVSPost2010Prop44ColorRGB
 90
      255
102
RTVSPost2010PropOp44
 70
     1
102
RTVSPost2010Prop45
280
     0
102
RTVSPost2010PropOp45
 70
     1
102
RTVSPost2010Prop46
 90
       50
102
RTVSPost2010PropOp46
 70
     1
102
RTVSPost2010Prop47
 90
       50
102
RTVSPost2010PropOp47
 70
     1
102
RTVSPost2010Prop48
 90
       50
102
RTVSPost2010PropOp48
 70
     1
102
RTVSPost2010Prop49
280
     0
102
RTVSPost2010PropOp49
 70
     1
102
RTVSPost2010Prop50
 90
       50
102
RTVSPost2010PropOp50
 70
     1
102
RTVSPost2010Prop51ColorIndex
 90
      256
102
RTVSPost2010Prop51ColorRGB
 90
-16777216
102
RTVSPost2010PropOp51
 70
     0
102
RTVSPost2010Prop52
140
1.0
102
RTVSPost2010PropOp52
 70
     0
102
RTVSPost2010Prop53
 90
        2
102
RTVSPost2010PropOp53
 70
     1
102
RTVSPost2010Prop54
  1
strokes_ogs.tif
102
RTVSPost2010PropOp54
 70
     1
102
RTVSPost2010Prop55
280
     0
102
RTVSPost2010PropOp55
 70
     1
102
RTVSPost2010Prop56
140
1.0
102
RTVSPost2010PropOp56
 70
     1
102
RTVSPost2010Prop57
140
1.0
102
RTVSPost2010PropOp57
 70
     1
102
RTVSPropertyOp0
 70
     1
102
RTVSPropertyOp1
 70
     1
102
RTVSPropertyOp2
 70
     1
102
RTVSPropertyOp3
 70
     1
102
RTVSPropertyOp4
 70
     1
102
RTVSPropertyOp5
 70
     1
102
RTVSPropertyOp6
 70
     1
102
RTVSPropertyOp7
 70
     1
102
RTVSPropertyOp8
 70
     1
102
RTVSPropertyOp9
 70
     1
102
RTVSPropertyOp10
 70
     1
102
RTVSPropertyOp11
 70
     1
102
RTVSPropertyOp12
 70
     1
102
RTVSPropertyOp13
 70
     1
102
RTVSPropertyOp14
 70
     1
102
RTVSPropertyOp15
 70
     1
102
RTVSPropertyOp16
 70
     1
102
RTVSPropertyOp17
 70
     1
102
RTVSPropertyOp18
 70
     1
102
RTVSPropertyOp19
 70
     1
102
RTVSPropertyOp20
 70
     1
102
RTVSPropertyOp21
 70
     1
102
RTVSPropertyOp22
 70
     1
102
RTVSPropertyOp23
 70
     1
102
RTVSPropertyOp24
 70
     1
102
RTVSPropertyOp25
 70
     1
102
RTVSPropertyOp26
 70
     1
102
RTVSPropertyOp27
 70
     1
102
RTVSPropertyOp28
 70
     1
102
RTVSPropertyOp29
 70
     1
102
RTVSPropertyOp30
 70
     1
102
RTVSPropertyOp31
 70
     1
102
RTVSPropertyOp32
 70
     1
102
RTVSPropertyOp33
 70
     1
102
RTVSPropertyOp34
 70
     1
102
RTVSPropertyOp35
 70
     1
102
RTVSPropertyOp36
 70
     1
102
RTVSPropertyOp37
 70
     1
102
RTVSPropertyOp38
 70
     1
102
RTVSPropertyOp39
 70
     1
102
RTVSPropertyOp40
 70
     1
102
RTVSPropertyOp41
 70
     1
102
RTVSPropertyOp42
 70
     1
102
RTVSPropertyOp43
 70
     1
102
RTVSPropertyOp44
 70
     1
102
RTVSPropertyOp45
 70
     1
102
RTVSPropertyOp46
 70
     1
102
RTVSPropertyOp47
 70
     1
102
RTVSPropertyOp48
 70
     1
102
RTVSPropertyOp49
 70
     1
102
RTVSPropertyOp50
 70
     1
102
RTVSPropertyOp51
 70
     0
102
RTVSPropertyOp52
 70
     0
102
RTVSPropertyOp53
 70
     1
102
RTVSPropertyOp54
 70
     1
102
RTVSPropertyOp55
 70
     1
102
RTVSPropertyOp56
 70
     1
102
RTVSPropertyOp57
 70
     1
102
RTVSPropertyOp58
 70
     1
102
RTVSPropertyOp59
 70
     1
102
RTVSPropertyOp60
 70
     1
102
RTVSPropertyOp61
 70
     1
102
RTVSPropertyOp62
 70
     1
  0
XRECORD
  5
CA70
102
{ACAD_REACTORS
330
CA6F
102
}
330
CA6F
100
AcDbXrecord
280
     1
102
RTVSPost2010Prop28
280
     0
102
RTVSPost2010PropOp28
 70
     1
102
RTVSPost2010Prop29
280
     1
102
RTVSPost2010PropOp29
 70
     1
102
RTVSPost2010Prop30
280
     1
102
RTVSPost2010PropOp30
 70
     1
102
RTVSPost2010Prop31
280
     0
102
RTVSPost2010PropOp31
 70
     1
102
RTVSPost2010Prop32
280
     0
102
RTVSPost2010PropOp32
 70
     1
102
RTVSPost2010Prop33
280
     0
102
RTVSPost2010PropOp33
 70
     1
102
RTVSPost2010Prop34
280
     0
102
RTVSPost2010PropOp34
 70
     1
102
RTVSPost2010Prop35
280
     0
102
RTVSPost2010PropOp35
 70
     1
102
RTVSPost2010Prop36
280
     0
102
RTVSPost2010PropOp36
 70
     1
102
RTVSPost2010Prop37
 90
       50
102
RTVSPost2010PropOp37
 70
     0
102
RTVSPost2010Prop38
140
0.0
102
RTVSPost2010PropOp38
 70
     0
102
RTVSPost2010Prop39
140
1.0
102
RTVSPost2010PropOp39
 70
     0
102
RTVSPost2010Prop40
 90
        0
102
RTVSPost2010PropOp40
 70
     0
102
RTVSPost2010Prop41ColorIndex
 90
       18
102
RTVSPost2010Prop41ColorRGB
 90
        0
102
RTVSPost2010PropOp41
 70
     0
102
RTVSPost2010Prop42
 90
       50
102
RTVSPost2010PropOp42
 70
     0
102
RTVSPost2010Prop43
 90
        3
102
RTVSPost2010PropOp43
 70
     0
102
RTVSPost2010Prop44ColorIndex
 90
        5
102
RTVSPost2010Prop44ColorRGB
 90
      255
102
RTVSPost2010PropOp44
 70
     0
102
RTVSPost2010Prop45
280
     0
102
RTVSPost2010PropOp45
 70
     1
102
RTVSPost2010Prop46
 90
       50
102
RTVSPost2010PropOp46
 70
     0
102
RTVSPost2010Prop47
 90
       50
102
RTVSPost2010PropOp47
 70
     0
102
RTVSPost2010Prop48
 90
       50
102
RTVSPost2010PropOp48
 70
     0
102
RTVSPost2010Prop49
280
     0
102
RTVSPost2010PropOp49
 70
     1
102
RTVSPost2010Prop50
 90
       50
102
RTVSPost2010PropOp50
 70
     0
102
RTVSPost2010Prop51ColorIndex
 90
      256
102
RTVSPost2010Prop51ColorRGB
 90
-16777216
102
RTVSPost2010PropOp51
 70
     0
102
RTVSPost2010Prop52
140
1.0
102
RTVSPost2010PropOp52
 70
     0
102
RTVSPost2010Prop53
 90
        2
102
RTVSPost2010PropOp53
 70
     0
102
RTVSPost2010Prop54
  1
strokes_ogs.tif
102
RTVSPost2010PropOp54
 70
     0
102
RTVSPost2010Prop55
280
     0
102
RTVSPost2010PropOp55
 70
     1
102
RTVSPost2010Prop56
140
1.0
102
RTVSPost2010PropOp56
 70
     0
102
RTVSPost2010Prop57
140
1.0
102
RTVSPost2010PropOp57
 70
     0
102
RTVSPropertyOp0
 70
     0
102
RTVSPropertyOp1
 70
     0
102
RTVSPropertyOp2
 70
     0
102
RTVSPropertyOp3
 70
     0
102
RTVSPropertyOp4
 70
     0
102
RTVSPropertyOp5
 70
     0
102
RTVSPropertyOp6
 70
     0
102
RTVSPropertyOp7
 70
     0
102
RTVSPropertyOp8
 70
     0
102
RTVSPropertyOp9
 70
     0
102
RTVSPropertyOp10
 70
     0
102
RTVSPropertyOp11
 70
     0
102
RTVSPropertyOp12
 70
     0
102
RTVSPropertyOp13
 70
     0
102
RTVSPropertyOp14
 70
     2
102
RTVSPropertyOp15
 70
     0
102
RTVSPropertyOp16
 70
     0
102
RTVSPropertyOp17
 70
     0
102
RTVSPropertyOp18
 70
     0
102
RTVSPropertyOp19
 70
     0
102
RTVSPropertyOp20
 70
     0
102
RTVSPropertyOp21
 70
     0
102
RTVSPropertyOp22
 70
     0
102
RTVSPropertyOp23
 70
     0
102
RTVSPropertyOp24
 70
     0
102
RTVSPropertyOp25
 70
     0
102
RTVSPropertyOp26
 70
     0
102
RTVSPropertyOp27
 70
     0
102
RTVSPropertyOp28
 70
     1
102
RTVSPropertyOp29
 70
     1
102
RTVSPropertyOp30
 70
     1
102
RTVSPropertyOp31
 70
     1
102
RTVSPropertyOp32
 70
     1
102
RTVSPropertyOp33
 70
     1
102
RTVSPropertyOp34
 70
     1
102
RTVSPropertyOp35
 70
     1
102
RTVSPropertyOp36
 70
     1
102
RTVSPropertyOp37
 70
     0
102
RTVSPropertyOp38
 70
     0
102
RTVSPropertyOp39
 70
     0
102
RTVSPropertyOp40
 70
     0
102
RTVSPropertyOp41
 70
     0
102
RTVSPropertyOp42
 70
     0
102
RTVSPropertyOp43
 70
     0
102
RTVSPropertyOp44
 70
     0
102
RTVSPropertyOp45
 70
     1
102
RTVSPropertyOp46
 70
     0
102
RTVSPropertyOp47
 70
     0
102
RTVSPropertyOp48
 70
     0
102
RTVSPropertyOp49
 70
     1
102
RTVSPropertyOp50
 70
     0
102
RTVSPropertyOp51
 70
     0
102
RTVSPropertyOp52
 70
     0
102
RTVSPropertyOp53
 70
     0
102
RTVSPropertyOp54
 70
     0
102
RTVSPropertyOp55
 70
     1
102
RTVSPropertyOp56
 70
     0
102
RTVSPropertyOp57
 70
     0
102
RTVSPropertyOp58
 70
     0
102
RTVSPropertyOp59
 70
     0
102
RTVSPropertyOp60
 70
     0
102
RTVSPropertyOp61
 70
     0
102
RTVSPropertyOp62
 70
     0
  0
XRECORD
  5
CA5E
102
{ACAD_REACTORS
330
CA5D
102
}
330
CA5D
100
AcDbXrecord
280
     1
102
RTVSPost2010Prop28
280
     0
102
RTVSPost2010PropOp28
 70
     1
102
RTVSPost2010Prop29
280
     1
102
RTVSPost2010PropOp29
 70
     1
102
RTVSPost2010Prop30
280
     1
102
RTVSPost2010PropOp30
 70
     1
102
RTVSPost2010Prop31
280
     0
102
RTVSPost2010PropOp31
 70
     1
102
RTVSPost2010Prop32
280
     0
102
RTVSPost2010PropOp32
 70
     1
102
RTVSPost2010Prop33
280
     0
102
RTVSPost2010PropOp33
 70
     1
102
RTVSPost2010Prop34
280
     0
102
RTVSPost2010PropOp34
 70
     1
102
RTVSPost2010Prop35
280
     0
102
RTVSPost2010PropOp35
 70
     1
102
RTVSPost2010Prop36
280
     0
102
RTVSPost2010PropOp36
 70
     1
102
RTVSPost2010Prop37
 90
       50
102
RTVSPost2010PropOp37
 70
     1
102
RTVSPost2010Prop38
140
0.0
102
RTVSPost2010PropOp38
 70
     1
102
RTVSPost2010Prop39
140
1.0
102
RTVSPost2010PropOp39
 70
     1
102
RTVSPost2010Prop40
 90
        0
102
RTVSPost2010PropOp40
 70
     1
102
RTVSPost2010Prop41ColorIndex
 90
       18
102
RTVSPost2010Prop41ColorRGB
 90
        0
102
RTVSPost2010PropOp41
 70
     1
102
RTVSPost2010Prop42
 90
       50
102
RTVSPost2010PropOp42
 70
     1
102
RTVSPost2010Prop43
 90
        3
102
RTVSPost2010PropOp43
 70
     1
102
RTVSPost2010Prop44ColorIndex
 90
        5
102
RTVSPost2010Prop44ColorRGB
 90
      255
102
RTVSPost2010PropOp44
 70
     1
102
RTVSPost2010Prop45
280
     0
102
RTVSPost2010PropOp45
 70
     1
102
RTVSPost2010Prop46
 90
       50
102
RTVSPost2010PropOp46
 70
     1
102
RTVSPost2010Prop47
 90
       50
102
RTVSPost2010PropOp47
 70
     1
102
RTVSPost2010Prop48
 90
       50
102
RTVSPost2010PropOp48
 70
     1
102
RTVSPost2010Prop49
280
     0
102
RTVSPost2010PropOp49
 70
     1
102
RTVSPost2010Prop50
 90
       50
102
RTVSPost2010PropOp50
 70
     1
102
RTVSPost2010Prop51ColorIndex
 90
      256
102
RTVSPost2010Prop51ColorRGB
 90
-16777216
102
RTVSPost2010PropOp51
 70
     0
102
RTVSPost2010Prop52
140
1.0
102
RTVSPost2010PropOp52
 70
     0
102
RTVSPost2010Prop53
 90
        2
102
RTVSPost2010PropOp53
 70
     1
102
RTVSPost2010Prop54
  1
strokes_ogs.tif
102
RTVSPost2010PropOp54
 70
     1
102
RTVSPost2010Prop55
280
     0
102
RTVSPost2010PropOp55
 70
     1
102
RTVSPost2010Prop56
140
1.0
102
RTVSPost2010PropOp56
 70
     1
102
RTVSPost2010Prop57
140
1.0
102
RTVSPost2010PropOp57
 70
     1
102
RTVSPropertyOp0
 70
     1
102
RTVSPropertyOp1
 70
     1
102
RTVSPropertyOp2
 70
     1
102
RTVSPropertyOp3
 70
     1
102
RTVSPropertyOp4
 70
     1
102
RTVSPropertyOp5
 70
     1
102
RTVSPropertyOp6
 70
     1
102
RTVSPropertyOp7
 70
     1
102
RTVSPropertyOp8
 70
     1
102
RTVSPropertyOp9
 70
     1
102
RTVSPropertyOp10
 70
     1
102
RTVSPropertyOp11
 70
     1
102
RTVSPropertyOp12
 70
     1
102
RTVSPropertyOp13
 70
     1
102
RTVSPropertyOp14
 70
     1
102
RTVSPropertyOp15
 70
     1
102
RTVSPropertyOp16
 70
     1
102
RTVSPropertyOp17
 70
     1
102
RTVSPropertyOp18
 70
     1
102
RTVSPropertyOp19
 70
     1
102
RTVSPropertyOp20
 70
     1
102
RTVSPropertyOp21
 70
     1
102
RTVSPropertyOp22
 70
     1
102
RTVSPropertyOp23
 70
     1
102
RTVSPropertyOp24
 70
     1
102
RTVSPropertyOp25
 70
     1
102
RTVSPropertyOp26
 70
     1
102
RTVSPropertyOp27
 70
     1
102
RTVSPropertyOp28
 70
     1
102
RTVSPropertyOp29
 70
     1
102
RTVSPropertyOp30
 70
     1
102
RTVSPropertyOp31
 70
     1
102
RTVSPropertyOp32
 70
     1
102
RTVSPropertyOp33
 70
     1
102
RTVSPropertyOp34
 70
     1
102
RTVSPropertyOp35
 70
     1
102
RTVSPropertyOp36
 70
     1
102
RTVSPropertyOp37
 70
     1
102
RTVSPropertyOp38
 70
     1
102
RTVSPropertyOp39
 70
     1
102
RTVSPropertyOp40
 70
     1
102
RTVSPropertyOp41
 70
     1
102
RTVSPropertyOp42
 70
     1
102
RTVSPropertyOp43
 70
     1
102
RTVSPropertyOp44
 70
     1
102
RTVSPropertyOp45
 70
     1
102
RTVSPropertyOp46
 70
     1
102
RTVSPropertyOp47
 70
     1
102
RTVSPropertyOp48
 70
     1
102
RTVSPropertyOp49
 70
     1
102
RTVSPropertyOp50
 70
     1
102
RTVSPropertyOp51
 70
     0
102
RTVSPropertyOp52
 70
     0
102
RTVSPropertyOp53
 70
     1
102
RTVSPropertyOp54
 70
     1
102
RTVSPropertyOp55
 70
     1
102
RTVSPropertyOp56
 70
     1
102
RTVSPropertyOp57
 70
     1
102
RTVSPropertyOp58
 70
     1
102
RTVSPropertyOp59
 70
     1
102
RTVSPropertyOp60
 70
     1
102
RTVSPropertyOp61
 70
     1
102
RTVSPropertyOp62
 70
     1
  0
XRECORD
  5
CA42
102
{ACAD_REACTORS
330
CA41
102
}
330
CA41
100
AcDbXrecord
280
     1
102
RTVSPost2010Prop28
280
     0
102
RTVSPost2010PropOp28
 70
     1
102
RTVSPost2010Prop29
280
     1
102
RTVSPost2010PropOp29
 70
     1
102
RTVSPost2010Prop30
280
     1
102
RTVSPost2010PropOp30
 70
     1
102
RTVSPost2010Prop31
280
     0
102
RTVSPost2010PropOp31
 70
     1
102
RTVSPost2010Prop32
280
     0
102
RTVSPost2010PropOp32
 70
     1
102
RTVSPost2010Prop33
280
     0
102
RTVSPost2010PropOp33
 70
     1
102
RTVSPost2010Prop34
280
     0
102
RTVSPost2010PropOp34
 70
     1
102
RTVSPost2010Prop35
280
     0
102
RTVSPost2010PropOp35
 70
     1
102
RTVSPost2010Prop36
280
     0
102
RTVSPost2010PropOp36
 70
     1
102
RTVSPost2010Prop37
 90
       50
102
RTVSPost2010PropOp37
 70
     1
102
RTVSPost2010Prop38
140
0.0
102
RTVSPost2010PropOp38
 70
     1
102
RTVSPost2010Prop39
140
1.0
102
RTVSPost2010PropOp39
 70
     1
102
RTVSPost2010Prop40
 90
        0
102
RTVSPost2010PropOp40
 70
     1
102
RTVSPost2010Prop41ColorIndex
 90
       18
102
RTVSPost2010Prop41ColorRGB
 90
        0
102
RTVSPost2010PropOp41
 70
     1
102
RTVSPost2010Prop42
 90
       50
102
RTVSPost2010PropOp42
 70
     1
102
RTVSPost2010Prop43
 90
        3
102
RTVSPost2010PropOp43
 70
     1
102
RTVSPost2010Prop44ColorIndex
 90
        5
102
RTVSPost2010Prop44ColorRGB
 90
      255
102
RTVSPost2010PropOp44
 70
     1
102
RTVSPost2010Prop45
280
     0
102
RTVSPost2010PropOp45
 70
     1
102
RTVSPost2010Prop46
 90
       50
102
RTVSPost2010PropOp46
 70
     1
102
RTVSPost2010Prop47
 90
       50
102
RTVSPost2010PropOp47
 70
     1
102
RTVSPost2010Prop48
 90
       50
102
RTVSPost2010PropOp48
 70
     1
102
RTVSPost2010Prop49
280
     0
102
RTVSPost2010PropOp49
 70
     1
102
RTVSPost2010Prop50
 90
       50
102
RTVSPost2010PropOp50
 70
     1
102
RTVSPost2010Prop51ColorIndex
 90
      256
102
RTVSPost2010Prop51ColorRGB
 90
-16777216
102
RTVSPost2010PropOp51
 70
     0
102
RTVSPost2010Prop52
140
1.0
102
RTVSPost2010PropOp52
 70
     0
102
RTVSPost2010Prop53
 90
        2
102
RTVSPost2010PropOp53
 70
     1
102
RTVSPost2010Prop54
  1
strokes_ogs.tif
102
RTVSPost2010PropOp54
 70
     1
102
RTVSPost2010Prop55
280
     0
102
RTVSPost2010PropOp55
 70
     1
102
RTVSPost2010Prop56
140
1.0
102
RTVSPost2010PropOp56
 70
     1
102
RTVSPost2010Prop57
140
1.0
102
RTVSPost2010PropOp57
 70
     1
102
RTVSPropertyOp0
 70
     1
102
RTVSPropertyOp1
 70
     1
102
RTVSPropertyOp2
 70
     1
102
RTVSPropertyOp3
 70
     1
102
RTVSPropertyOp4
 70
     1
102
RTVSPropertyOp5
 70
     1
102
RTVSPropertyOp6
 70
     1
102
RTVSPropertyOp7
 70
     1
102
RTVSPropertyOp8
 70
     1
102
RTVSPropertyOp9
 70
     1
102
RTVSPropertyOp10
 70
     1
102
RTVSPropertyOp11
 70
     1
102
RTVSPropertyOp12
 70
     1
102
RTVSPropertyOp13
 70
     1
102
RTVSPropertyOp14
 70
     1
102
RTVSPropertyOp15
 70
     1
102
RTVSPropertyOp16
 70
     1
102
RTVSPropertyOp17
 70
     1
102
RTVSPropertyOp18
 70
     1
102
RTVSPropertyOp19
 70
     1
102
RTVSPropertyOp20
 70
     1
102
RTVSPropertyOp21
 70
     1
102
RTVSPropertyOp22
 70
     1
102
RTVSPropertyOp23
 70
     1
102
RTVSPropertyOp24
 70
     1
102
RTVSPropertyOp25
 70
     1
102
RTVSPropertyOp26
 70
     1
102
RTVSPropertyOp27
 70
     1
102
RTVSPropertyOp28
 70
     1
102
RTVSPropertyOp29
 70
     1
102
RTVSPropertyOp30
 70
     1
102
RTVSPropertyOp31
 70
     1
102
RTVSPropertyOp32
 70
     1
102
RTVSPropertyOp33
 70
     1
102
RTVSPropertyOp34
 70
     1
102
RTVSPropertyOp35
 70
     1
102
RTVSPropertyOp36
 70
     1
102
RTVSPropertyOp37
 70
     1
102
RTVSPropertyOp38
 70
     1
102
RTVSPropertyOp39
 70
     1
102
RTVSPropertyOp40
 70
     1
102
RTVSPropertyOp41
 70
     1
102
RTVSPropertyOp42
 70
     1
102
RTVSPropertyOp43
 70
     1
102
RTVSPropertyOp44
 70
     1
102
RTVSPropertyOp45
 70
     1
102
RTVSPropertyOp46
 70
     1
102
RTVSPropertyOp47
 70
     1
102
RTVSPropertyOp48
 70
     1
102
RTVSPropertyOp49
 70
     1
102
RTVSPropertyOp50
 70
     1
102
RTVSPropertyOp51
 70
     0
102
RTVSPropertyOp52
 70
     0
102
RTVSPropertyOp53
 70
     1
102
RTVSPropertyOp54
 70
     1
102
RTVSPropertyOp55
 70
     1
102
RTVSPropertyOp56
 70
     1
102
RTVSPropertyOp57
 70
     1
102
RTVSPropertyOp58
 70
     1
102
RTVSPropertyOp59
 70
     1
102
RTVSPropertyOp60
 70
     1
102
RTVSPropertyOp61
 70
     1
102
RTVSPropertyOp62
 70
     1
  0
XRECORD
  5
CA44
102
{ACAD_REACTORS
330
CA43
102
}
330
CA43
100
AcDbXrecord
280
     1
102
RTVSPost2010Prop28
280
     0
102
RTVSPost2010PropOp28
 70
     1
102
RTVSPost2010Prop29
280
     1
102
RTVSPost2010PropOp29
 70
     1
102
RTVSPost2010Prop30
280
     1
102
RTVSPost2010PropOp30
 70
     1
102
RTVSPost2010Prop31
280
     0
102
RTVSPost2010PropOp31
 70
     1
102
RTVSPost2010Prop32
280
     0
102
RTVSPost2010PropOp32
 70
     1
102
RTVSPost2010Prop33
280
     0
102
RTVSPost2010PropOp33
 70
     1
102
RTVSPost2010Prop34
280
     0
102
RTVSPost2010PropOp34
 70
     1
102
RTVSPost2010Prop35
280
     0
102
RTVSPost2010PropOp35
 70
     1
102
RTVSPost2010Prop36
280
     0
102
RTVSPost2010PropOp36
 70
     1
102
RTVSPost2010Prop37
 90
       50
102
RTVSPost2010PropOp37
 70
     1
102
RTVSPost2010Prop38
140
0.0
102
RTVSPost2010PropOp38
 70
     1
102
RTVSPost2010Prop39
140
1.0
102
RTVSPost2010PropOp39
 70
     1
102
RTVSPost2010Prop40
 90
        0
102
RTVSPost2010PropOp40
 70
     1
102
RTVSPost2010Prop41ColorIndex
 90
       18
102
RTVSPost2010Prop41ColorRGB
 90
        0
102
RTVSPost2010PropOp41
 70
     1
102
RTVSPost2010Prop42
 90
       50
102
RTVSPost2010PropOp42
 70
     1
102
RTVSPost2010Prop43
 90
        3
102
RTVSPost2010PropOp43
 70
     1
102
RTVSPost2010Prop44ColorIndex
 90
        5
102
RTVSPost2010Prop44ColorRGB
 90
      255
102
RTVSPost2010PropOp44
 70
     1
102
RTVSPost2010Prop45
280
     0
102
RTVSPost2010PropOp45
 70
     1
102
RTVSPost2010Prop46
 90
       50
102
RTVSPost2010PropOp46
 70
     1
102
RTVSPost2010Prop47
 90
       50
102
RTVSPost2010PropOp47
 70
     1
102
RTVSPost2010Prop48
 90
       50
102
RTVSPost2010PropOp48
 70
     1
102
RTVSPost2010Prop49
280
     0
102
RTVSPost2010PropOp49
 70
     1
102
RTVSPost2010Prop50
 90
       50
102
RTVSPost2010PropOp50
 70
     1
102
RTVSPost2010Prop51ColorIndex
 90
      256
102
RTVSPost2010Prop51ColorRGB
 90
-16777216
102
RTVSPost2010PropOp51
 70
     0
102
RTVSPost2010Prop52
140
1.0
102
RTVSPost2010PropOp52
 70
     0
102
RTVSPost2010Prop53
 90
        2
102
RTVSPost2010PropOp53
 70
     1
102
RTVSPost2010Prop54
  1
strokes_ogs.tif
102
RTVSPost2010PropOp54
 70
     1
102
RTVSPost2010Prop55
280
     0
102
RTVSPost2010PropOp55
 70
     1
102
RTVSPost2010Prop56
140
1.0
102
RTVSPost2010PropOp56
 70
     1
102
RTVSPost2010Prop57
140
1.0
102
RTVSPost2010PropOp57
 70
     1
102
RTVSPropertyOp0
 70
     1
102
RTVSPropertyOp1
 70
     1
102
RTVSPropertyOp2
 70
     1
102
RTVSPropertyOp3
 70
     1
102
RTVSPropertyOp4
 70
     1
102
RTVSPropertyOp5
 70
     1
102
RTVSPropertyOp6
 70
     1
102
RTVSPropertyOp7
 70
     1
102
RTVSPropertyOp8
 70
     1
102
RTVSPropertyOp9
 70
     1
102
RTVSPropertyOp10
 70
     1
102
RTVSPropertyOp11
 70
     1
102
RTVSPropertyOp12
 70
     1
102
RTVSPropertyOp13
 70
     1
102
RTVSPropertyOp14
 70
     1
102
RTVSPropertyOp15
 70
     1
102
RTVSPropertyOp16
 70
     1
102
RTVSPropertyOp17
 70
     1
102
RTVSPropertyOp18
 70
     1
102
RTVSPropertyOp19
 70
     1
102
RTVSPropertyOp20
 70
     1
102
RTVSPropertyOp21
 70
     1
102
RTVSPropertyOp22
 70
     1
102
RTVSPropertyOp23
 70
     1
102
RTVSPropertyOp24
 70
     1
102
RTVSPropertyOp25
 70
     1
102
RTVSPropertyOp26
 70
     1
102
RTVSPropertyOp27
 70
     1
102
RTVSPropertyOp28
 70
     1
102
RTVSPropertyOp29
 70
     1
102
RTVSPropertyOp30
 70
     1
102
RTVSPropertyOp31
 70
     1
102
RTVSPropertyOp32
 70
     1
102
RTVSPropertyOp33
 70
     1
102
RTVSPropertyOp34
 70
     1
102
RTVSPropertyOp35
 70
     1
102
RTVSPropertyOp36
 70
     1
102
RTVSPropertyOp37
 70
     1
102
RTVSPropertyOp38
 70
     1
102
RTVSPropertyOp39
 70
     1
102
RTVSPropertyOp40
 70
     1
102
RTVSPropertyOp41
 70
     1
102
RTVSPropertyOp42
 70
     1
102
RTVSPropertyOp43
 70
     1
102
RTVSPropertyOp44
 70
     1
102
RTVSPropertyOp45
 70
     1
102
RTVSPropertyOp46
 70
     1
102
RTVSPropertyOp47
 70
     1
102
RTVSPropertyOp48
 70
     1
102
RTVSPropertyOp49
 70
     1
102
RTVSPropertyOp50
 70
     1
102
RTVSPropertyOp51
 70
     0
102
RTVSPropertyOp52
 70
     0
102
RTVSPropertyOp53
 70
     1
102
RTVSPropertyOp54
 70
     1
102
RTVSPropertyOp55
 70
     1
102
RTVSPropertyOp56
 70
     1
102
RTVSPropertyOp57
 70
     1
102
RTVSPropertyOp58
 70
     1
102
RTVSPropertyOp59
 70
     1
102
RTVSPropertyOp60
 70
     1
102
RTVSPropertyOp61
 70
     1
102
RTVSPropertyOp62
 70
     1
  0
XRECORD
  5
CA46
102
{ACAD_REACTORS
330
CA45
102
}
330
CA45
100
AcDbXrecord
280
     1
102
RTVSPost2010Prop28
280
     0
102
RTVSPost2010PropOp28
 70
     1
102
RTVSPost2010Prop29
280
     1
102
RTVSPost2010PropOp29
 70
     1
102
RTVSPost2010Prop30
280
     1
102
RTVSPost2010PropOp30
 70
     1
102
RTVSPost2010Prop31
280
     0
102
RTVSPost2010PropOp31
 70
     1
102
RTVSPost2010Prop32
280
     0
102
RTVSPost2010PropOp32
 70
     1
102
RTVSPost2010Prop33
280
     0
102
RTVSPost2010PropOp33
 70
     1
102
RTVSPost2010Prop34
280
     0
102
RTVSPost2010PropOp34
 70
     1
102
RTVSPost2010Prop35
280
     0
102
RTVSPost2010PropOp35
 70
     1
102
RTVSPost2010Prop36
280
     0
102
RTVSPost2010PropOp36
 70
     1
102
RTVSPost2010Prop37
 90
       50
102
RTVSPost2010PropOp37
 70
     1
102
RTVSPost2010Prop38
140
0.0
102
RTVSPost2010PropOp38
 70
     1
102
RTVSPost2010Prop39
140
1.0
102
RTVSPost2010PropOp39
 70
     1
102
RTVSPost2010Prop40
 90
        0
102
RTVSPost2010PropOp40
 70
     1
102
RTVSPost2010Prop41ColorIndex
 90
       18
102
RTVSPost2010Prop41ColorRGB
 90
        0
102
RTVSPost2010PropOp41
 70
     1
102
RTVSPost2010Prop42
 90
       50
102
RTVSPost2010PropOp42
 70
     1
102
RTVSPost2010Prop43
 90
        3
102
RTVSPost2010PropOp43
 70
     1
102
RTVSPost2010Prop44ColorIndex
 90
        5
102
RTVSPost2010Prop44ColorRGB
 90
      255
102
RTVSPost2010PropOp44
 70
     1
102
RTVSPost2010Prop45
280
     0
102
RTVSPost2010PropOp45
 70
     1
102
RTVSPost2010Prop46
 90
       50
102
RTVSPost2010PropOp46
 70
     1
102
RTVSPost2010Prop47
 90
       50
102
RTVSPost2010PropOp47
 70
     1
102
RTVSPost2010Prop48
 90
       50
102
RTVSPost2010PropOp48
 70
     1
102
RTVSPost2010Prop49
280
     0
102
RTVSPost2010PropOp49
 70
     1
102
RTVSPost2010Prop50
 90
       50
102
RTVSPost2010PropOp50
 70
     1
102
RTVSPost2010Prop51ColorIndex
 90
      256
102
RTVSPost2010Prop51ColorRGB
 90
-16777216
102
RTVSPost2010PropOp51
 70
     0
102
RTVSPost2010Prop52
140
1.0
102
RTVSPost2010PropOp52
 70
     0
102
RTVSPost2010Prop53
 90
        2
102
RTVSPost2010PropOp53
 70
     1
102
RTVSPost2010Prop54
  1
strokes_ogs.tif
102
RTVSPost2010PropOp54
 70
     1
102
RTVSPost2010Prop55
280
     0
102
RTVSPost2010PropOp55
 70
     1
102
RTVSPost2010Prop56
140
1.0
102
RTVSPost2010PropOp56
 70
     1
102
RTVSPost2010Prop57
140
1.0
102
RTVSPost2010PropOp57
 70
     1
102
RTVSPropertyOp0
 70
     1
102
RTVSPropertyOp1
 70
     1
102
RTVSPropertyOp2
 70
     1
102
RTVSPropertyOp3
 70
     1
102
RTVSPropertyOp4
 70
     1
102
RTVSPropertyOp5
 70
     1
102
RTVSPropertyOp6
 70
     1
102
RTVSPropertyOp7
 70
     1
102
RTVSPropertyOp8
 70
     1
102
RTVSPropertyOp9
 70
     1
102
RTVSPropertyOp10
 70
     1
102
RTVSPropertyOp11
 70
     1
102
RTVSPropertyOp12
 70
     1
102
RTVSPropertyOp13
 70
     1
102
RTVSPropertyOp14
 70
     1
102
RTVSPropertyOp15
 70
     1
102
RTVSPropertyOp16
 70
     1
102
RTVSPropertyOp17
 70
     1
102
RTVSPropertyOp18
 70
     1
102
RTVSPropertyOp19
 70
     1
102
RTVSPropertyOp20
 70
     1
102
RTVSPropertyOp21
 70
     1
102
RTVSPropertyOp22
 70
     1
102
RTVSPropertyOp23
 70
     1
102
RTVSPropertyOp24
 70
     1
102
RTVSPropertyOp25
 70
     1
102
RTVSPropertyOp26
 70
     1
102
RTVSPropertyOp27
 70
     1
102
RTVSPropertyOp28
 70
     1
102
RTVSPropertyOp29
 70
     1
102
RTVSPropertyOp30
 70
     1
102
RTVSPropertyOp31
 70
     1
102
RTVSPropertyOp32
 70
     1
102
RTVSPropertyOp33
 70
     1
102
RTVSPropertyOp34
 70
     1
102
RTVSPropertyOp35
 70
     1
102
RTVSPropertyOp36
 70
     1
102
RTVSPropertyOp37
 70
     1
102
RTVSPropertyOp38
 70
     1
102
RTVSPropertyOp39
 70
     1
102
RTVSPropertyOp40
 70
     1
102
RTVSPropertyOp41
 70
     1
102
RTVSPropertyOp42
 70
     1
102
RTVSPropertyOp43
 70
     1
102
RTVSPropertyOp44
 70
     1
102
RTVSPropertyOp45
 70
     1
102
RTVSPropertyOp46
 70
     1
102
RTVSPropertyOp47
 70
     1
102
RTVSPropertyOp48
 70
     1
102
RTVSPropertyOp49
 70
     1
102
RTVSPropertyOp50
 70
     1
102
RTVSPropertyOp51
 70
     0
102
RTVSPropertyOp52
 70
     0
102
RTVSPropertyOp53
 70
     1
102
RTVSPropertyOp54
 70
     1
102
RTVSPropertyOp55
 70
     1
102
RTVSPropertyOp56
 70
     1
102
RTVSPropertyOp57
 70
     1
102
RTVSPropertyOp58
 70
     1
102
RTVSPropertyOp59
 70
     1
102
RTVSPropertyOp60
 70
     1
102
RTVSPropertyOp61
 70
     1
102
RTVSPropertyOp62
 70
     1
  0
XRECORD
  5
CA48
102
{ACAD_REACTORS
330
CA47
102
}
330
CA47
100
AcDbXrecord
280
     1
102
RTVSPost2010Prop28
280
     0
102
RTVSPost2010PropOp28
 70
     1
102
RTVSPost2010Prop29
280
     1
102
RTVSPost2010PropOp29
 70
     1
102
RTVSPost2010Prop30
280
     1
102
RTVSPost2010PropOp30
 70
     1
102
RTVSPost2010Prop31
280
     0
102
RTVSPost2010PropOp31
 70
     1
102
RTVSPost2010Prop32
280
     0
102
RTVSPost2010PropOp32
 70
     1
102
RTVSPost2010Prop33
280
     0
102
RTVSPost2010PropOp33
 70
     1
102
RTVSPost2010Prop34
280
     0
102
RTVSPost2010PropOp34
 70
     1
102
RTVSPost2010Prop35
280
     0
102
RTVSPost2010PropOp35
 70
     1
102
RTVSPost2010Prop36
280
     0
102
RTVSPost2010PropOp36
 70
     1
102
RTVSPost2010Prop37
 90
       50
102
RTVSPost2010PropOp37
 70
     1
102
RTVSPost2010Prop38
140
0.0
102
RTVSPost2010PropOp38
 70
     1
102
RTVSPost2010Prop39
140
1.0
102
RTVSPost2010PropOp39
 70
     1
102
RTVSPost2010Prop40
 90
        0
102
RTVSPost2010PropOp40
 70
     1
102
RTVSPost2010Prop41ColorIndex
 90
       18
102
RTVSPost2010Prop41ColorRGB
 90
        0
102
RTVSPost2010PropOp41
 70
     1
102
RTVSPost2010Prop42
 90
       50
102
RTVSPost2010PropOp42
 70
     1
102
RTVSPost2010Prop43
 90
        3
102
RTVSPost2010PropOp43
 70
     1
102
RTVSPost2010Prop44ColorIndex
 90
        5
102
RTVSPost2010Prop44ColorRGB
 90
      255
102
RTVSPost2010PropOp44
 70
     1
102
RTVSPost2010Prop45
280
     0
102
RTVSPost2010PropOp45
 70
     1
102
RTVSPost2010Prop46
 90
       50
102
RTVSPost2010PropOp46
 70
     1
102
RTVSPost2010Prop47
 90
       50
102
RTVSPost2010PropOp47
 70
     1
102
RTVSPost2010Prop48
 90
       50
102
RTVSPost2010PropOp48
 70
     1
102
RTVSPost2010Prop49
280
     0
102
RTVSPost2010PropOp49
 70
     1
102
RTVSPost2010Prop50
 90
       50
102
RTVSPost2010PropOp50
 70
     1
102
RTVSPost2010Prop51ColorIndex
 90
      256
102
RTVSPost2010Prop51ColorRGB
 90
-16777216
102
RTVSPost2010PropOp51
 70
     0
102
RTVSPost2010Prop52
140
1.0
102
RTVSPost2010PropOp52
 70
     0
102
RTVSPost2010Prop53
 90
        2
102
RTVSPost2010PropOp53
 70
     1
102
RTVSPost2010Prop54
  1
strokes_ogs.tif
102
RTVSPost2010PropOp54
 70
     1
102
RTVSPost2010Prop55
280
     0
102
RTVSPost2010PropOp55
 70
     1
102
RTVSPost2010Prop56
140
1.0
102
RTVSPost2010PropOp56
 70
     1
102
RTVSPost2010Prop57
140
1.0
102
RTVSPost2010PropOp57
 70
     1
102
RTVSPropertyOp0
 70
     1
102
RTVSPropertyOp1
 70
     1
102
RTVSPropertyOp2
 70
     1
102
RTVSPropertyOp3
 70
     1
102
RTVSPropertyOp4
 70
     1
102
RTVSPropertyOp5
 70
     1
102
RTVSPropertyOp6
 70
     1
102
RTVSPropertyOp7
 70
     1
102
RTVSPropertyOp8
 70
     1
102
RTVSPropertyOp9
 70
     1
102
RTVSPropertyOp10
 70
     1
102
RTVSPropertyOp11
 70
     1
102
RTVSPropertyOp12
 70
     1
102
RTVSPropertyOp13
 70
     1
102
RTVSPropertyOp14
 70
     1
102
RTVSPropertyOp15
 70
     1
102
RTVSPropertyOp16
 70
     1
102
RTVSPropertyOp17
 70
     1
102
RTVSPropertyOp18
 70
     1
102
RTVSPropertyOp19
 70
     1
102
RTVSPropertyOp20
 70
     1
102
RTVSPropertyOp21
 70
     1
102
RTVSPropertyOp22
 70
     1
102
RTVSPropertyOp23
 70
     1
102
RTVSPropertyOp24
 70
     1
102
RTVSPropertyOp25
 70
     1
102
RTVSPropertyOp26
 70
     1
102
RTVSPropertyOp27
 70
     1
102
RTVSPropertyOp28
 70
     1
102
RTVSPropertyOp29
 70
     1
102
RTVSPropertyOp30
 70
     1
102
RTVSPropertyOp31
 70
     1
102
RTVSPropertyOp32
 70
     1
102
RTVSPropertyOp33
 70
     1
102
RTVSPropertyOp34
 70
     1
102
RTVSPropertyOp35
 70
     1
102
RTVSPropertyOp36
 70
     1
102
RTVSPropertyOp37
 70
     1
102
RTVSPropertyOp38
 70
     1
102
RTVSPropertyOp39
 70
     1
102
RTVSPropertyOp40
 70
     1
102
RTVSPropertyOp41
 70
     1
102
RTVSPropertyOp42
 70
     1
102
RTVSPropertyOp43
 70
     1
102
RTVSPropertyOp44
 70
     1
102
RTVSPropertyOp45
 70
     1
102
RTVSPropertyOp46
 70
     1
102
RTVSPropertyOp47
 70
     1
102
RTVSPropertyOp48
 70
     1
102
RTVSPropertyOp49
 70
     1
102
RTVSPropertyOp50
 70
     1
102
RTVSPropertyOp51
 70
     0
102
RTVSPropertyOp52
 70
     0
102
RTVSPropertyOp53
 70
     1
102
RTVSPropertyOp54
 70
     1
102
RTVSPropertyOp55
 70
     1
102
RTVSPropertyOp56
 70
     1
102
RTVSPropertyOp57
 70
     1
102
RTVSPropertyOp58
 70
     1
102
RTVSPropertyOp59
 70
     1
102
RTVSPropertyOp60
 70
     1
102
RTVSPropertyOp61
 70
     1
102
RTVSPropertyOp62
 70
     1
  0
XRECORD
  5
CA50
102
{ACAD_REACTORS
330
CA4F
102
}
330
CA4F
100
AcDbXrecord
280
     1
102
RTVSPost2010Prop28
280
     0
102
RTVSPost2010PropOp28
 70
     1
102
RTVSPost2010Prop29
280
     1
102
RTVSPost2010PropOp29
 70
     1
102
RTVSPost2010Prop30
280
     1
102
RTVSPost2010PropOp30
 70
     1
102
RTVSPost2010Prop31
280
     0
102
RTVSPost2010PropOp31
 70
     1
102
RTVSPost2010Prop32
280
     0
102
RTVSPost2010PropOp32
 70
     1
102
RTVSPost2010Prop33
280
     0
102
RTVSPost2010PropOp33
 70
     1
102
RTVSPost2010Prop34
280
     0
102
RTVSPost2010PropOp34
 70
     1
102
RTVSPost2010Prop35
280
     0
102
RTVSPost2010PropOp35
 70
     1
102
RTVSPost2010Prop36
280
     0
102
RTVSPost2010PropOp36
 70
     1
102
RTVSPost2010Prop37
 90
       50
102
RTVSPost2010PropOp37
 70
     1
102
RTVSPost2010Prop38
140
0.0
102
RTVSPost2010PropOp38
 70
     1
102
RTVSPost2010Prop39
140
1.0
102
RTVSPost2010PropOp39
 70
     1
102
RTVSPost2010Prop40
 90
        0
102
RTVSPost2010PropOp40
 70
     1
102
RTVSPost2010Prop41ColorIndex
 90
       18
102
RTVSPost2010Prop41ColorRGB
 90
        0
102
RTVSPost2010PropOp41
 70
     1
102
RTVSPost2010Prop42
 90
       50
102
RTVSPost2010PropOp42
 70
     1
102
RTVSPost2010Prop43
 90
        3
102
RTVSPost2010PropOp43
 70
     1
102
RTVSPost2010Prop44ColorIndex
 90
        5
102
RTVSPost2010Prop44ColorRGB
 90
      255
102
RTVSPost2010PropOp44
 70
     1
102
RTVSPost2010Prop45
280
     0
102
RTVSPost2010PropOp45
 70
     1
102
RTVSPost2010Prop46
 90
       50
102
RTVSPost2010PropOp46
 70
     1
102
RTVSPost2010Prop47
 90
       50
102
RTVSPost2010PropOp47
 70
     1
102
RTVSPost2010Prop48
 90
       50
102
RTVSPost2010PropOp48
 70
     1
102
RTVSPost2010Prop49
280
     0
102
RTVSPost2010PropOp49
 70
     1
102
RTVSPost2010Prop50
 90
       50
102
RTVSPost2010PropOp50
 70
     1
102
RTVSPost2010Prop51ColorIndex
 90
      256
102
RTVSPost2010Prop51ColorRGB
 90
-16777216
102
RTVSPost2010PropOp51
 70
     0
102
RTVSPost2010Prop52
140
1.0
102
RTVSPost2010PropOp52
 70
     0
102
RTVSPost2010Prop53
 90
        2
102
RTVSPost2010PropOp53
 70
     1
102
RTVSPost2010Prop54
  1
strokes_ogs.tif
102
RTVSPost2010PropOp54
 70
     1
102
RTVSPost2010Prop55
280
     0
102
RTVSPost2010PropOp55
 70
     1
102
RTVSPost2010Prop56
140
1.0
102
RTVSPost2010PropOp56
 70
     1
102
RTVSPost2010Prop57
140
1.0
102
RTVSPost2010PropOp57
 70
     1
102
RTVSPropertyOp0
 70
     1
102
RTVSPropertyOp1
 70
     1
102
RTVSPropertyOp2
 70
     1
102
RTVSPropertyOp3
 70
     1
102
RTVSPropertyOp4
 70
     1
102
RTVSPropertyOp5
 70
     1
102
RTVSPropertyOp6
 70
     1
102
RTVSPropertyOp7
 70
     1
102
RTVSPropertyOp8
 70
     1
102
RTVSPropertyOp9
 70
     1
102
RTVSPropertyOp10
 70
     1
102
RTVSPropertyOp11
 70
     1
102
RTVSPropertyOp12
 70
     1
102
RTVSPropertyOp13
 70
     1
102
RTVSPropertyOp14
 70
     1
102
RTVSPropertyOp15
 70
     1
102
RTVSPropertyOp16
 70
     1
102
RTVSPropertyOp17
 70
     1
102
RTVSPropertyOp18
 70
     1
102
RTVSPropertyOp19
 70
     1
102
RTVSPropertyOp20
 70
     1
102
RTVSPropertyOp21
 70
     1
102
RTVSPropertyOp22
 70
     1
102
RTVSPropertyOp23
 70
     1
102
RTVSPropertyOp24
 70
     1
102
RTVSPropertyOp25
 70
     1
102
RTVSPropertyOp26
 70
     1
102
RTVSPropertyOp27
 70
     1
102
RTVSPropertyOp28
 70
     1
102
RTVSPropertyOp29
 70
     1
102
RTVSPropertyOp30
 70
     1
102
RTVSPropertyOp31
 70
     1
102
RTVSPropertyOp32
 70
     1
102
RTVSPropertyOp33
 70
     1
102
RTVSPropertyOp34
 70
     1
102
RTVSPropertyOp35
 70
     1
102
RTVSPropertyOp36
 70
     1
102
RTVSPropertyOp37
 70
     1
102
RTVSPropertyOp38
 70
     1
102
RTVSPropertyOp39
 70
     1
102
RTVSPropertyOp40
 70
     1
102
RTVSPropertyOp41
 70
     1
102
RTVSPropertyOp42
 70
     1
102
RTVSPropertyOp43
 70
     1
102
RTVSPropertyOp44
 70
     1
102
RTVSPropertyOp45
 70
     1
102
RTVSPropertyOp46
 70
     1
102
RTVSPropertyOp47
 70
     1
102
RTVSPropertyOp48
 70
     1
102
RTVSPropertyOp49
 70
     1
102
RTVSPropertyOp50
 70
     1
102
RTVSPropertyOp51
 70
     0
102
RTVSPropertyOp52
 70
     0
102
RTVSPropertyOp53
 70
     1
102
RTVSPropertyOp54
 70
     1
102
RTVSPropertyOp55
 70
     1
102
RTVSPropertyOp56
 70
     1
102
RTVSPropertyOp57
 70
     1
102
RTVSPropertyOp58
 70
     1
102
RTVSPropertyOp59
 70
     1
102
RTVSPropertyOp60
 70
     1
102
RTVSPropertyOp61
 70
     1
102
RTVSPropertyOp62
 70
     1
  0
XRECORD
  5
CA6C
102
{ACAD_REACTORS
330
CA6B
102
}
330
CA6B
100
AcDbXrecord
280
     1
102
RTVSPost2010Prop28
280
     0
102
RTVSPost2010PropOp28
 70
     1
102
RTVSPost2010Prop29
280
     1
102
RTVSPost2010PropOp29
 70
     1
102
RTVSPost2010Prop30
280
     1
102
RTVSPost2010PropOp30
 70
     1
102
RTVSPost2010Prop31
280
     0
102
RTVSPost2010PropOp31
 70
     1
102
RTVSPost2010Prop32
280
     0
102
RTVSPost2010PropOp32
 70
     1
102
RTVSPost2010Prop33
280
     0
102
RTVSPost2010PropOp33
 70
     1
102
RTVSPost2010Prop34
280
     0
102
RTVSPost2010PropOp34
 70
     1
102
RTVSPost2010Prop35
280
     0
102
RTVSPost2010PropOp35
 70
     1
102
RTVSPost2010Prop36
280
     0
102
RTVSPost2010PropOp36
 70
     1
102
RTVSPost2010Prop37
 90
       50
102
RTVSPost2010PropOp37
 70
     0
102
RTVSPost2010Prop38
140
0.0
102
RTVSPost2010PropOp38
 70
     0
102
RTVSPost2010Prop39
140
1.0
102
RTVSPost2010PropOp39
 70
     0
102
RTVSPost2010Prop40
 90
        0
102
RTVSPost2010PropOp40
 70
     0
102
RTVSPost2010Prop41ColorIndex
 90
       18
102
RTVSPost2010Prop41ColorRGB
 90
        0
102
RTVSPost2010PropOp41
 70
     0
102
RTVSPost2010Prop42
 90
       50
102
RTVSPost2010PropOp42
 70
     0
102
RTVSPost2010Prop43
 90
        3
102
RTVSPost2010PropOp43
 70
     0
102
RTVSPost2010Prop44ColorIndex
 90
        5
102
RTVSPost2010Prop44ColorRGB
 90
      255
102
RTVSPost2010PropOp44
 70
     0
102
RTVSPost2010Prop45
280
     0
102
RTVSPost2010PropOp45
 70
     1
102
RTVSPost2010Prop46
 90
       50
102
RTVSPost2010PropOp46
 70
     0
102
RTVSPost2010Prop47
 90
       50
102
RTVSPost2010PropOp47
 70
     0
102
RTVSPost2010Prop48
 90
       50
102
RTVSPost2010PropOp48
 70
     0
102
RTVSPost2010Prop49
280
     0
102
RTVSPost2010PropOp49
 70
     1
102
RTVSPost2010Prop50
 90
       50
102
RTVSPost2010PropOp50
 70
     0
102
RTVSPost2010Prop51ColorIndex
 90
      256
102
RTVSPost2010Prop51ColorRGB
 90
-16777216
102
RTVSPost2010PropOp51
 70
     0
102
RTVSPost2010Prop52
140
1.0
102
RTVSPost2010PropOp52
 70
     0
102
RTVSPost2010Prop53
 90
        2
102
RTVSPost2010PropOp53
 70
     0
102
RTVSPost2010Prop54
  1
strokes_ogs.tif
102
RTVSPost2010PropOp54
 70
     0
102
RTVSPost2010Prop55
280
     0
102
RTVSPost2010PropOp55
 70
     1
102
RTVSPost2010Prop56
140
1.0
102
RTVSPost2010PropOp56
 70
     0
102
RTVSPost2010Prop57
140
1.0
102
RTVSPost2010PropOp57
 70
     0
102
RTVSPropertyOp0
 70
     0
102
RTVSPropertyOp1
 70
     0
102
RTVSPropertyOp2
 70
     0
102
RTVSPropertyOp3
 70
     0
102
RTVSPropertyOp4
 70
     0
102
RTVSPropertyOp5
 70
     0
102
RTVSPropertyOp6
 70
     0
102
RTVSPropertyOp7
 70
     0
102
RTVSPropertyOp8
 70
     0
102
RTVSPropertyOp9
 70
     0
102
RTVSPropertyOp10
 70
     0
102
RTVSPropertyOp11
 70
     0
102
RTVSPropertyOp12
 70
     0
102
RTVSPropertyOp13
 70
     0
102
RTVSPropertyOp14
 70
     2
102
RTVSPropertyOp15
 70
     0
102
RTVSPropertyOp16
 70
     0
102
RTVSPropertyOp17
 70
     0
102
RTVSPropertyOp18
 70
     0
102
RTVSPropertyOp19
 70
     0
102
RTVSPropertyOp20
 70
     0
102
RTVSPropertyOp21
 70
     0
102
RTVSPropertyOp22
 70
     0
102
RTVSPropertyOp23
 70
     0
102
RTVSPropertyOp24
 70
     0
102
RTVSPropertyOp25
 70
     0
102
RTVSPropertyOp26
 70
     0
102
RTVSPropertyOp27
 70
     0
102
RTVSPropertyOp28
 70
     1
102
RTVSPropertyOp29
 70
     1
102
RTVSPropertyOp30
 70
     1
102
RTVSPropertyOp31
 70
     1
102
RTVSPropertyOp32
 70
     1
102
RTVSPropertyOp33
 70
     1
102
RTVSPropertyOp34
 70
     1
102
RTVSPropertyOp35
 70
     1
102
RTVSPropertyOp36
 70
     1
102
RTVSPropertyOp37
 70
     0
102
RTVSPropertyOp38
 70
     0
102
RTVSPropertyOp39
 70
     0
102
RTVSPropertyOp40
 70
     0
102
RTVSPropertyOp41
 70
     0
102
RTVSPropertyOp42
 70
     0
102
RTVSPropertyOp43
 70
     0
102
RTVSPropertyOp44
 70
     0
102
RTVSPropertyOp45
 70
     1
102
RTVSPropertyOp46
 70
     0
102
RTVSPropertyOp47
 70
     0
102
RTVSPropertyOp48
 70
     0
102
RTVSPropertyOp49
 70
     1
102
RTVSPropertyOp50
 70
     0
102
RTVSPropertyOp51
 70
     0
102
RTVSPropertyOp52
 70
     0
102
RTVSPropertyOp53
 70
     0
102
RTVSPropertyOp54
 70
     0
102
RTVSPropertyOp55
 70
     1
102
RTVSPropertyOp56
 70
     0
102
RTVSPropertyOp57
 70
     0
102
RTVSPropertyOp58
 70
     0
102
RTVSPropertyOp59
 70
     0
102
RTVSPropertyOp60
 70
     0
102
RTVSPropertyOp61
 70
     0
102
RTVSPropertyOp62
 70
     0
  0
XRECORD
  5
CA5C
102
{ACAD_REACTORS
330
CA5B
102
}
330
CA5B
100
AcDbXrecord
280
     1
102
RTVSPost2010Prop28
280
     0
102
RTVSPost2010PropOp28
 70
     1
102
RTVSPost2010Prop29
280
     1
102
RTVSPost2010PropOp29
 70
     1
102
RTVSPost2010Prop30
280
     1
102
RTVSPost2010PropOp30
 70
     1
102
RTVSPost2010Prop31
280
     0
102
RTVSPost2010PropOp31
 70
     1
102
RTVSPost2010Prop32
280
     0
102
RTVSPost2010PropOp32
 70
     1
102
RTVSPost2010Prop33
280
     0
102
RTVSPost2010PropOp33
 70
     1
102
RTVSPost2010Prop34
280
     0
102
RTVSPost2010PropOp34
 70
     1
102
RTVSPost2010Prop35
280
     0
102
RTVSPost2010PropOp35
 70
     1
102
RTVSPost2010Prop36
280
     0
102
RTVSPost2010PropOp36
 70
     1
102
RTVSPost2010Prop37
 90
       50
102
RTVSPost2010PropOp37
 70
     1
102
RTVSPost2010Prop38
140
0.0
102
RTVSPost2010PropOp38
 70
     1
102
RTVSPost2010Prop39
140
1.0
102
RTVSPost2010PropOp39
 70
     1
102
RTVSPost2010Prop40
 90
        0
102
RTVSPost2010PropOp40
 70
     1
102
RTVSPost2010Prop41ColorIndex
 90
       18
102
RTVSPost2010Prop41ColorRGB
 90
        0
102
RTVSPost2010PropOp41
 70
     1
102
RTVSPost2010Prop42
 90
       50
102
RTVSPost2010PropOp42
 70
     1
102
RTVSPost2010Prop43
 90
        3
102
RTVSPost2010PropOp43
 70
     1
102
RTVSPost2010Prop44ColorIndex
 90
        5
102
RTVSPost2010Prop44ColorRGB
 90
      255
102
RTVSPost2010PropOp44
 70
     1
102
RTVSPost2010Prop45
280
     0
102
RTVSPost2010PropOp45
 70
     1
102
RTVSPost2010Prop46
 90
       50
102
RTVSPost2010PropOp46
 70
     1
102
RTVSPost2010Prop47
 90
       50
102
RTVSPost2010PropOp47
 70
     1
102
RTVSPost2010Prop48
 90
       50
102
RTVSPost2010PropOp48
 70
     1
102
RTVSPost2010Prop49
280
     0
102
RTVSPost2010PropOp49
 70
     1
102
RTVSPost2010Prop50
 90
       50
102
RTVSPost2010PropOp50
 70
     1
102
RTVSPost2010Prop51ColorIndex
 90
      256
102
RTVSPost2010Prop51ColorRGB
 90
-16777216
102
RTVSPost2010PropOp51
 70
     0
102
RTVSPost2010Prop52
140
1.0
102
RTVSPost2010PropOp52
 70
     0
102
RTVSPost2010Prop53
 90
        2
102
RTVSPost2010PropOp53
 70
     1
102
RTVSPost2010Prop54
  1
strokes_ogs.tif
102
RTVSPost2010PropOp54
 70
     1
102
RTVSPost2010Prop55
280
     0
102
RTVSPost2010PropOp55
 70
     1
102
RTVSPost2010Prop56
140
1.0
102
RTVSPost2010PropOp56
 70
     1
102
RTVSPost2010Prop57
140
1.0
102
RTVSPost2010PropOp57
 70
     1
102
RTVSPropertyOp0
 70
     1
102
RTVSPropertyOp1
 70
     1
102
RTVSPropertyOp2
 70
     1
102
RTVSPropertyOp3
 70
     1
102
RTVSPropertyOp4
 70
     1
102
RTVSPropertyOp5
 70
     1
102
RTVSPropertyOp6
 70
     1
102
RTVSPropertyOp7
 70
     1
102
RTVSPropertyOp8
 70
     1
102
RTVSPropertyOp9
 70
     1
102
RTVSPropertyOp10
 70
     1
102
RTVSPropertyOp11
 70
     1
102
RTVSPropertyOp12
 70
     1
102
RTVSPropertyOp13
 70
     1
102
RTVSPropertyOp14
 70
     1
102
RTVSPropertyOp15
 70
     1
102
RTVSPropertyOp16
 70
     1
102
RTVSPropertyOp17
 70
     1
102
RTVSPropertyOp18
 70
     1
102
RTVSPropertyOp19
 70
     1
102
RTVSPropertyOp20
 70
     1
102
RTVSPropertyOp21
 70
     1
102
RTVSPropertyOp22
 70
     1
102
RTVSPropertyOp23
 70
     1
102
RTVSPropertyOp24
 70
     1
102
RTVSPropertyOp25
 70
     1
102
RTVSPropertyOp26
 70
     1
102
RTVSPropertyOp27
 70
     1
102
RTVSPropertyOp28
 70
     1
102
RTVSPropertyOp29
 70
     1
102
RTVSPropertyOp30
 70
     1
102
RTVSPropertyOp31
 70
     1
102
RTVSPropertyOp32
 70
     1
102
RTVSPropertyOp33
 70
     1
102
RTVSPropertyOp34
 70
     1
102
RTVSPropertyOp35
 70
     1
102
RTVSPropertyOp36
 70
     1
102
RTVSPropertyOp37
 70
     1
102
RTVSPropertyOp38
 70
     1
102
RTVSPropertyOp39
 70
     1
102
RTVSPropertyOp40
 70
     1
102
RTVSPropertyOp41
 70
     1
102
RTVSPropertyOp42
 70
     1
102
RTVSPropertyOp43
 70
     1
102
RTVSPropertyOp44
 70
     1
102
RTVSPropertyOp45
 70
     1
102
RTVSPropertyOp46
 70
     1
102
RTVSPropertyOp47
 70
     1
102
RTVSPropertyOp48
 70
     1
102
RTVSPropertyOp49
 70
     1
102
RTVSPropertyOp50
 70
     1
102
RTVSPropertyOp51
 70
     0
102
RTVSPropertyOp52
 70
     0
102
RTVSPropertyOp53
 70
     1
102
RTVSPropertyOp54
 70
     1
102
RTVSPropertyOp55
 70
     1
102
RTVSPropertyOp56
 70
     1
102
RTVSPropertyOp57
 70
     1
102
RTVSPropertyOp58
 70
     1
102
RTVSPropertyOp59
 70
     1
102
RTVSPropertyOp60
 70
     1
102
RTVSPropertyOp61
 70
     1
102
RTVSPropertyOp62
 70
     1
  0
XRECORD
  5
CA6E
102
{ACAD_REACTORS
330
CA6D
102
}
330
CA6D
100
AcDbXrecord
280
     1
102
RTVSPost2010Prop28
280
     0
102
RTVSPost2010PropOp28
 70
     1
102
RTVSPost2010Prop29
280
     1
102
RTVSPost2010PropOp29
 70
     1
102
RTVSPost2010Prop30
280
     1
102
RTVSPost2010PropOp30
 70
     1
102
RTVSPost2010Prop31
280
     0
102
RTVSPost2010PropOp31
 70
     1
102
RTVSPost2010Prop32
280
     0
102
RTVSPost2010PropOp32
 70
     1
102
RTVSPost2010Prop33
280
     0
102
RTVSPost2010PropOp33
 70
     1
102
RTVSPost2010Prop34
280
     0
102
RTVSPost2010PropOp34
 70
     1
102
RTVSPost2010Prop35
280
     0
102
RTVSPost2010PropOp35
 70
     1
102
RTVSPost2010Prop36
280
     0
102
RTVSPost2010PropOp36
 70
     1
102
RTVSPost2010Prop37
 90
       50
102
RTVSPost2010PropOp37
 70
     0
102
RTVSPost2010Prop38
140
0.0
102
RTVSPost2010PropOp38
 70
     0
102
RTVSPost2010Prop39
140
1.0
102
RTVSPost2010PropOp39
 70
     0
102
RTVSPost2010Prop40
 90
        0
102
RTVSPost2010PropOp40
 70
     0
102
RTVSPost2010Prop41ColorIndex
 90
       18
102
RTVSPost2010Prop41ColorRGB
 90
        0
102
RTVSPost2010PropOp41
 70
     0
102
RTVSPost2010Prop42
 90
       50
102
RTVSPost2010PropOp42
 70
     0
102
RTVSPost2010Prop43
 90
        3
102
RTVSPost2010PropOp43
 70
     0
102
RTVSPost2010Prop44ColorIndex
 90
        5
102
RTVSPost2010Prop44ColorRGB
 90
      255
102
RTVSPost2010PropOp44
 70
     0
102
RTVSPost2010Prop45
280
     0
102
RTVSPost2010PropOp45
 70
     1
102
RTVSPost2010Prop46
 90
       50
102
RTVSPost2010PropOp46
 70
     0
102
RTVSPost2010Prop47
 90
       50
102
RTVSPost2010PropOp47
 70
     0
102
RTVSPost2010Prop48
 90
       50
102
RTVSPost2010PropOp48
 70
     0
102
RTVSPost2010Prop49
280
     0
102
RTVSPost2010PropOp49
 70
     1
102
RTVSPost2010Prop50
 90
       50
102
RTVSPost2010PropOp50
 70
     0
102
RTVSPost2010Prop51ColorIndex
 90
      256
102
RTVSPost2010Prop51ColorRGB
 90
-16777216
102
RTVSPost2010PropOp51
 70
     0
102
RTVSPost2010Prop52
140
1.0
102
RTVSPost2010PropOp52
 70
     0
102
RTVSPost2010Prop53
 90
        2
102
RTVSPost2010PropOp53
 70
     0
102
RTVSPost2010Prop54
  1
strokes_ogs.tif
102
RTVSPost2010PropOp54
 70
     0
102
RTVSPost2010Prop55
280
     0
102
RTVSPost2010PropOp55
 70
     1
102
RTVSPost2010Prop56
140
1.0
102
RTVSPost2010PropOp56
 70
     0
102
RTVSPost2010Prop57
140
1.0
102
RTVSPost2010PropOp57
 70
     0
102
RTVSPropertyOp0
 70
     0
102
RTVSPropertyOp1
 70
     0
102
RTVSPropertyOp2
 70
     0
102
RTVSPropertyOp3
 70
     0
102
RTVSPropertyOp4
 70
     0
102
RTVSPropertyOp5
 70
     0
102
RTVSPropertyOp6
 70
     0
102
RTVSPropertyOp7
 70
     0
102
RTVSPropertyOp8
 70
     0
102
RTVSPropertyOp9
 70
     0
102
RTVSPropertyOp10
 70
     0
102
RTVSPropertyOp11
 70
     0
102
RTVSPropertyOp12
 70
     0
102
RTVSPropertyOp13
 70
     0
102
RTVSPropertyOp14
 70
     2
102
RTVSPropertyOp15
 70
     0
102
RTVSPropertyOp16
 70
     0
102
RTVSPropertyOp17
 70
     0
102
RTVSPropertyOp18
 70
     0
102
RTVSPropertyOp19
 70
     0
102
RTVSPropertyOp20
 70
     0
102
RTVSPropertyOp21
 70
     0
102
RTVSPropertyOp22
 70
     0
102
RTVSPropertyOp23
 70
     0
102
RTVSPropertyOp24
 70
     0
102
RTVSPropertyOp25
 70
     0
102
RTVSPropertyOp26
 70
     0
102
RTVSPropertyOp27
 70
     0
102
RTVSPropertyOp28
 70
     1
102
RTVSPropertyOp29
 70
     1
102
RTVSPropertyOp30
 70
     1
102
RTVSPropertyOp31
 70
     1
102
RTVSPropertyOp32
 70
     1
102
RTVSPropertyOp33
 70
     1
102
RTVSPropertyOp34
 70
     1
102
RTVSPropertyOp35
 70
     1
102
RTVSPropertyOp36
 70
     1
102
RTVSPropertyOp37
 70
     0
102
RTVSPropertyOp38
 70
     0
102
RTVSPropertyOp39
 70
     0
102
RTVSPropertyOp40
 70
     0
102
RTVSPropertyOp41
 70
     0
102
RTVSPropertyOp42
 70
     0
102
RTVSPropertyOp43
 70
     0
102
RTVSPropertyOp44
 70
     0
102
RTVSPropertyOp45
 70
     1
102
RTVSPropertyOp46
 70
     0
102
RTVSPropertyOp47
 70
     0
102
RTVSPropertyOp48
 70
     0
102
RTVSPropertyOp49
 70
     1
102
RTVSPropertyOp50
 70
     0
102
RTVSPropertyOp51
 70
     0
102
RTVSPropertyOp52
 70
     0
102
RTVSPropertyOp53
 70
     0
102
RTVSPropertyOp54
 70
     0
102
RTVSPropertyOp55
 70
     1
102
RTVSPropertyOp56
 70
     0
102
RTVSPropertyOp57
 70
     0
102
RTVSPropertyOp58
 70
     0
102
RTVSPropertyOp59
 70
     0
102
RTVSPropertyOp60
 70
     0
102
RTVSPropertyOp61
 70
     0
102
RTVSPropertyOp62
 70
     0
  0
XRECORD
  5
CA54
102
{ACAD_REACTORS
330
CA53
102
}
330
CA53
100
AcDbXrecord
280
     1
102
RTVSPost2010Prop28
280
     0
102
RTVSPost2010PropOp28
 70
     1
102
RTVSPost2010Prop29
280
     1
102
RTVSPost2010PropOp29
 70
     1
102
RTVSPost2010Prop30
280
     1
102
RTVSPost2010PropOp30
 70
     1
102
RTVSPost2010Prop31
280
     0
102
RTVSPost2010PropOp31
 70
     1
102
RTVSPost2010Prop32
280
     0
102
RTVSPost2010PropOp32
 70
     1
102
RTVSPost2010Prop33
280
     0
102
RTVSPost2010PropOp33
 70
     1
102
RTVSPost2010Prop34
280
     0
102
RTVSPost2010PropOp34
 70
     1
102
RTVSPost2010Prop35
280
     0
102
RTVSPost2010PropOp35
 70
     1
102
RTVSPost2010Prop36
280
     0
102
RTVSPost2010PropOp36
 70
     1
102
RTVSPost2010Prop37
 90
       50
102
RTVSPost2010PropOp37
 70
     1
102
RTVSPost2010Prop38
140
0.0
102
RTVSPost2010PropOp38
 70
     1
102
RTVSPost2010Prop39
140
1.0
102
RTVSPost2010PropOp39
 70
     1
102
RTVSPost2010Prop40
 90
        0
102
RTVSPost2010PropOp40
 70
     1
102
RTVSPost2010Prop41ColorIndex
 90
       18
102
RTVSPost2010Prop41ColorRGB
 90
        0
102
RTVSPost2010PropOp41
 70
     1
102
RTVSPost2010Prop42
 90
       50
102
RTVSPost2010PropOp42
 70
     1
102
RTVSPost2010Prop43
 90
        3
102
RTVSPost2010PropOp43
 70
     1
102
RTVSPost2010Prop44ColorIndex
 90
        5
102
RTVSPost2010Prop44ColorRGB
 90
      255
102
RTVSPost2010PropOp44
 70
     1
102
RTVSPost2010Prop45
280
     0
102
RTVSPost2010PropOp45
 70
     1
102
RTVSPost2010Prop46
 90
       50
102
RTVSPost2010PropOp46
 70
     1
102
RTVSPost2010Prop47
 90
       50
102
RTVSPost2010PropOp47
 70
     1
102
RTVSPost2010Prop48
 90
       50
102
RTVSPost2010PropOp48
 70
     1
102
RTVSPost2010Prop49
280
     0
102
RTVSPost2010PropOp49
 70
     1
102
RTVSPost2010Prop50
 90
       50
102
RTVSPost2010PropOp50
 70
     1
102
RTVSPost2010Prop51ColorIndex
 90
      256
102
RTVSPost2010Prop51ColorRGB
 90
-16777216
102
RTVSPost2010PropOp51
 70
     0
102
RTVSPost2010Prop52
140
1.0
102
RTVSPost2010PropOp52
 70
     0
102
RTVSPost2010Prop53
 90
        2
102
RTVSPost2010PropOp53
 70
     1
102
RTVSPost2010Prop54
  1
strokes_ogs.tif
102
RTVSPost2010PropOp54
 70
     1
102
RTVSPost2010Prop55
280
     0
102
RTVSPost2010PropOp55
 70
     1
102
RTVSPost2010Prop56
140
1.0
102
RTVSPost2010PropOp56
 70
     1
102
RTVSPost2010Prop57
140
1.0
102
RTVSPost2010PropOp57
 70
     1
102
RTVSPropertyOp0
 70
     1
102
RTVSPropertyOp1
 70
     1
102
RTVSPropertyOp2
 70
     1
102
RTVSPropertyOp3
 70
     1
102
RTVSPropertyOp4
 70
     1
102
RTVSPropertyOp5
 70
     1
102
RTVSPropertyOp6
 70
     1
102
RTVSPropertyOp7
 70
     1
102
RTVSPropertyOp8
 70
     1
102
RTVSPropertyOp9
 70
     1
102
RTVSPropertyOp10
 70
     1
102
RTVSPropertyOp11
 70
     1
102
RTVSPropertyOp12
 70
     1
102
RTVSPropertyOp13
 70
     1
102
RTVSPropertyOp14
 70
     1
102
RTVSPropertyOp15
 70
     1
102
RTVSPropertyOp16
 70
     1
102
RTVSPropertyOp17
 70
     1
102
RTVSPropertyOp18
 70
     1
102
RTVSPropertyOp19
 70
     1
102
RTVSPropertyOp20
 70
     1
102
RTVSPropertyOp21
 70
     1
102
RTVSPropertyOp22
 70
     1
102
RTVSPropertyOp23
 70
     1
102
RTVSPropertyOp24
 70
     1
102
RTVSPropertyOp25
 70
     1
102
RTVSPropertyOp26
 70
     1
102
RTVSPropertyOp27
 70
     1
102
RTVSPropertyOp28
 70
     1
102
RTVSPropertyOp29
 70
     1
102
RTVSPropertyOp30
 70
     1
102
RTVSPropertyOp31
 70
     1
102
RTVSPropertyOp32
 70
     1
102
RTVSPropertyOp33
 70
     1
102
RTVSPropertyOp34
 70
     1
102
RTVSPropertyOp35
 70
     1
102
RTVSPropertyOp36
 70
     1
102
RTVSPropertyOp37
 70
     1
102
RTVSPropertyOp38
 70
     1
102
RTVSPropertyOp39
 70
     1
102
RTVSPropertyOp40
 70
     1
102
RTVSPropertyOp41
 70
     1
102
RTVSPropertyOp42
 70
     1
102
RTVSPropertyOp43
 70
     1
102
RTVSPropertyOp44
 70
     1
102
RTVSPropertyOp45
 70
     1
102
RTVSPropertyOp46
 70
     1
102
RTVSPropertyOp47
 70
     1
102
RTVSPropertyOp48
 70
     1
102
RTVSPropertyOp49
 70
     1
102
RTVSPropertyOp50
 70
     1
102
RTVSPropertyOp51
 70
     0
102
RTVSPropertyOp52
 70
     0
102
RTVSPropertyOp53
 70
     1
102
RTVSPropertyOp54
 70
     1
102
RTVSPropertyOp55
 70
     1
102
RTVSPropertyOp56
 70
     1
102
RTVSPropertyOp57
 70
     1
102
RTVSPropertyOp58
 70
     1
102
RTVSPropertyOp59
 70
     1
102
RTVSPropertyOp60
 70
     1
102
RTVSPropertyOp61
 70
     1
102
RTVSPropertyOp62
 70
     1
  0
XRECORD
  5
CA6A
102
{ACAD_REACTORS
330
CA69
102
}
330
CA69
100
AcDbXrecord
280
     1
102
RTVSPost2010Prop28
280
     0
102
RTVSPost2010PropOp28
 70
     1
102
RTVSPost2010Prop29
280
     1
102
RTVSPost2010PropOp29
 70
     1
102
RTVSPost2010Prop30
280
     1
102
RTVSPost2010PropOp30
 70
     1
102
RTVSPost2010Prop31
280
     0
102
RTVSPost2010PropOp31
 70
     1
102
RTVSPost2010Prop32
280
     0
102
RTVSPost2010PropOp32
 70
     1
102
RTVSPost2010Prop33
280
     0
102
RTVSPost2010PropOp33
 70
     1
102
RTVSPost2010Prop34
280
     0
102
RTVSPost2010PropOp34
 70
     1
102
RTVSPost2010Prop35
280
     0
102
RTVSPost2010PropOp35
 70
     1
102
RTVSPost2010Prop36
280
     0
102
RTVSPost2010PropOp36
 70
     1
102
RTVSPost2010Prop37
 90
       50
102
RTVSPost2010PropOp37
 70
     1
102
RTVSPost2010Prop38
140
0.0
102
RTVSPost2010PropOp38
 70
     1
102
RTVSPost2010Prop39
140
1.0
102
RTVSPost2010PropOp39
 70
     1
102
RTVSPost2010Prop40
 90
        0
102
RTVSPost2010PropOp40
 70
     1
102
RTVSPost2010Prop41ColorIndex
 90
       18
102
RTVSPost2010Prop41ColorRGB
 90
        0
102
RTVSPost2010PropOp41
 70
     1
102
RTVSPost2010Prop42
 90
       50
102
RTVSPost2010PropOp42
 70
     1
102
RTVSPost2010Prop43
 90
        3
102
RTVSPost2010PropOp43
 70
     1
102
RTVSPost2010Prop44ColorIndex
 90
        5
102
RTVSPost2010Prop44ColorRGB
 90
      255
102
RTVSPost2010PropOp44
 70
     1
102
RTVSPost2010Prop45
280
     0
102
RTVSPost2010PropOp45
 70
     1
102
RTVSPost2010Prop46
 90
       50
102
RTVSPost2010PropOp46
 70
     1
102
RTVSPost2010Prop47
 90
       50
102
RTVSPost2010PropOp47
 70
     1
102
RTVSPost2010Prop48
 90
       50
102
RTVSPost2010PropOp48
 70
     1
102
RTVSPost2010Prop49
280
     0
102
RTVSPost2010PropOp49
 70
     1
102
RTVSPost2010Prop50
 90
       50
102
RTVSPost2010PropOp50
 70
     1
102
RTVSPost2010Prop51ColorIndex
 90
      256
102
RTVSPost2010Prop51ColorRGB
 90
-16777216
102
RTVSPost2010PropOp51
 70
     0
102
RTVSPost2010Prop52
140
1.0
102
RTVSPost2010PropOp52
 70
     0
102
RTVSPost2010Prop53
 90
        2
102
RTVSPost2010PropOp53
 70
     1
102
RTVSPost2010Prop54
  1
strokes_ogs.tif
102
RTVSPost2010PropOp54
 70
     1
102
RTVSPost2010Prop55
280
     0
102
RTVSPost2010PropOp55
 70
     1
102
RTVSPost2010Prop56
140
1.0
102
RTVSPost2010PropOp56
 70
     1
102
RTVSPost2010Prop57
140
1.0
102
RTVSPost2010PropOp57
 70
     1
102
RTVSPropertyOp0
 70
     1
102
RTVSPropertyOp1
 70
     1
102
RTVSPropertyOp2
 70
     1
102
RTVSPropertyOp3
 70
     1
102
RTVSPropertyOp4
 70
     1
102
RTVSPropertyOp5
 70
     1
102
RTVSPropertyOp6
 70
     1
102
RTVSPropertyOp7
 70
     1
102
RTVSPropertyOp8
 70
     1
102
RTVSPropertyOp9
 70
     1
102
RTVSPropertyOp10
 70
     1
102
RTVSPropertyOp11
 70
     1
102
RTVSPropertyOp12
 70
     1
102
RTVSPropertyOp13
 70
     1
102
RTVSPropertyOp14
 70
     1
102
RTVSPropertyOp15
 70
     1
102
RTVSPropertyOp16
 70
     1
102
RTVSPropertyOp17
 70
     1
102
RTVSPropertyOp18
 70
     1
102
RTVSPropertyOp19
 70
     1
102
RTVSPropertyOp20
 70
     1
102
RTVSPropertyOp21
 70
     1
102
RTVSPropertyOp22
 70
     1
102
RTVSPropertyOp23
 70
     1
102
RTVSPropertyOp24
 70
     1
102
RTVSPropertyOp25
 70
     1
102
RTVSPropertyOp26
 70
     1
102
RTVSPropertyOp27
 70
     1
102
RTVSPropertyOp28
 70
     1
102
RTVSPropertyOp29
 70
     1
102
RTVSPropertyOp30
 70
     1
102
RTVSPropertyOp31
 70
     1
102
RTVSPropertyOp32
 70
     1
102
RTVSPropertyOp33
 70
     1
102
RTVSPropertyOp34
 70
     1
102
RTVSPropertyOp35
 70
     1
102
RTVSPropertyOp36
 70
     1
102
RTVSPropertyOp37
 70
     1
102
RTVSPropertyOp38
 70
     1
102
RTVSPropertyOp39
 70
     1
102
RTVSPropertyOp40
 70
     1
102
RTVSPropertyOp41
 70
     1
102
RTVSPropertyOp42
 70
     1
102
RTVSPropertyOp43
 70
     1
102
RTVSPropertyOp44
 70
     1
102
RTVSPropertyOp45
 70
     1
102
RTVSPropertyOp46
 70
     1
102
RTVSPropertyOp47
 70
     1
102
RTVSPropertyOp48
 70
     1
102
RTVSPropertyOp49
 70
     1
102
RTVSPropertyOp50
 70
     1
102
RTVSPropertyOp51
 70
     0
102
RTVSPropertyOp52
 70
     0
102
RTVSPropertyOp53
 70
     1
102
RTVSPropertyOp54
 70
     1
102
RTVSPropertyOp55
 70
     1
102
RTVSPropertyOp56
 70
     1
102
RTVSPropertyOp57
 70
     1
102
RTVSPropertyOp58
 70
     1
102
RTVSPropertyOp59
 70
     1
102
RTVSPropertyOp60
 70
     1
102
RTVSPropertyOp61
 70
     1
102
RTVSPropertyOp62
 70
     1
  0
XRECORD
  5
CA68
102
{ACAD_REACTORS
330
CA67
102
}
330
CA67
100
AcDbXrecord
280
     1
102
RTVSPost2010Prop28
280
     0
102
RTVSPost2010PropOp28
 70
     1
102
RTVSPost2010Prop29
280
     1
102
RTVSPost2010PropOp29
 70
     1
102
RTVSPost2010Prop30
280
     1
102
RTVSPost2010PropOp30
 70
     1
102
RTVSPost2010Prop31
280
     0
102
RTVSPost2010PropOp31
 70
     1
102
RTVSPost2010Prop32
280
     0
102
RTVSPost2010PropOp32
 70
     1
102
RTVSPost2010Prop33
280
     0
102
RTVSPost2010PropOp33
 70
     1
102
RTVSPost2010Prop34
280
     0
102
RTVSPost2010PropOp34
 70
     1
102
RTVSPost2010Prop35
280
     0
102
RTVSPost2010PropOp35
 70
     1
102
RTVSPost2010Prop36
280
     0
102
RTVSPost2010PropOp36
 70
     1
102
RTVSPost2010Prop37
 90
       50
102
RTVSPost2010PropOp37
 70
     1
102
RTVSPost2010Prop38
140
0.0
102
RTVSPost2010PropOp38
 70
     1
102
RTVSPost2010Prop39
140
1.0
102
RTVSPost2010PropOp39
 70
     1
102
RTVSPost2010Prop40
 90
        0
102
RTVSPost2010PropOp40
 70
     1
102
RTVSPost2010Prop41ColorIndex
 90
       18
102
RTVSPost2010Prop41ColorRGB
 90
        0
102
RTVSPost2010PropOp41
 70
     1
102
RTVSPost2010Prop42
 90
       50
102
RTVSPost2010PropOp42
 70
     1
102
RTVSPost2010Prop43
 90
        3
102
RTVSPost2010PropOp43
 70
     1
102
RTVSPost2010Prop44ColorIndex
 90
        5
102
RTVSPost2010Prop44ColorRGB
 90
      255
102
RTVSPost2010PropOp44
 70
     1
102
RTVSPost2010Prop45
280
     0
102
RTVSPost2010PropOp45
 70
     1
102
RTVSPost2010Prop46
 90
       50
102
RTVSPost2010PropOp46
 70
     1
102
RTVSPost2010Prop47
 90
       50
102
RTVSPost2010PropOp47
 70
     1
102
RTVSPost2010Prop48
 90
       50
102
RTVSPost2010PropOp48
 70
     1
102
RTVSPost2010Prop49
280
     0
102
RTVSPost2010PropOp49
 70
     1
102
RTVSPost2010Prop50
 90
       50
102
RTVSPost2010PropOp50
 70
     1
102
RTVSPost2010Prop51ColorIndex
 90
      256
102
RTVSPost2010Prop51ColorRGB
 90
-16777216
102
RTVSPost2010PropOp51
 70
     0
102
RTVSPost2010Prop52
140
1.0
102
RTVSPost2010PropOp52
 70
     0
102
RTVSPost2010Prop53
 90
        2
102
RTVSPost2010PropOp53
 70
     1
102
RTVSPost2010Prop54
  1
strokes_ogs.tif
102
RTVSPost2010PropOp54
 70
     1
102
RTVSPost2010Prop55
280
     0
102
RTVSPost2010PropOp55
 70
     1
102
RTVSPost2010Prop56
140
1.0
102
RTVSPost2010PropOp56
 70
     1
102
RTVSPost2010Prop57
140
1.0
102
RTVSPost2010PropOp57
 70
     1
102
RTVSPropertyOp0
 70
     1
102
RTVSPropertyOp1
 70
     1
102
RTVSPropertyOp2
 70
     1
102
RTVSPropertyOp3
 70
     1
102
RTVSPropertyOp4
 70
     1
102
RTVSPropertyOp5
 70
     1
102
RTVSPropertyOp6
 70
     1
102
RTVSPropertyOp7
 70
     1
102
RTVSPropertyOp8
 70
     1
102
RTVSPropertyOp9
 70
     1
102
RTVSPropertyOp10
 70
     1
102
RTVSPropertyOp11
 70
     1
102
RTVSPropertyOp12
 70
     1
102
RTVSPropertyOp13
 70
     1
102
RTVSPropertyOp14
 70
     1
102
RTVSPropertyOp15
 70
     1
102
RTVSPropertyOp16
 70
     1
102
RTVSPropertyOp17
 70
     1
102
RTVSPropertyOp18
 70
     1
102
RTVSPropertyOp19
 70
     1
102
RTVSPropertyOp20
 70
     1
102
RTVSPropertyOp21
 70
     1
102
RTVSPropertyOp22
 70
     1
102
RTVSPropertyOp23
 70
     1
102
RTVSPropertyOp24
 70
     1
102
RTVSPropertyOp25
 70
     1
102
RTVSPropertyOp26
 70
     1
102
RTVSPropertyOp27
 70
     1
102
RTVSPropertyOp28
 70
     1
102
RTVSPropertyOp29
 70
     1
102
RTVSPropertyOp30
 70
     1
102
RTVSPropertyOp31
 70
     1
102
RTVSPropertyOp32
 70
     1
102
RTVSPropertyOp33
 70
     1
102
RTVSPropertyOp34
 70
     1
102
RTVSPropertyOp35
 70
     1
102
RTVSPropertyOp36
 70
     1
102
RTVSPropertyOp37
 70
     1
102
RTVSPropertyOp38
 70
     1
102
RTVSPropertyOp39
 70
     1
102
RTVSPropertyOp40
 70
     1
102
RTVSPropertyOp41
 70
     1
102
RTVSPropertyOp42
 70
     1
102
RTVSPropertyOp43
 70
     1
102
RTVSPropertyOp44
 70
     1
102
RTVSPropertyOp45
 70
     1
102
RTVSPropertyOp46
 70
     1
102
RTVSPropertyOp47
 70
     1
102
RTVSPropertyOp48
 70
     1
102
RTVSPropertyOp49
 70
     1
102
RTVSPropertyOp50
 70
     1
102
RTVSPropertyOp51
 70
     0
102
RTVSPropertyOp52
 70
     0
102
RTVSPropertyOp53
 70
     1
102
RTVSPropertyOp54
 70
     1
102
RTVSPropertyOp55
 70
     1
102
RTVSPropertyOp56
 70
     1
102
RTVSPropertyOp57
 70
     1
102
RTVSPropertyOp58
 70
     1
102
RTVSPropertyOp59
 70
     1
102
RTVSPropertyOp60
 70
     1
102
RTVSPropertyOp61
 70
     1
102
RTVSPropertyOp62
 70
     1
  0
XRECORD
  5
CA62
102
{ACAD_REACTORS
330
CA61
102
}
330
CA61
100
AcDbXrecord
280
     1
102
RTVSPost2010Prop28
280
     0
102
RTVSPost2010PropOp28
 70
     1
102
RTVSPost2010Prop29
280
     1
102
RTVSPost2010PropOp29
 70
     1
102
RTVSPost2010Prop30
280
     1
102
RTVSPost2010PropOp30
 70
     1
102
RTVSPost2010Prop31
280
     0
102
RTVSPost2010PropOp31
 70
     1
102
RTVSPost2010Prop32
280
     0
102
RTVSPost2010PropOp32
 70
     1
102
RTVSPost2010Prop33
280
     0
102
RTVSPost2010PropOp33
 70
     1
102
RTVSPost2010Prop34
280
     0
102
RTVSPost2010PropOp34
 70
     1
102
RTVSPost2010Prop35
280
     0
102
RTVSPost2010PropOp35
 70
     1
102
RTVSPost2010Prop36
280
     0
102
RTVSPost2010PropOp36
 70
     1
102
RTVSPost2010Prop37
 90
       50
102
RTVSPost2010PropOp37
 70
     1
102
RTVSPost2010Prop38
140
0.0
102
RTVSPost2010PropOp38
 70
     1
102
RTVSPost2010Prop39
140
1.0
102
RTVSPost2010PropOp39
 70
     1
102
RTVSPost2010Prop40
 90
        0
102
RTVSPost2010PropOp40
 70
     1
102
RTVSPost2010Prop41ColorIndex
 90
       18
102
RTVSPost2010Prop41ColorRGB
 90
        0
102
RTVSPost2010PropOp41
 70
     1
102
RTVSPost2010Prop42
 90
       50
102
RTVSPost2010PropOp42
 70
     1
102
RTVSPost2010Prop43
 90
        3
102
RTVSPost2010PropOp43
 70
     1
102
RTVSPost2010Prop44ColorIndex
 90
        5
102
RTVSPost2010Prop44ColorRGB
 90
      255
102
RTVSPost2010PropOp44
 70
     1
102
RTVSPost2010Prop45
280
     0
102
RTVSPost2010PropOp45
 70
     1
102
RTVSPost2010Prop46
 90
       50
102
RTVSPost2010PropOp46
 70
     1
102
RTVSPost2010Prop47
 90
       50
102
RTVSPost2010PropOp47
 70
     1
102
RTVSPost2010Prop48
 90
       50
102
RTVSPost2010PropOp48
 70
     1
102
RTVSPost2010Prop49
280
     0
102
RTVSPost2010PropOp49
 70
     1
102
RTVSPost2010Prop50
 90
       50
102
RTVSPost2010PropOp50
 70
     1
102
RTVSPost2010Prop51ColorIndex
 90
      256
102
RTVSPost2010Prop51ColorRGB
 90
-16777216
102
RTVSPost2010PropOp51
 70
     0
102
RTVSPost2010Prop52
140
1.0
102
RTVSPost2010PropOp52
 70
     0
102
RTVSPost2010Prop53
 90
        2
102
RTVSPost2010PropOp53
 70
     1
102
RTVSPost2010Prop54
  1
strokes_ogs.tif
102
RTVSPost2010PropOp54
 70
     1
102
RTVSPost2010Prop55
280
     0
102
RTVSPost2010PropOp55
 70
     1
102
RTVSPost2010Prop56
140
1.0
102
RTVSPost2010PropOp56
 70
     1
102
RTVSPost2010Prop57
140
1.0
102
RTVSPost2010PropOp57
 70
     1
102
RTVSPropertyOp0
 70
     1
102
RTVSPropertyOp1
 70
     1
102
RTVSPropertyOp2
 70
     1
102
RTVSPropertyOp3
 70
     1
102
RTVSPropertyOp4
 70
     1
102
RTVSPropertyOp5
 70
     1
102
RTVSPropertyOp6
 70
     1
102
RTVSPropertyOp7
 70
     1
102
RTVSPropertyOp8
 70
     1
102
RTVSPropertyOp9
 70
     1
102
RTVSPropertyOp10
 70
     1
102
RTVSPropertyOp11
 70
     1
102
RTVSPropertyOp12
 70
     1
102
RTVSPropertyOp13
 70
     1
102
RTVSPropertyOp14
 70
     1
102
RTVSPropertyOp15
 70
     1
102
RTVSPropertyOp16
 70
     1
102
RTVSPropertyOp17
 70
     1
102
RTVSPropertyOp18
 70
     1
102
RTVSPropertyOp19
 70
     1
102
RTVSPropertyOp20
 70
     1
102
RTVSPropertyOp21
 70
     1
102
RTVSPropertyOp22
 70
     1
102
RTVSPropertyOp23
 70
     1
102
RTVSPropertyOp24
 70
     1
102
RTVSPropertyOp25
 70
     1
102
RTVSPropertyOp26
 70
     1
102
RTVSPropertyOp27
 70
     1
102
RTVSPropertyOp28
 70
     1
102
RTVSPropertyOp29
 70
     1
102
RTVSPropertyOp30
 70
     1
102
RTVSPropertyOp31
 70
     1
102
RTVSPropertyOp32
 70
     1
102
RTVSPropertyOp33
 70
     1
102
RTVSPropertyOp34
 70
     1
102
RTVSPropertyOp35
 70
     1
102
RTVSPropertyOp36
 70
     1
102
RTVSPropertyOp37
 70
     1
102
RTVSPropertyOp38
 70
     1
102
RTVSPropertyOp39
 70
     1
102
RTVSPropertyOp40
 70
     1
102
RTVSPropertyOp41
 70
     1
102
RTVSPropertyOp42
 70
     1
102
RTVSPropertyOp43
 70
     1
102
RTVSPropertyOp44
 70
     1
102
RTVSPropertyOp45
 70
     1
102
RTVSPropertyOp46
 70
     1
102
RTVSPropertyOp47
 70
     1
102
RTVSPropertyOp48
 70
     1
102
RTVSPropertyOp49
 70
     1
102
RTVSPropertyOp50
 70
     1
102
RTVSPropertyOp51
 70
     0
102
RTVSPropertyOp52
 70
     0
102
RTVSPropertyOp53
 70
     1
102
RTVSPropertyOp54
 70
     1
102
RTVSPropertyOp55
 70
     1
102
RTVSPropertyOp56
 70
     1
102
RTVSPropertyOp57
 70
     1
102
RTVSPropertyOp58
 70
     1
102
RTVSPropertyOp59
 70
     1
102
RTVSPropertyOp60
 70
     1
102
RTVSPropertyOp61
 70
     1
102
RTVSPropertyOp62
 70
     1
  0
XRECORD
  5
CA64
102
{ACAD_REACTORS
330
CA63
102
}
330
CA63
100
AcDbXrecord
280
     1
102
RTVSPost2010Prop28
280
     0
102
RTVSPost2010PropOp28
 70
     1
102
RTVSPost2010Prop29
280
     1
102
RTVSPost2010PropOp29
 70
     1
102
RTVSPost2010Prop30
280
     1
102
RTVSPost2010PropOp30
 70
     1
102
RTVSPost2010Prop31
280
     0
102
RTVSPost2010PropOp31
 70
     1
102
RTVSPost2010Prop32
280
     0
102
RTVSPost2010PropOp32
 70
     1
102
RTVSPost2010Prop33
280
     0
102
RTVSPost2010PropOp33
 70
     1
102
RTVSPost2010Prop34
280
     0
102
RTVSPost2010PropOp34
 70
     1
102
RTVSPost2010Prop35
280
     0
102
RTVSPost2010PropOp35
 70
     1
102
RTVSPost2010Prop36
280
     0
102
RTVSPost2010PropOp36
 70
     1
102
RTVSPost2010Prop37
 90
       50
102
RTVSPost2010PropOp37
 70
     1
102
RTVSPost2010Prop38
140
0.0
102
RTVSPost2010PropOp38
 70
     1
102
RTVSPost2010Prop39
140
1.0
102
RTVSPost2010PropOp39
 70
     1
102
RTVSPost2010Prop40
 90
        0
102
RTVSPost2010PropOp40
 70
     1
102
RTVSPost2010Prop41ColorIndex
 90
       18
102
RTVSPost2010Prop41ColorRGB
 90
        0
102
RTVSPost2010PropOp41
 70
     1
102
RTVSPost2010Prop42
 90
       50
102
RTVSPost2010PropOp42
 70
     1
102
RTVSPost2010Prop43
 90
        3
102
RTVSPost2010PropOp43
 70
     1
102
RTVSPost2010Prop44ColorIndex
 90
        5
102
RTVSPost2010Prop44ColorRGB
 90
      255
102
RTVSPost2010PropOp44
 70
     1
102
RTVSPost2010Prop45
280
     0
102
RTVSPost2010PropOp45
 70
     1
102
RTVSPost2010Prop46
 90
       50
102
RTVSPost2010PropOp46
 70
     1
102
RTVSPost2010Prop47
 90
       50
102
RTVSPost2010PropOp47
 70
     1
102
RTVSPost2010Prop48
 90
       50
102
RTVSPost2010PropOp48
 70
     1
102
RTVSPost2010Prop49
280
     0
102
RTVSPost2010PropOp49
 70
     1
102
RTVSPost2010Prop50
 90
       50
102
RTVSPost2010PropOp50
 70
     1
102
RTVSPost2010Prop51ColorIndex
 90
      256
102
RTVSPost2010Prop51ColorRGB
 90
-16777216
102
RTVSPost2010PropOp51
 70
     0
102
RTVSPost2010Prop52
140
1.0
102
RTVSPost2010PropOp52
 70
     0
102
RTVSPost2010Prop53
 90
        2
102
RTVSPost2010PropOp53
 70
     1
102
RTVSPost2010Prop54
  1
strokes_ogs.tif
102
RTVSPost2010PropOp54
 70
     1
102
RTVSPost2010Prop55
280
     0
102
RTVSPost2010PropOp55
 70
     1
102
RTVSPost2010Prop56
140
1.0
102
RTVSPost2010PropOp56
 70
     1
102
RTVSPost2010Prop57
140
1.0
102
RTVSPost2010PropOp57
 70
     1
102
RTVSPropertyOp0
 70
     1
102
RTVSPropertyOp1
 70
     1
102
RTVSPropertyOp2
 70
     1
102
RTVSPropertyOp3
 70
     1
102
RTVSPropertyOp4
 70
     1
102
RTVSPropertyOp5
 70
     1
102
RTVSPropertyOp6
 70
     1
102
RTVSPropertyOp7
 70
     1
102
RTVSPropertyOp8
 70
     1
102
RTVSPropertyOp9
 70
     1
102
RTVSPropertyOp10
 70
     1
102
RTVSPropertyOp11
 70
     1
102
RTVSPropertyOp12
 70
     1
102
RTVSPropertyOp13
 70
     1
102
RTVSPropertyOp14
 70
     1
102
RTVSPropertyOp15
 70
     1
102
RTVSPropertyOp16
 70
     1
102
RTVSPropertyOp17
 70
     1
102
RTVSPropertyOp18
 70
     1
102
RTVSPropertyOp19
 70
     1
102
RTVSPropertyOp20
 70
     1
102
RTVSPropertyOp21
 70
     1
102
RTVSPropertyOp22
 70
     1
102
RTVSPropertyOp23
 70
     1
102
RTVSPropertyOp24
 70
     1
102
RTVSPropertyOp25
 70
     1
102
RTVSPropertyOp26
 70
     1
102
RTVSPropertyOp27
 70
     1
102
RTVSPropertyOp28
 70
     1
102
RTVSPropertyOp29
 70
     1
102
RTVSPropertyOp30
 70
     1
102
RTVSPropertyOp31
 70
     1
102
RTVSPropertyOp32
 70
     1
102
RTVSPropertyOp33
 70
     1
102
RTVSPropertyOp34
 70
     1
102
RTVSPropertyOp35
 70
     1
102
RTVSPropertyOp36
 70
     1
102
RTVSPropertyOp37
 70
     1
102
RTVSPropertyOp38
 70
     1
102
RTVSPropertyOp39
 70
     1
102
RTVSPropertyOp40
 70
     1
102
RTVSPropertyOp41
 70
     1
102
RTVSPropertyOp42
 70
     1
102
RTVSPropertyOp43
 70
     1
102
RTVSPropertyOp44
 70
     1
102
RTVSPropertyOp45
 70
     1
102
RTVSPropertyOp46
 70
     1
102
RTVSPropertyOp47
 70
     1
102
RTVSPropertyOp48
 70
     1
102
RTVSPropertyOp49
 70
     1
102
RTVSPropertyOp50
 70
     1
102
RTVSPropertyOp51
 70
     0
102
RTVSPropertyOp52
 70
     0
102
RTVSPropertyOp53
 70
     1
102
RTVSPropertyOp54
 70
     1
102
RTVSPropertyOp55
 70
     1
102
RTVSPropertyOp56
 70
     1
102
RTVSPropertyOp57
 70
     1
102
RTVSPropertyOp58
 70
     1
102
RTVSPropertyOp59
 70
     1
102
RTVSPropertyOp60
 70
     1
102
RTVSPropertyOp61
 70
     1
102
RTVSPropertyOp62
 70
     1
  0
XRECORD
  5
CA5A
102
{ACAD_REACTORS
330
CA59
102
}
330
CA59
100
AcDbXrecord
280
     1
102
RTVSPost2010Prop28
280
     0
102
RTVSPost2010PropOp28
 70
     1
102
RTVSPost2010Prop29
280
     1
102
RTVSPost2010PropOp29
 70
     1
102
RTVSPost2010Prop30
280
     1
102
RTVSPost2010PropOp30
 70
     1
102
RTVSPost2010Prop31
280
     0
102
RTVSPost2010PropOp31
 70
     1
102
RTVSPost2010Prop32
280
     0
102
RTVSPost2010PropOp32
 70
     1
102
RTVSPost2010Prop33
280
     0
102
RTVSPost2010PropOp33
 70
     1
102
RTVSPost2010Prop34
280
     0
102
RTVSPost2010PropOp34
 70
     1
102
RTVSPost2010Prop35
280
     0
102
RTVSPost2010PropOp35
 70
     1
102
RTVSPost2010Prop36
280
     0
102
RTVSPost2010PropOp36
 70
     1
102
RTVSPost2010Prop37
 90
       50
102
RTVSPost2010PropOp37
 70
     1
102
RTVSPost2010Prop38
140
0.0
102
RTVSPost2010PropOp38
 70
     1
102
RTVSPost2010Prop39
140
1.0
102
RTVSPost2010PropOp39
 70
     1
102
RTVSPost2010Prop40
 90
        0
102
RTVSPost2010PropOp40
 70
     1
102
RTVSPost2010Prop41ColorIndex
 90
       18
102
RTVSPost2010Prop41ColorRGB
 90
        0
102
RTVSPost2010PropOp41
 70
     1
102
RTVSPost2010Prop42
 90
       50
102
RTVSPost2010PropOp42
 70
     1
102
RTVSPost2010Prop43
 90
        3
102
RTVSPost2010PropOp43
 70
     1
102
RTVSPost2010Prop44ColorIndex
 90
        5
102
RTVSPost2010Prop44ColorRGB
 90
      255
102
RTVSPost2010PropOp44
 70
     1
102
RTVSPost2010Prop45
280
     0
102
RTVSPost2010PropOp45
 70
     1
102
RTVSPost2010Prop46
 90
       50
102
RTVSPost2010PropOp46
 70
     1
102
RTVSPost2010Prop47
 90
       50
102
RTVSPost2010PropOp47
 70
     1
102
RTVSPost2010Prop48
 90
       50
102
RTVSPost2010PropOp48
 70
     1
102
RTVSPost2010Prop49
280
     0
102
RTVSPost2010PropOp49
 70
     1
102
RTVSPost2010Prop50
 90
       50
102
RTVSPost2010PropOp50
 70
     1
102
RTVSPost2010Prop51ColorIndex
 90
      256
102
RTVSPost2010Prop51ColorRGB
 90
-16777216
102
RTVSPost2010PropOp51
 70
     0
102
RTVSPost2010Prop52
140
1.0
102
RTVSPost2010PropOp52
 70
     0
102
RTVSPost2010Prop53
 90
        2
102
RTVSPost2010PropOp53
 70
     1
102
RTVSPost2010Prop54
  1
strokes_ogs.tif
102
RTVSPost2010PropOp54
 70
     1
102
RTVSPost2010Prop55
280
     0
102
RTVSPost2010PropOp55
 70
     1
102
RTVSPost2010Prop56
140
1.0
102
RTVSPost2010PropOp56
 70
     1
102
RTVSPost2010Prop57
140
1.0
102
RTVSPost2010PropOp57
 70
     1
102
RTVSPropertyOp0
 70
     1
102
RTVSPropertyOp1
 70
     1
102
RTVSPropertyOp2
 70
     1
102
RTVSPropertyOp3
 70
     1
102
RTVSPropertyOp4
 70
     1
102
RTVSPropertyOp5
 70
     1
102
RTVSPropertyOp6
 70
     1
102
RTVSPropertyOp7
 70
     1
102
RTVSPropertyOp8
 70
     1
102
RTVSPropertyOp9
 70
     1
102
RTVSPropertyOp10
 70
     1
102
RTVSPropertyOp11
 70
     1
102
RTVSPropertyOp12
 70
     1
102
RTVSPropertyOp13
 70
     1
102
RTVSPropertyOp14
 70
     1
102
RTVSPropertyOp15
 70
     1
102
RTVSPropertyOp16
 70
     1
102
RTVSPropertyOp17
 70
     1
102
RTVSPropertyOp18
 70
     1
102
RTVSPropertyOp19
 70
     1
102
RTVSPropertyOp20
 70
     1
102
RTVSPropertyOp21
 70
     1
102
RTVSPropertyOp22
 70
     1
102
RTVSPropertyOp23
 70
     1
102
RTVSPropertyOp24
 70
     1
102
RTVSPropertyOp25
 70
     1
102
RTVSPropertyOp26
 70
     1
102
RTVSPropertyOp27
 70
     1
102
RTVSPropertyOp28
 70
     1
102
RTVSPropertyOp29
 70
     1
102
RTVSPropertyOp30
 70
     1
102
RTVSPropertyOp31
 70
     1
102
RTVSPropertyOp32
 70
     1
102
RTVSPropertyOp33
 70
     1
102
RTVSPropertyOp34
 70
     1
102
RTVSPropertyOp35
 70
     1
102
RTVSPropertyOp36
 70
     1
102
RTVSPropertyOp37
 70
     1
102
RTVSPropertyOp38
 70
     1
102
RTVSPropertyOp39
 70
     1
102
RTVSPropertyOp40
 70
     1
102
RTVSPropertyOp41
 70
     1
102
RTVSPropertyOp42
 70
     1
102
RTVSPropertyOp43
 70
     1
102
RTVSPropertyOp44
 70
     1
102
RTVSPropertyOp45
 70
     1
102
RTVSPropertyOp46
 70
     1
102
RTVSPropertyOp47
 70
     1
102
RTVSPropertyOp48
 70
     1
102
RTVSPropertyOp49
 70
     1
102
RTVSPropertyOp50
 70
     1
102
RTVSPropertyOp51
 70
     0
102
RTVSPropertyOp52
 70
     0
102
RTVSPropertyOp53
 70
     1
102
RTVSPropertyOp54
 70
     1
102
RTVSPropertyOp55
 70
     1
102
RTVSPropertyOp56
 70
     1
102
RTVSPropertyOp57
 70
     1
102
RTVSPropertyOp58
 70
     1
102
RTVSPropertyOp59
 70
     1
102
RTVSPropertyOp60
 70
     1
102
RTVSPropertyOp61
 70
     1
102
RTVSPropertyOp62
 70
     1
  0
XRECORD
  5
CA4E
102
{ACAD_REACTORS
330
CA4D
102
}
330
CA4D
100
AcDbXrecord
280
     1
102
RTVSPost2010Prop28
280
     0
102
RTVSPost2010PropOp28
 70
     1
102
RTVSPost2010Prop29
280
     1
102
RTVSPost2010PropOp29
 70
     1
102
RTVSPost2010Prop30
280
     1
102
RTVSPost2010PropOp30
 70
     1
102
RTVSPost2010Prop31
280
     0
102
RTVSPost2010PropOp31
 70
     1
102
RTVSPost2010Prop32
280
     0
102
RTVSPost2010PropOp32
 70
     1
102
RTVSPost2010Prop33
280
     0
102
RTVSPost2010PropOp33
 70
     1
102
RTVSPost2010Prop34
280
     0
102
RTVSPost2010PropOp34
 70
     1
102
RTVSPost2010Prop35
280
     0
102
RTVSPost2010PropOp35
 70
     1
102
RTVSPost2010Prop36
280
     0
102
RTVSPost2010PropOp36
 70
     1
102
RTVSPost2010Prop37
 90
       50
102
RTVSPost2010PropOp37
 70
     1
102
RTVSPost2010Prop38
140
0.0
102
RTVSPost2010PropOp38
 70
     1
102
RTVSPost2010Prop39
140
1.0
102
RTVSPost2010PropOp39
 70
     1
102
RTVSPost2010Prop40
 90
        0
102
RTVSPost2010PropOp40
 70
     1
102
RTVSPost2010Prop41ColorIndex
 90
       18
102
RTVSPost2010Prop41ColorRGB
 90
        0
102
RTVSPost2010PropOp41
 70
     1
102
RTVSPost2010Prop42
 90
       50
102
RTVSPost2010PropOp42
 70
     1
102
RTVSPost2010Prop43
 90
        3
102
RTVSPost2010PropOp43
 70
     1
102
RTVSPost2010Prop44ColorIndex
 90
        5
102
RTVSPost2010Prop44ColorRGB
 90
      255
102
RTVSPost2010PropOp44
 70
     1
102
RTVSPost2010Prop45
280
     0
102
RTVSPost2010PropOp45
 70
     1
102
RTVSPost2010Prop46
 90
       50
102
RTVSPost2010PropOp46
 70
     1
102
RTVSPost2010Prop47
 90
       50
102
RTVSPost2010PropOp47
 70
     1
102
RTVSPost2010Prop48
 90
       50
102
RTVSPost2010PropOp48
 70
     1
102
RTVSPost2010Prop49
280
     0
102
RTVSPost2010PropOp49
 70
     1
102
RTVSPost2010Prop50
 90
       50
102
RTVSPost2010PropOp50
 70
     1
102
RTVSPost2010Prop51ColorIndex
 90
      256
102
RTVSPost2010Prop51ColorRGB
 90
-16777216
102
RTVSPost2010PropOp51
 70
     0
102
RTVSPost2010Prop52
140
1.0
102
RTVSPost2010PropOp52
 70
     0
102
RTVSPost2010Prop53
 90
        2
102
RTVSPost2010PropOp53
 70
     1
102
RTVSPost2010Prop54
  1
strokes_ogs.tif
102
RTVSPost2010PropOp54
 70
     1
102
RTVSPost2010Prop55
280
     0
102
RTVSPost2010PropOp55
 70
     1
102
RTVSPost2010Prop56
140
1.0
102
RTVSPost2010PropOp56
 70
     1
102
RTVSPost2010Prop57
140
1.0
102
RTVSPost2010PropOp57
 70
     1
102
RTVSPropertyOp0
 70
     1
102
RTVSPropertyOp1
 70
     1
102
RTVSPropertyOp2
 70
     1
102
RTVSPropertyOp3
 70
     1
102
RTVSPropertyOp4
 70
     1
102
RTVSPropertyOp5
 70
     1
102
RTVSPropertyOp6
 70
     1
102
RTVSPropertyOp7
 70
     1
102
RTVSPropertyOp8
 70
     1
102
RTVSPropertyOp9
 70
     1
102
RTVSPropertyOp10
 70
     1
102
RTVSPropertyOp11
 70
     1
102
RTVSPropertyOp12
 70
     1
102
RTVSPropertyOp13
 70
     1
102
RTVSPropertyOp14
 70
     1
102
RTVSPropertyOp15
 70
     1
102
RTVSPropertyOp16
 70
     1
102
RTVSPropertyOp17
 70
     1
102
RTVSPropertyOp18
 70
     1
102
RTVSPropertyOp19
 70
     1
102
RTVSPropertyOp20
 70
     1
102
RTVSPropertyOp21
 70
     1
102
RTVSPropertyOp22
 70
     1
102
RTVSPropertyOp23
 70
     1
102
RTVSPropertyOp24
 70
     1
102
RTVSPropertyOp25
 70
     1
102
RTVSPropertyOp26
 70
     1
102
RTVSPropertyOp27
 70
     1
102
RTVSPropertyOp28
 70
     1
102
RTVSPropertyOp29
 70
     1
102
RTVSPropertyOp30
 70
     1
102
RTVSPropertyOp31
 70
     1
102
RTVSPropertyOp32
 70
     1
102
RTVSPropertyOp33
 70
     1
102
RTVSPropertyOp34
 70
     1
102
RTVSPropertyOp35
 70
     1
102
RTVSPropertyOp36
 70
     1
102
RTVSPropertyOp37
 70
     1
102
RTVSPropertyOp38
 70
     1
102
RTVSPropertyOp39
 70
     1
102
RTVSPropertyOp40
 70
     1
102
RTVSPropertyOp41
 70
     1
102
RTVSPropertyOp42
 70
     1
102
RTVSPropertyOp43
 70
     1
102
RTVSPropertyOp44
 70
     1
102
RTVSPropertyOp45
 70
     1
102
RTVSPropertyOp46
 70
     1
102
RTVSPropertyOp47
 70
     1
102
RTVSPropertyOp48
 70
     1
102
RTVSPropertyOp49
 70
     1
102
RTVSPropertyOp50
 70
     1
102
RTVSPropertyOp51
 70
     0
102
RTVSPropertyOp52
 70
     0
102
RTVSPropertyOp53
 70
     1
102
RTVSPropertyOp54
 70
     1
102
RTVSPropertyOp55
 70
     1
102
RTVSPropertyOp56
 70
     1
102
RTVSPropertyOp57
 70
     1
102
RTVSPropertyOp58
 70
     1
102
RTVSPropertyOp59
 70
     1
102
RTVSPropertyOp60
 70
     1
102
RTVSPropertyOp61
 70
     1
102
RTVSPropertyOp62
 70
     1
  0
XRECORD
  5
CA66
102
{ACAD_REACTORS
330
CA65
102
}
330
CA65
100
AcDbXrecord
280
     1
102
RTVSPost2010Prop28
280
     0
102
RTVSPost2010PropOp28
 70
     1
102
RTVSPost2010Prop29
280
     1
102
RTVSPost2010PropOp29
 70
     1
102
RTVSPost2010Prop30
280
     1
102
RTVSPost2010PropOp30
 70
     1
102
RTVSPost2010Prop31
280
     0
102
RTVSPost2010PropOp31
 70
     1
102
RTVSPost2010Prop32
280
     0
102
RTVSPost2010PropOp32
 70
     1
102
RTVSPost2010Prop33
280
     0
102
RTVSPost2010PropOp33
 70
     1
102
RTVSPost2010Prop34
280
     0
102
RTVSPost2010PropOp34
 70
     1
102
RTVSPost2010Prop35
280
     0
102
RTVSPost2010PropOp35
 70
     1
102
RTVSPost2010Prop36
280
     0
102
RTVSPost2010PropOp36
 70
     1
102
RTVSPost2010Prop37
 90
       50
102
RTVSPost2010PropOp37
 70
     1
102
RTVSPost2010Prop38
140
0.0
102
RTVSPost2010PropOp38
 70
     1
102
RTVSPost2010Prop39
140
1.0
102
RTVSPost2010PropOp39
 70
     1
102
RTVSPost2010Prop40
 90
        0
102
RTVSPost2010PropOp40
 70
     1
102
RTVSPost2010Prop41ColorIndex
 90
       18
102
RTVSPost2010Prop41ColorRGB
 90
        0
102
RTVSPost2010PropOp41
 70
     1
102
RTVSPost2010Prop42
 90
       50
102
RTVSPost2010PropOp42
 70
     1
102
RTVSPost2010Prop43
 90
        3
102
RTVSPost2010PropOp43
 70
     1
102
RTVSPost2010Prop44ColorIndex
 90
        5
102
RTVSPost2010Prop44ColorRGB
 90
      255
102
RTVSPost2010PropOp44
 70
     1
102
RTVSPost2010Prop45
280
     0
102
RTVSPost2010PropOp45
 70
     1
102
RTVSPost2010Prop46
 90
       50
102
RTVSPost2010PropOp46
 70
     1
102
RTVSPost2010Prop47
 90
       50
102
RTVSPost2010PropOp47
 70
     1
102
RTVSPost2010Prop48
 90
       50
102
RTVSPost2010PropOp48
 70
     1
102
RTVSPost2010Prop49
280
     0
102
RTVSPost2010PropOp49
 70
     1
102
RTVSPost2010Prop50
 90
       50
102
RTVSPost2010PropOp50
 70
     1
102
RTVSPost2010Prop51ColorIndex
 90
      256
102
RTVSPost2010Prop51ColorRGB
 90
-16777216
102
RTVSPost2010PropOp51
 70
     0
102
RTVSPost2010Prop52
140
1.0
102
RTVSPost2010PropOp52
 70
     0
102
RTVSPost2010Prop53
 90
        2
102
RTVSPost2010PropOp53
 70
     1
102
RTVSPost2010Prop54
  1
strokes_ogs.tif
102
RTVSPost2010PropOp54
 70
     1
102
RTVSPost2010Prop55
280
     0
102
RTVSPost2010PropOp55
 70
     1
102
RTVSPost2010Prop56
140
1.0
102
RTVSPost2010PropOp56
 70
     1
102
RTVSPost2010Prop57
140
1.0
102
RTVSPost2010PropOp57
 70
     1
102
RTVSPropertyOp0
 70
     1
102
RTVSPropertyOp1
 70
     1
102
RTVSPropertyOp2
 70
     1
102
RTVSPropertyOp3
 70
     1
102
RTVSPropertyOp4
 70
     1
102
RTVSPropertyOp5
 70
     1
102
RTVSPropertyOp6
 70
     1
102
RTVSPropertyOp7
 70
     1
102
RTVSPropertyOp8
 70
     1
102
RTVSPropertyOp9
 70
     1
102
RTVSPropertyOp10
 70
     1
102
RTVSPropertyOp11
 70
     1
102
RTVSPropertyOp12
 70
     1
102
RTVSPropertyOp13
 70
     1
102
RTVSPropertyOp14
 70
     1
102
RTVSPropertyOp15
 70
     1
102
RTVSPropertyOp16
 70
     1
102
RTVSPropertyOp17
 70
     1
102
RTVSPropertyOp18
 70
     1
102
RTVSPropertyOp19
 70
     1
102
RTVSPropertyOp20
 70
     1
102
RTVSPropertyOp21
 70
     1
102
RTVSPropertyOp22
 70
     1
102
RTVSPropertyOp23
 70
     1
102
RTVSPropertyOp24
 70
     1
102
RTVSPropertyOp25
 70
     1
102
RTVSPropertyOp26
 70
     1
102
RTVSPropertyOp27
 70
     1
102
RTVSPropertyOp28
 70
     1
102
RTVSPropertyOp29
 70
     1
102
RTVSPropertyOp30
 70
     1
102
RTVSPropertyOp31
 70
     1
102
RTVSPropertyOp32
 70
     1
102
RTVSPropertyOp33
 70
     1
102
RTVSPropertyOp34
 70
     1
102
RTVSPropertyOp35
 70
     1
102
RTVSPropertyOp36
 70
     1
102
RTVSPropertyOp37
 70
     1
102
RTVSPropertyOp38
 70
     1
102
RTVSPropertyOp39
 70
     1
102
RTVSPropertyOp40
 70
     1
102
RTVSPropertyOp41
 70
     1
102
RTVSPropertyOp42
 70
     1
102
RTVSPropertyOp43
 70
     1
102
RTVSPropertyOp44
 70
     1
102
RTVSPropertyOp45
 70
     1
102
RTVSPropertyOp46
 70
     1
102
RTVSPropertyOp47
 70
     1
102
RTVSPropertyOp48
 70
     1
102
RTVSPropertyOp49
 70
     1
102
RTVSPropertyOp50
 70
     1
102
RTVSPropertyOp51
 70
     0
102
RTVSPropertyOp52
 70
     0
102
RTVSPropertyOp53
 70
     1
102
RTVSPropertyOp54
 70
     1
102
RTVSPropertyOp55
 70
     1
102
RTVSPropertyOp56
 70
     1
102
RTVSPropertyOp57
 70
     1
102
RTVSPropertyOp58
 70
     1
102
RTVSPropertyOp59
 70
     1
102
RTVSPropertyOp60
 70
     1
102
RTVSPropertyOp61
 70
     1
102
RTVSPropertyOp62
 70
     1
  0
ENDSEC
  0
EOF
