  0
SECTION
  2
HEADER
  9
$ACADVER
  1
AC1015
  9
$ACADMAINTVER
 70
    20
  9
$DWGCODEPAGE
  3
ANSI_932
  9
$INSBASE
 10
0.0
 20
0.0
 30
0.0
  9
$EXTMIN
 10
10.0
 20
9.999999999999998
 30
0.0
  9
$EXTMAX
 10
356.345952
 20
335.2975779999998
 30
0.0
  9
$LIMMIN
 10
0.0
 20
0.0
  9
$LIMMAX
 10
593.999999
 20
409.4999999999997
  9
$ORTHOMODE
 70
     0
  9
$REGENMODE
 70
     1
  9
$FILLMODE
 70
     1
  9
$QTEXTMODE
 70
     0
  9
$MIRRTEXT
 70
     1
  9
$LTSCALE
 40
20.0
  9
$ATTMODE
 70
     1
  9
$TEXTSIZE
 40
5.0
  9
$TRACEWID
 40
1.0
  9
$TEXTSTYLE
  7
STANDARD
  9
$CLAYER
  8
0
  9
$CELTYPE
  6
BYLAYER
  9
$CECOLOR
 62
   256
  9
$CELTSCALE
 40
1.0
  9
$DISPSILH
 70
     0
  9
$DIMSCALE
 40
1.0
  9
$DIMASZ
 40
2.5
  9
$DIMEXO
 40
1.0
  9
$DIMDLI
 40
10.0
  9
$DIMRND
 40
0.0
  9
$DIMDLE
 40
0.0
  9
$DIMEXE
 40
1.0
  9
$DIMTP
 40
0.0
  9
$DIMTM
 40
0.0
  9
$DIMTXT
 40
3.2
  9
$DIMCEN
 40
0.0
  9
$DIMTSZ
 40
0.0
  9
$DIMTOL
 70
     0
  9
$DIMLIM
 70
     0
  9
$DIMTIH
 70
     0
  9
$DIMTOH
 70
     0
  9
$DIMSE1
 70
     0
  9
$DIMSE2
 70
     0
  9
$DIMTAD
 70
     3
  9
$DIMZIN
 70
     8
  9
$DIMBLK
  1

  9
$DIMASO
 70
     1
  9
$DIMSHO
 70
     1
  9
$DIMPOST
  1

  9
$DIMAPOST
  1

  9
$DIMALT
 70
     0
  9
$DIMALTD
 70
     2
  9
$DIMALTF
 40
25.4
  9
$DIMLFAC
 40
1.0
  9
$DIMTOFL
 70
     1
  9
$DIMTVP
 40
0.0
  9
$DIMTIX
 70
     0
  9
$DIMSOXD
 70
     0
  9
$DIMSAH
 70
     1
  9
$DIMBLK1
  1

  9
$DIMBLK2
  1

  9
$DIMSTYLE
  2
STANDARD
  9
$DIMCLRD
 70
     0
  9
$DIMCLRE
 70
     0
  9
$DIMCLRT
 70
     0
  9
$DIMTFAC
 40
1.0
  9
$DIMGAP
 40
1.0
  9
$DIMJUST
 70
     0
  9
$DIMSD1
 70
     0
  9
$DIMSD2
 70
     0
  9
$DIMTOLJ
 70
     1
  9
$DIMTZIN
 70
     0
  9
$DIMALTZ
 70
     0
  9
$DIMALTTZ
 70
     0
  9
$DIMUPT
 70
     0
  9
$DIMDEC
 70
     4
  9
$DIMTDEC
 70
     4
  9
$DIMALTU
 70
     2
  9
$DIMALTTD
 70
     2
  9
$DIMTXSTY
  7
STANDARD
  9
$DIMAUNIT
 70
     0
  9
$DIMADEC
 70
     0
  9
$DIMALTRND
 40
0.0
  9
$DIMAZIN
 70
     0
  9
$DIMDSEP
 70
    46
  9
$DIMATFIT
 70
     3
  9
$DIMFRAC
 70
     0
  9
$DIMLDRBLK
  1

  9
$DIMLUNIT
 70
     2
  9
$DIMLWD
 70
    -2
  9
$DIMLWE
 70
    -2
  9
$DIMTMOVE
 70
     0
  9
$LUNITS
 70
     2
  9
$LUPREC
 70
     4
  9
$SKETCHINC
 40
1.0
  9
$FILLETRAD
 40
4.599999999999997
  9
$AUNITS
 70
     0
  9
$AUPREC
 70
     2
  9
$MENU
  1
.
  9
$ELEVATION
 40
0.0
  9
$PELEVATION
 40
0.0
  9
$THICKNESS
 40
0.0
  9
$LIMCHECK
 70
     0
  9
$CHAMFERA
 40
10.0
  9
$CHAMFERB
 40
10.0
  9
$CHAMFERC
 40
0.0
  9
$CHAMFERD
 40
0.0
  9
$SKPOLY
 70
     0
  9
$TDCREATE
 40
2451296.793320487
  9
$TDUCREATE
 40
2451296.418320486
  9
$TDUPDATE
 40
2457192.658223426
  9
$TDUUPDATE
 40
2457192.283223426
  9
$TDINDWG
 40
0.0000109954
  9
$TDUSRTIMER
 40
0.0000106829
  9
$USRTIMER
 70
     1
  9
$ANGBASE
 50
0.0
  9
$ANGDIR
 70
     0
  9
$PDMODE
 70
     0
  9
$PDSIZE
 40
0.0
  9
$PLINEWID
 40
0.0
  9
$SPLFRAME
 70
     0
  9
$SPLINETYPE
 70
     6
  9
$SPLINESEGS
 70
     8
  9
$HANDSEED
  5
C53C
  9
$SURFTAB1
 70
     6
  9
$SURFTAB2
 70
     6
  9
$SURFTYPE
 70
     6
  9
$SURFU
 70
     6
  9
$SURFV
 70
     6
  9
$UCSBASE
  2

  9
$UCSNAME
  2

  9
$UCSORG
 10
0.0
 20
0.0
 30
0.0
  9
$UCSXDIR
 10
1.0
 20
0.0
 30
0.0
  9
$UCSYDIR
 10
0.0
 20
1.0
 30
0.0
  9
$UCSORTHOREF
  2

  9
$UCSORTHOVIEW
 70
     0
  9
$UCSORGTOP
 10
0.0
 20
0.0
 30
0.0
  9
$UCSORGBOTTOM
 10
0.0
 20
0.0
 30
0.0
  9
$UCSORGLEFT
 10
0.0
 20
0.0
 30
0.0
  9
$UCSORGRIGHT
 10
0.0
 20
0.0
 30
0.0
  9
$UCSORGFRONT
 10
0.0
 20
0.0
 30
0.0
  9
$UCSORGBACK
 10
0.0
 20
0.0
 30
0.0
  9
$PUCSBASE
  2

  9
$PUCSNAME
  2

  9
$PUCSORG
 10
0.0
 20
0.0
 30
0.0
  9
$PUCSXDIR
 10
1.0
 20
0.0
 30
0.0
  9
$PUCSYDIR
 10
0.0
 20
1.0
 30
0.0
  9
$PUCSORTHOREF
  2

  9
$PUCSORTHOVIEW
 70
     0
  9
$PUCSORGTOP
 10
0.0
 20
0.0
 30
0.0
  9
$PUCSORGBOTTOM
 10
0.0
 20
0.0
 30
0.0
  9
$PUCSORGLEFT
 10
0.0
 20
0.0
 30
0.0
  9
$PUCSORGRIGHT
 10
0.0
 20
0.0
 30
0.0
  9
$PUCSORGFRONT
 10
0.0
 20
0.0
 30
0.0
  9
$PUCSORGBACK
 10
0.0
 20
0.0
 30
0.0
  9
$USERI1
 70
     0
  9
$USERI2
 70
     0
  9
$USERI3
 70
     0
  9
$USERI4
 70
     0
  9
$USERI5
 70
     0
  9
$USERR1
 40
0.0
  9
$USERR2
 40
0.0
  9
$USERR3
 40
0.0
  9
$USERR4
 40
0.0
  9
$USERR5
 40
0.0
  9
$WORLDVIEW
 70
     1
  9
$SHADEDGE
 70
     3
  9
$SHADEDIF
 70
    70
  9
$TILEMODE
 70
     1
  9
$MAXACTVP
 70
    16
  9
$PINSBASE
 10
0.0
 20
0.0
 30
0.0
  9
$PLIMCHECK
 70
     0
  9
$PEXTMIN
 10
1.000000000000000E+20
 20
1.000000000000000E+20
 30
1.000000000000000E+20
  9
$PEXTMAX
 10
-1.000000000000000E+20
 20
-1.000000000000000E+20
 30
-1.000000000000000E+20
  9
$PLIMMIN
 10
0.0
 20
0.0
  9
$PLIMMAX
 10
420.0
 20
297.0
  9
$UNITMODE
 70
     0
  9
$VISRETAIN
 70
     0
  9
$PLINEGEN
 70
     0
  9
$PSLTSCALE
 70
     0
  9
$TREEDEPTH
 70
  3020
  9
$CMLSTYLE
  2
STANDARD
  9
$CMLJUST
 70
     0
  9
$CMLSCALE
 40
1.0
  9
$PROXYGRAPHICS
 70
     1
  9
$MEASUREMENT
 70
     0
  9
$CELWEIGHT
370
    -1
  9
$ENDCAPS
280
     0
  9
$JOINSTYLE
280
     0
  9
$LWDISPLAY
290
     0
  9
$INSUNITS
 70
     0
  9
$HYPERLINKBASE
  1

  9
$STYLESHEET
  1

  9
$XEDIT
290
     1
  9
$CEPSNTYPE
380
     0
  9
$PSTYLEMODE
290
     1
  9
$FINGERPRINTGUID
  2
{EBF758E6-9DA4-4473-A7DA-D4CECDA34040}
  9
$VERSIONGUID
  2
{82DB5218-C749-4B1C-852E-46FA8D38E228}
  9
$EXTNAMES
290
     1
  9
$PSVPSCALE
 40
0.0
  9
$OLESTARTUP
290
     0
  0
ENDSEC
  0
SECTION
  2
CLASSES
  0
CLASS
  1
ACDBDICTIONARYWDFLT
  2
AcDbDictionaryWithDefault
  3
ObjectDBX Classes
 90
        0
280
     0
281
     0
  0
CLASS
  1
ACDBPLACEHOLDER
  2
AcDbPlaceHolder
  3
ObjectDBX Classes
 90
        0
280
     0
281
     0
  0
CLASS
  1
LAYOUT
  2
AcDbLayout
  3
ObjectDBX Classes
 90
        0
280
     0
281
     0
  0
CLASS
  1
DICTIONARYVAR
  2
AcDbDictionaryVar
  3
ObjectDBX Classes
 90
        0
280
     0
281
     0
  0
CLASS
  1
MATERIAL
  2
AcDbMaterial
  3
ObjectDBX Classes
 90
     1153
280
     0
281
     0
  0
CLASS
  1
VISUALSTYLE
  2
AcDbVisualStyle
  3
ObjectDBX Classes
 90
     4095
280
     0
281
     0
  0
CLASS
  1
TABLESTYLE
  2
AcDbTableStyle
  3
ObjectDBX Classes
 90
     4095
280
     0
281
     0
  0
CLASS
  1
SCALE
  2
AcDbScale
  3
ObjectDBX Classes
 90
     1153
280
     0
281
     0
  0
CLASS
  1
MLEADERSTYLE
  2
AcDbMLeaderStyle
  3
ACDB_MLEADERSTYLE_CLASS
 90
     4095
280
     0
281
     0
  0
CLASS
  1
ACDBSECTIONVIEWSTYLE
  2
AcDbSectionViewStyle
  3
ObjectDBX Classes
 90
     1025
280
     0
281
     0
  0
CLASS
  1
ACDBDETAILVIEWSTYLE
  2
AcDbDetailViewStyle
  3
ObjectDBX Classes
 90
     1025
280
     0
281
     0
  0
CLASS
  1
CELLSTYLEMAP
  2
AcDbCellStyleMap
  3
ObjectDBX Classes
 90
     1152
280
     0
281
     0
  0
ENDSEC
  0
SECTION
  2
TABLES
  0
TABLE
  2
VPORT
  5
C1F0
330
0
100
AcDbSymbolTable
 70
     1
  0
VPORT
  5
C485
330
C1F0
100
AcDbSymbolTableRecord
100
AcDbViewportTableRecord
  2
*ACTIVE
 70
     0
 10
0.0
 20
0.0
 11
1.0
 21
1.0
 12
281.7179471888977
 22
172.6484651189512
 13
0.0
 23
0.0
 14
10.0
 24
10.0
 15
10.0
 25
10.0
 16
0.0
 26
0.0
 36
1.0
 17
0.0
 27
0.0
 37
0.0
 40
328.9653958868795
 41
1.899603698811096
 42
50.0
 43
0.0
 44
0.0
 50
0.0
 51
0.0
 71
     0
 72
   100
 73
     1
 74
     0
 75
     0
 76
     0
 77
     0
 78
     0
281
     0
 65
     1
110
0.0
120
0.0
130
0.0
111
1.0
121
0.0
131
0.0
112
0.0
122
1.0
132
0.0
 79
     0
146
0.0
1001
ACAD_NAV_VCDISPLAY
1070
     3
  0
ENDTAB
  0
TABLE
  2
LTYPE
  5
C1ED
330
0
100
AcDbSymbolTable
 70
     4
  0
LTYPE
  5
C1FB
330
C1ED
100
AcDbSymbolTableRecord
100
AcDbLinetypeTableRecord
  2
BYBLOCK
 70
     0
  3

 72
    65
 73
     0
 40
0.0
  0
LTYPE
  5
C1FC
330
C1ED
100
AcDbSymbolTableRecord
100
AcDbLinetypeTableRecord
  2
BYLAYER
 70
     0
  3

 72
    65
 73
     0
 40
0.0
  0
LTYPE
  5
C1FD
330
C1ED
100
AcDbSymbolTableRecord
100
AcDbLinetypeTableRecord
  2
CONTINUOUS
 70
     0
  3
Solid line
 72
    65
 73
     0
 40
0.0
  0
LTYPE
  5
C20B
330
C1ED
100
AcDbSymbolTableRecord
100
AcDbLinetypeTableRecord
  2
DASHED
 70
     0
  3
__ __ __ __ __ __ __ __ __ __ __ __ __ __ __ __
 72
    65
 73
     2
 40
0.75
 49
0.5
 74
     0
 49
-0.25
 74
     0
  0
LTYPE
  5
C20C
330
C1ED
100
AcDbSymbolTableRecord
100
AcDbLinetypeTableRecord
  2
CENTER
 70
     0
  3
____ _ ____ _ ____ _ ____ _ ____ _ ____ _ ____ 
 72
    65
 73
     4
 40
2.0
 49
1.25
 74
     0
 49
-0.25
 74
     0
 49
0.25
 74
     0
 49
-0.25
 74
     0
  0
LTYPE
  5
C20D
330
C1ED
100
AcDbSymbolTableRecord
100
AcDbLinetypeTableRecord
  2
PHANTOM
 70
     0
  3
______  __  __  ______  __  __  ______  __  __ 
 72
    65
 73
     6
 40
2.5
 49
1.25
 74
     0
 49
-0.25
 74
     0
 49
0.25
 74
     0
 49
-0.25
 74
     0
 49
0.25
 74
     0
 49
-0.25
 74
     0
  0
ENDTAB
  0
TABLE
  2
LAYER
  5
C1EA
330
0
100
AcDbSymbolTable
 70
     8
  0
LAYER
  5
C1F8
102
{ACAD_XDICTIONARY
360
C4E0
102
}
330
C1EA
100
AcDbSymbolTableRecord
100
AcDbLayerTableRecord
  2
0
 70
     0
 62
     7
  6
CONTINUOUS
370
    -3
390
C48E
  0
LAYER
  5
C20E
102
{ACAD_XDICTIONARY
360
C4E2
102
}
330
C1EA
100
AcDbSymbolTableRecord
100
AcDbLayerTableRecord
  2
4
 70
     0
 62
     1
  6
CENTER
370
    -3
390
C48E
  0
LAYER
  5
C20F
102
{ACAD_XDICTIONARY
360
C4E4
102
}
330
C1EA
100
AcDbSymbolTableRecord
100
AcDbLayerTableRecord
  2
5
 70
     0
 62
     6
  6
PHANTOM
370
    -3
390
C48E
  0
LAYER
  5
C210
102
{ACAD_XDICTIONARY
360
C4E6
102
}
330
C1EA
100
AcDbSymbolTableRecord
100
AcDbLayerTableRecord
  2
1
 70
     0
 62
     7
  6
CONTINUOUS
370
    -3
390
C48E
  0
LAYER
  5
C211
102
{ACAD_XDICTIONARY
360
C4E8
102
}
330
C1EA
100
AcDbSymbolTableRecord
100
AcDbLayerTableRecord
  2
2
 70
     0
 62
     4
  6
CONTINUOUS
370
    -3
390
C48E
  0
LAYER
  5
C212
102
{ACAD_XDICTIONARY
360
C4EA
102
}
330
C1EA
100
AcDbSymbolTableRecord
100
AcDbLayerTableRecord
  2
3
 70
     0
 62
     2
  6
DASHED
370
    -3
390
C48E
  0
LAYER
  5
C213
102
{ACAD_XDICTIONARY
360
C4EC
102
}
330
C1EA
100
AcDbSymbolTableRecord
100
AcDbLayerTableRecord
  2
6
 70
     0
 62
     5
  6
CONTINUOUS
370
    -3
390
C48E
  0
LAYER
  5
C214
102
{ACAD_XDICTIONARY
360
C4EE
102
}
330
C1EA
100
AcDbSymbolTableRecord
100
AcDbLayerTableRecord
  2
7
 70
     0
 62
     3
  6
CONTINUOUS
370
    -3
390
C48E
  0
ENDTAB
  0
TABLE
  2
STYLE
  5
C1EB
330
0
100
AcDbSymbolTable
 70
     1
  0
STYLE
  5
C1F9
330
C1EB
100
AcDbSymbolTableRecord
100
AcDbTextStyleTableRecord
  2
STANDARD
 70
     0
 40
0.0
 41
1.0
 50
0.0
 71
     0
 42
5.0
  3
txt
  4

  0
ENDTAB
  0
TABLE
  2
VIEW
  5
C1EE
330
0
100
AcDbSymbolTable
 70
     1
  0
VIEW
  5
C215
330
C1EE
100
AcDbSymbolTableRecord
100
AcDbViewTableRecord
  2
7
 70
     0
 40
362.4463099999999
 10
349.136135
 20
181.2231549999999
 41
698.2722690000001
 11
0.0
 21
0.0
 31
1.0
 12
0.0
 22
0.0
 32
0.0
 42
50.0
 43
0.0
 44
0.0
 50
0.0
 71
     0
281
     0
 72
     0
  0
ENDTAB
  0
TABLE
  2
UCS
  5
C1EF
330
0
100
AcDbSymbolTable
 70
     0
  0
ENDTAB
  0
TABLE
  2
APPID
  5
C1F1
330
0
100
AcDbSymbolTable
 70
     3
  0
APPID
  5
C1FA
330
C1F1
100
AcDbSymbolTableRecord
100
AcDbRegAppTableRecord
  2
ACAD
 70
     0
  0
APPID
  5
C4FA
330
C1F1
100
AcDbSymbolTableRecord
100
AcDbRegAppTableRecord
  2
ACAD_NAV_VCDISPLAY
 70
     0
  0
APPID
  5
C533
330
C1F1
100
AcDbSymbolTableRecord
100
AcDbRegAppTableRecord
  2
ACAD_MLEADERVER
 70
     0
  0
ENDTAB
  0
TABLE
  2
DIMSTYLE
  5
C1F2
330
0
100
AcDbSymbolTable
 70
     1
100
AcDbDimStyleTable
 71
     0
  0
DIMSTYLE
105
C217
330
C1F2
100
AcDbSymbolTableRecord
100
AcDbDimStyleTableRecord
  2
STANDARD
 70
     0
 41
2.5
 42
1.0
 43
10.0
 44
1.0
 73
     0
 74
     0
 77
     3
 78
     8
140
3.2
141
0.0
147
1.0
172
     1
173
     1
284
     8
285
     8
286
     8
340
C1F9
  0
ENDTAB
  0
TABLE
  2
BLOCK_RECORD
  5
C1E9
330
0
100
AcDbSymbolTable
 70
     0
  0
BLOCK_RECORD
  5
C206
102
{ACAD_XDICTIONARY
360
C488
102
}
330
C1E9
100
AcDbSymbolTableRecord
100
AcDbBlockTableRecord
  2
*MODEL_SPACE
340
C4DC
  0
BLOCK_RECORD
  5
C202
102
{ACAD_XDICTIONARY
360
C486
102
}
330
C1E9
100
AcDbSymbolTableRecord
100
AcDbBlockTableRecord
  2
*PAPER_SPACE
340
C4DD
  0
ENDTAB
  0
ENDSEC
  0
SECTION
  2
BLOCKS
  0
BLOCK
  5
C207
330
C206
100
AcDbEntity
  8
0
100
AcDbBlockBegin
  2
*MODEL_SPACE
 70
     0
 10
0.0
 20
0.0
 30
0.0
  3
*MODEL_SPACE
  1

  0
ENDBLK
  5
C208
330
C206
100
AcDbEntity
  8
0
100
AcDbBlockEnd
  0
BLOCK
  5
C203
330
C202
100
AcDbEntity
 67
     1
  8
0
100
AcDbBlockBegin
  2
*PAPER_SPACE
 70
     0
 10
0.0
 20
0.0
 30
0.0
  3
*PAPER_SPACE
  1

  0
ENDBLK
  5
C204
330
C202
100
AcDbEntity
 67
     1
  8
0
100
AcDbBlockEnd
  0
ENDSEC
  0
SECTION
  2
ENTITIES
  0
TEXT
  5
C21F
330
C206
100
AcDbEntity
  8
7
  6
Continuous
100
AcDbText
 10
10.0
 20
18.0
 30
0.0
 40
3.0
  1
TYPE No.TM-144SS-165
100
AcDbText
  0
TEXT
  5
C220
330
C206
100
AcDbEntity
  8
7
  6
Continuous
100
AcDbText
 10
10.0
 20
26.0
 30
0.0
 40
3.0
  1
CODE No.5744
100
AcDbText
  0
TEXT
  5
C221
330
C206
100
AcDbEntity
  8
1
  6
Continuous
100
AcDbText
 10
10.0
 20
10.0
 30
0.0
 40
1.399999999999999
  1
LAYER
100
AcDbText
  0
TEXT
  5
C222
330
C206
100
AcDbEntity
  8
1
  6
Continuous
100
AcDbText
 10
17.97951099999998
 20
10.04873699999998
 30
0.0
 40
1.399999999999999
  1
1
100
AcDbText
  0
TEXT
  5
C223
330
C206
100
AcDbEntity
  8
7
  6
Continuous
100
AcDbText
 10
29.97951099999999
 20
10.04873699999998
 30
0.0
 40
1.399999999999999
  1
7
100
AcDbText
  0
TEXT
  5
C224
330
C206
100
AcDbEntity
  8
4
  6
CENTER
100
AcDbText
 10
23.97951099999999
 20
10.04873699999998
 30
0.0
 40
1.399999999999999
  1
4
100
AcDbText
  0
TEXT
  5
C225
330
C206
100
AcDbEntity
  8
3
  6
DASHED
100
AcDbText
 10
21.979511
 20
10.04873699999998
 30
0.0
 40
1.399999999999999
  1
3
100
AcDbText
  0
TEXT
  5
C226
330
C206
100
AcDbEntity
  8
2
  6
Continuous
100
AcDbText
 10
19.97951099999999
 20
10.04873699999998
 30
0.0
 40
1.399999999999999
  1
2
100
AcDbText
  0
TEXT
  5
C227
330
C206
100
AcDbEntity
  8
6
  6
Continuous
100
AcDbText
 10
27.979511
 20
10.04873699999998
 30
0.0
 40
1.399999999999999
  1
6
100
AcDbText
  0
TEXT
  5
C228
330
C206
100
AcDbEntity
  8
5
  6
PHANTOM
100
AcDbText
 10
25.97951099999999
 20
10.04873699999998
 30
0.0
 40
1.399999999999999
  1
5
100
AcDbText
  0
LINE
  5
C229
330
C206
100
AcDbEntity
  8
1
  6
Continuous
100
AcDbLine
 10
178.545952
 20
260.7975779999998
 30
0.0
 11
189.045952
 21
260.7975779999998
 31
0.0
  0
LINE
  5
C22A
330
C206
100
AcDbEntity
  8
1
  6
Continuous
100
AcDbLine
 10
201.0459519999999
 20
261.9285779999998
 30
0.0
 11
201.0459519999999
 21
265.7475779999999
 31
0.0
  0
LINE
  5
C22B
330
C206
100
AcDbEntity
  8
1
  6
Continuous
100
AcDbLine
 10
197.045952
 20
261.2975779999998
 30
0.0
 11
197.045952
 21
271.7975779999998
 31
0.0
  0
LINE
  5
C22C
330
C206
100
AcDbEntity
  8
1
  6
Continuous
100
AcDbLine
 10
193.045952
 20
261.797578
 30
0.0
 11
193.045952
 21
271.2975779999998
 31
0.0
  0
LINE
  5
C22D
330
C206
100
AcDbEntity
  8
1
  6
Continuous
100
AcDbLine
 10
174.5459519999998
 20
263.797578
 30
0.0
 11
174.5459519999998
 21
271.2975779999998
 31
0.0
  0
LINE
  5
C22E
330
C206
100
AcDbEntity
  8
1
  6
Continuous
100
AcDbLine
 10
172.545952
 20
263.7955779999999
 30
0.0
 11
172.545952
 21
269.795578
 31
0.0
  0
LINE
  5
C22F
330
C206
100
AcDbEntity
  8
4
  6
CENTER
100
AcDbLine
 10
183.795952
 20
81.5
 30
0.0
 11
183.795952
 21
279.7975779999998
 31
0.0
  0
LINE
  5
C230
330
C206
100
AcDbEntity
  8
1
  6
Continuous
100
AcDbLine
 10
176.0459519999998
 20
272.7975779999998
 30
0.0
 11
191.5459519999998
 21
272.7975779999998
 31
0.0
  0
LINE
  5
C231
330
C206
100
AcDbEntity
  8
1
  6
Continuous
100
AcDbLine
 10
178.295952
 20
312.7975779999998
 30
0.0
 11
189.2959519999998
 21
312.7975779999998
 31
0.0
  0
LINE
  5
C232
330
C206
100
AcDbEntity
  8
1
  6
Continuous
100
AcDbLine
 10
178.295952
 20
328.297578
 30
0.0
 11
189.2959519999998
 21
328.297578
 31
0.0
  0
LINE
  5
C233
330
C206
100
AcDbEntity
  8
4
  6
CENTER
100
AcDbLine
 10
85.495952
 20
320.5475779999998
 30
0.0
 11
282.095952
 21
320.5475779999998
 31
0.0
  0
LINE
  5
C234
330
C206
100
AcDbEntity
  8
4
  6
CENTER
100
AcDbLine
 10
334.845952
 20
81.5
 30
0.0
 11
334.845952
 21
279.797616
 31
0.0
  0
LINE
  5
C235
330
C206
100
AcDbEntity
  8
1
  6
Continuous
100
AcDbLine
 10
201.0459519999999
 20
316.5475779999998
 30
0.0
 11
201.0459519999999
 21
324.547578
 31
0.0
  0
LINE
  5
C236
330
C206
100
AcDbEntity
  8
1
  6
Continuous
100
AcDbLine
 10
197.045952
 20
315.2975779999998
 30
0.0
 11
197.045952
 21
325.7975779999998
 31
0.0
  0
LINE
  5
C237
330
C206
100
AcDbEntity
  8
1
  6
Continuous
100
AcDbLine
 10
193.045952
 20
315.2975779999998
 30
0.0
 11
193.045952
 21
325.7975779999998
 31
0.0
  0
LINE
  5
C238
330
C206
100
AcDbEntity
  8
4
  6
CENTER
100
AcDbLine
 10
183.795952
 20
305.797578
 30
0.0
 11
183.795952
 21
335.2975779999998
 31
0.0
  0
LINE
  5
C239
330
C206
100
AcDbEntity
  8
1
  6
Continuous
100
AcDbLine
 10
174.5459519999998
 20
315.2975779999998
 30
0.0
 11
174.5459519999998
 21
325.7975779999998
 31
0.0
  0
LINE
  5
C23A
330
C206
100
AcDbEntity
  8
1
  6
Continuous
100
AcDbLine
 10
172.545952
 20
317.5475779999998
 30
0.0
 11
172.545952
 21
323.5475779999998
 31
0.0
  0
LINE
  5
C23B
330
C206
100
AcDbEntity
  8
1
  6
Continuous
100
AcDbLine
 10
172.545952
 20
263.797578
 30
0.0
 11
178.295952
 21
263.797578
 31
0.0
  0
LINE
  5
C23C
330
C206
100
AcDbEntity
  8
1
  6
Continuous
100
AcDbLine
 10
172.545952
 20
269.7975779999998
 30
0.0
 11
174.5459519999998
 21
269.7975779999998
 31
0.0
  0
ARC
  5
C23D
330
C206
100
AcDbEntity
  8
1
  6
Continuous
100
AcDbCircle
 10
176.0459519999998
 20
271.2975779999998
 30
0.0
 40
1.5
100
AcDbArc
 50
90.0
 51
180.0
  0
ARC
  5
C23E
330
C206
100
AcDbEntity
  8
1
  6
Continuous
100
AcDbCircle
 10
191.5459519999998
 20
271.2975779999998
 30
0.0
 40
1.5
100
AcDbArc
 50
0.0
 51
90.0
  0
ARC
  5
C23F
330
C206
100
AcDbEntity
  8
1
  6
Continuous
100
AcDbCircle
 10
183.795952
 20
260.6031329999999
 30
0.0
 40
7.694443999999997
100
AcDbArc
 50
24.52954699999999
 51
155.4704529999999
  0
LINE
  5
C240
330
C206
100
AcDbEntity
  8
1
  6
Continuous
100
AcDbLine
 10
189.2959519999998
 20
263.797578
 30
0.0
 11
189.045952
 21
260.7975779999998
 31
0.0
  0
LINE
  5
C241
330
C206
100
AcDbEntity
  8
1
  6
Continuous
100
AcDbLine
 10
178.295952
 20
263.797578
 30
0.0
 11
178.545952
 21
260.7975779999998
 31
0.0
  0
ARC
  5
C242
330
C206
100
AcDbEntity
  8
1
  6
Continuous
100
AcDbCircle
 10
183.795952
 20
259.795792
 30
0.0
 40
6.801785999999997
100
AcDbArc
 50
36.039539
 51
143.960461
  0
LINE
  5
C243
330
C206
100
AcDbEntity
  8
1
  6
Continuous
100
AcDbLine
 10
189.2959519999998
 20
263.797578
 30
0.0
 11
193.045952
 21
263.797578
 31
0.0
  0
LINE
  5
C244
330
C206
100
AcDbEntity
  8
1
  6
Continuous
100
AcDbLine
 10
193.045952
 20
271.2975779999998
 30
0.0
 11
197.045952
 21
271.7975779999998
 31
0.0
  0
LINE
  5
C245
330
C206
100
AcDbEntity
  8
1
  6
Continuous
100
AcDbLine
 10
193.045952
 20
261.797578
 30
0.0
 11
197.045952
 21
261.2975779999998
 31
0.0
  0
LINE
  5
C246
330
C206
100
AcDbEntity
  8
4
  6
CENTER
100
AcDbLine
 10
164.040532
 20
266.5475779999998
 30
0.0
 11
208.045952
 21
266.5475779999998
 31
0.0
  0
LINE
  5
C247
330
C206
100
AcDbEntity
  8
1
  6
Continuous
100
AcDbLine
 10
197.045952
 20
271.1665779999999
 30
0.0
 11
201.0459519999999
 21
271.1665779999999
 31
0.0
  0
LINE
  5
C248
330
C206
100
AcDbEntity
  8
1
  6
Continuous
100
AcDbLine
 10
197.045952
 20
261.9285779999998
 30
0.0
 11
201.0459519999999
 21
261.9285779999998
 31
0.0
  0
LINE
  5
C249
330
C206
100
AcDbEntity
  8
1
  6
Continuous
100
AcDbLine
 10
198.045952
 20
267.3475779999999
 30
0.0
 11
201.0459519999999
 21
267.3475779999999
 31
0.0
  0
LINE
  5
C24A
330
C206
100
AcDbEntity
  8
1
  6
Continuous
100
AcDbLine
 10
198.045952
 20
265.7475779999999
 30
0.0
 11
201.0459519999999
 21
265.7475779999999
 31
0.0
  0
LINE
  5
C24B
330
C206
100
AcDbEntity
  8
1
  6
Continuous
100
AcDbLine
 10
198.045952
 20
265.7475779999999
 30
0.0
 11
198.045952
 21
267.3475779999999
 31
0.0
  0
LINE
  5
C24C
330
C206
100
AcDbEntity
  8
1
  6
Continuous
100
AcDbLine
 10
201.0459519999999
 20
267.3475779999999
 30
0.0
 11
201.0459519999999
 21
271.1665779999999
 31
0.0
  0
LINE
  5
C24D
330
C206
100
AcDbEntity
  8
1
  6
Continuous
100
AcDbLine
 10
197.045952
 20
268.857078
 30
0.0
 11
199.5459519999998
 21
268.857078
 31
0.0
  0
LINE
  5
C24E
330
C206
100
AcDbEntity
  8
1
  6
Continuous
100
AcDbLine
 10
197.045952
 20
264.2380779999999
 30
0.0
 11
199.5459519999998
 21
264.2380779999999
 31
0.0
  0
LINE
  5
C24F
330
C206
100
AcDbEntity
  8
1
  6
Continuous
100
AcDbLine
 10
199.5459519999998
 20
268.857078
 30
0.0
 11
201.0459519999999
 21
268.2570779999999
 31
0.0
  0
LINE
  5
C250
330
C206
100
AcDbEntity
  8
1
  6
Continuous
100
AcDbLine
 10
199.5459519999998
 20
268.857078
 30
0.0
 11
201.0459519999999
 21
269.4570779999998
 31
0.0
  0
LINE
  5
C251
330
C206
100
AcDbEntity
  8
1
  6
Continuous
100
AcDbLine
 10
199.5459519999998
 20
264.2380779999999
 30
0.0
 11
201.0459519999999
 21
264.838078
 31
0.0
  0
LINE
  5
C252
330
C206
100
AcDbEntity
  8
1
  6
Continuous
100
AcDbLine
 10
199.5459519999998
 20
264.2380779999999
 30
0.0
 11
201.0459519999999
 21
263.638078
 31
0.0
  0
LINE
  5
C253
330
C206
100
AcDbEntity
  8
4
  6
CENTER
100
AcDbLine
 10
321.345952
 20
266.547616
 30
0.0
 11
348.345952
 21
266.547616
 31
0.0
  0
ARC
  5
C254
330
C206
100
AcDbEntity
  8
1
  6
Continuous
100
AcDbCircle
 10
334.845952
 20
266.547616
 30
0.0
 40
3.0
100
AcDbArc
 50
15.46601
 51
164.5339899999999
  0
LINE
  5
C255
330
C206
100
AcDbEntity
  8
1
  6
Continuous
100
AcDbLine
 10
330.8459519999999
 20
267.347616
 30
0.0
 11
338.845952
 21
267.347616
 31
0.0
  0
LINE
  5
C256
330
C206
100
AcDbEntity
  8
1
  6
Continuous
100
AcDbLine
 10
330.8459519999999
 20
265.7476159999998
 30
0.0
 11
338.845952
 21
265.7476159999998
 31
0.0
  0
ARC
  5
C257
330
C206
100
AcDbEntity
  8
1
  6
Continuous
100
AcDbCircle
 10
334.845952
 20
266.547616
 30
0.0
 40
3.0
100
AcDbArc
 50
195.4660099999999
 51
344.53399
  0
CIRCLE
  5
C258
330
C206
100
AcDbEntity
  8
1
  6
Continuous
100
AcDbCircle
 10
334.845952
 20
266.547616
 30
0.0
 40
5.25
  0
LINE
  5
C259
330
C206
100
AcDbEntity
  8
1
  6
Continuous
100
AcDbLine
 10
341.095952
 20
263.797616
 30
0.0
 11
341.095952
 21
267.297616
 31
0.0
  0
LINE
  5
C25A
330
C206
100
AcDbEntity
  8
1
  6
Continuous
100
AcDbLine
 10
328.595952
 20
263.797616
 30
0.0
 11
328.595952
 21
267.297616
 31
0.0
  0
LINE
  5
C25B
330
C206
100
AcDbEntity
  8
1
  6
Continuous
100
AcDbLine
 10
328.3421769999999
 20
263.797616
 30
0.0
 11
330.3738159999999
 21
263.797616
 31
0.0
  0
ARC
  5
C25C
330
C206
100
AcDbEntity
  8
1
  6
Continuous
100
AcDbCircle
 10
334.845952
 20
266.496479
 30
0.0
 40
6.301135999999998
100
AcDbArc
 50
7.304446000000001
 51
172.6955539999999
  0
LINE
  5
C25D
330
C206
100
AcDbEntity
  8
1
  6
Continuous
100
AcDbLine
 10
339.318087
 20
263.797616
 30
0.0
 11
341.3361019999999
 21
263.797616
 31
0.0
  0
ARC
  5
C25E
330
C206
100
AcDbEntity
  8
1
  6
Continuous
100
AcDbCircle
 10
328.595952
 20
262.2976159999999
 30
0.0
 40
1.5
100
AcDbArc
 50
180.0
 51
260.405932
  0
ARC
  5
C25F
330
C206
100
AcDbEntity
  8
1
  6
Continuous
100
AcDbCircle
 10
341.095952
 20
262.2976159999999
 30
0.0
 40
1.5
100
AcDbArc
 50
279.594068
 51
355.7894899999998
  0
LINE
  5
C260
330
C206
100
AcDbEntity
  8
1
  6
Continuous
100
AcDbLine
 10
197.045952
 20
324.547578
 30
0.0
 11
201.0459519999999
 21
324.547578
 31
0.0
  0
LINE
  5
C261
330
C206
100
AcDbEntity
  8
1
  6
Continuous
100
AcDbLine
 10
197.045952
 20
316.5475779999998
 30
0.0
 11
201.0459519999999
 21
316.5475779999998
 31
0.0
  0
LINE
  5
C262
330
C206
100
AcDbEntity
  8
1
  6
Continuous
100
AcDbLine
 10
197.045952
 20
325.7975779999998
 30
0.0
 11
193.045952
 21
325.2975779999998
 31
0.0
  0
LINE
  5
C263
330
C206
100
AcDbEntity
  8
1
  6
Continuous
100
AcDbLine
 10
197.045952
 20
315.2975779999998
 30
0.0
 11
193.045952
 21
315.797578
 31
0.0
  0
LINE
  5
C264
330
C206
100
AcDbEntity
  8
1
  6
Continuous
100
AcDbLine
 10
175.545952
 20
326.7975779999998
 30
0.0
 11
176.7959519999998
 21
326.7975779999998
 31
0.0
  0
LINE
  5
C265
330
C206
100
AcDbEntity
  8
1
  6
Continuous
100
AcDbLine
 10
175.545952
 20
314.2975779999998
 30
0.0
 11
176.7959519999998
 21
314.2975779999998
 31
0.0
  0
LINE
  5
C266
330
C206
100
AcDbEntity
  8
1
  6
Continuous
100
AcDbLine
 10
172.545952
 20
323.5475779999998
 30
0.0
 11
174.5459519999998
 21
323.5475779999998
 31
0.0
  0
LINE
  5
C267
330
C206
100
AcDbEntity
  8
1
  6
Continuous
100
AcDbLine
 10
172.545952
 20
317.5475779999998
 30
0.0
 11
174.5459519999998
 21
317.5475779999998
 31
0.0
  0
ARC
  5
C268
330
C206
100
AcDbEntity
  8
1
  6
Continuous
100
AcDbCircle
 10
174.795952
 20
320.5475779999998
 30
0.0
 40
3.75
100
AcDbArc
 50
126.869898
 51
233.130102
  0
ARC
  5
C269
330
C206
100
AcDbEntity
  8
1
  6
Continuous
100
AcDbCircle
 10
192.0459519999998
 20
325.7975779999998
 30
0.0
 40
1.0
100
AcDbArc
 50
0.0
 51
90.0
  0
ARC
  5
C26A
330
C206
100
AcDbEntity
  8
1
  6
Continuous
100
AcDbCircle
 10
192.0459519999998
 20
315.2975779999998
 30
0.0
 40
1.0
100
AcDbArc
 50
270.0
 51
0.0
  0
ARC
  5
C26B
330
C206
100
AcDbEntity
  8
1
  6
Continuous
100
AcDbCircle
 10
175.545952
 20
315.2975779999998
 30
0.0
 40
1.0
100
AcDbArc
 50
180.0
 51
270.0
  0
ARC
  5
C26C
330
C206
100
AcDbEntity
  8
1
  6
Continuous
100
AcDbCircle
 10
175.545952
 20
325.7975779999998
 30
0.0
 40
1.0
100
AcDbArc
 50
90.0
 51
180.0
  0
ARC
  5
C26D
330
C206
100
AcDbEntity
  8
1
  6
Continuous
100
AcDbCircle
 10
183.795952
 20
345.7725779999998
 30
0.0
 40
20.225
100
AcDbArc
 50
249.750657
 51
290.249343
  0
ARC
  5
C26E
330
C206
100
AcDbEntity
  8
1
  6
Continuous
100
AcDbCircle
 10
183.795952
 20
295.322578
 30
0.0
 40
20.225
100
AcDbArc
 50
69.75065699999999
 51
110.249343
  0
LINE
  5
C26F
330
C206
100
AcDbEntity
  8
1
  6
Continuous
100
AcDbLine
 10
189.2959519999998
 20
328.297578
 30
0.0
 11
190.795952
 21
326.7975779999998
 31
0.0
  0
LINE
  5
C270
330
C206
100
AcDbEntity
  8
1
  6
Continuous
100
AcDbLine
 10
178.295952
 20
328.297578
 30
0.0
 11
176.7959519999998
 21
326.7975779999998
 31
0.0
  0
LINE
  5
C271
330
C206
100
AcDbEntity
  8
1
  6
Continuous
100
AcDbLine
 10
176.7959519999998
 20
314.2975779999998
 30
0.0
 11
178.295952
 21
312.7975779999998
 31
0.0
  0
LINE
  5
C272
330
C206
100
AcDbEntity
  8
1
  6
Continuous
100
AcDbLine
 10
190.795952
 20
314.2975779999998
 30
0.0
 11
189.2959519999998
 21
312.7975779999998
 31
0.0
  0
LINE
  5
C273
330
C206
100
AcDbEntity
  8
1
  6
Continuous
100
AcDbLine
 10
190.795952
 20
326.7975779999998
 30
0.0
 11
192.0459519999998
 21
326.7975779999998
 31
0.0
  0
LINE
  5
C274
330
C206
100
AcDbEntity
  8
1
  6
Continuous
100
AcDbLine
 10
190.795952
 20
314.2975779999998
 30
0.0
 11
192.0459519999998
 21
314.2975779999998
 31
0.0
  0
LINE
  5
C275
330
C206
100
AcDbEntity
  8
1
  6
Continuous
100
AcDbLine
 10
201.0459519999999
 20
321.1475779999998
 30
0.0
 11
199.5459519999998
 21
320.5475779999998
 31
0.0
  0
LINE
  5
C276
330
C206
100
AcDbEntity
  8
1
  6
Continuous
100
AcDbLine
 10
199.5459519999998
 20
320.5475779999998
 30
0.0
 11
201.0459519999999
 21
319.9475779999999
 31
0.0
  0
LINE
  5
C277
330
C206
100
AcDbEntity
  8
1
  6
Continuous
100
AcDbLine
 10
199.5459519999998
 20
320.5475779999998
 30
0.0
 11
197.045952
 21
320.5475779999998
 31
0.0
  0
LINE
  5
C278
330
C206
100
AcDbEntity
  8
1
  6
Continuous
100
AcDbLine
 10
341.652706
 20
261.7113819999999
 30
0.0
 11
341.3459519999999
 21
261.6975779999999
 31
0.0
  0
LINE
  5
C279
330
C206
100
AcDbEntity
  8
1
  6
Continuous
100
AcDbLine
 10
328.016718
 20
261.712394
 30
0.0
 11
328.345952
 21
261.6975779999999
 31
0.0
  0
LINE
  5
C27A
330
C206
100
AcDbEntity
  8
1
  6
Continuous
100
AcDbLine
 10
100.495952
 20
327.0475779999998
 30
0.0
 11
177.0459519999998
 21
327.0475779999998
 31
0.0
  0
LINE
  5
C27B
330
C206
100
AcDbEntity
  8
1
  6
Continuous
100
AcDbLine
 10
100.495952
 20
314.047578
 30
0.0
 11
177.0459519999998
 21
314.047578
 31
0.0
  0
LINE
  5
C27C
330
C206
100
AcDbEntity
  8
1
  6
Continuous
100
AcDbLine
 10
190.5459519999998
 20
327.0475779999998
 30
0.0
 11
267.095952
 21
327.0475779999998
 31
0.0
  0
LINE
  5
C27D
330
C206
100
AcDbEntity
  8
1
  6
Continuous
100
AcDbLine
 10
190.5459519999998
 20
314.047578
 30
0.0
 11
267.095952
 21
314.047578
 31
0.0
  0
ARC
  5
C27E
330
C206
100
AcDbEntity
  8
1
  6
Continuous
100
AcDbCircle
 10
174.773285
 20
266.7965779999998
 30
0.0
 40
3.735641
100
AcDbArc
 50
126.600977
 51
233.399023
  0
LINE
  5
C27F
330
C206
100
AcDbEntity
  8
1
  6
Continuous
100
AcDbLine
 10
341.3459519999999
 20
96.5
 30
0.0
 11
341.3459519999999
 21
263.3340029999998
 31
0.0
  0
LINE
  5
C280
330
C206
100
AcDbEntity
  8
1
  6
Continuous
100
AcDbLine
 10
328.345952
 20
96.5
 30
0.0
 11
328.345952
 21
263.3340029999998
 31
0.0
  0
ARC
  5
C281
330
C206
100
AcDbEntity
  8
1
  6
Continuous
100
AcDbCircle
 10
340.845952
 20
267.102867
 30
0.0
 40
1.0
100
AcDbArc
 50
0.0
 51
84.600387
  0
ARC
  5
C282
330
C206
100
AcDbEntity
  8
1
  6
Continuous
100
AcDbCircle
 10
328.8459519999999
 20
267.102867
 30
0.0
 40
1.0
100
AcDbArc
 50
95.39961299999999
 51
180.0
  0
LINE
  5
C283
330
C206
100
AcDbEntity
  8
1
  6
Continuous
100
AcDbLine
 10
341.845952
 20
267.102867
 30
0.0
 11
342.591903
 21
262.1874839999999
 31
0.0
  0
LINE
  5
C284
330
C206
100
AcDbEntity
  8
1
  6
Continuous
100
AcDbLine
 10
327.845952
 20
267.102867
 30
0.0
 11
327.095952
 21
262.2976159999999
 31
0.0
  0
ARC
  5
C285
330
C206
100
AcDbEntity
  8
1
  6
Continuous
100
AcDbCircle
 10
32.75
 20
266.496479
 30
0.0
 40
6.301135999999998
100
AcDbArc
 50
7.304446000000001
 51
172.6955539999999
  0
LINE
  5
C286
330
C206
100
AcDbEntity
  8
4
  6
CENTER
100
AcDbLine
 10
32.75
 20
81.5
 30
0.0
 11
32.75
 21
279.797616
 31
0.0
  0
LINE
  5
C287
330
C206
100
AcDbEntity
  8
1
  6
Continuous
100
AcDbLine
 10
26.25
 20
96.5
 30
0.0
 11
26.25
 21
263.098044
 31
0.0
  0
LINE
  5
C288
330
C206
100
AcDbEntity
  8
1
  6
Continuous
100
AcDbLine
 10
39.25
 20
96.5
 30
0.0
 11
39.25
 21
263.098044
 31
0.0
  0
LINE
  5
C289
330
C206
100
AcDbEntity
  8
4
  6
CENTER
100
AcDbLine
 10
19.25
 20
266.547616
 30
0.0
 11
46.25
 21
266.547616
 31
0.0
  0
LINE
  5
C28A
330
C206
100
AcDbEntity
  8
1
  6
Continuous
100
AcDbLine
 10
25.75
 20
267.102867
 30
0.0
 11
25.0
 21
262.2976159999999
 31
0.0
  0
ARC
  5
C28B
330
C206
100
AcDbEntity
  8
1
  6
Continuous
100
AcDbCircle
 10
26.75
 20
267.102867
 30
0.0
 40
1.0
100
AcDbArc
 50
95.39961299999999
 51
180.0
  0
LINE
  5
C28C
330
C206
100
AcDbEntity
  8
1
  6
Continuous
100
AcDbLine
 10
25.920766
 20
261.712394
 30
0.0
 11
26.25
 21
261.6975779999999
 31
0.0
  0
ARC
  5
C28D
330
C206
100
AcDbEntity
  8
1
  6
Continuous
100
AcDbCircle
 10
26.5
 20
262.2976159999999
 30
0.0
 40
1.5
100
AcDbArc
 50
180.0
 51
260.405932
  0
LINE
  5
C28E
330
C206
100
AcDbEntity
  8
1
  6
Continuous
100
AcDbLine
 10
26.246226
 20
263.797616
 30
0.0
 11
27.833508
 21
263.797616
 31
0.0
  0
LINE
  5
C28F
330
C206
100
AcDbEntity
  8
1
  6
Continuous
100
AcDbLine
 10
26.5
 20
263.797616
 30
0.0
 11
26.5
 21
267.297616
 31
0.0
  0
LINE
  5
C290
330
C206
100
AcDbEntity
  8
1
  6
Continuous
100
AcDbLine
 10
39.75
 20
267.102867
 30
0.0
 11
40.495952
 21
262.1874839999999
 31
0.0
  0
ARC
  5
C291
330
C206
100
AcDbEntity
  8
1
  6
Continuous
100
AcDbCircle
 10
38.75
 20
267.102867
 30
0.0
 40
1.0
100
AcDbArc
 50
0.0
 51
84.600387
  0
LINE
  5
C292
330
C206
100
AcDbEntity
  8
1
  6
Continuous
100
AcDbLine
 10
39.556754
 20
261.7113819999999
 30
0.0
 11
39.25
 21
261.6975779999999
 31
0.0
  0
ARC
  5
C293
330
C206
100
AcDbEntity
  8
1
  6
Continuous
100
AcDbCircle
 10
39.0
 20
262.2976159999999
 30
0.0
 40
1.5
100
AcDbArc
 50
279.594068
 51
355.7894899999998
  0
LINE
  5
C294
330
C206
100
AcDbEntity
  8
1
  6
Continuous
100
AcDbLine
 10
37.66649199999999
 20
263.797616
 30
0.0
 11
39.24015
 21
263.797616
 31
0.0
  0
LINE
  5
C295
330
C206
100
AcDbEntity
  8
1
  6
Continuous
100
AcDbLine
 10
39.0
 20
263.797616
 30
0.0
 11
39.0
 21
267.297616
 31
0.0
  0
LINE
  5
C296
330
C206
100
AcDbEntity
  8
4
  6
CENTER
100
AcDbLine
 10
183.795952
 20
34.0
 30
0.0
 11
183.795952
 21
63.5
 31
0.0
  0
LINE
  5
C297
330
C206
100
AcDbEntity
  8
1
  6
Continuous
100
AcDbLine
 10
100.495952
 20
42.25
 30
0.0
 11
267.095952
 21
42.25
 31
0.0
  0
LINE
  5
C298
330
C206
100
AcDbEntity
  8
1
  6
Continuous
100
AcDbLine
 10
178.295952
 20
41.0
 30
0.0
 11
189.2959519999998
 21
41.0
 31
0.0
  0
LINE
  5
C299
330
C206
100
AcDbEntity
  8
1
  6
Continuous
100
AcDbLine
 10
100.495952
 20
55.25
 30
0.0
 11
267.095952
 21
55.25
 31
0.0
  0
LINE
  5
C29A
330
C206
100
AcDbEntity
  8
4
  6
CENTER
100
AcDbLine
 10
85.495952
 20
48.75
 30
0.0
 11
282.095952
 21
48.75
 31
0.0
  0
LINE
  5
C29B
330
C206
100
AcDbEntity
  8
1
  6
Continuous
100
AcDbLine
 10
178.295952
 20
56.5
 30
0.0
 11
189.2959519999998
 21
56.5
 31
0.0
  0
LINE
  5
C29C
330
C206
100
AcDbEntity
  8
1
  6
Continuous
100
AcDbLine
 10
178.505526
 20
261.282683
 30
0.0
 11
174.8901929999999
 21
257.036958
 31
0.0
  0
LINE
  5
C29D
330
C206
100
AcDbEntity
  8
1
  6
Continuous
100
AcDbLine
 10
178.4352789999998
 20
262.125653
 30
0.0
 11
174.4333729999999
 21
257.425951
 31
0.0
  0
LINE
  5
C29E
330
C206
100
AcDbEntity
  8
1
  6
Continuous
100
AcDbLine
 10
174.4333729999999
 20
257.425951
 30
0.0
 11
174.8901929999999
 21
257.036958
 31
0.0
  0
LINE
  5
C29F
330
C206
100
AcDbEntity
  8
1
  6
Continuous
100
AcDbLine
 10
175.9893449999999
 20
259.253231
 30
0.0
 11
176.4461649999998
 21
258.864238
 31
0.0
  0
CIRCLE
  5
C2A0
330
C206
100
AcDbEntity
  8
1
  6
Continuous
100
AcDbCircle
 10
32.75
 20
266.7955779999999
 30
0.0
 40
3.0
  0
LINE
  5
C2A1
330
C206
100
AcDbEntity
  8
1
  6
Continuous
100
AcDbLine
 10
29.75
 20
266.7955779999999
 30
0.0
 11
28.75649199999999
 21
264.412778
 31
0.0
  0
LINE
  5
C2A2
330
C206
100
AcDbEntity
  8
1
  6
Continuous
100
AcDbLine
 10
35.75
 20
266.7955779999999
 30
0.0
 11
36.743508
 21
264.412778
 31
0.0
  0
ARC
  5
C2A3
330
C206
100
AcDbEntity
  8
1
  6
Continuous
100
AcDbCircle
 10
37.66649199999999
 20
264.797616
 30
0.0
 40
1.0
100
AcDbArc
 50
202.6336909999999
 51
270.0
  0
ARC
  5
C2A4
330
C206
100
AcDbEntity
  8
1
  6
Continuous
100
AcDbCircle
 10
27.833508
 20
264.797616
 30
0.0
 40
1.0
100
AcDbArc
 50
270.0
 51
337.3663089999999
  0
LINE
  5
C2A5
330
C206
100
AcDbEntity
  8
1
  6
Continuous
100
AcDbLine
 10
178.545952
 20
56.5
 30
0.0
 11
178.545952
 21
55.25
 31
0.0
  0
LINE
  5
C2A6
330
C206
100
AcDbEntity
  8
1
  6
Continuous
100
AcDbLine
 10
189.045952
 20
41.00044699999997
 30
0.0
 11
189.045952
 21
42.25
 31
0.0
  0
LINE
  5
C2A7
330
C206
100
AcDbEntity
  8
1
  6
Continuous
100
AcDbLine
 10
189.2959519999998
 20
56.5
 30
0.0
 11
189.2959519999998
 21
55.25
 31
0.0
  0
LINE
  5
C2A8
330
C206
100
AcDbEntity
  8
1
  6
Continuous
100
AcDbLine
 10
178.295952
 20
56.5
 30
0.0
 11
178.295952
 21
55.25
 31
0.0
  0
LINE
  5
C2A9
330
C206
100
AcDbEntity
  8
1
  6
Continuous
100
AcDbLine
 10
178.295952
 20
56.5
 30
0.0
 11
177.0459519999998
 21
55.25
 31
0.0
  0
LINE
  5
C2AA
330
C206
100
AcDbEntity
  8
1
  6
Continuous
100
AcDbLine
 10
189.2959519999998
 20
56.5
 30
0.0
 11
190.5459519999998
 21
55.25
 31
0.0
  0
LINE
  5
C2AB
330
C206
100
AcDbEntity
  8
1
  6
Continuous
100
AcDbLine
 10
178.295952
 20
41.00044699999997
 30
0.0
 11
177.046026
 21
42.25
 31
0.0
  0
LINE
  5
C2AC
330
C206
100
AcDbEntity
  8
1
  6
Continuous
100
AcDbLine
 10
189.2959519999998
 20
41.0
 30
0.0
 11
190.5459519999998
 21
42.25
 31
0.0
  0
LINE
  5
C2AD
330
C206
100
AcDbEntity
  8
1
  6
Continuous
100
AcDbLine
 10
189.2959519999998
 20
42.25
 30
0.0
 11
189.2959519999998
 21
41.00044699999997
 31
0.0
  0
LINE
  5
C2AE
330
C206
100
AcDbEntity
  8
1
  6
Continuous
100
AcDbLine
 10
189.045952
 20
55.25
 30
0.0
 11
189.045952
 21
56.5
 31
0.0
  0
LINE
  5
C2AF
330
C206
100
AcDbEntity
  8
1
  6
Continuous
100
AcDbLine
 10
178.545952
 20
42.25
 30
0.0
 11
178.545952
 21
41.00044699999997
 31
0.0
  0
LINE
  5
C2B0
330
C206
100
AcDbEntity
  8
1
  6
Continuous
100
AcDbLine
 10
178.295952
 20
42.25
 30
0.0
 11
178.295952
 21
41.00044699999997
 31
0.0
  0
LINE
  5
C2B1
330
C206
100
AcDbEntity
  8
1
  6
Continuous
100
AcDbLine
 10
328.3421769999999
 20
263.797616
 30
0.0
 11
328.016718
 21
261.712394
 31
0.0
  0
LINE
  5
C2B2
330
C206
100
AcDbEntity
  8
1
  6
Continuous
100
AcDbLine
 10
341.3361019999999
 20
263.797616
 30
0.0
 11
341.652706
 21
261.7113819999999
 31
0.0
  0
LINE
  5
C2B3
330
C206
100
AcDbEntity
  8
1
  6
Continuous
100
AcDbLine
 10
26.246226
 20
263.797616
 30
0.0
 11
25.920766
 21
261.712394
 31
0.0
  0
LINE
  5
C2B4
330
C206
100
AcDbEntity
  8
1
  6
Continuous
100
AcDbLine
 10
39.24015
 20
263.797616
 30
0.0
 11
39.556754
 21
261.7113819999999
 31
0.0
  0
LINE
  5
C2B5
330
C206
100
AcDbEntity
  8
1
  6
Continuous
100
AcDbLine
 10
26.25
 20
263.098044
 30
0.0
 11
39.25
 21
263.098044
 31
0.0
  0
LINE
  5
C2B6
330
C206
100
AcDbEntity
  8
1
  6
Continuous
100
AcDbLine
 10
328.345952
 20
263.3340029999998
 30
0.0
 11
330.6944229999999
 21
263.3340029999998
 31
0.0
  0
LINE
  5
C2B7
330
C206
100
AcDbEntity
  8
1
  6
Continuous
100
AcDbLine
 10
338.99748
 20
263.3340029999998
 30
0.0
 11
341.3459519999999
 21
263.3340029999998
 31
0.0
  0
ARC
  5
C2B8
330
C206
100
AcDbEntity
  8
5
  6
PHANTOM
100
AcDbCircle
 10
184.017952
 20
183.803
 30
0.0
 40
78.5
100
AcDbArc
 50
94.07684000000001
 51
64.106939
  0
ARC
  5
C2B9
330
C206
100
AcDbEntity
  8
1
  6
Continuous
100
AcDbCircle
 10
183.795952
 20
179.8
 30
0.0
 40
82.5
100
AcDbArc
 50
93.72558199999996
 51
65.257998
  0
ARC
  5
C2BA
330
C206
100
AcDbEntity
  8
5
  6
PHANTOM
100
AcDbCircle
 10
184.017952
 20
183.803
 30
0.0
 40
79.29999999999998
100
AcDbArc
 50
94.08376899999996
 51
64.106939
  0
ARC
  5
C2BB
330
C206
100
AcDbEntity
  8
5
  6
PHANTOM
100
AcDbCircle
 10
184.017952
 20
183.803
 30
0.0
 40
80.09999999999998
100
AcDbArc
 50
46.11137699999999
 51
64.106939
  0
ARC
  5
C2BC
330
C206
100
AcDbEntity
  8
1
  6
Continuous
100
AcDbCircle
 10
183.795952
 20
179.8
 30
0.0
 40
83.29999999999998
100
AcDbArc
 50
93.735552
 51
65.257998
  0
LINE
  5
C2BD
330
C206
100
AcDbEntity
  8
5
  6
PHANTOM
100
AcDbLine
 10
239.5479759999998
 20
241.5301719999999
 30
0.0
 11
238.9933689999999
 21
240.953621
 31
0.0
  0
LINE
  5
C2BE
330
C206
100
AcDbEntity
  8
1
  6
Continuous
100
AcDbLine
 10
218.663921
 20
256.331266
 30
0.0
 11
218.32547
 21
255.588404
 31
0.0
  0
LINE
  5
C2BF
330
C206
100
AcDbEntity
  8
4
  6
CENTER
100
AcDbLine
 10
11.25
 20
179.8
 30
0.0
 11
54.25
 21
179.8
 31
0.0
  0
LINE
  5
C2C0
330
C206
100
AcDbEntity
  8
1
  6
Continuous
100
AcDbLine
 10
100.495952
 20
327.0475779999998
 30
0.0
 11
100.495952
 21
314.047578
 31
0.0
  0
LINE
  5
C2C1
330
C206
100
AcDbEntity
  8
1
  6
Continuous
100
AcDbLine
 10
267.095952
 20
327.0475779999998
 30
0.0
 11
267.095952
 21
314.047578
 31
0.0
  0
LINE
  5
C2C2
330
C206
100
AcDbEntity
  8
1
  6
Continuous
100
AcDbLine
 10
341.3459519999999
 20
96.5
 30
0.0
 11
328.345952
 21
96.5
 31
0.0
  0
LINE
  5
C2C3
330
C206
100
AcDbEntity
  8
4
  6
CENTER
100
AcDbLine
 10
85.495952
 20
179.8
 30
0.0
 11
282.095952
 21
179.8
 31
0.0
  0
LINE
  5
C2C4
330
C206
100
AcDbEntity
  8
4
  6
CENTER
100
AcDbLine
 10
313.345952
 20
179.8
 30
0.0
 11
356.345952
 21
179.8
 31
0.0
  0
LINE
  5
C2C5
330
C206
100
AcDbEntity
  8
1
  6
Continuous
100
AcDbLine
 10
39.25
 20
96.5
 30
0.0
 11
26.25
 21
96.5
 31
0.0
  0
LINE
  5
C2C6
330
C206
100
AcDbEntity
  8
1
  6
Continuous
100
AcDbLine
 10
100.495952
 20
55.25
 30
0.0
 11
100.495952
 21
42.25
 31
0.0
  0
LINE
  5
C2C7
330
C206
100
AcDbEntity
  8
1
  6
Continuous
100
AcDbLine
 10
267.095952
 20
55.25
 30
0.0
 11
267.095952
 21
42.25
 31
0.0
  0
LINE
  5
C2C8
330
C206
100
AcDbEntity
  8
1
  6
Continuous
100
AcDbLine
 10
168.922346
 20
323.4413089999998
 30
0.0
 11
168.328921
 21
317.8037749999999
 31
0.0
  0
LINE
  5
C2C9
330
C206
100
AcDbEntity
  8
1
  6
Continuous
100
AcDbLine
 10
167.7289209999998
 20
320.4975919999998
 30
0.0
 11
167.7289209999998
 21
317.8037749999999
 31
0.0
  0
ARC
  5
C2CA
330
C206
100
AcDbEntity
  8
1
  6
Continuous
100
AcDbCircle
 10
168.0289209999999
 20
317.8037749999999
 30
0.0
 40
0.3
100
AcDbArc
 50
180.0
 51
0.0
  0
ARC
  5
C2CB
330
C206
100
AcDbEntity
  8
1
  6
Continuous
100
AcDbCircle
 10
168.6289209999999
 20
323.503775
 30
0.0
 40
0.3
100
AcDbArc
 50
347.9819879999998
 51
180.0
  0
LINE
  5
C2CC
330
C206
100
AcDbEntity
  8
1
  6
Continuous
100
AcDbLine
 10
168.328921
 20
323.503775
 30
0.0
 11
167.761097
 21
320.806608
 31
0.0
  0
ARC
  5
C2CD
330
C206
100
AcDbEntity
  8
1
  6
Continuous
100
AcDbCircle
 10
169.228921
 20
320.4975919999998
 30
0.0
 40
1.5
100
AcDbArc
 50
168.1113419999998
 51
180.0
  0
LINE
  5
C2CE
330
C206
100
AcDbEntity
  8
1
  6
Continuous
100
AcDbLine
 10
162.830816
 20
320.6254099999998
 30
0.0
 11
162.830816
 21
317.931593
 31
0.0
  0
LINE
  5
C2CF
330
C206
100
AcDbEntity
  8
1
  6
Continuous
100
AcDbLine
 10
164.0242409999999
 20
323.5691269999999
 30
0.0
 11
163.4308159999999
 21
317.931593
 31
0.0
  0
ARC
  5
C2D0
330
C206
100
AcDbEntity
  8
1
  6
Continuous
100
AcDbCircle
 10
163.1308159999998
 20
317.931593
 30
0.0
 40
0.3
100
AcDbArc
 50
180.0
 51
0.0
  0
ARC
  5
C2D1
330
C206
100
AcDbEntity
  8
1
  6
Continuous
100
AcDbCircle
 10
164.330816
 20
320.6254099999998
 30
0.0
 40
1.5
100
AcDbArc
 50
168.1113419999998
 51
180.0
  0
LINE
  5
C2D2
330
C206
100
AcDbEntity
  8
1
  6
Continuous
100
AcDbLine
 10
163.4308159999999
 20
323.6315929999999
 30
0.0
 11
162.8629919999999
 21
320.9344259999999
 31
0.0
  0
ARC
  5
C2D3
330
C206
100
AcDbEntity
  8
1
  6
Continuous
100
AcDbCircle
 10
163.730816
 20
323.6315929999999
 30
0.0
 40
0.3
100
AcDbArc
 50
347.9819879999998
 51
180.0
  0
LINE
  5
C2D4
330
C206
100
AcDbEntity
  8
1
  6
Continuous
100
AcDbLine
 10
165.230816
 20
320.6254099999998
 30
0.0
 11
165.230816
 21
317.931593
 31
0.0
  0
LINE
  5
C2D5
330
C206
100
AcDbEntity
  8
1
  6
Continuous
100
AcDbLine
 10
166.4242409999999
 20
323.5691269999999
 30
0.0
 11
165.8308159999999
 21
317.931593
 31
0.0
  0
ARC
  5
C2D6
330
C206
100
AcDbEntity
  8
1
  6
Continuous
100
AcDbCircle
 10
165.5308159999998
 20
317.931593
 30
0.0
 40
0.3
100
AcDbArc
 50
180.0
 51
0.0
  0
LINE
  5
C2D7
330
C206
100
AcDbEntity
  8
1
  6
Continuous
100
AcDbLine
 10
165.8308159999999
 20
323.6315929999999
 30
0.0
 11
165.262992
 21
320.9344259999999
 31
0.0
  0
ARC
  5
C2D8
330
C206
100
AcDbEntity
  8
1
  6
Continuous
100
AcDbCircle
 10
166.1308159999999
 20
323.6315929999999
 30
0.0
 40
0.3
100
AcDbArc
 50
347.9819879999998
 51
180.0
  0
ARC
  5
C2D9
330
C206
100
AcDbEntity
  8
1
  6
Continuous
100
AcDbCircle
 10
166.730816
 20
320.6254099999998
 30
0.0
 40
1.5
100
AcDbArc
 50
168.1113419999998
 51
180.0
  0
LINE
  5
C2DA
330
C206
100
AcDbEntity
  8
1
  6
Continuous
100
AcDbLine
 10
161.6242409999999
 20
323.5691269999999
 30
0.0
 11
161.0308159999999
 21
317.931593
 31
0.0
  0
LINE
  5
C2DB
330
C206
100
AcDbEntity
  8
1
  6
Continuous
100
AcDbLine
 10
161.0308159999999
 20
323.6315929999999
 30
0.0
 11
160.4629919999998
 21
320.9344259999999
 31
0.0
  0
ARC
  5
C2DC
330
C206
100
AcDbEntity
  8
1
  6
Continuous
100
AcDbCircle
 10
161.330816
 20
323.6315929999999
 30
0.0
 40
0.3
100
AcDbArc
 50
347.9819879999998
 51
180.0
  0
LINE
  5
C2DD
330
C206
100
AcDbEntity
  8
1
  6
Continuous
100
AcDbLine
 10
160.4308159999999
 20
320.6254099999998
 30
0.0
 11
160.4308159999999
 21
317.931593
 31
0.0
  0
ARC
  5
C2DE
330
C206
100
AcDbEntity
  8
1
  6
Continuous
100
AcDbCircle
 10
160.730816
 20
317.931593
 30
0.0
 40
0.3
100
AcDbArc
 50
180.0
 51
0.0
  0
ARC
  5
C2DF
330
C206
100
AcDbEntity
  8
1
  6
Continuous
100
AcDbCircle
 10
161.9308159999999
 20
320.6254099999998
 30
0.0
 40
1.5
100
AcDbArc
 50
168.1113419999998
 51
180.0
  0
LINE
  5
C2E0
330
C206
100
AcDbEntity
  8
1
  6
Continuous
100
AcDbLine
 10
159.2242409999998
 20
323.5691269999999
 30
0.0
 11
158.6308159999999
 21
317.931593
 31
0.0
  0
ARC
  5
C2E1
330
C206
100
AcDbEntity
  8
1
  6
Continuous
100
AcDbCircle
 10
158.9308159999999
 20
323.6315929999999
 30
0.0
 40
0.3
100
AcDbArc
 50
347.9819879999998
 51
180.0
  0
LINE
  5
C2E2
330
C206
100
AcDbEntity
  8
1
  6
Continuous
100
AcDbLine
 10
158.6308159999999
 20
323.6315929999999
 30
0.0
 11
158.0629919999998
 21
320.9344259999999
 31
0.0
  0
LINE
  5
C2E3
330
C206
100
AcDbEntity
  8
1
  6
Continuous
100
AcDbLine
 10
158.0308159999999
 20
320.6254099999998
 30
0.0
 11
158.0308159999999
 21
317.931593
 31
0.0
  0
ARC
  5
C2E4
330
C206
100
AcDbEntity
  8
1
  6
Continuous
100
AcDbCircle
 10
158.330816
 20
317.931593
 30
0.0
 40
0.3
100
AcDbArc
 50
180.0
 51
0.0
  0
ARC
  5
C2E5
330
C206
100
AcDbEntity
  8
1
  6
Continuous
100
AcDbCircle
 10
159.5308159999999
 20
320.6254099999998
 30
0.0
 40
1.5
100
AcDbArc
 50
168.1113419999998
 51
180.0
  0
LINE
  5
C2E6
330
C206
100
AcDbEntity
  8
1
  6
Continuous
100
AcDbLine
 10
156.824241
 20
323.5691269999999
 30
0.0
 11
156.230816
 21
317.931593
 31
0.0
  0
LINE
  5
C2E7
330
C206
100
AcDbEntity
  8
1
  6
Continuous
100
AcDbLine
 10
156.230816
 20
323.6315929999999
 30
0.0
 11
155.6629919999998
 21
320.9344259999999
 31
0.0
  0
ARC
  5
C2E8
330
C206
100
AcDbEntity
  8
1
  6
Continuous
100
AcDbCircle
 10
156.5308159999998
 20
323.6315929999999
 30
0.0
 40
0.3
100
AcDbArc
 50
347.9819879999998
 51
180.0
  0
LINE
  5
C2E9
330
C206
100
AcDbEntity
  8
1
  6
Continuous
100
AcDbLine
 10
155.6308159999999
 20
320.6254099999998
 30
0.0
 11
155.6308159999999
 21
317.931593
 31
0.0
  0
ARC
  5
C2EA
330
C206
100
AcDbEntity
  8
1
  6
Continuous
100
AcDbCircle
 10
155.930816
 20
317.931593
 30
0.0
 40
0.3
100
AcDbArc
 50
180.0
 51
0.0
  0
ARC
  5
C2EB
330
C206
100
AcDbEntity
  8
1
  6
Continuous
100
AcDbCircle
 10
157.1308159999998
 20
320.6254099999998
 30
0.0
 40
1.5
100
AcDbArc
 50
168.1113419999998
 51
180.0
  0
LINE
  5
C2EC
330
C206
100
AcDbEntity
  8
1
  6
Continuous
100
AcDbLine
 10
154.424241
 20
323.5691269999999
 30
0.0
 11
153.8308159999999
 21
317.931593
 31
0.0
  0
ARC
  5
C2ED
330
C206
100
AcDbEntity
  8
1
  6
Continuous
100
AcDbCircle
 10
154.1308159999998
 20
323.6315929999999
 30
0.0
 40
0.3
100
AcDbArc
 50
347.9819879999998
 51
180.0
  0
LINE
  5
C2EE
330
C206
100
AcDbEntity
  8
1
  6
Continuous
100
AcDbLine
 10
153.8308159999999
 20
323.6315929999999
 30
0.0
 11
153.2629919999999
 21
320.9344259999999
 31
0.0
  0
LINE
  5
C2EF
330
C206
100
AcDbEntity
  8
1
  6
Continuous
100
AcDbLine
 10
153.230816
 20
320.6254099999998
 30
0.0
 11
153.230816
 21
317.931593
 31
0.0
  0
ARC
  5
C2F0
330
C206
100
AcDbEntity
  8
1
  6
Continuous
100
AcDbCircle
 10
153.5308159999999
 20
317.931593
 30
0.0
 40
0.3
100
AcDbArc
 50
180.0
 51
0.0
  0
ARC
  5
C2F1
330
C206
100
AcDbEntity
  8
1
  6
Continuous
100
AcDbCircle
 10
154.730816
 20
320.6254099999998
 30
0.0
 40
1.5
100
AcDbArc
 50
168.1113419999998
 51
180.0
  0
LINE
  5
C2F2
330
C206
100
AcDbEntity
  8
1
  6
Continuous
100
AcDbLine
 10
152.0242409999999
 20
323.5691269999999
 30
0.0
 11
151.4308159999998
 21
317.931593
 31
0.0
  0
LINE
  5
C2F3
330
C206
100
AcDbEntity
  8
1
  6
Continuous
100
AcDbLine
 10
151.4308159999998
 20
323.6315929999999
 30
0.0
 11
150.8629919999999
 21
320.9344259999999
 31
0.0
  0
ARC
  5
C2F4
330
C206
100
AcDbEntity
  8
1
  6
Continuous
100
AcDbCircle
 10
151.7308159999998
 20
323.6315929999999
 30
0.0
 40
0.3
100
AcDbArc
 50
347.9819879999998
 51
180.0
  0
LINE
  5
C2F5
330
C206
100
AcDbEntity
  8
1
  6
Continuous
100
AcDbLine
 10
150.830816
 20
320.6254099999998
 30
0.0
 11
150.830816
 21
317.931593
 31
0.0
  0
ARC
  5
C2F6
330
C206
100
AcDbEntity
  8
1
  6
Continuous
100
AcDbCircle
 10
151.1308159999998
 20
317.931593
 30
0.0
 40
0.3
100
AcDbArc
 50
180.0
 51
0.0
  0
ARC
  5
C2F7
330
C206
100
AcDbEntity
  8
1
  6
Continuous
100
AcDbCircle
 10
152.330816
 20
320.6254099999998
 30
0.0
 40
1.5
100
AcDbArc
 50
168.1113419999998
 51
180.0
  0
LINE
  5
C2F8
330
C206
100
AcDbEntity
  8
1
  6
Continuous
100
AcDbLine
 10
149.6242409999998
 20
323.5691269999999
 30
0.0
 11
149.0308159999998
 21
317.931593
 31
0.0
  0
ARC
  5
C2F9
330
C206
100
AcDbEntity
  8
1
  6
Continuous
100
AcDbCircle
 10
149.3308159999999
 20
323.6315929999999
 30
0.0
 40
0.3
100
AcDbArc
 50
347.9819879999998
 51
180.0
  0
LINE
  5
C2FA
330
C206
100
AcDbEntity
  8
1
  6
Continuous
100
AcDbLine
 10
149.0308159999998
 20
323.6315929999999
 30
0.0
 11
148.4629919999999
 21
320.9344259999999
 31
0.0
  0
LINE
  5
C2FB
330
C206
100
AcDbEntity
  8
1
  6
Continuous
100
AcDbLine
 10
148.4308159999999
 20
320.6254099999998
 30
0.0
 11
148.4308159999999
 21
317.931593
 31
0.0
  0
ARC
  5
C2FC
330
C206
100
AcDbEntity
  8
1
  6
Continuous
100
AcDbCircle
 10
148.7308159999998
 20
317.931593
 30
0.0
 40
0.3
100
AcDbArc
 50
180.0
 51
0.0
  0
ARC
  5
C2FD
330
C206
100
AcDbEntity
  8
1
  6
Continuous
100
AcDbCircle
 10
149.930816
 20
320.6254099999998
 30
0.0
 40
1.5
100
AcDbArc
 50
168.1113419999998
 51
180.0
  0
LINE
  5
C2FE
330
C206
100
AcDbEntity
  8
1
  6
Continuous
100
AcDbLine
 10
147.2242409999998
 20
323.5691269999999
 30
0.0
 11
146.6308159999998
 21
317.931593
 31
0.0
  0
LINE
  5
C2FF
330
C206
100
AcDbEntity
  8
1
  6
Continuous
100
AcDbLine
 10
146.6308159999998
 20
323.6315929999999
 30
0.0
 11
146.0629919999998
 21
320.9344259999999
 31
0.0
  0
ARC
  5
C300
330
C206
100
AcDbEntity
  8
1
  6
Continuous
100
AcDbCircle
 10
146.9308159999999
 20
323.6315929999999
 30
0.0
 40
0.3
100
AcDbArc
 50
347.9819879999998
 51
180.0
  0
LINE
  5
C301
330
C206
100
AcDbEntity
  8
1
  6
Continuous
100
AcDbLine
 10
146.0308159999998
 20
320.6254099999998
 30
0.0
 11
146.0308159999998
 21
317.931593
 31
0.0
  0
ARC
  5
C302
330
C206
100
AcDbEntity
  8
1
  6
Continuous
100
AcDbCircle
 10
146.3308159999999
 20
317.931593
 30
0.0
 40
0.3
100
AcDbArc
 50
180.0
 51
0.0
  0
ARC
  5
C303
330
C206
100
AcDbEntity
  8
1
  6
Continuous
100
AcDbCircle
 10
147.5308159999999
 20
320.6254099999998
 30
0.0
 40
1.5
100
AcDbArc
 50
168.1113419999998
 51
180.0
  0
LINE
  5
C304
330
C206
100
AcDbEntity
  8
1
  6
Continuous
100
AcDbLine
 10
144.8242409999998
 20
323.5691269999999
 30
0.0
 11
144.230816
 21
317.931593
 31
0.0
  0
ARC
  5
C305
330
C206
100
AcDbEntity
  8
1
  6
Continuous
100
AcDbCircle
 10
145.1308159999999
 20
320.6254099999998
 30
0.0
 40
1.5
100
AcDbArc
 50
168.1113419999998
 51
180.0
  0
ARC
  5
C306
330
C206
100
AcDbEntity
  8
1
  6
Continuous
100
AcDbCircle
 10
144.5308159999999
 20
323.6315929999999
 30
0.0
 40
0.3
100
AcDbArc
 50
347.9819879999998
 51
180.0
  0
LINE
  5
C307
330
C206
100
AcDbEntity
  8
1
  6
Continuous
100
AcDbLine
 10
144.230816
 20
323.6315929999999
 30
0.0
 11
143.662992
 21
320.9344259999999
 31
0.0
  0
LINE
  5
C308
330
C206
100
AcDbEntity
  8
1
  6
Continuous
100
AcDbLine
 10
143.6308159999998
 20
320.6254099999998
 30
0.0
 11
143.6308159999998
 21
317.931593
 31
0.0
  0
ARC
  5
C309
330
C206
100
AcDbEntity
  8
1
  6
Continuous
100
AcDbCircle
 10
143.9308159999999
 20
317.931593
 30
0.0
 40
0.3
100
AcDbArc
 50
180.0
 51
0.0
  0
LINE
  5
C30A
330
C206
100
AcDbEntity
  8
1
  6
Continuous
100
AcDbLine
 10
32.55290099999999
 20
254.651193
 30
0.0
 11
35.531401
 21
254.651193
 31
0.0
  0
LINE
  5
C30B
330
C206
100
AcDbEntity
  8
1
  6
Continuous
100
AcDbLine
 10
32.55290099999999
 20
255.992225
 30
0.0
 11
35.550401
 21
255.992225
 31
0.0
  0
LINE
  5
C30C
330
C206
100
AcDbEntity
  8
1
  6
Continuous
100
AcDbLine
 10
32.727835
 20
257.183464
 30
0.0
 11
35.787835
 21
257.183464
 31
0.0
  0
LINE
  5
C30D
330
C206
100
AcDbEntity
  8
1
  6
Continuous
100
AcDbLine
 10
32.727835
 20
258.23532
 30
0.0
 11
35.759335
 21
258.23532
 31
0.0
  0
LINE
  5
C30E
330
C206
100
AcDbEntity
  8
1
  6
Continuous
100
AcDbLine
 10
32.727835
 20
259.1561929999999
 30
0.0
 11
35.77508499999999
 21
259.1561929999999
 31
0.0
  0
LINE
  5
C30F
330
C206
100
AcDbEntity
  8
1
  6
Continuous
100
AcDbLine
 10
32.727835
 20
259.952892
 30
0.0
 11
35.78983499999999
 21
259.952892
 31
0.0
  0
LINE
  5
C310
330
C206
100
AcDbEntity
  8
1
  6
Continuous
100
AcDbLine
 10
32.727835
 20
260.6309299999999
 30
0.0
 11
35.81558499999999
 21
260.6309299999999
 31
0.0
  0
LINE
  5
C311
330
C206
100
AcDbEntity
  8
1
  6
Continuous
100
AcDbLine
 10
32.727835
 20
261.194745
 30
0.0
 11
35.84808499999999
 21
261.194745
 31
0.0
  0
LINE
  5
C312
330
C206
100
AcDbEntity
  8
1
  6
Continuous
100
AcDbLine
 10
32.727835
 20
261.6478589999999
 30
0.0
 11
35.83158499999999
 21
261.6478589999999
 31
0.0
  0
ARC
  5
C313
330
C206
100
AcDbEntity
  8
1
  6
Continuous
100
AcDbCircle
 10
29.618151
 20
252.1095759999998
 30
0.0
 40
0.21525
100
AcDbArc
 50
90.0
 51
270.0
  0
ARC
  5
C314
330
C206
100
AcDbEntity
  8
1
  6
Continuous
100
AcDbCircle
 10
35.487651
 20
251.679559
 30
0.0
 40
0.21525
100
AcDbArc
 50
261.619662
 51
90.0
  0
ARC
  5
C315
330
C206
100
AcDbEntity
  8
1
  6
Continuous
100
AcDbCircle
 10
35.51065100000001
 20
253.339617
 30
0.0
 40
0.19225
100
AcDbArc
 50
270.0
 51
90.0
  0
ARC
  5
C316
330
C206
100
AcDbEntity
  8
1
  6
Continuous
100
AcDbCircle
 10
29.595151
 20
253.724195
 30
0.0
 40
0.19225
100
AcDbArc
 50
90.0
 51
270.0
  0
LINE
  5
C317
330
C206
100
AcDbEntity
  8
1
  6
Continuous
100
AcDbLine
 10
29.618151
 20
252.3248259999999
 30
0.0
 11
35.487651
 21
251.8948089999999
 31
0.0
  0
LINE
  5
C318
330
C206
100
AcDbEntity
  8
1
  6
Continuous
100
AcDbLine
 10
35.45628
 20
251.466607
 30
0.0
 11
32.55290099999999
 21
251.466607
 31
0.0
  0
LINE
  5
C319
330
C206
100
AcDbEntity
  8
1
  6
Continuous
100
AcDbLine
 10
35.51065100000001
 20
253.147367
 30
0.0
 11
32.55290099999999
 21
253.147367
 31
0.0
  0
LINE
  5
C31A
330
C206
100
AcDbEntity
  8
1
  6
Continuous
100
AcDbLine
 10
29.618151
 20
251.8943259999999
 30
0.0
 11
32.55290099999999
 21
251.466607
 31
0.0
  0
LINE
  5
C31B
330
C206
100
AcDbEntity
  8
1
  6
Continuous
100
AcDbLine
 10
29.595151
 20
253.916445
 30
0.0
 11
35.51065100000001
 21
253.531867
 31
0.0
  0
LINE
  5
C31C
330
C206
100
AcDbEntity
  8
1
  6
Continuous
100
AcDbLine
 10
29.595151
 20
253.531945
 30
0.0
 11
32.55290099999999
 21
253.147367
 31
0.0
  0
ARC
  5
C31D
330
C206
100
AcDbEntity
  8
1
  6
Continuous
100
AcDbCircle
 10
35.531401
 20
254.8226929999999
 30
0.0
 40
0.1715
100
AcDbArc
 50
270.0
 51
90.0
  0
ARC
  5
C31E
330
C206
100
AcDbEntity
  8
1
  6
Continuous
100
AcDbCircle
 10
29.574401
 20
255.1660029999999
 30
0.0
 40
0.1715
100
AcDbArc
 50
83.40322200000001
 51
270.0
  0
LINE
  5
C31F
330
C206
100
AcDbEntity
  8
1
  6
Continuous
100
AcDbLine
 10
29.594103
 20
255.3363669999999
 30
0.0
 11
35.531401
 21
254.994193
 31
0.0
  0
LINE
  5
C320
330
C206
100
AcDbEntity
  8
1
  6
Continuous
100
AcDbLine
 10
29.574401
 20
254.9945029999999
 30
0.0
 11
32.55290099999999
 21
254.651193
 31
0.0
  0
ARC
  5
C321
330
C206
100
AcDbEntity
  8
1
  6
Continuous
100
AcDbCircle
 10
35.550401
 20
256.144725
 30
0.0
 40
0.1525
100
AcDbArc
 50
270.0
 51
90.0
  0
ARC
  5
C322
330
C206
100
AcDbEntity
  8
1
  6
Continuous
100
AcDbCircle
 10
29.555401
 20
256.450102
 30
0.0
 40
0.1525
100
AcDbArc
 50
84.16789599999999
 51
270.0
  0
LINE
  5
C323
330
C206
100
AcDbEntity
  8
1
  6
Continuous
100
AcDbLine
 10
29.570897
 20
256.6018129999998
 30
0.0
 11
35.550401
 21
256.297225
 31
0.0
  0
LINE
  5
C324
330
C206
100
AcDbEntity
  8
1
  6
Continuous
100
AcDbLine
 10
29.555401
 20
256.2976019999999
 30
0.0
 11
32.55290099999999
 21
255.992225
 31
0.0
  0
ARC
  5
C325
330
C206
100
AcDbEntity
  8
1
  6
Continuous
100
AcDbCircle
 10
29.667835
 20
257.6333669999999
 30
0.0
 40
0.09
100
AcDbArc
 50
90.0
 51
270.0
  0
ARC
  5
C326
330
C206
100
AcDbEntity
  8
1
  6
Continuous
100
AcDbCircle
 10
35.787835
 20
257.2734639999998
 30
0.0
 40
0.09
100
AcDbArc
 50
270.0
 51
90.0
  0
LINE
  5
C327
330
C206
100
AcDbEntity
  8
1
  6
Continuous
100
AcDbLine
 10
29.667835
 20
257.723367
 30
0.0
 11
35.787835
 21
257.363464
 31
0.0
  0
LINE
  5
C328
330
C206
100
AcDbEntity
  8
1
  6
Continuous
100
AcDbLine
 10
29.667835
 20
257.5433669999998
 30
0.0
 11
32.727835
 21
257.183464
 31
0.0
  0
ARC
  5
C329
330
C206
100
AcDbEntity
  8
1
  6
Continuous
100
AcDbCircle
 10
29.696335
 20
258.5906479999998
 30
0.0
 40
0.1185
100
AcDbArc
 50
85.52619399999997
 51
270.0
  0
ARC
  5
C32A
330
C206
100
AcDbEntity
  8
1
  6
Continuous
100
AcDbCircle
 10
35.759335
 20
258.35382
 30
0.0
 40
0.1185
100
AcDbArc
 50
270.0
 51
90.0
  0
LINE
  5
C32B
330
C206
100
AcDbEntity
  8
1
  6
Continuous
100
AcDbLine
 10
29.70557799999999
 20
258.7087869999999
 30
0.0
 11
35.759335
 21
258.47232
 31
0.0
  0
LINE
  5
C32C
330
C206
100
AcDbEntity
  8
1
  6
Continuous
100
AcDbLine
 10
32.727835
 20
258.23532
 30
0.0
 11
29.696335
 21
258.472148
 31
0.0
  0
ARC
  5
C32D
330
C206
100
AcDbEntity
  8
1
  6
Continuous
100
AcDbCircle
 10
29.68058499999999
 20
259.46476
 30
0.0
 40
0.10275
100
AcDbArc
 50
90.0
 51
270.0
  0
ARC
  5
C32E
330
C206
100
AcDbEntity
  8
1
  6
Continuous
100
AcDbCircle
 10
35.77508499999999
 20
259.2589429999999
 30
0.0
 40
0.10275
100
AcDbArc
 50
270.0
 51
90.0
  0
LINE
  5
C32F
330
C206
100
AcDbEntity
  8
1
  6
Continuous
100
AcDbLine
 10
29.68058499999999
 20
259.56751
 30
0.0
 11
35.77508499999999
 21
259.361693
 31
0.0
  0
LINE
  5
C330
330
C206
100
AcDbEntity
  8
1
  6
Continuous
100
AcDbLine
 10
29.68058499999999
 20
259.3620099999998
 30
0.0
 11
32.727835
 21
259.1561929999999
 31
0.0
  0
ARC
  5
C331
330
C206
100
AcDbEntity
  8
1
  6
Continuous
100
AcDbCircle
 10
35.78983499999999
 20
260.040892
 30
0.0
 40
0.088
100
AcDbArc
 50
270.0
 51
90.0
  0
ARC
  5
C332
330
C206
100
AcDbEntity
  8
1
  6
Continuous
100
AcDbCircle
 10
29.665835
 20
260.2165859999999
 30
0.0
 40
0.088
100
AcDbArc
 50
86.71334399999997
 51
270.0
  0
LINE
  5
C333
330
C206
100
AcDbEntity
  8
1
  6
Continuous
100
AcDbLine
 10
29.67088
 20
260.3044409999998
 30
0.0
 11
35.78983499999999
 21
260.128892
 31
0.0
  0
LINE
  5
C334
330
C206
100
AcDbEntity
  8
1
  6
Continuous
100
AcDbLine
 10
29.665835
 20
260.1285859999999
 30
0.0
 11
32.727835
 21
259.952892
 31
0.0
  0
ARC
  5
C335
330
C206
100
AcDbEntity
  8
1
  6
Continuous
100
AcDbCircle
 10
29.640085
 20
260.863081
 30
0.0
 40
0.06225
100
AcDbArc
 50
90.0
 51
270.0
  0
ARC
  5
C336
330
C206
100
AcDbEntity
  8
1
  6
Continuous
100
AcDbCircle
 10
35.81558499999999
 20
260.6931799999999
 30
0.0
 40
0.06225
100
AcDbArc
 50
270.0
 51
90.0
  0
LINE
  5
C337
330
C206
100
AcDbEntity
  8
1
  6
Continuous
100
AcDbLine
 10
29.640085
 20
260.925331
 30
0.0
 11
35.81558499999999
 21
260.7554299999998
 31
0.0
  0
LINE
  5
C338
330
C206
100
AcDbEntity
  8
1
  6
Continuous
100
AcDbLine
 10
32.727835
 20
260.6309299999999
 30
0.0
 11
29.640085
 21
260.800831
 31
0.0
  0
ARC
  5
C339
330
C206
100
AcDbEntity
  8
1
  6
Continuous
100
AcDbCircle
 10
29.60758499999998
 20
261.4039599999999
 30
0.0
 40
0.02975
100
AcDbArc
 50
86.70546800000003
 51
270.0
  0
ARC
  5
C33A
330
C206
100
AcDbEntity
  8
1
  6
Continuous
100
AcDbCircle
 10
35.84808499999999
 20
261.224495
 30
0.0
 40
0.02975
100
AcDbArc
 50
270.0
 51
90.0
  0
LINE
  5
C33B
330
C206
100
AcDbEntity
  8
1
  6
Continuous
100
AcDbLine
 10
35.84808499999999
 20
261.254245
 30
0.0
 11
29.60929399999999
 21
261.4336609999999
 31
0.0
  0
LINE
  5
C33C
330
C206
100
AcDbEntity
  8
1
  6
Continuous
100
AcDbLine
 10
29.60758499999998
 20
261.37421
 30
0.0
 11
32.727835
 21
261.194745
 31
0.0
  0
LINE
  5
C33D
330
C206
100
AcDbEntity
  8
1
  6
Continuous
100
AcDbLine
 10
32.727835
 20
261.992199
 30
0.0
 11
35.84458499999997
 21
261.992199
 31
0.0
  0
ARC
  5
C33E
330
C206
100
AcDbEntity
  8
1
  6
Continuous
100
AcDbCircle
 10
29.61108499999999
 20
262.091829
 30
0.0
 40
0.03325
100
AcDbArc
 50
88.77976600000001
 51
270.0
  0
LINE
  5
C33F
330
C206
100
AcDbEntity
  8
1
  6
Continuous
100
AcDbLine
 10
29.61179299999999
 20
262.1250709999998
 30
0.0
 11
35.84458499999997
 21
262.058699
 31
0.0
  0
LINE
  5
C340
330
C206
100
AcDbEntity
  8
1
  6
Continuous
100
AcDbLine
 10
32.727835
 20
261.992199
 30
0.0
 11
29.61108499999999
 21
262.058579
 31
0.0
  0
ARC
  5
C341
330
C206
100
AcDbEntity
  8
1
  6
Continuous
100
AcDbCircle
 10
29.624085
 20
261.786588
 30
0.0
 40
0.04625
100
AcDbArc
 50
88.292947
 51
270.0
  0
LINE
  5
C342
330
C206
100
AcDbEntity
  8
1
  6
Continuous
100
AcDbLine
 10
35.83158499999999
 20
261.740359
 30
0.0
 11
29.62546299999999
 21
261.8328169999999
 31
0.0
  0
LINE
  5
C343
330
C206
100
AcDbEntity
  8
1
  6
Continuous
100
AcDbLine
 10
29.624085
 20
261.740338
 30
0.0
 11
32.727835
 21
261.6478589999999
 31
0.0
  0
LINE
  5
C344
330
C206
100
AcDbEntity
  8
1
  6
Continuous
100
AcDbLine
 10
29.901777
 20
231.449445
 30
0.0
 11
35.53931099999999
 21
230.85602
 31
0.0
  0
LINE
  5
C345
330
C206
100
AcDbEntity
  8
1
  6
Continuous
100
AcDbLine
 10
29.901777
 20
233.849445
 30
0.0
 11
35.53931099999999
 21
233.25602
 31
0.0
  0
LINE
  5
C346
330
C206
100
AcDbEntity
  8
1
  6
Continuous
100
AcDbLine
 10
29.901777
 20
236.249445
 30
0.0
 11
35.53931099999999
 21
235.65602
 31
0.0
  0
LINE
  5
C347
330
C206
100
AcDbEntity
  8
1
  6
Continuous
100
AcDbLine
 10
29.901777
 20
238.6494449999999
 30
0.0
 11
35.53931099999999
 21
238.05602
 31
0.0
  0
LINE
  5
C348
330
C206
100
AcDbEntity
  8
1
  6
Continuous
100
AcDbLine
 10
29.901777
 20
241.0494449999999
 30
0.0
 11
35.53931099999999
 21
240.45602
 31
0.0
  0
LINE
  5
C349
330
C206
100
AcDbEntity
  8
1
  6
Continuous
100
AcDbLine
 10
29.901777
 20
243.449445
 30
0.0
 11
35.53931099999999
 21
242.85602
 31
0.0
  0
LINE
  5
C34A
330
C206
100
AcDbEntity
  8
1
  6
Continuous
100
AcDbLine
 10
29.901777
 20
245.849445
 30
0.0
 11
35.53931099999999
 21
245.25602
 31
0.0
  0
LINE
  5
C34B
330
C206
100
AcDbEntity
  8
1
  6
Continuous
100
AcDbLine
 10
29.83931099999999
 20
230.85602
 30
0.0
 11
32.536479
 21
230.288195
 31
0.0
  0
ARC
  5
C34C
330
C206
100
AcDbEntity
  8
1
  6
Continuous
100
AcDbCircle
 10
29.83931099999999
 20
231.15602
 30
0.0
 40
0.3
100
AcDbArc
 50
77.981988
 51
270.0
  0
ARC
  5
C34D
330
C206
100
AcDbEntity
  8
1
  6
Continuous
100
AcDbCircle
 10
29.83931099999999
 20
233.5560199999999
 30
0.0
 40
0.3
100
AcDbArc
 50
77.981988
 51
270.0
  0
LINE
  5
C34E
330
C206
100
AcDbEntity
  8
1
  6
Continuous
100
AcDbLine
 10
29.83931099999999
 20
233.25602
 30
0.0
 11
32.536479
 21
232.688195
 31
0.0
  0
LINE
  5
C34F
330
C206
100
AcDbEntity
  8
1
  6
Continuous
100
AcDbLine
 10
29.83931099999999
 20
235.65602
 30
0.0
 11
32.536479
 21
235.088195
 31
0.0
  0
ARC
  5
C350
330
C206
100
AcDbEntity
  8
1
  6
Continuous
100
AcDbCircle
 10
29.83931099999999
 20
235.95602
 30
0.0
 40
0.3
100
AcDbArc
 50
77.981988
 51
270.0
  0
ARC
  5
C351
330
C206
100
AcDbEntity
  8
1
  6
Continuous
100
AcDbCircle
 10
29.83931099999999
 20
238.35602
 30
0.0
 40
0.3
100
AcDbArc
 50
77.981988
 51
270.0
  0
LINE
  5
C352
330
C206
100
AcDbEntity
  8
1
  6
Continuous
100
AcDbLine
 10
29.83931099999999
 20
238.05602
 30
0.0
 11
32.536479
 21
237.4881949999999
 31
0.0
  0
LINE
  5
C353
330
C206
100
AcDbEntity
  8
1
  6
Continuous
100
AcDbLine
 10
29.83931099999999
 20
240.45602
 30
0.0
 11
32.536479
 21
239.888195
 31
0.0
  0
ARC
  5
C354
330
C206
100
AcDbEntity
  8
1
  6
Continuous
100
AcDbCircle
 10
29.83931099999999
 20
240.75602
 30
0.0
 40
0.3
100
AcDbArc
 50
77.981988
 51
270.0
  0
ARC
  5
C355
330
C206
100
AcDbEntity
  8
1
  6
Continuous
100
AcDbCircle
 10
29.83931099999999
 20
243.15602
 30
0.0
 40
0.3
100
AcDbArc
 50
77.981988
 51
270.0
  0
LINE
  5
C356
330
C206
100
AcDbEntity
  8
1
  6
Continuous
100
AcDbLine
 10
29.83931099999999
 20
242.85602
 30
0.0
 11
32.536479
 21
242.288195
 31
0.0
  0
LINE
  5
C357
330
C206
100
AcDbEntity
  8
1
  6
Continuous
100
AcDbLine
 10
29.83931099999999
 20
245.25602
 30
0.0
 11
32.536479
 21
244.688195
 31
0.0
  0
ARC
  5
C358
330
C206
100
AcDbEntity
  8
1
  6
Continuous
100
AcDbCircle
 10
29.83931099999999
 20
245.5560199999999
 30
0.0
 40
0.3
100
AcDbArc
 50
77.981988
 51
270.0
  0
LINE
  5
C359
330
C206
100
AcDbEntity
  8
1
  6
Continuous
100
AcDbLine
 10
29.901777
 20
248.249445
 30
0.0
 11
35.53931099999999
 21
247.65602
 31
0.0
  0
LINE
  5
C35A
330
C206
100
AcDbEntity
  8
1
  6
Continuous
100
AcDbLine
 10
29.901777
 20
250.6494449999999
 30
0.0
 11
35.53931099999999
 21
250.0560199999999
 31
0.0
  0
ARC
  5
C35B
330
C206
100
AcDbEntity
  8
1
  6
Continuous
100
AcDbCircle
 10
29.83931099999999
 20
247.95602
 30
0.0
 40
0.3
100
AcDbArc
 50
77.981988
 51
270.0
  0
LINE
  5
C35C
330
C206
100
AcDbEntity
  8
1
  6
Continuous
100
AcDbLine
 10
29.83931099999999
 20
247.65602
 30
0.0
 11
32.536479
 21
247.088195
 31
0.0
  0
ARC
  5
C35D
330
C206
100
AcDbEntity
  8
1
  6
Continuous
100
AcDbCircle
 10
29.83931099999999
 20
250.35602
 30
0.0
 40
0.3
100
AcDbArc
 50
77.981988
 51
270.0
  0
LINE
  5
C35E
330
C206
100
AcDbEntity
  8
1
  6
Continuous
100
AcDbLine
 10
29.83931099999999
 20
250.0560199999999
 30
0.0
 11
32.536479
 21
249.4881949999999
 31
0.0
  0
LINE
  5
C35F
330
C206
100
AcDbEntity
  8
1
  6
Continuous
100
AcDbLine
 10
32.845494
 20
230.25602
 30
0.0
 11
35.53931099999999
 21
230.25602
 31
0.0
  0
LINE
  5
C360
330
C206
100
AcDbEntity
  8
1
  6
Continuous
100
AcDbLine
 10
32.845494
 20
232.65602
 30
0.0
 11
35.53931099999999
 21
232.65602
 31
0.0
  0
LINE
  5
C361
330
C206
100
AcDbEntity
  8
1
  6
Continuous
100
AcDbLine
 10
32.845494
 20
235.0560199999999
 30
0.0
 11
35.53931099999999
 21
235.0560199999999
 31
0.0
  0
LINE
  5
C362
330
C206
100
AcDbEntity
  8
1
  6
Continuous
100
AcDbLine
 10
32.845494
 20
237.45602
 30
0.0
 11
35.53931099999999
 21
237.45602
 31
0.0
  0
LINE
  5
C363
330
C206
100
AcDbEntity
  8
1
  6
Continuous
100
AcDbLine
 10
32.845494
 20
239.85602
 30
0.0
 11
35.53931099999999
 21
239.85602
 31
0.0
  0
LINE
  5
C364
330
C206
100
AcDbEntity
  8
1
  6
Continuous
100
AcDbLine
 10
32.845494
 20
242.2560199999999
 30
0.0
 11
35.53931099999999
 21
242.2560199999999
 31
0.0
  0
LINE
  5
C365
330
C206
100
AcDbEntity
  8
1
  6
Continuous
100
AcDbLine
 10
32.845494
 20
244.6560199999999
 30
0.0
 11
35.53931099999999
 21
244.6560199999999
 31
0.0
  0
ARC
  5
C366
330
C206
100
AcDbEntity
  8
1
  6
Continuous
100
AcDbCircle
 10
35.53931099999999
 20
230.5560199999999
 30
0.0
 40
0.3
100
AcDbArc
 50
270.0
 51
90.0
  0
ARC
  5
C367
330
C206
100
AcDbEntity
  8
1
  6
Continuous
100
AcDbCircle
 10
35.53931099999999
 20
232.95602
 30
0.0
 40
0.3
100
AcDbArc
 50
270.0
 51
90.0
  0
ARC
  5
C368
330
C206
100
AcDbEntity
  8
1
  6
Continuous
100
AcDbCircle
 10
35.53931099999999
 20
235.35602
 30
0.0
 40
0.3
100
AcDbArc
 50
270.0
 51
90.0
  0
ARC
  5
C369
330
C206
100
AcDbEntity
  8
1
  6
Continuous
100
AcDbCircle
 10
35.53931099999999
 20
237.75602
 30
0.0
 40
0.3
100
AcDbArc
 50
270.0
 51
90.0
  0
ARC
  5
C36A
330
C206
100
AcDbEntity
  8
1
  6
Continuous
100
AcDbCircle
 10
35.53931099999999
 20
240.15602
 30
0.0
 40
0.3
100
AcDbArc
 50
270.0
 51
90.0
  0
ARC
  5
C36B
330
C206
100
AcDbEntity
  8
1
  6
Continuous
100
AcDbCircle
 10
35.53931099999999
 20
242.55602
 30
0.0
 40
0.3
100
AcDbArc
 50
270.0
 51
90.0
  0
ARC
  5
C36C
330
C206
100
AcDbEntity
  8
1
  6
Continuous
100
AcDbCircle
 10
35.53931099999999
 20
244.95602
 30
0.0
 40
0.3
100
AcDbArc
 50
270.0
 51
90.0
  0
LINE
  5
C36D
330
C206
100
AcDbEntity
  8
1
  6
Continuous
100
AcDbLine
 10
32.845494
 20
247.0560199999999
 30
0.0
 11
35.53931099999999
 21
247.0560199999999
 31
0.0
  0
LINE
  5
C36E
330
C206
100
AcDbEntity
  8
1
  6
Continuous
100
AcDbLine
 10
32.845494
 20
249.45602
 30
0.0
 11
35.53931099999999
 21
249.45602
 31
0.0
  0
ARC
  5
C36F
330
C206
100
AcDbEntity
  8
1
  6
Continuous
100
AcDbCircle
 10
35.53931099999999
 20
247.35602
 30
0.0
 40
0.3
100
AcDbArc
 50
270.0
 51
90.0
  0
ARC
  5
C370
330
C206
100
AcDbEntity
  8
1
  6
Continuous
100
AcDbCircle
 10
35.53931099999999
 20
249.75602
 30
0.0
 40
0.3
100
AcDbArc
 50
270.0
 51
90.0
  0
ARC
  5
C371
330
C206
100
AcDbEntity
  8
1
  6
Continuous
100
AcDbCircle
 10
32.845494
 20
231.7560199999999
 30
0.0
 40
1.5
100
AcDbArc
 50
258.1113419999999
 51
270.0
  0
ARC
  5
C372
330
C206
100
AcDbEntity
  8
1
  6
Continuous
100
AcDbCircle
 10
32.845494
 20
234.1560199999999
 30
0.0
 40
1.5
100
AcDbArc
 50
258.1113419999999
 51
270.0
  0
ARC
  5
C373
330
C206
100
AcDbEntity
  8
1
  6
Continuous
100
AcDbCircle
 10
32.845494
 20
236.55602
 30
0.0
 40
1.5
100
AcDbArc
 50
258.1113419999999
 51
270.0
  0
ARC
  5
C374
330
C206
100
AcDbEntity
  8
1
  6
Continuous
100
AcDbCircle
 10
32.845494
 20
238.95602
 30
0.0
 40
1.5
100
AcDbArc
 50
258.1113419999999
 51
270.0
  0
ARC
  5
C375
330
C206
100
AcDbEntity
  8
1
  6
Continuous
100
AcDbCircle
 10
32.845494
 20
241.35602
 30
0.0
 40
1.5
100
AcDbArc
 50
258.1113419999999
 51
270.0
  0
ARC
  5
C376
330
C206
100
AcDbEntity
  8
1
  6
Continuous
100
AcDbCircle
 10
32.845494
 20
243.75602
 30
0.0
 40
1.5
100
AcDbArc
 50
258.1113419999999
 51
270.0
  0
ARC
  5
C377
330
C206
100
AcDbEntity
  8
1
  6
Continuous
100
AcDbCircle
 10
32.845494
 20
246.15602
 30
0.0
 40
1.5
100
AcDbArc
 50
258.1113419999999
 51
270.0
  0
ARC
  5
C378
330
C206
100
AcDbEntity
  8
1
  6
Continuous
100
AcDbCircle
 10
32.845494
 20
248.55602
 30
0.0
 40
1.5
100
AcDbArc
 50
258.1113419999999
 51
270.0
  0
ARC
  5
C379
330
C206
100
AcDbEntity
  8
1
  6
Continuous
100
AcDbCircle
 10
32.845494
 20
250.95602
 30
0.0
 40
1.5
100
AcDbArc
 50
258.1113419999999
 51
270.0
  0
LINE
  5
C37A
330
C206
100
AcDbEntity
  8
1
  6
Continuous
100
AcDbLine
 10
137.957214
 20
323.5190719999998
 30
0.0
 11
137.36379
 21
317.8815369999999
 31
0.0
  0
LINE
  5
C37B
330
C206
100
AcDbEntity
  8
1
  6
Continuous
100
AcDbLine
 10
140.357214
 20
323.5190719999998
 30
0.0
 11
139.76379
 21
317.8815369999999
 31
0.0
  0
LINE
  5
C37C
330
C206
100
AcDbEntity
  8
1
  6
Continuous
100
AcDbLine
 10
142.7572139999998
 20
323.5190719999998
 30
0.0
 11
142.1637899999998
 21
317.8815369999999
 31
0.0
  0
LINE
  5
C37D
330
C206
100
AcDbEntity
  8
1
  6
Continuous
100
AcDbLine
 10
137.36379
 20
323.581537
 30
0.0
 11
136.7959649999999
 21
320.88437
 31
0.0
  0
ARC
  5
C37E
330
C206
100
AcDbEntity
  8
1
  6
Continuous
100
AcDbCircle
 10
137.6637899999997
 20
323.581537
 30
0.0
 40
0.3
100
AcDbArc
 50
347.9819879999998
 51
180.0
  0
ARC
  5
C37F
330
C206
100
AcDbEntity
  8
1
  6
Continuous
100
AcDbCircle
 10
140.0637899999999
 20
323.581537
 30
0.0
 40
0.3
100
AcDbArc
 50
347.9819879999998
 51
180.0
  0
LINE
  5
C380
330
C206
100
AcDbEntity
  8
1
  6
Continuous
100
AcDbLine
 10
139.76379
 20
323.581537
 30
0.0
 11
139.1959649999998
 21
320.88437
 31
0.0
  0
LINE
  5
C381
330
C206
100
AcDbEntity
  8
1
  6
Continuous
100
AcDbLine
 10
142.1637899999998
 20
323.581537
 30
0.0
 11
141.5959649999998
 21
320.88437
 31
0.0
  0
ARC
  5
C382
330
C206
100
AcDbEntity
  8
1
  6
Continuous
100
AcDbCircle
 10
142.46379
 20
323.581537
 30
0.0
 40
0.3
100
AcDbArc
 50
347.9819879999998
 51
180.0
  0
LINE
  5
C383
330
C206
100
AcDbEntity
  8
1
  6
Continuous
100
AcDbLine
 10
136.76379
 20
320.575355
 30
0.0
 11
136.76379
 21
317.8815369999999
 31
0.0
  0
LINE
  5
C384
330
C206
100
AcDbEntity
  8
1
  6
Continuous
100
AcDbLine
 10
139.1637899999998
 20
320.575355
 30
0.0
 11
139.1637899999998
 21
317.8815369999999
 31
0.0
  0
LINE
  5
C385
330
C206
100
AcDbEntity
  8
1
  6
Continuous
100
AcDbLine
 10
141.5637899999999
 20
320.575355
 30
0.0
 11
141.5637899999999
 21
317.8815369999999
 31
0.0
  0
ARC
  5
C386
330
C206
100
AcDbEntity
  8
1
  6
Continuous
100
AcDbCircle
 10
137.0637899999999
 20
317.8815369999999
 30
0.0
 40
0.3
100
AcDbArc
 50
180.0
 51
0.0
  0
ARC
  5
C387
330
C206
100
AcDbEntity
  8
1
  6
Continuous
100
AcDbCircle
 10
139.4637899999999
 20
317.8815369999999
 30
0.0
 40
0.3
100
AcDbArc
 50
180.0
 51
0.0
  0
ARC
  5
C388
330
C206
100
AcDbEntity
  8
1
  6
Continuous
100
AcDbCircle
 10
141.86379
 20
317.8815369999999
 30
0.0
 40
0.3
100
AcDbArc
 50
180.0
 51
0.0
  0
ARC
  5
C389
330
C206
100
AcDbEntity
  8
1
  6
Continuous
100
AcDbCircle
 10
138.2637899999998
 20
320.575355
 30
0.0
 40
1.5
100
AcDbArc
 50
168.1113419999998
 51
180.0
  0
ARC
  5
C38A
330
C206
100
AcDbEntity
  8
1
  6
Continuous
100
AcDbCircle
 10
140.6637899999997
 20
320.575355
 30
0.0
 40
1.5
100
AcDbArc
 50
168.1113419999998
 51
180.0
  0
ARC
  5
C38B
330
C206
100
AcDbEntity
  8
1
  6
Continuous
100
AcDbCircle
 10
143.0637899999998
 20
320.575355
 30
0.0
 40
1.5
100
AcDbArc
 50
168.1113419999998
 51
180.0
  0
LINE
  5
C38C
330
C206
100
AcDbEntity
  8
1
  6
Continuous
100
AcDbLine
 10
208.1347849999999
 20
320.3929089999999
 30
0.0
 11
208.1347849999999
 21
317.699092
 31
0.0
  0
LINE
  5
C38D
330
C206
100
AcDbEntity
  8
1
  6
Continuous
100
AcDbLine
 10
209.32821
 20
323.3366259999999
 30
0.0
 11
208.734785
 21
317.699092
 31
0.0
  0
LINE
  5
C38E
330
C206
100
AcDbEntity
  8
1
  6
Continuous
100
AcDbLine
 10
210.534785
 20
320.3929089999999
 30
0.0
 11
210.534785
 21
317.699092
 31
0.0
  0
LINE
  5
C38F
330
C206
100
AcDbEntity
  8
1
  6
Continuous
100
AcDbLine
 10
211.7282099999999
 20
323.3366259999999
 30
0.0
 11
211.134785
 21
317.699092
 31
0.0
  0
LINE
  5
C390
330
C206
100
AcDbEntity
  8
1
  6
Continuous
100
AcDbLine
 10
212.934785
 20
320.3929089999999
 30
0.0
 11
212.934785
 21
317.699092
 31
0.0
  0
LINE
  5
C391
330
C206
100
AcDbEntity
  8
1
  6
Continuous
100
AcDbLine
 10
214.12821
 20
323.3366259999999
 30
0.0
 11
213.534785
 21
317.699092
 31
0.0
  0
LINE
  5
C392
330
C206
100
AcDbEntity
  8
1
  6
Continuous
100
AcDbLine
 10
215.334785
 20
320.3929089999999
 30
0.0
 11
215.334785
 21
317.699092
 31
0.0
  0
LINE
  5
C393
330
C206
100
AcDbEntity
  8
1
  6
Continuous
100
AcDbLine
 10
216.52821
 20
323.3366259999999
 30
0.0
 11
215.934785
 21
317.699092
 31
0.0
  0
ARC
  5
C394
330
C206
100
AcDbEntity
  8
1
  6
Continuous
100
AcDbCircle
 10
208.4347849999999
 20
317.699092
 30
0.0
 40
0.3
100
AcDbArc
 50
180.0
 51
0.0
  0
ARC
  5
C395
330
C206
100
AcDbEntity
  8
1
  6
Continuous
100
AcDbCircle
 10
210.834785
 20
317.699092
 30
0.0
 40
0.3
100
AcDbArc
 50
180.0
 51
0.0
  0
ARC
  5
C396
330
C206
100
AcDbEntity
  8
1
  6
Continuous
100
AcDbCircle
 10
213.2347849999999
 20
317.699092
 30
0.0
 40
0.3
100
AcDbArc
 50
180.0
 51
0.0
  0
ARC
  5
C397
330
C206
100
AcDbEntity
  8
1
  6
Continuous
100
AcDbCircle
 10
215.6347849999999
 20
317.699092
 30
0.0
 40
0.3
100
AcDbArc
 50
180.0
 51
0.0
  0
ARC
  5
C398
330
C206
100
AcDbEntity
  8
1
  6
Continuous
100
AcDbCircle
 10
209.6347849999999
 20
320.3929089999999
 30
0.0
 40
1.5
100
AcDbArc
 50
168.1113419999998
 51
180.0
  0
ARC
  5
C399
330
C206
100
AcDbEntity
  8
1
  6
Continuous
100
AcDbCircle
 10
209.034785
 20
323.399092
 30
0.0
 40
0.3
100
AcDbArc
 50
347.9819879999998
 51
180.0
  0
LINE
  5
C39A
330
C206
100
AcDbEntity
  8
1
  6
Continuous
100
AcDbLine
 10
208.734785
 20
323.399092
 30
0.0
 11
208.166961
 21
320.701925
 31
0.0
  0
ARC
  5
C39B
330
C206
100
AcDbEntity
  8
1
  6
Continuous
100
AcDbCircle
 10
212.0347849999999
 20
320.3929089999999
 30
0.0
 40
1.5
100
AcDbArc
 50
168.1113419999998
 51
180.0
  0
LINE
  5
C39C
330
C206
100
AcDbEntity
  8
1
  6
Continuous
100
AcDbLine
 10
211.134785
 20
323.399092
 30
0.0
 11
210.566961
 21
320.701925
 31
0.0
  0
ARC
  5
C39D
330
C206
100
AcDbEntity
  8
1
  6
Continuous
100
AcDbCircle
 10
211.434785
 20
323.399092
 30
0.0
 40
0.3
100
AcDbArc
 50
347.9819879999998
 51
180.0
  0
ARC
  5
C39E
330
C206
100
AcDbEntity
  8
1
  6
Continuous
100
AcDbCircle
 10
214.4347849999999
 20
320.3929089999999
 30
0.0
 40
1.5
100
AcDbArc
 50
168.1113419999998
 51
180.0
  0
ARC
  5
C39F
330
C206
100
AcDbEntity
  8
1
  6
Continuous
100
AcDbCircle
 10
213.834785
 20
323.399092
 30
0.0
 40
0.3
100
AcDbArc
 50
347.9819879999998
 51
180.0
  0
LINE
  5
C3A0
330
C206
100
AcDbEntity
  8
1
  6
Continuous
100
AcDbLine
 10
213.534785
 20
323.399092
 30
0.0
 11
212.966961
 21
320.701925
 31
0.0
  0
ARC
  5
C3A1
330
C206
100
AcDbEntity
  8
1
  6
Continuous
100
AcDbCircle
 10
216.8347849999999
 20
320.3929089999999
 30
0.0
 40
1.5
100
AcDbArc
 50
168.1113419999998
 51
180.0
  0
LINE
  5
C3A2
330
C206
100
AcDbEntity
  8
1
  6
Continuous
100
AcDbLine
 10
215.934785
 20
323.399092
 30
0.0
 11
215.3669609999998
 21
320.701925
 31
0.0
  0
ARC
  5
C3A3
330
C206
100
AcDbEntity
  8
1
  6
Continuous
100
AcDbCircle
 10
216.2347849999999
 20
323.399092
 30
0.0
 40
0.3
100
AcDbArc
 50
347.9819879999998
 51
180.0
  0
ARC
  5
C3A4
330
C206
100
AcDbEntity
  8
1
  6
Continuous
100
AcDbCircle
 10
331.9435899999998
 20
258.794708
 30
0.0
 40
0.21525
100
AcDbArc
 50
81.619662
 51
270.0
  0
ARC
  5
C3A5
330
C206
100
AcDbEntity
  8
1
  6
Continuous
100
AcDbCircle
 10
331.920596
 20
260.0745089999999
 30
0.0
 40
0.19225
100
AcDbArc
 50
90.0
 51
270.0
  0
LINE
  5
C3A6
330
C206
100
AcDbEntity
  8
1
  6
Continuous
100
AcDbLine
 10
337.8130899999998
 20
258.149441
 30
0.0
 11
331.9435899999998
 21
258.5794579999998
 31
0.0
  0
LINE
  5
C3A7
330
C206
100
AcDbEntity
  8
1
  6
Continuous
100
AcDbLine
 10
331.974961
 20
259.0076599999998
 30
0.0
 11
334.8783399999998
 21
259.0076599999998
 31
0.0
  0
LINE
  5
C3A8
330
C206
100
AcDbEntity
  8
1
  6
Continuous
100
AcDbLine
 10
331.920596
 20
260.2667589999999
 30
0.0
 11
334.878346
 21
260.2667589999999
 31
0.0
  0
LINE
  5
C3A9
330
C206
100
AcDbEntity
  8
1
  6
Continuous
100
AcDbLine
 10
337.836096
 20
259.4976809999999
 30
0.0
 11
331.920596
 21
259.8822589999999
 31
0.0
  0
ARC
  5
C3AA
330
C206
100
AcDbEntity
  8
1
  6
Continuous
100
AcDbCircle
 10
337.8130899999998
 20
258.364691
 30
0.0
 40
0.21525
100
AcDbArc
 50
270.0
 51
90.0
  0
LINE
  5
C3AB
330
C206
100
AcDbEntity
  8
1
  6
Continuous
100
AcDbLine
 10
337.8130899999998
 20
258.579941
 30
0.0
 11
334.8783399999998
 21
259.0076599999998
 31
0.0
  0
LINE
  5
C3AC
330
C206
100
AcDbEntity
  8
1
  6
Continuous
100
AcDbLine
 10
337.836096
 20
259.882181
 30
0.0
 11
334.878346
 21
260.2667589999999
 31
0.0
  0
ARC
  5
C3AD
330
C206
100
AcDbEntity
  8
1
  6
Continuous
100
AcDbCircle
 10
337.836096
 20
259.6899309999999
 30
0.0
 40
0.19225
100
AcDbArc
 50
270.0
 51
90.0
  0
LINE
  5
C3AE
330
C206
100
AcDbEntity
  8
1
  6
Continuous
100
AcDbLine
 10
35.901533
 20
262.3691539999999
 30
0.0
 11
29.695411
 21
262.461612
 31
0.0
  0
LINE
  5
C3AF
330
C206
100
AcDbEntity
  8
1
  6
Continuous
100
AcDbLine
 10
32.797783
 20
262.276654
 30
0.0
 11
35.901533
 21
262.276654
 31
0.0
  0
LINE
  5
C3B0
330
C206
100
AcDbEntity
  8
1
  6
Continuous
100
AcDbLine
 10
29.646748
 20
262.753866
 30
0.0
 11
35.87953999999999
 21
262.6874939999999
 31
0.0
  0
LINE
  5
C3B1
330
C206
100
AcDbEntity
  8
1
  6
Continuous
100
AcDbLine
 10
32.76279000000001
 20
262.6209939999998
 30
0.0
 11
35.87953999999999
 21
262.6209939999998
 31
0.0
  0
LINE
  5
C3B2
330
C206
100
AcDbEntity
  8
1
  6
Continuous
100
AcDbLine
 10
29.694033
 20
262.3691329999999
 30
0.0
 11
32.797783
 21
262.276654
 31
0.0
  0
ARC
  5
C3B3
330
C206
100
AcDbEntity
  8
1
  6
Continuous
100
AcDbCircle
 10
29.694033
 20
262.415383
 30
0.0
 40
0.04625
100
AcDbArc
 50
88.292947
 51
270.0
  0
LINE
  5
C3B4
330
C206
100
AcDbEntity
  8
1
  6
Continuous
100
AcDbLine
 10
32.76279000000001
 20
262.6209939999998
 30
0.0
 11
29.64603999999999
 21
262.6873739999999
 31
0.0
  0
ARC
  5
C3B5
330
C206
100
AcDbEntity
  8
1
  6
Continuous
100
AcDbCircle
 10
29.64603999999999
 20
262.720624
 30
0.0
 40
0.03325
100
AcDbArc
 50
88.77976600000001
 51
270.0
  0
LINE
  5
C3B6
330
C206
100
AcDbEntity
  8
1
  6
Continuous
100
AcDbLine
 10
338.001898
 20
261.6344849999999
 30
0.0
 11
336.8005979999999
 21
261.6750539999998
 31
0.0
  0
ARC
  5
C3B7
330
C206
100
AcDbEntity
  8
1
  6
Continuous
100
AcDbCircle
 10
331.907398
 20
261.943052
 30
0.0
 40
0.10275
100
AcDbArc
 50
90.0
 51
270.0
  0
LINE
  5
C3B8
330
C206
100
AcDbEntity
  8
1
  6
Continuous
100
AcDbLine
 10
338.0185079999999
 20
260.7247
 30
0.0
 11
331.9647509999999
 21
260.961167
 31
0.0
  0
ARC
  5
C3B9
330
C206
100
AcDbEntity
  8
1
  6
Continuous
100
AcDbCircle
 10
331.9647509999999
 20
261.0796669999999
 30
0.0
 40
0.1185
100
AcDbArc
 50
90.0
 51
270.0
  0
LINE
  5
C3BA
330
C206
100
AcDbEntity
  8
1
  6
Continuous
100
AcDbLine
 10
332.144809
 20
262.045802
 30
0.0
 11
331.907398
 21
262.045802
 31
0.0
  0
LINE
  5
C3BB
330
C206
100
AcDbEntity
  8
1
  6
Continuous
100
AcDbLine
 10
334.9962509999999
 20
261.198167
 30
0.0
 11
331.9647509999999
 21
261.198167
 31
0.0
  0
LINE
  5
C3BC
330
C206
100
AcDbEntity
  8
1
  6
Continuous
100
AcDbLine
 10
338.001898
 20
261.839985
 30
0.0
 11
337.2677519999998
 21
261.8895709999998
 31
0.0
  0
ARC
  5
C3BD
330
C206
100
AcDbEntity
  8
1
  6
Continuous
100
AcDbCircle
 10
338.001898
 20
261.737235
 30
0.0
 40
0.10275
100
AcDbArc
 50
270.0
 51
90.0
  0
LINE
  5
C3BE
330
C206
100
AcDbEntity
  8
1
  6
Continuous
100
AcDbLine
 10
334.9962509999999
 20
261.198167
 30
0.0
 11
338.0277509999999
 21
260.961339
 31
0.0
  0
ARC
  5
C3BF
330
C206
100
AcDbEntity
  8
1
  6
Continuous
100
AcDbCircle
 10
338.0277509999999
 20
260.842839
 30
0.0
 40
0.1185
100
AcDbArc
 50
265.5261939999999
 51
90.0
  0
ARC
  5
C3C0
330
C206
100
AcDbEntity
  8
1
  6
Continuous
100
AcDbCircle
 10
35.53931099999999
 20
228.137199
 30
0.0
 40
0.3
100
AcDbArc
 50
270.0
 51
90.0
  0
LINE
  5
C3C1
330
C206
100
AcDbEntity
  8
1
  6
Continuous
100
AcDbLine
 10
32.845494
 20
227.837199
 30
0.0
 11
35.53931099999999
 21
227.837199
 31
0.0
  0
LINE
  5
C3C2
330
C206
100
AcDbEntity
  8
1
  6
Continuous
100
AcDbLine
 10
29.901777
 20
229.030624
 30
0.0
 11
35.53931099999999
 21
228.4371989999999
 31
0.0
  0
LINE
  5
C3C3
330
C206
100
AcDbEntity
  8
1
  6
Continuous
100
AcDbLine
 10
29.901777
 20
226.630624
 30
0.0
 11
35.53931099999999
 21
226.0371989999999
 31
0.0
  0
LINE
  5
C3C4
330
C206
100
AcDbEntity
  8
1
  6
Continuous
100
AcDbLine
 10
32.845494
 20
225.437199
 30
0.0
 11
35.53931099999999
 21
225.437199
 31
0.0
  0
LINE
  5
C3C5
330
C206
100
AcDbEntity
  8
1
  6
Continuous
100
AcDbLine
 10
32.845494
 20
223.037199
 30
0.0
 11
35.53931099999999
 21
223.037199
 31
0.0
  0
LINE
  5
C3C6
330
C206
100
AcDbEntity
  8
1
  6
Continuous
100
AcDbLine
 10
32.845494
 20
220.637199
 30
0.0
 11
35.53931099999999
 21
220.637199
 31
0.0
  0
LINE
  5
C3C7
330
C206
100
AcDbEntity
  8
1
  6
Continuous
100
AcDbLine
 10
32.845494
 20
218.237199
 30
0.0
 11
35.53931099999999
 21
218.237199
 31
0.0
  0
LINE
  5
C3C8
330
C206
100
AcDbEntity
  8
1
  6
Continuous
100
AcDbLine
 10
29.901777
 20
224.230624
 30
0.0
 11
35.53931099999999
 21
223.637199
 31
0.0
  0
LINE
  5
C3C9
330
C206
100
AcDbEntity
  8
1
  6
Continuous
100
AcDbLine
 10
29.901777
 20
221.830624
 30
0.0
 11
35.53931099999999
 21
221.237199
 31
0.0
  0
LINE
  5
C3CA
330
C206
100
AcDbEntity
  8
1
  6
Continuous
100
AcDbLine
 10
29.901777
 20
219.4306239999999
 30
0.0
 11
35.53931099999999
 21
218.837199
 31
0.0
  0
ARC
  5
C3CB
330
C206
100
AcDbEntity
  8
1
  6
Continuous
100
AcDbCircle
 10
29.83931099999999
 20
228.737199
 30
0.0
 40
0.3
100
AcDbArc
 50
77.981988
 51
270.0
  0
LINE
  5
C3CC
330
C206
100
AcDbEntity
  8
1
  6
Continuous
100
AcDbLine
 10
29.83931099999999
 20
228.4371989999999
 30
0.0
 11
32.536479
 21
227.869374
 31
0.0
  0
ARC
  5
C3CD
330
C206
100
AcDbEntity
  8
1
  6
Continuous
100
AcDbCircle
 10
29.83931099999999
 20
226.337199
 30
0.0
 40
0.3
100
AcDbArc
 50
77.981988
 51
270.0
  0
ARC
  5
C3CE
330
C206
100
AcDbEntity
  8
1
  6
Continuous
100
AcDbCircle
 10
29.83931099999999
 20
223.9371989999999
 30
0.0
 40
0.3
100
AcDbArc
 50
77.981988
 51
270.0
  0
LINE
  5
C3CF
330
C206
100
AcDbEntity
  8
1
  6
Continuous
100
AcDbLine
 10
29.83931099999999
 20
223.637199
 30
0.0
 11
32.536479
 21
223.0693739999999
 31
0.0
  0
LINE
  5
C3D0
330
C206
100
AcDbEntity
  8
1
  6
Continuous
100
AcDbLine
 10
29.83931099999999
 20
221.237199
 30
0.0
 11
32.536479
 21
220.669374
 31
0.0
  0
ARC
  5
C3D1
330
C206
100
AcDbEntity
  8
1
  6
Continuous
100
AcDbCircle
 10
29.83931099999999
 20
221.5371989999999
 30
0.0
 40
0.3
100
AcDbArc
 50
77.981988
 51
270.0
  0
ARC
  5
C3D2
330
C206
100
AcDbEntity
  8
1
  6
Continuous
100
AcDbCircle
 10
29.83931099999999
 20
219.1371989999999
 30
0.0
 40
0.3
100
AcDbArc
 50
77.981988
 51
270.0
  0
LINE
  5
C3D3
330
C206
100
AcDbEntity
  8
1
  6
Continuous
100
AcDbLine
 10
29.83931099999999
 20
218.837199
 30
0.0
 11
32.536479
 21
218.269374
 31
0.0
  0
LINE
  5
C3D4
330
C206
100
AcDbEntity
  8
1
  6
Continuous
100
AcDbLine
 10
29.83931099999999
 20
226.0371989999999
 30
0.0
 11
32.536479
 21
225.469374
 31
0.0
  0
ARC
  5
C3D5
330
C206
100
AcDbEntity
  8
1
  6
Continuous
100
AcDbCircle
 10
35.53931099999999
 20
223.337199
 30
0.0
 40
0.3
100
AcDbArc
 50
270.0
 51
90.0
  0
ARC
  5
C3D6
330
C206
100
AcDbEntity
  8
1
  6
Continuous
100
AcDbCircle
 10
35.53931099999999
 20
220.937199
 30
0.0
 40
0.3
100
AcDbArc
 50
270.0
 51
90.0
  0
ARC
  5
C3D7
330
C206
100
AcDbEntity
  8
1
  6
Continuous
100
AcDbCircle
 10
35.53931099999999
 20
218.5371989999999
 30
0.0
 40
0.3
100
AcDbArc
 50
270.0
 51
90.0
  0
ARC
  5
C3D8
330
C206
100
AcDbEntity
  8
1
  6
Continuous
100
AcDbCircle
 10
35.53931099999999
 20
225.737199
 30
0.0
 40
0.3
100
AcDbArc
 50
270.0
 51
90.0
  0
ARC
  5
C3D9
330
C206
100
AcDbEntity
  8
1
  6
Continuous
100
AcDbCircle
 10
35.53931099999999
 20
206.238871
 30
0.0
 40
0.3
100
AcDbArc
 50
270.0
 51
90.0
  0
ARC
  5
C3DA
330
C206
100
AcDbEntity
  8
1
  6
Continuous
100
AcDbCircle
 10
35.53931099999999
 20
208.638871
 30
0.0
 40
0.3
100
AcDbArc
 50
270.0
 51
90.0
  0
LINE
  5
C3DB
330
C206
100
AcDbEntity
  8
1
  6
Continuous
100
AcDbLine
 10
29.901777
 20
207.1322959999998
 30
0.0
 11
35.53931099999999
 21
206.538871
 31
0.0
  0
LINE
  5
C3DC
330
C206
100
AcDbEntity
  8
1
  6
Continuous
100
AcDbLine
 10
29.901777
 20
209.5322959999998
 30
0.0
 11
35.53931099999999
 21
208.938871
 31
0.0
  0
LINE
  5
C3DD
330
C206
100
AcDbEntity
  8
1
  6
Continuous
100
AcDbLine
 10
32.845494
 20
205.9388709999999
 30
0.0
 11
35.53931099999999
 21
205.9388709999999
 31
0.0
  0
LINE
  5
C3DE
330
C206
100
AcDbEntity
  8
1
  6
Continuous
100
AcDbLine
 10
32.845494
 20
208.3388709999999
 30
0.0
 11
35.53931099999999
 21
208.3388709999999
 31
0.0
  0
ARC
  5
C3DF
330
C206
100
AcDbEntity
  8
1
  6
Continuous
100
AcDbCircle
 10
35.53931099999999
 20
213.438871
 30
0.0
 40
0.3
100
AcDbArc
 50
270.0
 51
90.0
  0
ARC
  5
C3E0
330
C206
100
AcDbEntity
  8
1
  6
Continuous
100
AcDbCircle
 10
35.53931099999999
 20
211.038871
 30
0.0
 40
0.3
100
AcDbArc
 50
270.0
 51
90.0
  0
LINE
  5
C3E1
330
C206
100
AcDbEntity
  8
1
  6
Continuous
100
AcDbLine
 10
29.901777
 20
211.932296
 30
0.0
 11
35.53931099999999
 21
211.3388709999999
 31
0.0
  0
LINE
  5
C3E2
330
C206
100
AcDbEntity
  8
1
  6
Continuous
100
AcDbLine
 10
32.845494
 20
210.7388709999999
 30
0.0
 11
35.53931099999999
 21
210.7388709999999
 31
0.0
  0
LINE
  5
C3E3
330
C206
100
AcDbEntity
  8
1
  6
Continuous
100
AcDbLine
 10
32.845494
 20
213.1388709999999
 30
0.0
 11
35.53931099999999
 21
213.1388709999999
 31
0.0
  0
LINE
  5
C3E4
330
C206
100
AcDbEntity
  8
1
  6
Continuous
100
AcDbLine
 10
29.901777
 20
214.3322959999999
 30
0.0
 11
35.53931099999999
 21
213.7388709999999
 31
0.0
  0
LINE
  5
C3E5
330
C206
100
AcDbEntity
  8
1
  6
Continuous
100
AcDbLine
 10
29.901777
 20
216.7322959999999
 30
0.0
 11
35.53931099999999
 21
216.138871
 31
0.0
  0
LINE
  5
C3E6
330
C206
100
AcDbEntity
  8
1
  6
Continuous
100
AcDbLine
 10
32.845494
 20
215.5388709999999
 30
0.0
 11
35.53931099999999
 21
215.5388709999999
 31
0.0
  0
ARC
  5
C3E7
330
C206
100
AcDbEntity
  8
1
  6
Continuous
100
AcDbCircle
 10
35.53931099999999
 20
215.838871
 30
0.0
 40
0.3
100
AcDbArc
 50
270.0
 51
90.0
  0
LINE
  5
C3E8
330
C206
100
AcDbEntity
  8
1
  6
Continuous
100
AcDbLine
 10
29.83931099999999
 20
206.538871
 30
0.0
 11
32.536479
 21
205.971046
 31
0.0
  0
ARC
  5
C3E9
330
C206
100
AcDbEntity
  8
1
  6
Continuous
100
AcDbCircle
 10
29.83931099999999
 20
206.8388709999999
 30
0.0
 40
0.3
100
AcDbArc
 50
77.981988
 51
270.0
  0
ARC
  5
C3EA
330
C206
100
AcDbEntity
  8
1
  6
Continuous
100
AcDbCircle
 10
29.83931099999999
 20
209.2388709999999
 30
0.0
 40
0.3
100
AcDbArc
 50
77.981988
 51
270.0
  0
LINE
  5
C3EB
330
C206
100
AcDbEntity
  8
1
  6
Continuous
100
AcDbLine
 10
29.83931099999999
 20
208.938871
 30
0.0
 11
32.536479
 21
208.371046
 31
0.0
  0
LINE
  5
C3EC
330
C206
100
AcDbEntity
  8
1
  6
Continuous
100
AcDbLine
 10
29.83931099999999
 20
213.7388709999999
 30
0.0
 11
32.536479
 21
213.1710459999999
 31
0.0
  0
LINE
  5
C3ED
330
C206
100
AcDbEntity
  8
1
  6
Continuous
100
AcDbLine
 10
29.83931099999999
 20
211.3388709999999
 30
0.0
 11
32.536479
 21
210.7710459999999
 31
0.0
  0
ARC
  5
C3EE
330
C206
100
AcDbEntity
  8
1
  6
Continuous
100
AcDbCircle
 10
29.83931099999999
 20
211.6388709999999
 30
0.0
 40
0.3
100
AcDbArc
 50
77.981988
 51
270.0
  0
ARC
  5
C3EF
330
C206
100
AcDbEntity
  8
1
  6
Continuous
100
AcDbCircle
 10
29.83931099999999
 20
214.0388709999998
 30
0.0
 40
0.3
100
AcDbArc
 50
77.981988
 51
270.0
  0
LINE
  5
C3F0
330
C206
100
AcDbEntity
  8
1
  6
Continuous
100
AcDbLine
 10
29.83931099999999
 20
216.138871
 30
0.0
 11
32.536479
 21
215.5710459999998
 31
0.0
  0
ARC
  5
C3F1
330
C206
100
AcDbEntity
  8
1
  6
Continuous
100
AcDbCircle
 10
29.83931099999999
 20
216.438871
 30
0.0
 40
0.3
100
AcDbArc
 50
77.981988
 51
270.0
  0
LINE
  5
C3F2
330
C206
100
AcDbEntity
  8
1
  6
Continuous
100
AcDbLine
 10
171.301415
 20
323.42937
 30
0.0
 11
170.70799
 21
317.791836
 31
0.0
  0
LINE
  5
C3F3
330
C206
100
AcDbEntity
  8
1
  6
Continuous
100
AcDbLine
 10
170.70799
 20
323.4918359999999
 30
0.0
 11
170.1401659999999
 21
320.7946689999999
 31
0.0
  0
ARC
  5
C3F4
330
C206
100
AcDbEntity
  8
1
  6
Continuous
100
AcDbCircle
 10
171.0079899999998
 20
323.4918359999999
 30
0.0
 40
0.3
100
AcDbArc
 50
347.9819879999998
 51
180.0
  0
ARC
  5
C3F5
330
C206
100
AcDbEntity
  8
1
  6
Continuous
100
AcDbCircle
 10
173.4079899999999
 20
323.4918359999999
 30
0.0
 40
0.3
100
AcDbArc
 50
10.70813
 51
169.2918699999998
  0
LINE
  5
C3F6
330
C206
100
AcDbEntity
  8
1
  6
Continuous
100
AcDbLine
 10
170.10799
 20
320.4856529999998
 30
0.0
 11
170.10799
 21
317.791836
 31
0.0
  0
ARC
  5
C3F7
330
C206
100
AcDbEntity
  8
1
  6
Continuous
100
AcDbCircle
 10
170.4079899999999
 20
317.791836
 30
0.0
 40
0.3
100
AcDbArc
 50
180.0
 51
0.0
  0
ARC
  5
C3F8
330
C206
100
AcDbEntity
  8
1
  6
Continuous
100
AcDbCircle
 10
172.80799
 20
317.791836
 30
0.0
 40
0.3
100
AcDbArc
 50
234.507739
 51
305.4922609999999
  0
ARC
  5
C3F9
330
C206
100
AcDbEntity
  8
1
  6
Continuous
100
AcDbCircle
 10
171.6079899999998
 20
320.4856529999998
 30
0.0
 40
1.5
100
AcDbArc
 50
168.1113419999998
 51
180.0
  0
LINE
  5
C3FA
330
C206
100
AcDbEntity
  8
1
  6
Continuous
100
AcDbLine
 10
132.9273739999998
 20
323.4417829999998
 30
0.0
 11
132.3595489999999
 21
320.7446159999999
 31
0.0
  0
LINE
  5
C3FB
330
C206
100
AcDbEntity
  8
1
  6
Continuous
100
AcDbLine
 10
130.527374
 20
323.4417829999998
 30
0.0
 11
129.959549
 21
320.7446159999999
 31
0.0
  0
LINE
  5
C3FC
330
C206
100
AcDbEntity
  8
1
  6
Continuous
100
AcDbLine
 10
128.127374
 20
323.4417829999998
 30
0.0
 11
127.559549
 21
320.7446159999999
 31
0.0
  0
LINE
  5
C3FD
330
C206
100
AcDbEntity
  8
1
  6
Continuous
100
AcDbLine
 10
133.5207979999998
 20
323.379318
 30
0.0
 11
132.9273739999998
 21
317.7417829999999
 31
0.0
  0
LINE
  5
C3FE
330
C206
100
AcDbEntity
  8
1
  6
Continuous
100
AcDbLine
 10
131.120798
 20
323.379318
 30
0.0
 11
130.527374
 21
317.7417829999999
 31
0.0
  0
LINE
  5
C3FF
330
C206
100
AcDbEntity
  8
1
  6
Continuous
100
AcDbLine
 10
128.720798
 20
323.379318
 30
0.0
 11
128.127374
 21
317.7417829999999
 31
0.0
  0
LINE
  5
C400
330
C206
100
AcDbEntity
  8
1
  6
Continuous
100
AcDbLine
 10
134.9944
 20
323.491839
 30
0.0
 11
134.426576
 21
320.7946719999999
 31
0.0
  0
LINE
  5
C401
330
C206
100
AcDbEntity
  8
1
  6
Continuous
100
AcDbLine
 10
135.587825
 20
323.429373
 30
0.0
 11
134.9944
 21
317.7918389999998
 31
0.0
  0
ARC
  5
C402
330
C206
100
AcDbEntity
  8
1
  6
Continuous
100
AcDbCircle
 10
132.6273739999998
 20
317.7417829999999
 30
0.0
 40
0.3
100
AcDbArc
 50
180.0
 51
0.0
  0
ARC
  5
C403
330
C206
100
AcDbEntity
  8
1
  6
Continuous
100
AcDbCircle
 10
133.8273739999999
 20
320.4356009999999
 30
0.0
 40
1.5
100
AcDbArc
 50
168.1113419999998
 51
180.0
  0
ARC
  5
C404
330
C206
100
AcDbEntity
  8
1
  6
Continuous
100
AcDbCircle
 10
131.4273739999999
 20
320.4356009999999
 30
0.0
 40
1.5
100
AcDbArc
 50
168.1113419999998
 51
180.0
  0
ARC
  5
C405
330
C206
100
AcDbEntity
  8
1
  6
Continuous
100
AcDbCircle
 10
129.027374
 20
320.4356009999999
 30
0.0
 40
1.5
100
AcDbArc
 50
168.1113419999998
 51
180.0
  0
ARC
  5
C406
330
C206
100
AcDbEntity
  8
1
  6
Continuous
100
AcDbCircle
 10
130.2273739999999
 20
317.7417829999999
 30
0.0
 40
0.3
100
AcDbArc
 50
180.0
 51
0.0
  0
ARC
  5
C407
330
C206
100
AcDbEntity
  8
1
  6
Continuous
100
AcDbCircle
 10
127.827374
 20
317.7417829999999
 30
0.0
 40
0.3
100
AcDbArc
 50
180.0
 51
0.0
  0
LINE
  5
C408
330
C206
100
AcDbEntity
  8
1
  6
Continuous
100
AcDbLine
 10
132.3273739999999
 20
320.4356009999999
 30
0.0
 11
132.3273739999999
 21
317.7417829999999
 31
0.0
  0
LINE
  5
C409
330
C206
100
AcDbEntity
  8
1
  6
Continuous
100
AcDbLine
 10
129.9273739999998
 20
320.4356009999999
 30
0.0
 11
129.9273739999998
 21
317.7417829999999
 31
0.0
  0
LINE
  5
C40A
330
C206
100
AcDbEntity
  8
1
  6
Continuous
100
AcDbLine
 10
127.527374
 20
320.4356009999999
 30
0.0
 11
127.527374
 21
317.7417829999999
 31
0.0
  0
ARC
  5
C40B
330
C206
100
AcDbEntity
  8
1
  6
Continuous
100
AcDbCircle
 10
135.8943999999999
 20
320.485656
 30
0.0
 40
1.5
100
AcDbArc
 50
168.1113419999998
 51
180.0
  0
LINE
  5
C40C
330
C206
100
AcDbEntity
  8
1
  6
Continuous
100
AcDbLine
 10
134.3944
 20
320.485656
 30
0.0
 11
134.3944
 21
317.7918389999998
 31
0.0
  0
ARC
  5
C40D
330
C206
100
AcDbEntity
  8
1
  6
Continuous
100
AcDbCircle
 10
134.6944
 20
317.7918389999998
 30
0.0
 40
0.3
100
AcDbArc
 50
180.0
 51
0.0
  0
ARC
  5
C40E
330
C206
100
AcDbEntity
  8
1
  6
Continuous
100
AcDbCircle
 10
130.8273739999999
 20
323.4417829999998
 30
0.0
 40
0.3
100
AcDbArc
 50
347.9819879999998
 51
180.0
  0
ARC
  5
C40F
330
C206
100
AcDbEntity
  8
1
  6
Continuous
100
AcDbCircle
 10
128.4273739999999
 20
323.4417829999998
 30
0.0
 40
0.3
100
AcDbArc
 50
347.9819879999998
 51
180.0
  0
ARC
  5
C410
330
C206
100
AcDbEntity
  8
1
  6
Continuous
100
AcDbCircle
 10
133.2273739999999
 20
323.4417829999998
 30
0.0
 40
0.3
100
AcDbArc
 50
347.9819879999998
 51
180.0
  0
ARC
  5
C411
330
C206
100
AcDbEntity
  8
1
  6
Continuous
100
AcDbCircle
 10
135.2943999999999
 20
323.491839
 30
0.0
 40
0.3
100
AcDbArc
 50
347.9819879999998
 51
180.0
  0
LINE
  5
C412
330
C206
100
AcDbEntity
  8
1
  6
Continuous
100
AcDbLine
 10
121.5835699999999
 20
323.379318
 30
0.0
 11
120.9901459999999
 21
317.7417829999999
 31
0.0
  0
LINE
  5
C413
330
C206
100
AcDbEntity
  8
1
  6
Continuous
100
AcDbLine
 10
123.9835699999999
 20
323.379318
 30
0.0
 11
123.390146
 21
317.7417829999999
 31
0.0
  0
LINE
  5
C414
330
C206
100
AcDbEntity
  8
1
  6
Continuous
100
AcDbLine
 10
126.38357
 20
323.379318
 30
0.0
 11
125.790146
 21
317.7417829999999
 31
0.0
  0
LINE
  5
C415
330
C206
100
AcDbEntity
  8
1
  6
Continuous
100
AcDbLine
 10
120.9901459999999
 20
323.4417829999998
 30
0.0
 11
120.422321
 21
320.7446159999999
 31
0.0
  0
LINE
  5
C416
330
C206
100
AcDbEntity
  8
1
  6
Continuous
100
AcDbLine
 10
123.390146
 20
323.4417829999998
 30
0.0
 11
122.822321
 21
320.7446159999999
 31
0.0
  0
LINE
  5
C417
330
C206
100
AcDbEntity
  8
1
  6
Continuous
100
AcDbLine
 10
125.790146
 20
323.4417829999998
 30
0.0
 11
125.2223209999998
 21
320.7446159999999
 31
0.0
  0
LINE
  5
C418
330
C206
100
AcDbEntity
  8
1
  6
Continuous
100
AcDbLine
 10
120.3901459999999
 20
320.4356009999999
 30
0.0
 11
120.3901459999999
 21
317.7417829999999
 31
0.0
  0
LINE
  5
C419
330
C206
100
AcDbEntity
  8
1
  6
Continuous
100
AcDbLine
 10
122.790146
 20
320.4356009999999
 30
0.0
 11
122.790146
 21
317.7417829999999
 31
0.0
  0
LINE
  5
C41A
330
C206
100
AcDbEntity
  8
1
  6
Continuous
100
AcDbLine
 10
125.190146
 20
320.4356009999999
 30
0.0
 11
125.190146
 21
317.7417829999999
 31
0.0
  0
ARC
  5
C41B
330
C206
100
AcDbEntity
  8
1
  6
Continuous
100
AcDbCircle
 10
120.690146
 20
317.7417829999999
 30
0.0
 40
0.3
100
AcDbArc
 50
180.0
 51
0.0
  0
ARC
  5
C41C
330
C206
100
AcDbEntity
  8
1
  6
Continuous
100
AcDbCircle
 10
123.0901459999999
 20
317.7417829999999
 30
0.0
 40
0.3
100
AcDbArc
 50
180.0
 51
0.0
  0
ARC
  5
C41D
330
C206
100
AcDbEntity
  8
1
  6
Continuous
100
AcDbCircle
 10
121.890146
 20
320.4356009999999
 30
0.0
 40
1.5
100
AcDbArc
 50
168.1113419999998
 51
180.0
  0
ARC
  5
C41E
330
C206
100
AcDbEntity
  8
1
  6
Continuous
100
AcDbCircle
 10
124.2901459999998
 20
320.4356009999999
 30
0.0
 40
1.5
100
AcDbArc
 50
168.1113419999998
 51
180.0
  0
ARC
  5
C41F
330
C206
100
AcDbEntity
  8
1
  6
Continuous
100
AcDbCircle
 10
126.6901459999999
 20
320.4356009999999
 30
0.0
 40
1.5
100
AcDbArc
 50
168.1113419999998
 51
180.0
  0
ARC
  5
C420
330
C206
100
AcDbEntity
  8
1
  6
Continuous
100
AcDbCircle
 10
125.4901459999999
 20
317.7417829999999
 30
0.0
 40
0.3
100
AcDbArc
 50
180.0
 51
0.0
  0
ARC
  5
C421
330
C206
100
AcDbEntity
  8
1
  6
Continuous
100
AcDbCircle
 10
126.0901459999999
 20
323.4417829999998
 30
0.0
 40
0.3
100
AcDbArc
 50
347.9819879999998
 51
180.0
  0
ARC
  5
C422
330
C206
100
AcDbEntity
  8
1
  6
Continuous
100
AcDbCircle
 10
121.2901459999998
 20
323.4417829999998
 30
0.0
 40
0.3
100
AcDbArc
 50
347.9819879999998
 51
180.0
  0
ARC
  5
C423
330
C206
100
AcDbEntity
  8
1
  6
Continuous
100
AcDbCircle
 10
123.690146
 20
323.4417829999998
 30
0.0
 40
0.3
100
AcDbArc
 50
347.9819879999998
 51
180.0
  0
LINE
  5
C424
330
C206
100
AcDbEntity
  8
1
  6
Continuous
100
AcDbLine
 10
118.7719379999999
 20
323.4417829999998
 30
0.0
 11
118.2041129999998
 21
320.7446159999999
 31
0.0
  0
LINE
  5
C425
330
C206
100
AcDbEntity
  8
1
  6
Continuous
100
AcDbLine
 10
116.3719379999998
 20
323.4417829999998
 30
0.0
 11
115.8041129999999
 21
320.7446159999999
 31
0.0
  0
LINE
  5
C426
330
C206
100
AcDbEntity
  8
1
  6
Continuous
100
AcDbLine
 10
119.365362
 20
323.379318
 30
0.0
 11
118.7719379999999
 21
317.7417829999999
 31
0.0
  0
LINE
  5
C427
330
C206
100
AcDbEntity
  8
1
  6
Continuous
100
AcDbLine
 10
116.965362
 20
323.379318
 30
0.0
 11
116.3719379999998
 21
317.7417829999999
 31
0.0
  0
ARC
  5
C428
330
C206
100
AcDbEntity
  8
1
  6
Continuous
100
AcDbCircle
 10
119.6719379999999
 20
320.4356009999999
 30
0.0
 40
1.5
100
AcDbArc
 50
168.1113419999998
 51
180.0
  0
ARC
  5
C429
330
C206
100
AcDbEntity
  8
1
  6
Continuous
100
AcDbCircle
 10
117.2719379999999
 20
320.4356009999999
 30
0.0
 40
1.5
100
AcDbArc
 50
168.1113419999998
 51
180.0
  0
ARC
  5
C42A
330
C206
100
AcDbEntity
  8
1
  6
Continuous
100
AcDbCircle
 10
118.4719379999998
 20
317.7417829999999
 30
0.0
 40
0.3
100
AcDbArc
 50
180.0
 51
0.0
  0
ARC
  5
C42B
330
C206
100
AcDbEntity
  8
1
  6
Continuous
100
AcDbCircle
 10
116.0719379999999
 20
317.7417829999999
 30
0.0
 40
0.3
100
AcDbArc
 50
180.0
 51
0.0
  0
LINE
  5
C42C
330
C206
100
AcDbEntity
  8
1
  6
Continuous
100
AcDbLine
 10
118.1719379999998
 20
320.4356009999999
 30
0.0
 11
118.1719379999998
 21
317.7417829999999
 31
0.0
  0
LINE
  5
C42D
330
C206
100
AcDbEntity
  8
1
  6
Continuous
100
AcDbLine
 10
115.7719379999999
 20
320.4356009999999
 30
0.0
 11
115.7719379999999
 21
317.7417829999999
 31
0.0
  0
ARC
  5
C42E
330
C206
100
AcDbEntity
  8
1
  6
Continuous
100
AcDbCircle
 10
119.0719379999999
 20
323.4417829999998
 30
0.0
 40
0.3
100
AcDbArc
 50
347.9819879999998
 51
180.0
  0
ARC
  5
C42F
330
C206
100
AcDbEntity
  8
1
  6
Continuous
100
AcDbCircle
 10
116.6719379999999
 20
323.4417829999998
 30
0.0
 40
0.3
100
AcDbArc
 50
347.9819879999998
 51
180.0
  0
LINE
  5
C430
330
C206
100
AcDbEntity
  8
1
  6
Continuous
100
AcDbLine
 10
328.345952
 20
257.531266
 30
0.0
 11
329.9828929999998
 21
256.5491009999998
 31
0.0
  0
LINE
  5
C431
330
C206
100
AcDbEntity
  8
1
  6
Continuous
100
AcDbLine
 10
330.7550509999999
 20
256.4403589999999
 30
0.0
 11
334.5882889999999
 21
257.462556
 31
0.0
  0
LINE
  5
C432
330
C206
100
AcDbEntity
  8
1
  6
Continuous
100
AcDbLine
 10
335.103614
 20
257.462556
 30
0.0
 11
338.936852
 21
256.4403589999999
 31
0.0
  0
LINE
  5
C433
330
C206
100
AcDbEntity
  8
1
  6
Continuous
100
AcDbLine
 10
339.7090099999999
 20
256.5491009999998
 30
0.0
 11
341.3459519999999
 21
257.531266
 31
0.0
  0
LINE
  5
C434
330
C206
100
AcDbEntity
  8
1
  6
Continuous
100
AcDbLine
 10
341.3459519999999
 20
256.803264
 30
0.0
 11
339.7090099999999
 21
255.821099
 31
0.0
  0
LINE
  5
C435
330
C206
100
AcDbEntity
  8
1
  6
Continuous
100
AcDbLine
 10
338.936852
 20
255.7123569999999
 30
0.0
 11
335.103614
 21
256.734553
 31
0.0
  0
LINE
  5
C436
330
C206
100
AcDbEntity
  8
1
  6
Continuous
100
AcDbLine
 10
334.5882889999999
 20
256.734553
 30
0.0
 11
330.7550509999999
 21
255.7123569999999
 31
0.0
  0
LINE
  5
C437
330
C206
100
AcDbEntity
  8
1
  6
Continuous
100
AcDbLine
 10
329.9828929999998
 20
255.821099
 30
0.0
 11
328.345952
 21
256.803264
 31
0.0
  0
ARC
  5
C438
330
C206
100
AcDbEntity
  8
1
  6
Continuous
100
AcDbCircle
 10
339.1945149999999
 20
257.406594
 30
0.0
 40
1.0
100
AcDbArc
 50
255.0685829999999
 51
300.9637569999998
  0
ARC
  5
C439
330
C206
100
AcDbEntity
  8
1
  6
Continuous
100
AcDbCircle
 10
339.1945149999999
 20
256.678592
 30
0.0
 40
1.0
100
AcDbArc
 50
255.0685829999999
 51
300.9637569999998
  0
ARC
  5
C43A
330
C206
100
AcDbEntity
  8
1
  6
Continuous
100
AcDbCircle
 10
334.845952
 20
255.768319
 30
0.0
 40
1.0
100
AcDbArc
 50
75.06858299999997
 51
104.9314169999999
  0
ARC
  5
C43B
330
C206
100
AcDbEntity
  8
1
  6
Continuous
100
AcDbCircle
 10
334.845952
 20
256.496321
 30
0.0
 40
1.0
100
AcDbArc
 50
75.06858299999997
 51
104.9314169999999
  0
ARC
  5
C43C
330
C206
100
AcDbEntity
  8
1
  6
Continuous
100
AcDbCircle
 10
330.4973889999998
 20
256.678592
 30
0.0
 40
1.0
100
AcDbArc
 50
239.036243
 51
284.9314169999999
  0
ARC
  5
C43D
330
C206
100
AcDbEntity
  8
1
  6
Continuous
100
AcDbCircle
 10
330.4973889999998
 20
257.406594
 30
0.0
 40
1.0
100
AcDbArc
 50
239.036243
 51
284.9314169999999
  0
LINE
  5
C43E
330
C206
100
AcDbEntity
  8
1
  6
Continuous
100
AcDbLine
 10
332.5670319999999
 20
261.8180259999999
 30
0.0
 11
331.907398
 21
261.840302
 31
0.0
  0
LINE
  5
C43F
330
C206
100
AcDbEntity
  8
1
  6
Continuous
100
AcDbLine
 10
217.463921
 20
327.0475779999998
 30
0.0
 11
218.4460859999998
 21
325.410637
 31
0.0
  0
LINE
  5
C440
330
C206
100
AcDbEntity
  8
1
  6
Continuous
100
AcDbLine
 10
218.5548279999999
 20
324.6384779999999
 30
0.0
 11
217.463921
 21
320.5475779999998
 31
0.0
  0
LINE
  5
C441
330
C206
100
AcDbEntity
  8
1
  6
Continuous
100
AcDbLine
 10
217.463921
 20
320.5475779999998
 30
0.0
 11
218.5548279999999
 21
316.4566779999999
 31
0.0
  0
LINE
  5
C442
330
C206
100
AcDbEntity
  8
1
  6
Continuous
100
AcDbLine
 10
218.4460859999998
 20
315.6845189999998
 30
0.0
 11
217.463921
 21
314.047578
 31
0.0
  0
ARC
  5
C443
330
C206
100
AcDbEntity
  8
1
  6
Continuous
100
AcDbCircle
 10
217.588593
 20
324.896141
 30
0.0
 40
1.0
100
AcDbArc
 50
345.0685829999998
 51
30.96375700000001
  0
ARC
  5
C444
330
C206
100
AcDbEntity
  8
1
  6
Continuous
100
AcDbCircle
 10
217.588593
 20
316.1990149999998
 30
0.0
 40
1.0
100
AcDbArc
 50
329.036243
 51
14.931417
  0
ARC
  5
C445
330
C206
100
AcDbEntity
  8
1
  6
Continuous
100
AcDbCircle
 10
207.0055729999999
 20
323.399092
 30
0.0
 40
0.3
100
AcDbArc
 50
347.9819879999998
 51
180.0
  0
LINE
  5
C446
330
C206
100
AcDbEntity
  8
1
  6
Continuous
100
AcDbLine
 10
207.298998
 20
323.3366259999999
 30
0.0
 11
206.7055729999999
 21
317.699092
 31
0.0
  0
LINE
  5
C447
330
C206
100
AcDbEntity
  8
1
  6
Continuous
100
AcDbLine
 10
206.7055729999999
 20
323.399092
 30
0.0
 11
206.1377489999999
 21
320.701925
 31
0.0
  0
LINE
  5
C448
330
C206
100
AcDbEntity
  8
1
  6
Continuous
100
AcDbLine
 10
206.105573
 20
320.3929089999999
 30
0.0
 11
206.105573
 21
317.699092
 31
0.0
  0
ARC
  5
C449
330
C206
100
AcDbEntity
  8
1
  6
Continuous
100
AcDbCircle
 10
206.405573
 20
317.699092
 30
0.0
 40
0.3
100
AcDbArc
 50
180.0
 51
0.0
  0
LINE
  5
C44A
330
C206
100
AcDbEntity
  8
1
  6
Continuous
100
AcDbLine
 10
206.1377489999999
 20
320.701925
 30
0.0
 11
206.105573
 21
320.3929089999999
 31
0.0
  0
LINE
  5
C44B
330
C206
100
AcDbEntity
  8
1
  6
Continuous
100
AcDbLine
 10
35.87953999999999
 20
262.6874939999999
 30
0.0
 11
35.87953999999999
 21
262.6209939999998
 31
0.0
  0
LINE
  5
C44C
330
C206
100
AcDbEntity
  8
1
  6
Continuous
100
AcDbLine
 10
35.901533
 20
262.3691539999999
 30
0.0
 11
35.901533
 21
262.276654
 31
0.0
  0
LINE
  5
C44D
330
C206
100
AcDbEntity
  8
1
  6
Continuous
100
AcDbLine
 10
35.84458499999997
 20
262.058699
 30
0.0
 11
35.84458499999997
 21
261.992199
 31
0.0
  0
LINE
  5
C44E
330
C206
100
AcDbEntity
  8
1
  6
Continuous
100
AcDbLine
 10
35.83158499999999
 20
261.740359
 30
0.0
 11
35.83158499999999
 21
261.6478589999999
 31
0.0
  0
LINE
  5
C44F
330
C206
100
AcDbEntity
  8
1
  6
Continuous
100
AcDbLine
 10
32.536479
 20
205.971046
 30
0.0
 11
32.845494
 21
205.9388709999999
 31
0.0
  0
LINE
  5
C450
330
C206
100
AcDbEntity
  8
1
  6
Continuous
100
AcDbLine
 10
32.536479
 20
208.371046
 30
0.0
 11
32.845494
 21
208.3388709999999
 31
0.0
  0
LINE
  5
C451
330
C206
100
AcDbEntity
  8
1
  6
Continuous
100
AcDbLine
 10
32.536479
 20
210.7710459999999
 30
0.0
 11
32.845494
 21
210.7388709999999
 31
0.0
  0
LINE
  5
C452
330
C206
100
AcDbEntity
  8
1
  6
Continuous
100
AcDbLine
 10
32.536479
 20
213.1710459999999
 30
0.0
 11
32.845494
 21
213.1388709999999
 31
0.0
  0
LINE
  5
C453
330
C206
100
AcDbEntity
  8
1
  6
Continuous
100
AcDbLine
 10
32.536479
 20
215.5710459999998
 30
0.0
 11
32.845494
 21
215.5388709999999
 31
0.0
  0
LINE
  5
C454
330
C206
100
AcDbEntity
  8
1
  6
Continuous
100
AcDbLine
 10
32.536479
 20
225.469374
 30
0.0
 11
32.845494
 21
225.437199
 31
0.0
  0
LINE
  5
C455
330
C206
100
AcDbEntity
  8
1
  6
Continuous
100
AcDbLine
 10
32.536479
 20
223.0693739999999
 30
0.0
 11
32.845494
 21
223.037199
 31
0.0
  0
LINE
  5
C456
330
C206
100
AcDbEntity
  8
1
  6
Continuous
100
AcDbLine
 10
32.536479
 20
220.669374
 30
0.0
 11
32.845494
 21
220.637199
 31
0.0
  0
LINE
  5
C457
330
C206
100
AcDbEntity
  8
1
  6
Continuous
100
AcDbLine
 10
32.536479
 20
218.269374
 30
0.0
 11
32.845494
 21
218.237199
 31
0.0
  0
LINE
  5
C458
330
C206
100
AcDbEntity
  8
1
  6
Continuous
100
AcDbLine
 10
32.536479
 20
227.869374
 30
0.0
 11
32.845494
 21
227.837199
 31
0.0
  0
LINE
  5
C459
330
C206
100
AcDbEntity
  8
1
  6
Continuous
100
AcDbLine
 10
204.8989979999999
 20
323.3366259999999
 30
0.0
 11
204.305573
 21
317.699092
 31
0.0
  0
LINE
  5
C45A
330
C206
100
AcDbEntity
  8
1
  6
Continuous
100
AcDbLine
 10
204.305573
 20
323.399092
 30
0.0
 11
203.7377489999999
 21
320.701925
 31
0.0
  0
LINE
  5
C45B
330
C206
100
AcDbEntity
  8
1
  6
Continuous
100
AcDbLine
 10
203.705573
 20
320.3929089999999
 30
0.0
 11
203.705573
 21
317.699092
 31
0.0
  0
ARC
  5
C45C
330
C206
100
AcDbEntity
  8
1
  6
Continuous
100
AcDbCircle
 10
204.005573
 20
317.699092
 30
0.0
 40
0.3
100
AcDbArc
 50
180.0
 51
0.0
  0
LINE
  5
C45D
330
C206
100
AcDbEntity
  8
1
  6
Continuous
100
AcDbLine
 10
203.7377489999999
 20
320.701925
 30
0.0
 11
203.705573
 21
320.3929089999999
 31
0.0
  0
ARC
  5
C45E
330
C206
100
AcDbEntity
  8
1
  6
Continuous
100
AcDbCircle
 10
204.6055729999999
 20
323.399092
 30
0.0
 40
0.3
100
AcDbArc
 50
347.9819879999998
 51
180.0
  0
LINE
  5
C45F
330
C206
100
AcDbEntity
  8
1
  6
Continuous
100
AcDbLine
 10
201.905573
 20
323.399092
 30
0.0
 11
201.3377489999998
 21
320.701925
 31
0.0
  0
LINE
  5
C460
330
C206
100
AcDbEntity
  8
1
  6
Continuous
100
AcDbLine
 10
202.4989979999999
 20
323.3366259999999
 30
0.0
 11
201.905573
 21
317.699092
 31
0.0
  0
LINE
  5
C461
330
C206
100
AcDbEntity
  8
1
  6
Continuous
100
AcDbLine
 10
201.3377489999998
 20
320.701925
 30
0.0
 11
201.305573
 21
320.3929089999999
 31
0.0
  0
ARC
  5
C462
330
C206
100
AcDbEntity
  8
1
  6
Continuous
100
AcDbCircle
 10
201.605573
 20
317.699092
 30
0.0
 40
0.3
100
AcDbArc
 50
180.0
 51
0.0
  0
LINE
  5
C463
330
C206
100
AcDbEntity
  8
1
  6
Continuous
100
AcDbLine
 10
201.305573
 20
320.3929089999999
 30
0.0
 11
201.305573
 21
317.699092
 31
0.0
  0
ARC
  5
C464
330
C206
100
AcDbEntity
  8
1
  6
Continuous
100
AcDbCircle
 10
202.2055729999999
 20
323.399092
 30
0.0
 40
0.3
100
AcDbArc
 50
347.9819879999998
 51
180.0
  0
ARC
  5
C465
330
C206
100
AcDbEntity
  8
1
  6
Continuous
100
AcDbCircle
 10
179.7979549999998
 20
242.680371
 30
0.0
 40
23.081852
100
AcDbArc
 50
55.04852200000001
 51
65.71892700000002
  0
ARC
  5
C466
330
C206
100
AcDbEntity
  8
1
  6
Continuous
100
AcDbCircle
 10
170.594903
 20
87.38740899999998
 30
0.0
 40
175.649246
100
AcDbArc
 50
74.11753799999998
 51
82.66466599999999
  0
ARC
  5
C467
330
C206
100
AcDbEntity
  8
1
  6
Continuous
100
AcDbCircle
 10
179.7979549999998
 20
242.680371
 30
0.0
 40
22.28185199999999
100
AcDbArc
 50
55.169698
 51
64.988084
  0
ARC
  5
C468
330
C206
100
AcDbEntity
  8
1
  6
Continuous
100
AcDbCircle
 10
170.594903
 20
87.38740899999998
 30
0.0
 40
174.849246
100
AcDbArc
 50
74.23443
 51
82.64868299999998
  0
ARC
  5
C469
330
C206
100
AcDbEntity
  8
1
  6
Continuous
100
AcDbCircle
 10
179.7979549999998
 20
242.680371
 30
0.0
 40
21.48185199999999
100
AcDbArc
 50
55.169698
 51
64.19895
  0
ARC
  5
C46A
330
C206
100
AcDbEntity
  8
1
  6
Continuous
100
AcDbCircle
 10
170.594903
 20
87.38740899999998
 30
0.0
 40
174.0492459999999
100
AcDbArc
 50
74.23443
 51
82.64868299999998
  0
ARC
  5
C46B
330
C206
100
AcDbEntity
  8
1
  6
Continuous
100
AcDbCircle
 10
193.095333
 20
261.791216
 30
0.0
 40
1.0
100
AcDbArc
 50
235.169698
 51
262.648683
  0
ARC
  5
C46C
330
C206
100
AcDbEntity
  8
1
  6
Continuous
100
AcDbCircle
 10
193.095333
 20
261.791216
 30
0.0
 40
1.8
100
AcDbArc
 50
235.169698
 51
262.648683
  0
ARC
  5
C46D
330
C206
100
AcDbEntity
  8
1
  6
Continuous
100
AcDbCircle
 10
217.0693229999999
 20
252.0020269999999
 30
0.0
 40
3.0
100
AcDbArc
 50
65.257998
 51
74.23443
  0
ARC
  5
C46E
330
C206
100
AcDbEntity
  8
1
  6
Continuous
100
AcDbCircle
 10
217.0693229999999
 20
252.0020269999999
 30
0.0
 40
3.799999999999998
100
AcDbArc
 50
65.257998
 51
74.23443
  0
ARC
  5
C46F
330
C206
100
AcDbEntity
  8
5
  6
PHANTOM
100
AcDbCircle
 10
179.807444
 20
242.7942359999999
 30
0.0
 40
21.48185199999999
100
AcDbArc
 50
54.05323199999997
 51
64.19895
  0
ARC
  5
C470
330
C206
100
AcDbEntity
  8
5
  6
PHANTOM
100
AcDbCircle
 10
179.802897
 20
242.7396819999999
 30
0.0
 40
22.28185199999999
100
AcDbArc
 50
54.33571599999999
 51
64.988084
  0
ARC
  5
C471
330
C206
100
AcDbEntity
  8
5
  6
PHANTOM
100
AcDbCircle
 10
179.798698
 20
242.6892829999999
 30
0.0
 40
23.081852
100
AcDbArc
 50
54.47466600000001
 51
65.71892700000002
  0
ARC
  5
C472
330
C206
100
AcDbEntity
  8
5
  6
PHANTOM
100
AcDbCircle
 10
173.526552
 20
107.43778
 30
0.0
 40
155.2894809999999
100
AcDbArc
 50
73.23667299999998
 51
82.71772199999999
  0
ARC
  5
C473
330
C206
100
AcDbEntity
  8
5
  6
PHANTOM
100
AcDbCircle
 10
173.526552
 20
107.43778
 30
0.0
 40
154.489481
100
AcDbArc
 50
73.23667299999998
 51
82.66535000000002
  0
ARC
  5
C474
330
C206
100
AcDbEntity
  8
5
  6
PHANTOM
100
AcDbCircle
 10
173.526552
 20
107.43778
 30
0.0
 40
153.6894809999998
100
AcDbArc
 50
73.23667299999998
 51
82.629073
  0
ARC
  5
C475
330
C206
100
AcDbEntity
  8
5
  6
PHANTOM
100
AcDbCircle
 10
193.377029
 20
261.654956
 30
0.0
 40
1.0
100
AcDbArc
 50
234.335716
 51
262.6653499999998
  0
ARC
  5
C476
330
C206
100
AcDbEntity
  8
5
  6
PHANTOM
100
AcDbCircle
 10
193.4746679999999
 20
261.642356
 30
0.0
 40
1.8
100
AcDbArc
 50
234.053232
 51
262.629073
  0
ARC
  5
C477
330
C206
100
AcDbEntity
  8
5
  6
PHANTOM
100
AcDbCircle
 10
216.988261
 20
251.723606
 30
0.0
 40
3.0
100
AcDbArc
 50
64.106939
 51
73.23667299999998
  0
ARC
  5
C478
330
C206
100
AcDbEntity
  8
5
  6
PHANTOM
100
AcDbCircle
 10
216.988261
 20
251.723606
 30
0.0
 40
3.799999999999998
100
AcDbArc
 50
64.106939
 51
73.23667299999998
  0
ARC
  5
C479
330
C206
100
AcDbEntity
  8
5
  6
PHANTOM
100
AcDbCircle
 10
216.988261
 20
251.723606
 30
0.0
 40
4.599999999999997
100
AcDbArc
 50
64.106939
 51
73.23667299999998
  0
LINE
  5
C47A
330
C206
100
AcDbEntity
  8
1
  6
Continuous
100
AcDbLine
 10
330.8459519999999
 20
264.2382149999999
 30
0.0
 11
334.845952
 21
261.928814
 31
0.0
  0
LINE
  5
C47B
330
C206
100
AcDbEntity
  8
1
  6
Continuous
100
AcDbLine
 10
334.845952
 20
261.928814
 30
0.0
 11
338.845952
 21
264.2382149999999
 31
0.0
  0
LINE
  5
C47C
330
C206
100
AcDbEntity
  8
1
  6
Continuous
100
AcDbLine
 10
338.845952
 20
264.2382149999999
 30
0.0
 11
338.845952
 21
268.8570169999999
 31
0.0
  0
LINE
  5
C47D
330
C206
100
AcDbEntity
  8
1
  6
Continuous
100
AcDbLine
 10
338.845952
 20
268.8570169999999
 30
0.0
 11
334.845952
 21
271.166418
 31
0.0
  0
LINE
  5
C47E
330
C206
100
AcDbEntity
  8
1
  6
Continuous
100
AcDbLine
 10
334.845952
 20
271.166418
 30
0.0
 11
330.8459519999999
 21
268.8570169999999
 31
0.0
  0
LINE
  5
C47F
330
C206
100
AcDbEntity
  8
1
  6
Continuous
100
AcDbLine
 10
330.8459519999999
 20
268.8570169999999
 30
0.0
 11
330.8459519999999
 21
264.2382149999999
 31
0.0
  0
ENDSEC
  0
SECTION
  2
OBJECTS
  0
DICTIONARY
  5
C1F4
330
0
100
AcDbDictionary
281
     1
  3
ACAD_CIP_PREVIOUS_PRODUCT_INFO
350
C4DF
  3
ACAD_COLOR
350
C4C1
  3
ACAD_DETAILVIEWSTYLE
350
C4DA
  3
ACAD_GROUP
350
C1F5
  3
ACAD_LAYOUT
350
C201
  3
ACAD_MATERIAL
350
C48F
  3
ACAD_MLEADERSTYLE
350
C4D6
  3
ACAD_MLINESTYLE
350
C1FE
  3
ACAD_PLOTSETTINGS
350
C200
  3
ACAD_PLOTSTYLENAME
350
C48D
  3
ACAD_SCALELIST
350
C4C4
  3
ACAD_SECTIONVIEWSTYLE
350
C4D8
  3
ACAD_TABLESTYLE
350
C4C2
  3
ACAD_VISUALSTYLE
350
C4A8
  3
ACDB_RECOMPOSE_DATA
350
C4FD
  3
AcDbVariableDictionary
350
C4F0
  3
DWGPROPS
350
C4FE
  0
DICTIONARY
  5
C4E0
330
C1F8
100
AcDbDictionary
280
     1
281
     1
  3
ADSK_XREC_LAYER_RECONCILED
360
C4E1
  0
DICTIONARY
  5
C4E2
330
C20E
100
AcDbDictionary
280
     1
281
     1
  3
ADSK_XREC_LAYER_RECONCILED
360
C4E3
  0
DICTIONARY
  5
C4E4
330
C20F
100
AcDbDictionary
280
     1
281
     1
  3
ADSK_XREC_LAYER_RECONCILED
360
C4E5
  0
DICTIONARY
  5
C4E6
330
C210
100
AcDbDictionary
280
     1
281
     1
  3
ADSK_XREC_LAYER_RECONCILED
360
C4E7
  0
DICTIONARY
  5
C4E8
330
C211
100
AcDbDictionary
280
     1
281
     1
  3
ADSK_XREC_LAYER_RECONCILED
360
C4E9
  0
DICTIONARY
  5
C4EA
330
C212
100
AcDbDictionary
280
     1
281
     1
  3
ADSK_XREC_LAYER_RECONCILED
360
C4EB
  0
DICTIONARY
  5
C4EC
330
C213
100
AcDbDictionary
280
     1
281
     1
  3
ADSK_XREC_LAYER_RECONCILED
360
C4ED
  0
DICTIONARY
  5
C4EE
330
C214
100
AcDbDictionary
280
     1
281
     1
  3
ADSK_XREC_LAYER_RECONCILED
360
C4EF
  0
DICTIONARY
  5
C488
330
C206
100
AcDbDictionary
281
     1
  3
ACAD_LAYOUTSELFREF
350
C489
  0
DICTIONARY
  5
C486
330
C202
100
AcDbDictionary
281
     1
  3
ACAD_LAYOUTSELFREF
350
C487
  0
XRECORD
  5
C4DF
102
{ACAD_REACTORS
330
C1F4
102
}
330
C1F4
100
AcDbXrecord
280
     1
300
ACDLT
300
2014
300
ACDLT_F_S
  0
DICTIONARY
  5
C4C1
102
{ACAD_REACTORS
330
C1F4
102
}
330
C1F4
100
AcDbDictionary
281
     1
  0
DICTIONARY
  5
C4DA
102
{ACAD_REACTORS
330
C1F4
102
}
330
C1F4
100
AcDbDictionary
281
     1
  3
Imperial24
350
C4DB
  0
DICTIONARY
  5
C1F5
102
{ACAD_REACTORS
330
C1F4
102
}
330
C1F4
100
AcDbDictionary
281
     1
  0
DICTIONARY
  5
C201
102
{ACAD_REACTORS
330
C1F4
102
}
330
C1F4
100
AcDbDictionary
281
     1
  3
Model
350
C4DC
  3
レイアウト1
350
C4DD
  0
DICTIONARY
  5
C48F
102
{ACAD_REACTORS
330
C1F4
102
}
330
C1F4
100
AcDbDictionary
281
     1
  3
ByBlock
350
C498
  3
ByLayer
350
C490
  3
Global
350
C4A0
  0
DICTIONARY
  5
C4D6
102
{ACAD_REACTORS
330
C1F4
102
}
330
C1F4
100
AcDbDictionary
281
     1
  3
Standard
350
C4D7
  0
DICTIONARY
  5
C1FE
102
{ACAD_REACTORS
330
C1F4
102
}
330
C1F4
100
AcDbDictionary
281
     1
  3
STANDARD
350
C1FF
  0
DICTIONARY
  5
C200
102
{ACAD_REACTORS
330
C1F4
102
}
330
C1F4
100
AcDbDictionary
281
     1
  0
ACDBDICTIONARYWDFLT
  5
C48D
102
{ACAD_REACTORS
330
C1F4
102
}
330
C1F4
100
AcDbDictionary
281
     1
  3
Normal
350
C48E
100
AcDbDictionaryWithDefault
340
C48E
  0
DICTIONARY
  5
C4C4
102
{ACAD_REACTORS
330
C1F4
102
}
330
C1F4
100
AcDbDictionary
281
     1
  3
A0
350
C4C5
  3
A1
350
C4C6
  3
A2
350
C4C7
  3
A3
350
C4C8
  3
A4
350
C4C9
  3
A5
350
C4CA
  3
A6
350
C4CB
  3
A7
350
C4CC
  3
A8
350
C4CD
  3
A9
350
C4CE
  3
B0
350
C4CF
  3
B1
350
C4D0
  3
B2
350
C4D1
  3
B3
350
C4D2
  3
B4
350
C4D3
  3
B5
350
C4D4
  3
B6
350
C4D5
  0
DICTIONARY
  5
C4D8
102
{ACAD_REACTORS
330
C1F4
102
}
330
C1F4
100
AcDbDictionary
281
     1
  3
Imperial24
350
C4D9
  0
DICTIONARY
  5
C4C2
102
{ACAD_REACTORS
330
C1F4
102
}
330
C1F4
100
AcDbDictionary
281
     1
  3
Standard
350
C4C3
  0
DICTIONARY
  5
C4A8
102
{ACAD_REACTORS
330
C1F4
102
}
330
C1F4
100
AcDbDictionary
281
     1
  3
2dWireframe
350
C4AE
  3
Basic
350
C4AD
  3
Brighten
350
C4B4
  3
ColorChange
350
C4B8
  3
Conceptual
350
C4B1
  3
Dim
350
C4B3
  3
EdgeColorOff
350
C4C0
  3
Facepattern
350
C4B7
  3
Flat
350
C4A9
  3
FlatWithEdges
350
C4AA
  3
Gouraud
350
C4AB
  3
GouraudWithEdges
350
C4AC
  3
Hidden
350
C4B0
  3
JitterOff
350
C4BE
  3
Linepattern
350
C4B6
  3
OverhangOff
350
C4BF
  3
Realistic
350
C4B2
  3
Shaded
350
C4BD
  3
Shaded with edges
350
C4BC
  3
Shades of Gray
350
C4B9
  3
Sketchy
350
C4BA
  3
Thicken
350
C4B5
  3
Wireframe
350
C4AF
  3
X-Ray
350
C4BB
  0
XRECORD
  5
C4FD
102
{ACAD_REACTORS
330
C1F4
102
}
330
C1F4
100
AcDbXrecord
280
     1
 90
        1
330
C4C3
  0
DICTIONARY
  5
C4F0
102
{ACAD_REACTORS
330
C1F4
102
}
330
C1F4
100
AcDbDictionary
281
     1
  3
CANNOSCALE
350
C4F5
  3
CMLEADERSTYLE
350
C4F2
  3
CTABLESTYLE
350
C4F1
  3
CVIEWDETAILSTYLE
350
C4F3
  3
CVIEWSECTIONSTYLE
350
C4F4
  3
DIMASSOC
350
C4F8
  3
INDEXCTL
350
C4F7
  3
SORTENTS
350
C4F6
  3
XCLIPFRAME
350
C4F9
  0
XRECORD
  5
C4FE
102
{ACAD_REACTORS
330
C1F4
102
}
330
C1F4
100
AcDbXrecord
280
     1
  1
DWGPROPS COOKIE
  2

  3

  4

  6

  7

  8
Yoshitsune
  9

300
=
301
=
302
=
303
=
304
=
305
=
306
=
307
=
308
=
309
=
 40
0.0000103240740741
 41
2451296.793320487
 42
2457192.658223426
  1

 90
        0
  0
XRECORD
  5
C4E1
102
{ACAD_REACTORS
330
C4E0
102
}
330
C4E0
100
AcDbXrecord
280
     1
290
     1
  0
XRECORD
  5
C4E3
102
{ACAD_REACTORS
330
C4E2
102
}
330
C4E2
100
AcDbXrecord
280
     1
290
     1
  0
XRECORD
  5
C4E5
102
{ACAD_REACTORS
330
C4E4
102
}
330
C4E4
100
AcDbXrecord
280
     1
290
     1
  0
XRECORD
  5
C4E7
102
{ACAD_REACTORS
330
C4E6
102
}
330
C4E6
100
AcDbXrecord
280
     1
290
     1
  0
XRECORD
  5
C4E9
102
{ACAD_REACTORS
330
C4E8
102
}
330
C4E8
100
AcDbXrecord
280
     1
290
     1
  0
XRECORD
  5
C4EB
102
{ACAD_REACTORS
330
C4EA
102
}
330
C4EA
100
AcDbXrecord
280
     1
290
     1
  0
XRECORD
  5
C4ED
102
{ACAD_REACTORS
330
C4EC
102
}
330
C4EC
100
AcDbXrecord
280
     1
290
     1
  0
XRECORD
  5
C4EF
102
{ACAD_REACTORS
330
C4EE
102
}
330
C4EE
100
AcDbXrecord
280
     1
290
     1
  0
XRECORD
  5
C489
102
{ACAD_REACTORS
330
C488
102
}
330
C488
100
AcDbXrecord
280
     1
340
C206
  0
XRECORD
  5
C487
102
{ACAD_REACTORS
330
C486
102
}
330
C486
100
AcDbXrecord
280
     1
340
C202
  0
ACDBDETAILVIEWSTYLE
  5
C4DB
102
{ACAD_XDICTIONARY
360
C536
102
}
102
{ACAD_REACTORS
330
C4DA
102
}
330
C4DA
100
AcDbModelDocViewStyle
 70
     0
  3
Imperial24
290
     0
100
AcDbDetailViewStyle
 70
     0
 71
     0
 90
        3
 71
     1
340
C1F9
 40
0.24
340
0
 40
0.24
300

 40
0.36
280
     3
 71
     2
340
C1FD
 90
       25
 71
     3
340
C1F9
 40
0.24
 90
        1
 40
0.75
 90
        1
300
%<\AcVar ViewType \f "%tc1">% %<\AcVar ViewDetailId>%\PSCALE %<\AcVar ViewScale \f "%sn">%
 71
     4
340
C1FD
 90
       25
340
C1FD
 90
       25
280
     0
  0
LAYOUT
  5
C4DC
102
{ACAD_XDICTIONARY
360
C538
102
}
102
{ACAD_REACTORS
330
C201
102
}
330
C201
100
AcDbPlotSettings
  1

  2
Canon LBP9100C
  4

  6

 40
0.0
 41
0.0
 42
0.0
 43
0.0
 44
0.0
 45
0.0
 46
0.0
 47
0.0
 48
0.0
 49
0.0
140
0.0
141
0.0
142
1.0
143
1.0
 70
  1712
 72
     0
 73
     0
 74
     0
  7

 75
     0
147
1.0
148
0.0
149
0.0
100
AcDbLayout
  1
Model
 70
     1
 71
     0
 10
0.0
 20
0.0
 11
12.0
 21
9.0
 12
0.0
 22
0.0
 32
0.0
 14
0.0
 24
0.0
 34
0.0
 15
0.0
 25
0.0
 35
0.0
146
0.0
 13
0.0
 23
0.0
 33
0.0
 16
1.0
 26
0.0
 36
0.0
 17
0.0
 27
1.0
 37
0.0
 76
     0
330
C206
331
C485
  0
LAYOUT
  5
C4DD
102
{ACAD_XDICTIONARY
360
C53A
102
}
102
{ACAD_REACTORS
330
C201
102
}
330
C201
100
AcDbPlotSettings
  1

  2
Canon LBP9100C
  4

  6

 40
0.0
 41
0.0
 42
0.0
 43
0.0
 44
0.0
 45
0.0
 46
0.0
 47
0.0
 48
0.0
 49
0.0
140
0.0
141
0.0
142
1.0
143
1.0
 70
   688
 72
     0
 73
     0
 74
     5
  7

 75
    16
147
1.0
148
0.0
149
0.0
100
AcDbLayout
  1
レイアウト1
 70
     0
 71
     1
 10
0.0
 20
0.0
 11
420.0
 21
297.0
 12
0.0
 22
0.0
 32
0.0
 14
1.000000000000000E+20
 24
1.000000000000000E+20
 34
1.000000000000000E+20
 15
-1.000000000000000E+20
 25
-1.000000000000000E+20
 35
-1.000000000000000E+20
146
0.0
 13
0.0
 23
0.0
 33
0.0
 16
1.0
 26
0.0
 36
0.0
 17
0.0
 27
1.0
 37
0.0
 76
     0
330
C202
  0
MATERIAL
  5
C498
102
{ACAD_XDICTIONARY
360
C499
102
}
102
{ACAD_REACTORS
330
C48F
102
}
330
C48F
100
AcDbMaterial
  1
ByBlock
 72
     0
 43
0.0208333333333333
 43
0.0
 43
0.0
 43
0.0
 43
0.0
 43
0.0208333333333333
 43
0.0
 43
0.0
 43
0.0
 43
0.0
 43
1.0
 43
0.0
 43
0.0
 43
0.0
 43
0.0
 43
1.0
 77
     0
 47
0.0208333333333333
 47
0.0
 47
0.0
 47
0.0
 47
0.0
 47
0.0208333333333333
 47
0.0
 47
0.0
 47
0.0
 47
0.0
 47
1.0
 47
0.0
 47
0.0
 47
0.0
 47
0.0
 47
1.0
171
     0
 49
0.0208333333333333
 49
0.0
 49
0.0
 49
0.0
 49
0.0
 49
0.0208333333333333
 49
0.0
 49
0.0
 49
0.0
 49
0.0
 49
1.0
 49
0.0
 49
0.0
 49
0.0
 49
0.0
 49
1.0
175
     0
142
0.0208333333333333
142
0.0
142
0.0
142
0.0
142
0.0
142
0.0208333333333333
142
0.0
142
0.0
142
0.0
142
0.0
142
1.0
142
0.0
142
0.0
142
0.0
142
0.0
142
1.0
179
     0
144
0.0208333333333333
144
0.0
144
0.0
144
0.0
144
0.0
144
0.0208333333333333
144
0.0
144
0.0
144
0.0
144
0.0
144
1.0
144
0.0
144
0.0
144
0.0
144
0.0
144
1.0
147
0.0208333333333333
147
0.0
147
0.0
147
0.0
147
0.0
147
0.0208333333333333
147
0.0
147
0.0
147
0.0
147
0.0
147
1.0
147
0.0
147
0.0
147
0.0
147
0.0
147
1.0
  0
MATERIAL
  5
C490
102
{ACAD_XDICTIONARY
360
C491
102
}
102
{ACAD_REACTORS
330
C48F
102
}
330
C48F
100
AcDbMaterial
  1
ByLayer
 72
     0
 43
0.0208333333333333
 43
0.0
 43
0.0
 43
0.0
 43
0.0
 43
0.0208333333333333
 43
0.0
 43
0.0
 43
0.0
 43
0.0
 43
1.0
 43
0.0
 43
0.0
 43
0.0
 43
0.0
 43
1.0
 77
     0
 47
0.0208333333333333
 47
0.0
 47
0.0
 47
0.0
 47
0.0
 47
0.0208333333333333
 47
0.0
 47
0.0
 47
0.0
 47
0.0
 47
1.0
 47
0.0
 47
0.0
 47
0.0
 47
0.0
 47
1.0
171
     0
 49
0.0208333333333333
 49
0.0
 49
0.0
 49
0.0
 49
0.0
 49
0.0208333333333333
 49
0.0
 49
0.0
 49
0.0
 49
0.0
 49
1.0
 49
0.0
 49
0.0
 49
0.0
 49
0.0
 49
1.0
175
     0
142
0.0208333333333333
142
0.0
142
0.0
142
0.0
142
0.0
142
0.0208333333333333
142
0.0
142
0.0
142
0.0
142
0.0
142
1.0
142
0.0
142
0.0
142
0.0
142
0.0
142
1.0
179
     0
144
0.0208333333333333
144
0.0
144
0.0
144
0.0
144
0.0
144
0.0208333333333333
144
0.0
144
0.0
144
0.0
144
0.0
144
1.0
144
0.0
144
0.0
144
0.0
144
0.0
144
1.0
147
0.0208333333333333
147
0.0
147
0.0
147
0.0
147
0.0
147
0.0208333333333333
147
0.0
147
0.0
147
0.0
147
0.0
147
1.0
147
0.0
147
0.0
147
0.0
147
0.0
147
1.0
  0
MATERIAL
  5
C4A0
102
{ACAD_XDICTIONARY
360
C4A1
102
}
102
{ACAD_REACTORS
330
C48F
102
}
330
C48F
100
AcDbMaterial
  1
Global
 72
     0
 43
0.0208333333333333
 43
0.0
 43
0.0
 43
0.0
 43
0.0
 43
0.0208333333333333
 43
0.0
 43
0.0
 43
0.0
 43
0.0
 43
1.0
 43
0.0
 43
0.0
 43
0.0
 43
0.0
 43
1.0
 77
     0
 47
0.0208333333333333
 47
0.0
 47
0.0
 47
0.0
 47
0.0
 47
0.0208333333333333
 47
0.0
 47
0.0
 47
0.0
 47
0.0
 47
1.0
 47
0.0
 47
0.0
 47
0.0
 47
0.0
 47
1.0
171
     0
 49
0.0208333333333333
 49
0.0
 49
0.0
 49
0.0
 49
0.0
 49
0.0208333333333333
 49
0.0
 49
0.0
 49
0.0
 49
0.0
 49
1.0
 49
0.0
 49
0.0
 49
0.0
 49
0.0
 49
1.0
175
     0
142
0.0208333333333333
142
0.0
142
0.0
142
0.0
142
0.0
142
0.0208333333333333
142
0.0
142
0.0
142
0.0
142
0.0
142
1.0
142
0.0
142
0.0
142
0.0
142
0.0
142
1.0
179
     0
144
0.0208333333333333
144
0.0
144
0.0
144
0.0
144
0.0
144
0.0208333333333333
144
0.0
144
0.0
144
0.0
144
0.0
144
1.0
144
0.0
144
0.0
144
0.0
144
0.0
144
1.0
147
0.0208333333333333
147
0.0
147
0.0
147
0.0
147
0.0
147
0.0208333333333333
147
0.0
147
0.0
147
0.0
147
0.0
147
1.0
147
0.0
147
0.0
147
0.0
147
0.0
147
1.0
  0
MLEADERSTYLE
  5
C4D7
102
{ACAD_REACTORS
330
C4D6
102
}
330
C4D6
100
AcDbMLeaderStyle
170
     2
171
     1
172
     0
 90
        2
 40
0.0
 41
0.0
173
     1
 91
-1056964608
340
C1FB
 92
       -2
290
     1
 42
0.09
291
     1
 43
0.36
  3
Standard
 44
0.18
300

342
C1F9
174
     1
178
     6
175
     1
176
     0
 93
-1056964608
 45
0.18
292
     0
297
     0
 46
0.18
 94
-1056964608
 47
1.0
 49
1.0
140
1.0
293
     1
141
0.0
294
     1
177
     0
142
1.0
295
     0
296
     0
143
0.125
1001
ACAD_MLEADERVER
1070
     2
  0
MLINESTYLE
  5
C1FF
102
{ACAD_REACTORS
330
C1FE
102
}
330
C1FE
100
AcDbMlineStyle
  2
STANDARD
 70
     0
  3

 62
   256
 51
90.0
 52
90.0
 71
     2
 49
0.5
 62
   256
  6
BYLAYER
 49
-0.5
 62
   256
  6
BYLAYER
  0
ACDBPLACEHOLDER
  5
C48E
102
{ACAD_REACTORS
330
C48D
102
}
330
C48D
  0
SCALE
  5
C4C5
102
{ACAD_REACTORS
330
C4C4
102
}
330
C4C4
100
AcDbScale
 70
     0
300
1:1
140
1.0
141
1.0
290
     1
  0
SCALE
  5
C4C6
102
{ACAD_REACTORS
330
C4C4
102
}
330
C4C4
100
AcDbScale
 70
     0
300
1/128" = 1'-0"
140
0.0078125
141
12.0
290
     0
  0
SCALE
  5
C4C7
102
{ACAD_REACTORS
330
C4C4
102
}
330
C4C4
100
AcDbScale
 70
     0
300
1/64" = 1'-0"
140
0.015625
141
12.0
290
     0
  0
SCALE
  5
C4C8
102
{ACAD_REACTORS
330
C4C4
102
}
330
C4C4
100
AcDbScale
 70
     0
300
1/32" = 1'-0"
140
0.03125
141
12.0
290
     0
  0
SCALE
  5
C4C9
102
{ACAD_REACTORS
330
C4C4
102
}
330
C4C4
100
AcDbScale
 70
     0
300
1/16" = 1'-0"
140
0.0625
141
12.0
290
     0
  0
SCALE
  5
C4CA
102
{ACAD_REACTORS
330
C4C4
102
}
330
C4C4
100
AcDbScale
 70
     0
300
3/32" = 1'-0"
140
0.09375
141
12.0
290
     0
  0
SCALE
  5
C4CB
102
{ACAD_REACTORS
330
C4C4
102
}
330
C4C4
100
AcDbScale
 70
     0
300
1/8" = 1'-0"
140
0.125
141
12.0
290
     0
  0
SCALE
  5
C4CC
102
{ACAD_REACTORS
330
C4C4
102
}
330
C4C4
100
AcDbScale
 70
     0
300
3/16" = 1'-0"
140
0.1875
141
12.0
290
     0
  0
SCALE
  5
C4CD
102
{ACAD_REACTORS
330
C4C4
102
}
330
C4C4
100
AcDbScale
 70
     0
300
1/4" = 1'-0"
140
0.25
141
12.0
290
     0
  0
SCALE
  5
C4CE
102
{ACAD_REACTORS
330
C4C4
102
}
330
C4C4
100
AcDbScale
 70
     0
300
3/8" = 1'-0"
140
0.375
141
12.0
290
     0
  0
SCALE
  5
C4CF
102
{ACAD_REACTORS
330
C4C4
102
}
330
C4C4
100
AcDbScale
 70
     0
300
1/2" = 1'-0"
140
0.5
141
12.0
290
     0
  0
SCALE
  5
C4D0
102
{ACAD_REACTORS
330
C4C4
102
}
330
C4C4
100
AcDbScale
 70
     0
300
3/4" = 1'-0"
140
0.75
141
12.0
290
     0
  0
SCALE
  5
C4D1
102
{ACAD_REACTORS
330
C4C4
102
}
330
C4C4
100
AcDbScale
 70
     0
300
1" = 1'-0"
140
1.0
141
12.0
290
     0
  0
SCALE
  5
C4D2
102
{ACAD_REACTORS
330
C4C4
102
}
330
C4C4
100
AcDbScale
 70
     0
300
1-1/2" = 1'-0"
140
1.5
141
12.0
290
     0
  0
SCALE
  5
C4D3
102
{ACAD_REACTORS
330
C4C4
102
}
330
C4C4
100
AcDbScale
 70
     0
300
3" = 1'-0"
140
3.0
141
12.0
290
     0
  0
SCALE
  5
C4D4
102
{ACAD_REACTORS
330
C4C4
102
}
330
C4C4
100
AcDbScale
 70
     0
300
6" = 1'-0"
140
6.0
141
12.0
290
     0
  0
SCALE
  5
C4D5
102
{ACAD_REACTORS
330
C4C4
102
}
330
C4C4
100
AcDbScale
 70
     0
300
1'-0" = 1'-0"
140
12.0
141
12.0
290
     0
  0
ACDBSECTIONVIEWSTYLE
  5
C4D9
102
{ACAD_XDICTIONARY
360
C534
102
}
102
{ACAD_REACTORS
330
C4D8
102
}
330
C4D8
100
AcDbModelDocViewStyle
 70
     0
  3
Imperial24
290
     0
100
AcDbSectionViewStyle
 70
     0
 71
     0
 90
       78
 71
     1
340
C1F9
 40
0.24
340
0
340
0
 40
0.24
300
I, O, Q, S, X, Z
 40
0.48
 90
        3
 40
0.18
 90
        1
 71
     2
340
C1FD
 90
       25
340
C1FD
 90
       50
 40
0.24
 40
0.0
 40
0.24
 71
     3
340
C1F9
 40
0.24
 90
        1
 40
0.75
 90
        1
300
%<\AcVar ViewType \f "%tc1">% %<\AcVar ViewSectionStartId>%-%<\AcVar ViewSectionEndId>%\PSCALE %<\AcVar ViewScale \f "%sn">%
 71
     4
300
ANSI31
 40
1.0
 90
        0
290
     0
290
     0
 90
        6
 40
0.0
 40
1.570796326794896
 40
0.2617993877991494
 40
1.308996938995747
 40
-0.2617993877991494
 40
1.832595714594046
  0
TABLESTYLE
  5
C4C3
102
{ACAD_XDICTIONARY
360
C4FB
102
}
102
{ACAD_REACTORS
330
C4C2
102
}
330
C4C2
100
AcDbTableStyle
  3
Standard
 70
     0
 71
     0
 40
0.06
 41
0.06
280
     0
281
     0
  7
STANDARD
140
0.18
170
     2
 62
     0
 63
     7
283
     0
274
    -2
284
     1
 64
     0
275
    -2
285
     1
 65
     0
276
    -2
286
     1
 66
     0
277
    -2
287
     1
 67
     0
278
    -2
288
     1
 68
     0
279
    -2
289
     1
 69
     0
  7
STANDARD
140
0.25
170
     5
 62
     0
 63
     7
283
     0
274
    -2
284
     1
 64
     0
275
    -2
285
     1
 65
     0
276
    -2
286
     1
 66
     0
277
    -2
287
     1
 67
     0
278
    -2
288
     1
 68
     0
279
    -2
289
     1
 69
     0
  7
STANDARD
140
0.18
170
     5
 62
     0
 63
     7
283
     0
274
    -2
284
     1
 64
     0
275
    -2
285
     1
 65
     0
276
    -2
286
     1
 66
     0
277
    -2
287
     1
 67
     0
278
    -2
288
     1
 68
     0
279
    -2
289
     1
 69
     0
  0
VISUALSTYLE
  5
C4AE
102
{ACAD_XDICTIONARY
360
C50C
102
}
102
{ACAD_REACTORS
330
C4A8
102
}
330
C4A8
100
AcDbVisualStyle
  2
2dWireframe
 70
     4
 71
     0
 72
     2
 73
     0
 90
        0
 40
-0.6
 41
-30.0
 62
     5
 63
     7
 74
     1
 91
        4
 64
     7
 65
   257
 75
     1
175
     1
 42
1.0
 92
        0
 66
   257
 43
1.0
 76
     1
 77
     6
 78
     2
 67
     7
 79
     5
170
     0
171
     0
290
     0
174
     0
 93
        1
 44
0.0
173
     0
291
     0
 45
0.0
1001
ACAD
1000
AcDbSavedByObjectVersion
1070
     0
  0
VISUALSTYLE
  5
C4AD
102
{ACAD_XDICTIONARY
360
C50A
102
}
102
{ACAD_REACTORS
330
C4A8
102
}
330
C4A8
100
AcDbVisualStyle
  2
Basic
 70
     7
 71
     1
 72
     0
 73
     1
 90
        0
 40
-0.6
 41
-30.0
 62
     5
 63
     7
 74
     0
 91
        4
 64
     7
 65
   257
 75
     1
175
     1
 42
1.0
 92
        8
 66
     7
 43
1.0
 76
     1
 77
     6
 78
     2
 67
     7
 79
     5
170
     0
171
     0
290
     0
174
     0
 93
        1
 44
0.0
173
     0
291
     1
 45
0.0
1001
ACAD
1000
AcDbSavedByObjectVersion
1070
     0
  0
VISUALSTYLE
  5
C4B4
102
{ACAD_XDICTIONARY
360
C518
102
}
102
{ACAD_REACTORS
330
C4A8
102
}
330
C4A8
100
AcDbVisualStyle
  2
Brighten
 70
    12
 71
     2
 72
     2
 73
     0
 90
        0
 40
-0.6
 41
-30.0
 62
     5
 63
     7
 74
     1
 91
        4
 64
     7
 65
   257
 75
     1
175
     1
 42
1.0
 92
        8
 66
     7
 43
1.0
 76
     1
 77
     6
 78
     2
 67
     7
 79
     5
170
     0
171
     0
290
     0
174
     0
 93
        1
 44
50.0
173
     0
291
     1
 45
0.0
1001
ACAD
1000
AcDbSavedByObjectVersion
1070
     0
  0
VISUALSTYLE
  5
C4B8
102
{ACAD_XDICTIONARY
360
C520
102
}
102
{ACAD_REACTORS
330
C4A8
102
}
330
C4A8
100
AcDbVisualStyle
  2
ColorChange
 70
    16
 71
     2
 72
     2
 73
     3
 90
        0
 40
-0.6
 41
-30.0
 62
     5
 63
     8
 74
     1
 91
        4
 64
     7
 65
   257
 75
     1
175
     1
 42
1.0
 92
        8
 66
     8
 43
1.0
 76
     1
 77
     6
 78
     2
 67
     7
 79
     5
170
     0
171
     0
290
     0
174
     0
 93
        1
 44
0.0
173
     0
291
     1
 45
0.0
1001
ACAD
1000
AcDbSavedByObjectVersion
1070
     0
  0
VISUALSTYLE
  5
C4B1
102
{ACAD_XDICTIONARY
360
C512
102
}
102
{ACAD_REACTORS
330
C4A8
102
}
330
C4A8
100
AcDbVisualStyle
  2
Conceptual
 70
     9
 71
     3
 72
     2
 73
     0
 90
        0
 40
-0.6
 41
-30.0
 62
     5
 63
     7
 74
     2
 91
        2
 64
     7
 65
   257
 75
     1
175
     1
 42
179.0
 92
        8
 66
     7
 43
1.0
 76
     1
 77
     6
 78
     2
 67
     7
 79
     3
170
     0
171
     0
290
     0
174
     0
 93
        1
 44
0.0
173
     0
291
     0
 45
0.0
1001
ACAD
1000
AcDbSavedByObjectVersion
1070
     0
  0
VISUALSTYLE
  5
C4B3
102
{ACAD_XDICTIONARY
360
C516
102
}
102
{ACAD_REACTORS
330
C4A8
102
}
330
C4A8
100
AcDbVisualStyle
  2
Dim
 70
    11
 71
     2
 72
     2
 73
     0
 90
        0
 40
-0.6
 41
-30.0
 62
     5
 63
     7
 74
     1
 91
        4
 64
     7
 65
   257
 75
     1
175
     1
 42
1.0
 92
        8
 66
     7
 43
1.0
 76
     1
 77
     6
 78
     2
 67
     7
 79
     5
170
     0
171
     0
290
     0
174
     0
 93
        1
 44
-50.0
173
     0
291
     1
 45
0.0
1001
ACAD
1000
AcDbSavedByObjectVersion
1070
     0
  0
VISUALSTYLE
  5
C4C0
102
{ACAD_XDICTIONARY
360
C530
102
}
102
{ACAD_REACTORS
330
C4A8
102
}
330
C4A8
100
AcDbVisualStyle
  2
EdgeColorOff
 70
    22
 71
     2
 72
     2
 73
     0
 90
        0
 40
-0.6
 41
-30.0
 62
     5
 63
     7
 74
     1
 91
        4
 64
     7
 65
   257
 75
     1
175
     1
 42
1.0
 92
        8
 66
     7
 43
1.0
 76
     1
 77
     6
 78
     2
 67
     7
 79
     5
170
     0
171
     0
290
     0
174
     0
 93
        1
 44
0.0
173
     0
291
     1
 45
0.0
1001
ACAD
1000
AcDbSavedByObjectVersion
1070
     0
  0
VISUALSTYLE
  5
C4B7
102
{ACAD_XDICTIONARY
360
C51E
102
}
102
{ACAD_REACTORS
330
C4A8
102
}
330
C4A8
100
AcDbVisualStyle
  2
Facepattern
 70
    15
 71
     2
 72
     2
 73
     0
 90
        0
 40
-0.6
 41
-30.0
 62
     5
 63
     7
 74
     1
 91
        4
 64
     7
 65
   257
 75
     1
175
     1
 42
1.0
 92
        8
 66
     7
 43
1.0
 76
     1
 77
     6
 78
     2
 67
     7
 79
     5
170
     0
171
     0
290
     0
174
     0
 93
        1
 44
0.0
173
     0
291
     1
 45
0.0
1001
ACAD
1000
AcDbSavedByObjectVersion
1070
     0
  0
VISUALSTYLE
  5
C4A9
102
{ACAD_XDICTIONARY
360
C502
102
}
102
{ACAD_REACTORS
330
C4A8
102
}
330
C4A8
100
AcDbVisualStyle
  2
Flat
 70
     0
 71
     2
 72
     1
 73
     1
 90
        2
 40
-0.6
 41
30.0
 62
     5
 63
     7
 74
     0
 91
        0
 64
     7
 65
   257
 75
     1
175
     1
 42
1.0
 92
        8
 66
     7
 43
1.0
 76
     1
 77
     6
 78
     2
 67
     7
 79
     5
170
     0
171
     0
290
     0
174
     0
 93
       13
 44
0.0
173
     0
291
     1
 45
0.0
1001
ACAD
1000
AcDbSavedByObjectVersion
1070
     0
  0
VISUALSTYLE
  5
C4AA
102
{ACAD_XDICTIONARY
360
C504
102
}
102
{ACAD_REACTORS
330
C4A8
102
}
330
C4A8
100
AcDbVisualStyle
  2
FlatWithEdges
 70
     1
 71
     2
 72
     1
 73
     1
 90
        2
 40
-0.6
 41
30.0
 62
     5
 63
     7
 74
     1
 91
        0
 64
     7
 65
   257
 75
     1
175
     1
 42
1.0
 92
        0
 66
   257
 43
1.0
 76
     1
 77
     6
 78
     2
 67
     7
 79
     5
170
     0
171
     0
290
     0
174
     0
 93
       13
 44
0.0
173
     0
291
     1
 45
0.0
1001
ACAD
1000
AcDbSavedByObjectVersion
1070
     0
  0
VISUALSTYLE
  5
C4AB
102
{ACAD_XDICTIONARY
360
C506
102
}
102
{ACAD_REACTORS
330
C4A8
102
}
330
C4A8
100
AcDbVisualStyle
  2
Gouraud
 70
     2
 71
     2
 72
     2
 73
     1
 90
        2
 40
-0.6
 41
30.0
 62
     5
 63
     7
 74
     0
 91
        0
 64
     7
 65
   257
 75
     1
175
     1
 42
1.0
 92
        0
 66
     7
 43
1.0
 76
     1
 77
     6
 78
     2
 67
     7
 79
     5
170
     0
171
     0
290
     0
174
     0
 93
       13
 44
0.0
173
     0
291
     1
 45
0.0
1001
ACAD
1000
AcDbSavedByObjectVersion
1070
     0
  0
VISUALSTYLE
  5
C4AC
102
{ACAD_XDICTIONARY
360
C508
102
}
102
{ACAD_REACTORS
330
C4A8
102
}
330
C4A8
100
AcDbVisualStyle
  2
GouraudWithEdges
 70
     3
 71
     2
 72
     2
 73
     1
 90
        2
 40
-0.6
 41
30.0
 62
     5
 63
     7
 74
     1
 91
        0
 64
     7
 65
   257
 75
     1
175
     1
 42
1.0
 92
        0
 66
   257
 43
1.0
 76
     1
 77
     6
 78
     2
 67
     7
 79
     5
170
     0
171
     0
290
     0
174
     0
 93
       13
 44
0.0
173
     0
291
     1
 45
0.0
1001
ACAD
1000
AcDbSavedByObjectVersion
1070
     0
  0
VISUALSTYLE
  5
C4B0
102
{ACAD_XDICTIONARY
360
C510
102
}
102
{ACAD_REACTORS
330
C4A8
102
}
330
C4A8
100
AcDbVisualStyle
  2
Hidden
 70
     6
 71
     1
 72
     2
 73
     2
 90
        0
 40
-0.6
 41
-30.0
 62
     5
 63
     7
 74
     2
 91
        2
 64
     7
 65
   257
 75
     2
175
     1
 42
40.0
 92
        0
 66
   257
 43
1.0
 76
     1
 77
     6
 78
     2
 67
     7
 79
     3
170
     0
171
     0
290
     0
174
     0
 93
        1
 44
0.0
173
     0
291
     0
 45
0.0
1001
ACAD
1000
AcDbSavedByObjectVersion
1070
     0
  0
VISUALSTYLE
  5
C4BE
102
{ACAD_XDICTIONARY
360
C52C
102
}
102
{ACAD_REACTORS
330
C4A8
102
}
330
C4A8
100
AcDbVisualStyle
  2
JitterOff
 70
    20
 71
     2
 72
     2
 73
     0
 90
        0
 40
-0.6
 41
-30.0
 62
     5
 63
     7
 74
     1
 91
        4
 64
     7
 65
   257
 75
     1
175
     1
 42
1.0
 92
       10
 66
     7
 43
1.0
 76
     1
 77
     6
 78
     2
 67
     7
 79
     5
170
     0
171
     0
290
     0
174
     0
 93
        1
 44
0.0
173
     0
291
     1
 45
0.0
1001
ACAD
1000
AcDbSavedByObjectVersion
1070
     0
  0
VISUALSTYLE
  5
C4B6
102
{ACAD_XDICTIONARY
360
C51C
102
}
102
{ACAD_REACTORS
330
C4A8
102
}
330
C4A8
100
AcDbVisualStyle
  2
Linepattern
 70
    14
 71
     2
 72
     2
 73
     0
 90
        0
 40
-0.6
 41
-30.0
 62
     5
 63
     7
 74
     1
 91
        4
 64
     7
 65
   257
 75
     7
175
     7
 42
1.0
 92
        8
 66
     7
 43
1.0
 76
     1
 77
     6
 78
     2
 67
     7
 79
     5
170
     0
171
     0
290
     0
174
     0
 93
        1
 44
0.0
173
     0
291
     1
 45
0.0
1001
ACAD
1000
AcDbSavedByObjectVersion
1070
     0
  0
VISUALSTYLE
  5
C4BF
102
{ACAD_XDICTIONARY
360
C52E
102
}
102
{ACAD_REACTORS
330
C4A8
102
}
330
C4A8
100
AcDbVisualStyle
  2
OverhangOff
 70
    21
 71
     2
 72
     2
 73
     0
 90
        0
 40
-0.6
 41
-30.0
 62
     5
 63
     7
 74
     1
 91
        4
 64
     7
 65
   257
 75
     1
175
     1
 42
1.0
 92
        9
 66
     7
 43
1.0
 76
     1
 77
     6
 78
     2
 67
     7
 79
     5
170
     0
171
     0
290
     0
174
     0
 93
        1
 44
0.0
173
     0
291
     1
 45
0.0
1001
ACAD
1000
AcDbSavedByObjectVersion
1070
     0
  0
VISUALSTYLE
  5
C4B2
102
{ACAD_XDICTIONARY
360
C514
102
}
102
{ACAD_REACTORS
330
C4A8
102
}
330
C4A8
100
AcDbVisualStyle
  2
Realistic
 70
     8
 71
     2
 72
     3
 73
     0
 90
        2
 40
-0.6
 41
30.0
 62
     5
 63
     7
 74
     0
 91
        0
 64
     7
 65
   257
 75
     1
175
     1
 42
1.0
 92
        8
 66
   257
 43
1.0
 76
     1
 77
     6
 78
     2
 67
     7
 79
     3
170
     0
171
     0
290
     0
174
     0
 93
       13
 44
0.0
173
     0
291
     0
 45
0.0
1001
ACAD
1000
AcDbSavedByObjectVersion
1070
     0
  0
VISUALSTYLE
  5
C4BD
102
{ACAD_XDICTIONARY
360
C52A
102
}
102
{ACAD_REACTORS
330
C4A8
102
}
330
C4A8
100
AcDbVisualStyle
  2
Shaded
 70
    27
 71
     2
 72
     2
 73
     1
 90
        2
 40
-0.6
 41
30.0
 62
     5
 63
     7
 74
     0
 91
        4
 64
     7
 65
   257
 75
     1
175
     1
 42
1.0
 92
        8
 66
   257
 43
1.0
 76
     1
 77
     6
 78
     2
 67
     8
 79
     3
170
     0
171
     0
290
     0
174
     0
 93
        5
 44
0.0
173
     0
291
     0
 45
0.0
1001
ACAD
1000
AcDbSavedByObjectVersion
1070
     0
  0
VISUALSTYLE
  5
C4BC
102
{ACAD_XDICTIONARY
360
C528
102
}
102
{ACAD_REACTORS
330
C4A8
102
}
330
C4A8
100
AcDbVisualStyle
  2
Shaded with edges
 70
    26
 71
     2
 72
     2
 73
     1
 90
        2
 40
-0.6
 41
30.0
 62
     5
 63
     7
 74
     1
 91
       10
 64
     7
 65
   257
 75
     2
175
     1
 42
1.0
 92
        8
 66
   257
 43
1.0
 76
     1
 77
     6
 78
     2
 67
     7
 79
     3
170
     0
171
     0
290
     0
174
     0
 93
        5
 44
0.0
173
     0
291
     0
 45
0.0
1001
ACAD
1000
AcDbSavedByObjectVersion
1070
     0
  0
VISUALSTYLE
  5
C4B9
102
{ACAD_XDICTIONARY
360
C522
102
}
102
{ACAD_REACTORS
330
C4A8
102
}
330
C4A8
100
AcDbVisualStyle
  2
Shades of Gray
 70
    23
 71
     2
 72
     2
 73
     3
 90
        0
 40
-0.6
 41
-30.0
 62
     5
 63
     7
 74
     2
 91
        2
 64
     7
 65
     7
 75
     1
175
     1
 42
40.0
 92
        8
 66
     7
 43
1.0
 76
     1
 77
     6
 78
     2
 67
     7
 79
     3
170
     0
171
     0
290
     0
174
     0
 93
        1
 44
0.0
173
     0
291
     0
 45
0.0
1001
ACAD
1000
AcDbSavedByObjectVersion
1070
     0
  0
VISUALSTYLE
  5
C4BA
102
{ACAD_XDICTIONARY
360
C524
102
}
102
{ACAD_REACTORS
330
C4A8
102
}
330
C4A8
100
AcDbVisualStyle
  2
Sketchy
 70
    24
 71
     1
 72
     2
 73
     2
 90
        0
 40
-0.6
 41
-30.0
 62
     5
 63
     7
 74
     2
 91
        2
 64
     7
 65
     7
 75
     1
175
     1
 42
40.0
 92
       11
 66
     7
 43
1.0
 76
     1
 77
     6
 78
     2
 67
     7
 79
     6
170
     0
171
     0
290
     0
174
     0
 93
        1
 44
0.0
173
     0
291
     0
 45
0.0
1001
ACAD
1000
AcDbSavedByObjectVersion
1070
     0
  0
VISUALSTYLE
  5
C4B5
102
{ACAD_XDICTIONARY
360
C51A
102
}
102
{ACAD_REACTORS
330
C4A8
102
}
330
C4A8
100
AcDbVisualStyle
  2
Thicken
 70
    13
 71
     2
 72
     2
 73
     0
 90
        0
 40
-0.6
 41
-30.0
 62
     5
 63
     7
 74
     1
 91
        4
 64
     7
 65
   257
 75
     1
175
     1
 42
1.0
 92
       12
 66
     7
 43
1.0
 76
     1
 77
     6
 78
     2
 67
     7
 79
     5
170
     0
171
     0
290
     0
174
     0
 93
        1
 44
0.0
173
     0
291
     1
 45
0.0
1001
ACAD
1000
AcDbSavedByObjectVersion
1070
     0
  0
VISUALSTYLE
  5
C4AF
102
{ACAD_XDICTIONARY
360
C50E
102
}
102
{ACAD_REACTORS
330
C4A8
102
}
330
C4A8
100
AcDbVisualStyle
  2
Wireframe
 70
     5
 71
     0
 72
     2
 73
     0
 90
        0
 40
-0.6
 41
-30.0
 62
     5
 63
     7
 74
     1
 91
        4
 64
     7
 65
   257
 75
     1
175
     1
 42
1.0
 92
        0
 66
   257
 43
1.0
 76
     1
 77
     6
 78
     2
 67
     7
 79
     3
170
     0
171
     0
290
     0
174
     0
 93
        1
 44
0.0
173
     0
291
     0
 45
0.0
1001
ACAD
1000
AcDbSavedByObjectVersion
1070
     0
  0
VISUALSTYLE
  5
C4BB
102
{ACAD_XDICTIONARY
360
C526
102
}
102
{ACAD_REACTORS
330
C4A8
102
}
330
C4A8
100
AcDbVisualStyle
  2
X-Ray
 70
    25
 71
     2
 72
     2
 73
     1
 90
        1
 40
0.5
 41
-30.0
 62
     5
 63
     7
 74
     1
 91
        0
 64
     7
 65
   257
 75
     1
175
     1
 42
1.0
 92
        8
 66
     7
 43
1.0
 76
     1
 77
     6
 78
     2
 67
     7
 79
     3
170
     0
171
     0
290
     0
174
     0
 93
       13
 44
0.0
173
     0
291
     0
 45
0.0
1001
ACAD
1000
AcDbSavedByObjectVersion
1070
     0
  0
DICTIONARYVAR
  5
C4F5
102
{ACAD_REACTORS
330
C4F0
102
}
330
C4F0
100
DictionaryVariables
280
     0
  1
1:1
  0
DICTIONARYVAR
  5
C4F2
102
{ACAD_REACTORS
330
C4F0
102
}
330
C4F0
100
DictionaryVariables
280
     0
  1
STANDARD
  0
DICTIONARYVAR
  5
C4F1
102
{ACAD_REACTORS
330
C4F0
102
}
330
C4F0
100
DictionaryVariables
280
     0
  1
STANDARD
  0
DICTIONARYVAR
  5
C4F3
102
{ACAD_REACTORS
330
C4F0
102
}
330
C4F0
100
DictionaryVariables
280
     0
  1
Imperial24
  0
DICTIONARYVAR
  5
C4F4
102
{ACAD_REACTORS
330
C4F0
102
}
330
C4F0
100
DictionaryVariables
280
     0
  1
Imperial24
  0
DICTIONARYVAR
  5
C4F8
102
{ACAD_REACTORS
330
C4F0
102
}
330
C4F0
100
DictionaryVariables
280
     0
  1
1
  0
DICTIONARYVAR
  5
C4F7
102
{ACAD_REACTORS
330
C4F0
102
}
330
C4F0
100
DictionaryVariables
280
     0
  1
0
  0
DICTIONARYVAR
  5
C4F6
102
{ACAD_REACTORS
330
C4F0
102
}
330
C4F0
100
DictionaryVariables
280
     0
  1
127
  0
DICTIONARYVAR
  5
C4F9
102
{ACAD_REACTORS
330
C4F0
102
}
330
C4F0
100
DictionaryVariables
280
     0
  1
2
  0
DICTIONARY
  5
C536
330
C4DB
100
AcDbDictionary
280
     1
281
     1
  3
ACAD_XREC_ROUNDTRIP
360
C537
  0
DICTIONARY
  5
C538
330
C4DC
100
AcDbDictionary
280
     1
281
     1
  3
ACAD_XREC_ROUNDTRIP
360
C539
  0
DICTIONARY
  5
C53A
330
C4DD
100
AcDbDictionary
280
     1
281
     1
  3
ACAD_XREC_ROUNDTRIP
360
C53B
  0
DICTIONARY
  5
C499
330
C498
100
AcDbDictionary
280
     1
281
     1
  3
ACAD_XREC_ROUNDTRIP
360
C500
  3
BUMPTILE
360
C49B
  3
DIFFUSETILE
360
C49A
  3
OPACITYTILE
360
C49E
  3
REFLECTIONTILE
360
C49D
  3
REFRACTIONTILE
360
C49F
  3
SPECULARTILE
360
C49C
  0
DICTIONARY
  5
C491
330
C490
100
AcDbDictionary
280
     1
281
     1
  3
ACAD_XREC_ROUNDTRIP
360
C4FF
  3
BUMPTILE
360
C493
  3
DIFFUSETILE
360
C492
  3
OPACITYTILE
360
C496
  3
REFLECTIONTILE
360
C495
  3
REFRACTIONTILE
360
C497
  3
SPECULARTILE
360
C494
  0
DICTIONARY
  5
C4A1
330
C4A0
100
AcDbDictionary
280
     1
281
     1
  3
ACAD_XREC_ROUNDTRIP
360
C501
  3
BUMPTILE
360
C4A3
  3
DIFFUSETILE
360
C4A2
  3
OPACITYTILE
360
C4A6
  3
REFLECTIONTILE
360
C4A5
  3
REFRACTIONTILE
360
C4A7
  3
SPECULARTILE
360
C4A4
  0
DICTIONARY
  5
C534
330
C4D9
100
AcDbDictionary
280
     1
281
     1
  3
ACAD_XREC_ROUNDTRIP
360
C535
  0
DICTIONARY
  5
C4FB
330
C4C3
100
AcDbDictionary
280
     1
281
     1
  3
ACAD_ROUNDTRIP_2008_TABLESTYLE_CELLSTYLEMAP
360
C4FC
  3
ACAD_XREC_ROUNDTRIP
360
C532
  0
DICTIONARY
  5
C50C
330
C4AE
100
AcDbDictionary
280
     1
281
     1
  3
ACAD_XREC_ROUNDTRIP
360
C50D
  0
DICTIONARY
  5
C50A
330
C4AD
100
AcDbDictionary
280
     1
281
     1
  3
ACAD_XREC_ROUNDTRIP
360
C50B
  0
DICTIONARY
  5
C518
330
C4B4
100
AcDbDictionary
280
     1
281
     1
  3
ACAD_XREC_ROUNDTRIP
360
C519
  0
DICTIONARY
  5
C520
330
C4B8
100
AcDbDictionary
280
     1
281
     1
  3
ACAD_XREC_ROUNDTRIP
360
C521
  0
DICTIONARY
  5
C512
330
C4B1
100
AcDbDictionary
280
     1
281
     1
  3
ACAD_XREC_ROUNDTRIP
360
C513
  0
DICTIONARY
  5
C516
330
C4B3
100
AcDbDictionary
280
     1
281
     1
  3
ACAD_XREC_ROUNDTRIP
360
C517
  0
DICTIONARY
  5
C530
330
C4C0
100
AcDbDictionary
280
     1
281
     1
  3
ACAD_XREC_ROUNDTRIP
360
C531
  0
DICTIONARY
  5
C51E
330
C4B7
100
AcDbDictionary
280
     1
281
     1
  3
ACAD_XREC_ROUNDTRIP
360
C51F
  0
DICTIONARY
  5
C502
330
C4A9
100
AcDbDictionary
280
     1
281
     1
  3
ACAD_XREC_ROUNDTRIP
360
C503
  0
DICTIONARY
  5
C504
330
C4AA
100
AcDbDictionary
280
     1
281
     1
  3
ACAD_XREC_ROUNDTRIP
360
C505
  0
DICTIONARY
  5
C506
330
C4AB
100
AcDbDictionary
280
     1
281
     1
  3
ACAD_XREC_ROUNDTRIP
360
C507
  0
DICTIONARY
  5
C508
330
C4AC
100
AcDbDictionary
280
     1
281
     1
  3
ACAD_XREC_ROUNDTRIP
360
C509
  0
DICTIONARY
  5
C510
330
C4B0
100
AcDbDictionary
280
     1
281
     1
  3
ACAD_XREC_ROUNDTRIP
360
C511
  0
DICTIONARY
  5
C52C
330
C4BE
100
AcDbDictionary
280
     1
281
     1
  3
ACAD_XREC_ROUNDTRIP
360
C52D
  0
DICTIONARY
  5
C51C
330
C4B6
100
AcDbDictionary
280
     1
281
     1
  3
ACAD_XREC_ROUNDTRIP
360
C51D
  0
DICTIONARY
  5
C52E
330
C4BF
100
AcDbDictionary
280
     1
281
     1
  3
ACAD_XREC_ROUNDTRIP
360
C52F
  0
DICTIONARY
  5
C514
330
C4B2
100
AcDbDictionary
280
     1
281
     1
  3
ACAD_XREC_ROUNDTRIP
360
C515
  0
DICTIONARY
  5
C52A
330
C4BD
100
AcDbDictionary
280
     1
281
     1
  3
ACAD_XREC_ROUNDTRIP
360
C52B
  0
DICTIONARY
  5
C528
330
C4BC
100
AcDbDictionary
280
     1
281
     1
  3
ACAD_XREC_ROUNDTRIP
360
C529
  0
DICTIONARY
  5
C522
330
C4B9
100
AcDbDictionary
280
     1
281
     1
  3
ACAD_XREC_ROUNDTRIP
360
C523
  0
DICTIONARY
  5
C524
330
C4BA
100
AcDbDictionary
280
     1
281
     1
  3
ACAD_XREC_ROUNDTRIP
360
C525
  0
DICTIONARY
  5
C51A
330
C4B5
100
AcDbDictionary
280
     1
281
     1
  3
ACAD_XREC_ROUNDTRIP
360
C51B
  0
DICTIONARY
  5
C50E
330
C4AF
100
AcDbDictionary
280
     1
281
     1
  3
ACAD_XREC_ROUNDTRIP
360
C50F
  0
DICTIONARY
  5
C526
330
C4BB
100
AcDbDictionary
280
     1
281
     1
  3
ACAD_XREC_ROUNDTRIP
360
C527
  0
XRECORD
  5
C537
102
{ACAD_REACTORS
330
C536
102
}
330
C536
100
AcDbXrecord
280
     1
102
DISPLAYNAME
  1
Imperial24
102
FLAGS
 90
        0
  0
XRECORD
  5
C539
102
{ACAD_REACTORS
330
C538
102
}
330
C538
100
AcDbXrecord
280
     1
102
SHADEPLOT
 70
     0
102
SHADEPLOTRESLEVEL
 70
     2
102
SHADEPLOTCUSTOMDPI
 70
   300
  0
XRECORD
  5
C53B
102
{ACAD_REACTORS
330
C53A
102
}
330
C53A
100
AcDbXrecord
280
     1
102
SHADEPLOT
 70
     0
102
SHADEPLOTRESLEVEL
 70
     2
102
SHADEPLOTCUSTOMDPI
 70
   300
  0
XRECORD
  5
C500
102
{ACAD_REACTORS
330
C499
102
}
330
C499
100
AcDbXrecord
280
     1
102
MATERIAL
148
0.0
149
0.0
149
0.0
 93
        0
 94
      127
282
     0
 72
     0
 77
     0
171
     0
175
     0
179
     0
273
     0
  0
XRECORD
  5
C49B
102
{ACAD_REACTORS
330
C499
102
}
330
C499
100
AcDbXrecord
280
     1
270
     1
271
     1
  0
XRECORD
  5
C49A
102
{ACAD_REACTORS
330
C499
102
}
330
C499
100
AcDbXrecord
280
     1
270
     1
271
     1
  0
XRECORD
  5
C49E
102
{ACAD_REACTORS
330
C499
102
}
330
C499
100
AcDbXrecord
280
     1
270
     1
271
     1
  0
XRECORD
  5
C49D
102
{ACAD_REACTORS
330
C499
102
}
330
C499
100
AcDbXrecord
280
     1
270
     1
271
     1
  0
XRECORD
  5
C49F
102
{ACAD_REACTORS
330
C499
102
}
330
C499
100
AcDbXrecord
280
     1
270
     1
271
     1
  0
XRECORD
  5
C49C
102
{ACAD_REACTORS
330
C499
102
}
330
C499
100
AcDbXrecord
280
     1
270
     1
271
     1
  0
XRECORD
  5
C4FF
102
{ACAD_REACTORS
330
C491
102
}
330
C491
100
AcDbXrecord
280
     1
102
MATERIAL
148
0.0
149
0.0
149
0.0
 93
        0
 94
      127
282
     0
 72
     0
 77
     0
171
     0
175
     0
179
     0
273
     0
  0
XRECORD
  5
C493
102
{ACAD_REACTORS
330
C491
102
}
330
C491
100
AcDbXrecord
280
     1
270
     1
271
     1
  0
XRECORD
  5
C492
102
{ACAD_REACTORS
330
C491
102
}
330
C491
100
AcDbXrecord
280
     1
270
     1
271
     1
  0
XRECORD
  5
C496
102
{ACAD_REACTORS
330
C491
102
}
330
C491
100
AcDbXrecord
280
     1
270
     1
271
     1
  0
XRECORD
  5
C495
102
{ACAD_REACTORS
330
C491
102
}
330
C491
100
AcDbXrecord
280
     1
270
     1
271
     1
  0
XRECORD
  5
C497
102
{ACAD_REACTORS
330
C491
102
}
330
C491
100
AcDbXrecord
280
     1
270
     1
271
     1
  0
XRECORD
  5
C494
102
{ACAD_REACTORS
330
C491
102
}
330
C491
100
AcDbXrecord
280
     1
270
     1
271
     1
  0
XRECORD
  5
C501
102
{ACAD_REACTORS
330
C4A1
102
}
330
C4A1
100
AcDbXrecord
280
     1
102
MATERIAL
148
0.0
149
0.0
149
0.0
 93
        0
 94
      127
282
     0
 72
     0
 77
     0
171
     0
175
     0
179
     0
273
     0
  0
XRECORD
  5
C4A3
102
{ACAD_REACTORS
330
C4A1
102
}
330
C4A1
100
AcDbXrecord
280
     1
270
     1
271
     1
  0
XRECORD
  5
C4A2
102
{ACAD_REACTORS
330
C4A1
102
}
330
C4A1
100
AcDbXrecord
280
     1
270
     1
271
     1
  0
XRECORD
  5
C4A6
102
{ACAD_REACTORS
330
C4A1
102
}
330
C4A1
100
AcDbXrecord
280
     1
270
     1
271
     1
  0
XRECORD
  5
C4A5
102
{ACAD_REACTORS
330
C4A1
102
}
330
C4A1
100
AcDbXrecord
280
     1
270
     1
271
     1
  0
XRECORD
  5
C4A7
102
{ACAD_REACTORS
330
C4A1
102
}
330
C4A1
100
AcDbXrecord
280
     1
270
     1
271
     1
  0
XRECORD
  5
C4A4
102
{ACAD_REACTORS
330
C4A1
102
}
330
C4A1
100
AcDbXrecord
280
     1
270
     1
271
     1
  0
XRECORD
  5
C535
102
{ACAD_REACTORS
330
C534
102
}
330
C534
100
AcDbXrecord
280
     1
102
DISPLAYNAME
  1
Imperial24
102
FLAGS
 90
        0
  0
CELLSTYLEMAP
  5
C4FC
102
{ACAD_REACTORS
330
C4FB
102
}
330
C4FB
100
AcDbCellStyleMap
 90
        3
300
CELLSTYLE
  1
TABLEFORMAT_BEGIN
 90
        5
170
     1
 91
        0
 92
    32768
 62
   257
 93
        1
300
CONTENTFORMAT
  1
CONTENTFORMAT_BEGIN
 90
        0
 91
        0
 92
      512
 93
        0
300

 40
0.0
140
1.0
 94
        5
 62
     0
340
C1F9
144
0.25
309
CONTENTFORMAT_END
171
     0
 94
        0
309
TABLEFORMAT_END
  1
CELLSTYLE_BEGIN
 90
        1
 91
        1
300
_TITLE
309
CELLSTYLE_END
300
CELLSTYLE
  1
TABLEFORMAT_BEGIN
 90
        5
170
     1
 91
        0
 92
        0
 62
   257
 93
        1
300
CONTENTFORMAT
  1
CONTENTFORMAT_BEGIN
 90
        0
 91
        0
 92
      512
 93
        0
300

 40
0.0
140
1.0
 94
        5
 62
     0
340
C1F9
144
0.18
309
CONTENTFORMAT_END
171
     0
 94
        0
309
TABLEFORMAT_END
  1
CELLSTYLE_BEGIN
 90
        2
 91
        1
300
_HEADER
309
CELLSTYLE_END
300
CELLSTYLE
  1
TABLEFORMAT_BEGIN
 90
        5
170
     1
 91
        0
 92
        0
 62
   257
 93
        1
300
CONTENTFORMAT
  1
CONTENTFORMAT_BEGIN
 90
        0
 91
        0
 92
      512
 93
        0
300

 40
0.0
140
1.0
 94
        2
 62
     0
340
C1F9
144
0.18
309
CONTENTFORMAT_END
171
     0
 94
        0
309
TABLEFORMAT_END
  1
CELLSTYLE_BEGIN
 90
        3
 91
        2
300
_DATA
309
CELLSTYLE_END
  0
XRECORD
  5
C532
102
{ACAD_REACTORS
330
C4FB
102
}
330
C4FB
100
AcDbXrecord
280
     1
102
ACAD_ROUNDTRIP_PRE2007_TABLESTYLE
 90
      512
 91
        0
  1

 92
      512
 93
        0
  2

 94
      512
 95
        0
  3

  0
XRECORD
  5
C50D
102
{ACAD_REACTORS
330
C50C
102
}
330
C50C
100
AcDbXrecord
280
     1
102
RTVSPost2010Prop28
280
     1
102
RTVSPost2010PropOp28
 70
     1
102
RTVSPost2010Prop29
280
     1
102
RTVSPost2010PropOp29
 70
     1
102
RTVSPost2010Prop30
280
     0
102
RTVSPost2010PropOp30
 70
     1
102
RTVSPost2010Prop31
280
     0
102
RTVSPost2010PropOp31
 70
     1
102
RTVSPost2010Prop32
280
     0
102
RTVSPost2010PropOp32
 70
     1
102
RTVSPost2010Prop33
280
     0
102
RTVSPost2010PropOp33
 70
     1
102
RTVSPost2010Prop34
280
     0
102
RTVSPost2010PropOp34
 70
     1
102
RTVSPost2010Prop35
280
     0
102
RTVSPost2010PropOp35
 70
     1
102
RTVSPost2010Prop36
280
     0
102
RTVSPost2010PropOp36
 70
     1
102
RTVSPost2010Prop37
 90
       50
102
RTVSPost2010PropOp37
 70
     1
102
RTVSPost2010Prop38
140
0.0
102
RTVSPost2010PropOp38
 70
     1
102
RTVSPost2010Prop39
140
1.0
102
RTVSPost2010PropOp39
 70
     1
102
RTVSPost2010Prop40
 90
        0
102
RTVSPost2010PropOp40
 70
     1
102
RTVSPost2010Prop41ColorIndex
 90
       18
102
RTVSPost2010Prop41ColorRGB
 90
        0
102
RTVSPost2010PropOp41
 70
     1
102
RTVSPost2010Prop42
 90
       50
102
RTVSPost2010PropOp42
 70
     1
102
RTVSPost2010Prop43
 90
        3
102
RTVSPost2010PropOp43
 70
     1
102
RTVSPost2010Prop44ColorIndex
 90
        5
102
RTVSPost2010Prop44ColorRGB
 90
      255
102
RTVSPost2010PropOp44
 70
     1
102
RTVSPost2010Prop45
280
     0
102
RTVSPost2010PropOp45
 70
     1
102
RTVSPost2010Prop46
 90
       50
102
RTVSPost2010PropOp46
 70
     1
102
RTVSPost2010Prop47
 90
       50
102
RTVSPost2010PropOp47
 70
     1
102
RTVSPost2010Prop48
 90
       50
102
RTVSPost2010PropOp48
 70
     1
102
RTVSPost2010Prop49
280
     0
102
RTVSPost2010PropOp49
 70
     1
102
RTVSPost2010Prop50
 90
       50
102
RTVSPost2010PropOp50
 70
     1
102
RTVSPost2010Prop51ColorIndex
 90
      256
102
RTVSPost2010Prop51ColorRGB
 90
-16777216
102
RTVSPost2010PropOp51
 70
     0
102
RTVSPost2010Prop52
140
1.0
102
RTVSPost2010PropOp52
 70
     0
102
RTVSPost2010Prop53
 90
        2
102
RTVSPost2010PropOp53
 70
     1
102
RTVSPost2010Prop54
  1
strokes_ogs.tif
102
RTVSPost2010PropOp54
 70
     1
102
RTVSPost2010Prop55
280
     0
102
RTVSPost2010PropOp55
 70
     1
102
RTVSPost2010Prop56
140
1.0
102
RTVSPost2010PropOp56
 70
     1
102
RTVSPost2010Prop57
140
1.0
102
RTVSPost2010PropOp57
 70
     1
102
RTVSPropertyOp0
 70
     1
102
RTVSPropertyOp1
 70
     1
102
RTVSPropertyOp2
 70
     1
102
RTVSPropertyOp3
 70
     1
102
RTVSPropertyOp4
 70
     1
102
RTVSPropertyOp5
 70
     1
102
RTVSPropertyOp6
 70
     1
102
RTVSPropertyOp7
 70
     1
102
RTVSPropertyOp8
 70
     1
102
RTVSPropertyOp9
 70
     1
102
RTVSPropertyOp10
 70
     1
102
RTVSPropertyOp11
 70
     1
102
RTVSPropertyOp12
 70
     1
102
RTVSPropertyOp13
 70
     1
102
RTVSPropertyOp14
 70
     1
102
RTVSPropertyOp15
 70
     1
102
RTVSPropertyOp16
 70
     1
102
RTVSPropertyOp17
 70
     1
102
RTVSPropertyOp18
 70
     1
102
RTVSPropertyOp19
 70
     1
102
RTVSPropertyOp20
 70
     1
102
RTVSPropertyOp21
 70
     1
102
RTVSPropertyOp22
 70
     1
102
RTVSPropertyOp23
 70
     1
102
RTVSPropertyOp24
 70
     1
102
RTVSPropertyOp25
 70
     1
102
RTVSPropertyOp26
 70
     1
102
RTVSPropertyOp27
 70
     1
102
RTVSPropertyOp28
 70
     1
102
RTVSPropertyOp29
 70
     1
102
RTVSPropertyOp30
 70
     1
102
RTVSPropertyOp31
 70
     1
102
RTVSPropertyOp32
 70
     1
102
RTVSPropertyOp33
 70
     1
102
RTVSPropertyOp34
 70
     1
102
RTVSPropertyOp35
 70
     1
102
RTVSPropertyOp36
 70
     1
102
RTVSPropertyOp37
 70
     1
102
RTVSPropertyOp38
 70
     1
102
RTVSPropertyOp39
 70
     1
102
RTVSPropertyOp40
 70
     1
102
RTVSPropertyOp41
 70
     1
102
RTVSPropertyOp42
 70
     1
102
RTVSPropertyOp43
 70
     1
102
RTVSPropertyOp44
 70
     1
102
RTVSPropertyOp45
 70
     1
102
RTVSPropertyOp46
 70
     1
102
RTVSPropertyOp47
 70
     1
102
RTVSPropertyOp48
 70
     1
102
RTVSPropertyOp49
 70
     1
102
RTVSPropertyOp50
 70
     1
102
RTVSPropertyOp51
 70
     0
102
RTVSPropertyOp52
 70
     0
102
RTVSPropertyOp53
 70
     1
102
RTVSPropertyOp54
 70
     1
102
RTVSPropertyOp55
 70
     1
102
RTVSPropertyOp56
 70
     1
102
RTVSPropertyOp57
 70
     1
102
RTVSPropertyOp58
 70
     1
102
RTVSPropertyOp59
 70
     1
102
RTVSPropertyOp60
 70
     1
102
RTVSPropertyOp61
 70
     1
102
RTVSPropertyOp62
 70
     1
  0
XRECORD
  5
C50B
102
{ACAD_REACTORS
330
C50A
102
}
330
C50A
100
AcDbXrecord
280
     1
102
RTVSPost2010Prop28
280
     0
102
RTVSPost2010PropOp28
 70
     1
102
RTVSPost2010Prop29
280
     1
102
RTVSPost2010PropOp29
 70
     1
102
RTVSPost2010Prop30
280
     1
102
RTVSPost2010PropOp30
 70
     1
102
RTVSPost2010Prop31
280
     0
102
RTVSPost2010PropOp31
 70
     1
102
RTVSPost2010Prop32
280
     0
102
RTVSPost2010PropOp32
 70
     1
102
RTVSPost2010Prop33
280
     0
102
RTVSPost2010PropOp33
 70
     1
102
RTVSPost2010Prop34
280
     0
102
RTVSPost2010PropOp34
 70
     1
102
RTVSPost2010Prop35
280
     0
102
RTVSPost2010PropOp35
 70
     1
102
RTVSPost2010Prop36
280
     0
102
RTVSPost2010PropOp36
 70
     1
102
RTVSPost2010Prop37
 90
       50
102
RTVSPost2010PropOp37
 70
     1
102
RTVSPost2010Prop38
140
0.0
102
RTVSPost2010PropOp38
 70
     1
102
RTVSPost2010Prop39
140
1.0
102
RTVSPost2010PropOp39
 70
     1
102
RTVSPost2010Prop40
 90
        0
102
RTVSPost2010PropOp40
 70
     1
102
RTVSPost2010Prop41ColorIndex
 90
       18
102
RTVSPost2010Prop41ColorRGB
 90
        0
102
RTVSPost2010PropOp41
 70
     1
102
RTVSPost2010Prop42
 90
       50
102
RTVSPost2010PropOp42
 70
     1
102
RTVSPost2010Prop43
 90
        3
102
RTVSPost2010PropOp43
 70
     1
102
RTVSPost2010Prop44ColorIndex
 90
        5
102
RTVSPost2010Prop44ColorRGB
 90
      255
102
RTVSPost2010PropOp44
 70
     1
102
RTVSPost2010Prop45
280
     0
102
RTVSPost2010PropOp45
 70
     1
102
RTVSPost2010Prop46
 90
       50
102
RTVSPost2010PropOp46
 70
     1
102
RTVSPost2010Prop47
 90
       50
102
RTVSPost2010PropOp47
 70
     1
102
RTVSPost2010Prop48
 90
       50
102
RTVSPost2010PropOp48
 70
     1
102
RTVSPost2010Prop49
280
     0
102
RTVSPost2010PropOp49
 70
     1
102
RTVSPost2010Prop50
 90
       50
102
RTVSPost2010PropOp50
 70
     1
102
RTVSPost2010Prop51ColorIndex
 90
      256
102
RTVSPost2010Prop51ColorRGB
 90
-16777216
102
RTVSPost2010PropOp51
 70
     0
102
RTVSPost2010Prop52
140
1.0
102
RTVSPost2010PropOp52
 70
     0
102
RTVSPost2010Prop53
 90
        2
102
RTVSPost2010PropOp53
 70
     1
102
RTVSPost2010Prop54
  1
strokes_ogs.tif
102
RTVSPost2010PropOp54
 70
     1
102
RTVSPost2010Prop55
280
     0
102
RTVSPost2010PropOp55
 70
     1
102
RTVSPost2010Prop56
140
1.0
102
RTVSPost2010PropOp56
 70
     1
102
RTVSPost2010Prop57
140
1.0
102
RTVSPost2010PropOp57
 70
     1
102
RTVSPropertyOp0
 70
     1
102
RTVSPropertyOp1
 70
     1
102
RTVSPropertyOp2
 70
     1
102
RTVSPropertyOp3
 70
     1
102
RTVSPropertyOp4
 70
     1
102
RTVSPropertyOp5
 70
     1
102
RTVSPropertyOp6
 70
     1
102
RTVSPropertyOp7
 70
     1
102
RTVSPropertyOp8
 70
     1
102
RTVSPropertyOp9
 70
     1
102
RTVSPropertyOp10
 70
     1
102
RTVSPropertyOp11
 70
     1
102
RTVSPropertyOp12
 70
     1
102
RTVSPropertyOp13
 70
     1
102
RTVSPropertyOp14
 70
     1
102
RTVSPropertyOp15
 70
     1
102
RTVSPropertyOp16
 70
     1
102
RTVSPropertyOp17
 70
     1
102
RTVSPropertyOp18
 70
     1
102
RTVSPropertyOp19
 70
     1
102
RTVSPropertyOp20
 70
     1
102
RTVSPropertyOp21
 70
     1
102
RTVSPropertyOp22
 70
     1
102
RTVSPropertyOp23
 70
     1
102
RTVSPropertyOp24
 70
     1
102
RTVSPropertyOp25
 70
     1
102
RTVSPropertyOp26
 70
     1
102
RTVSPropertyOp27
 70
     1
102
RTVSPropertyOp28
 70
     1
102
RTVSPropertyOp29
 70
     1
102
RTVSPropertyOp30
 70
     1
102
RTVSPropertyOp31
 70
     1
102
RTVSPropertyOp32
 70
     1
102
RTVSPropertyOp33
 70
     1
102
RTVSPropertyOp34
 70
     1
102
RTVSPropertyOp35
 70
     1
102
RTVSPropertyOp36
 70
     1
102
RTVSPropertyOp37
 70
     1
102
RTVSPropertyOp38
 70
     1
102
RTVSPropertyOp39
 70
     1
102
RTVSPropertyOp40
 70
     1
102
RTVSPropertyOp41
 70
     1
102
RTVSPropertyOp42
 70
     1
102
RTVSPropertyOp43
 70
     1
102
RTVSPropertyOp44
 70
     1
102
RTVSPropertyOp45
 70
     1
102
RTVSPropertyOp46
 70
     1
102
RTVSPropertyOp47
 70
     1
102
RTVSPropertyOp48
 70
     1
102
RTVSPropertyOp49
 70
     1
102
RTVSPropertyOp50
 70
     1
102
RTVSPropertyOp51
 70
     0
102
RTVSPropertyOp52
 70
     0
102
RTVSPropertyOp53
 70
     1
102
RTVSPropertyOp54
 70
     1
102
RTVSPropertyOp55
 70
     1
102
RTVSPropertyOp56
 70
     1
102
RTVSPropertyOp57
 70
     1
102
RTVSPropertyOp58
 70
     1
102
RTVSPropertyOp59
 70
     1
102
RTVSPropertyOp60
 70
     1
102
RTVSPropertyOp61
 70
     1
102
RTVSPropertyOp62
 70
     1
  0
XRECORD
  5
C519
102
{ACAD_REACTORS
330
C518
102
}
330
C518
100
AcDbXrecord
280
     1
102
RTVSPost2010Prop28
280
     0
102
RTVSPost2010PropOp28
 70
     1
102
RTVSPost2010Prop29
280
     1
102
RTVSPost2010PropOp29
 70
     1
102
RTVSPost2010Prop30
280
     1
102
RTVSPost2010PropOp30
 70
     1
102
RTVSPost2010Prop31
280
     0
102
RTVSPost2010PropOp31
 70
     1
102
RTVSPost2010Prop32
280
     0
102
RTVSPost2010PropOp32
 70
     1
102
RTVSPost2010Prop33
280
     0
102
RTVSPost2010PropOp33
 70
     1
102
RTVSPost2010Prop34
280
     0
102
RTVSPost2010PropOp34
 70
     1
102
RTVSPost2010Prop35
280
     0
102
RTVSPost2010PropOp35
 70
     1
102
RTVSPost2010Prop36
280
     0
102
RTVSPost2010PropOp36
 70
     1
102
RTVSPost2010Prop37
 90
       50
102
RTVSPost2010PropOp37
 70
     1
102
RTVSPost2010Prop38
140
0.0
102
RTVSPost2010PropOp38
 70
     1
102
RTVSPost2010Prop39
140
1.0
102
RTVSPost2010PropOp39
 70
     1
102
RTVSPost2010Prop40
 90
        0
102
RTVSPost2010PropOp40
 70
     1
102
RTVSPost2010Prop41ColorIndex
 90
       18
102
RTVSPost2010Prop41ColorRGB
 90
        0
102
RTVSPost2010PropOp41
 70
     1
102
RTVSPost2010Prop42
 90
       50
102
RTVSPost2010PropOp42
 70
     1
102
RTVSPost2010Prop43
 90
        3
102
RTVSPost2010PropOp43
 70
     1
102
RTVSPost2010Prop44ColorIndex
 90
        5
102
RTVSPost2010Prop44ColorRGB
 90
      255
102
RTVSPost2010PropOp44
 70
     1
102
RTVSPost2010Prop45
280
     0
102
RTVSPost2010PropOp45
 70
     1
102
RTVSPost2010Prop46
 90
       50
102
RTVSPost2010PropOp46
 70
     1
102
RTVSPost2010Prop47
 90
       50
102
RTVSPost2010PropOp47
 70
     1
102
RTVSPost2010Prop48
 90
       50
102
RTVSPost2010PropOp48
 70
     1
102
RTVSPost2010Prop49
280
     0
102
RTVSPost2010PropOp49
 70
     1
102
RTVSPost2010Prop50
 90
       50
102
RTVSPost2010PropOp50
 70
     1
102
RTVSPost2010Prop51ColorIndex
 90
      256
102
RTVSPost2010Prop51ColorRGB
 90
-16777216
102
RTVSPost2010PropOp51
 70
     0
102
RTVSPost2010Prop52
140
1.0
102
RTVSPost2010PropOp52
 70
     0
102
RTVSPost2010Prop53
 90
        2
102
RTVSPost2010PropOp53
 70
     1
102
RTVSPost2010Prop54
  1
strokes_ogs.tif
102
RTVSPost2010PropOp54
 70
     1
102
RTVSPost2010Prop55
280
     0
102
RTVSPost2010PropOp55
 70
     1
102
RTVSPost2010Prop56
140
1.0
102
RTVSPost2010PropOp56
 70
     1
102
RTVSPost2010Prop57
140
1.0
102
RTVSPost2010PropOp57
 70
     1
102
RTVSPropertyOp0
 70
     1
102
RTVSPropertyOp1
 70
     1
102
RTVSPropertyOp2
 70
     1
102
RTVSPropertyOp3
 70
     1
102
RTVSPropertyOp4
 70
     1
102
RTVSPropertyOp5
 70
     1
102
RTVSPropertyOp6
 70
     1
102
RTVSPropertyOp7
 70
     1
102
RTVSPropertyOp8
 70
     1
102
RTVSPropertyOp9
 70
     1
102
RTVSPropertyOp10
 70
     1
102
RTVSPropertyOp11
 70
     1
102
RTVSPropertyOp12
 70
     1
102
RTVSPropertyOp13
 70
     1
102
RTVSPropertyOp14
 70
     1
102
RTVSPropertyOp15
 70
     1
102
RTVSPropertyOp16
 70
     1
102
RTVSPropertyOp17
 70
     1
102
RTVSPropertyOp18
 70
     1
102
RTVSPropertyOp19
 70
     1
102
RTVSPropertyOp20
 70
     1
102
RTVSPropertyOp21
 70
     1
102
RTVSPropertyOp22
 70
     1
102
RTVSPropertyOp23
 70
     1
102
RTVSPropertyOp24
 70
     1
102
RTVSPropertyOp25
 70
     1
102
RTVSPropertyOp26
 70
     1
102
RTVSPropertyOp27
 70
     1
102
RTVSPropertyOp28
 70
     1
102
RTVSPropertyOp29
 70
     1
102
RTVSPropertyOp30
 70
     1
102
RTVSPropertyOp31
 70
     1
102
RTVSPropertyOp32
 70
     1
102
RTVSPropertyOp33
 70
     1
102
RTVSPropertyOp34
 70
     1
102
RTVSPropertyOp35
 70
     1
102
RTVSPropertyOp36
 70
     1
102
RTVSPropertyOp37
 70
     1
102
RTVSPropertyOp38
 70
     1
102
RTVSPropertyOp39
 70
     1
102
RTVSPropertyOp40
 70
     1
102
RTVSPropertyOp41
 70
     1
102
RTVSPropertyOp42
 70
     1
102
RTVSPropertyOp43
 70
     1
102
RTVSPropertyOp44
 70
     1
102
RTVSPropertyOp45
 70
     1
102
RTVSPropertyOp46
 70
     1
102
RTVSPropertyOp47
 70
     1
102
RTVSPropertyOp48
 70
     1
102
RTVSPropertyOp49
 70
     1
102
RTVSPropertyOp50
 70
     1
102
RTVSPropertyOp51
 70
     0
102
RTVSPropertyOp52
 70
     0
102
RTVSPropertyOp53
 70
     1
102
RTVSPropertyOp54
 70
     1
102
RTVSPropertyOp55
 70
     1
102
RTVSPropertyOp56
 70
     1
102
RTVSPropertyOp57
 70
     1
102
RTVSPropertyOp58
 70
     1
102
RTVSPropertyOp59
 70
     1
102
RTVSPropertyOp60
 70
     1
102
RTVSPropertyOp61
 70
     1
102
RTVSPropertyOp62
 70
     1
  0
XRECORD
  5
C521
102
{ACAD_REACTORS
330
C520
102
}
330
C520
100
AcDbXrecord
280
     1
102
RTVSPost2010Prop28
280
     0
102
RTVSPost2010PropOp28
 70
     1
102
RTVSPost2010Prop29
280
     1
102
RTVSPost2010PropOp29
 70
     1
102
RTVSPost2010Prop30
280
     1
102
RTVSPost2010PropOp30
 70
     1
102
RTVSPost2010Prop31
280
     0
102
RTVSPost2010PropOp31
 70
     1
102
RTVSPost2010Prop32
280
     0
102
RTVSPost2010PropOp32
 70
     1
102
RTVSPost2010Prop33
280
     0
102
RTVSPost2010PropOp33
 70
     1
102
RTVSPost2010Prop34
280
     0
102
RTVSPost2010PropOp34
 70
     1
102
RTVSPost2010Prop35
280
     0
102
RTVSPost2010PropOp35
 70
     1
102
RTVSPost2010Prop36
280
     0
102
RTVSPost2010PropOp36
 70
     1
102
RTVSPost2010Prop37
 90
       50
102
RTVSPost2010PropOp37
 70
     1
102
RTVSPost2010Prop38
140
0.0
102
RTVSPost2010PropOp38
 70
     1
102
RTVSPost2010Prop39
140
1.0
102
RTVSPost2010PropOp39
 70
     1
102
RTVSPost2010Prop40
 90
        0
102
RTVSPost2010PropOp40
 70
     1
102
RTVSPost2010Prop41ColorIndex
 90
       18
102
RTVSPost2010Prop41ColorRGB
 90
        0
102
RTVSPost2010PropOp41
 70
     1
102
RTVSPost2010Prop42
 90
       50
102
RTVSPost2010PropOp42
 70
     1
102
RTVSPost2010Prop43
 90
        3
102
RTVSPost2010PropOp43
 70
     1
102
RTVSPost2010Prop44ColorIndex
 90
        5
102
RTVSPost2010Prop44ColorRGB
 90
      255
102
RTVSPost2010PropOp44
 70
     1
102
RTVSPost2010Prop45
280
     0
102
RTVSPost2010PropOp45
 70
     1
102
RTVSPost2010Prop46
 90
       50
102
RTVSPost2010PropOp46
 70
     1
102
RTVSPost2010Prop47
 90
       50
102
RTVSPost2010PropOp47
 70
     1
102
RTVSPost2010Prop48
 90
       50
102
RTVSPost2010PropOp48
 70
     1
102
RTVSPost2010Prop49
280
     0
102
RTVSPost2010PropOp49
 70
     1
102
RTVSPost2010Prop50
 90
       50
102
RTVSPost2010PropOp50
 70
     1
102
RTVSPost2010Prop51ColorIndex
 90
      256
102
RTVSPost2010Prop51ColorRGB
 90
-16777216
102
RTVSPost2010PropOp51
 70
     0
102
RTVSPost2010Prop52
140
1.0
102
RTVSPost2010PropOp52
 70
     0
102
RTVSPost2010Prop53
 90
        2
102
RTVSPost2010PropOp53
 70
     1
102
RTVSPost2010Prop54
  1
strokes_ogs.tif
102
RTVSPost2010PropOp54
 70
     1
102
RTVSPost2010Prop55
280
     0
102
RTVSPost2010PropOp55
 70
     1
102
RTVSPost2010Prop56
140
1.0
102
RTVSPost2010PropOp56
 70
     1
102
RTVSPost2010Prop57
140
1.0
102
RTVSPost2010PropOp57
 70
     1
102
RTVSPropertyOp0
 70
     1
102
RTVSPropertyOp1
 70
     1
102
RTVSPropertyOp2
 70
     1
102
RTVSPropertyOp3
 70
     1
102
RTVSPropertyOp4
 70
     1
102
RTVSPropertyOp5
 70
     1
102
RTVSPropertyOp6
 70
     1
102
RTVSPropertyOp7
 70
     1
102
RTVSPropertyOp8
 70
     1
102
RTVSPropertyOp9
 70
     1
102
RTVSPropertyOp10
 70
     1
102
RTVSPropertyOp11
 70
     1
102
RTVSPropertyOp12
 70
     1
102
RTVSPropertyOp13
 70
     1
102
RTVSPropertyOp14
 70
     1
102
RTVSPropertyOp15
 70
     1
102
RTVSPropertyOp16
 70
     1
102
RTVSPropertyOp17
 70
     1
102
RTVSPropertyOp18
 70
     1
102
RTVSPropertyOp19
 70
     1
102
RTVSPropertyOp20
 70
     1
102
RTVSPropertyOp21
 70
     1
102
RTVSPropertyOp22
 70
     1
102
RTVSPropertyOp23
 70
     1
102
RTVSPropertyOp24
 70
     1
102
RTVSPropertyOp25
 70
     1
102
RTVSPropertyOp26
 70
     1
102
RTVSPropertyOp27
 70
     1
102
RTVSPropertyOp28
 70
     1
102
RTVSPropertyOp29
 70
     1
102
RTVSPropertyOp30
 70
     1
102
RTVSPropertyOp31
 70
     1
102
RTVSPropertyOp32
 70
     1
102
RTVSPropertyOp33
 70
     1
102
RTVSPropertyOp34
 70
     1
102
RTVSPropertyOp35
 70
     1
102
RTVSPropertyOp36
 70
     1
102
RTVSPropertyOp37
 70
     1
102
RTVSPropertyOp38
 70
     1
102
RTVSPropertyOp39
 70
     1
102
RTVSPropertyOp40
 70
     1
102
RTVSPropertyOp41
 70
     1
102
RTVSPropertyOp42
 70
     1
102
RTVSPropertyOp43
 70
     1
102
RTVSPropertyOp44
 70
     1
102
RTVSPropertyOp45
 70
     1
102
RTVSPropertyOp46
 70
     1
102
RTVSPropertyOp47
 70
     1
102
RTVSPropertyOp48
 70
     1
102
RTVSPropertyOp49
 70
     1
102
RTVSPropertyOp50
 70
     1
102
RTVSPropertyOp51
 70
     0
102
RTVSPropertyOp52
 70
     0
102
RTVSPropertyOp53
 70
     1
102
RTVSPropertyOp54
 70
     1
102
RTVSPropertyOp55
 70
     1
102
RTVSPropertyOp56
 70
     1
102
RTVSPropertyOp57
 70
     1
102
RTVSPropertyOp58
 70
     1
102
RTVSPropertyOp59
 70
     1
102
RTVSPropertyOp60
 70
     1
102
RTVSPropertyOp61
 70
     1
102
RTVSPropertyOp62
 70
     1
  0
XRECORD
  5
C513
102
{ACAD_REACTORS
330
C512
102
}
330
C512
100
AcDbXrecord
280
     1
102
RTVSPost2010Prop28
280
     0
102
RTVSPost2010PropOp28
 70
     1
102
RTVSPost2010Prop29
280
     1
102
RTVSPost2010PropOp29
 70
     1
102
RTVSPost2010Prop30
280
     1
102
RTVSPost2010PropOp30
 70
     1
102
RTVSPost2010Prop31
280
     0
102
RTVSPost2010PropOp31
 70
     1
102
RTVSPost2010Prop32
280
     0
102
RTVSPost2010PropOp32
 70
     1
102
RTVSPost2010Prop33
280
     0
102
RTVSPost2010PropOp33
 70
     1
102
RTVSPost2010Prop34
280
     0
102
RTVSPost2010PropOp34
 70
     1
102
RTVSPost2010Prop35
280
     0
102
RTVSPost2010PropOp35
 70
     1
102
RTVSPost2010Prop36
280
     0
102
RTVSPost2010PropOp36
 70
     1
102
RTVSPost2010Prop37
 90
       50
102
RTVSPost2010PropOp37
 70
     1
102
RTVSPost2010Prop38
140
0.0
102
RTVSPost2010PropOp38
 70
     1
102
RTVSPost2010Prop39
140
1.0
102
RTVSPost2010PropOp39
 70
     1
102
RTVSPost2010Prop40
 90
        0
102
RTVSPost2010PropOp40
 70
     1
102
RTVSPost2010Prop41ColorIndex
 90
       18
102
RTVSPost2010Prop41ColorRGB
 90
        0
102
RTVSPost2010PropOp41
 70
     1
102
RTVSPost2010Prop42
 90
       50
102
RTVSPost2010PropOp42
 70
     1
102
RTVSPost2010Prop43
 90
        3
102
RTVSPost2010PropOp43
 70
     1
102
RTVSPost2010Prop44ColorIndex
 90
        5
102
RTVSPost2010Prop44ColorRGB
 90
      255
102
RTVSPost2010PropOp44
 70
     1
102
RTVSPost2010Prop45
280
     0
102
RTVSPost2010PropOp45
 70
     1
102
RTVSPost2010Prop46
 90
       50
102
RTVSPost2010PropOp46
 70
     1
102
RTVSPost2010Prop47
 90
       50
102
RTVSPost2010PropOp47
 70
     1
102
RTVSPost2010Prop48
 90
       50
102
RTVSPost2010PropOp48
 70
     1
102
RTVSPost2010Prop49
280
     0
102
RTVSPost2010PropOp49
 70
     1
102
RTVSPost2010Prop50
 90
       50
102
RTVSPost2010PropOp50
 70
     1
102
RTVSPost2010Prop51ColorIndex
 90
      256
102
RTVSPost2010Prop51ColorRGB
 90
-16777216
102
RTVSPost2010PropOp51
 70
     0
102
RTVSPost2010Prop52
140
1.0
102
RTVSPost2010PropOp52
 70
     0
102
RTVSPost2010Prop53
 90
        2
102
RTVSPost2010PropOp53
 70
     1
102
RTVSPost2010Prop54
  1
strokes_ogs.tif
102
RTVSPost2010PropOp54
 70
     1
102
RTVSPost2010Prop55
280
     0
102
RTVSPost2010PropOp55
 70
     1
102
RTVSPost2010Prop56
140
1.0
102
RTVSPost2010PropOp56
 70
     1
102
RTVSPost2010Prop57
140
1.0
102
RTVSPost2010PropOp57
 70
     1
102
RTVSPropertyOp0
 70
     1
102
RTVSPropertyOp1
 70
     1
102
RTVSPropertyOp2
 70
     1
102
RTVSPropertyOp3
 70
     1
102
RTVSPropertyOp4
 70
     1
102
RTVSPropertyOp5
 70
     1
102
RTVSPropertyOp6
 70
     1
102
RTVSPropertyOp7
 70
     1
102
RTVSPropertyOp8
 70
     1
102
RTVSPropertyOp9
 70
     1
102
RTVSPropertyOp10
 70
     1
102
RTVSPropertyOp11
 70
     1
102
RTVSPropertyOp12
 70
     1
102
RTVSPropertyOp13
 70
     1
102
RTVSPropertyOp14
 70
     1
102
RTVSPropertyOp15
 70
     1
102
RTVSPropertyOp16
 70
     1
102
RTVSPropertyOp17
 70
     1
102
RTVSPropertyOp18
 70
     1
102
RTVSPropertyOp19
 70
     1
102
RTVSPropertyOp20
 70
     1
102
RTVSPropertyOp21
 70
     1
102
RTVSPropertyOp22
 70
     1
102
RTVSPropertyOp23
 70
     1
102
RTVSPropertyOp24
 70
     1
102
RTVSPropertyOp25
 70
     1
102
RTVSPropertyOp26
 70
     1
102
RTVSPropertyOp27
 70
     1
102
RTVSPropertyOp28
 70
     1
102
RTVSPropertyOp29
 70
     1
102
RTVSPropertyOp30
 70
     1
102
RTVSPropertyOp31
 70
     1
102
RTVSPropertyOp32
 70
     1
102
RTVSPropertyOp33
 70
     1
102
RTVSPropertyOp34
 70
     1
102
RTVSPropertyOp35
 70
     1
102
RTVSPropertyOp36
 70
     1
102
RTVSPropertyOp37
 70
     1
102
RTVSPropertyOp38
 70
     1
102
RTVSPropertyOp39
 70
     1
102
RTVSPropertyOp40
 70
     1
102
RTVSPropertyOp41
 70
     1
102
RTVSPropertyOp42
 70
     1
102
RTVSPropertyOp43
 70
     1
102
RTVSPropertyOp44
 70
     1
102
RTVSPropertyOp45
 70
     1
102
RTVSPropertyOp46
 70
     1
102
RTVSPropertyOp47
 70
     1
102
RTVSPropertyOp48
 70
     1
102
RTVSPropertyOp49
 70
     1
102
RTVSPropertyOp50
 70
     1
102
RTVSPropertyOp51
 70
     0
102
RTVSPropertyOp52
 70
     0
102
RTVSPropertyOp53
 70
     1
102
RTVSPropertyOp54
 70
     1
102
RTVSPropertyOp55
 70
     1
102
RTVSPropertyOp56
 70
     1
102
RTVSPropertyOp57
 70
     1
102
RTVSPropertyOp58
 70
     1
102
RTVSPropertyOp59
 70
     1
102
RTVSPropertyOp60
 70
     1
102
RTVSPropertyOp61
 70
     1
102
RTVSPropertyOp62
 70
     1
  0
XRECORD
  5
C517
102
{ACAD_REACTORS
330
C516
102
}
330
C516
100
AcDbXrecord
280
     1
102
RTVSPost2010Prop28
280
     0
102
RTVSPost2010PropOp28
 70
     1
102
RTVSPost2010Prop29
280
     1
102
RTVSPost2010PropOp29
 70
     1
102
RTVSPost2010Prop30
280
     1
102
RTVSPost2010PropOp30
 70
     1
102
RTVSPost2010Prop31
280
     0
102
RTVSPost2010PropOp31
 70
     1
102
RTVSPost2010Prop32
280
     0
102
RTVSPost2010PropOp32
 70
     1
102
RTVSPost2010Prop33
280
     0
102
RTVSPost2010PropOp33
 70
     1
102
RTVSPost2010Prop34
280
     0
102
RTVSPost2010PropOp34
 70
     1
102
RTVSPost2010Prop35
280
     0
102
RTVSPost2010PropOp35
 70
     1
102
RTVSPost2010Prop36
280
     0
102
RTVSPost2010PropOp36
 70
     1
102
RTVSPost2010Prop37
 90
       50
102
RTVSPost2010PropOp37
 70
     1
102
RTVSPost2010Prop38
140
0.0
102
RTVSPost2010PropOp38
 70
     1
102
RTVSPost2010Prop39
140
1.0
102
RTVSPost2010PropOp39
 70
     1
102
RTVSPost2010Prop40
 90
        0
102
RTVSPost2010PropOp40
 70
     1
102
RTVSPost2010Prop41ColorIndex
 90
       18
102
RTVSPost2010Prop41ColorRGB
 90
        0
102
RTVSPost2010PropOp41
 70
     1
102
RTVSPost2010Prop42
 90
       50
102
RTVSPost2010PropOp42
 70
     1
102
RTVSPost2010Prop43
 90
        3
102
RTVSPost2010PropOp43
 70
     1
102
RTVSPost2010Prop44ColorIndex
 90
        5
102
RTVSPost2010Prop44ColorRGB
 90
      255
102
RTVSPost2010PropOp44
 70
     1
102
RTVSPost2010Prop45
280
     0
102
RTVSPost2010PropOp45
 70
     1
102
RTVSPost2010Prop46
 90
       50
102
RTVSPost2010PropOp46
 70
     1
102
RTVSPost2010Prop47
 90
       50
102
RTVSPost2010PropOp47
 70
     1
102
RTVSPost2010Prop48
 90
       50
102
RTVSPost2010PropOp48
 70
     1
102
RTVSPost2010Prop49
280
     0
102
RTVSPost2010PropOp49
 70
     1
102
RTVSPost2010Prop50
 90
       50
102
RTVSPost2010PropOp50
 70
     1
102
RTVSPost2010Prop51ColorIndex
 90
      256
102
RTVSPost2010Prop51ColorRGB
 90
-16777216
102
RTVSPost2010PropOp51
 70
     0
102
RTVSPost2010Prop52
140
1.0
102
RTVSPost2010PropOp52
 70
     0
102
RTVSPost2010Prop53
 90
        2
102
RTVSPost2010PropOp53
 70
     1
102
RTVSPost2010Prop54
  1
strokes_ogs.tif
102
RTVSPost2010PropOp54
 70
     1
102
RTVSPost2010Prop55
280
     0
102
RTVSPost2010PropOp55
 70
     1
102
RTVSPost2010Prop56
140
1.0
102
RTVSPost2010PropOp56
 70
     1
102
RTVSPost2010Prop57
140
1.0
102
RTVSPost2010PropOp57
 70
     1
102
RTVSPropertyOp0
 70
     1
102
RTVSPropertyOp1
 70
     1
102
RTVSPropertyOp2
 70
     1
102
RTVSPropertyOp3
 70
     1
102
RTVSPropertyOp4
 70
     1
102
RTVSPropertyOp5
 70
     1
102
RTVSPropertyOp6
 70
     1
102
RTVSPropertyOp7
 70
     1
102
RTVSPropertyOp8
 70
     1
102
RTVSPropertyOp9
 70
     1
102
RTVSPropertyOp10
 70
     1
102
RTVSPropertyOp11
 70
     1
102
RTVSPropertyOp12
 70
     1
102
RTVSPropertyOp13
 70
     1
102
RTVSPropertyOp14
 70
     1
102
RTVSPropertyOp15
 70
     1
102
RTVSPropertyOp16
 70
     1
102
RTVSPropertyOp17
 70
     1
102
RTVSPropertyOp18
 70
     1
102
RTVSPropertyOp19
 70
     1
102
RTVSPropertyOp20
 70
     1
102
RTVSPropertyOp21
 70
     1
102
RTVSPropertyOp22
 70
     1
102
RTVSPropertyOp23
 70
     1
102
RTVSPropertyOp24
 70
     1
102
RTVSPropertyOp25
 70
     1
102
RTVSPropertyOp26
 70
     1
102
RTVSPropertyOp27
 70
     1
102
RTVSPropertyOp28
 70
     1
102
RTVSPropertyOp29
 70
     1
102
RTVSPropertyOp30
 70
     1
102
RTVSPropertyOp31
 70
     1
102
RTVSPropertyOp32
 70
     1
102
RTVSPropertyOp33
 70
     1
102
RTVSPropertyOp34
 70
     1
102
RTVSPropertyOp35
 70
     1
102
RTVSPropertyOp36
 70
     1
102
RTVSPropertyOp37
 70
     1
102
RTVSPropertyOp38
 70
     1
102
RTVSPropertyOp39
 70
     1
102
RTVSPropertyOp40
 70
     1
102
RTVSPropertyOp41
 70
     1
102
RTVSPropertyOp42
 70
     1
102
RTVSPropertyOp43
 70
     1
102
RTVSPropertyOp44
 70
     1
102
RTVSPropertyOp45
 70
     1
102
RTVSPropertyOp46
 70
     1
102
RTVSPropertyOp47
 70
     1
102
RTVSPropertyOp48
 70
     1
102
RTVSPropertyOp49
 70
     1
102
RTVSPropertyOp50
 70
     1
102
RTVSPropertyOp51
 70
     0
102
RTVSPropertyOp52
 70
     0
102
RTVSPropertyOp53
 70
     1
102
RTVSPropertyOp54
 70
     1
102
RTVSPropertyOp55
 70
     1
102
RTVSPropertyOp56
 70
     1
102
RTVSPropertyOp57
 70
     1
102
RTVSPropertyOp58
 70
     1
102
RTVSPropertyOp59
 70
     1
102
RTVSPropertyOp60
 70
     1
102
RTVSPropertyOp61
 70
     1
102
RTVSPropertyOp62
 70
     1
  0
XRECORD
  5
C531
102
{ACAD_REACTORS
330
C530
102
}
330
C530
100
AcDbXrecord
280
     1
102
RTVSPost2010Prop28
280
     0
102
RTVSPost2010PropOp28
 70
     1
102
RTVSPost2010Prop29
280
     1
102
RTVSPost2010PropOp29
 70
     1
102
RTVSPost2010Prop30
280
     1
102
RTVSPost2010PropOp30
 70
     1
102
RTVSPost2010Prop31
280
     0
102
RTVSPost2010PropOp31
 70
     1
102
RTVSPost2010Prop32
280
     0
102
RTVSPost2010PropOp32
 70
     1
102
RTVSPost2010Prop33
280
     0
102
RTVSPost2010PropOp33
 70
     1
102
RTVSPost2010Prop34
280
     0
102
RTVSPost2010PropOp34
 70
     1
102
RTVSPost2010Prop35
280
     0
102
RTVSPost2010PropOp35
 70
     1
102
RTVSPost2010Prop36
280
     0
102
RTVSPost2010PropOp36
 70
     1
102
RTVSPost2010Prop37
 90
       50
102
RTVSPost2010PropOp37
 70
     0
102
RTVSPost2010Prop38
140
0.0
102
RTVSPost2010PropOp38
 70
     0
102
RTVSPost2010Prop39
140
1.0
102
RTVSPost2010PropOp39
 70
     0
102
RTVSPost2010Prop40
 90
        0
102
RTVSPost2010PropOp40
 70
     0
102
RTVSPost2010Prop41ColorIndex
 90
       18
102
RTVSPost2010Prop41ColorRGB
 90
        0
102
RTVSPost2010PropOp41
 70
     0
102
RTVSPost2010Prop42
 90
       50
102
RTVSPost2010PropOp42
 70
     0
102
RTVSPost2010Prop43
 90
        3
102
RTVSPost2010PropOp43
 70
     0
102
RTVSPost2010Prop44ColorIndex
 90
        5
102
RTVSPost2010Prop44ColorRGB
 90
      255
102
RTVSPost2010PropOp44
 70
     0
102
RTVSPost2010Prop45
280
     0
102
RTVSPost2010PropOp45
 70
     1
102
RTVSPost2010Prop46
 90
       50
102
RTVSPost2010PropOp46
 70
     0
102
RTVSPost2010Prop47
 90
       50
102
RTVSPost2010PropOp47
 70
     0
102
RTVSPost2010Prop48
 90
       50
102
RTVSPost2010PropOp48
 70
     0
102
RTVSPost2010Prop49
280
     0
102
RTVSPost2010PropOp49
 70
     1
102
RTVSPost2010Prop50
 90
       50
102
RTVSPost2010PropOp50
 70
     0
102
RTVSPost2010Prop51ColorIndex
 90
      256
102
RTVSPost2010Prop51ColorRGB
 90
-16777216
102
RTVSPost2010PropOp51
 70
     0
102
RTVSPost2010Prop52
140
1.0
102
RTVSPost2010PropOp52
 70
     0
102
RTVSPost2010Prop53
 90
        2
102
RTVSPost2010PropOp53
 70
     0
102
RTVSPost2010Prop54
  1
strokes_ogs.tif
102
RTVSPost2010PropOp54
 70
     0
102
RTVSPost2010Prop55
280
     0
102
RTVSPost2010PropOp55
 70
     1
102
RTVSPost2010Prop56
140
1.0
102
RTVSPost2010PropOp56
 70
     0
102
RTVSPost2010Prop57
140
1.0
102
RTVSPost2010PropOp57
 70
     0
102
RTVSPropertyOp0
 70
     0
102
RTVSPropertyOp1
 70
     0
102
RTVSPropertyOp2
 70
     0
102
RTVSPropertyOp3
 70
     0
102
RTVSPropertyOp4
 70
     0
102
RTVSPropertyOp5
 70
     0
102
RTVSPropertyOp6
 70
     0
102
RTVSPropertyOp7
 70
     0
102
RTVSPropertyOp8
 70
     0
102
RTVSPropertyOp9
 70
     0
102
RTVSPropertyOp10
 70
     0
102
RTVSPropertyOp11
 70
     0
102
RTVSPropertyOp12
 70
     0
102
RTVSPropertyOp13
 70
     0
102
RTVSPropertyOp14
 70
     2
102
RTVSPropertyOp15
 70
     0
102
RTVSPropertyOp16
 70
     0
102
RTVSPropertyOp17
 70
     0
102
RTVSPropertyOp18
 70
     0
102
RTVSPropertyOp19
 70
     0
102
RTVSPropertyOp20
 70
     0
102
RTVSPropertyOp21
 70
     0
102
RTVSPropertyOp22
 70
     0
102
RTVSPropertyOp23
 70
     0
102
RTVSPropertyOp24
 70
     0
102
RTVSPropertyOp25
 70
     0
102
RTVSPropertyOp26
 70
     0
102
RTVSPropertyOp27
 70
     0
102
RTVSPropertyOp28
 70
     1
102
RTVSPropertyOp29
 70
     1
102
RTVSPropertyOp30
 70
     1
102
RTVSPropertyOp31
 70
     1
102
RTVSPropertyOp32
 70
     1
102
RTVSPropertyOp33
 70
     1
102
RTVSPropertyOp34
 70
     1
102
RTVSPropertyOp35
 70
     1
102
RTVSPropertyOp36
 70
     1
102
RTVSPropertyOp37
 70
     0
102
RTVSPropertyOp38
 70
     0
102
RTVSPropertyOp39
 70
     0
102
RTVSPropertyOp40
 70
     0
102
RTVSPropertyOp41
 70
     0
102
RTVSPropertyOp42
 70
     0
102
RTVSPropertyOp43
 70
     0
102
RTVSPropertyOp44
 70
     0
102
RTVSPropertyOp45
 70
     1
102
RTVSPropertyOp46
 70
     0
102
RTVSPropertyOp47
 70
     0
102
RTVSPropertyOp48
 70
     0
102
RTVSPropertyOp49
 70
     1
102
RTVSPropertyOp50
 70
     0
102
RTVSPropertyOp51
 70
     0
102
RTVSPropertyOp52
 70
     0
102
RTVSPropertyOp53
 70
     0
102
RTVSPropertyOp54
 70
     0
102
RTVSPropertyOp55
 70
     1
102
RTVSPropertyOp56
 70
     0
102
RTVSPropertyOp57
 70
     0
102
RTVSPropertyOp58
 70
     0
102
RTVSPropertyOp59
 70
     0
102
RTVSPropertyOp60
 70
     0
102
RTVSPropertyOp61
 70
     0
102
RTVSPropertyOp62
 70
     0
  0
XRECORD
  5
C51F
102
{ACAD_REACTORS
330
C51E
102
}
330
C51E
100
AcDbXrecord
280
     1
102
RTVSPost2010Prop28
280
     0
102
RTVSPost2010PropOp28
 70
     1
102
RTVSPost2010Prop29
280
     1
102
RTVSPost2010PropOp29
 70
     1
102
RTVSPost2010Prop30
280
     1
102
RTVSPost2010PropOp30
 70
     1
102
RTVSPost2010Prop31
280
     0
102
RTVSPost2010PropOp31
 70
     1
102
RTVSPost2010Prop32
280
     0
102
RTVSPost2010PropOp32
 70
     1
102
RTVSPost2010Prop33
280
     0
102
RTVSPost2010PropOp33
 70
     1
102
RTVSPost2010Prop34
280
     0
102
RTVSPost2010PropOp34
 70
     1
102
RTVSPost2010Prop35
280
     0
102
RTVSPost2010PropOp35
 70
     1
102
RTVSPost2010Prop36
280
     0
102
RTVSPost2010PropOp36
 70
     1
102
RTVSPost2010Prop37
 90
       50
102
RTVSPost2010PropOp37
 70
     1
102
RTVSPost2010Prop38
140
0.0
102
RTVSPost2010PropOp38
 70
     1
102
RTVSPost2010Prop39
140
1.0
102
RTVSPost2010PropOp39
 70
     1
102
RTVSPost2010Prop40
 90
        0
102
RTVSPost2010PropOp40
 70
     1
102
RTVSPost2010Prop41ColorIndex
 90
       18
102
RTVSPost2010Prop41ColorRGB
 90
        0
102
RTVSPost2010PropOp41
 70
     1
102
RTVSPost2010Prop42
 90
       50
102
RTVSPost2010PropOp42
 70
     1
102
RTVSPost2010Prop43
 90
        3
102
RTVSPost2010PropOp43
 70
     1
102
RTVSPost2010Prop44ColorIndex
 90
        5
102
RTVSPost2010Prop44ColorRGB
 90
      255
102
RTVSPost2010PropOp44
 70
     1
102
RTVSPost2010Prop45
280
     0
102
RTVSPost2010PropOp45
 70
     1
102
RTVSPost2010Prop46
 90
       50
102
RTVSPost2010PropOp46
 70
     1
102
RTVSPost2010Prop47
 90
       50
102
RTVSPost2010PropOp47
 70
     1
102
RTVSPost2010Prop48
 90
       50
102
RTVSPost2010PropOp48
 70
     1
102
RTVSPost2010Prop49
280
     0
102
RTVSPost2010PropOp49
 70
     1
102
RTVSPost2010Prop50
 90
       50
102
RTVSPost2010PropOp50
 70
     1
102
RTVSPost2010Prop51ColorIndex
 90
      256
102
RTVSPost2010Prop51ColorRGB
 90
-16777216
102
RTVSPost2010PropOp51
 70
     0
102
RTVSPost2010Prop52
140
1.0
102
RTVSPost2010PropOp52
 70
     0
102
RTVSPost2010Prop53
 90
        2
102
RTVSPost2010PropOp53
 70
     1
102
RTVSPost2010Prop54
  1
strokes_ogs.tif
102
RTVSPost2010PropOp54
 70
     1
102
RTVSPost2010Prop55
280
     0
102
RTVSPost2010PropOp55
 70
     1
102
RTVSPost2010Prop56
140
1.0
102
RTVSPost2010PropOp56
 70
     1
102
RTVSPost2010Prop57
140
1.0
102
RTVSPost2010PropOp57
 70
     1
102
RTVSPropertyOp0
 70
     1
102
RTVSPropertyOp1
 70
     1
102
RTVSPropertyOp2
 70
     1
102
RTVSPropertyOp3
 70
     1
102
RTVSPropertyOp4
 70
     1
102
RTVSPropertyOp5
 70
     1
102
RTVSPropertyOp6
 70
     1
102
RTVSPropertyOp7
 70
     1
102
RTVSPropertyOp8
 70
     1
102
RTVSPropertyOp9
 70
     1
102
RTVSPropertyOp10
 70
     1
102
RTVSPropertyOp11
 70
     1
102
RTVSPropertyOp12
 70
     1
102
RTVSPropertyOp13
 70
     1
102
RTVSPropertyOp14
 70
     1
102
RTVSPropertyOp15
 70
     1
102
RTVSPropertyOp16
 70
     1
102
RTVSPropertyOp17
 70
     1
102
RTVSPropertyOp18
 70
     1
102
RTVSPropertyOp19
 70
     1
102
RTVSPropertyOp20
 70
     1
102
RTVSPropertyOp21
 70
     1
102
RTVSPropertyOp22
 70
     1
102
RTVSPropertyOp23
 70
     1
102
RTVSPropertyOp24
 70
     1
102
RTVSPropertyOp25
 70
     1
102
RTVSPropertyOp26
 70
     1
102
RTVSPropertyOp27
 70
     1
102
RTVSPropertyOp28
 70
     1
102
RTVSPropertyOp29
 70
     1
102
RTVSPropertyOp30
 70
     1
102
RTVSPropertyOp31
 70
     1
102
RTVSPropertyOp32
 70
     1
102
RTVSPropertyOp33
 70
     1
102
RTVSPropertyOp34
 70
     1
102
RTVSPropertyOp35
 70
     1
102
RTVSPropertyOp36
 70
     1
102
RTVSPropertyOp37
 70
     1
102
RTVSPropertyOp38
 70
     1
102
RTVSPropertyOp39
 70
     1
102
RTVSPropertyOp40
 70
     1
102
RTVSPropertyOp41
 70
     1
102
RTVSPropertyOp42
 70
     1
102
RTVSPropertyOp43
 70
     1
102
RTVSPropertyOp44
 70
     1
102
RTVSPropertyOp45
 70
     1
102
RTVSPropertyOp46
 70
     1
102
RTVSPropertyOp47
 70
     1
102
RTVSPropertyOp48
 70
     1
102
RTVSPropertyOp49
 70
     1
102
RTVSPropertyOp50
 70
     1
102
RTVSPropertyOp51
 70
     0
102
RTVSPropertyOp52
 70
     0
102
RTVSPropertyOp53
 70
     1
102
RTVSPropertyOp54
 70
     1
102
RTVSPropertyOp55
 70
     1
102
RTVSPropertyOp56
 70
     1
102
RTVSPropertyOp57
 70
     1
102
RTVSPropertyOp58
 70
     1
102
RTVSPropertyOp59
 70
     1
102
RTVSPropertyOp60
 70
     1
102
RTVSPropertyOp61
 70
     1
102
RTVSPropertyOp62
 70
     1
  0
XRECORD
  5
C503
102
{ACAD_REACTORS
330
C502
102
}
330
C502
100
AcDbXrecord
280
     1
102
RTVSPost2010Prop28
280
     0
102
RTVSPost2010PropOp28
 70
     1
102
RTVSPost2010Prop29
280
     1
102
RTVSPost2010PropOp29
 70
     1
102
RTVSPost2010Prop30
280
     1
102
RTVSPost2010PropOp30
 70
     1
102
RTVSPost2010Prop31
280
     0
102
RTVSPost2010PropOp31
 70
     1
102
RTVSPost2010Prop32
280
     0
102
RTVSPost2010PropOp32
 70
     1
102
RTVSPost2010Prop33
280
     0
102
RTVSPost2010PropOp33
 70
     1
102
RTVSPost2010Prop34
280
     0
102
RTVSPost2010PropOp34
 70
     1
102
RTVSPost2010Prop35
280
     0
102
RTVSPost2010PropOp35
 70
     1
102
RTVSPost2010Prop36
280
     0
102
RTVSPost2010PropOp36
 70
     1
102
RTVSPost2010Prop37
 90
       50
102
RTVSPost2010PropOp37
 70
     1
102
RTVSPost2010Prop38
140
0.0
102
RTVSPost2010PropOp38
 70
     1
102
RTVSPost2010Prop39
140
1.0
102
RTVSPost2010PropOp39
 70
     1
102
RTVSPost2010Prop40
 90
        0
102
RTVSPost2010PropOp40
 70
     1
102
RTVSPost2010Prop41ColorIndex
 90
       18
102
RTVSPost2010Prop41ColorRGB
 90
        0
102
RTVSPost2010PropOp41
 70
     1
102
RTVSPost2010Prop42
 90
       50
102
RTVSPost2010PropOp42
 70
     1
102
RTVSPost2010Prop43
 90
        3
102
RTVSPost2010PropOp43
 70
     1
102
RTVSPost2010Prop44ColorIndex
 90
        5
102
RTVSPost2010Prop44ColorRGB
 90
      255
102
RTVSPost2010PropOp44
 70
     1
102
RTVSPost2010Prop45
280
     0
102
RTVSPost2010PropOp45
 70
     1
102
RTVSPost2010Prop46
 90
       50
102
RTVSPost2010PropOp46
 70
     1
102
RTVSPost2010Prop47
 90
       50
102
RTVSPost2010PropOp47
 70
     1
102
RTVSPost2010Prop48
 90
       50
102
RTVSPost2010PropOp48
 70
     1
102
RTVSPost2010Prop49
280
     0
102
RTVSPost2010PropOp49
 70
     1
102
RTVSPost2010Prop50
 90
       50
102
RTVSPost2010PropOp50
 70
     1
102
RTVSPost2010Prop51ColorIndex
 90
      256
102
RTVSPost2010Prop51ColorRGB
 90
-16777216
102
RTVSPost2010PropOp51
 70
     0
102
RTVSPost2010Prop52
140
1.0
102
RTVSPost2010PropOp52
 70
     0
102
RTVSPost2010Prop53
 90
        2
102
RTVSPost2010PropOp53
 70
     1
102
RTVSPost2010Prop54
  1
strokes_ogs.tif
102
RTVSPost2010PropOp54
 70
     1
102
RTVSPost2010Prop55
280
     0
102
RTVSPost2010PropOp55
 70
     1
102
RTVSPost2010Prop56
140
1.0
102
RTVSPost2010PropOp56
 70
     1
102
RTVSPost2010Prop57
140
1.0
102
RTVSPost2010PropOp57
 70
     1
102
RTVSPropertyOp0
 70
     1
102
RTVSPropertyOp1
 70
     1
102
RTVSPropertyOp2
 70
     1
102
RTVSPropertyOp3
 70
     1
102
RTVSPropertyOp4
 70
     1
102
RTVSPropertyOp5
 70
     1
102
RTVSPropertyOp6
 70
     1
102
RTVSPropertyOp7
 70
     1
102
RTVSPropertyOp8
 70
     1
102
RTVSPropertyOp9
 70
     1
102
RTVSPropertyOp10
 70
     1
102
RTVSPropertyOp11
 70
     1
102
RTVSPropertyOp12
 70
     1
102
RTVSPropertyOp13
 70
     1
102
RTVSPropertyOp14
 70
     1
102
RTVSPropertyOp15
 70
     1
102
RTVSPropertyOp16
 70
     1
102
RTVSPropertyOp17
 70
     1
102
RTVSPropertyOp18
 70
     1
102
RTVSPropertyOp19
 70
     1
102
RTVSPropertyOp20
 70
     1
102
RTVSPropertyOp21
 70
     1
102
RTVSPropertyOp22
 70
     1
102
RTVSPropertyOp23
 70
     1
102
RTVSPropertyOp24
 70
     1
102
RTVSPropertyOp25
 70
     1
102
RTVSPropertyOp26
 70
     1
102
RTVSPropertyOp27
 70
     1
102
RTVSPropertyOp28
 70
     1
102
RTVSPropertyOp29
 70
     1
102
RTVSPropertyOp30
 70
     1
102
RTVSPropertyOp31
 70
     1
102
RTVSPropertyOp32
 70
     1
102
RTVSPropertyOp33
 70
     1
102
RTVSPropertyOp34
 70
     1
102
RTVSPropertyOp35
 70
     1
102
RTVSPropertyOp36
 70
     1
102
RTVSPropertyOp37
 70
     1
102
RTVSPropertyOp38
 70
     1
102
RTVSPropertyOp39
 70
     1
102
RTVSPropertyOp40
 70
     1
102
RTVSPropertyOp41
 70
     1
102
RTVSPropertyOp42
 70
     1
102
RTVSPropertyOp43
 70
     1
102
RTVSPropertyOp44
 70
     1
102
RTVSPropertyOp45
 70
     1
102
RTVSPropertyOp46
 70
     1
102
RTVSPropertyOp47
 70
     1
102
RTVSPropertyOp48
 70
     1
102
RTVSPropertyOp49
 70
     1
102
RTVSPropertyOp50
 70
     1
102
RTVSPropertyOp51
 70
     0
102
RTVSPropertyOp52
 70
     0
102
RTVSPropertyOp53
 70
     1
102
RTVSPropertyOp54
 70
     1
102
RTVSPropertyOp55
 70
     1
102
RTVSPropertyOp56
 70
     1
102
RTVSPropertyOp57
 70
     1
102
RTVSPropertyOp58
 70
     1
102
RTVSPropertyOp59
 70
     1
102
RTVSPropertyOp60
 70
     1
102
RTVSPropertyOp61
 70
     1
102
RTVSPropertyOp62
 70
     1
  0
XRECORD
  5
C505
102
{ACAD_REACTORS
330
C504
102
}
330
C504
100
AcDbXrecord
280
     1
102
RTVSPost2010Prop28
280
     0
102
RTVSPost2010PropOp28
 70
     1
102
RTVSPost2010Prop29
280
     1
102
RTVSPost2010PropOp29
 70
     1
102
RTVSPost2010Prop30
280
     1
102
RTVSPost2010PropOp30
 70
     1
102
RTVSPost2010Prop31
280
     0
102
RTVSPost2010PropOp31
 70
     1
102
RTVSPost2010Prop32
280
     0
102
RTVSPost2010PropOp32
 70
     1
102
RTVSPost2010Prop33
280
     0
102
RTVSPost2010PropOp33
 70
     1
102
RTVSPost2010Prop34
280
     0
102
RTVSPost2010PropOp34
 70
     1
102
RTVSPost2010Prop35
280
     0
102
RTVSPost2010PropOp35
 70
     1
102
RTVSPost2010Prop36
280
     0
102
RTVSPost2010PropOp36
 70
     1
102
RTVSPost2010Prop37
 90
       50
102
RTVSPost2010PropOp37
 70
     1
102
RTVSPost2010Prop38
140
0.0
102
RTVSPost2010PropOp38
 70
     1
102
RTVSPost2010Prop39
140
1.0
102
RTVSPost2010PropOp39
 70
     1
102
RTVSPost2010Prop40
 90
        0
102
RTVSPost2010PropOp40
 70
     1
102
RTVSPost2010Prop41ColorIndex
 90
       18
102
RTVSPost2010Prop41ColorRGB
 90
        0
102
RTVSPost2010PropOp41
 70
     1
102
RTVSPost2010Prop42
 90
       50
102
RTVSPost2010PropOp42
 70
     1
102
RTVSPost2010Prop43
 90
        3
102
RTVSPost2010PropOp43
 70
     1
102
RTVSPost2010Prop44ColorIndex
 90
        5
102
RTVSPost2010Prop44ColorRGB
 90
      255
102
RTVSPost2010PropOp44
 70
     1
102
RTVSPost2010Prop45
280
     0
102
RTVSPost2010PropOp45
 70
     1
102
RTVSPost2010Prop46
 90
       50
102
RTVSPost2010PropOp46
 70
     1
102
RTVSPost2010Prop47
 90
       50
102
RTVSPost2010PropOp47
 70
     1
102
RTVSPost2010Prop48
 90
       50
102
RTVSPost2010PropOp48
 70
     1
102
RTVSPost2010Prop49
280
     0
102
RTVSPost2010PropOp49
 70
     1
102
RTVSPost2010Prop50
 90
       50
102
RTVSPost2010PropOp50
 70
     1
102
RTVSPost2010Prop51ColorIndex
 90
      256
102
RTVSPost2010Prop51ColorRGB
 90
-16777216
102
RTVSPost2010PropOp51
 70
     0
102
RTVSPost2010Prop52
140
1.0
102
RTVSPost2010PropOp52
 70
     0
102
RTVSPost2010Prop53
 90
        2
102
RTVSPost2010PropOp53
 70
     1
102
RTVSPost2010Prop54
  1
strokes_ogs.tif
102
RTVSPost2010PropOp54
 70
     1
102
RTVSPost2010Prop55
280
     0
102
RTVSPost2010PropOp55
 70
     1
102
RTVSPost2010Prop56
140
1.0
102
RTVSPost2010PropOp56
 70
     1
102
RTVSPost2010Prop57
140
1.0
102
RTVSPost2010PropOp57
 70
     1
102
RTVSPropertyOp0
 70
     1
102
RTVSPropertyOp1
 70
     1
102
RTVSPropertyOp2
 70
     1
102
RTVSPropertyOp3
 70
     1
102
RTVSPropertyOp4
 70
     1
102
RTVSPropertyOp5
 70
     1
102
RTVSPropertyOp6
 70
     1
102
RTVSPropertyOp7
 70
     1
102
RTVSPropertyOp8
 70
     1
102
RTVSPropertyOp9
 70
     1
102
RTVSPropertyOp10
 70
     1
102
RTVSPropertyOp11
 70
     1
102
RTVSPropertyOp12
 70
     1
102
RTVSPropertyOp13
 70
     1
102
RTVSPropertyOp14
 70
     1
102
RTVSPropertyOp15
 70
     1
102
RTVSPropertyOp16
 70
     1
102
RTVSPropertyOp17
 70
     1
102
RTVSPropertyOp18
 70
     1
102
RTVSPropertyOp19
 70
     1
102
RTVSPropertyOp20
 70
     1
102
RTVSPropertyOp21
 70
     1
102
RTVSPropertyOp22
 70
     1
102
RTVSPropertyOp23
 70
     1
102
RTVSPropertyOp24
 70
     1
102
RTVSPropertyOp25
 70
     1
102
RTVSPropertyOp26
 70
     1
102
RTVSPropertyOp27
 70
     1
102
RTVSPropertyOp28
 70
     1
102
RTVSPropertyOp29
 70
     1
102
RTVSPropertyOp30
 70
     1
102
RTVSPropertyOp31
 70
     1
102
RTVSPropertyOp32
 70
     1
102
RTVSPropertyOp33
 70
     1
102
RTVSPropertyOp34
 70
     1
102
RTVSPropertyOp35
 70
     1
102
RTVSPropertyOp36
 70
     1
102
RTVSPropertyOp37
 70
     1
102
RTVSPropertyOp38
 70
     1
102
RTVSPropertyOp39
 70
     1
102
RTVSPropertyOp40
 70
     1
102
RTVSPropertyOp41
 70
     1
102
RTVSPropertyOp42
 70
     1
102
RTVSPropertyOp43
 70
     1
102
RTVSPropertyOp44
 70
     1
102
RTVSPropertyOp45
 70
     1
102
RTVSPropertyOp46
 70
     1
102
RTVSPropertyOp47
 70
     1
102
RTVSPropertyOp48
 70
     1
102
RTVSPropertyOp49
 70
     1
102
RTVSPropertyOp50
 70
     1
102
RTVSPropertyOp51
 70
     0
102
RTVSPropertyOp52
 70
     0
102
RTVSPropertyOp53
 70
     1
102
RTVSPropertyOp54
 70
     1
102
RTVSPropertyOp55
 70
     1
102
RTVSPropertyOp56
 70
     1
102
RTVSPropertyOp57
 70
     1
102
RTVSPropertyOp58
 70
     1
102
RTVSPropertyOp59
 70
     1
102
RTVSPropertyOp60
 70
     1
102
RTVSPropertyOp61
 70
     1
102
RTVSPropertyOp62
 70
     1
  0
XRECORD
  5
C507
102
{ACAD_REACTORS
330
C506
102
}
330
C506
100
AcDbXrecord
280
     1
102
RTVSPost2010Prop28
280
     0
102
RTVSPost2010PropOp28
 70
     1
102
RTVSPost2010Prop29
280
     1
102
RTVSPost2010PropOp29
 70
     1
102
RTVSPost2010Prop30
280
     1
102
RTVSPost2010PropOp30
 70
     1
102
RTVSPost2010Prop31
280
     0
102
RTVSPost2010PropOp31
 70
     1
102
RTVSPost2010Prop32
280
     0
102
RTVSPost2010PropOp32
 70
     1
102
RTVSPost2010Prop33
280
     0
102
RTVSPost2010PropOp33
 70
     1
102
RTVSPost2010Prop34
280
     0
102
RTVSPost2010PropOp34
 70
     1
102
RTVSPost2010Prop35
280
     0
102
RTVSPost2010PropOp35
 70
     1
102
RTVSPost2010Prop36
280
     0
102
RTVSPost2010PropOp36
 70
     1
102
RTVSPost2010Prop37
 90
       50
102
RTVSPost2010PropOp37
 70
     1
102
RTVSPost2010Prop38
140
0.0
102
RTVSPost2010PropOp38
 70
     1
102
RTVSPost2010Prop39
140
1.0
102
RTVSPost2010PropOp39
 70
     1
102
RTVSPost2010Prop40
 90
        0
102
RTVSPost2010PropOp40
 70
     1
102
RTVSPost2010Prop41ColorIndex
 90
       18
102
RTVSPost2010Prop41ColorRGB
 90
        0
102
RTVSPost2010PropOp41
 70
     1
102
RTVSPost2010Prop42
 90
       50
102
RTVSPost2010PropOp42
 70
     1
102
RTVSPost2010Prop43
 90
        3
102
RTVSPost2010PropOp43
 70
     1
102
RTVSPost2010Prop44ColorIndex
 90
        5
102
RTVSPost2010Prop44ColorRGB
 90
      255
102
RTVSPost2010PropOp44
 70
     1
102
RTVSPost2010Prop45
280
     0
102
RTVSPost2010PropOp45
 70
     1
102
RTVSPost2010Prop46
 90
       50
102
RTVSPost2010PropOp46
 70
     1
102
RTVSPost2010Prop47
 90
       50
102
RTVSPost2010PropOp47
 70
     1
102
RTVSPost2010Prop48
 90
       50
102
RTVSPost2010PropOp48
 70
     1
102
RTVSPost2010Prop49
280
     0
102
RTVSPost2010PropOp49
 70
     1
102
RTVSPost2010Prop50
 90
       50
102
RTVSPost2010PropOp50
 70
     1
102
RTVSPost2010Prop51ColorIndex
 90
      256
102
RTVSPost2010Prop51ColorRGB
 90
-16777216
102
RTVSPost2010PropOp51
 70
     0
102
RTVSPost2010Prop52
140
1.0
102
RTVSPost2010PropOp52
 70
     0
102
RTVSPost2010Prop53
 90
        2
102
RTVSPost2010PropOp53
 70
     1
102
RTVSPost2010Prop54
  1
strokes_ogs.tif
102
RTVSPost2010PropOp54
 70
     1
102
RTVSPost2010Prop55
280
     0
102
RTVSPost2010PropOp55
 70
     1
102
RTVSPost2010Prop56
140
1.0
102
RTVSPost2010PropOp56
 70
     1
102
RTVSPost2010Prop57
140
1.0
102
RTVSPost2010PropOp57
 70
     1
102
RTVSPropertyOp0
 70
     1
102
RTVSPropertyOp1
 70
     1
102
RTVSPropertyOp2
 70
     1
102
RTVSPropertyOp3
 70
     1
102
RTVSPropertyOp4
 70
     1
102
RTVSPropertyOp5
 70
     1
102
RTVSPropertyOp6
 70
     1
102
RTVSPropertyOp7
 70
     1
102
RTVSPropertyOp8
 70
     1
102
RTVSPropertyOp9
 70
     1
102
RTVSPropertyOp10
 70
     1
102
RTVSPropertyOp11
 70
     1
102
RTVSPropertyOp12
 70
     1
102
RTVSPropertyOp13
 70
     1
102
RTVSPropertyOp14
 70
     1
102
RTVSPropertyOp15
 70
     1
102
RTVSPropertyOp16
 70
     1
102
RTVSPropertyOp17
 70
     1
102
RTVSPropertyOp18
 70
     1
102
RTVSPropertyOp19
 70
     1
102
RTVSPropertyOp20
 70
     1
102
RTVSPropertyOp21
 70
     1
102
RTVSPropertyOp22
 70
     1
102
RTVSPropertyOp23
 70
     1
102
RTVSPropertyOp24
 70
     1
102
RTVSPropertyOp25
 70
     1
102
RTVSPropertyOp26
 70
     1
102
RTVSPropertyOp27
 70
     1
102
RTVSPropertyOp28
 70
     1
102
RTVSPropertyOp29
 70
     1
102
RTVSPropertyOp30
 70
     1
102
RTVSPropertyOp31
 70
     1
102
RTVSPropertyOp32
 70
     1
102
RTVSPropertyOp33
 70
     1
102
RTVSPropertyOp34
 70
     1
102
RTVSPropertyOp35
 70
     1
102
RTVSPropertyOp36
 70
     1
102
RTVSPropertyOp37
 70
     1
102
RTVSPropertyOp38
 70
     1
102
RTVSPropertyOp39
 70
     1
102
RTVSPropertyOp40
 70
     1
102
RTVSPropertyOp41
 70
     1
102
RTVSPropertyOp42
 70
     1
102
RTVSPropertyOp43
 70
     1
102
RTVSPropertyOp44
 70
     1
102
RTVSPropertyOp45
 70
     1
102
RTVSPropertyOp46
 70
     1
102
RTVSPropertyOp47
 70
     1
102
RTVSPropertyOp48
 70
     1
102
RTVSPropertyOp49
 70
     1
102
RTVSPropertyOp50
 70
     1
102
RTVSPropertyOp51
 70
     0
102
RTVSPropertyOp52
 70
     0
102
RTVSPropertyOp53
 70
     1
102
RTVSPropertyOp54
 70
     1
102
RTVSPropertyOp55
 70
     1
102
RTVSPropertyOp56
 70
     1
102
RTVSPropertyOp57
 70
     1
102
RTVSPropertyOp58
 70
     1
102
RTVSPropertyOp59
 70
     1
102
RTVSPropertyOp60
 70
     1
102
RTVSPropertyOp61
 70
     1
102
RTVSPropertyOp62
 70
     1
  0
XRECORD
  5
C509
102
{ACAD_REACTORS
330
C508
102
}
330
C508
100
AcDbXrecord
280
     1
102
RTVSPost2010Prop28
280
     0
102
RTVSPost2010PropOp28
 70
     1
102
RTVSPost2010Prop29
280
     1
102
RTVSPost2010PropOp29
 70
     1
102
RTVSPost2010Prop30
280
     1
102
RTVSPost2010PropOp30
 70
     1
102
RTVSPost2010Prop31
280
     0
102
RTVSPost2010PropOp31
 70
     1
102
RTVSPost2010Prop32
280
     0
102
RTVSPost2010PropOp32
 70
     1
102
RTVSPost2010Prop33
280
     0
102
RTVSPost2010PropOp33
 70
     1
102
RTVSPost2010Prop34
280
     0
102
RTVSPost2010PropOp34
 70
     1
102
RTVSPost2010Prop35
280
     0
102
RTVSPost2010PropOp35
 70
     1
102
RTVSPost2010Prop36
280
     0
102
RTVSPost2010PropOp36
 70
     1
102
RTVSPost2010Prop37
 90
       50
102
RTVSPost2010PropOp37
 70
     1
102
RTVSPost2010Prop38
140
0.0
102
RTVSPost2010PropOp38
 70
     1
102
RTVSPost2010Prop39
140
1.0
102
RTVSPost2010PropOp39
 70
     1
102
RTVSPost2010Prop40
 90
        0
102
RTVSPost2010PropOp40
 70
     1
102
RTVSPost2010Prop41ColorIndex
 90
       18
102
RTVSPost2010Prop41ColorRGB
 90
        0
102
RTVSPost2010PropOp41
 70
     1
102
RTVSPost2010Prop42
 90
       50
102
RTVSPost2010PropOp42
 70
     1
102
RTVSPost2010Prop43
 90
        3
102
RTVSPost2010PropOp43
 70
     1
102
RTVSPost2010Prop44ColorIndex
 90
        5
102
RTVSPost2010Prop44ColorRGB
 90
      255
102
RTVSPost2010PropOp44
 70
     1
102
RTVSPost2010Prop45
280
     0
102
RTVSPost2010PropOp45
 70
     1
102
RTVSPost2010Prop46
 90
       50
102
RTVSPost2010PropOp46
 70
     1
102
RTVSPost2010Prop47
 90
       50
102
RTVSPost2010PropOp47
 70
     1
102
RTVSPost2010Prop48
 90
       50
102
RTVSPost2010PropOp48
 70
     1
102
RTVSPost2010Prop49
280
     0
102
RTVSPost2010PropOp49
 70
     1
102
RTVSPost2010Prop50
 90
       50
102
RTVSPost2010PropOp50
 70
     1
102
RTVSPost2010Prop51ColorIndex
 90
      256
102
RTVSPost2010Prop51ColorRGB
 90
-16777216
102
RTVSPost2010PropOp51
 70
     0
102
RTVSPost2010Prop52
140
1.0
102
RTVSPost2010PropOp52
 70
     0
102
RTVSPost2010Prop53
 90
        2
102
RTVSPost2010PropOp53
 70
     1
102
RTVSPost2010Prop54
  1
strokes_ogs.tif
102
RTVSPost2010PropOp54
 70
     1
102
RTVSPost2010Prop55
280
     0
102
RTVSPost2010PropOp55
 70
     1
102
RTVSPost2010Prop56
140
1.0
102
RTVSPost2010PropOp56
 70
     1
102
RTVSPost2010Prop57
140
1.0
102
RTVSPost2010PropOp57
 70
     1
102
RTVSPropertyOp0
 70
     1
102
RTVSPropertyOp1
 70
     1
102
RTVSPropertyOp2
 70
     1
102
RTVSPropertyOp3
 70
     1
102
RTVSPropertyOp4
 70
     1
102
RTVSPropertyOp5
 70
     1
102
RTVSPropertyOp6
 70
     1
102
RTVSPropertyOp7
 70
     1
102
RTVSPropertyOp8
 70
     1
102
RTVSPropertyOp9
 70
     1
102
RTVSPropertyOp10
 70
     1
102
RTVSPropertyOp11
 70
     1
102
RTVSPropertyOp12
 70
     1
102
RTVSPropertyOp13
 70
     1
102
RTVSPropertyOp14
 70
     1
102
RTVSPropertyOp15
 70
     1
102
RTVSPropertyOp16
 70
     1
102
RTVSPropertyOp17
 70
     1
102
RTVSPropertyOp18
 70
     1
102
RTVSPropertyOp19
 70
     1
102
RTVSPropertyOp20
 70
     1
102
RTVSPropertyOp21
 70
     1
102
RTVSPropertyOp22
 70
     1
102
RTVSPropertyOp23
 70
     1
102
RTVSPropertyOp24
 70
     1
102
RTVSPropertyOp25
 70
     1
102
RTVSPropertyOp26
 70
     1
102
RTVSPropertyOp27
 70
     1
102
RTVSPropertyOp28
 70
     1
102
RTVSPropertyOp29
 70
     1
102
RTVSPropertyOp30
 70
     1
102
RTVSPropertyOp31
 70
     1
102
RTVSPropertyOp32
 70
     1
102
RTVSPropertyOp33
 70
     1
102
RTVSPropertyOp34
 70
     1
102
RTVSPropertyOp35
 70
     1
102
RTVSPropertyOp36
 70
     1
102
RTVSPropertyOp37
 70
     1
102
RTVSPropertyOp38
 70
     1
102
RTVSPropertyOp39
 70
     1
102
RTVSPropertyOp40
 70
     1
102
RTVSPropertyOp41
 70
     1
102
RTVSPropertyOp42
 70
     1
102
RTVSPropertyOp43
 70
     1
102
RTVSPropertyOp44
 70
     1
102
RTVSPropertyOp45
 70
     1
102
RTVSPropertyOp46
 70
     1
102
RTVSPropertyOp47
 70
     1
102
RTVSPropertyOp48
 70
     1
102
RTVSPropertyOp49
 70
     1
102
RTVSPropertyOp50
 70
     1
102
RTVSPropertyOp51
 70
     0
102
RTVSPropertyOp52
 70
     0
102
RTVSPropertyOp53
 70
     1
102
RTVSPropertyOp54
 70
     1
102
RTVSPropertyOp55
 70
     1
102
RTVSPropertyOp56
 70
     1
102
RTVSPropertyOp57
 70
     1
102
RTVSPropertyOp58
 70
     1
102
RTVSPropertyOp59
 70
     1
102
RTVSPropertyOp60
 70
     1
102
RTVSPropertyOp61
 70
     1
102
RTVSPropertyOp62
 70
     1
  0
XRECORD
  5
C511
102
{ACAD_REACTORS
330
C510
102
}
330
C510
100
AcDbXrecord
280
     1
102
RTVSPost2010Prop28
280
     0
102
RTVSPost2010PropOp28
 70
     1
102
RTVSPost2010Prop29
280
     1
102
RTVSPost2010PropOp29
 70
     1
102
RTVSPost2010Prop30
280
     1
102
RTVSPost2010PropOp30
 70
     1
102
RTVSPost2010Prop31
280
     0
102
RTVSPost2010PropOp31
 70
     1
102
RTVSPost2010Prop32
280
     0
102
RTVSPost2010PropOp32
 70
     1
102
RTVSPost2010Prop33
280
     0
102
RTVSPost2010PropOp33
 70
     1
102
RTVSPost2010Prop34
280
     0
102
RTVSPost2010PropOp34
 70
     1
102
RTVSPost2010Prop35
280
     0
102
RTVSPost2010PropOp35
 70
     1
102
RTVSPost2010Prop36
280
     0
102
RTVSPost2010PropOp36
 70
     1
102
RTVSPost2010Prop37
 90
       50
102
RTVSPost2010PropOp37
 70
     1
102
RTVSPost2010Prop38
140
0.0
102
RTVSPost2010PropOp38
 70
     1
102
RTVSPost2010Prop39
140
1.0
102
RTVSPost2010PropOp39
 70
     1
102
RTVSPost2010Prop40
 90
        0
102
RTVSPost2010PropOp40
 70
     1
102
RTVSPost2010Prop41ColorIndex
 90
       18
102
RTVSPost2010Prop41ColorRGB
 90
        0
102
RTVSPost2010PropOp41
 70
     1
102
RTVSPost2010Prop42
 90
       50
102
RTVSPost2010PropOp42
 70
     1
102
RTVSPost2010Prop43
 90
        3
102
RTVSPost2010PropOp43
 70
     1
102
RTVSPost2010Prop44ColorIndex
 90
        5
102
RTVSPost2010Prop44ColorRGB
 90
      255
102
RTVSPost2010PropOp44
 70
     1
102
RTVSPost2010Prop45
280
     0
102
RTVSPost2010PropOp45
 70
     1
102
RTVSPost2010Prop46
 90
       50
102
RTVSPost2010PropOp46
 70
     1
102
RTVSPost2010Prop47
 90
       50
102
RTVSPost2010PropOp47
 70
     1
102
RTVSPost2010Prop48
 90
       50
102
RTVSPost2010PropOp48
 70
     1
102
RTVSPost2010Prop49
280
     0
102
RTVSPost2010PropOp49
 70
     1
102
RTVSPost2010Prop50
 90
       50
102
RTVSPost2010PropOp50
 70
     1
102
RTVSPost2010Prop51ColorIndex
 90
      256
102
RTVSPost2010Prop51ColorRGB
 90
-16777216
102
RTVSPost2010PropOp51
 70
     0
102
RTVSPost2010Prop52
140
1.0
102
RTVSPost2010PropOp52
 70
     0
102
RTVSPost2010Prop53
 90
        2
102
RTVSPost2010PropOp53
 70
     1
102
RTVSPost2010Prop54
  1
strokes_ogs.tif
102
RTVSPost2010PropOp54
 70
     1
102
RTVSPost2010Prop55
280
     0
102
RTVSPost2010PropOp55
 70
     1
102
RTVSPost2010Prop56
140
1.0
102
RTVSPost2010PropOp56
 70
     1
102
RTVSPost2010Prop57
140
1.0
102
RTVSPost2010PropOp57
 70
     1
102
RTVSPropertyOp0
 70
     1
102
RTVSPropertyOp1
 70
     1
102
RTVSPropertyOp2
 70
     1
102
RTVSPropertyOp3
 70
     1
102
RTVSPropertyOp4
 70
     1
102
RTVSPropertyOp5
 70
     1
102
RTVSPropertyOp6
 70
     1
102
RTVSPropertyOp7
 70
     1
102
RTVSPropertyOp8
 70
     1
102
RTVSPropertyOp9
 70
     1
102
RTVSPropertyOp10
 70
     1
102
RTVSPropertyOp11
 70
     1
102
RTVSPropertyOp12
 70
     1
102
RTVSPropertyOp13
 70
     1
102
RTVSPropertyOp14
 70
     1
102
RTVSPropertyOp15
 70
     1
102
RTVSPropertyOp16
 70
     1
102
RTVSPropertyOp17
 70
     1
102
RTVSPropertyOp18
 70
     1
102
RTVSPropertyOp19
 70
     1
102
RTVSPropertyOp20
 70
     1
102
RTVSPropertyOp21
 70
     1
102
RTVSPropertyOp22
 70
     1
102
RTVSPropertyOp23
 70
     1
102
RTVSPropertyOp24
 70
     1
102
RTVSPropertyOp25
 70
     1
102
RTVSPropertyOp26
 70
     1
102
RTVSPropertyOp27
 70
     1
102
RTVSPropertyOp28
 70
     1
102
RTVSPropertyOp29
 70
     1
102
RTVSPropertyOp30
 70
     1
102
RTVSPropertyOp31
 70
     1
102
RTVSPropertyOp32
 70
     1
102
RTVSPropertyOp33
 70
     1
102
RTVSPropertyOp34
 70
     1
102
RTVSPropertyOp35
 70
     1
102
RTVSPropertyOp36
 70
     1
102
RTVSPropertyOp37
 70
     1
102
RTVSPropertyOp38
 70
     1
102
RTVSPropertyOp39
 70
     1
102
RTVSPropertyOp40
 70
     1
102
RTVSPropertyOp41
 70
     1
102
RTVSPropertyOp42
 70
     1
102
RTVSPropertyOp43
 70
     1
102
RTVSPropertyOp44
 70
     1
102
RTVSPropertyOp45
 70
     1
102
RTVSPropertyOp46
 70
     1
102
RTVSPropertyOp47
 70
     1
102
RTVSPropertyOp48
 70
     1
102
RTVSPropertyOp49
 70
     1
102
RTVSPropertyOp50
 70
     1
102
RTVSPropertyOp51
 70
     0
102
RTVSPropertyOp52
 70
     0
102
RTVSPropertyOp53
 70
     1
102
RTVSPropertyOp54
 70
     1
102
RTVSPropertyOp55
 70
     1
102
RTVSPropertyOp56
 70
     1
102
RTVSPropertyOp57
 70
     1
102
RTVSPropertyOp58
 70
     1
102
RTVSPropertyOp59
 70
     1
102
RTVSPropertyOp60
 70
     1
102
RTVSPropertyOp61
 70
     1
102
RTVSPropertyOp62
 70
     1
  0
XRECORD
  5
C52D
102
{ACAD_REACTORS
330
C52C
102
}
330
C52C
100
AcDbXrecord
280
     1
102
RTVSPost2010Prop28
280
     0
102
RTVSPost2010PropOp28
 70
     1
102
RTVSPost2010Prop29
280
     1
102
RTVSPost2010PropOp29
 70
     1
102
RTVSPost2010Prop30
280
     1
102
RTVSPost2010PropOp30
 70
     1
102
RTVSPost2010Prop31
280
     0
102
RTVSPost2010PropOp31
 70
     1
102
RTVSPost2010Prop32
280
     0
102
RTVSPost2010PropOp32
 70
     1
102
RTVSPost2010Prop33
280
     0
102
RTVSPost2010PropOp33
 70
     1
102
RTVSPost2010Prop34
280
     0
102
RTVSPost2010PropOp34
 70
     1
102
RTVSPost2010Prop35
280
     0
102
RTVSPost2010PropOp35
 70
     1
102
RTVSPost2010Prop36
280
     0
102
RTVSPost2010PropOp36
 70
     1
102
RTVSPost2010Prop37
 90
       50
102
RTVSPost2010PropOp37
 70
     0
102
RTVSPost2010Prop38
140
0.0
102
RTVSPost2010PropOp38
 70
     0
102
RTVSPost2010Prop39
140
1.0
102
RTVSPost2010PropOp39
 70
     0
102
RTVSPost2010Prop40
 90
        0
102
RTVSPost2010PropOp40
 70
     0
102
RTVSPost2010Prop41ColorIndex
 90
       18
102
RTVSPost2010Prop41ColorRGB
 90
        0
102
RTVSPost2010PropOp41
 70
     0
102
RTVSPost2010Prop42
 90
       50
102
RTVSPost2010PropOp42
 70
     0
102
RTVSPost2010Prop43
 90
        3
102
RTVSPost2010PropOp43
 70
     0
102
RTVSPost2010Prop44ColorIndex
 90
        5
102
RTVSPost2010Prop44ColorRGB
 90
      255
102
RTVSPost2010PropOp44
 70
     0
102
RTVSPost2010Prop45
280
     0
102
RTVSPost2010PropOp45
 70
     1
102
RTVSPost2010Prop46
 90
       50
102
RTVSPost2010PropOp46
 70
     0
102
RTVSPost2010Prop47
 90
       50
102
RTVSPost2010PropOp47
 70
     0
102
RTVSPost2010Prop48
 90
       50
102
RTVSPost2010PropOp48
 70
     0
102
RTVSPost2010Prop49
280
     0
102
RTVSPost2010PropOp49
 70
     1
102
RTVSPost2010Prop50
 90
       50
102
RTVSPost2010PropOp50
 70
     0
102
RTVSPost2010Prop51ColorIndex
 90
      256
102
RTVSPost2010Prop51ColorRGB
 90
-16777216
102
RTVSPost2010PropOp51
 70
     0
102
RTVSPost2010Prop52
140
1.0
102
RTVSPost2010PropOp52
 70
     0
102
RTVSPost2010Prop53
 90
        2
102
RTVSPost2010PropOp53
 70
     0
102
RTVSPost2010Prop54
  1
strokes_ogs.tif
102
RTVSPost2010PropOp54
 70
     0
102
RTVSPost2010Prop55
280
     0
102
RTVSPost2010PropOp55
 70
     1
102
RTVSPost2010Prop56
140
1.0
102
RTVSPost2010PropOp56
 70
     0
102
RTVSPost2010Prop57
140
1.0
102
RTVSPost2010PropOp57
 70
     0
102
RTVSPropertyOp0
 70
     0
102
RTVSPropertyOp1
 70
     0
102
RTVSPropertyOp2
 70
     0
102
RTVSPropertyOp3
 70
     0
102
RTVSPropertyOp4
 70
     0
102
RTVSPropertyOp5
 70
     0
102
RTVSPropertyOp6
 70
     0
102
RTVSPropertyOp7
 70
     0
102
RTVSPropertyOp8
 70
     0
102
RTVSPropertyOp9
 70
     0
102
RTVSPropertyOp10
 70
     0
102
RTVSPropertyOp11
 70
     0
102
RTVSPropertyOp12
 70
     0
102
RTVSPropertyOp13
 70
     0
102
RTVSPropertyOp14
 70
     2
102
RTVSPropertyOp15
 70
     0
102
RTVSPropertyOp16
 70
     0
102
RTVSPropertyOp17
 70
     0
102
RTVSPropertyOp18
 70
     0
102
RTVSPropertyOp19
 70
     0
102
RTVSPropertyOp20
 70
     0
102
RTVSPropertyOp21
 70
     0
102
RTVSPropertyOp22
 70
     0
102
RTVSPropertyOp23
 70
     0
102
RTVSPropertyOp24
 70
     0
102
RTVSPropertyOp25
 70
     0
102
RTVSPropertyOp26
 70
     0
102
RTVSPropertyOp27
 70
     0
102
RTVSPropertyOp28
 70
     1
102
RTVSPropertyOp29
 70
     1
102
RTVSPropertyOp30
 70
     1
102
RTVSPropertyOp31
 70
     1
102
RTVSPropertyOp32
 70
     1
102
RTVSPropertyOp33
 70
     1
102
RTVSPropertyOp34
 70
     1
102
RTVSPropertyOp35
 70
     1
102
RTVSPropertyOp36
 70
     1
102
RTVSPropertyOp37
 70
     0
102
RTVSPropertyOp38
 70
     0
102
RTVSPropertyOp39
 70
     0
102
RTVSPropertyOp40
 70
     0
102
RTVSPropertyOp41
 70
     0
102
RTVSPropertyOp42
 70
     0
102
RTVSPropertyOp43
 70
     0
102
RTVSPropertyOp44
 70
     0
102
RTVSPropertyOp45
 70
     1
102
RTVSPropertyOp46
 70
     0
102
RTVSPropertyOp47
 70
     0
102
RTVSPropertyOp48
 70
     0
102
RTVSPropertyOp49
 70
     1
102
RTVSPropertyOp50
 70
     0
102
RTVSPropertyOp51
 70
     0
102
RTVSPropertyOp52
 70
     0
102
RTVSPropertyOp53
 70
     0
102
RTVSPropertyOp54
 70
     0
102
RTVSPropertyOp55
 70
     1
102
RTVSPropertyOp56
 70
     0
102
RTVSPropertyOp57
 70
     0
102
RTVSPropertyOp58
 70
     0
102
RTVSPropertyOp59
 70
     0
102
RTVSPropertyOp60
 70
     0
102
RTVSPropertyOp61
 70
     0
102
RTVSPropertyOp62
 70
     0
  0
XRECORD
  5
C51D
102
{ACAD_REACTORS
330
C51C
102
}
330
C51C
100
AcDbXrecord
280
     1
102
RTVSPost2010Prop28
280
     0
102
RTVSPost2010PropOp28
 70
     1
102
RTVSPost2010Prop29
280
     1
102
RTVSPost2010PropOp29
 70
     1
102
RTVSPost2010Prop30
280
     1
102
RTVSPost2010PropOp30
 70
     1
102
RTVSPost2010Prop31
280
     0
102
RTVSPost2010PropOp31
 70
     1
102
RTVSPost2010Prop32
280
     0
102
RTVSPost2010PropOp32
 70
     1
102
RTVSPost2010Prop33
280
     0
102
RTVSPost2010PropOp33
 70
     1
102
RTVSPost2010Prop34
280
     0
102
RTVSPost2010PropOp34
 70
     1
102
RTVSPost2010Prop35
280
     0
102
RTVSPost2010PropOp35
 70
     1
102
RTVSPost2010Prop36
280
     0
102
RTVSPost2010PropOp36
 70
     1
102
RTVSPost2010Prop37
 90
       50
102
RTVSPost2010PropOp37
 70
     1
102
RTVSPost2010Prop38
140
0.0
102
RTVSPost2010PropOp38
 70
     1
102
RTVSPost2010Prop39
140
1.0
102
RTVSPost2010PropOp39
 70
     1
102
RTVSPost2010Prop40
 90
        0
102
RTVSPost2010PropOp40
 70
     1
102
RTVSPost2010Prop41ColorIndex
 90
       18
102
RTVSPost2010Prop41ColorRGB
 90
        0
102
RTVSPost2010PropOp41
 70
     1
102
RTVSPost2010Prop42
 90
       50
102
RTVSPost2010PropOp42
 70
     1
102
RTVSPost2010Prop43
 90
        3
102
RTVSPost2010PropOp43
 70
     1
102
RTVSPost2010Prop44ColorIndex
 90
        5
102
RTVSPost2010Prop44ColorRGB
 90
      255
102
RTVSPost2010PropOp44
 70
     1
102
RTVSPost2010Prop45
280
     0
102
RTVSPost2010PropOp45
 70
     1
102
RTVSPost2010Prop46
 90
       50
102
RTVSPost2010PropOp46
 70
     1
102
RTVSPost2010Prop47
 90
       50
102
RTVSPost2010PropOp47
 70
     1
102
RTVSPost2010Prop48
 90
       50
102
RTVSPost2010PropOp48
 70
     1
102
RTVSPost2010Prop49
280
     0
102
RTVSPost2010PropOp49
 70
     1
102
RTVSPost2010Prop50
 90
       50
102
RTVSPost2010PropOp50
 70
     1
102
RTVSPost2010Prop51ColorIndex
 90
      256
102
RTVSPost2010Prop51ColorRGB
 90
-16777216
102
RTVSPost2010PropOp51
 70
     0
102
RTVSPost2010Prop52
140
1.0
102
RTVSPost2010PropOp52
 70
     0
102
RTVSPost2010Prop53
 90
        2
102
RTVSPost2010PropOp53
 70
     1
102
RTVSPost2010Prop54
  1
strokes_ogs.tif
102
RTVSPost2010PropOp54
 70
     1
102
RTVSPost2010Prop55
280
     0
102
RTVSPost2010PropOp55
 70
     1
102
RTVSPost2010Prop56
140
1.0
102
RTVSPost2010PropOp56
 70
     1
102
RTVSPost2010Prop57
140
1.0
102
RTVSPost2010PropOp57
 70
     1
102
RTVSPropertyOp0
 70
     1
102
RTVSPropertyOp1
 70
     1
102
RTVSPropertyOp2
 70
     1
102
RTVSPropertyOp3
 70
     1
102
RTVSPropertyOp4
 70
     1
102
RTVSPropertyOp5
 70
     1
102
RTVSPropertyOp6
 70
     1
102
RTVSPropertyOp7
 70
     1
102
RTVSPropertyOp8
 70
     1
102
RTVSPropertyOp9
 70
     1
102
RTVSPropertyOp10
 70
     1
102
RTVSPropertyOp11
 70
     1
102
RTVSPropertyOp12
 70
     1
102
RTVSPropertyOp13
 70
     1
102
RTVSPropertyOp14
 70
     1
102
RTVSPropertyOp15
 70
     1
102
RTVSPropertyOp16
 70
     1
102
RTVSPropertyOp17
 70
     1
102
RTVSPropertyOp18
 70
     1
102
RTVSPropertyOp19
 70
     1
102
RTVSPropertyOp20
 70
     1
102
RTVSPropertyOp21
 70
     1
102
RTVSPropertyOp22
 70
     1
102
RTVSPropertyOp23
 70
     1
102
RTVSPropertyOp24
 70
     1
102
RTVSPropertyOp25
 70
     1
102
RTVSPropertyOp26
 70
     1
102
RTVSPropertyOp27
 70
     1
102
RTVSPropertyOp28
 70
     1
102
RTVSPropertyOp29
 70
     1
102
RTVSPropertyOp30
 70
     1
102
RTVSPropertyOp31
 70
     1
102
RTVSPropertyOp32
 70
     1
102
RTVSPropertyOp33
 70
     1
102
RTVSPropertyOp34
 70
     1
102
RTVSPropertyOp35
 70
     1
102
RTVSPropertyOp36
 70
     1
102
RTVSPropertyOp37
 70
     1
102
RTVSPropertyOp38
 70
     1
102
RTVSPropertyOp39
 70
     1
102
RTVSPropertyOp40
 70
     1
102
RTVSPropertyOp41
 70
     1
102
RTVSPropertyOp42
 70
     1
102
RTVSPropertyOp43
 70
     1
102
RTVSPropertyOp44
 70
     1
102
RTVSPropertyOp45
 70
     1
102
RTVSPropertyOp46
 70
     1
102
RTVSPropertyOp47
 70
     1
102
RTVSPropertyOp48
 70
     1
102
RTVSPropertyOp49
 70
     1
102
RTVSPropertyOp50
 70
     1
102
RTVSPropertyOp51
 70
     0
102
RTVSPropertyOp52
 70
     0
102
RTVSPropertyOp53
 70
     1
102
RTVSPropertyOp54
 70
     1
102
RTVSPropertyOp55
 70
     1
102
RTVSPropertyOp56
 70
     1
102
RTVSPropertyOp57
 70
     1
102
RTVSPropertyOp58
 70
     1
102
RTVSPropertyOp59
 70
     1
102
RTVSPropertyOp60
 70
     1
102
RTVSPropertyOp61
 70
     1
102
RTVSPropertyOp62
 70
     1
  0
XRECORD
  5
C52F
102
{ACAD_REACTORS
330
C52E
102
}
330
C52E
100
AcDbXrecord
280
     1
102
RTVSPost2010Prop28
280
     0
102
RTVSPost2010PropOp28
 70
     1
102
RTVSPost2010Prop29
280
     1
102
RTVSPost2010PropOp29
 70
     1
102
RTVSPost2010Prop30
280
     1
102
RTVSPost2010PropOp30
 70
     1
102
RTVSPost2010Prop31
280
     0
102
RTVSPost2010PropOp31
 70
     1
102
RTVSPost2010Prop32
280
     0
102
RTVSPost2010PropOp32
 70
     1
102
RTVSPost2010Prop33
280
     0
102
RTVSPost2010PropOp33
 70
     1
102
RTVSPost2010Prop34
280
     0
102
RTVSPost2010PropOp34
 70
     1
102
RTVSPost2010Prop35
280
     0
102
RTVSPost2010PropOp35
 70
     1
102
RTVSPost2010Prop36
280
     0
102
RTVSPost2010PropOp36
 70
     1
102
RTVSPost2010Prop37
 90
       50
102
RTVSPost2010PropOp37
 70
     0
102
RTVSPost2010Prop38
140
0.0
102
RTVSPost2010PropOp38
 70
     0
102
RTVSPost2010Prop39
140
1.0
102
RTVSPost2010PropOp39
 70
     0
102
RTVSPost2010Prop40
 90
        0
102
RTVSPost2010PropOp40
 70
     0
102
RTVSPost2010Prop41ColorIndex
 90
       18
102
RTVSPost2010Prop41ColorRGB
 90
        0
102
RTVSPost2010PropOp41
 70
     0
102
RTVSPost2010Prop42
 90
       50
102
RTVSPost2010PropOp42
 70
     0
102
RTVSPost2010Prop43
 90
        3
102
RTVSPost2010PropOp43
 70
     0
102
RTVSPost2010Prop44ColorIndex
 90
        5
102
RTVSPost2010Prop44ColorRGB
 90
      255
102
RTVSPost2010PropOp44
 70
     0
102
RTVSPost2010Prop45
280
     0
102
RTVSPost2010PropOp45
 70
     1
102
RTVSPost2010Prop46
 90
       50
102
RTVSPost2010PropOp46
 70
     0
102
RTVSPost2010Prop47
 90
       50
102
RTVSPost2010PropOp47
 70
     0
102
RTVSPost2010Prop48
 90
       50
102
RTVSPost2010PropOp48
 70
     0
102
RTVSPost2010Prop49
280
     0
102
RTVSPost2010PropOp49
 70
     1
102
RTVSPost2010Prop50
 90
       50
102
RTVSPost2010PropOp50
 70
     0
102
RTVSPost2010Prop51ColorIndex
 90
      256
102
RTVSPost2010Prop51ColorRGB
 90
-16777216
102
RTVSPost2010PropOp51
 70
     0
102
RTVSPost2010Prop52
140
1.0
102
RTVSPost2010PropOp52
 70
     0
102
RTVSPost2010Prop53
 90
        2
102
RTVSPost2010PropOp53
 70
     0
102
RTVSPost2010Prop54
  1
strokes_ogs.tif
102
RTVSPost2010PropOp54
 70
     0
102
RTVSPost2010Prop55
280
     0
102
RTVSPost2010PropOp55
 70
     1
102
RTVSPost2010Prop56
140
1.0
102
RTVSPost2010PropOp56
 70
     0
102
RTVSPost2010Prop57
140
1.0
102
RTVSPost2010PropOp57
 70
     0
102
RTVSPropertyOp0
 70
     0
102
RTVSPropertyOp1
 70
     0
102
RTVSPropertyOp2
 70
     0
102
RTVSPropertyOp3
 70
     0
102
RTVSPropertyOp4
 70
     0
102
RTVSPropertyOp5
 70
     0
102
RTVSPropertyOp6
 70
     0
102
RTVSPropertyOp7
 70
     0
102
RTVSPropertyOp8
 70
     0
102
RTVSPropertyOp9
 70
     0
102
RTVSPropertyOp10
 70
     0
102
RTVSPropertyOp11
 70
     0
102
RTVSPropertyOp12
 70
     0
102
RTVSPropertyOp13
 70
     0
102
RTVSPropertyOp14
 70
     2
102
RTVSPropertyOp15
 70
     0
102
RTVSPropertyOp16
 70
     0
102
RTVSPropertyOp17
 70
     0
102
RTVSPropertyOp18
 70
     0
102
RTVSPropertyOp19
 70
     0
102
RTVSPropertyOp20
 70
     0
102
RTVSPropertyOp21
 70
     0
102
RTVSPropertyOp22
 70
     0
102
RTVSPropertyOp23
 70
     0
102
RTVSPropertyOp24
 70
     0
102
RTVSPropertyOp25
 70
     0
102
RTVSPropertyOp26
 70
     0
102
RTVSPropertyOp27
 70
     0
102
RTVSPropertyOp28
 70
     1
102
RTVSPropertyOp29
 70
     1
102
RTVSPropertyOp30
 70
     1
102
RTVSPropertyOp31
 70
     1
102
RTVSPropertyOp32
 70
     1
102
RTVSPropertyOp33
 70
     1
102
RTVSPropertyOp34
 70
     1
102
RTVSPropertyOp35
 70
     1
102
RTVSPropertyOp36
 70
     1
102
RTVSPropertyOp37
 70
     0
102
RTVSPropertyOp38
 70
     0
102
RTVSPropertyOp39
 70
     0
102
RTVSPropertyOp40
 70
     0
102
RTVSPropertyOp41
 70
     0
102
RTVSPropertyOp42
 70
     0
102
RTVSPropertyOp43
 70
     0
102
RTVSPropertyOp44
 70
     0
102
RTVSPropertyOp45
 70
     1
102
RTVSPropertyOp46
 70
     0
102
RTVSPropertyOp47
 70
     0
102
RTVSPropertyOp48
 70
     0
102
RTVSPropertyOp49
 70
     1
102
RTVSPropertyOp50
 70
     0
102
RTVSPropertyOp51
 70
     0
102
RTVSPropertyOp52
 70
     0
102
RTVSPropertyOp53
 70
     0
102
RTVSPropertyOp54
 70
     0
102
RTVSPropertyOp55
 70
     1
102
RTVSPropertyOp56
 70
     0
102
RTVSPropertyOp57
 70
     0
102
RTVSPropertyOp58
 70
     0
102
RTVSPropertyOp59
 70
     0
102
RTVSPropertyOp60
 70
     0
102
RTVSPropertyOp61
 70
     0
102
RTVSPropertyOp62
 70
     0
  0
XRECORD
  5
C515
102
{ACAD_REACTORS
330
C514
102
}
330
C514
100
AcDbXrecord
280
     1
102
RTVSPost2010Prop28
280
     0
102
RTVSPost2010PropOp28
 70
     1
102
RTVSPost2010Prop29
280
     1
102
RTVSPost2010PropOp29
 70
     1
102
RTVSPost2010Prop30
280
     1
102
RTVSPost2010PropOp30
 70
     1
102
RTVSPost2010Prop31
280
     0
102
RTVSPost2010PropOp31
 70
     1
102
RTVSPost2010Prop32
280
     0
102
RTVSPost2010PropOp32
 70
     1
102
RTVSPost2010Prop33
280
     0
102
RTVSPost2010PropOp33
 70
     1
102
RTVSPost2010Prop34
280
     0
102
RTVSPost2010PropOp34
 70
     1
102
RTVSPost2010Prop35
280
     0
102
RTVSPost2010PropOp35
 70
     1
102
RTVSPost2010Prop36
280
     0
102
RTVSPost2010PropOp36
 70
     1
102
RTVSPost2010Prop37
 90
       50
102
RTVSPost2010PropOp37
 70
     1
102
RTVSPost2010Prop38
140
0.0
102
RTVSPost2010PropOp38
 70
     1
102
RTVSPost2010Prop39
140
1.0
102
RTVSPost2010PropOp39
 70
     1
102
RTVSPost2010Prop40
 90
        0
102
RTVSPost2010PropOp40
 70
     1
102
RTVSPost2010Prop41ColorIndex
 90
       18
102
RTVSPost2010Prop41ColorRGB
 90
        0
102
RTVSPost2010PropOp41
 70
     1
102
RTVSPost2010Prop42
 90
       50
102
RTVSPost2010PropOp42
 70
     1
102
RTVSPost2010Prop43
 90
        3
102
RTVSPost2010PropOp43
 70
     1
102
RTVSPost2010Prop44ColorIndex
 90
        5
102
RTVSPost2010Prop44ColorRGB
 90
      255
102
RTVSPost2010PropOp44
 70
     1
102
RTVSPost2010Prop45
280
     0
102
RTVSPost2010PropOp45
 70
     1
102
RTVSPost2010Prop46
 90
       50
102
RTVSPost2010PropOp46
 70
     1
102
RTVSPost2010Prop47
 90
       50
102
RTVSPost2010PropOp47
 70
     1
102
RTVSPost2010Prop48
 90
       50
102
RTVSPost2010PropOp48
 70
     1
102
RTVSPost2010Prop49
280
     0
102
RTVSPost2010PropOp49
 70
     1
102
RTVSPost2010Prop50
 90
       50
102
RTVSPost2010PropOp50
 70
     1
102
RTVSPost2010Prop51ColorIndex
 90
      256
102
RTVSPost2010Prop51ColorRGB
 90
-16777216
102
RTVSPost2010PropOp51
 70
     0
102
RTVSPost2010Prop52
140
1.0
102
RTVSPost2010PropOp52
 70
     0
102
RTVSPost2010Prop53
 90
        2
102
RTVSPost2010PropOp53
 70
     1
102
RTVSPost2010Prop54
  1
strokes_ogs.tif
102
RTVSPost2010PropOp54
 70
     1
102
RTVSPost2010Prop55
280
     0
102
RTVSPost2010PropOp55
 70
     1
102
RTVSPost2010Prop56
140
1.0
102
RTVSPost2010PropOp56
 70
     1
102
RTVSPost2010Prop57
140
1.0
102
RTVSPost2010PropOp57
 70
     1
102
RTVSPropertyOp0
 70
     1
102
RTVSPropertyOp1
 70
     1
102
RTVSPropertyOp2
 70
     1
102
RTVSPropertyOp3
 70
     1
102
RTVSPropertyOp4
 70
     1
102
RTVSPropertyOp5
 70
     1
102
RTVSPropertyOp6
 70
     1
102
RTVSPropertyOp7
 70
     1
102
RTVSPropertyOp8
 70
     1
102
RTVSPropertyOp9
 70
     1
102
RTVSPropertyOp10
 70
     1
102
RTVSPropertyOp11
 70
     1
102
RTVSPropertyOp12
 70
     1
102
RTVSPropertyOp13
 70
     1
102
RTVSPropertyOp14
 70
     1
102
RTVSPropertyOp15
 70
     1
102
RTVSPropertyOp16
 70
     1
102
RTVSPropertyOp17
 70
     1
102
RTVSPropertyOp18
 70
     1
102
RTVSPropertyOp19
 70
     1
102
RTVSPropertyOp20
 70
     1
102
RTVSPropertyOp21
 70
     1
102
RTVSPropertyOp22
 70
     1
102
RTVSPropertyOp23
 70
     1
102
RTVSPropertyOp24
 70
     1
102
RTVSPropertyOp25
 70
     1
102
RTVSPropertyOp26
 70
     1
102
RTVSPropertyOp27
 70
     1
102
RTVSPropertyOp28
 70
     1
102
RTVSPropertyOp29
 70
     1
102
RTVSPropertyOp30
 70
     1
102
RTVSPropertyOp31
 70
     1
102
RTVSPropertyOp32
 70
     1
102
RTVSPropertyOp33
 70
     1
102
RTVSPropertyOp34
 70
     1
102
RTVSPropertyOp35
 70
     1
102
RTVSPropertyOp36
 70
     1
102
RTVSPropertyOp37
 70
     1
102
RTVSPropertyOp38
 70
     1
102
RTVSPropertyOp39
 70
     1
102
RTVSPropertyOp40
 70
     1
102
RTVSPropertyOp41
 70
     1
102
RTVSPropertyOp42
 70
     1
102
RTVSPropertyOp43
 70
     1
102
RTVSPropertyOp44
 70
     1
102
RTVSPropertyOp45
 70
     1
102
RTVSPropertyOp46
 70
     1
102
RTVSPropertyOp47
 70
     1
102
RTVSPropertyOp48
 70
     1
102
RTVSPropertyOp49
 70
     1
102
RTVSPropertyOp50
 70
     1
102
RTVSPropertyOp51
 70
     0
102
RTVSPropertyOp52
 70
     0
102
RTVSPropertyOp53
 70
     1
102
RTVSPropertyOp54
 70
     1
102
RTVSPropertyOp55
 70
     1
102
RTVSPropertyOp56
 70
     1
102
RTVSPropertyOp57
 70
     1
102
RTVSPropertyOp58
 70
     1
102
RTVSPropertyOp59
 70
     1
102
RTVSPropertyOp60
 70
     1
102
RTVSPropertyOp61
 70
     1
102
RTVSPropertyOp62
 70
     1
  0
XRECORD
  5
C52B
102
{ACAD_REACTORS
330
C52A
102
}
330
C52A
100
AcDbXrecord
280
     1
102
RTVSPost2010Prop28
280
     0
102
RTVSPost2010PropOp28
 70
     1
102
RTVSPost2010Prop29
280
     1
102
RTVSPost2010PropOp29
 70
     1
102
RTVSPost2010Prop30
280
     1
102
RTVSPost2010PropOp30
 70
     1
102
RTVSPost2010Prop31
280
     0
102
RTVSPost2010PropOp31
 70
     1
102
RTVSPost2010Prop32
280
     0
102
RTVSPost2010PropOp32
 70
     1
102
RTVSPost2010Prop33
280
     0
102
RTVSPost2010PropOp33
 70
     1
102
RTVSPost2010Prop34
280
     0
102
RTVSPost2010PropOp34
 70
     1
102
RTVSPost2010Prop35
280
     0
102
RTVSPost2010PropOp35
 70
     1
102
RTVSPost2010Prop36
280
     0
102
RTVSPost2010PropOp36
 70
     1
102
RTVSPost2010Prop37
 90
       50
102
RTVSPost2010PropOp37
 70
     1
102
RTVSPost2010Prop38
140
0.0
102
RTVSPost2010PropOp38
 70
     1
102
RTVSPost2010Prop39
140
1.0
102
RTVSPost2010PropOp39
 70
     1
102
RTVSPost2010Prop40
 90
        0
102
RTVSPost2010PropOp40
 70
     1
102
RTVSPost2010Prop41ColorIndex
 90
       18
102
RTVSPost2010Prop41ColorRGB
 90
        0
102
RTVSPost2010PropOp41
 70
     1
102
RTVSPost2010Prop42
 90
       50
102
RTVSPost2010PropOp42
 70
     1
102
RTVSPost2010Prop43
 90
        3
102
RTVSPost2010PropOp43
 70
     1
102
RTVSPost2010Prop44ColorIndex
 90
        5
102
RTVSPost2010Prop44ColorRGB
 90
      255
102
RTVSPost2010PropOp44
 70
     1
102
RTVSPost2010Prop45
280
     0
102
RTVSPost2010PropOp45
 70
     1
102
RTVSPost2010Prop46
 90
       50
102
RTVSPost2010PropOp46
 70
     1
102
RTVSPost2010Prop47
 90
       50
102
RTVSPost2010PropOp47
 70
     1
102
RTVSPost2010Prop48
 90
       50
102
RTVSPost2010PropOp48
 70
     1
102
RTVSPost2010Prop49
280
     0
102
RTVSPost2010PropOp49
 70
     1
102
RTVSPost2010Prop50
 90
       50
102
RTVSPost2010PropOp50
 70
     1
102
RTVSPost2010Prop51ColorIndex
 90
      256
102
RTVSPost2010Prop51ColorRGB
 90
-16777216
102
RTVSPost2010PropOp51
 70
     0
102
RTVSPost2010Prop52
140
1.0
102
RTVSPost2010PropOp52
 70
     0
102
RTVSPost2010Prop53
 90
        2
102
RTVSPost2010PropOp53
 70
     1
102
RTVSPost2010Prop54
  1
strokes_ogs.tif
102
RTVSPost2010PropOp54
 70
     1
102
RTVSPost2010Prop55
280
     0
102
RTVSPost2010PropOp55
 70
     1
102
RTVSPost2010Prop56
140
1.0
102
RTVSPost2010PropOp56
 70
     1
102
RTVSPost2010Prop57
140
1.0
102
RTVSPost2010PropOp57
 70
     1
102
RTVSPropertyOp0
 70
     1
102
RTVSPropertyOp1
 70
     1
102
RTVSPropertyOp2
 70
     1
102
RTVSPropertyOp3
 70
     1
102
RTVSPropertyOp4
 70
     1
102
RTVSPropertyOp5
 70
     1
102
RTVSPropertyOp6
 70
     1
102
RTVSPropertyOp7
 70
     1
102
RTVSPropertyOp8
 70
     1
102
RTVSPropertyOp9
 70
     1
102
RTVSPropertyOp10
 70
     1
102
RTVSPropertyOp11
 70
     1
102
RTVSPropertyOp12
 70
     1
102
RTVSPropertyOp13
 70
     1
102
RTVSPropertyOp14
 70
     1
102
RTVSPropertyOp15
 70
     1
102
RTVSPropertyOp16
 70
     1
102
RTVSPropertyOp17
 70
     1
102
RTVSPropertyOp18
 70
     1
102
RTVSPropertyOp19
 70
     1
102
RTVSPropertyOp20
 70
     1
102
RTVSPropertyOp21
 70
     1
102
RTVSPropertyOp22
 70
     1
102
RTVSPropertyOp23
 70
     1
102
RTVSPropertyOp24
 70
     1
102
RTVSPropertyOp25
 70
     1
102
RTVSPropertyOp26
 70
     1
102
RTVSPropertyOp27
 70
     1
102
RTVSPropertyOp28
 70
     1
102
RTVSPropertyOp29
 70
     1
102
RTVSPropertyOp30
 70
     1
102
RTVSPropertyOp31
 70
     1
102
RTVSPropertyOp32
 70
     1
102
RTVSPropertyOp33
 70
     1
102
RTVSPropertyOp34
 70
     1
102
RTVSPropertyOp35
 70
     1
102
RTVSPropertyOp36
 70
     1
102
RTVSPropertyOp37
 70
     1
102
RTVSPropertyOp38
 70
     1
102
RTVSPropertyOp39
 70
     1
102
RTVSPropertyOp40
 70
     1
102
RTVSPropertyOp41
 70
     1
102
RTVSPropertyOp42
 70
     1
102
RTVSPropertyOp43
 70
     1
102
RTVSPropertyOp44
 70
     1
102
RTVSPropertyOp45
 70
     1
102
RTVSPropertyOp46
 70
     1
102
RTVSPropertyOp47
 70
     1
102
RTVSPropertyOp48
 70
     1
102
RTVSPropertyOp49
 70
     1
102
RTVSPropertyOp50
 70
     1
102
RTVSPropertyOp51
 70
     0
102
RTVSPropertyOp52
 70
     0
102
RTVSPropertyOp53
 70
     1
102
RTVSPropertyOp54
 70
     1
102
RTVSPropertyOp55
 70
     1
102
RTVSPropertyOp56
 70
     1
102
RTVSPropertyOp57
 70
     1
102
RTVSPropertyOp58
 70
     1
102
RTVSPropertyOp59
 70
     1
102
RTVSPropertyOp60
 70
     1
102
RTVSPropertyOp61
 70
     1
102
RTVSPropertyOp62
 70
     1
  0
XRECORD
  5
C529
102
{ACAD_REACTORS
330
C528
102
}
330
C528
100
AcDbXrecord
280
     1
102
RTVSPost2010Prop28
280
     0
102
RTVSPost2010PropOp28
 70
     1
102
RTVSPost2010Prop29
280
     1
102
RTVSPost2010PropOp29
 70
     1
102
RTVSPost2010Prop30
280
     1
102
RTVSPost2010PropOp30
 70
     1
102
RTVSPost2010Prop31
280
     0
102
RTVSPost2010PropOp31
 70
     1
102
RTVSPost2010Prop32
280
     0
102
RTVSPost2010PropOp32
 70
     1
102
RTVSPost2010Prop33
280
     0
102
RTVSPost2010PropOp33
 70
     1
102
RTVSPost2010Prop34
280
     0
102
RTVSPost2010PropOp34
 70
     1
102
RTVSPost2010Prop35
280
     0
102
RTVSPost2010PropOp35
 70
     1
102
RTVSPost2010Prop36
280
     0
102
RTVSPost2010PropOp36
 70
     1
102
RTVSPost2010Prop37
 90
       50
102
RTVSPost2010PropOp37
 70
     1
102
RTVSPost2010Prop38
140
0.0
102
RTVSPost2010PropOp38
 70
     1
102
RTVSPost2010Prop39
140
1.0
102
RTVSPost2010PropOp39
 70
     1
102
RTVSPost2010Prop40
 90
        0
102
RTVSPost2010PropOp40
 70
     1
102
RTVSPost2010Prop41ColorIndex
 90
       18
102
RTVSPost2010Prop41ColorRGB
 90
        0
102
RTVSPost2010PropOp41
 70
     1
102
RTVSPost2010Prop42
 90
       50
102
RTVSPost2010PropOp42
 70
     1
102
RTVSPost2010Prop43
 90
        3
102
RTVSPost2010PropOp43
 70
     1
102
RTVSPost2010Prop44ColorIndex
 90
        5
102
RTVSPost2010Prop44ColorRGB
 90
      255
102
RTVSPost2010PropOp44
 70
     1
102
RTVSPost2010Prop45
280
     0
102
RTVSPost2010PropOp45
 70
     1
102
RTVSPost2010Prop46
 90
       50
102
RTVSPost2010PropOp46
 70
     1
102
RTVSPost2010Prop47
 90
       50
102
RTVSPost2010PropOp47
 70
     1
102
RTVSPost2010Prop48
 90
       50
102
RTVSPost2010PropOp48
 70
     1
102
RTVSPost2010Prop49
280
     0
102
RTVSPost2010PropOp49
 70
     1
102
RTVSPost2010Prop50
 90
       50
102
RTVSPost2010PropOp50
 70
     1
102
RTVSPost2010Prop51ColorIndex
 90
      256
102
RTVSPost2010Prop51ColorRGB
 90
-16777216
102
RTVSPost2010PropOp51
 70
     0
102
RTVSPost2010Prop52
140
1.0
102
RTVSPost2010PropOp52
 70
     0
102
RTVSPost2010Prop53
 90
        2
102
RTVSPost2010PropOp53
 70
     1
102
RTVSPost2010Prop54
  1
strokes_ogs.tif
102
RTVSPost2010PropOp54
 70
     1
102
RTVSPost2010Prop55
280
     0
102
RTVSPost2010PropOp55
 70
     1
102
RTVSPost2010Prop56
140
1.0
102
RTVSPost2010PropOp56
 70
     1
102
RTVSPost2010Prop57
140
1.0
102
RTVSPost2010PropOp57
 70
     1
102
RTVSPropertyOp0
 70
     1
102
RTVSPropertyOp1
 70
     1
102
RTVSPropertyOp2
 70
     1
102
RTVSPropertyOp3
 70
     1
102
RTVSPropertyOp4
 70
     1
102
RTVSPropertyOp5
 70
     1
102
RTVSPropertyOp6
 70
     1
102
RTVSPropertyOp7
 70
     1
102
RTVSPropertyOp8
 70
     1
102
RTVSPropertyOp9
 70
     1
102
RTVSPropertyOp10
 70
     1
102
RTVSPropertyOp11
 70
     1
102
RTVSPropertyOp12
 70
     1
102
RTVSPropertyOp13
 70
     1
102
RTVSPropertyOp14
 70
     1
102
RTVSPropertyOp15
 70
     1
102
RTVSPropertyOp16
 70
     1
102
RTVSPropertyOp17
 70
     1
102
RTVSPropertyOp18
 70
     1
102
RTVSPropertyOp19
 70
     1
102
RTVSPropertyOp20
 70
     1
102
RTVSPropertyOp21
 70
     1
102
RTVSPropertyOp22
 70
     1
102
RTVSPropertyOp23
 70
     1
102
RTVSPropertyOp24
 70
     1
102
RTVSPropertyOp25
 70
     1
102
RTVSPropertyOp26
 70
     1
102
RTVSPropertyOp27
 70
     1
102
RTVSPropertyOp28
 70
     1
102
RTVSPropertyOp29
 70
     1
102
RTVSPropertyOp30
 70
     1
102
RTVSPropertyOp31
 70
     1
102
RTVSPropertyOp32
 70
     1
102
RTVSPropertyOp33
 70
     1
102
RTVSPropertyOp34
 70
     1
102
RTVSPropertyOp35
 70
     1
102
RTVSPropertyOp36
 70
     1
102
RTVSPropertyOp37
 70
     1
102
RTVSPropertyOp38
 70
     1
102
RTVSPropertyOp39
 70
     1
102
RTVSPropertyOp40
 70
     1
102
RTVSPropertyOp41
 70
     1
102
RTVSPropertyOp42
 70
     1
102
RTVSPropertyOp43
 70
     1
102
RTVSPropertyOp44
 70
     1
102
RTVSPropertyOp45
 70
     1
102
RTVSPropertyOp46
 70
     1
102
RTVSPropertyOp47
 70
     1
102
RTVSPropertyOp48
 70
     1
102
RTVSPropertyOp49
 70
     1
102
RTVSPropertyOp50
 70
     1
102
RTVSPropertyOp51
 70
     0
102
RTVSPropertyOp52
 70
     0
102
RTVSPropertyOp53
 70
     1
102
RTVSPropertyOp54
 70
     1
102
RTVSPropertyOp55
 70
     1
102
RTVSPropertyOp56
 70
     1
102
RTVSPropertyOp57
 70
     1
102
RTVSPropertyOp58
 70
     1
102
RTVSPropertyOp59
 70
     1
102
RTVSPropertyOp60
 70
     1
102
RTVSPropertyOp61
 70
     1
102
RTVSPropertyOp62
 70
     1
  0
XRECORD
  5
C523
102
{ACAD_REACTORS
330
C522
102
}
330
C522
100
AcDbXrecord
280
     1
102
RTVSPost2010Prop28
280
     0
102
RTVSPost2010PropOp28
 70
     1
102
RTVSPost2010Prop29
280
     1
102
RTVSPost2010PropOp29
 70
     1
102
RTVSPost2010Prop30
280
     1
102
RTVSPost2010PropOp30
 70
     1
102
RTVSPost2010Prop31
280
     0
102
RTVSPost2010PropOp31
 70
     1
102
RTVSPost2010Prop32
280
     0
102
RTVSPost2010PropOp32
 70
     1
102
RTVSPost2010Prop33
280
     0
102
RTVSPost2010PropOp33
 70
     1
102
RTVSPost2010Prop34
280
     0
102
RTVSPost2010PropOp34
 70
     1
102
RTVSPost2010Prop35
280
     0
102
RTVSPost2010PropOp35
 70
     1
102
RTVSPost2010Prop36
280
     0
102
RTVSPost2010PropOp36
 70
     1
102
RTVSPost2010Prop37
 90
       50
102
RTVSPost2010PropOp37
 70
     1
102
RTVSPost2010Prop38
140
0.0
102
RTVSPost2010PropOp38
 70
     1
102
RTVSPost2010Prop39
140
1.0
102
RTVSPost2010PropOp39
 70
     1
102
RTVSPost2010Prop40
 90
        0
102
RTVSPost2010PropOp40
 70
     1
102
RTVSPost2010Prop41ColorIndex
 90
       18
102
RTVSPost2010Prop41ColorRGB
 90
        0
102
RTVSPost2010PropOp41
 70
     1
102
RTVSPost2010Prop42
 90
       50
102
RTVSPost2010PropOp42
 70
     1
102
RTVSPost2010Prop43
 90
        3
102
RTVSPost2010PropOp43
 70
     1
102
RTVSPost2010Prop44ColorIndex
 90
        5
102
RTVSPost2010Prop44ColorRGB
 90
      255
102
RTVSPost2010PropOp44
 70
     1
102
RTVSPost2010Prop45
280
     0
102
RTVSPost2010PropOp45
 70
     1
102
RTVSPost2010Prop46
 90
       50
102
RTVSPost2010PropOp46
 70
     1
102
RTVSPost2010Prop47
 90
       50
102
RTVSPost2010PropOp47
 70
     1
102
RTVSPost2010Prop48
 90
       50
102
RTVSPost2010PropOp48
 70
     1
102
RTVSPost2010Prop49
280
     0
102
RTVSPost2010PropOp49
 70
     1
102
RTVSPost2010Prop50
 90
       50
102
RTVSPost2010PropOp50
 70
     1
102
RTVSPost2010Prop51ColorIndex
 90
      256
102
RTVSPost2010Prop51ColorRGB
 90
-16777216
102
RTVSPost2010PropOp51
 70
     0
102
RTVSPost2010Prop52
140
1.0
102
RTVSPost2010PropOp52
 70
     0
102
RTVSPost2010Prop53
 90
        2
102
RTVSPost2010PropOp53
 70
     1
102
RTVSPost2010Prop54
  1
strokes_ogs.tif
102
RTVSPost2010PropOp54
 70
     1
102
RTVSPost2010Prop55
280
     0
102
RTVSPost2010PropOp55
 70
     1
102
RTVSPost2010Prop56
140
1.0
102
RTVSPost2010PropOp56
 70
     1
102
RTVSPost2010Prop57
140
1.0
102
RTVSPost2010PropOp57
 70
     1
102
RTVSPropertyOp0
 70
     1
102
RTVSPropertyOp1
 70
     1
102
RTVSPropertyOp2
 70
     1
102
RTVSPropertyOp3
 70
     1
102
RTVSPropertyOp4
 70
     1
102
RTVSPropertyOp5
 70
     1
102
RTVSPropertyOp6
 70
     1
102
RTVSPropertyOp7
 70
     1
102
RTVSPropertyOp8
 70
     1
102
RTVSPropertyOp9
 70
     1
102
RTVSPropertyOp10
 70
     1
102
RTVSPropertyOp11
 70
     1
102
RTVSPropertyOp12
 70
     1
102
RTVSPropertyOp13
 70
     1
102
RTVSPropertyOp14
 70
     1
102
RTVSPropertyOp15
 70
     1
102
RTVSPropertyOp16
 70
     1
102
RTVSPropertyOp17
 70
     1
102
RTVSPropertyOp18
 70
     1
102
RTVSPropertyOp19
 70
     1
102
RTVSPropertyOp20
 70
     1
102
RTVSPropertyOp21
 70
     1
102
RTVSPropertyOp22
 70
     1
102
RTVSPropertyOp23
 70
     1
102
RTVSPropertyOp24
 70
     1
102
RTVSPropertyOp25
 70
     1
102
RTVSPropertyOp26
 70
     1
102
RTVSPropertyOp27
 70
     1
102
RTVSPropertyOp28
 70
     1
102
RTVSPropertyOp29
 70
     1
102
RTVSPropertyOp30
 70
     1
102
RTVSPropertyOp31
 70
     1
102
RTVSPropertyOp32
 70
     1
102
RTVSPropertyOp33
 70
     1
102
RTVSPropertyOp34
 70
     1
102
RTVSPropertyOp35
 70
     1
102
RTVSPropertyOp36
 70
     1
102
RTVSPropertyOp37
 70
     1
102
RTVSPropertyOp38
 70
     1
102
RTVSPropertyOp39
 70
     1
102
RTVSPropertyOp40
 70
     1
102
RTVSPropertyOp41
 70
     1
102
RTVSPropertyOp42
 70
     1
102
RTVSPropertyOp43
 70
     1
102
RTVSPropertyOp44
 70
     1
102
RTVSPropertyOp45
 70
     1
102
RTVSPropertyOp46
 70
     1
102
RTVSPropertyOp47
 70
     1
102
RTVSPropertyOp48
 70
     1
102
RTVSPropertyOp49
 70
     1
102
RTVSPropertyOp50
 70
     1
102
RTVSPropertyOp51
 70
     0
102
RTVSPropertyOp52
 70
     0
102
RTVSPropertyOp53
 70
     1
102
RTVSPropertyOp54
 70
     1
102
RTVSPropertyOp55
 70
     1
102
RTVSPropertyOp56
 70
     1
102
RTVSPropertyOp57
 70
     1
102
RTVSPropertyOp58
 70
     1
102
RTVSPropertyOp59
 70
     1
102
RTVSPropertyOp60
 70
     1
102
RTVSPropertyOp61
 70
     1
102
RTVSPropertyOp62
 70
     1
  0
XRECORD
  5
C525
102
{ACAD_REACTORS
330
C524
102
}
330
C524
100
AcDbXrecord
280
     1
102
RTVSPost2010Prop28
280
     0
102
RTVSPost2010PropOp28
 70
     1
102
RTVSPost2010Prop29
280
     1
102
RTVSPost2010PropOp29
 70
     1
102
RTVSPost2010Prop30
280
     1
102
RTVSPost2010PropOp30
 70
     1
102
RTVSPost2010Prop31
280
     0
102
RTVSPost2010PropOp31
 70
     1
102
RTVSPost2010Prop32
280
     0
102
RTVSPost2010PropOp32
 70
     1
102
RTVSPost2010Prop33
280
     0
102
RTVSPost2010PropOp33
 70
     1
102
RTVSPost2010Prop34
280
     0
102
RTVSPost2010PropOp34
 70
     1
102
RTVSPost2010Prop35
280
     0
102
RTVSPost2010PropOp35
 70
     1
102
RTVSPost2010Prop36
280
     0
102
RTVSPost2010PropOp36
 70
     1
102
RTVSPost2010Prop37
 90
       50
102
RTVSPost2010PropOp37
 70
     1
102
RTVSPost2010Prop38
140
0.0
102
RTVSPost2010PropOp38
 70
     1
102
RTVSPost2010Prop39
140
1.0
102
RTVSPost2010PropOp39
 70
     1
102
RTVSPost2010Prop40
 90
        0
102
RTVSPost2010PropOp40
 70
     1
102
RTVSPost2010Prop41ColorIndex
 90
       18
102
RTVSPost2010Prop41ColorRGB
 90
        0
102
RTVSPost2010PropOp41
 70
     1
102
RTVSPost2010Prop42
 90
       50
102
RTVSPost2010PropOp42
 70
     1
102
RTVSPost2010Prop43
 90
        3
102
RTVSPost2010PropOp43
 70
     1
102
RTVSPost2010Prop44ColorIndex
 90
        5
102
RTVSPost2010Prop44ColorRGB
 90
      255
102
RTVSPost2010PropOp44
 70
     1
102
RTVSPost2010Prop45
280
     0
102
RTVSPost2010PropOp45
 70
     1
102
RTVSPost2010Prop46
 90
       50
102
RTVSPost2010PropOp46
 70
     1
102
RTVSPost2010Prop47
 90
       50
102
RTVSPost2010PropOp47
 70
     1
102
RTVSPost2010Prop48
 90
       50
102
RTVSPost2010PropOp48
 70
     1
102
RTVSPost2010Prop49
280
     0
102
RTVSPost2010PropOp49
 70
     1
102
RTVSPost2010Prop50
 90
       50
102
RTVSPost2010PropOp50
 70
     1
102
RTVSPost2010Prop51ColorIndex
 90
      256
102
RTVSPost2010Prop51ColorRGB
 90
-16777216
102
RTVSPost2010PropOp51
 70
     0
102
RTVSPost2010Prop52
140
1.0
102
RTVSPost2010PropOp52
 70
     0
102
RTVSPost2010Prop53
 90
        2
102
RTVSPost2010PropOp53
 70
     1
102
RTVSPost2010Prop54
  1
strokes_ogs.tif
102
RTVSPost2010PropOp54
 70
     1
102
RTVSPost2010Prop55
280
     0
102
RTVSPost2010PropOp55
 70
     1
102
RTVSPost2010Prop56
140
1.0
102
RTVSPost2010PropOp56
 70
     1
102
RTVSPost2010Prop57
140
1.0
102
RTVSPost2010PropOp57
 70
     1
102
RTVSPropertyOp0
 70
     1
102
RTVSPropertyOp1
 70
     1
102
RTVSPropertyOp2
 70
     1
102
RTVSPropertyOp3
 70
     1
102
RTVSPropertyOp4
 70
     1
102
RTVSPropertyOp5
 70
     1
102
RTVSPropertyOp6
 70
     1
102
RTVSPropertyOp7
 70
     1
102
RTVSPropertyOp8
 70
     1
102
RTVSPropertyOp9
 70
     1
102
RTVSPropertyOp10
 70
     1
102
RTVSPropertyOp11
 70
     1
102
RTVSPropertyOp12
 70
     1
102
RTVSPropertyOp13
 70
     1
102
RTVSPropertyOp14
 70
     1
102
RTVSPropertyOp15
 70
     1
102
RTVSPropertyOp16
 70
     1
102
RTVSPropertyOp17
 70
     1
102
RTVSPropertyOp18
 70
     1
102
RTVSPropertyOp19
 70
     1
102
RTVSPropertyOp20
 70
     1
102
RTVSPropertyOp21
 70
     1
102
RTVSPropertyOp22
 70
     1
102
RTVSPropertyOp23
 70
     1
102
RTVSPropertyOp24
 70
     1
102
RTVSPropertyOp25
 70
     1
102
RTVSPropertyOp26
 70
     1
102
RTVSPropertyOp27
 70
     1
102
RTVSPropertyOp28
 70
     1
102
RTVSPropertyOp29
 70
     1
102
RTVSPropertyOp30
 70
     1
102
RTVSPropertyOp31
 70
     1
102
RTVSPropertyOp32
 70
     1
102
RTVSPropertyOp33
 70
     1
102
RTVSPropertyOp34
 70
     1
102
RTVSPropertyOp35
 70
     1
102
RTVSPropertyOp36
 70
     1
102
RTVSPropertyOp37
 70
     1
102
RTVSPropertyOp38
 70
     1
102
RTVSPropertyOp39
 70
     1
102
RTVSPropertyOp40
 70
     1
102
RTVSPropertyOp41
 70
     1
102
RTVSPropertyOp42
 70
     1
102
RTVSPropertyOp43
 70
     1
102
RTVSPropertyOp44
 70
     1
102
RTVSPropertyOp45
 70
     1
102
RTVSPropertyOp46
 70
     1
102
RTVSPropertyOp47
 70
     1
102
RTVSPropertyOp48
 70
     1
102
RTVSPropertyOp49
 70
     1
102
RTVSPropertyOp50
 70
     1
102
RTVSPropertyOp51
 70
     0
102
RTVSPropertyOp52
 70
     0
102
RTVSPropertyOp53
 70
     1
102
RTVSPropertyOp54
 70
     1
102
RTVSPropertyOp55
 70
     1
102
RTVSPropertyOp56
 70
     1
102
RTVSPropertyOp57
 70
     1
102
RTVSPropertyOp58
 70
     1
102
RTVSPropertyOp59
 70
     1
102
RTVSPropertyOp60
 70
     1
102
RTVSPropertyOp61
 70
     1
102
RTVSPropertyOp62
 70
     1
  0
XRECORD
  5
C51B
102
{ACAD_REACTORS
330
C51A
102
}
330
C51A
100
AcDbXrecord
280
     1
102
RTVSPost2010Prop28
280
     0
102
RTVSPost2010PropOp28
 70
     1
102
RTVSPost2010Prop29
280
     1
102
RTVSPost2010PropOp29
 70
     1
102
RTVSPost2010Prop30
280
     1
102
RTVSPost2010PropOp30
 70
     1
102
RTVSPost2010Prop31
280
     0
102
RTVSPost2010PropOp31
 70
     1
102
RTVSPost2010Prop32
280
     0
102
RTVSPost2010PropOp32
 70
     1
102
RTVSPost2010Prop33
280
     0
102
RTVSPost2010PropOp33
 70
     1
102
RTVSPost2010Prop34
280
     0
102
RTVSPost2010PropOp34
 70
     1
102
RTVSPost2010Prop35
280
     0
102
RTVSPost2010PropOp35
 70
     1
102
RTVSPost2010Prop36
280
     0
102
RTVSPost2010PropOp36
 70
     1
102
RTVSPost2010Prop37
 90
       50
102
RTVSPost2010PropOp37
 70
     1
102
RTVSPost2010Prop38
140
0.0
102
RTVSPost2010PropOp38
 70
     1
102
RTVSPost2010Prop39
140
1.0
102
RTVSPost2010PropOp39
 70
     1
102
RTVSPost2010Prop40
 90
        0
102
RTVSPost2010PropOp40
 70
     1
102
RTVSPost2010Prop41ColorIndex
 90
       18
102
RTVSPost2010Prop41ColorRGB
 90
        0
102
RTVSPost2010PropOp41
 70
     1
102
RTVSPost2010Prop42
 90
       50
102
RTVSPost2010PropOp42
 70
     1
102
RTVSPost2010Prop43
 90
        3
102
RTVSPost2010PropOp43
 70
     1
102
RTVSPost2010Prop44ColorIndex
 90
        5
102
RTVSPost2010Prop44ColorRGB
 90
      255
102
RTVSPost2010PropOp44
 70
     1
102
RTVSPost2010Prop45
280
     0
102
RTVSPost2010PropOp45
 70
     1
102
RTVSPost2010Prop46
 90
       50
102
RTVSPost2010PropOp46
 70
     1
102
RTVSPost2010Prop47
 90
       50
102
RTVSPost2010PropOp47
 70
     1
102
RTVSPost2010Prop48
 90
       50
102
RTVSPost2010PropOp48
 70
     1
102
RTVSPost2010Prop49
280
     0
102
RTVSPost2010PropOp49
 70
     1
102
RTVSPost2010Prop50
 90
       50
102
RTVSPost2010PropOp50
 70
     1
102
RTVSPost2010Prop51ColorIndex
 90
      256
102
RTVSPost2010Prop51ColorRGB
 90
-16777216
102
RTVSPost2010PropOp51
 70
     0
102
RTVSPost2010Prop52
140
1.0
102
RTVSPost2010PropOp52
 70
     0
102
RTVSPost2010Prop53
 90
        2
102
RTVSPost2010PropOp53
 70
     1
102
RTVSPost2010Prop54
  1
strokes_ogs.tif
102
RTVSPost2010PropOp54
 70
     1
102
RTVSPost2010Prop55
280
     0
102
RTVSPost2010PropOp55
 70
     1
102
RTVSPost2010Prop56
140
1.0
102
RTVSPost2010PropOp56
 70
     1
102
RTVSPost2010Prop57
140
1.0
102
RTVSPost2010PropOp57
 70
     1
102
RTVSPropertyOp0
 70
     1
102
RTVSPropertyOp1
 70
     1
102
RTVSPropertyOp2
 70
     1
102
RTVSPropertyOp3
 70
     1
102
RTVSPropertyOp4
 70
     1
102
RTVSPropertyOp5
 70
     1
102
RTVSPropertyOp6
 70
     1
102
RTVSPropertyOp7
 70
     1
102
RTVSPropertyOp8
 70
     1
102
RTVSPropertyOp9
 70
     1
102
RTVSPropertyOp10
 70
     1
102
RTVSPropertyOp11
 70
     1
102
RTVSPropertyOp12
 70
     1
102
RTVSPropertyOp13
 70
     1
102
RTVSPropertyOp14
 70
     1
102
RTVSPropertyOp15
 70
     1
102
RTVSPropertyOp16
 70
     1
102
RTVSPropertyOp17
 70
     1
102
RTVSPropertyOp18
 70
     1
102
RTVSPropertyOp19
 70
     1
102
RTVSPropertyOp20
 70
     1
102
RTVSPropertyOp21
 70
     1
102
RTVSPropertyOp22
 70
     1
102
RTVSPropertyOp23
 70
     1
102
RTVSPropertyOp24
 70
     1
102
RTVSPropertyOp25
 70
     1
102
RTVSPropertyOp26
 70
     1
102
RTVSPropertyOp27
 70
     1
102
RTVSPropertyOp28
 70
     1
102
RTVSPropertyOp29
 70
     1
102
RTVSPropertyOp30
 70
     1
102
RTVSPropertyOp31
 70
     1
102
RTVSPropertyOp32
 70
     1
102
RTVSPropertyOp33
 70
     1
102
RTVSPropertyOp34
 70
     1
102
RTVSPropertyOp35
 70
     1
102
RTVSPropertyOp36
 70
     1
102
RTVSPropertyOp37
 70
     1
102
RTVSPropertyOp38
 70
     1
102
RTVSPropertyOp39
 70
     1
102
RTVSPropertyOp40
 70
     1
102
RTVSPropertyOp41
 70
     1
102
RTVSPropertyOp42
 70
     1
102
RTVSPropertyOp43
 70
     1
102
RTVSPropertyOp44
 70
     1
102
RTVSPropertyOp45
 70
     1
102
RTVSPropertyOp46
 70
     1
102
RTVSPropertyOp47
 70
     1
102
RTVSPropertyOp48
 70
     1
102
RTVSPropertyOp49
 70
     1
102
RTVSPropertyOp50
 70
     1
102
RTVSPropertyOp51
 70
     0
102
RTVSPropertyOp52
 70
     0
102
RTVSPropertyOp53
 70
     1
102
RTVSPropertyOp54
 70
     1
102
RTVSPropertyOp55
 70
     1
102
RTVSPropertyOp56
 70
     1
102
RTVSPropertyOp57
 70
     1
102
RTVSPropertyOp58
 70
     1
102
RTVSPropertyOp59
 70
     1
102
RTVSPropertyOp60
 70
     1
102
RTVSPropertyOp61
 70
     1
102
RTVSPropertyOp62
 70
     1
  0
XRECORD
  5
C50F
102
{ACAD_REACTORS
330
C50E
102
}
330
C50E
100
AcDbXrecord
280
     1
102
RTVSPost2010Prop28
280
     0
102
RTVSPost2010PropOp28
 70
     1
102
RTVSPost2010Prop29
280
     1
102
RTVSPost2010PropOp29
 70
     1
102
RTVSPost2010Prop30
280
     1
102
RTVSPost2010PropOp30
 70
     1
102
RTVSPost2010Prop31
280
     0
102
RTVSPost2010PropOp31
 70
     1
102
RTVSPost2010Prop32
280
     0
102
RTVSPost2010PropOp32
 70
     1
102
RTVSPost2010Prop33
280
     0
102
RTVSPost2010PropOp33
 70
     1
102
RTVSPost2010Prop34
280
     0
102
RTVSPost2010PropOp34
 70
     1
102
RTVSPost2010Prop35
280
     0
102
RTVSPost2010PropOp35
 70
     1
102
RTVSPost2010Prop36
280
     0
102
RTVSPost2010PropOp36
 70
     1
102
RTVSPost2010Prop37
 90
       50
102
RTVSPost2010PropOp37
 70
     1
102
RTVSPost2010Prop38
140
0.0
102
RTVSPost2010PropOp38
 70
     1
102
RTVSPost2010Prop39
140
1.0
102
RTVSPost2010PropOp39
 70
     1
102
RTVSPost2010Prop40
 90
        0
102
RTVSPost2010PropOp40
 70
     1
102
RTVSPost2010Prop41ColorIndex
 90
       18
102
RTVSPost2010Prop41ColorRGB
 90
        0
102
RTVSPost2010PropOp41
 70
     1
102
RTVSPost2010Prop42
 90
       50
102
RTVSPost2010PropOp42
 70
     1
102
RTVSPost2010Prop43
 90
        3
102
RTVSPost2010PropOp43
 70
     1
102
RTVSPost2010Prop44ColorIndex
 90
        5
102
RTVSPost2010Prop44ColorRGB
 90
      255
102
RTVSPost2010PropOp44
 70
     1
102
RTVSPost2010Prop45
280
     0
102
RTVSPost2010PropOp45
 70
     1
102
RTVSPost2010Prop46
 90
       50
102
RTVSPost2010PropOp46
 70
     1
102
RTVSPost2010Prop47
 90
       50
102
RTVSPost2010PropOp47
 70
     1
102
RTVSPost2010Prop48
 90
       50
102
RTVSPost2010PropOp48
 70
     1
102
RTVSPost2010Prop49
280
     0
102
RTVSPost2010PropOp49
 70
     1
102
RTVSPost2010Prop50
 90
       50
102
RTVSPost2010PropOp50
 70
     1
102
RTVSPost2010Prop51ColorIndex
 90
      256
102
RTVSPost2010Prop51ColorRGB
 90
-16777216
102
RTVSPost2010PropOp51
 70
     0
102
RTVSPost2010Prop52
140
1.0
102
RTVSPost2010PropOp52
 70
     0
102
RTVSPost2010Prop53
 90
        2
102
RTVSPost2010PropOp53
 70
     1
102
RTVSPost2010Prop54
  1
strokes_ogs.tif
102
RTVSPost2010PropOp54
 70
     1
102
RTVSPost2010Prop55
280
     0
102
RTVSPost2010PropOp55
 70
     1
102
RTVSPost2010Prop56
140
1.0
102
RTVSPost2010PropOp56
 70
     1
102
RTVSPost2010Prop57
140
1.0
102
RTVSPost2010PropOp57
 70
     1
102
RTVSPropertyOp0
 70
     1
102
RTVSPropertyOp1
 70
     1
102
RTVSPropertyOp2
 70
     1
102
RTVSPropertyOp3
 70
     1
102
RTVSPropertyOp4
 70
     1
102
RTVSPropertyOp5
 70
     1
102
RTVSPropertyOp6
 70
     1
102
RTVSPropertyOp7
 70
     1
102
RTVSPropertyOp8
 70
     1
102
RTVSPropertyOp9
 70
     1
102
RTVSPropertyOp10
 70
     1
102
RTVSPropertyOp11
 70
     1
102
RTVSPropertyOp12
 70
     1
102
RTVSPropertyOp13
 70
     1
102
RTVSPropertyOp14
 70
     1
102
RTVSPropertyOp15
 70
     1
102
RTVSPropertyOp16
 70
     1
102
RTVSPropertyOp17
 70
     1
102
RTVSPropertyOp18
 70
     1
102
RTVSPropertyOp19
 70
     1
102
RTVSPropertyOp20
 70
     1
102
RTVSPropertyOp21
 70
     1
102
RTVSPropertyOp22
 70
     1
102
RTVSPropertyOp23
 70
     1
102
RTVSPropertyOp24
 70
     1
102
RTVSPropertyOp25
 70
     1
102
RTVSPropertyOp26
 70
     1
102
RTVSPropertyOp27
 70
     1
102
RTVSPropertyOp28
 70
     1
102
RTVSPropertyOp29
 70
     1
102
RTVSPropertyOp30
 70
     1
102
RTVSPropertyOp31
 70
     1
102
RTVSPropertyOp32
 70
     1
102
RTVSPropertyOp33
 70
     1
102
RTVSPropertyOp34
 70
     1
102
RTVSPropertyOp35
 70
     1
102
RTVSPropertyOp36
 70
     1
102
RTVSPropertyOp37
 70
     1
102
RTVSPropertyOp38
 70
     1
102
RTVSPropertyOp39
 70
     1
102
RTVSPropertyOp40
 70
     1
102
RTVSPropertyOp41
 70
     1
102
RTVSPropertyOp42
 70
     1
102
RTVSPropertyOp43
 70
     1
102
RTVSPropertyOp44
 70
     1
102
RTVSPropertyOp45
 70
     1
102
RTVSPropertyOp46
 70
     1
102
RTVSPropertyOp47
 70
     1
102
RTVSPropertyOp48
 70
     1
102
RTVSPropertyOp49
 70
     1
102
RTVSPropertyOp50
 70
     1
102
RTVSPropertyOp51
 70
     0
102
RTVSPropertyOp52
 70
     0
102
RTVSPropertyOp53
 70
     1
102
RTVSPropertyOp54
 70
     1
102
RTVSPropertyOp55
 70
     1
102
RTVSPropertyOp56
 70
     1
102
RTVSPropertyOp57
 70
     1
102
RTVSPropertyOp58
 70
     1
102
RTVSPropertyOp59
 70
     1
102
RTVSPropertyOp60
 70
     1
102
RTVSPropertyOp61
 70
     1
102
RTVSPropertyOp62
 70
     1
  0
XRECORD
  5
C527
102
{ACAD_REACTORS
330
C526
102
}
330
C526
100
AcDbXrecord
280
     1
102
RTVSPost2010Prop28
280
     0
102
RTVSPost2010PropOp28
 70
     1
102
RTVSPost2010Prop29
280
     1
102
RTVSPost2010PropOp29
 70
     1
102
RTVSPost2010Prop30
280
     1
102
RTVSPost2010PropOp30
 70
     1
102
RTVSPost2010Prop31
280
     0
102
RTVSPost2010PropOp31
 70
     1
102
RTVSPost2010Prop32
280
     0
102
RTVSPost2010PropOp32
 70
     1
102
RTVSPost2010Prop33
280
     0
102
RTVSPost2010PropOp33
 70
     1
102
RTVSPost2010Prop34
280
     0
102
RTVSPost2010PropOp34
 70
     1
102
RTVSPost2010Prop35
280
     0
102
RTVSPost2010PropOp35
 70
     1
102
RTVSPost2010Prop36
280
     0
102
RTVSPost2010PropOp36
 70
     1
102
RTVSPost2010Prop37
 90
       50
102
RTVSPost2010PropOp37
 70
     1
102
RTVSPost2010Prop38
140
0.0
102
RTVSPost2010PropOp38
 70
     1
102
RTVSPost2010Prop39
140
1.0
102
RTVSPost2010PropOp39
 70
     1
102
RTVSPost2010Prop40
 90
        0
102
RTVSPost2010PropOp40
 70
     1
102
RTVSPost2010Prop41ColorIndex
 90
       18
102
RTVSPost2010Prop41ColorRGB
 90
        0
102
RTVSPost2010PropOp41
 70
     1
102
RTVSPost2010Prop42
 90
       50
102
RTVSPost2010PropOp42
 70
     1
102
RTVSPost2010Prop43
 90
        3
102
RTVSPost2010PropOp43
 70
     1
102
RTVSPost2010Prop44ColorIndex
 90
        5
102
RTVSPost2010Prop44ColorRGB
 90
      255
102
RTVSPost2010PropOp44
 70
     1
102
RTVSPost2010Prop45
280
     0
102
RTVSPost2010PropOp45
 70
     1
102
RTVSPost2010Prop46
 90
       50
102
RTVSPost2010PropOp46
 70
     1
102
RTVSPost2010Prop47
 90
       50
102
RTVSPost2010PropOp47
 70
     1
102
RTVSPost2010Prop48
 90
       50
102
RTVSPost2010PropOp48
 70
     1
102
RTVSPost2010Prop49
280
     0
102
RTVSPost2010PropOp49
 70
     1
102
RTVSPost2010Prop50
 90
       50
102
RTVSPost2010PropOp50
 70
     1
102
RTVSPost2010Prop51ColorIndex
 90
      256
102
RTVSPost2010Prop51ColorRGB
 90
-16777216
102
RTVSPost2010PropOp51
 70
     0
102
RTVSPost2010Prop52
140
1.0
102
RTVSPost2010PropOp52
 70
     0
102
RTVSPost2010Prop53
 90
        2
102
RTVSPost2010PropOp53
 70
     1
102
RTVSPost2010Prop54
  1
strokes_ogs.tif
102
RTVSPost2010PropOp54
 70
     1
102
RTVSPost2010Prop55
280
     0
102
RTVSPost2010PropOp55
 70
     1
102
RTVSPost2010Prop56
140
1.0
102
RTVSPost2010PropOp56
 70
     1
102
RTVSPost2010Prop57
140
1.0
102
RTVSPost2010PropOp57
 70
     1
102
RTVSPropertyOp0
 70
     1
102
RTVSPropertyOp1
 70
     1
102
RTVSPropertyOp2
 70
     1
102
RTVSPropertyOp3
 70
     1
102
RTVSPropertyOp4
 70
     1
102
RTVSPropertyOp5
 70
     1
102
RTVSPropertyOp6
 70
     1
102
RTVSPropertyOp7
 70
     1
102
RTVSPropertyOp8
 70
     1
102
RTVSPropertyOp9
 70
     1
102
RTVSPropertyOp10
 70
     1
102
RTVSPropertyOp11
 70
     1
102
RTVSPropertyOp12
 70
     1
102
RTVSPropertyOp13
 70
     1
102
RTVSPropertyOp14
 70
     1
102
RTVSPropertyOp15
 70
     1
102
RTVSPropertyOp16
 70
     1
102
RTVSPropertyOp17
 70
     1
102
RTVSPropertyOp18
 70
     1
102
RTVSPropertyOp19
 70
     1
102
RTVSPropertyOp20
 70
     1
102
RTVSPropertyOp21
 70
     1
102
RTVSPropertyOp22
 70
     1
102
RTVSPropertyOp23
 70
     1
102
RTVSPropertyOp24
 70
     1
102
RTVSPropertyOp25
 70
     1
102
RTVSPropertyOp26
 70
     1
102
RTVSPropertyOp27
 70
     1
102
RTVSPropertyOp28
 70
     1
102
RTVSPropertyOp29
 70
     1
102
RTVSPropertyOp30
 70
     1
102
RTVSPropertyOp31
 70
     1
102
RTVSPropertyOp32
 70
     1
102
RTVSPropertyOp33
 70
     1
102
RTVSPropertyOp34
 70
     1
102
RTVSPropertyOp35
 70
     1
102
RTVSPropertyOp36
 70
     1
102
RTVSPropertyOp37
 70
     1
102
RTVSPropertyOp38
 70
     1
102
RTVSPropertyOp39
 70
     1
102
RTVSPropertyOp40
 70
     1
102
RTVSPropertyOp41
 70
     1
102
RTVSPropertyOp42
 70
     1
102
RTVSPropertyOp43
 70
     1
102
RTVSPropertyOp44
 70
     1
102
RTVSPropertyOp45
 70
     1
102
RTVSPropertyOp46
 70
     1
102
RTVSPropertyOp47
 70
     1
102
RTVSPropertyOp48
 70
     1
102
RTVSPropertyOp49
 70
     1
102
RTVSPropertyOp50
 70
     1
102
RTVSPropertyOp51
 70
     0
102
RTVSPropertyOp52
 70
     0
102
RTVSPropertyOp53
 70
     1
102
RTVSPropertyOp54
 70
     1
102
RTVSPropertyOp55
 70
     1
102
RTVSPropertyOp56
 70
     1
102
RTVSPropertyOp57
 70
     1
102
RTVSPropertyOp58
 70
     1
102
RTVSPropertyOp59
 70
     1
102
RTVSPropertyOp60
 70
     1
102
RTVSPropertyOp61
 70
     1
102
RTVSPropertyOp62
 70
     1
  0
ENDSEC
  0
EOF
