  0
SECTION
  2
HEADER
  9
$ACADVER
  1
AC1015
  9
$ACADMAINTVER
 70
    20
  9
$DWGCODEPAGE
  3
ANSI_932
  9
$INSBASE
 10
0.0
 20
0.0
 30
0.0
  9
$EXTMIN
 10
10.0
 20
9.999999999999998
 30
0.0
  9
$EXTMAX
 10
210.0959519999999
 20
190.1774829999999
 30
0.0
  9
$LIMMIN
 10
0.0
 20
0.0
  9
$LIMMAX
 10
396.0
 20
273.0
  9
$ORTHOMODE
 70
     1
  9
$REGENMODE
 70
     1
  9
$FILLMODE
 70
     1
  9
$QTEXTMODE
 70
     0
  9
$MIRRTEXT
 70
     1
  9
$LTSCALE
 40
20.0
  9
$ATTMODE
 70
     1
  9
$TEXTSIZE
 40
5.0
  9
$TRACEWID
 40
1.0
  9
$TEXTSTYLE
  7
STANDARD
  9
$CLAYER
  8
0
  9
$CELTYPE
  6
BYLAYER
  9
$CECOLOR
 62
   256
  9
$CELTSCALE
 40
1.0
  9
$DISPSILH
 70
     0
  9
$DIMSCALE
 40
1.0
  9
$DIMASZ
 40
2.5
  9
$DIMEXO
 40
1.0
  9
$DIMDLI
 40
10.0
  9
$DIMRND
 40
0.0
  9
$DIMDLE
 40
0.0
  9
$DIMEXE
 40
1.0
  9
$DIMTP
 40
0.0
  9
$DIMTM
 40
0.0
  9
$DIMTXT
 40
3.2
  9
$DIMCEN
 40
0.0
  9
$DIMTSZ
 40
0.0
  9
$DIMTOL
 70
     0
  9
$DIMLIM
 70
     0
  9
$DIMTIH
 70
     0
  9
$DIMTOH
 70
     0
  9
$DIMSE1
 70
     0
  9
$DIMSE2
 70
     0
  9
$DIMTAD
 70
     3
  9
$DIMZIN
 70
     8
  9
$DIMBLK
  1

  9
$DIMASO
 70
     1
  9
$DIMSHO
 70
     1
  9
$DIMPOST
  1

  9
$DIMAPOST
  1

  9
$DIMALT
 70
     0
  9
$DIMALTD
 70
     2
  9
$DIMALTF
 40
25.4
  9
$DIMLFAC
 40
1.0
  9
$DIMTOFL
 70
     1
  9
$DIMTVP
 40
0.0
  9
$DIMTIX
 70
     0
  9
$DIMSOXD
 70
     0
  9
$DIMSAH
 70
     1
  9
$DIMBLK1
  1

  9
$DIMBLK2
  1

  9
$DIMSTYLE
  2
STANDARD
  9
$DIMCLRD
 70
     0
  9
$DIMCLRE
 70
     0
  9
$DIMCLRT
 70
     0
  9
$DIMTFAC
 40
1.0
  9
$DIMGAP
 40
1.0
  9
$DIMJUST
 70
     0
  9
$DIMSD1
 70
     0
  9
$DIMSD2
 70
     0
  9
$DIMTOLJ
 70
     1
  9
$DIMTZIN
 70
     0
  9
$DIMALTZ
 70
     0
  9
$DIMALTTZ
 70
     0
  9
$DIMUPT
 70
     0
  9
$DIMDEC
 70
     4
  9
$DIMTDEC
 70
     4
  9
$DIMALTU
 70
     2
  9
$DIMALTTD
 70
     2
  9
$DIMTXSTY
  7
STANDARD
  9
$DIMAUNIT
 70
     0
  9
$DIMADEC
 70
     0
  9
$DIMALTRND
 40
0.0
  9
$DIMAZIN
 70
     0
  9
$DIMDSEP
 70
    46
  9
$DIMATFIT
 70
     3
  9
$DIMFRAC
 70
     0
  9
$DIMLDRBLK
  1

  9
$DIMLUNIT
 70
     2
  9
$DIMLWD
 70
    -2
  9
$DIMLWE
 70
    -2
  9
$DIMTMOVE
 70
     0
  9
$LUNITS
 70
     2
  9
$LUPREC
 70
     4
  9
$SKETCHINC
 40
1.0
  9
$FILLETRAD
 40
1.0
  9
$AUNITS
 70
     0
  9
$AUPREC
 70
     2
  9
$MENU
  1
.
  9
$ELEVATION
 40
0.0
  9
$PELEVATION
 40
0.0
  9
$THICKNESS
 40
0.0
  9
$LIMCHECK
 70
     0
  9
$CHAMFERA
 40
10.0
  9
$CHAMFERB
 40
10.0
  9
$CHAMFERC
 40
0.0
  9
$CHAMFERD
 40
0.0
  9
$SKPOLY
 70
     0
  9
$TDCREATE
 40
2451296.793838658
  9
$TDUCREATE
 40
2451296.418838658
  9
$TDUPDATE
 40
2457192.658242118
  9
$TDUUPDATE
 40
2457192.283242118
  9
$TDINDWG
 40
0.0000111806
  9
$TDUSRTIMER
 40
0.0000108681
  9
$USRTIMER
 70
     1
  9
$ANGBASE
 50
0.0
  9
$ANGDIR
 70
     0
  9
$PDMODE
 70
     0
  9
$PDSIZE
 40
0.0
  9
$PLINEWID
 40
0.0
  9
$SPLFRAME
 70
     0
  9
$SPLINETYPE
 70
     6
  9
$SPLINESEGS
 70
     8
  9
$HANDSEED
  5
CAE9
  9
$SURFTAB1
 70
     6
  9
$SURFTAB2
 70
     6
  9
$SURFTYPE
 70
     6
  9
$SURFU
 70
     6
  9
$SURFV
 70
     6
  9
$UCSBASE
  2

  9
$UCSNAME
  2

  9
$UCSORG
 10
0.0
 20
0.0
 30
0.0
  9
$UCSXDIR
 10
1.0
 20
0.0
 30
0.0
  9
$UCSYDIR
 10
0.0
 20
1.0
 30
0.0
  9
$UCSORTHOREF
  2

  9
$UCSORTHOVIEW
 70
     0
  9
$UCSORGTOP
 10
0.0
 20
0.0
 30
0.0
  9
$UCSORGBOTTOM
 10
0.0
 20
0.0
 30
0.0
  9
$UCSORGLEFT
 10
0.0
 20
0.0
 30
0.0
  9
$UCSORGRIGHT
 10
0.0
 20
0.0
 30
0.0
  9
$UCSORGFRONT
 10
0.0
 20
0.0
 30
0.0
  9
$UCSORGBACK
 10
0.0
 20
0.0
 30
0.0
  9
$PUCSBASE
  2

  9
$PUCSNAME
  2

  9
$PUCSORG
 10
0.0
 20
0.0
 30
0.0
  9
$PUCSXDIR
 10
1.0
 20
0.0
 30
0.0
  9
$PUCSYDIR
 10
0.0
 20
1.0
 30
0.0
  9
$PUCSORTHOREF
  2

  9
$PUCSORTHOVIEW
 70
     0
  9
$PUCSORGTOP
 10
0.0
 20
0.0
 30
0.0
  9
$PUCSORGBOTTOM
 10
0.0
 20
0.0
 30
0.0
  9
$PUCSORGLEFT
 10
0.0
 20
0.0
 30
0.0
  9
$PUCSORGRIGHT
 10
0.0
 20
0.0
 30
0.0
  9
$PUCSORGFRONT
 10
0.0
 20
0.0
 30
0.0
  9
$PUCSORGBACK
 10
0.0
 20
0.0
 30
0.0
  9
$USERI1
 70
     0
  9
$USERI2
 70
     0
  9
$USERI3
 70
     0
  9
$USERI4
 70
     0
  9
$USERI5
 70
     0
  9
$USERR1
 40
0.0
  9
$USERR2
 40
0.0
  9
$USERR3
 40
0.0
  9
$USERR4
 40
0.0
  9
$USERR5
 40
0.0
  9
$WORLDVIEW
 70
     1
  9
$SHADEDGE
 70
     3
  9
$SHADEDIF
 70
    70
  9
$TILEMODE
 70
     1
  9
$MAXACTVP
 70
    16
  9
$PINSBASE
 10
0.0
 20
0.0
 30
0.0
  9
$PLIMCHECK
 70
     0
  9
$PEXTMIN
 10
1.000000000000000E+20
 20
1.000000000000000E+20
 30
1.000000000000000E+20
  9
$PEXTMAX
 10
-1.000000000000000E+20
 20
-1.000000000000000E+20
 30
-1.000000000000000E+20
  9
$PLIMMIN
 10
0.0
 20
0.0
  9
$PLIMMAX
 10
420.0
 20
297.0
  9
$UNITMODE
 70
     0
  9
$VISRETAIN
 70
     0
  9
$PLINEGEN
 70
     0
  9
$PSLTSCALE
 70
     0
  9
$TREEDEPTH
 70
  3020
  9
$CMLSTYLE
  2
STANDARD
  9
$CMLJUST
 70
     0
  9
$CMLSCALE
 40
1.0
  9
$PROXYGRAPHICS
 70
     1
  9
$MEASUREMENT
 70
     0
  9
$CELWEIGHT
370
    -1
  9
$ENDCAPS
280
     0
  9
$JOINSTYLE
280
     0
  9
$LWDISPLAY
290
     0
  9
$INSUNITS
 70
     0
  9
$HYPERLINKBASE
  1

  9
$STYLESHEET
  1

  9
$XEDIT
290
     1
  9
$CEPSNTYPE
380
     0
  9
$PSTYLEMODE
290
     1
  9
$FINGERPRINTGUID
  2
{327E6EA8-849C-410A-A710-946D24719791}
  9
$VERSIONGUID
  2
{8E8FBE19-738D-40FC-976F-CA238BAFC178}
  9
$EXTNAMES
290
     1
  9
$PSVPSCALE
 40
0.0
  9
$OLESTARTUP
290
     0
  0
ENDSEC
  0
SECTION
  2
CLASSES
  0
CLASS
  1
ACDBDICTIONARYWDFLT
  2
AcDbDictionaryWithDefault
  3
ObjectDBX Classes
 90
        0
280
     0
281
     0
  0
CLASS
  1
ACDBPLACEHOLDER
  2
AcDbPlaceHolder
  3
ObjectDBX Classes
 90
        0
280
     0
281
     0
  0
CLASS
  1
LAYOUT
  2
AcDbLayout
  3
ObjectDBX Classes
 90
        0
280
     0
281
     0
  0
CLASS
  1
DICTIONARYVAR
  2
AcDbDictionaryVar
  3
ObjectDBX Classes
 90
        0
280
     0
281
     0
  0
CLASS
  1
MATERIAL
  2
AcDbMaterial
  3
ObjectDBX Classes
 90
     1153
280
     0
281
     0
  0
CLASS
  1
VISUALSTYLE
  2
AcDbVisualStyle
  3
ObjectDBX Classes
 90
     4095
280
     0
281
     0
  0
CLASS
  1
TABLESTYLE
  2
AcDbTableStyle
  3
ObjectDBX Classes
 90
     4095
280
     0
281
     0
  0
CLASS
  1
SCALE
  2
AcDbScale
  3
ObjectDBX Classes
 90
     1153
280
     0
281
     0
  0
CLASS
  1
MLEADERSTYLE
  2
AcDbMLeaderStyle
  3
ACDB_MLEADERSTYLE_CLASS
 90
     4095
280
     0
281
     0
  0
CLASS
  1
ACDBSECTIONVIEWSTYLE
  2
AcDbSectionViewStyle
  3
ObjectDBX Classes
 90
     1025
280
     0
281
     0
  0
CLASS
  1
ACDBDETAILVIEWSTYLE
  2
AcDbDetailViewStyle
  3
ObjectDBX Classes
 90
     1025
280
     0
281
     0
  0
CLASS
  1
CELLSTYLEMAP
  2
AcDbCellStyleMap
  3
ObjectDBX Classes
 90
     1152
280
     0
281
     0
  0
ENDSEC
  0
SECTION
  2
TABLES
  0
TABLE
  2
VPORT
  5
C82D
330
0
100
AcDbSymbolTable
 70
     1
  0
VPORT
  5
CA32
330
C82D
100
AcDbSymbolTableRecord
100
AcDbViewportTableRecord
  2
*ACTIVE
 70
     0
 10
0.0
 20
0.0
 11
1.0
 21
1.0
 12
164.632841367791
 22
100.0922247143371
 13
0.0
 23
0.0
 14
10.0
 24
10.0
 15
10.0
 25
10.0
 16
0.0
 26
0.0
 36
1.0
 17
0.0
 27
0.0
 37
0.0
 40
182.2214926447318
 41
1.899603698811096
 42
50.0
 43
0.0
 44
0.0
 50
0.0
 51
0.0
 71
     0
 72
   100
 73
     1
 74
     0
 75
     0
 76
     0
 77
     0
 78
     0
281
     0
 65
     1
110
0.0
120
0.0
130
0.0
111
1.0
121
0.0
131
0.0
112
0.0
122
1.0
132
0.0
 79
     0
146
0.0
1001
ACAD_NAV_VCDISPLAY
1070
     3
  0
ENDTAB
  0
TABLE
  2
LTYPE
  5
C82A
330
0
100
AcDbSymbolTable
 70
     4
  0
LTYPE
  5
C838
330
C82A
100
AcDbSymbolTableRecord
100
AcDbLinetypeTableRecord
  2
BYBLOCK
 70
     0
  3

 72
    65
 73
     0
 40
0.0
  0
LTYPE
  5
C839
330
C82A
100
AcDbSymbolTableRecord
100
AcDbLinetypeTableRecord
  2
BYLAYER
 70
     0
  3

 72
    65
 73
     0
 40
0.0
  0
LTYPE
  5
C83A
330
C82A
100
AcDbSymbolTableRecord
100
AcDbLinetypeTableRecord
  2
CONTINUOUS
 70
     0
  3
Solid line
 72
    65
 73
     0
 40
0.0
  0
LTYPE
  5
C848
330
C82A
100
AcDbSymbolTableRecord
100
AcDbLinetypeTableRecord
  2
DASHED
 70
     0
  3
__ __ __ __ __ __ __ __ __ __ __ __ __ __ __ __
 72
    65
 73
     2
 40
0.75
 49
0.5
 74
     0
 49
-0.25
 74
     0
  0
LTYPE
  5
C849
330
C82A
100
AcDbSymbolTableRecord
100
AcDbLinetypeTableRecord
  2
CENTER
 70
     0
  3
____ _ ____ _ ____ _ ____ _ ____ _ ____ _ ____ 
 72
    65
 73
     4
 40
2.0
 49
1.25
 74
     0
 49
-0.25
 74
     0
 49
0.25
 74
     0
 49
-0.25
 74
     0
  0
LTYPE
  5
C84A
330
C82A
100
AcDbSymbolTableRecord
100
AcDbLinetypeTableRecord
  2
PHANTOM
 70
     0
  3
______  __  __  ______  __  __  ______  __  __ 
 72
    65
 73
     6
 40
2.5
 49
1.25
 74
     0
 49
-0.25
 74
     0
 49
0.25
 74
     0
 49
-0.25
 74
     0
 49
0.25
 74
     0
 49
-0.25
 74
     0
  0
ENDTAB
  0
TABLE
  2
LAYER
  5
C827
330
0
100
AcDbSymbolTable
 70
     8
  0
LAYER
  5
C835
102
{ACAD_XDICTIONARY
360
CA8D
102
}
330
C827
100
AcDbSymbolTableRecord
100
AcDbLayerTableRecord
  2
0
 70
     0
 62
     7
  6
CONTINUOUS
370
    -3
390
CA3B
  0
LAYER
  5
C84B
102
{ACAD_XDICTIONARY
360
CA8F
102
}
330
C827
100
AcDbSymbolTableRecord
100
AcDbLayerTableRecord
  2
4
 70
     0
 62
     1
  6
CENTER
370
    -3
390
CA3B
  0
LAYER
  5
C84C
102
{ACAD_XDICTIONARY
360
CA91
102
}
330
C827
100
AcDbSymbolTableRecord
100
AcDbLayerTableRecord
  2
5
 70
     0
 62
     6
  6
PHANTOM
370
    -3
390
CA3B
  0
LAYER
  5
C84D
102
{ACAD_XDICTIONARY
360
CA93
102
}
330
C827
100
AcDbSymbolTableRecord
100
AcDbLayerTableRecord
  2
1
 70
     0
 62
     7
  6
CONTINUOUS
370
    -3
390
CA3B
  0
LAYER
  5
C84E
102
{ACAD_XDICTIONARY
360
CA95
102
}
330
C827
100
AcDbSymbolTableRecord
100
AcDbLayerTableRecord
  2
2
 70
     0
 62
     4
  6
CONTINUOUS
370
    -3
390
CA3B
  0
LAYER
  5
C84F
102
{ACAD_XDICTIONARY
360
CA97
102
}
330
C827
100
AcDbSymbolTableRecord
100
AcDbLayerTableRecord
  2
3
 70
     0
 62
     2
  6
DASHED
370
    -3
390
CA3B
  0
LAYER
  5
C850
102
{ACAD_XDICTIONARY
360
CA99
102
}
330
C827
100
AcDbSymbolTableRecord
100
AcDbLayerTableRecord
  2
6
 70
     0
 62
     5
  6
CONTINUOUS
370
    -3
390
CA3B
  0
LAYER
  5
C851
102
{ACAD_XDICTIONARY
360
CA9B
102
}
330
C827
100
AcDbSymbolTableRecord
100
AcDbLayerTableRecord
  2
7
 70
     0
 62
     3
  6
CONTINUOUS
370
    -3
390
CA3B
  0
ENDTAB
  0
TABLE
  2
STYLE
  5
C828
330
0
100
AcDbSymbolTable
 70
     1
  0
STYLE
  5
C836
330
C828
100
AcDbSymbolTableRecord
100
AcDbTextStyleTableRecord
  2
STANDARD
 70
     0
 40
0.0
 41
1.0
 50
0.0
 71
     0
 42
5.0
  3
txt
  4

  0
ENDTAB
  0
TABLE
  2
VIEW
  5
C82B
330
0
100
AcDbSymbolTable
 70
     1
  0
VIEW
  5
C852
330
C82B
100
AcDbSymbolTableRecord
100
AcDbViewTableRecord
  2
7
 70
     0
 40
214.783049
 10
206.8955359999999
 20
107.3915249999999
 41
413.7910719999998
 11
0.0
 21
0.0
 31
1.0
 12
0.0
 22
0.0
 32
0.0
 42
50.0
 43
0.0
 44
0.0
 50
0.0
 71
     0
281
     0
 72
     0
  0
ENDTAB
  0
TABLE
  2
UCS
  5
C82C
330
0
100
AcDbSymbolTable
 70
     0
  0
ENDTAB
  0
TABLE
  2
APPID
  5
C82E
330
0
100
AcDbSymbolTable
 70
     3
  0
APPID
  5
C837
330
C82E
100
AcDbSymbolTableRecord
100
AcDbRegAppTableRecord
  2
ACAD
 70
     0
  0
APPID
  5
CAA7
330
C82E
100
AcDbSymbolTableRecord
100
AcDbRegAppTableRecord
  2
ACAD_NAV_VCDISPLAY
 70
     0
  0
APPID
  5
CAE0
330
C82E
100
AcDbSymbolTableRecord
100
AcDbRegAppTableRecord
  2
ACAD_MLEADERVER
 70
     0
  0
ENDTAB
  0
TABLE
  2
DIMSTYLE
  5
C82F
330
0
100
AcDbSymbolTable
 70
     1
100
AcDbDimStyleTable
 71
     0
  0
DIMSTYLE
105
C854
330
C82F
100
AcDbSymbolTableRecord
100
AcDbDimStyleTableRecord
  2
STANDARD
 70
     0
 41
2.5
 42
1.0
 43
10.0
 44
1.0
 73
     0
 74
     0
 77
     3
 78
     8
140
3.2
141
0.0
147
1.0
172
     1
173
     1
284
     8
285
     8
286
     8
340
C836
  0
ENDTAB
  0
TABLE
  2
BLOCK_RECORD
  5
C826
330
0
100
AcDbSymbolTable
 70
     0
  0
BLOCK_RECORD
  5
C843
102
{ACAD_XDICTIONARY
360
CA35
102
}
330
C826
100
AcDbSymbolTableRecord
100
AcDbBlockTableRecord
  2
*MODEL_SPACE
340
CA89
  0
BLOCK_RECORD
  5
C83F
102
{ACAD_XDICTIONARY
360
CA33
102
}
330
C826
100
AcDbSymbolTableRecord
100
AcDbBlockTableRecord
  2
*PAPER_SPACE
340
CA8A
  0
ENDTAB
  0
ENDSEC
  0
SECTION
  2
BLOCKS
  0
BLOCK
  5
C844
330
C843
100
AcDbEntity
  8
0
100
AcDbBlockBegin
  2
*MODEL_SPACE
 70
     0
 10
0.0
 20
0.0
 30
0.0
  3
*MODEL_SPACE
  1

  0
ENDBLK
  5
C845
330
C843
100
AcDbEntity
  8
0
100
AcDbBlockEnd
  0
BLOCK
  5
C840
330
C83F
100
AcDbEntity
 67
     1
  8
0
100
AcDbBlockBegin
  2
*PAPER_SPACE
 70
     0
 10
0.0
 20
0.0
 30
0.0
  3
*PAPER_SPACE
  1

  0
ENDBLK
  5
C841
330
C83F
100
AcDbEntity
 67
     1
  8
0
100
AcDbBlockEnd
  0
ENDSEC
  0
SECTION
  2
ENTITIES
  0
TEXT
  5
C85C
330
C843
100
AcDbEntity
  8
7
  6
Continuous
100
AcDbText
 10
10.0
 20
18.0
 30
0.0
 40
3.0
  1
TYPE No.TM-144SS-25
100
AcDbText
  0
TEXT
  5
C85D
330
C843
100
AcDbEntity
  8
7
  6
Continuous
100
AcDbText
 10
10.0
 20
26.0
 30
0.0
 40
3.0
  1
CODE No.5732
100
AcDbText
  0
TEXT
  5
C85E
330
C843
100
AcDbEntity
  8
1
  6
Continuous
100
AcDbText
 10
10.0
 20
10.0
 30
0.0
 40
1.399999999999999
  1
LAYER
100
AcDbText
  0
TEXT
  5
C85F
330
C843
100
AcDbEntity
  8
1
  6
Continuous
100
AcDbText
 10
17.97951099999998
 20
10.04873699999998
 30
0.0
 40
1.399999999999999
  1
1
100
AcDbText
  0
TEXT
  5
C860
330
C843
100
AcDbEntity
  8
7
  6
Continuous
100
AcDbText
 10
29.97951099999999
 20
10.04873699999998
 30
0.0
 40
1.399999999999999
  1
7
100
AcDbText
  0
TEXT
  5
C861
330
C843
100
AcDbEntity
  8
4
  6
CENTER
100
AcDbText
 10
23.97951099999999
 20
10.04873699999998
 30
0.0
 40
1.399999999999999
  1
4
100
AcDbText
  0
TEXT
  5
C862
330
C843
100
AcDbEntity
  8
3
  6
DASHED
100
AcDbText
 10
21.979511
 20
10.04873699999998
 30
0.0
 40
1.399999999999999
  1
3
100
AcDbText
  0
TEXT
  5
C863
330
C843
100
AcDbEntity
  8
2
  6
Continuous
100
AcDbText
 10
19.97951099999999
 20
10.04873699999998
 30
0.0
 40
1.399999999999999
  1
2
100
AcDbText
  0
TEXT
  5
C864
330
C843
100
AcDbEntity
  8
6
  6
Continuous
100
AcDbText
 10
27.979511
 20
10.04873699999998
 30
0.0
 40
1.399999999999999
  1
6
100
AcDbText
  0
TEXT
  5
C865
330
C843
100
AcDbEntity
  8
5
  6
PHANTOM
100
AcDbText
 10
25.97951099999999
 20
10.04873699999998
 30
0.0
 40
1.399999999999999
  1
5
100
AcDbText
  0
LINE
  5
C866
330
C843
100
AcDbEntity
  8
1
  6
Continuous
100
AcDbLine
 10
108.3459519999999
 20
119.677083
 30
0.0
 11
118.845952
 21
119.677083
 31
0.0
  0
LINE
  5
C867
330
C843
100
AcDbEntity
  8
1
  6
Continuous
100
AcDbLine
 10
130.845952
 20
120.808083
 30
0.0
 11
130.845952
 21
124.627083
 31
0.0
  0
LINE
  5
C868
330
C843
100
AcDbEntity
  8
1
  6
Continuous
100
AcDbLine
 10
126.8459519999999
 20
120.177083
 30
0.0
 11
126.8459519999999
 21
130.677083
 31
0.0
  0
LINE
  5
C869
330
C843
100
AcDbEntity
  8
1
  6
Continuous
100
AcDbLine
 10
122.8459519999999
 20
120.677083
 30
0.0
 11
122.8459519999999
 21
130.177083
 31
0.0
  0
LINE
  5
C86A
330
C843
100
AcDbEntity
  8
1
  6
Continuous
100
AcDbLine
 10
104.345952
 20
122.677083
 30
0.0
 11
104.345952
 21
130.177083
 31
0.0
  0
LINE
  5
C86B
330
C843
100
AcDbEntity
  8
1
  6
Continuous
100
AcDbLine
 10
102.345952
 20
122.675083
 30
0.0
 11
102.345952
 21
128.675083
 31
0.0
  0
LINE
  5
C86C
330
C843
100
AcDbEntity
  8
4
  6
CENTER
100
AcDbLine
 10
113.5959519999999
 20
91.5
 30
0.0
 11
113.5959519999999
 21
134.677083
 31
0.0
  0
LINE
  5
C86D
330
C843
100
AcDbEntity
  8
1
  6
Continuous
100
AcDbLine
 10
105.8459519999999
 20
131.677083
 30
0.0
 11
121.345952
 21
131.677083
 31
0.0
  0
LINE
  5
C86E
330
C843
100
AcDbEntity
  8
1
  6
Continuous
100
AcDbLine
 10
108.0959519999999
 20
171.677483
 30
0.0
 11
119.095952
 21
171.677483
 31
0.0
  0
LINE
  5
C86F
330
C843
100
AcDbEntity
  8
1
  6
Continuous
100
AcDbLine
 10
108.0959519999999
 20
187.1774829999999
 30
0.0
 11
119.095952
 21
187.1774829999999
 31
0.0
  0
LINE
  5
C870
330
C843
100
AcDbEntity
  8
4
  6
CENTER
100
AcDbLine
 10
95.495952
 20
179.4274829999999
 30
0.0
 11
135.845952
 21
179.4274829999999
 31
0.0
  0
LINE
  5
C871
330
C843
100
AcDbEntity
  8
4
  6
CENTER
100
AcDbLine
 10
198.595952
 20
91.5
 30
0.0
 11
198.595952
 21
134.6771209999998
 31
0.0
  0
LINE
  5
C872
330
C843
100
AcDbEntity
  8
1
  6
Continuous
100
AcDbLine
 10
130.845952
 20
175.4274829999999
 30
0.0
 11
130.845952
 21
183.427483
 31
0.0
  0
LINE
  5
C873
330
C843
100
AcDbEntity
  8
1
  6
Continuous
100
AcDbLine
 10
126.8459519999999
 20
174.1774829999999
 30
0.0
 11
126.8459519999999
 21
184.677483
 31
0.0
  0
LINE
  5
C874
330
C843
100
AcDbEntity
  8
1
  6
Continuous
100
AcDbLine
 10
122.8459519999999
 20
174.1774829999999
 30
0.0
 11
122.8459519999999
 21
184.677483
 31
0.0
  0
LINE
  5
C875
330
C843
100
AcDbEntity
  8
4
  6
CENTER
100
AcDbLine
 10
113.5959519999999
 20
168.677483
 30
0.0
 11
113.5959519999999
 21
190.1774829999999
 31
0.0
  0
LINE
  5
C876
330
C843
100
AcDbEntity
  8
1
  6
Continuous
100
AcDbLine
 10
104.345952
 20
174.1774829999999
 30
0.0
 11
104.345952
 21
184.677483
 31
0.0
  0
LINE
  5
C877
330
C843
100
AcDbEntity
  8
1
  6
Continuous
100
AcDbLine
 10
102.345952
 20
176.4274829999999
 30
0.0
 11
102.345952
 21
182.427483
 31
0.0
  0
LINE
  5
C878
330
C843
100
AcDbEntity
  8
1
  6
Continuous
100
AcDbLine
 10
102.345952
 20
122.677083
 30
0.0
 11
108.0959519999999
 21
122.677083
 31
0.0
  0
LINE
  5
C879
330
C843
100
AcDbEntity
  8
1
  6
Continuous
100
AcDbLine
 10
102.345952
 20
128.677083
 30
0.0
 11
104.345952
 21
128.677083
 31
0.0
  0
ARC
  5
C87A
330
C843
100
AcDbEntity
  8
1
  6
Continuous
100
AcDbCircle
 10
105.8459519999999
 20
130.177083
 30
0.0
 40
1.5
100
AcDbArc
 50
90.0
 51
180.0
  0
ARC
  5
C87B
330
C843
100
AcDbEntity
  8
1
  6
Continuous
100
AcDbCircle
 10
121.345952
 20
130.177083
 30
0.0
 40
1.5
100
AcDbArc
 50
0.0
 51
90.0
  0
ARC
  5
C87C
330
C843
100
AcDbEntity
  8
1
  6
Continuous
100
AcDbCircle
 10
113.5959519999999
 20
119.482639
 30
0.0
 40
7.694443999999997
100
AcDbArc
 50
24.52954699999999
 51
155.4704529999999
  0
LINE
  5
C87D
330
C843
100
AcDbEntity
  8
1
  6
Continuous
100
AcDbLine
 10
119.095952
 20
122.677083
 30
0.0
 11
118.845952
 21
119.677083
 31
0.0
  0
LINE
  5
C87E
330
C843
100
AcDbEntity
  8
1
  6
Continuous
100
AcDbLine
 10
108.0959519999999
 20
122.677083
 30
0.0
 11
108.3459519999999
 21
119.677083
 31
0.0
  0
ARC
  5
C87F
330
C843
100
AcDbEntity
  8
1
  6
Continuous
100
AcDbCircle
 10
113.5959519999999
 20
118.675297
 30
0.0
 40
6.801785999999997
100
AcDbArc
 50
36.039539
 51
143.960461
  0
LINE
  5
C880
330
C843
100
AcDbEntity
  8
1
  6
Continuous
100
AcDbLine
 10
119.095952
 20
122.677083
 30
0.0
 11
122.8459519999999
 21
122.677083
 31
0.0
  0
LINE
  5
C881
330
C843
100
AcDbEntity
  8
1
  6
Continuous
100
AcDbLine
 10
122.8459519999999
 20
130.177083
 30
0.0
 11
126.8459519999999
 21
130.677083
 31
0.0
  0
LINE
  5
C882
330
C843
100
AcDbEntity
  8
1
  6
Continuous
100
AcDbLine
 10
122.8459519999999
 20
120.677083
 30
0.0
 11
126.8459519999999
 21
120.177083
 31
0.0
  0
LINE
  5
C883
330
C843
100
AcDbEntity
  8
4
  6
CENTER
100
AcDbLine
 10
97.34595200000001
 20
125.427083
 30
0.0
 11
133.845952
 21
125.427083
 31
0.0
  0
LINE
  5
C884
330
C843
100
AcDbEntity
  8
1
  6
Continuous
100
AcDbLine
 10
126.8459519999999
 20
130.046083
 30
0.0
 11
130.845952
 21
130.046083
 31
0.0
  0
LINE
  5
C885
330
C843
100
AcDbEntity
  8
1
  6
Continuous
100
AcDbLine
 10
126.8459519999999
 20
120.808083
 30
0.0
 11
130.845952
 21
120.808083
 31
0.0
  0
LINE
  5
C886
330
C843
100
AcDbEntity
  8
1
  6
Continuous
100
AcDbLine
 10
127.8459519999999
 20
126.227083
 30
0.0
 11
130.845952
 21
126.227083
 31
0.0
  0
LINE
  5
C887
330
C843
100
AcDbEntity
  8
1
  6
Continuous
100
AcDbLine
 10
127.8459519999999
 20
124.627083
 30
0.0
 11
130.845952
 21
124.627083
 31
0.0
  0
LINE
  5
C888
330
C843
100
AcDbEntity
  8
1
  6
Continuous
100
AcDbLine
 10
127.8459519999999
 20
124.627083
 30
0.0
 11
127.8459519999999
 21
126.227083
 31
0.0
  0
LINE
  5
C889
330
C843
100
AcDbEntity
  8
1
  6
Continuous
100
AcDbLine
 10
130.845952
 20
126.227083
 30
0.0
 11
130.845952
 21
130.046083
 31
0.0
  0
LINE
  5
C88A
330
C843
100
AcDbEntity
  8
1
  6
Continuous
100
AcDbLine
 10
126.8459519999999
 20
127.736583
 30
0.0
 11
129.345952
 21
127.736583
 31
0.0
  0
LINE
  5
C88B
330
C843
100
AcDbEntity
  8
1
  6
Continuous
100
AcDbLine
 10
126.8459519999999
 20
123.117583
 30
0.0
 11
129.345952
 21
123.117583
 31
0.0
  0
LINE
  5
C88C
330
C843
100
AcDbEntity
  8
1
  6
Continuous
100
AcDbLine
 10
129.345952
 20
127.736583
 30
0.0
 11
130.845952
 21
127.136583
 31
0.0
  0
LINE
  5
C88D
330
C843
100
AcDbEntity
  8
1
  6
Continuous
100
AcDbLine
 10
129.345952
 20
127.736583
 30
0.0
 11
130.845952
 21
128.3365829999999
 31
0.0
  0
LINE
  5
C88E
330
C843
100
AcDbEntity
  8
1
  6
Continuous
100
AcDbLine
 10
129.345952
 20
123.117583
 30
0.0
 11
130.845952
 21
123.7175829999999
 31
0.0
  0
LINE
  5
C88F
330
C843
100
AcDbEntity
  8
1
  6
Continuous
100
AcDbLine
 10
129.345952
 20
123.117583
 30
0.0
 11
130.845952
 21
122.5175829999999
 31
0.0
  0
LINE
  5
C890
330
C843
100
AcDbEntity
  8
4
  6
CENTER
100
AcDbLine
 10
187.845952
 20
125.4271209999999
 30
0.0
 11
209.345952
 21
125.4271209999999
 31
0.0
  0
ARC
  5
C891
330
C843
100
AcDbEntity
  8
1
  6
Continuous
100
AcDbCircle
 10
198.595952
 20
125.4271209999999
 30
0.0
 40
3.0
100
AcDbArc
 50
15.46601
 51
164.5339899999999
  0
LINE
  5
C892
330
C843
100
AcDbEntity
  8
1
  6
Continuous
100
AcDbLine
 10
194.595952
 20
126.2271209999999
 30
0.0
 11
202.595952
 21
126.2271209999999
 31
0.0
  0
LINE
  5
C893
330
C843
100
AcDbEntity
  8
1
  6
Continuous
100
AcDbLine
 10
194.595952
 20
124.6271209999999
 30
0.0
 11
202.595952
 21
124.6271209999999
 31
0.0
  0
ARC
  5
C894
330
C843
100
AcDbEntity
  8
1
  6
Continuous
100
AcDbCircle
 10
198.595952
 20
125.4271209999999
 30
0.0
 40
3.0
100
AcDbArc
 50
195.4660099999999
 51
344.53399
  0
CIRCLE
  5
C895
330
C843
100
AcDbEntity
  8
1
  6
Continuous
100
AcDbCircle
 10
198.595952
 20
125.4271209999999
 30
0.0
 40
5.25
  0
LINE
  5
C896
330
C843
100
AcDbEntity
  8
1
  6
Continuous
100
AcDbLine
 10
204.845952
 20
122.677121
 30
0.0
 11
204.845952
 21
126.177121
 31
0.0
  0
LINE
  5
C897
330
C843
100
AcDbEntity
  8
1
  6
Continuous
100
AcDbLine
 10
192.345952
 20
122.677121
 30
0.0
 11
192.345952
 21
126.177121
 31
0.0
  0
LINE
  5
C898
330
C843
100
AcDbEntity
  8
1
  6
Continuous
100
AcDbLine
 10
191.9909669999999
 20
122.677121
 30
0.0
 11
194.123816
 21
122.677121
 31
0.0
  0
ARC
  5
C899
330
C843
100
AcDbEntity
  8
1
  6
Continuous
100
AcDbCircle
 10
198.595952
 20
125.375985
 30
0.0
 40
6.301135999999998
100
AcDbArc
 50
7.304446000000001
 51
172.6955539999999
  0
LINE
  5
C89A
330
C843
100
AcDbEntity
  8
1
  6
Continuous
100
AcDbLine
 10
203.0680869999999
 20
122.677121
 30
0.0
 11
205.1872469999999
 21
122.677121
 31
0.0
  0
ARC
  5
C89B
330
C843
100
AcDbEntity
  8
1
  6
Continuous
100
AcDbCircle
 10
192.345952
 20
121.1771209999999
 30
0.0
 40
1.5
100
AcDbArc
 50
180.0
 51
260.405932
  0
ARC
  5
C89C
330
C843
100
AcDbEntity
  8
1
  6
Continuous
100
AcDbCircle
 10
204.845952
 20
121.1771209999999
 30
0.0
 40
1.5
100
AcDbArc
 50
279.594068
 51
355.7894899999998
  0
LINE
  5
C89D
330
C843
100
AcDbEntity
  8
1
  6
Continuous
100
AcDbLine
 10
126.8459519999999
 20
183.427483
 30
0.0
 11
130.845952
 21
183.427483
 31
0.0
  0
LINE
  5
C89E
330
C843
100
AcDbEntity
  8
1
  6
Continuous
100
AcDbLine
 10
126.8459519999999
 20
175.4274829999999
 30
0.0
 11
130.845952
 21
175.4274829999999
 31
0.0
  0
LINE
  5
C89F
330
C843
100
AcDbEntity
  8
1
  6
Continuous
100
AcDbLine
 10
126.8459519999999
 20
184.677483
 30
0.0
 11
122.8459519999999
 21
184.177483
 31
0.0
  0
LINE
  5
C8A0
330
C843
100
AcDbEntity
  8
1
  6
Continuous
100
AcDbLine
 10
126.8459519999999
 20
174.1774829999999
 30
0.0
 11
122.8459519999999
 21
174.6774829999999
 31
0.0
  0
LINE
  5
C8A1
330
C843
100
AcDbEntity
  8
1
  6
Continuous
100
AcDbLine
 10
105.345952
 20
185.6774829999999
 30
0.0
 11
106.595952
 21
185.6774829999999
 31
0.0
  0
LINE
  5
C8A2
330
C843
100
AcDbEntity
  8
1
  6
Continuous
100
AcDbLine
 10
105.345952
 20
173.1774829999999
 30
0.0
 11
106.595952
 21
173.1774829999999
 31
0.0
  0
LINE
  5
C8A3
330
C843
100
AcDbEntity
  8
1
  6
Continuous
100
AcDbLine
 10
102.345952
 20
182.427483
 30
0.0
 11
104.345952
 21
182.427483
 31
0.0
  0
LINE
  5
C8A4
330
C843
100
AcDbEntity
  8
1
  6
Continuous
100
AcDbLine
 10
102.345952
 20
176.4274829999999
 30
0.0
 11
104.345952
 21
176.4274829999999
 31
0.0
  0
ARC
  5
C8A5
330
C843
100
AcDbEntity
  8
1
  6
Continuous
100
AcDbCircle
 10
104.595952
 20
179.4274829999999
 30
0.0
 40
3.75
100
AcDbArc
 50
126.869898
 51
233.130102
  0
ARC
  5
C8A6
330
C843
100
AcDbEntity
  8
1
  6
Continuous
100
AcDbCircle
 10
121.8459519999999
 20
184.677483
 30
0.0
 40
1.0
100
AcDbArc
 50
0.0
 51
90.0
  0
ARC
  5
C8A7
330
C843
100
AcDbEntity
  8
1
  6
Continuous
100
AcDbCircle
 10
121.8459519999999
 20
174.1774829999999
 30
0.0
 40
1.0
100
AcDbArc
 50
270.0
 51
0.0
  0
ARC
  5
C8A8
330
C843
100
AcDbEntity
  8
1
  6
Continuous
100
AcDbCircle
 10
105.345952
 20
174.1774829999999
 30
0.0
 40
1.0
100
AcDbArc
 50
180.0
 51
270.0
  0
ARC
  5
C8A9
330
C843
100
AcDbEntity
  8
1
  6
Continuous
100
AcDbCircle
 10
105.345952
 20
184.677483
 30
0.0
 40
1.0
100
AcDbArc
 50
90.0
 51
180.0
  0
ARC
  5
C8AA
330
C843
100
AcDbEntity
  8
1
  6
Continuous
100
AcDbCircle
 10
113.5959519999999
 20
204.652483
 30
0.0
 40
20.225
100
AcDbArc
 50
249.750657
 51
290.249343
  0
ARC
  5
C8AB
330
C843
100
AcDbEntity
  8
1
  6
Continuous
100
AcDbCircle
 10
113.5959519999999
 20
154.202483
 30
0.0
 40
20.225
100
AcDbArc
 50
69.75065699999999
 51
110.249343
  0
LINE
  5
C8AC
330
C843
100
AcDbEntity
  8
1
  6
Continuous
100
AcDbLine
 10
119.095952
 20
187.1774829999999
 30
0.0
 11
120.5959519999999
 21
185.6774829999999
 31
0.0
  0
LINE
  5
C8AD
330
C843
100
AcDbEntity
  8
1
  6
Continuous
100
AcDbLine
 10
108.0959519999999
 20
187.1774829999999
 30
0.0
 11
106.595952
 21
185.6774829999999
 31
0.0
  0
LINE
  5
C8AE
330
C843
100
AcDbEntity
  8
1
  6
Continuous
100
AcDbLine
 10
106.595952
 20
173.1774829999999
 30
0.0
 11
108.0959519999999
 21
171.677483
 31
0.0
  0
LINE
  5
C8AF
330
C843
100
AcDbEntity
  8
1
  6
Continuous
100
AcDbLine
 10
120.5959519999999
 20
173.1774829999999
 30
0.0
 11
119.095952
 21
171.677483
 31
0.0
  0
LINE
  5
C8B0
330
C843
100
AcDbEntity
  8
1
  6
Continuous
100
AcDbLine
 10
120.5959519999999
 20
185.6774829999999
 30
0.0
 11
121.8459519999999
 21
185.6774829999999
 31
0.0
  0
LINE
  5
C8B1
330
C843
100
AcDbEntity
  8
1
  6
Continuous
100
AcDbLine
 10
120.5959519999999
 20
173.1774829999999
 30
0.0
 11
121.8459519999999
 21
173.1774829999999
 31
0.0
  0
LINE
  5
C8B2
330
C843
100
AcDbEntity
  8
1
  6
Continuous
100
AcDbLine
 10
130.845952
 20
180.027483
 30
0.0
 11
129.345952
 21
179.4274829999999
 31
0.0
  0
LINE
  5
C8B3
330
C843
100
AcDbEntity
  8
1
  6
Continuous
100
AcDbLine
 10
129.345952
 20
179.4274829999999
 30
0.0
 11
130.845952
 21
178.8274829999998
 31
0.0
  0
LINE
  5
C8B4
330
C843
100
AcDbEntity
  8
1
  6
Continuous
100
AcDbLine
 10
129.345952
 20
179.4274829999999
 30
0.0
 11
126.8459519999999
 21
179.4274829999999
 31
0.0
  0
LINE
  5
C8B5
330
C843
100
AcDbEntity
  8
1
  6
Continuous
100
AcDbLine
 10
205.503165
 20
120.595408
 30
0.0
 11
205.095952
 21
120.577083
 31
0.0
  0
LINE
  5
C8B6
330
C843
100
AcDbEntity
  8
1
  6
Continuous
100
AcDbLine
 10
191.6662129999999
 20
120.596422
 30
0.0
 11
192.095952
 21
120.577083
 31
0.0
  0
LINE
  5
C8B7
330
C843
100
AcDbEntity
  8
1
  6
Continuous
100
AcDbLine
 10
100.495952
 20
185.927483
 30
0.0
 11
106.8459519999999
 21
185.927483
 31
0.0
  0
LINE
  5
C8B8
330
C843
100
AcDbEntity
  8
1
  6
Continuous
100
AcDbLine
 10
100.495952
 20
172.927483
 30
0.0
 11
106.8459519999999
 21
172.927483
 31
0.0
  0
LINE
  5
C8B9
330
C843
100
AcDbEntity
  8
1
  6
Continuous
100
AcDbLine
 10
120.345952
 20
185.927483
 30
0.0
 11
127.295952
 21
185.927483
 31
0.0
  0
LINE
  5
C8BA
330
C843
100
AcDbEntity
  8
1
  6
Continuous
100
AcDbLine
 10
120.345952
 20
172.927483
 30
0.0
 11
127.295952
 21
172.927483
 31
0.0
  0
ARC
  5
C8BB
330
C843
100
AcDbEntity
  8
1
  6
Continuous
100
AcDbCircle
 10
103.53448
 20
176.5774829999998
 30
0.0
 40
0.3
100
AcDbArc
 50
210.0
 51
330.0
  0
ARC
  5
C8BC
330
C843
100
AcDbEntity
  8
1
  6
Continuous
100
AcDbCircle
 10
104.13448
 20
182.277483
 30
0.0
 40
0.3
100
AcDbArc
 50
45.178204
 51
150.0
  0
ARC
  5
C8BD
330
C843
100
AcDbEntity
  8
1
  6
Continuous
100
AcDbCircle
 10
104.573285
 20
125.676083
 30
0.0
 40
3.735641
100
AcDbArc
 50
126.600977
 51
233.399023
  0
LINE
  5
C8BE
330
C843
100
AcDbEntity
  8
1
  6
Continuous
100
AcDbLine
 10
205.095952
 20
96.5
 30
0.0
 11
205.095952
 21
121.944256
 31
0.0
  0
LINE
  5
C8BF
330
C843
100
AcDbEntity
  8
1
  6
Continuous
100
AcDbLine
 10
192.095952
 20
96.5
 30
0.0
 11
192.095952
 21
121.944256
 31
0.0
  0
ARC
  5
C8C0
330
C843
100
AcDbEntity
  8
1
  6
Continuous
100
AcDbCircle
 10
204.595952
 20
125.9823729999999
 30
0.0
 40
1.0
100
AcDbArc
 50
0.0
 51
84.600387
  0
ARC
  5
C8C1
330
C843
100
AcDbEntity
  8
1
  6
Continuous
100
AcDbCircle
 10
192.595952
 20
125.9823729999999
 30
0.0
 40
1.0
100
AcDbArc
 50
95.39961299999999
 51
180.0
  0
LINE
  5
C8C2
330
C843
100
AcDbEntity
  8
1
  6
Continuous
100
AcDbLine
 10
205.595952
 20
125.9823729999999
 30
0.0
 11
206.3419029999999
 21
121.0669889999998
 31
0.0
  0
LINE
  5
C8C3
330
C843
100
AcDbEntity
  8
1
  6
Continuous
100
AcDbLine
 10
191.595952
 20
125.9823729999999
 30
0.0
 11
190.845952
 21
121.1771209999999
 31
0.0
  0
LINE
  5
C8C4
330
C843
100
AcDbEntity
  8
1
  6
Continuous
100
AcDbLine
 10
191.9909669999999
 20
122.677121
 30
0.0
 11
191.6662129999999
 21
120.596422
 31
0.0
  0
LINE
  5
C8C5
330
C843
100
AcDbEntity
  8
1
  6
Continuous
100
AcDbLine
 10
205.1872469999999
 20
122.677121
 30
0.0
 11
205.503165
 21
120.595408
 31
0.0
  0
ARC
  5
C8C6
330
C843
100
AcDbEntity
  8
1
  6
Continuous
100
AcDbCircle
 10
32.75
 20
125.375985
 30
0.0
 40
6.301135999999998
100
AcDbArc
 50
7.304446000000001
 51
172.6955539999999
  0
LINE
  5
C8C7
330
C843
100
AcDbEntity
  8
4
  6
CENTER
100
AcDbLine
 10
32.75
 20
91.5
 30
0.0
 11
32.75
 21
134.6771209999998
 31
0.0
  0
LINE
  5
C8C8
330
C843
100
AcDbEntity
  8
1
  6
Continuous
100
AcDbLine
 10
26.25
 20
96.5
 30
0.0
 11
26.25
 21
121.944256
 31
0.0
  0
LINE
  5
C8C9
330
C843
100
AcDbEntity
  8
1
  6
Continuous
100
AcDbLine
 10
39.25
 20
96.5
 30
0.0
 11
39.25
 21
121.944256
 31
0.0
  0
LINE
  5
C8CA
330
C843
100
AcDbEntity
  8
4
  6
CENTER
100
AcDbLine
 10
22.0
 20
125.4271209999999
 30
0.0
 11
43.5
 21
125.4271209999999
 31
0.0
  0
LINE
  5
C8CB
330
C843
100
AcDbEntity
  8
1
  6
Continuous
100
AcDbLine
 10
26.145015
 20
122.677121
 30
0.0
 11
25.820261
 21
120.596422
 31
0.0
  0
LINE
  5
C8CC
330
C843
100
AcDbEntity
  8
1
  6
Continuous
100
AcDbLine
 10
25.75
 20
125.9823729999999
 30
0.0
 11
25.0
 21
121.1771209999999
 31
0.0
  0
ARC
  5
C8CD
330
C843
100
AcDbEntity
  8
1
  6
Continuous
100
AcDbCircle
 10
26.75
 20
125.9823729999999
 30
0.0
 40
1.0
100
AcDbArc
 50
95.39961299999999
 51
180.0
  0
LINE
  5
C8CE
330
C843
100
AcDbEntity
  8
1
  6
Continuous
100
AcDbLine
 10
25.820261
 20
120.596422
 30
0.0
 11
26.25
 21
120.577083
 31
0.0
  0
ARC
  5
C8CF
330
C843
100
AcDbEntity
  8
1
  6
Continuous
100
AcDbCircle
 10
26.5
 20
121.1771209999999
 30
0.0
 40
1.5
100
AcDbArc
 50
180.0
 51
260.405932
  0
LINE
  5
C8D0
330
C843
100
AcDbEntity
  8
1
  6
Continuous
100
AcDbLine
 10
26.145015
 20
122.677121
 30
0.0
 11
27.833508
 21
122.677121
 31
0.0
  0
LINE
  5
C8D1
330
C843
100
AcDbEntity
  8
1
  6
Continuous
100
AcDbLine
 10
26.5
 20
122.677121
 30
0.0
 11
26.5
 21
126.177121
 31
0.0
  0
LINE
  5
C8D2
330
C843
100
AcDbEntity
  8
1
  6
Continuous
100
AcDbLine
 10
39.341295
 20
122.677121
 30
0.0
 11
39.657213
 21
120.595408
 31
0.0
  0
LINE
  5
C8D3
330
C843
100
AcDbEntity
  8
1
  6
Continuous
100
AcDbLine
 10
39.75
 20
125.9823729999999
 30
0.0
 11
40.495952
 21
121.0669889999998
 31
0.0
  0
ARC
  5
C8D4
330
C843
100
AcDbEntity
  8
1
  6
Continuous
100
AcDbCircle
 10
38.75
 20
125.9823729999999
 30
0.0
 40
1.0
100
AcDbArc
 50
0.0
 51
84.600387
  0
LINE
  5
C8D5
330
C843
100
AcDbEntity
  8
1
  6
Continuous
100
AcDbLine
 10
39.657213
 20
120.595408
 30
0.0
 11
39.25
 21
120.577083
 31
0.0
  0
ARC
  5
C8D6
330
C843
100
AcDbEntity
  8
1
  6
Continuous
100
AcDbCircle
 10
39.0
 20
121.1771209999999
 30
0.0
 40
1.5
100
AcDbArc
 50
279.594068
 51
355.7894899999998
  0
LINE
  5
C8D7
330
C843
100
AcDbEntity
  8
1
  6
Continuous
100
AcDbLine
 10
37.66649199999999
 20
122.677121
 30
0.0
 11
39.341295
 21
122.677121
 31
0.0
  0
LINE
  5
C8D8
330
C843
100
AcDbEntity
  8
1
  6
Continuous
100
AcDbLine
 10
39.0
 20
122.677121
 30
0.0
 11
39.0
 21
126.177121
 31
0.0
  0
LINE
  5
C8D9
330
C843
100
AcDbEntity
  8
4
  6
CENTER
100
AcDbLine
 10
113.254259
 20
38.0
 30
0.0
 11
113.254259
 21
59.5
 31
0.0
  0
LINE
  5
C8DA
330
C843
100
AcDbEntity
  8
1
  6
Continuous
100
AcDbLine
 10
100.495952
 20
42.25
 30
0.0
 11
127.295952
 21
42.25
 31
0.0
  0
LINE
  5
C8DB
330
C843
100
AcDbEntity
  8
1
  6
Continuous
100
AcDbLine
 10
108.0959519999999
 20
41.0
 30
0.0
 11
119.095952
 21
41.0
 31
0.0
  0
LINE
  5
C8DC
330
C843
100
AcDbEntity
  8
1
  6
Continuous
100
AcDbLine
 10
100.495952
 20
55.25
 30
0.0
 11
127.295952
 21
55.25
 31
0.0
  0
LINE
  5
C8DD
330
C843
100
AcDbEntity
  8
4
  6
CENTER
100
AcDbLine
 10
95.495952
 20
48.75
 30
0.0
 11
135.845952
 21
48.75
 31
0.0
  0
LINE
  5
C8DE
330
C843
100
AcDbEntity
  8
1
  6
Continuous
100
AcDbLine
 10
108.0959519999999
 20
56.5
 30
0.0
 11
119.095952
 21
56.5
 31
0.0
  0
LINE
  5
C8DF
330
C843
100
AcDbEntity
  8
1
  6
Continuous
100
AcDbLine
 10
130.845952
 20
44.75
 30
0.0
 11
130.845952
 21
52.75
 31
0.0
  0
LINE
  5
C8E0
330
C843
100
AcDbEntity
  8
1
  6
Continuous
100
AcDbLine
 10
129.345952
 20
48.75
 30
0.0
 11
130.845952
 21
48.15
 31
0.0
  0
LINE
  5
C8E1
330
C843
100
AcDbEntity
  8
1
  6
Continuous
100
AcDbLine
 10
130.845952
 20
49.35
 30
0.0
 11
129.345952
 21
48.75
 31
0.0
  0
LINE
  5
C8E2
330
C843
100
AcDbEntity
  8
1
  6
Continuous
100
AcDbLine
 10
129.345952
 20
48.75
 30
0.0
 11
127.295952
 21
48.75
 31
0.0
  0
LINE
  5
C8E3
330
C843
100
AcDbEntity
  8
1
  6
Continuous
100
AcDbLine
 10
127.295952
 20
52.75
 30
0.0
 11
130.845952
 21
52.75
 31
0.0
  0
LINE
  5
C8E4
330
C843
100
AcDbEntity
  8
1
  6
Continuous
100
AcDbLine
 10
127.295952
 20
44.75
 30
0.0
 11
130.845952
 21
44.75
 31
0.0
  0
ARC
  5
C8E5
330
C843
100
AcDbEntity
  8
5
  6
PHANTOM
100
AcDbCircle
 10
113.7583989999999
 20
112.446913
 30
0.0
 40
10.0
100
AcDbArc
 50
123.4054189999999
 51
58.6879
  0
ARC
  5
C8E6
330
C843
100
AcDbEntity
  8
1
  6
Continuous
100
AcDbCircle
 10
113.5959519999999
 20
109.5999999999998
 30
0.0
 40
12.5
100
AcDbArc
 50
115.348895
 51
64.651105
  0
ARC
  5
C8E7
330
C843
100
AcDbEntity
  8
5
  6
PHANTOM
100
AcDbCircle
 10
113.7583989999999
 20
112.446913
 30
0.0
 40
10.6
100
AcDbArc
 50
121.648558
 51
60.297225
  0
ARC
  5
C8E8
330
C843
100
AcDbEntity
  8
5
  6
PHANTOM
100
AcDbCircle
 10
113.7583989999999
 20
112.446913
 30
0.0
 40
11.19999999999998
100
AcDbArc
 50
189.295198
 51
61.71651999999998
  0
ARC
  5
C8E9
330
C843
100
AcDbEntity
  8
1
  6
Continuous
100
AcDbCircle
 10
113.5959519999999
 20
109.5999999999998
 30
0.0
 40
13.1
100
AcDbArc
 50
114.366397
 51
65.63360300000001
  0
ARC
  5
C8EA
330
C843
100
AcDbEntity
  8
1
  6
Continuous
100
AcDbCircle
 10
113.5959519999999
 20
109.5999999999998
 30
0.0
 40
13.7
100
AcDbArc
 50
305.969033
 51
66.52482899999999
  0
LINE
  5
C8EB
330
C843
100
AcDbEntity
  8
4
  6
CENTER
100
AcDbLine
 10
21.25
 20
109.5999999999998
 30
0.0
 11
44.24999999999999
 21
109.5999999999998
 31
0.0
  0
LINE
  5
C8EC
330
C843
100
AcDbEntity
  8
5
  6
PHANTOM
100
AcDbLine
 10
103.2975849999999
 20
110.7347899999999
 30
0.0
 11
102.705464
 21
110.637877
 31
0.0
  0
LINE
  5
C8ED
330
C843
100
AcDbEntity
  8
1
  6
Continuous
100
AcDbLine
 10
121.290209
 20
98.99771700000002
 30
0.0
 11
121.642618
 21
98.512116
 31
0.0
  0
LINE
  5
C8EE
330
C843
100
AcDbEntity
  8
1
  6
Continuous
100
AcDbLine
 10
108.314584
 20
120.053498
 30
0.0
 11
104.699251
 21
115.8077739999999
 31
0.0
  0
LINE
  5
C8EF
330
C843
100
AcDbEntity
  8
1
  6
Continuous
100
AcDbLine
 10
108.244336
 20
120.8964689999999
 30
0.0
 11
104.242431
 21
116.1967659999999
 31
0.0
  0
LINE
  5
C8F0
330
C843
100
AcDbEntity
  8
1
  6
Continuous
100
AcDbLine
 10
104.242431
 20
116.1967659999999
 30
0.0
 11
104.699251
 21
115.8077739999999
 31
0.0
  0
LINE
  5
C8F1
330
C843
100
AcDbEntity
  8
1
  6
Continuous
100
AcDbLine
 10
105.7984019999999
 20
118.0240469999999
 30
0.0
 11
106.255222
 21
117.635054
 31
0.0
  0
LINE
  5
C8F2
330
C843
100
AcDbEntity
  8
1
  6
Continuous
100
AcDbLine
 10
26.25
 20
96.5
 30
0.0
 11
39.25
 21
96.5
 31
0.0
  0
LINE
  5
C8F3
330
C843
100
AcDbEntity
  8
1
  6
Continuous
100
AcDbLine
 10
26.25
 20
121.944256
 30
0.0
 11
39.25
 21
121.944256
 31
0.0
  0
CIRCLE
  5
C8F4
330
C843
100
AcDbEntity
  8
1
  6
Continuous
100
AcDbCircle
 10
32.75
 20
125.675083
 30
0.0
 40
3.0
  0
LINE
  5
C8F5
330
C843
100
AcDbEntity
  8
1
  6
Continuous
100
AcDbLine
 10
29.75
 20
125.675083
 30
0.0
 11
28.75649199999999
 21
123.292283
 31
0.0
  0
LINE
  5
C8F6
330
C843
100
AcDbEntity
  8
1
  6
Continuous
100
AcDbLine
 10
35.75
 20
125.675083
 30
0.0
 11
36.743508
 21
123.292283
 31
0.0
  0
ARC
  5
C8F7
330
C843
100
AcDbEntity
  8
1
  6
Continuous
100
AcDbCircle
 10
37.66649199999999
 20
123.677121
 30
0.0
 40
1.0
100
AcDbArc
 50
202.6336909999999
 51
270.0
  0
ARC
  5
C8F8
330
C843
100
AcDbEntity
  8
1
  6
Continuous
100
AcDbCircle
 10
27.833508
 20
123.677121
 30
0.0
 40
1.0
100
AcDbArc
 50
270.0
 51
337.3663089999999
  0
LINE
  5
C8F9
330
C843
100
AcDbEntity
  8
1
  6
Continuous
100
AcDbLine
 10
127.295952
 20
172.927483
 30
0.0
 11
127.295952
 21
175.4274829999999
 31
0.0
  0
LINE
  5
C8FA
330
C843
100
AcDbEntity
  8
1
  6
Continuous
100
AcDbLine
 10
108.3459519999999
 20
56.5
 30
0.0
 11
108.3459519999999
 21
55.25
 31
0.0
  0
LINE
  5
C8FB
330
C843
100
AcDbEntity
  8
1
  6
Continuous
100
AcDbLine
 10
118.845952
 20
41.00044699999997
 30
0.0
 11
118.845952
 21
42.25
 31
0.0
  0
LINE
  5
C8FC
330
C843
100
AcDbEntity
  8
1
  6
Continuous
100
AcDbLine
 10
119.095952
 20
56.5
 30
0.0
 11
119.095952
 21
55.25
 31
0.0
  0
LINE
  5
C8FD
330
C843
100
AcDbEntity
  8
1
  6
Continuous
100
AcDbLine
 10
108.0959519999999
 20
56.5
 30
0.0
 11
108.0959519999999
 21
55.25
 31
0.0
  0
LINE
  5
C8FE
330
C843
100
AcDbEntity
  8
1
  6
Continuous
100
AcDbLine
 10
108.0959519999999
 20
56.5
 30
0.0
 11
106.8459519999999
 21
55.25
 31
0.0
  0
LINE
  5
C8FF
330
C843
100
AcDbEntity
  8
1
  6
Continuous
100
AcDbLine
 10
119.095952
 20
56.5
 30
0.0
 11
120.345952
 21
55.25
 31
0.0
  0
LINE
  5
C900
330
C843
100
AcDbEntity
  8
1
  6
Continuous
100
AcDbLine
 10
108.0959519999999
 20
41.00044699999997
 30
0.0
 11
106.8460259999999
 21
42.25
 31
0.0
  0
LINE
  5
C901
330
C843
100
AcDbEntity
  8
1
  6
Continuous
100
AcDbLine
 10
119.095952
 20
41.0
 30
0.0
 11
120.345952
 21
42.25
 31
0.0
  0
LINE
  5
C902
330
C843
100
AcDbEntity
  8
1
  6
Continuous
100
AcDbLine
 10
119.095952
 20
42.25
 30
0.0
 11
119.095952
 21
41.00044699999997
 31
0.0
  0
LINE
  5
C903
330
C843
100
AcDbEntity
  8
1
  6
Continuous
100
AcDbLine
 10
118.845952
 20
55.25
 30
0.0
 11
118.845952
 21
56.5
 31
0.0
  0
LINE
  5
C904
330
C843
100
AcDbEntity
  8
1
  6
Continuous
100
AcDbLine
 10
108.3459519999999
 20
42.25
 30
0.0
 11
108.3459519999999
 21
41.00044699999997
 31
0.0
  0
LINE
  5
C905
330
C843
100
AcDbEntity
  8
1
  6
Continuous
100
AcDbLine
 10
108.0959519999999
 20
42.25
 30
0.0
 11
108.0959519999999
 21
41.00044699999997
 31
0.0
  0
LINE
  5
C906
330
C843
100
AcDbEntity
  8
1
  6
Continuous
100
AcDbLine
 10
194.359561
 20
98.525901
 30
0.0
 11
198.4320999999999
 21
99.20233500000001
 31
0.0
  0
LINE
  5
C907
330
C843
100
AcDbEntity
  8
1
  6
Continuous
100
AcDbLine
 10
198.759803
 20
99.20233500000001
 30
0.0
 11
202.8323419999999
 21
98.525901
 31
0.0
  0
ARC
  5
C908
330
C843
100
AcDbEntity
  8
1
  6
Continuous
100
AcDbCircle
 10
202.996194
 20
99.51238600000001
 30
0.0
 40
1.0
100
AcDbArc
 50
260.569472
 51
290.491564
  0
ARC
  5
C909
330
C843
100
AcDbEntity
  8
1
  6
Continuous
100
AcDbCircle
 10
194.195709
 20
99.51238600000001
 30
0.0
 40
1.0
100
AcDbArc
 50
249.5084359999999
 51
279.4305279999999
  0
LINE
  5
C90A
330
C843
100
AcDbEntity
  8
1
  6
Continuous
100
AcDbLine
 10
193.8456399999998
 20
98.575662
 30
0.0
 11
192.095952
 21
99.25955000000001
 31
0.0
  0
LINE
  5
C90B
330
C843
100
AcDbEntity
  8
1
  6
Continuous
100
AcDbLine
 10
205.095952
 20
99.25955000000001
 30
0.0
 11
203.3462629999999
 21
98.575662
 31
0.0
  0
LINE
  5
C90C
330
C843
100
AcDbEntity
  8
1
  6
Continuous
100
AcDbLine
 10
121.6640179999999
 20
52.92264799999998
 30
0.0
 11
122.4931549999999
 21
48.95453299999999
 31
0.0
  0
LINE
  5
C90D
330
C843
100
AcDbEntity
  8
1
  6
Continuous
100
AcDbLine
 10
122.4931549999999
 20
48.545467
 30
0.0
 11
121.6640179999999
 21
44.57735200000001
 31
0.0
  0
LINE
  5
C90E
330
C843
100
AcDbEntity
  8
1
  6
Continuous
100
AcDbLine
 10
121.31141
 20
44.57689099999998
 30
0.0
 11
122.1394499999999
 21
48.545764
 31
0.0
  0
LINE
  5
C90F
330
C843
100
AcDbEntity
  8
1
  6
Continuous
100
AcDbLine
 10
122.1394499999999
 20
48.954236
 30
0.0
 11
121.31141
 21
52.923109
 31
0.0
  0
ARC
  5
C910
330
C843
100
AcDbEntity
  8
1
  6
Continuous
100
AcDbCircle
 10
122.2903309999999
 20
53.127345
 30
0.0
 40
1.0
100
AcDbArc
 50
154.8534249999999
 51
191.784783
  0
ARC
  5
C911
330
C843
100
AcDbEntity
  8
1
  6
Continuous
100
AcDbCircle
 10
122.2903309999999
 20
44.372655
 30
0.0
 40
1.0
100
AcDbArc
 50
168.2152169999999
 51
205.146575
  0
ARC
  5
C912
330
C843
100
AcDbEntity
  8
1
  6
Continuous
100
AcDbCircle
 10
122.6428779999999
 20
44.372819
 30
0.0
 40
1.0
100
AcDbArc
 50
168.1978629999998
 51
205.179956
  0
ARC
  5
C913
330
C843
100
AcDbEntity
  8
1
  6
Continuous
100
AcDbCircle
 10
122.6428779999999
 20
53.12718100000001
 30
0.0
 40
1.0
100
AcDbArc
 50
154.820044
 51
191.8021369999999
  0
LINE
  5
C914
330
C843
100
AcDbEntity
  8
1
  6
Continuous
100
AcDbLine
 10
121.3851079999999
 20
43.947719
 30
0.0
 11
122.229061
 21
42.25
 31
0.0
  0
LINE
  5
C915
330
C843
100
AcDbEntity
  8
1
  6
Continuous
100
AcDbLine
 10
121.737902
 20
43.947357
 30
0.0
 11
122.5828919999998
 21
42.25
 31
0.0
  0
LINE
  5
C916
330
C843
100
AcDbEntity
  8
1
  6
Continuous
100
AcDbLine
 10
121.3851079999999
 20
53.55228100000001
 30
0.0
 11
122.229061
 21
55.25
 31
0.0
  0
LINE
  5
C917
330
C843
100
AcDbEntity
  8
1
  6
Continuous
100
AcDbLine
 10
121.737902
 20
53.552643
 30
0.0
 11
122.5828919999998
 21
55.25
 31
0.0
  0
ARC
  5
C918
330
C843
100
AcDbEntity
  8
1
  6
Continuous
100
AcDbCircle
 10
121.160529
 20
48.75
 30
0.0
 40
1.0
100
AcDbArc
 50
348.2152169999998
 51
11.78478299999999
  0
ARC
  5
C919
330
C843
100
AcDbEntity
  8
1
  6
Continuous
100
AcDbCircle
 10
121.5142949999999
 20
48.75
 30
0.0
 40
1.0
100
AcDbArc
 50
348.1978629999999
 51
11.80213699999999
  0
ARC
  5
C91A
330
C843
100
AcDbEntity
  8
1
  6
Continuous
100
AcDbCircle
 10
198.595952
 20
98.21585
 30
0.0
 40
1.0
100
AcDbArc
 50
80.56947199999997
 51
99.43052800000003
  0
LINE
  5
C91B
330
C843
100
AcDbEntity
  8
4
  6
CENTER
100
AcDbLine
 10
95.495952
 20
109.5999999999998
 30
0.0
 11
131.636065
 21
109.5999999999998
 31
0.0
  0
LINE
  5
C91C
330
C843
100
AcDbEntity
  8
4
  6
CENTER
100
AcDbLine
 10
187.095952
 20
109.5999999999998
 30
0.0
 11
210.0959519999999
 21
109.5999999999998
 31
0.0
  0
LINE
  5
C91D
330
C843
100
AcDbEntity
  8
1
  6
Continuous
100
AcDbLine
 10
192.095952
 20
96.5
 30
0.0
 11
205.095952
 21
96.5
 31
0.0
  0
LINE
  5
C91E
330
C843
100
AcDbEntity
  8
1
  6
Continuous
100
AcDbLine
 10
192.095952
 20
121.944256
 30
0.0
 11
194.667574
 21
121.944256
 31
0.0
  0
LINE
  5
C91F
330
C843
100
AcDbEntity
  8
1
  6
Continuous
100
AcDbLine
 10
100.495952
 20
55.25
 30
0.0
 11
100.495952
 21
42.25
 31
0.0
  0
LINE
  5
C920
330
C843
100
AcDbEntity
  8
1
  6
Continuous
100
AcDbLine
 10
127.295952
 20
55.25
 30
0.0
 11
127.295952
 21
42.25
 31
0.0
  0
LINE
  5
C921
330
C843
100
AcDbEntity
  8
1
  6
Continuous
100
AcDbLine
 10
100.495952
 20
185.927483
 30
0.0
 11
100.495952
 21
172.927483
 31
0.0
  0
LINE
  5
C922
330
C843
100
AcDbEntity
  8
1
  6
Continuous
100
AcDbLine
 10
127.295952
 20
183.427483
 30
0.0
 11
127.295952
 21
185.927483
 31
0.0
  0
LINE
  5
C923
330
C843
100
AcDbEntity
  8
1
  6
Continuous
100
AcDbLine
 10
102.2101949999999
 20
182.320694
 30
0.0
 11
102.208969
 21
182.554177
 31
0.0
  0
ARC
  5
C924
330
C843
100
AcDbEntity
  8
1
  6
Continuous
100
AcDbCircle
 10
101.791212
 20
176.4318989999999
 30
0.0
 40
0.09
100
AcDbArc
 50
180.300892
 51
0.300892
  0
ARC
  5
C925
330
C843
100
AcDbEntity
  8
1
  6
Continuous
100
AcDbCircle
 10
102.1189699999998
 20
182.553704
 30
0.0
 40
0.09
100
AcDbArc
 50
0.300892
 51
180.300892
  0
LINE
  5
C926
330
C843
100
AcDbEntity
  8
1
  6
Continuous
100
AcDbLine
 10
101.7012129999999
 20
176.4314259999999
 30
0.0
 11
101.7320109999999
 21
177.006668
 31
0.0
  0
LINE
  5
C927
330
C843
100
AcDbEntity
  8
1
  6
Continuous
100
AcDbLine
 10
101.8812099999999
 20
176.432371
 30
0.0
 11
101.922274
 21
176.798045
 31
0.0
  0
ARC
  5
C928
330
C843
100
AcDbEntity
  8
1
  6
Continuous
100
AcDbCircle
 10
29.974969
 20
115.9546009999999
 30
0.0
 40
0.3
100
AcDbArc
 50
77.981988
 51
270.0
  0
LINE
  5
C929
330
C843
100
AcDbEntity
  8
1
  6
Continuous
100
AcDbLine
 10
30.037435
 20
116.2480259999999
 30
0.0
 11
35.674969
 21
115.654601
 31
0.0
  0
LINE
  5
C92A
330
C843
100
AcDbEntity
  8
1
  6
Continuous
100
AcDbLine
 10
29.81111199999999
 20
121.5664899999999
 30
0.0
 11
32.80861199999999
 21
121.2611129999999
 31
0.0
  0
LINE
  5
C92B
330
C843
100
AcDbEntity
  8
1
  6
Continuous
100
AcDbLine
 10
29.826608
 20
121.8707009999999
 30
0.0
 11
35.80611199999999
 21
121.5661129999999
 31
0.0
  0
ARC
  5
C92C
330
C843
100
AcDbEntity
  8
1
  6
Continuous
100
AcDbCircle
 10
29.81111199999999
 20
121.7189899999999
 30
0.0
 40
0.1525
100
AcDbArc
 50
84.16789599999999
 51
270.0
  0
ARC
  5
C92D
330
C843
100
AcDbEntity
  8
1
  6
Continuous
100
AcDbCircle
 10
35.80611199999999
 20
121.4136129999999
 30
0.0
 40
0.1525
100
AcDbArc
 50
270.0
 51
90.0
  0
LINE
  5
C92E
330
C843
100
AcDbEntity
  8
1
  6
Continuous
100
AcDbLine
 10
29.77008300000001
 20
119.903731
 30
0.0
 11
32.748583
 21
119.5604209999999
 31
0.0
  0
LINE
  5
C92F
330
C843
100
AcDbEntity
  8
1
  6
Continuous
100
AcDbLine
 10
29.789785
 20
120.245595
 30
0.0
 11
35.727083
 21
119.9034209999999
 31
0.0
  0
ARC
  5
C930
330
C843
100
AcDbEntity
  8
1
  6
Continuous
100
AcDbCircle
 10
29.77008300000001
 20
120.075231
 30
0.0
 40
0.1715
100
AcDbArc
 50
83.40322200000001
 51
270.0
  0
ARC
  5
C931
330
C843
100
AcDbEntity
  8
1
  6
Continuous
100
AcDbCircle
 10
35.727083
 20
119.731921
 30
0.0
 40
0.1715
100
AcDbArc
 50
270.0
 51
90.0
  0
LINE
  5
C932
330
C843
100
AcDbEntity
  8
1
  6
Continuous
100
AcDbLine
 10
29.94089999999999
 20
118.7408899999998
 30
0.0
 11
32.89865000000001
 21
118.356312
 31
0.0
  0
LINE
  5
C933
330
C843
100
AcDbEntity
  8
1
  6
Continuous
100
AcDbLine
 10
29.94089999999999
 20
119.1253899999999
 30
0.0
 11
35.8564
 21
118.740812
 31
0.0
  0
LINE
  5
C934
330
C843
100
AcDbEntity
  8
1
  6
Continuous
100
AcDbLine
 10
29.96389999999999
 20
117.1931869999999
 30
0.0
 11
32.89865000000001
 21
116.765468
 31
0.0
  0
LINE
  5
C935
330
C843
100
AcDbEntity
  8
1
  6
Continuous
100
AcDbLine
 10
35.8564
 20
118.356312
 30
0.0
 11
32.89865000000001
 21
118.356312
 31
0.0
  0
LINE
  5
C936
330
C843
100
AcDbEntity
  8
1
  6
Continuous
100
AcDbLine
 10
35.80202899999999
 20
116.765468
 30
0.0
 11
32.89865000000001
 21
116.765468
 31
0.0
  0
LINE
  5
C937
330
C843
100
AcDbEntity
  8
1
  6
Continuous
100
AcDbLine
 10
29.96389999999999
 20
117.623687
 30
0.0
 11
35.83339999999999
 21
117.19367
 31
0.0
  0
ARC
  5
C938
330
C843
100
AcDbEntity
  8
1
  6
Continuous
100
AcDbCircle
 10
29.94089999999999
 20
118.9331399999999
 30
0.0
 40
0.19225
100
AcDbArc
 50
90.0
 51
270.0
  0
ARC
  5
C939
330
C843
100
AcDbEntity
  8
1
  6
Continuous
100
AcDbCircle
 10
35.8564
 20
118.548562
 30
0.0
 40
0.19225
100
AcDbArc
 50
270.0
 51
90.0
  0
ARC
  5
C93A
330
C843
100
AcDbEntity
  8
1
  6
Continuous
100
AcDbCircle
 10
35.83339999999999
 20
116.97842
 30
0.0
 40
0.21525
100
AcDbArc
 50
261.619662
 51
90.0
  0
ARC
  5
C93B
330
C843
100
AcDbEntity
  8
1
  6
Continuous
100
AcDbCircle
 10
29.96389999999999
 20
117.408437
 30
0.0
 40
0.21525
100
AcDbArc
 50
90.0
 51
270.0
  0
LINE
  5
C93C
330
C843
100
AcDbEntity
  8
1
  6
Continuous
100
AcDbLine
 10
32.80861199999999
 20
121.2611129999999
 30
0.0
 11
35.80611199999999
 21
121.2611129999999
 31
0.0
  0
LINE
  5
C93D
330
C843
100
AcDbEntity
  8
1
  6
Continuous
100
AcDbLine
 10
32.748583
 20
119.5604209999999
 30
0.0
 11
35.727083
 21
119.5604209999999
 31
0.0
  0
LINE
  5
C93E
330
C843
100
AcDbEntity
  8
1
  6
Continuous
100
AcDbLine
 10
29.977406
 20
112.9166439999999
 30
0.0
 11
35.61493999999999
 21
112.3232189999999
 31
0.0
  0
LINE
  5
C93F
330
C843
100
AcDbEntity
  8
1
  6
Continuous
100
AcDbLine
 10
29.91494
 20
112.3232189999999
 30
0.0
 11
32.612108
 21
111.755394
 31
0.0
  0
ARC
  5
C940
330
C843
100
AcDbEntity
  8
1
  6
Continuous
100
AcDbCircle
 10
29.91494
 20
112.6232189999999
 30
0.0
 40
0.3
100
AcDbArc
 50
77.981988
 51
270.0
  0
LINE
  5
C941
330
C843
100
AcDbEntity
  8
1
  6
Continuous
100
AcDbLine
 10
30.007421
 20
114.597319
 30
0.0
 11
35.64495499999999
 21
114.0038939999999
 31
0.0
  0
ARC
  5
C942
330
C843
100
AcDbEntity
  8
1
  6
Continuous
100
AcDbCircle
 10
29.944955
 20
114.303894
 30
0.0
 40
0.3
100
AcDbArc
 50
77.981988
 51
270.0
  0
LINE
  5
C943
330
C843
100
AcDbEntity
  8
1
  6
Continuous
100
AcDbLine
 10
29.944955
 20
114.0038939999999
 30
0.0
 11
32.642123
 21
113.4360689999999
 31
0.0
  0
LINE
  5
C944
330
C843
100
AcDbEntity
  8
1
  6
Continuous
100
AcDbLine
 10
29.974969
 20
115.654601
 30
0.0
 11
32.672137
 21
115.086776
 31
0.0
  0
LINE
  5
C945
330
C843
100
AcDbEntity
  8
1
  6
Continuous
100
AcDbLine
 10
32.921123
 20
111.7232189999999
 30
0.0
 11
35.61493999999999
 21
111.7232189999999
 31
0.0
  0
ARC
  5
C946
330
C843
100
AcDbEntity
  8
1
  6
Continuous
100
AcDbCircle
 10
35.61493999999999
 20
112.023219
 30
0.0
 40
0.3
100
AcDbArc
 50
270.0
 51
90.0
  0
LINE
  5
C947
330
C843
100
AcDbEntity
  8
1
  6
Continuous
100
AcDbLine
 10
32.951138
 20
113.4038939999998
 30
0.0
 11
35.64495499999999
 21
113.4038939999998
 31
0.0
  0
LINE
  5
C948
330
C843
100
AcDbEntity
  8
1
  6
Continuous
100
AcDbLine
 10
32.981152
 20
115.054601
 30
0.0
 11
35.674969
 21
115.054601
 31
0.0
  0
ARC
  5
C949
330
C843
100
AcDbEntity
  8
1
  6
Continuous
100
AcDbCircle
 10
35.64495499999999
 20
113.7038939999999
 30
0.0
 40
0.3
100
AcDbArc
 50
270.0
 51
90.0
  0
ARC
  5
C94A
330
C843
100
AcDbEntity
  8
1
  6
Continuous
100
AcDbCircle
 10
35.674969
 20
115.354601
 30
0.0
 40
0.3
100
AcDbArc
 50
270.0
 51
90.0
  0
ARC
  5
C94B
330
C843
100
AcDbEntity
  8
1
  6
Continuous
100
AcDbCircle
 10
32.951138
 20
114.903894
 30
0.0
 40
1.5
100
AcDbArc
 50
258.1113419999999
 51
270.0
  0
ARC
  5
C94C
330
C843
100
AcDbEntity
  8
1
  6
Continuous
100
AcDbCircle
 10
32.981152
 20
116.554601
 30
0.0
 40
1.5
100
AcDbArc
 50
258.1113419999999
 51
270.0
  0
LINE
  5
C94D
330
C843
100
AcDbEntity
  8
1
  6
Continuous
100
AcDbLine
 10
32.612108
 20
111.755394
 30
0.0
 11
32.930076
 21
111.7232189999999
 31
0.0
  0
ARC
  5
C94E
330
C843
100
AcDbEntity
  8
1
  6
Continuous
100
AcDbCircle
 10
35.80611199999999
 20
120.6942909999998
 30
0.0
 40
0.1525
100
AcDbArc
 50
270.0
 51
90.0
  0
LINE
  5
C94F
330
C843
100
AcDbEntity
  8
1
  6
Continuous
100
AcDbLine
 10
32.80861199999999
 20
120.5417909999999
 30
0.0
 11
35.80611199999999
 21
120.5417909999999
 31
0.0
  0
LINE
  5
C950
330
C843
100
AcDbEntity
  8
1
  6
Continuous
100
AcDbLine
 10
29.826608
 20
121.151379
 30
0.0
 11
35.80611199999999
 21
120.8467909999999
 31
0.0
  0
LINE
  5
C951
330
C843
100
AcDbEntity
  8
1
  6
Continuous
100
AcDbLine
 10
29.81111199999999
 20
120.8471679999999
 30
0.0
 11
32.80861199999999
 21
120.5417909999999
 31
0.0
  0
ARC
  5
C952
330
C843
100
AcDbEntity
  8
1
  6
Continuous
100
AcDbCircle
 10
29.81111199999999
 20
120.9996679999999
 30
0.0
 40
0.1525
100
AcDbArc
 50
84.16789599999999
 51
270.0
  0
LINE
  5
C953
330
C843
100
AcDbEntity
  8
1
  6
Continuous
100
AcDbLine
 10
29.964671
 20
108.815454
 30
0.0
 11
35.60220499999999
 21
108.222029
 31
0.0
  0
LINE
  5
C954
330
C843
100
AcDbEntity
  8
1
  6
Continuous
100
AcDbLine
 10
29.964671
 20
111.2154539999999
 30
0.0
 11
35.60220499999999
 21
110.6220289999999
 31
0.0
  0
LINE
  5
C955
330
C843
100
AcDbEntity
  8
1
  6
Continuous
100
AcDbLine
 10
29.90220499999999
 20
108.222029
 30
0.0
 11
32.599373
 21
107.6542039999999
 31
0.0
  0
ARC
  5
C956
330
C843
100
AcDbEntity
  8
1
  6
Continuous
100
AcDbCircle
 10
29.90220499999999
 20
108.522029
 30
0.0
 40
0.3
100
AcDbArc
 50
77.981988
 51
270.0
  0
ARC
  5
C957
330
C843
100
AcDbEntity
  8
1
  6
Continuous
100
AcDbCircle
 10
29.90220499999999
 20
110.9220289999999
 30
0.0
 40
0.3
100
AcDbArc
 50
77.981988
 51
270.0
  0
LINE
  5
C958
330
C843
100
AcDbEntity
  8
1
  6
Continuous
100
AcDbLine
 10
29.90220499999999
 20
110.6220289999999
 30
0.0
 11
32.599373
 21
110.054204
 31
0.0
  0
LINE
  5
C959
330
C843
100
AcDbEntity
  8
1
  6
Continuous
100
AcDbLine
 10
32.908388
 20
107.6220289999999
 30
0.0
 11
35.60220499999999
 21
107.6220289999999
 31
0.0
  0
LINE
  5
C95A
330
C843
100
AcDbEntity
  8
1
  6
Continuous
100
AcDbLine
 10
32.908388
 20
110.0220289999999
 30
0.0
 11
35.60220499999999
 21
110.0220289999999
 31
0.0
  0
ARC
  5
C95B
330
C843
100
AcDbEntity
  8
1
  6
Continuous
100
AcDbCircle
 10
35.60220499999999
 20
107.922029
 30
0.0
 40
0.3
100
AcDbArc
 50
270.0
 51
90.0
  0
ARC
  5
C95C
330
C843
100
AcDbEntity
  8
1
  6
Continuous
100
AcDbCircle
 10
35.60220499999999
 20
110.322029
 30
0.0
 40
0.3
100
AcDbArc
 50
270.0
 51
90.0
  0
ARC
  5
C95D
330
C843
100
AcDbEntity
  8
1
  6
Continuous
100
AcDbCircle
 10
32.908388
 20
109.122029
 30
0.0
 40
1.5
100
AcDbArc
 50
258.1113419999999
 51
270.0
  0
ARC
  5
C95E
330
C843
100
AcDbEntity
  8
1
  6
Continuous
100
AcDbCircle
 10
32.908388
 20
111.522029
 30
0.0
 40
1.5
100
AcDbArc
 50
258.1113419999999
 51
270.0
  0
ARC
  5
C95F
330
C843
100
AcDbEntity
  8
1
  6
Continuous
100
AcDbCircle
 10
35.747298
 20
100.527188
 30
0.0
 40
0.1525
100
AcDbArc
 50
270.0
 51
90.0
  0
LINE
  5
C960
330
C843
100
AcDbEntity
  8
1
  6
Continuous
100
AcDbLine
 10
29.641981
 20
104.5081979999998
 30
0.0
 11
32.59973099999999
 21
104.1236199999999
 31
0.0
  0
LINE
  5
C961
330
C843
100
AcDbEntity
  8
1
  6
Continuous
100
AcDbLine
 10
29.641981
 20
104.892698
 30
0.0
 11
35.55748100000001
 21
104.5081199999999
 31
0.0
  0
LINE
  5
C962
330
C843
100
AcDbEntity
  8
1
  6
Continuous
100
AcDbLine
 10
35.55748100000001
 20
104.1236199999999
 30
0.0
 11
32.59973099999999
 21
104.1236199999999
 31
0.0
  0
ARC
  5
C963
330
C843
100
AcDbEntity
  8
1
  6
Continuous
100
AcDbCircle
 10
35.55748100000001
 20
104.3158699999999
 30
0.0
 40
0.19225
100
AcDbArc
 50
270.0
 51
90.0
  0
LINE
  5
C964
330
C843
100
AcDbEntity
  8
1
  6
Continuous
100
AcDbLine
 10
29.785039
 20
106.257391
 30
0.0
 11
32.719789
 21
105.8296719999999
 31
0.0
  0
LINE
  5
C965
330
C843
100
AcDbEntity
  8
1
  6
Continuous
100
AcDbLine
 10
35.623168
 20
105.8296719999999
 30
0.0
 11
32.719789
 21
105.8296719999999
 31
0.0
  0
LINE
  5
C966
330
C843
100
AcDbEntity
  8
1
  6
Continuous
100
AcDbLine
 10
29.785039
 20
106.687891
 30
0.0
 11
35.654539
 21
106.2578739999999
 31
0.0
  0
ARC
  5
C967
330
C843
100
AcDbEntity
  8
1
  6
Continuous
100
AcDbCircle
 10
35.654539
 20
106.0426239999999
 30
0.0
 40
0.21525
100
AcDbArc
 50
261.619662
 51
90.0
  0
LINE
  5
C968
330
C843
100
AcDbEntity
  8
1
  6
Continuous
100
AcDbLine
 10
32.689769
 20
102.810101
 30
0.0
 11
35.66826900000001
 21
102.810101
 31
0.0
  0
ARC
  5
C969
330
C843
100
AcDbEntity
  8
1
  6
Continuous
100
AcDbCircle
 10
35.66826900000001
 20
102.981601
 30
0.0
 40
0.1715
100
AcDbArc
 50
270.0
 51
90.0
  0
LINE
  5
C96A
330
C843
100
AcDbEntity
  8
1
  6
Continuous
100
AcDbLine
 10
29.730971
 20
103.4952749999999
 30
0.0
 11
35.66826900000001
 21
103.153101
 31
0.0
  0
LINE
  5
C96B
330
C843
100
AcDbEntity
  8
1
  6
Continuous
100
AcDbLine
 10
29.70777
 20
102.1831469999999
 30
0.0
 11
35.687274
 21
101.878559
 31
0.0
  0
LINE
  5
C96C
330
C843
100
AcDbEntity
  8
1
  6
Continuous
100
AcDbLine
 10
32.689774
 20
101.573559
 30
0.0
 11
35.687274
 21
101.573559
 31
0.0
  0
ARC
  5
C96D
330
C843
100
AcDbEntity
  8
1
  6
Continuous
100
AcDbCircle
 10
35.687274
 20
101.726059
 30
0.0
 40
0.1525
100
AcDbArc
 50
270.0
 51
90.0
  0
LINE
  5
C96E
330
C843
100
AcDbEntity
  8
1
  6
Continuous
100
AcDbLine
 10
32.749798
 20
100.374688
 30
0.0
 11
35.747298
 21
100.374688
 31
0.0
  0
LINE
  5
C96F
330
C843
100
AcDbEntity
  8
1
  6
Continuous
100
AcDbLine
 10
29.76779399999999
 20
100.9842759999998
 30
0.0
 11
35.747298
 21
100.679688
 31
0.0
  0
LINE
  5
C970
330
C843
100
AcDbEntity
  8
1
  6
Continuous
100
AcDbLine
 10
29.752298
 20
100.6800649999999
 30
0.0
 11
32.749798
 21
100.374688
 31
0.0
  0
LINE
  5
C971
330
C843
100
AcDbEntity
  8
1
  6
Continuous
100
AcDbLine
 10
29.711269
 20
103.153411
 30
0.0
 11
32.689769
 21
102.810101
 31
0.0
  0
LINE
  5
C972
330
C843
100
AcDbEntity
  8
1
  6
Continuous
100
AcDbLine
 10
29.69227399999999
 20
101.8789359999999
 30
0.0
 11
32.689774
 21
101.573559
 31
0.0
  0
ARC
  5
C973
330
C843
100
AcDbEntity
  8
1
  6
Continuous
100
AcDbCircle
 10
29.641981
 20
104.700448
 30
0.0
 40
0.19225
100
AcDbArc
 50
90.0
 51
270.0
  0
ARC
  5
C974
330
C843
100
AcDbEntity
  8
1
  6
Continuous
100
AcDbCircle
 10
29.785039
 20
106.472641
 30
0.0
 40
0.21525
100
AcDbArc
 50
90.0
 51
270.0
  0
ARC
  5
C975
330
C843
100
AcDbEntity
  8
1
  6
Continuous
100
AcDbCircle
 10
29.711269
 20
103.324911
 30
0.0
 40
0.1715
100
AcDbArc
 50
83.40322200000001
 51
270.0
  0
ARC
  5
C976
330
C843
100
AcDbEntity
  8
1
  6
Continuous
100
AcDbCircle
 10
29.69227399999999
 20
102.0314359999999
 30
0.0
 40
0.1525
100
AcDbArc
 50
84.16789599999999
 51
270.0
  0
ARC
  5
C977
330
C843
100
AcDbEntity
  8
1
  6
Continuous
100
AcDbCircle
 10
29.752298
 20
100.8325649999999
 30
0.0
 40
0.1525
100
AcDbArc
 50
84.16789599999999
 51
270.0
  0
LINE
  5
C978
330
C843
100
AcDbEntity
  8
1
  6
Continuous
100
AcDbLine
 10
29.76779399999999
 20
97.627438
 30
0.0
 11
35.747298
 21
97.32285
 31
0.0
  0
LINE
  5
C979
330
C843
100
AcDbEntity
  8
1
  6
Continuous
100
AcDbLine
 10
32.749798
 20
97.01785
 30
0.0
 11
35.747298
 21
97.01785
 31
0.0
  0
ARC
  5
C97A
330
C843
100
AcDbEntity
  8
1
  6
Continuous
100
AcDbCircle
 10
35.687274
 20
98.369222
 30
0.0
 40
0.1525
100
AcDbArc
 50
270.0
 51
90.0
  0
LINE
  5
C97B
330
C843
100
AcDbEntity
  8
1
  6
Continuous
100
AcDbLine
 10
32.689774
 20
98.21672200000001
 30
0.0
 11
35.687274
 21
98.21672200000001
 31
0.0
  0
LINE
  5
C97C
330
C843
100
AcDbEntity
  8
1
  6
Continuous
100
AcDbLine
 10
29.70777
 20
98.82631000000001
 30
0.0
 11
35.687274
 21
98.521722
 31
0.0
  0
LINE
  5
C97D
330
C843
100
AcDbEntity
  8
1
  6
Continuous
100
AcDbLine
 10
29.730971
 20
100.1384379999998
 30
0.0
 11
35.66826900000001
 21
99.796264
 31
0.0
  0
ARC
  5
C97E
330
C843
100
AcDbEntity
  8
1
  6
Continuous
100
AcDbCircle
 10
35.66826900000001
 20
99.62476399999999
 30
0.0
 40
0.1715
100
AcDbArc
 50
270.0
 51
90.0
  0
LINE
  5
C97F
330
C843
100
AcDbEntity
  8
1
  6
Continuous
100
AcDbLine
 10
32.689769
 20
99.453264
 30
0.0
 11
35.66826900000001
 21
99.453264
 31
0.0
  0
ARC
  5
C980
330
C843
100
AcDbEntity
  8
1
  6
Continuous
100
AcDbCircle
 10
35.747298
 20
97.17035000000002
 30
0.0
 40
0.1525
100
AcDbArc
 50
270.0
 51
90.0
  0
ARC
  5
C981
330
C843
100
AcDbEntity
  8
1
  6
Continuous
100
AcDbCircle
 10
29.752298
 20
97.475727
 30
0.0
 40
0.1525
100
AcDbArc
 50
84.16789599999999
 51
270.0
  0
LINE
  5
C982
330
C843
100
AcDbEntity
  8
1
  6
Continuous
100
AcDbLine
 10
29.752298
 20
97.323227
 30
0.0
 11
32.749798
 21
97.01785
 31
0.0
  0
ARC
  5
C983
330
C843
100
AcDbEntity
  8
1
  6
Continuous
100
AcDbCircle
 10
29.69227399999999
 20
98.674599
 30
0.0
 40
0.1525
100
AcDbArc
 50
84.16789599999999
 51
270.0
  0
LINE
  5
C984
330
C843
100
AcDbEntity
  8
1
  6
Continuous
100
AcDbLine
 10
29.69227399999999
 20
98.522099
 30
0.0
 11
32.689774
 21
98.21672200000001
 31
0.0
  0
ARC
  5
C985
330
C843
100
AcDbEntity
  8
1
  6
Continuous
100
AcDbCircle
 10
29.711269
 20
99.96807400000001
 30
0.0
 40
0.1715
100
AcDbArc
 50
83.40322200000001
 51
270.0
  0
LINE
  5
C986
330
C843
100
AcDbEntity
  8
1
  6
Continuous
100
AcDbLine
 10
29.711269
 20
99.796574
 30
0.0
 11
32.689769
 21
99.453264
 31
0.0
  0
ARC
  5
C987
330
C843
100
AcDbEntity
  8
1
  6
Continuous
100
AcDbCircle
 10
105.082849
 20
51.75664699999999
 30
0.0
 40
0.1715
100
AcDbArc
 50
0.300892
 51
180.300892
  0
LINE
  5
C988
330
C843
100
AcDbEntity
  8
1
  6
Continuous
100
AcDbLine
 10
104.942325
 20
45.798827
 30
0.0
 11
105.2699879999998
 21
48.779089
 31
0.0
  0
LINE
  5
C989
330
C843
100
AcDbEntity
  8
1
  6
Continuous
100
AcDbLine
 10
101.228322
 20
45.735565
 30
0.0
 11
101.4329939999998
 21
51.79048
 31
0.0
  0
LINE
  5
C98A
330
C843
100
AcDbEntity
  8
1
  6
Continuous
100
AcDbLine
 10
102.213926
 20
45.70299699999998
 30
0.0
 11
102.541685
 21
51.824803
 31
0.0
  0
LINE
  5
C98B
330
C843
100
AcDbEntity
  8
1
  6
Continuous
100
AcDbLine
 10
103.335055
 20
45.786882
 30
0.0
 11
103.608238
 21
51.767903
 31
0.0
  0
LINE
  5
C98C
330
C843
100
AcDbEntity
  8
1
  6
Continuous
100
AcDbLine
 10
104.600362
 20
45.816733
 30
0.0
 11
104.9113509999999
 21
51.755747
 31
0.0
  0
LINE
  5
C98D
330
C843
100
AcDbEntity
  8
1
  6
Continuous
100
AcDbLine
 10
101.6859109999999
 20
48.760267
 30
0.0
 11
101.669991
 21
51.79172499999999
 31
0.0
  0
LINE
  5
C98E
330
C843
100
AcDbEntity
  8
1
  6
Continuous
100
AcDbLine
 10
102.7377519999999
 20
48.765791
 30
0.0
 11
102.7216829999999
 21
51.825748
 31
0.0
  0
LINE
  5
C98F
330
C843
100
AcDbEntity
  8
1
  6
Continuous
100
AcDbLine
 10
103.928975
 20
48.772046
 30
0.0
 11
103.9132329999999
 21
51.769505
 31
0.0
  0
LINE
  5
C990
330
C843
100
AcDbEntity
  8
1
  6
Continuous
100
AcDbLine
 10
101.6859109999999
 20
48.760267
 30
0.0
 11
101.465006
 21
45.72756499999999
 31
0.0
  0
LINE
  5
C991
330
C843
100
AcDbEntity
  8
1
  6
Continuous
100
AcDbLine
 10
102.393924
 20
45.703943
 30
0.0
 11
102.7377519999999
 21
48.765791
 31
0.0
  0
LINE
  5
C992
330
C843
100
AcDbEntity
  8
1
  6
Continuous
100
AcDbLine
 10
103.639343
 20
45.772984
 30
0.0
 11
103.928975
 21
48.772046
 31
0.0
  0
ARC
  5
C993
330
C843
100
AcDbEntity
  8
1
  6
Continuous
100
AcDbCircle
 10
101.346508
 20
45.726943
 30
0.0
 40
0.1185
100
AcDbArc
 50
175.827086
 51
0.300892
  0
ARC
  5
C994
330
C843
100
AcDbEntity
  8
1
  6
Continuous
100
AcDbCircle
 10
102.303925
 20
45.70347
 30
0.0
 40
0.09
100
AcDbArc
 50
180.300892
 51
0.300892
  0
ARC
  5
C995
330
C843
100
AcDbEntity
  8
1
  6
Continuous
100
AcDbCircle
 10
103.4868459999999
 20
45.772183
 30
0.0
 40
0.1525
100
AcDbArc
 50
174.468788
 51
0.300892
  0
ARC
  5
C996
330
C843
100
AcDbEntity
  8
1
  6
Continuous
100
AcDbCircle
 10
104.7708269999997
 20
45.797926
 30
0.0
 40
0.1715
100
AcDbArc
 50
173.7041139999998
 51
0.300892
  0
ARC
  5
C997
330
C843
100
AcDbEntity
  8
1
  6
Continuous
100
AcDbCircle
 10
101.551492
 20
51.791103
 30
0.0
 40
0.1185
100
AcDbArc
 50
0.300892
 51
180.300892
  0
ARC
  5
C998
330
C843
100
AcDbEntity
  8
1
  6
Continuous
100
AcDbCircle
 10
102.631684
 20
51.825276
 30
0.0
 40
0.09
100
AcDbArc
 50
0.300892
 51
180.300892
  0
ARC
  5
C999
330
C843
100
AcDbEntity
  8
1
  6
Continuous
100
AcDbCircle
 10
103.760735
 20
51.768704
 30
0.0
 40
0.1525
100
AcDbArc
 50
0.300892
 51
180.300892
  0
LINE
  5
C99A
330
C843
100
AcDbEntity
  8
1
  6
Continuous
100
AcDbLine
 10
106.020259
 20
45.82523799999999
 30
0.0
 11
106.3737659999999
 21
51.742676
 31
0.0
  0
LINE
  5
C99B
330
C843
100
AcDbEntity
  8
1
  6
Continuous
100
AcDbLine
 10
106.758261
 20
51.744695
 30
0.0
 11
106.7737939999999
 21
48.78698599999999
 31
0.0
  0
LINE
  5
C99C
330
C843
100
AcDbEntity
  8
1
  6
Continuous
100
AcDbLine
 10
105.2699879999998
 20
48.779089
 30
0.0
 11
105.254347
 21
51.75754799999999
 31
0.0
  0
LINE
  5
C99D
330
C843
100
AcDbEntity
  8
1
  6
Continuous
100
AcDbLine
 10
106.404754
 20
45.827257
 30
0.0
 11
106.7737939999999
 21
48.78698599999999
 31
0.0
  0
ARC
  5
C99E
330
C843
100
AcDbEntity
  8
1
  6
Continuous
100
AcDbCircle
 10
106.212506
 20
45.826248
 30
0.0
 40
0.19225
100
AcDbArc
 50
180.300892
 51
0.300892
  0
ARC
  5
C99F
330
C843
100
AcDbEntity
  8
1
  6
Continuous
100
AcDbCircle
 10
106.5660129999999
 20
51.743686
 30
0.0
 40
0.19225
100
AcDbArc
 50
0.300892
 51
180.300892
  0
LINE
  5
C9A0
330
C843
100
AcDbEntity
  8
1
  6
Continuous
100
AcDbLine
 10
107.611735
 20
45.856596
 30
0.0
 11
108.0109219999998
 21
51.728274
 31
0.0
  0
LINE
  5
C9A1
330
C843
100
AcDbEntity
  8
1
  6
Continuous
100
AcDbLine
 10
111.68557
 20
46.16162
 30
0.0
 11
112.249382
 21
51.802193
 31
0.0
  0
LINE
  5
C9A2
330
C843
100
AcDbEntity
  8
1
  6
Continuous
100
AcDbLine
 10
109.285604
 20
46.14901699999999
 30
0.0
 11
109.849415
 21
51.789589
 31
0.0
  0
LINE
  5
C9A3
330
C843
100
AcDbEntity
  8
1
  6
Continuous
100
AcDbLine
 10
108.439283
 20
51.69915200000001
 30
0.0
 11
108.45453
 21
48.795813
 31
0.0
  0
LINE
  5
C9A4
330
C843
100
AcDbEntity
  8
1
  6
Continuous
100
AcDbLine
 10
110.463553
 20
49.09895999999999
 30
0.0
 11
110.449406
 21
51.79274
 31
0.0
  0
LINE
  5
C9A5
330
C843
100
AcDbEntity
  8
1
  6
Continuous
100
AcDbLine
 10
109.8793479999998
 20
46.089668
 30
0.0
 11
110.4330009999999
 21
48.789781
 31
0.0
  0
ARC
  5
C9A6
330
C843
100
AcDbEntity
  8
1
  6
Continuous
100
AcDbCircle
 10
108.963574
 20
49.09108299999999
 30
0.0
 40
1.5
100
AcDbArc
 50
348.412234
 51
0.300892
  0
ARC
  5
C9A7
330
C843
100
AcDbEntity
  8
1
  6
Continuous
100
AcDbCircle
 10
109.5793529999999
 20
46.08809299999999
 30
0.0
 40
0.3
100
AcDbArc
 50
168.28288
 51
0.300892
  0
ARC
  5
C9A8
330
C843
100
AcDbEntity
  8
1
  6
Continuous
100
AcDbCircle
 10
111.9793189999999
 20
46.100696
 30
0.0
 40
0.3
100
AcDbArc
 50
168.28288
 51
0.300892
  0
LINE
  5
C9A9
330
C843
100
AcDbEntity
  8
1
  6
Continuous
100
AcDbLine
 10
108.042229
 20
45.858857
 30
0.0
 11
108.45453
 21
48.795813
 31
0.0
  0
ARC
  5
C9AA
330
C843
100
AcDbEntity
  8
1
  6
Continuous
100
AcDbCircle
 10
107.826982
 20
45.85772699999998
 30
0.0
 40
0.21525
100
AcDbArc
 50
180.300892
 51
0.300892
  0
ARC
  5
C9AB
330
C843
100
AcDbEntity
  8
1
  6
Continuous
100
AcDbCircle
 10
110.149411
 20
51.791165
 30
0.0
 40
0.3
100
AcDbArc
 50
0.300892
 51
180.300892
  0
ARC
  5
C9AC
330
C843
100
AcDbEntity
  8
1
  6
Continuous
100
AcDbCircle
 10
108.2261689999999
 20
51.72940399999998
 30
0.0
 40
0.21525
100
AcDbArc
 50
351.9205539999999
 51
180.300892
  0
LINE
  5
C9AD
330
C843
100
AcDbEntity
  8
1
  6
Continuous
100
AcDbLine
 10
114.085537
 20
46.174224
 30
0.0
 11
114.649349
 21
51.814797
 31
0.0
  0
LINE
  5
C9AE
330
C843
100
AcDbEntity
  8
1
  6
Continuous
100
AcDbLine
 10
115.263487
 20
49.12416799999999
 30
0.0
 11
115.24934
 21
51.817948
 31
0.0
  0
LINE
  5
C9AF
330
C843
100
AcDbEntity
  8
1
  6
Continuous
100
AcDbLine
 10
112.8635199999998
 20
49.111564
 30
0.0
 11
112.8493729999999
 21
51.80534399999999
 31
0.0
  0
LINE
  5
C9B0
330
C843
100
AcDbEntity
  8
1
  6
Continuous
100
AcDbLine
 10
114.6792819999999
 20
46.11487499999999
 30
0.0
 11
115.232935
 21
48.814988
 31
0.0
  0
ARC
  5
C9B1
330
C843
100
AcDbEntity
  8
1
  6
Continuous
100
AcDbCircle
 10
113.763508
 20
49.11629
 30
0.0
 40
1.5
100
AcDbArc
 50
348.412234
 51
0.300892
  0
ARC
  5
C9B2
330
C843
100
AcDbEntity
  8
1
  6
Continuous
100
AcDbCircle
 10
114.379286
 20
46.1133
 30
0.0
 40
0.3
100
AcDbArc
 50
168.28288
 51
0.300892
  0
LINE
  5
C9B3
330
C843
100
AcDbEntity
  8
1
  6
Continuous
100
AcDbLine
 10
112.2793149999999
 20
46.10227199999999
 30
0.0
 11
112.832968
 21
48.802384
 31
0.0
  0
ARC
  5
C9B4
330
C843
100
AcDbEntity
  8
1
  6
Continuous
100
AcDbCircle
 10
111.363541
 20
49.103687
 30
0.0
 40
1.5
100
AcDbArc
 50
348.412234
 51
0.300892
  0
ARC
  5
C9B5
330
C843
100
AcDbEntity
  8
1
  6
Continuous
100
AcDbCircle
 10
114.949344
 20
51.81637199999999
 30
0.0
 40
0.3
100
AcDbArc
 50
0.300892
 51
180.300892
  0
ARC
  5
C9B6
330
C843
100
AcDbEntity
  8
1
  6
Continuous
100
AcDbCircle
 10
112.549377
 20
51.803768
 30
0.0
 40
0.3
100
AcDbArc
 50
0.300892
 51
180.300892
  0
ARC
  5
C9B7
330
C843
100
AcDbEntity
  8
1
  6
Continuous
100
AcDbCircle
 10
117.111348
 20
51.743825
 30
0.0
 40
0.3
100
AcDbArc
 50
0.300892
 51
180.300892
  0
LINE
  5
C9B8
330
C843
100
AcDbEntity
  8
1
  6
Continuous
100
AcDbLine
 10
117.4254899999999
 20
49.051621
 30
0.0
 11
117.411343
 21
51.745401
 31
0.0
  0
LINE
  5
C9B9
330
C843
100
AcDbEntity
  8
1
  6
Continuous
100
AcDbLine
 10
116.247541
 20
46.101677
 30
0.0
 11
116.811352
 21
51.74224999999999
 31
0.0
  0
LINE
  5
C9BA
330
C843
100
AcDbEntity
  8
1
  6
Continuous
100
AcDbLine
 10
116.841285
 20
46.04232800000001
 30
0.0
 11
117.3949379999999
 21
48.742441
 31
0.0
  0
ARC
  5
C9BB
330
C843
100
AcDbEntity
  8
1
  6
Continuous
100
AcDbCircle
 10
116.5412899999999
 20
46.040753
 30
0.0
 40
0.3
100
AcDbArc
 50
168.28288
 51
0.300892
  0
ARC
  5
C9BC
330
C843
100
AcDbEntity
  8
1
  6
Continuous
100
AcDbCircle
 10
115.925511
 20
49.043743
 30
0.0
 40
1.5
100
AcDbArc
 50
348.412234
 51
0.300892
  0
ARC
  5
C9BD
330
C843
100
AcDbEntity
  8
1
  6
Continuous
100
AcDbCircle
 10
119.1532929999999
 20
51.791165
 30
0.0
 40
0.3
100
AcDbArc
 50
0.300892
 51
180.300892
  0
LINE
  5
C9BE
330
C843
100
AcDbEntity
  8
1
  6
Continuous
100
AcDbLine
 10
119.4674349999999
 20
49.09895999999999
 30
0.0
 11
119.4532879999999
 21
51.79274
 31
0.0
  0
LINE
  5
C9BF
330
C843
100
AcDbEntity
  8
1
  6
Continuous
100
AcDbLine
 10
118.289486
 20
46.14901699999999
 30
0.0
 11
118.853297
 21
51.789589
 31
0.0
  0
ARC
  5
C9C0
330
C843
100
AcDbEntity
  8
1
  6
Continuous
100
AcDbCircle
 10
118.583235
 20
46.08809299999999
 30
0.0
 40
0.3
100
AcDbArc
 50
168.28288
 51
0.300892
  0
LINE
  5
C9C1
330
C843
100
AcDbEntity
  8
1
  6
Continuous
100
AcDbLine
 10
118.88323
 20
46.089668
 30
0.0
 11
119.4368829999999
 21
48.789781
 31
0.0
  0
LINE
  5
C9C2
330
C843
100
AcDbEntity
  8
1
  6
Continuous
100
AcDbLine
 10
119.4674349999999
 20
49.09895999999999
 30
0.0
 11
119.428726
 21
48.75
 31
0.0
  0
ARC
  5
C9C3
330
C843
100
AcDbEntity
  8
1
  6
Continuous
100
AcDbCircle
 10
120.9631459999999
 20
51.788235
 30
0.0
 40
0.21525
100
AcDbArc
 50
351.9205539999999
 51
180.300892
  0
LINE
  5
C9C4
330
C843
100
AcDbEntity
  8
1
  6
Continuous
100
AcDbLine
 10
121.17626
 20
51.757983
 30
0.0
 11
121.191507
 21
48.854644
 31
0.0
  0
LINE
  5
C9C5
330
C843
100
AcDbEntity
  8
1
  6
Continuous
100
AcDbLine
 10
120.348712
 20
45.915428
 30
0.0
 11
120.747899
 21
51.787105
 31
0.0
  0
ARC
  5
C9C6
330
C843
100
AcDbEntity
  8
1
  6
Continuous
100
AcDbCircle
 10
120.563959
 20
45.916558
 30
0.0
 40
0.21525
100
AcDbArc
 50
180.300892
 51
0.300892
  0
LINE
  5
C9C7
330
C843
100
AcDbEntity
  8
1
  6
Continuous
100
AcDbLine
 10
120.779206
 20
45.91768799999999
 30
0.0
 11
121.191507
 21
48.854644
 31
0.0
  0
LINE
  5
C9C8
330
C843
100
AcDbEntity
  8
1
  6
Continuous
100
AcDbLine
 10
124.3582159999998
 20
48.839032
 30
0.0
 11
124.3425739999999
 21
51.817491
 31
0.0
  0
LINE
  5
C9C9
330
C843
100
AcDbEntity
  8
1
  6
Continuous
100
AcDbLine
 10
123.6885889999998
 20
45.87667699999999
 30
0.0
 11
123.999579
 21
51.81568999999999
 31
0.0
  0
ARC
  5
C9CA
330
C843
100
AcDbEntity
  8
1
  6
Continuous
100
AcDbCircle
 10
124.171077
 20
51.81658999999999
 30
0.0
 40
0.1715
100
AcDbArc
 50
0.300892
 51
180.300892
  0
ARC
  5
C9CB
330
C843
100
AcDbEntity
  8
1
  6
Continuous
100
AcDbCircle
 10
125.6542409999999
 20
51.803629
 30
0.0
 40
0.19225
100
AcDbArc
 50
0.300892
 51
180.300892
  0
LINE
  5
C9CC
330
C843
100
AcDbEntity
  8
1
  6
Continuous
100
AcDbLine
 10
125.846488
 20
51.804639
 30
0.0
 11
125.8620209999999
 21
48.84693
 31
0.0
  0
LINE
  5
C9CD
330
C843
100
AcDbEntity
  8
1
  6
Continuous
100
AcDbLine
 10
125.108486
 20
45.885182
 30
0.0
 11
125.4619939999999
 21
51.80261999999999
 31
0.0
  0
ARC
  5
C9CE
330
C843
100
AcDbEntity
  8
1
  6
Continuous
100
AcDbCircle
 10
123.859055
 20
45.85786999999998
 30
0.0
 40
0.1715
100
AcDbArc
 50
173.7041139999998
 51
0.300892
  0
LINE
  5
C9CF
330
C843
100
AcDbEntity
  8
1
  6
Continuous
100
AcDbLine
 10
124.0305519999999
 20
45.85876999999999
 30
0.0
 11
124.3582159999998
 21
48.839032
 31
0.0
  0
ARC
  5
C9D0
330
C843
100
AcDbEntity
  8
1
  6
Continuous
100
AcDbCircle
 10
125.300734
 20
45.88619099999998
 30
0.0
 40
0.19225
100
AcDbArc
 50
180.300892
 51
0.300892
  0
LINE
  5
C9D1
330
C843
100
AcDbEntity
  8
1
  6
Continuous
100
AcDbLine
 10
125.4929809999999
 20
45.88720099999998
 30
0.0
 11
125.8620209999999
 21
48.84693
 31
0.0
  0
ARC
  5
C9D2
330
C843
100
AcDbEntity
  8
1
  6
Continuous
100
AcDbCircle
 10
126.774735
 20
51.70459199999999
 30
0.0
 40
0.09
100
AcDbArc
 50
0.300892
 51
180.300892
  0
LINE
  5
C9D3
330
C843
100
AcDbEntity
  8
1
  6
Continuous
100
AcDbLine
 10
126.8808039999999
 20
48.645107
 30
0.0
 11
126.864734
 21
51.705064
 31
0.0
  0
LINE
  5
C9D4
330
C843
100
AcDbEntity
  8
1
  6
Continuous
100
AcDbLine
 10
126.356978
 20
45.582313
 30
0.0
 11
126.684737
 21
51.704119
 31
0.0
  0
LINE
  5
C9D5
330
C843
100
AcDbEntity
  8
1
  6
Continuous
100
AcDbLine
 10
126.536975
 20
45.58325899999998
 30
0.0
 11
126.8808039999999
 21
48.645107
 31
0.0
  0
ARC
  5
C9D6
330
C843
100
AcDbEntity
  8
1
  6
Continuous
100
AcDbCircle
 10
126.446977
 20
45.582786
 30
0.0
 40
0.09
100
AcDbArc
 50
180.300892
 51
0.300892
  0
LINE
  5
C9D7
330
C843
100
AcDbEntity
  8
1
  6
Continuous
100
AcDbLine
 10
202.524329
 20
121.944256
 30
0.0
 11
205.095952
 21
121.944256
 31
0.0
  0
ARC
  5
C9D8
330
C843
100
AcDbEntity
  8
1
  6
Continuous
100
AcDbCircle
 10
195.9516129999999
 20
112.390212
 30
0.0
 40
0.3
100
AcDbArc
 50
90.300892
 51
270.3008919999999
  0
LINE
  5
C9D9
330
C843
100
AcDbEntity
  8
1
  6
Continuous
100
AcDbLine
 10
201.6531099999999
 20
112.1201499999999
 30
0.0
 11
198.952997
 21
112.673803
 31
0.0
  0
ARC
  5
C9DA
330
C843
100
AcDbEntity
  8
1
  6
Continuous
100
AcDbCircle
 10
195.964217
 20
109.990245
 30
0.0
 40
0.3
100
AcDbArc
 50
90.300892
 51
270.3008919999999
  0
ARC
  5
C9DB
330
C843
100
AcDbEntity
  8
1
  6
Continuous
100
AcDbCircle
 10
195.976821
 20
107.590278
 30
0.0
 40
0.3
100
AcDbArc
 50
90.300892
 51
270.3008919999999
  0
ARC
  5
C9DC
330
C843
100
AcDbEntity
  8
1
  6
Continuous
100
AcDbCircle
 10
195.9894239999999
 20
105.190311
 30
0.0
 40
0.3
100
AcDbArc
 50
90.300892
 51
270.3008919999999
  0
ARC
  5
C9DD
330
C843
100
AcDbEntity
  8
1
  6
Continuous
100
AcDbCircle
 10
201.654686
 20
111.820154
 30
0.0
 40
0.3
100
AcDbArc
 50
258.2828799999999
 51
90.300892
  0
ARC
  5
C9DE
330
C843
100
AcDbEntity
  8
1
  6
Continuous
100
AcDbCircle
 10
201.6672889999999
 20
109.420187
 30
0.0
 40
0.3
100
AcDbArc
 50
258.2828799999999
 51
90.300892
  0
ARC
  5
C9DF
330
C843
100
AcDbEntity
  8
1
  6
Continuous
100
AcDbCircle
 10
198.6642989999998
 20
108.804408
 30
0.0
 40
1.5
100
AcDbArc
 50
78.412234
 51
90.300892
  0
LINE
  5
C9E0
330
C843
100
AcDbEntity
  8
1
  6
Continuous
100
AcDbLine
 10
201.6657139999999
 20
109.720183
 30
0.0
 11
198.965601
 21
110.273836
 31
0.0
  0
ARC
  5
C9E1
330
C843
100
AcDbEntity
  8
1
  6
Continuous
100
AcDbCircle
 10
201.6798929999999
 20
107.0202199999999
 30
0.0
 40
0.3
100
AcDbArc
 50
258.2828799999999
 51
90.300892
  0
ARC
  5
C9E2
330
C843
100
AcDbEntity
  8
1
  6
Continuous
100
AcDbCircle
 10
201.692497
 20
104.6202529999999
 30
0.0
 40
0.3
100
AcDbArc
 50
258.2828799999999
 51
90.300892
  0
ARC
  5
C9E3
330
C843
100
AcDbEntity
  8
1
  6
Continuous
100
AcDbCircle
 10
198.676902
 20
106.4044409999999
 30
0.0
 40
1.5
100
AcDbArc
 50
78.412234
 51
90.300892
  0
ARC
  5
C9E4
330
C843
100
AcDbEntity
  8
1
  6
Continuous
100
AcDbCircle
 10
198.6895059999999
 20
104.004475
 30
0.0
 40
1.5
100
AcDbArc
 50
78.412234
 51
90.300892
  0
LINE
  5
C9E5
330
C843
100
AcDbEntity
  8
1
  6
Continuous
100
AcDbLine
 10
201.678317
 20
107.3202159999999
 30
0.0
 11
198.978205
 21
107.873869
 31
0.0
  0
LINE
  5
C9E6
330
C843
100
AcDbEntity
  8
1
  6
Continuous
100
AcDbLine
 10
201.690921
 20
104.920249
 30
0.0
 11
198.990808
 21
105.4739019999999
 31
0.0
  0
LINE
  5
C9E7
330
C843
100
AcDbEntity
  8
1
  6
Continuous
100
AcDbLine
 10
198.656421
 20
110.3043879999999
 30
0.0
 11
195.962641
 21
110.2902409999999
 31
0.0
  0
LINE
  5
C9E8
330
C843
100
AcDbEntity
  8
1
  6
Continuous
100
AcDbLine
 10
198.669025
 20
107.9044209999999
 30
0.0
 11
195.975245
 21
107.8902739999999
 31
0.0
  0
LINE
  5
C9E9
330
C843
100
AcDbEntity
  8
1
  6
Continuous
100
AcDbLine
 10
198.6816289999999
 20
105.504454
 30
0.0
 11
195.987849
 21
105.4903069999999
 31
0.0
  0
LINE
  5
C9EA
330
C843
100
AcDbEntity
  8
1
  6
Continuous
100
AcDbLine
 10
201.5937609999999
 20
111.526405
 30
0.0
 11
195.9531889999999
 21
112.0902159999999
 31
0.0
  0
LINE
  5
C9EB
330
C843
100
AcDbEntity
  8
1
  6
Continuous
100
AcDbLine
 10
201.6063649999999
 20
109.1264379999998
 30
0.0
 11
195.9657919999999
 21
109.6902489999998
 31
0.0
  0
LINE
  5
C9EC
330
C843
100
AcDbEntity
  8
1
  6
Continuous
100
AcDbLine
 10
201.618969
 20
106.7264709999999
 30
0.0
 11
195.978396
 21
107.290282
 31
0.0
  0
LINE
  5
C9ED
330
C843
100
AcDbEntity
  8
1
  6
Continuous
100
AcDbLine
 10
201.631572
 20
104.326504
 30
0.0
 11
195.9909999999999
 21
104.890316
 31
0.0
  0
ARC
  5
C9EE
330
C843
100
AcDbEntity
  8
1
  6
Continuous
100
AcDbCircle
 10
195.93901
 20
114.7901789999999
 30
0.0
 40
0.3
100
AcDbArc
 50
90.300892
 51
270.3008919999999
  0
ARC
  5
C9EF
330
C843
100
AcDbEntity
  8
1
  6
Continuous
100
AcDbCircle
 10
195.9264059999999
 20
117.1901459999999
 30
0.0
 40
0.3
100
AcDbArc
 50
90.300892
 51
270.3008919999999
  0
ARC
  5
C9F0
330
C843
100
AcDbEntity
  8
1
  6
Continuous
100
AcDbCircle
 10
198.651695
 20
111.2043749999999
 30
0.0
 40
1.5
100
AcDbArc
 50
78.412234
 51
90.300892
  0
ARC
  5
C9F1
330
C843
100
AcDbEntity
  8
1
  6
Continuous
100
AcDbCircle
 10
201.6294779999999
 20
116.6200879999999
 30
0.0
 40
0.3
100
AcDbArc
 50
258.2828799999999
 51
90.300892
  0
ARC
  5
C9F2
330
C843
100
AcDbEntity
  8
1
  6
Continuous
100
AcDbCircle
 10
201.642082
 20
114.2201209999999
 30
0.0
 40
0.3
100
AcDbArc
 50
258.2828799999999
 51
90.300892
  0
ARC
  5
C9F3
330
C843
100
AcDbEntity
  8
1
  6
Continuous
100
AcDbCircle
 10
198.6390909999999
 20
113.6043419999999
 30
0.0
 40
1.5
100
AcDbArc
 50
78.412234
 51
90.300892
  0
ARC
  5
C9F4
330
C843
100
AcDbEntity
  8
1
  6
Continuous
100
AcDbCircle
 10
198.626488
 20
116.004309
 30
0.0
 40
1.5
100
AcDbArc
 50
78.412234
 51
90.300892
  0
LINE
  5
C9F5
330
C843
100
AcDbEntity
  8
1
  6
Continuous
100
AcDbLine
 10
201.627903
 20
116.920084
 30
0.0
 11
198.9277899999999
 21
117.473737
 31
0.0
  0
LINE
  5
C9F6
330
C843
100
AcDbEntity
  8
1
  6
Continuous
100
AcDbLine
 10
201.6405059999999
 20
114.5201169999999
 30
0.0
 11
198.940394
 21
115.07377
 31
0.0
  0
LINE
  5
C9F7
330
C843
100
AcDbEntity
  8
1
  6
Continuous
100
AcDbLine
 10
198.643818
 20
112.704355
 30
0.0
 11
195.9500379999998
 21
112.690208
 31
0.0
  0
LINE
  5
C9F8
330
C843
100
AcDbEntity
  8
1
  6
Continuous
100
AcDbLine
 10
198.631214
 20
115.104322
 30
0.0
 11
195.937434
 21
115.090175
 31
0.0
  0
LINE
  5
C9F9
330
C843
100
AcDbEntity
  8
1
  6
Continuous
100
AcDbLine
 10
198.6186099999999
 20
117.5042879999999
 30
0.0
 11
195.9248299999999
 21
117.4901419999999
 31
0.0
  0
LINE
  5
C9FA
330
C843
100
AcDbEntity
  8
1
  6
Continuous
100
AcDbLine
 10
201.568554
 20
116.326339
 30
0.0
 11
195.9279809999999
 21
116.89015
 31
0.0
  0
LINE
  5
C9FB
330
C843
100
AcDbEntity
  8
1
  6
Continuous
100
AcDbLine
 10
201.5811579999999
 20
113.9263719999999
 30
0.0
 11
195.9405849999999
 21
114.490183
 31
0.0
  0
ARC
  5
C9FC
330
C843
100
AcDbEntity
  8
1
  6
Continuous
100
AcDbCircle
 10
195.7042329999999
 20
119.022998
 30
0.0
 40
0.21525
100
AcDbArc
 50
81.92055399999999
 51
270.3008919999999
  0
ARC
  5
C9FD
330
C843
100
AcDbEntity
  8
1
  6
Continuous
100
AcDbCircle
 10
201.5759099999999
 20
118.62381
 30
0.0
 40
0.21525
100
AcDbArc
 50
270.3008919999999
 51
90.300892
  0
LINE
  5
C9FE
330
C843
100
AcDbEntity
  8
1
  6
Continuous
100
AcDbLine
 10
201.57478
 20
118.839057
 30
0.0
 11
198.637824
 21
119.2513589999999
 31
0.0
  0
LINE
  5
C9FF
330
C843
100
AcDbEntity
  8
1
  6
Continuous
100
AcDbLine
 10
195.734485
 20
119.236111
 30
0.0
 11
198.637824
 21
119.2513589999999
 31
0.0
  0
LINE
  5
CA00
330
C843
100
AcDbEntity
  8
1
  6
Continuous
100
AcDbLine
 10
201.57704
 20
118.408563
 30
0.0
 11
195.7053629999998
 21
118.80775
 31
0.0
  0
LINE
  5
CA01
330
C843
100
AcDbEntity
  8
1
  6
Continuous
100
AcDbLine
 10
201.517011
 20
119.7273189999998
 30
0.0
 11
195.6453339999999
 21
120.126506
 31
0.0
  0
LINE
  5
CA02
330
C843
100
AcDbEntity
  8
1
  6
Continuous
100
AcDbLine
 10
201.5147499999999
 20
120.1578129999999
 30
0.0
 11
200.0050379999999
 21
120.369753
 31
0.0
  0
ARC
  5
CA03
330
C843
100
AcDbEntity
  8
1
  6
Continuous
100
AcDbCircle
 10
201.5158809999999
 20
119.9425659999999
 30
0.0
 40
0.21525
100
AcDbArc
 50
270.3008919999999
 51
90.300892
  0
ARC
  5
CA04
330
C843
100
AcDbEntity
  8
1
  6
Continuous
100
AcDbCircle
 10
195.6442039999998
 20
120.341753
 30
0.0
 40
0.21525
100
AcDbArc
 50
81.92055399999999
 51
270.3008919999999
  0
LINE
  5
CA05
330
C843
100
AcDbEntity
  8
1
  6
Continuous
100
AcDbLine
 10
195.6744559999999
 20
120.5548669999999
 30
0.0
 11
196.628105
 21
120.559875
 31
0.0
  0
ARC
  5
CA06
330
C843
100
AcDbEntity
  8
1
  6
Continuous
100
AcDbCircle
 10
201.575904
 20
121.0215489999998
 30
0.0
 40
0.21525
100
AcDbArc
 50
270.3008919999999
 51
53.80554899999999
  0
LINE
  5
CA07
330
C843
100
AcDbEntity
  8
1
  6
Continuous
100
AcDbLine
 10
201.577035
 20
120.8063019999999
 30
0.0
 11
201.142109
 21
120.83587
 31
0.0
  0
ARC
  5
CA08
330
C843
100
AcDbEntity
  8
1
  6
Continuous
100
AcDbCircle
 10
196.0890019999999
 20
101.46209
 30
0.0
 40
0.21525
100
AcDbArc
 50
81.92055399999999
 51
270.3008919999999
  0
ARC
  5
CA09
330
C843
100
AcDbEntity
  8
1
  6
Continuous
100
AcDbCircle
 10
196.027241
 20
103.3853319999999
 30
0.0
 40
0.3
100
AcDbArc
 50
90.300892
 51
270.3008919999999
  0
ARC
  5
CA0A
330
C843
100
AcDbEntity
  8
1
  6
Continuous
100
AcDbCircle
 10
201.960679
 20
101.062903
 30
0.0
 40
0.21525
100
AcDbArc
 50
270.3008919999999
 51
90.300892
  0
LINE
  5
CA0B
330
C843
100
AcDbEntity
  8
1
  6
Continuous
100
AcDbLine
 10
201.9595479999999
 20
101.27815
 30
0.0
 11
199.022593
 21
101.690451
 31
0.0
  0
ARC
  5
CA0C
330
C843
100
AcDbEntity
  8
1
  6
Continuous
100
AcDbCircle
 10
201.730313
 20
102.8152729999999
 30
0.0
 40
0.3
100
AcDbArc
 50
258.2828799999999
 51
90.300892
  0
ARC
  5
CA0D
330
C843
100
AcDbEntity
  8
1
  6
Continuous
100
AcDbCircle
 10
198.7273219999999
 20
102.199495
 30
0.0
 40
1.5
100
AcDbArc
 50
78.412234
 51
90.300892
  0
LINE
  5
CA0E
330
C843
100
AcDbEntity
  8
1
  6
Continuous
100
AcDbLine
 10
201.7287379999999
 20
103.115269
 30
0.0
 11
199.028625
 21
103.6689219999999
 31
0.0
  0
LINE
  5
CA0F
330
C843
100
AcDbEntity
  8
1
  6
Continuous
100
AcDbLine
 10
198.799217
 20
98.68574200000001
 30
0.0
 11
195.820758
 21
98.6701
 31
0.0
  0
LINE
  5
CA10
330
C843
100
AcDbEntity
  8
1
  6
Continuous
100
AcDbLine
 10
198.719445
 20
103.6994739999999
 30
0.0
 11
196.025665
 21
103.6853269999999
 31
0.0
  0
LINE
  5
CA11
330
C843
100
AcDbEntity
  8
1
  6
Continuous
100
AcDbLine
 10
196.119254
 20
101.6752039999999
 30
0.0
 11
199.022593
 21
101.690451
 31
0.0
  0
LINE
  5
CA12
330
C843
100
AcDbEntity
  8
1
  6
Continuous
100
AcDbLine
 10
201.6693889999999
 20
102.521525
 30
0.0
 11
196.0288159999999
 21
103.085336
 31
0.0
  0
LINE
  5
CA13
330
C843
100
AcDbEntity
  8
1
  6
Continuous
100
AcDbLine
 10
201.9618089999999
 20
100.847656
 30
0.0
 11
196.0901319999999
 21
101.2468429999999
 31
0.0
  0
ARC
  5
CA14
330
C843
100
AcDbEntity
  8
1
  6
Continuous
100
AcDbCircle
 10
201.780379
 20
98.186581
 30
0.0
 40
0.1715
100
AcDbArc
 50
263.704114
 51
90.300892
  0
LINE
  5
CA15
330
C843
100
AcDbEntity
  8
1
  6
Continuous
100
AcDbLine
 10
201.761572
 20
98.01611600000001
 30
0.0
 11
195.8225589999999
 21
98.32710500000001
 31
0.0
  0
LINE
  5
CA16
330
C843
100
AcDbEntity
  8
1
  6
Continuous
100
AcDbLine
 10
201.7794789999999
 20
98.35807800000001
 30
0.0
 11
198.799217
 21
98.68574200000001
 31
0.0
  0
ARC
  5
CA17
330
C843
100
AcDbEntity
  8
1
  6
Continuous
100
AcDbCircle
 10
195.821658
 20
98.49860300000001
 30
0.0
 40
0.1715
100
AcDbArc
 50
90.300892
 51
270.3008919999999
  0
ARC
  5
CA18
330
C843
100
AcDbEntity
  8
1
  6
Continuous
100
AcDbCircle
 10
195.809601
 20
97.176489
 30
0.0
 40
0.1525
100
AcDbArc
 50
90.300892
 51
270.3008919999999
  0
ARC
  5
CA19
330
C843
100
AcDbEntity
  8
1
  6
Continuous
100
AcDbCircle
 10
201.8061219999999
 20
96.902599
 30
0.0
 40
0.1525
100
AcDbArc
 50
264.4687879999998
 51
90.300892
  0
LINE
  5
CA1A
330
C843
100
AcDbEntity
  8
1
  6
Continuous
100
AcDbLine
 10
201.805322
 20
97.055097
 30
0.0
 11
198.806259
 21
97.344728
 31
0.0
  0
LINE
  5
CA1B
330
C843
100
AcDbEntity
  8
1
  6
Continuous
100
AcDbLine
 10
198.806259
 20
97.344728
 30
0.0
 11
195.8088009999999
 21
97.32898699999999
 31
0.0
  0
LINE
  5
CA1C
330
C843
100
AcDbEntity
  8
1
  6
Continuous
100
AcDbLine
 10
201.791423
 20
96.75080900000001
 30
0.0
 11
195.810402
 21
97.023991
 31
0.0
  0
LINE
  5
CA1D
330
C843
100
AcDbEntity
  8
1
  6
Continuous
100
AcDbLine
 10
101.196478
 20
181.0105439999999
 30
0.0
 11
101.1885289999999
 21
182.524204
 31
0.0
  0
LINE
  5
CA1E
330
C843
100
AcDbEntity
  8
1
  6
Continuous
100
AcDbLine
 10
100.680773
 20
176.401453
 30
0.0
 11
101.0085319999999
 21
182.5232589999998
 31
0.0
  0
LINE
  5
CA1F
330
C843
100
AcDbEntity
  8
1
  6
Continuous
100
AcDbLine
 10
100.8607709999999
 20
176.402398
 30
0.0
 11
101.060179
 21
178.178159
 31
0.0
  0
ARC
  5
CA20
330
C843
100
AcDbEntity
  8
1
  6
Continuous
100
AcDbCircle
 10
100.7707719999998
 20
176.4019259999998
 30
0.0
 40
0.09
100
AcDbArc
 50
180.300892
 51
0.300892
  0
LINE
  5
CA21
330
C843
100
AcDbEntity
  8
1
  6
Continuous
100
AcDbLine
 10
101.0085319999999
 20
182.5232589999998
 30
0.0
 11
101.1885289999999
 21
182.524204
 31
0.0
  0
LINE
  5
CA22
330
C843
100
AcDbEntity
  8
1
  6
Continuous
100
AcDbLine
 10
103.170365
 20
182.427483
 30
0.0
 11
103.1693849999999
 21
182.6141199999999
 31
0.0
  0
ARC
  5
CA23
330
C843
100
AcDbEntity
  8
1
  6
Continuous
100
AcDbCircle
 10
102.7516279999999
 20
176.4918419999999
 30
0.0
 40
0.09
100
AcDbArc
 50
225.6513559999999
 51
314.3486439999999
  0
LINE
  5
CA24
330
C843
100
AcDbEntity
  8
1
  6
Continuous
100
AcDbLine
 10
102.989388
 20
182.613175
 30
0.0
 11
103.1693849999999
 21
182.6141199999999
 31
0.0
  0
LINE
  5
CA25
330
C843
100
AcDbEntity
  8
1
  6
Continuous
100
AcDbLine
 10
102.006861
 20
182.140251
 30
0.0
 11
102.028972
 21
182.553232
 31
0.0
  0
LINE
  5
CA26
330
C843
100
AcDbEntity
  8
1
  6
Continuous
100
AcDbLine
 10
102.9794459999999
 20
182.427483
 30
0.0
 11
102.989388
 21
182.613175
 31
0.0
  0
LINE
  5
CA27
330
C843
100
AcDbEntity
  8
1
  6
Continuous
100
AcDbLine
 10
194.595952
 20
123.1177199999999
 30
0.0
 11
198.595952
 21
120.8083189999999
 31
0.0
  0
LINE
  5
CA28
330
C843
100
AcDbEntity
  8
1
  6
Continuous
100
AcDbLine
 10
198.595952
 20
120.8083189999999
 30
0.0
 11
202.595952
 21
123.1177199999999
 31
0.0
  0
LINE
  5
CA29
330
C843
100
AcDbEntity
  8
1
  6
Continuous
100
AcDbLine
 10
202.595952
 20
123.1177199999999
 30
0.0
 11
202.595952
 21
127.7365219999998
 31
0.0
  0
LINE
  5
CA2A
330
C843
100
AcDbEntity
  8
1
  6
Continuous
100
AcDbLine
 10
202.595952
 20
127.7365219999998
 30
0.0
 11
198.595952
 21
130.0459229999999
 31
0.0
  0
LINE
  5
CA2B
330
C843
100
AcDbEntity
  8
1
  6
Continuous
100
AcDbLine
 10
198.595952
 20
130.0459229999999
 30
0.0
 11
194.595952
 21
127.7365219999998
 31
0.0
  0
LINE
  5
CA2C
330
C843
100
AcDbEntity
  8
1
  6
Continuous
100
AcDbLine
 10
194.595952
 20
127.7365219999998
 30
0.0
 11
194.595952
 21
123.1177199999999
 31
0.0
  0
ENDSEC
  0
SECTION
  2
OBJECTS
  0
DICTIONARY
  5
C831
330
0
100
AcDbDictionary
281
     1
  3
ACAD_CIP_PREVIOUS_PRODUCT_INFO
350
CA8C
  3
ACAD_COLOR
350
CA6E
  3
ACAD_DETAILVIEWSTYLE
350
CA87
  3
ACAD_GROUP
350
C832
  3
ACAD_LAYOUT
350
C83E
  3
ACAD_MATERIAL
350
CA3C
  3
ACAD_MLEADERSTYLE
350
CA83
  3
ACAD_MLINESTYLE
350
C83B
  3
ACAD_PLOTSETTINGS
350
C83D
  3
ACAD_PLOTSTYLENAME
350
CA3A
  3
ACAD_SCALELIST
350
CA71
  3
ACAD_SECTIONVIEWSTYLE
350
CA85
  3
ACAD_TABLESTYLE
350
CA6F
  3
ACAD_VISUALSTYLE
350
CA55
  3
ACDB_RECOMPOSE_DATA
350
CAAA
  3
AcDbVariableDictionary
350
CA9D
  3
DWGPROPS
350
CAAB
  0
DICTIONARY
  5
CA8D
330
C835
100
AcDbDictionary
280
     1
281
     1
  3
ADSK_XREC_LAYER_RECONCILED
360
CA8E
  0
DICTIONARY
  5
CA8F
330
C84B
100
AcDbDictionary
280
     1
281
     1
  3
ADSK_XREC_LAYER_RECONCILED
360
CA90
  0
DICTIONARY
  5
CA91
330
C84C
100
AcDbDictionary
280
     1
281
     1
  3
ADSK_XREC_LAYER_RECONCILED
360
CA92
  0
DICTIONARY
  5
CA93
330
C84D
100
AcDbDictionary
280
     1
281
     1
  3
ADSK_XREC_LAYER_RECONCILED
360
CA94
  0
DICTIONARY
  5
CA95
330
C84E
100
AcDbDictionary
280
     1
281
     1
  3
ADSK_XREC_LAYER_RECONCILED
360
CA96
  0
DICTIONARY
  5
CA97
330
C84F
100
AcDbDictionary
280
     1
281
     1
  3
ADSK_XREC_LAYER_RECONCILED
360
CA98
  0
DICTIONARY
  5
CA99
330
C850
100
AcDbDictionary
280
     1
281
     1
  3
ADSK_XREC_LAYER_RECONCILED
360
CA9A
  0
DICTIONARY
  5
CA9B
330
C851
100
AcDbDictionary
280
     1
281
     1
  3
ADSK_XREC_LAYER_RECONCILED
360
CA9C
  0
DICTIONARY
  5
CA35
330
C843
100
AcDbDictionary
281
     1
  3
ACAD_LAYOUTSELFREF
350
CA36
  0
DICTIONARY
  5
CA33
330
C83F
100
AcDbDictionary
281
     1
  3
ACAD_LAYOUTSELFREF
350
CA34
  0
XRECORD
  5
CA8C
102
{ACAD_REACTORS
330
C831
102
}
330
C831
100
AcDbXrecord
280
     1
300
ACDLT
300
2014
300
ACDLT_F_S
  0
DICTIONARY
  5
CA6E
102
{ACAD_REACTORS
330
C831
102
}
330
C831
100
AcDbDictionary
281
     1
  0
DICTIONARY
  5
CA87
102
{ACAD_REACTORS
330
C831
102
}
330
C831
100
AcDbDictionary
281
     1
  3
Imperial24
350
CA88
  0
DICTIONARY
  5
C832
102
{ACAD_REACTORS
330
C831
102
}
330
C831
100
AcDbDictionary
281
     1
  0
DICTIONARY
  5
C83E
102
{ACAD_REACTORS
330
C831
102
}
330
C831
100
AcDbDictionary
281
     1
  3
Model
350
CA89
  3
レイアウト1
350
CA8A
  0
DICTIONARY
  5
CA3C
102
{ACAD_REACTORS
330
C831
102
}
330
C831
100
AcDbDictionary
281
     1
  3
ByBlock
350
CA45
  3
ByLayer
350
CA3D
  3
Global
350
CA4D
  0
DICTIONARY
  5
CA83
102
{ACAD_REACTORS
330
C831
102
}
330
C831
100
AcDbDictionary
281
     1
  3
Standard
350
CA84
  0
DICTIONARY
  5
C83B
102
{ACAD_REACTORS
330
C831
102
}
330
C831
100
AcDbDictionary
281
     1
  3
STANDARD
350
C83C
  0
DICTIONARY
  5
C83D
102
{ACAD_REACTORS
330
C831
102
}
330
C831
100
AcDbDictionary
281
     1
  0
ACDBDICTIONARYWDFLT
  5
CA3A
102
{ACAD_REACTORS
330
C831
102
}
330
C831
100
AcDbDictionary
281
     1
  3
Normal
350
CA3B
100
AcDbDictionaryWithDefault
340
CA3B
  0
DICTIONARY
  5
CA71
102
{ACAD_REACTORS
330
C831
102
}
330
C831
100
AcDbDictionary
281
     1
  3
A0
350
CA72
  3
A1
350
CA73
  3
A2
350
CA74
  3
A3
350
CA75
  3
A4
350
CA76
  3
A5
350
CA77
  3
A6
350
CA78
  3
A7
350
CA79
  3
A8
350
CA7A
  3
A9
350
CA7B
  3
B0
350
CA7C
  3
B1
350
CA7D
  3
B2
350
CA7E
  3
B3
350
CA7F
  3
B4
350
CA80
  3
B5
350
CA81
  3
B6
350
CA82
  0
DICTIONARY
  5
CA85
102
{ACAD_REACTORS
330
C831
102
}
330
C831
100
AcDbDictionary
281
     1
  3
Imperial24
350
CA86
  0
DICTIONARY
  5
CA6F
102
{ACAD_REACTORS
330
C831
102
}
330
C831
100
AcDbDictionary
281
     1
  3
Standard
350
CA70
  0
DICTIONARY
  5
CA55
102
{ACAD_REACTORS
330
C831
102
}
330
C831
100
AcDbDictionary
281
     1
  3
2dWireframe
350
CA5B
  3
Basic
350
CA5A
  3
Brighten
350
CA61
  3
ColorChange
350
CA65
  3
Conceptual
350
CA5E
  3
Dim
350
CA60
  3
EdgeColorOff
350
CA6D
  3
Facepattern
350
CA64
  3
Flat
350
CA56
  3
FlatWithEdges
350
CA57
  3
Gouraud
350
CA58
  3
GouraudWithEdges
350
CA59
  3
Hidden
350
CA5D
  3
JitterOff
350
CA6B
  3
Linepattern
350
CA63
  3
OverhangOff
350
CA6C
  3
Realistic
350
CA5F
  3
Shaded
350
CA6A
  3
Shaded with edges
350
CA69
  3
Shades of Gray
350
CA66
  3
Sketchy
350
CA67
  3
Thicken
350
CA62
  3
Wireframe
350
CA5C
  3
X-Ray
350
CA68
  0
XRECORD
  5
CAAA
102
{ACAD_REACTORS
330
C831
102
}
330
C831
100
AcDbXrecord
280
     1
 90
        1
330
CA70
  0
DICTIONARY
  5
CA9D
102
{ACAD_REACTORS
330
C831
102
}
330
C831
100
AcDbDictionary
281
     1
  3
CANNOSCALE
350
CAA2
  3
CMLEADERSTYLE
350
CA9F
  3
CTABLESTYLE
350
CA9E
  3
CVIEWDETAILSTYLE
350
CAA0
  3
CVIEWSECTIONSTYLE
350
CAA1
  3
DIMASSOC
350
CAA5
  3
INDEXCTL
350
CAA4
  3
SORTENTS
350
CAA3
  3
XCLIPFRAME
350
CAA6
  0
XRECORD
  5
CAAB
102
{ACAD_REACTORS
330
C831
102
}
330
C831
100
AcDbXrecord
280
     1
  1
DWGPROPS COOKIE
  2

  3

  4

  6

  7

  8
Yoshitsune
  9

300
=
301
=
302
=
303
=
304
=
305
=
306
=
307
=
308
=
309
=
 40
0.000010462962963
 41
2451296.793838658
 42
2457192.658242118
  1

 90
        0
  0
XRECORD
  5
CA8E
102
{ACAD_REACTORS
330
CA8D
102
}
330
CA8D
100
AcDbXrecord
280
     1
290
     1
  0
XRECORD
  5
CA90
102
{ACAD_REACTORS
330
CA8F
102
}
330
CA8F
100
AcDbXrecord
280
     1
290
     1
  0
XRECORD
  5
CA92
102
{ACAD_REACTORS
330
CA91
102
}
330
CA91
100
AcDbXrecord
280
     1
290
     1
  0
XRECORD
  5
CA94
102
{ACAD_REACTORS
330
CA93
102
}
330
CA93
100
AcDbXrecord
280
     1
290
     1
  0
XRECORD
  5
CA96
102
{ACAD_REACTORS
330
CA95
102
}
330
CA95
100
AcDbXrecord
280
     1
290
     1
  0
XRECORD
  5
CA98
102
{ACAD_REACTORS
330
CA97
102
}
330
CA97
100
AcDbXrecord
280
     1
290
     1
  0
XRECORD
  5
CA9A
102
{ACAD_REACTORS
330
CA99
102
}
330
CA99
100
AcDbXrecord
280
     1
290
     1
  0
XRECORD
  5
CA9C
102
{ACAD_REACTORS
330
CA9B
102
}
330
CA9B
100
AcDbXrecord
280
     1
290
     1
  0
XRECORD
  5
CA36
102
{ACAD_REACTORS
330
CA35
102
}
330
CA35
100
AcDbXrecord
280
     1
340
C843
  0
XRECORD
  5
CA34
102
{ACAD_REACTORS
330
CA33
102
}
330
CA33
100
AcDbXrecord
280
     1
340
C83F
  0
ACDBDETAILVIEWSTYLE
  5
CA88
102
{ACAD_XDICTIONARY
360
CAE3
102
}
102
{ACAD_REACTORS
330
CA87
102
}
330
CA87
100
AcDbModelDocViewStyle
 70
     0
  3
Imperial24
290
     0
100
AcDbDetailViewStyle
 70
     0
 71
     0
 90
        3
 71
     1
340
C836
 40
0.24
340
0
 40
0.24
300

 40
0.36
280
     3
 71
     2
340
C83A
 90
       25
 71
     3
340
C836
 40
0.24
 90
        1
 40
0.75
 90
        1
300
%<\AcVar ViewType \f "%tc1">% %<\AcVar ViewDetailId>%\PSCALE %<\AcVar ViewScale \f "%sn">%
 71
     4
340
C83A
 90
       25
340
C83A
 90
       25
280
     0
  0
LAYOUT
  5
CA89
102
{ACAD_XDICTIONARY
360
CAE5
102
}
102
{ACAD_REACTORS
330
C83E
102
}
330
C83E
100
AcDbPlotSettings
  1

  2
Canon LBP9100C
  4

  6

 40
0.0
 41
0.0
 42
0.0
 43
0.0
 44
0.0
 45
0.0
 46
0.0
 47
0.0
 48
0.0
 49
0.0
140
0.0
141
0.0
142
1.0
143
1.0
 70
  1712
 72
     0
 73
     0
 74
     0
  7

 75
     0
147
1.0
148
0.0
149
0.0
100
AcDbLayout
  1
Model
 70
     1
 71
     0
 10
0.0
 20
0.0
 11
12.0
 21
9.0
 12
0.0
 22
0.0
 32
0.0
 14
0.0
 24
0.0
 34
0.0
 15
0.0
 25
0.0
 35
0.0
146
0.0
 13
0.0
 23
0.0
 33
0.0
 16
1.0
 26
0.0
 36
0.0
 17
0.0
 27
1.0
 37
0.0
 76
     0
330
C843
331
CA32
  0
LAYOUT
  5
CA8A
102
{ACAD_XDICTIONARY
360
CAE7
102
}
102
{ACAD_REACTORS
330
C83E
102
}
330
C83E
100
AcDbPlotSettings
  1

  2
Canon LBP9100C
  4

  6

 40
0.0
 41
0.0
 42
0.0
 43
0.0
 44
0.0
 45
0.0
 46
0.0
 47
0.0
 48
0.0
 49
0.0
140
0.0
141
0.0
142
1.0
143
1.0
 70
   688
 72
     0
 73
     0
 74
     5
  7

 75
    16
147
1.0
148
0.0
149
0.0
100
AcDbLayout
  1
レイアウト1
 70
     0
 71
     1
 10
0.0
 20
0.0
 11
420.0
 21
297.0
 12
0.0
 22
0.0
 32
0.0
 14
1.000000000000000E+20
 24
1.000000000000000E+20
 34
1.000000000000000E+20
 15
-1.000000000000000E+20
 25
-1.000000000000000E+20
 35
-1.000000000000000E+20
146
0.0
 13
0.0
 23
0.0
 33
0.0
 16
1.0
 26
0.0
 36
0.0
 17
0.0
 27
1.0
 37
0.0
 76
     0
330
C83F
  0
MATERIAL
  5
CA45
102
{ACAD_XDICTIONARY
360
CA46
102
}
102
{ACAD_REACTORS
330
CA3C
102
}
330
CA3C
100
AcDbMaterial
  1
ByBlock
 72
     0
 43
0.0208333333333333
 43
0.0
 43
0.0
 43
0.0
 43
0.0
 43
0.0208333333333333
 43
0.0
 43
0.0
 43
0.0
 43
0.0
 43
1.0
 43
0.0
 43
0.0
 43
0.0
 43
0.0
 43
1.0
 77
     0
 47
0.0208333333333333
 47
0.0
 47
0.0
 47
0.0
 47
0.0
 47
0.0208333333333333
 47
0.0
 47
0.0
 47
0.0
 47
0.0
 47
1.0
 47
0.0
 47
0.0
 47
0.0
 47
0.0
 47
1.0
171
     0
 49
0.0208333333333333
 49
0.0
 49
0.0
 49
0.0
 49
0.0
 49
0.0208333333333333
 49
0.0
 49
0.0
 49
0.0
 49
0.0
 49
1.0
 49
0.0
 49
0.0
 49
0.0
 49
0.0
 49
1.0
175
     0
142
0.0208333333333333
142
0.0
142
0.0
142
0.0
142
0.0
142
0.0208333333333333
142
0.0
142
0.0
142
0.0
142
0.0
142
1.0
142
0.0
142
0.0
142
0.0
142
0.0
142
1.0
179
     0
144
0.0208333333333333
144
0.0
144
0.0
144
0.0
144
0.0
144
0.0208333333333333
144
0.0
144
0.0
144
0.0
144
0.0
144
1.0
144
0.0
144
0.0
144
0.0
144
0.0
144
1.0
147
0.0208333333333333
147
0.0
147
0.0
147
0.0
147
0.0
147
0.0208333333333333
147
0.0
147
0.0
147
0.0
147
0.0
147
1.0
147
0.0
147
0.0
147
0.0
147
0.0
147
1.0
  0
MATERIAL
  5
CA3D
102
{ACAD_XDICTIONARY
360
CA3E
102
}
102
{ACAD_REACTORS
330
CA3C
102
}
330
CA3C
100
AcDbMaterial
  1
ByLayer
 72
     0
 43
0.0208333333333333
 43
0.0
 43
0.0
 43
0.0
 43
0.0
 43
0.0208333333333333
 43
0.0
 43
0.0
 43
0.0
 43
0.0
 43
1.0
 43
0.0
 43
0.0
 43
0.0
 43
0.0
 43
1.0
 77
     0
 47
0.0208333333333333
 47
0.0
 47
0.0
 47
0.0
 47
0.0
 47
0.0208333333333333
 47
0.0
 47
0.0
 47
0.0
 47
0.0
 47
1.0
 47
0.0
 47
0.0
 47
0.0
 47
0.0
 47
1.0
171
     0
 49
0.0208333333333333
 49
0.0
 49
0.0
 49
0.0
 49
0.0
 49
0.0208333333333333
 49
0.0
 49
0.0
 49
0.0
 49
0.0
 49
1.0
 49
0.0
 49
0.0
 49
0.0
 49
0.0
 49
1.0
175
     0
142
0.0208333333333333
142
0.0
142
0.0
142
0.0
142
0.0
142
0.0208333333333333
142
0.0
142
0.0
142
0.0
142
0.0
142
1.0
142
0.0
142
0.0
142
0.0
142
0.0
142
1.0
179
     0
144
0.0208333333333333
144
0.0
144
0.0
144
0.0
144
0.0
144
0.0208333333333333
144
0.0
144
0.0
144
0.0
144
0.0
144
1.0
144
0.0
144
0.0
144
0.0
144
0.0
144
1.0
147
0.0208333333333333
147
0.0
147
0.0
147
0.0
147
0.0
147
0.0208333333333333
147
0.0
147
0.0
147
0.0
147
0.0
147
1.0
147
0.0
147
0.0
147
0.0
147
0.0
147
1.0
  0
MATERIAL
  5
CA4D
102
{ACAD_XDICTIONARY
360
CA4E
102
}
102
{ACAD_REACTORS
330
CA3C
102
}
330
CA3C
100
AcDbMaterial
  1
Global
 72
     0
 43
0.0208333333333333
 43
0.0
 43
0.0
 43
0.0
 43
0.0
 43
0.0208333333333333
 43
0.0
 43
0.0
 43
0.0
 43
0.0
 43
1.0
 43
0.0
 43
0.0
 43
0.0
 43
0.0
 43
1.0
 77
     0
 47
0.0208333333333333
 47
0.0
 47
0.0
 47
0.0
 47
0.0
 47
0.0208333333333333
 47
0.0
 47
0.0
 47
0.0
 47
0.0
 47
1.0
 47
0.0
 47
0.0
 47
0.0
 47
0.0
 47
1.0
171
     0
 49
0.0208333333333333
 49
0.0
 49
0.0
 49
0.0
 49
0.0
 49
0.0208333333333333
 49
0.0
 49
0.0
 49
0.0
 49
0.0
 49
1.0
 49
0.0
 49
0.0
 49
0.0
 49
0.0
 49
1.0
175
     0
142
0.0208333333333333
142
0.0
142
0.0
142
0.0
142
0.0
142
0.0208333333333333
142
0.0
142
0.0
142
0.0
142
0.0
142
1.0
142
0.0
142
0.0
142
0.0
142
0.0
142
1.0
179
     0
144
0.0208333333333333
144
0.0
144
0.0
144
0.0
144
0.0
144
0.0208333333333333
144
0.0
144
0.0
144
0.0
144
0.0
144
1.0
144
0.0
144
0.0
144
0.0
144
0.0
144
1.0
147
0.0208333333333333
147
0.0
147
0.0
147
0.0
147
0.0
147
0.0208333333333333
147
0.0
147
0.0
147
0.0
147
0.0
147
1.0
147
0.0
147
0.0
147
0.0
147
0.0
147
1.0
  0
MLEADERSTYLE
  5
CA84
102
{ACAD_REACTORS
330
CA83
102
}
330
CA83
100
AcDbMLeaderStyle
170
     2
171
     1
172
     0
 90
        2
 40
0.0
 41
0.0
173
     1
 91
-1056964608
340
C838
 92
       -2
290
     1
 42
0.09
291
     1
 43
0.36
  3
Standard
 44
0.18
300

342
C836
174
     1
178
     6
175
     1
176
     0
 93
-1056964608
 45
0.18
292
     0
297
     0
 46
0.18
 94
-1056964608
 47
1.0
 49
1.0
140
1.0
293
     1
141
0.0
294
     1
177
     0
142
1.0
295
     0
296
     0
143
0.125
1001
ACAD_MLEADERVER
1070
     2
  0
MLINESTYLE
  5
C83C
102
{ACAD_REACTORS
330
C83B
102
}
330
C83B
100
AcDbMlineStyle
  2
STANDARD
 70
     0
  3

 62
   256
 51
90.0
 52
90.0
 71
     2
 49
0.5
 62
   256
  6
BYLAYER
 49
-0.5
 62
   256
  6
BYLAYER
  0
ACDBPLACEHOLDER
  5
CA3B
102
{ACAD_REACTORS
330
CA3A
102
}
330
CA3A
  0
SCALE
  5
CA72
102
{ACAD_REACTORS
330
CA71
102
}
330
CA71
100
AcDbScale
 70
     0
300
1:1
140
1.0
141
1.0
290
     1
  0
SCALE
  5
CA73
102
{ACAD_REACTORS
330
CA71
102
}
330
CA71
100
AcDbScale
 70
     0
300
1/128" = 1'-0"
140
0.0078125
141
12.0
290
     0
  0
SCALE
  5
CA74
102
{ACAD_REACTORS
330
CA71
102
}
330
CA71
100
AcDbScale
 70
     0
300
1/64" = 1'-0"
140
0.015625
141
12.0
290
     0
  0
SCALE
  5
CA75
102
{ACAD_REACTORS
330
CA71
102
}
330
CA71
100
AcDbScale
 70
     0
300
1/32" = 1'-0"
140
0.03125
141
12.0
290
     0
  0
SCALE
  5
CA76
102
{ACAD_REACTORS
330
CA71
102
}
330
CA71
100
AcDbScale
 70
     0
300
1/16" = 1'-0"
140
0.0625
141
12.0
290
     0
  0
SCALE
  5
CA77
102
{ACAD_REACTORS
330
CA71
102
}
330
CA71
100
AcDbScale
 70
     0
300
3/32" = 1'-0"
140
0.09375
141
12.0
290
     0
  0
SCALE
  5
CA78
102
{ACAD_REACTORS
330
CA71
102
}
330
CA71
100
AcDbScale
 70
     0
300
1/8" = 1'-0"
140
0.125
141
12.0
290
     0
  0
SCALE
  5
CA79
102
{ACAD_REACTORS
330
CA71
102
}
330
CA71
100
AcDbScale
 70
     0
300
3/16" = 1'-0"
140
0.1875
141
12.0
290
     0
  0
SCALE
  5
CA7A
102
{ACAD_REACTORS
330
CA71
102
}
330
CA71
100
AcDbScale
 70
     0
300
1/4" = 1'-0"
140
0.25
141
12.0
290
     0
  0
SCALE
  5
CA7B
102
{ACAD_REACTORS
330
CA71
102
}
330
CA71
100
AcDbScale
 70
     0
300
3/8" = 1'-0"
140
0.375
141
12.0
290
     0
  0
SCALE
  5
CA7C
102
{ACAD_REACTORS
330
CA71
102
}
330
CA71
100
AcDbScale
 70
     0
300
1/2" = 1'-0"
140
0.5
141
12.0
290
     0
  0
SCALE
  5
CA7D
102
{ACAD_REACTORS
330
CA71
102
}
330
CA71
100
AcDbScale
 70
     0
300
3/4" = 1'-0"
140
0.75
141
12.0
290
     0
  0
SCALE
  5
CA7E
102
{ACAD_REACTORS
330
CA71
102
}
330
CA71
100
AcDbScale
 70
     0
300
1" = 1'-0"
140
1.0
141
12.0
290
     0
  0
SCALE
  5
CA7F
102
{ACAD_REACTORS
330
CA71
102
}
330
CA71
100
AcDbScale
 70
     0
300
1-1/2" = 1'-0"
140
1.5
141
12.0
290
     0
  0
SCALE
  5
CA80
102
{ACAD_REACTORS
330
CA71
102
}
330
CA71
100
AcDbScale
 70
     0
300
3" = 1'-0"
140
3.0
141
12.0
290
     0
  0
SCALE
  5
CA81
102
{ACAD_REACTORS
330
CA71
102
}
330
CA71
100
AcDbScale
 70
     0
300
6" = 1'-0"
140
6.0
141
12.0
290
     0
  0
SCALE
  5
CA82
102
{ACAD_REACTORS
330
CA71
102
}
330
CA71
100
AcDbScale
 70
     0
300
1'-0" = 1'-0"
140
12.0
141
12.0
290
     0
  0
ACDBSECTIONVIEWSTYLE
  5
CA86
102
{ACAD_XDICTIONARY
360
CAE1
102
}
102
{ACAD_REACTORS
330
CA85
102
}
330
CA85
100
AcDbModelDocViewStyle
 70
     0
  3
Imperial24
290
     0
100
AcDbSectionViewStyle
 70
     0
 71
     0
 90
       78
 71
     1
340
C836
 40
0.24
340
0
340
0
 40
0.24
300
I, O, Q, S, X, Z
 40
0.48
 90
        3
 40
0.18
 90
        1
 71
     2
340
C83A
 90
       25
340
C83A
 90
       50
 40
0.24
 40
0.0
 40
0.24
 71
     3
340
C836
 40
0.24
 90
        1
 40
0.75
 90
        1
300
%<\AcVar ViewType \f "%tc1">% %<\AcVar ViewSectionStartId>%-%<\AcVar ViewSectionEndId>%\PSCALE %<\AcVar ViewScale \f "%sn">%
 71
     4
300
ANSI31
 40
1.0
 90
        0
290
     0
290
     0
 90
        6
 40
0.0
 40
1.570796326794896
 40
0.2617993877991494
 40
1.308996938995747
 40
-0.2617993877991494
 40
1.832595714594046
  0
TABLESTYLE
  5
CA70
102
{ACAD_XDICTIONARY
360
CAA8
102
}
102
{ACAD_REACTORS
330
CA6F
102
}
330
CA6F
100
AcDbTableStyle
  3
Standard
 70
     0
 71
     0
 40
0.06
 41
0.06
280
     0
281
     0
  7
STANDARD
140
0.18
170
     2
 62
     0
 63
     7
283
     0
274
    -2
284
     1
 64
     0
275
    -2
285
     1
 65
     0
276
    -2
286
     1
 66
     0
277
    -2
287
     1
 67
     0
278
    -2
288
     1
 68
     0
279
    -2
289
     1
 69
     0
  7
STANDARD
140
0.25
170
     5
 62
     0
 63
     7
283
     0
274
    -2
284
     1
 64
     0
275
    -2
285
     1
 65
     0
276
    -2
286
     1
 66
     0
277
    -2
287
     1
 67
     0
278
    -2
288
     1
 68
     0
279
    -2
289
     1
 69
     0
  7
STANDARD
140
0.18
170
     5
 62
     0
 63
     7
283
     0
274
    -2
284
     1
 64
     0
275
    -2
285
     1
 65
     0
276
    -2
286
     1
 66
     0
277
    -2
287
     1
 67
     0
278
    -2
288
     1
 68
     0
279
    -2
289
     1
 69
     0
  0
VISUALSTYLE
  5
CA5B
102
{ACAD_XDICTIONARY
360
CAB9
102
}
102
{ACAD_REACTORS
330
CA55
102
}
330
CA55
100
AcDbVisualStyle
  2
2dWireframe
 70
     4
 71
     0
 72
     2
 73
     0
 90
        0
 40
-0.6
 41
-30.0
 62
     5
 63
     7
 74
     1
 91
        4
 64
     7
 65
   257
 75
     1
175
     1
 42
1.0
 92
        0
 66
   257
 43
1.0
 76
     1
 77
     6
 78
     2
 67
     7
 79
     5
170
     0
171
     0
290
     0
174
     0
 93
        1
 44
0.0
173
     0
291
     0
 45
0.0
1001
ACAD
1000
AcDbSavedByObjectVersion
1070
     0
  0
VISUALSTYLE
  5
CA5A
102
{ACAD_XDICTIONARY
360
CAB7
102
}
102
{ACAD_REACTORS
330
CA55
102
}
330
CA55
100
AcDbVisualStyle
  2
Basic
 70
     7
 71
     1
 72
     0
 73
     1
 90
        0
 40
-0.6
 41
-30.0
 62
     5
 63
     7
 74
     0
 91
        4
 64
     7
 65
   257
 75
     1
175
     1
 42
1.0
 92
        8
 66
     7
 43
1.0
 76
     1
 77
     6
 78
     2
 67
     7
 79
     5
170
     0
171
     0
290
     0
174
     0
 93
        1
 44
0.0
173
     0
291
     1
 45
0.0
1001
ACAD
1000
AcDbSavedByObjectVersion
1070
     0
  0
VISUALSTYLE
  5
CA61
102
{ACAD_XDICTIONARY
360
CAC5
102
}
102
{ACAD_REACTORS
330
CA55
102
}
330
CA55
100
AcDbVisualStyle
  2
Brighten
 70
    12
 71
     2
 72
     2
 73
     0
 90
        0
 40
-0.6
 41
-30.0
 62
     5
 63
     7
 74
     1
 91
        4
 64
     7
 65
   257
 75
     1
175
     1
 42
1.0
 92
        8
 66
     7
 43
1.0
 76
     1
 77
     6
 78
     2
 67
     7
 79
     5
170
     0
171
     0
290
     0
174
     0
 93
        1
 44
50.0
173
     0
291
     1
 45
0.0
1001
ACAD
1000
AcDbSavedByObjectVersion
1070
     0
  0
VISUALSTYLE
  5
CA65
102
{ACAD_XDICTIONARY
360
CACD
102
}
102
{ACAD_REACTORS
330
CA55
102
}
330
CA55
100
AcDbVisualStyle
  2
ColorChange
 70
    16
 71
     2
 72
     2
 73
     3
 90
        0
 40
-0.6
 41
-30.0
 62
     5
 63
     8
 74
     1
 91
        4
 64
     7
 65
   257
 75
     1
175
     1
 42
1.0
 92
        8
 66
     8
 43
1.0
 76
     1
 77
     6
 78
     2
 67
     7
 79
     5
170
     0
171
     0
290
     0
174
     0
 93
        1
 44
0.0
173
     0
291
     1
 45
0.0
1001
ACAD
1000
AcDbSavedByObjectVersion
1070
     0
  0
VISUALSTYLE
  5
CA5E
102
{ACAD_XDICTIONARY
360
CABF
102
}
102
{ACAD_REACTORS
330
CA55
102
}
330
CA55
100
AcDbVisualStyle
  2
Conceptual
 70
     9
 71
     3
 72
     2
 73
     0
 90
        0
 40
-0.6
 41
-30.0
 62
     5
 63
     7
 74
     2
 91
        2
 64
     7
 65
   257
 75
     1
175
     1
 42
179.0
 92
        8
 66
     7
 43
1.0
 76
     1
 77
     6
 78
     2
 67
     7
 79
     3
170
     0
171
     0
290
     0
174
     0
 93
        1
 44
0.0
173
     0
291
     0
 45
0.0
1001
ACAD
1000
AcDbSavedByObjectVersion
1070
     0
  0
VISUALSTYLE
  5
CA60
102
{ACAD_XDICTIONARY
360
CAC3
102
}
102
{ACAD_REACTORS
330
CA55
102
}
330
CA55
100
AcDbVisualStyle
  2
Dim
 70
    11
 71
     2
 72
     2
 73
     0
 90
        0
 40
-0.6
 41
-30.0
 62
     5
 63
     7
 74
     1
 91
        4
 64
     7
 65
   257
 75
     1
175
     1
 42
1.0
 92
        8
 66
     7
 43
1.0
 76
     1
 77
     6
 78
     2
 67
     7
 79
     5
170
     0
171
     0
290
     0
174
     0
 93
        1
 44
-50.0
173
     0
291
     1
 45
0.0
1001
ACAD
1000
AcDbSavedByObjectVersion
1070
     0
  0
VISUALSTYLE
  5
CA6D
102
{ACAD_XDICTIONARY
360
CADD
102
}
102
{ACAD_REACTORS
330
CA55
102
}
330
CA55
100
AcDbVisualStyle
  2
EdgeColorOff
 70
    22
 71
     2
 72
     2
 73
     0
 90
        0
 40
-0.6
 41
-30.0
 62
     5
 63
     7
 74
     1
 91
        4
 64
     7
 65
   257
 75
     1
175
     1
 42
1.0
 92
        8
 66
     7
 43
1.0
 76
     1
 77
     6
 78
     2
 67
     7
 79
     5
170
     0
171
     0
290
     0
174
     0
 93
        1
 44
0.0
173
     0
291
     1
 45
0.0
1001
ACAD
1000
AcDbSavedByObjectVersion
1070
     0
  0
VISUALSTYLE
  5
CA64
102
{ACAD_XDICTIONARY
360
CACB
102
}
102
{ACAD_REACTORS
330
CA55
102
}
330
CA55
100
AcDbVisualStyle
  2
Facepattern
 70
    15
 71
     2
 72
     2
 73
     0
 90
        0
 40
-0.6
 41
-30.0
 62
     5
 63
     7
 74
     1
 91
        4
 64
     7
 65
   257
 75
     1
175
     1
 42
1.0
 92
        8
 66
     7
 43
1.0
 76
     1
 77
     6
 78
     2
 67
     7
 79
     5
170
     0
171
     0
290
     0
174
     0
 93
        1
 44
0.0
173
     0
291
     1
 45
0.0
1001
ACAD
1000
AcDbSavedByObjectVersion
1070
     0
  0
VISUALSTYLE
  5
CA56
102
{ACAD_XDICTIONARY
360
CAAF
102
}
102
{ACAD_REACTORS
330
CA55
102
}
330
CA55
100
AcDbVisualStyle
  2
Flat
 70
     0
 71
     2
 72
     1
 73
     1
 90
        2
 40
-0.6
 41
30.0
 62
     5
 63
     7
 74
     0
 91
        0
 64
     7
 65
   257
 75
     1
175
     1
 42
1.0
 92
        8
 66
     7
 43
1.0
 76
     1
 77
     6
 78
     2
 67
     7
 79
     5
170
     0
171
     0
290
     0
174
     0
 93
       13
 44
0.0
173
     0
291
     1
 45
0.0
1001
ACAD
1000
AcDbSavedByObjectVersion
1070
     0
  0
VISUALSTYLE
  5
CA57
102
{ACAD_XDICTIONARY
360
CAB1
102
}
102
{ACAD_REACTORS
330
CA55
102
}
330
CA55
100
AcDbVisualStyle
  2
FlatWithEdges
 70
     1
 71
     2
 72
     1
 73
     1
 90
        2
 40
-0.6
 41
30.0
 62
     5
 63
     7
 74
     1
 91
        0
 64
     7
 65
   257
 75
     1
175
     1
 42
1.0
 92
        0
 66
   257
 43
1.0
 76
     1
 77
     6
 78
     2
 67
     7
 79
     5
170
     0
171
     0
290
     0
174
     0
 93
       13
 44
0.0
173
     0
291
     1
 45
0.0
1001
ACAD
1000
AcDbSavedByObjectVersion
1070
     0
  0
VISUALSTYLE
  5
CA58
102
{ACAD_XDICTIONARY
360
CAB3
102
}
102
{ACAD_REACTORS
330
CA55
102
}
330
CA55
100
AcDbVisualStyle
  2
Gouraud
 70
     2
 71
     2
 72
     2
 73
     1
 90
        2
 40
-0.6
 41
30.0
 62
     5
 63
     7
 74
     0
 91
        0
 64
     7
 65
   257
 75
     1
175
     1
 42
1.0
 92
        0
 66
     7
 43
1.0
 76
     1
 77
     6
 78
     2
 67
     7
 79
     5
170
     0
171
     0
290
     0
174
     0
 93
       13
 44
0.0
173
     0
291
     1
 45
0.0
1001
ACAD
1000
AcDbSavedByObjectVersion
1070
     0
  0
VISUALSTYLE
  5
CA59
102
{ACAD_XDICTIONARY
360
CAB5
102
}
102
{ACAD_REACTORS
330
CA55
102
}
330
CA55
100
AcDbVisualStyle
  2
GouraudWithEdges
 70
     3
 71
     2
 72
     2
 73
     1
 90
        2
 40
-0.6
 41
30.0
 62
     5
 63
     7
 74
     1
 91
        0
 64
     7
 65
   257
 75
     1
175
     1
 42
1.0
 92
        0
 66
   257
 43
1.0
 76
     1
 77
     6
 78
     2
 67
     7
 79
     5
170
     0
171
     0
290
     0
174
     0
 93
       13
 44
0.0
173
     0
291
     1
 45
0.0
1001
ACAD
1000
AcDbSavedByObjectVersion
1070
     0
  0
VISUALSTYLE
  5
CA5D
102
{ACAD_XDICTIONARY
360
CABD
102
}
102
{ACAD_REACTORS
330
CA55
102
}
330
CA55
100
AcDbVisualStyle
  2
Hidden
 70
     6
 71
     1
 72
     2
 73
     2
 90
        0
 40
-0.6
 41
-30.0
 62
     5
 63
     7
 74
     2
 91
        2
 64
     7
 65
   257
 75
     2
175
     1
 42
40.0
 92
        0
 66
   257
 43
1.0
 76
     1
 77
     6
 78
     2
 67
     7
 79
     3
170
     0
171
     0
290
     0
174
     0
 93
        1
 44
0.0
173
     0
291
     0
 45
0.0
1001
ACAD
1000
AcDbSavedByObjectVersion
1070
     0
  0
VISUALSTYLE
  5
CA6B
102
{ACAD_XDICTIONARY
360
CAD9
102
}
102
{ACAD_REACTORS
330
CA55
102
}
330
CA55
100
AcDbVisualStyle
  2
JitterOff
 70
    20
 71
     2
 72
     2
 73
     0
 90
        0
 40
-0.6
 41
-30.0
 62
     5
 63
     7
 74
     1
 91
        4
 64
     7
 65
   257
 75
     1
175
     1
 42
1.0
 92
       10
 66
     7
 43
1.0
 76
     1
 77
     6
 78
     2
 67
     7
 79
     5
170
     0
171
     0
290
     0
174
     0
 93
        1
 44
0.0
173
     0
291
     1
 45
0.0
1001
ACAD
1000
AcDbSavedByObjectVersion
1070
     0
  0
VISUALSTYLE
  5
CA63
102
{ACAD_XDICTIONARY
360
CAC9
102
}
102
{ACAD_REACTORS
330
CA55
102
}
330
CA55
100
AcDbVisualStyle
  2
Linepattern
 70
    14
 71
     2
 72
     2
 73
     0
 90
        0
 40
-0.6
 41
-30.0
 62
     5
 63
     7
 74
     1
 91
        4
 64
     7
 65
   257
 75
     7
175
     7
 42
1.0
 92
        8
 66
     7
 43
1.0
 76
     1
 77
     6
 78
     2
 67
     7
 79
     5
170
     0
171
     0
290
     0
174
     0
 93
        1
 44
0.0
173
     0
291
     1
 45
0.0
1001
ACAD
1000
AcDbSavedByObjectVersion
1070
     0
  0
VISUALSTYLE
  5
CA6C
102
{ACAD_XDICTIONARY
360
CADB
102
}
102
{ACAD_REACTORS
330
CA55
102
}
330
CA55
100
AcDbVisualStyle
  2
OverhangOff
 70
    21
 71
     2
 72
     2
 73
     0
 90
        0
 40
-0.6
 41
-30.0
 62
     5
 63
     7
 74
     1
 91
        4
 64
     7
 65
   257
 75
     1
175
     1
 42
1.0
 92
        9
 66
     7
 43
1.0
 76
     1
 77
     6
 78
     2
 67
     7
 79
     5
170
     0
171
     0
290
     0
174
     0
 93
        1
 44
0.0
173
     0
291
     1
 45
0.0
1001
ACAD
1000
AcDbSavedByObjectVersion
1070
     0
  0
VISUALSTYLE
  5
CA5F
102
{ACAD_XDICTIONARY
360
CAC1
102
}
102
{ACAD_REACTORS
330
CA55
102
}
330
CA55
100
AcDbVisualStyle
  2
Realistic
 70
     8
 71
     2
 72
     3
 73
     0
 90
        2
 40
-0.6
 41
30.0
 62
     5
 63
     7
 74
     0
 91
        0
 64
     7
 65
   257
 75
     1
175
     1
 42
1.0
 92
        8
 66
   257
 43
1.0
 76
     1
 77
     6
 78
     2
 67
     7
 79
     3
170
     0
171
     0
290
     0
174
     0
 93
       13
 44
0.0
173
     0
291
     0
 45
0.0
1001
ACAD
1000
AcDbSavedByObjectVersion
1070
     0
  0
VISUALSTYLE
  5
CA6A
102
{ACAD_XDICTIONARY
360
CAD7
102
}
102
{ACAD_REACTORS
330
CA55
102
}
330
CA55
100
AcDbVisualStyle
  2
Shaded
 70
    27
 71
     2
 72
     2
 73
     1
 90
        2
 40
-0.6
 41
30.0
 62
     5
 63
     7
 74
     0
 91
        4
 64
     7
 65
   257
 75
     1
175
     1
 42
1.0
 92
        8
 66
   257
 43
1.0
 76
     1
 77
     6
 78
     2
 67
     8
 79
     3
170
     0
171
     0
290
     0
174
     0
 93
        5
 44
0.0
173
     0
291
     0
 45
0.0
1001
ACAD
1000
AcDbSavedByObjectVersion
1070
     0
  0
VISUALSTYLE
  5
CA69
102
{ACAD_XDICTIONARY
360
CAD5
102
}
102
{ACAD_REACTORS
330
CA55
102
}
330
CA55
100
AcDbVisualStyle
  2
Shaded with edges
 70
    26
 71
     2
 72
     2
 73
     1
 90
        2
 40
-0.6
 41
30.0
 62
     5
 63
     7
 74
     1
 91
       10
 64
     7
 65
   257
 75
     2
175
     1
 42
1.0
 92
        8
 66
   257
 43
1.0
 76
     1
 77
     6
 78
     2
 67
     7
 79
     3
170
     0
171
     0
290
     0
174
     0
 93
        5
 44
0.0
173
     0
291
     0
 45
0.0
1001
ACAD
1000
AcDbSavedByObjectVersion
1070
     0
  0
VISUALSTYLE
  5
CA66
102
{ACAD_XDICTIONARY
360
CACF
102
}
102
{ACAD_REACTORS
330
CA55
102
}
330
CA55
100
AcDbVisualStyle
  2
Shades of Gray
 70
    23
 71
     2
 72
     2
 73
     3
 90
        0
 40
-0.6
 41
-30.0
 62
     5
 63
     7
 74
     2
 91
        2
 64
     7
 65
     7
 75
     1
175
     1
 42
40.0
 92
        8
 66
     7
 43
1.0
 76
     1
 77
     6
 78
     2
 67
     7
 79
     3
170
     0
171
     0
290
     0
174
     0
 93
        1
 44
0.0
173
     0
291
     0
 45
0.0
1001
ACAD
1000
AcDbSavedByObjectVersion
1070
     0
  0
VISUALSTYLE
  5
CA67
102
{ACAD_XDICTIONARY
360
CAD1
102
}
102
{ACAD_REACTORS
330
CA55
102
}
330
CA55
100
AcDbVisualStyle
  2
Sketchy
 70
    24
 71
     1
 72
     2
 73
     2
 90
        0
 40
-0.6
 41
-30.0
 62
     5
 63
     7
 74
     2
 91
        2
 64
     7
 65
     7
 75
     1
175
     1
 42
40.0
 92
       11
 66
     7
 43
1.0
 76
     1
 77
     6
 78
     2
 67
     7
 79
     6
170
     0
171
     0
290
     0
174
     0
 93
        1
 44
0.0
173
     0
291
     0
 45
0.0
1001
ACAD
1000
AcDbSavedByObjectVersion
1070
     0
  0
VISUALSTYLE
  5
CA62
102
{ACAD_XDICTIONARY
360
CAC7
102
}
102
{ACAD_REACTORS
330
CA55
102
}
330
CA55
100
AcDbVisualStyle
  2
Thicken
 70
    13
 71
     2
 72
     2
 73
     0
 90
        0
 40
-0.6
 41
-30.0
 62
     5
 63
     7
 74
     1
 91
        4
 64
     7
 65
   257
 75
     1
175
     1
 42
1.0
 92
       12
 66
     7
 43
1.0
 76
     1
 77
     6
 78
     2
 67
     7
 79
     5
170
     0
171
     0
290
     0
174
     0
 93
        1
 44
0.0
173
     0
291
     1
 45
0.0
1001
ACAD
1000
AcDbSavedByObjectVersion
1070
     0
  0
VISUALSTYLE
  5
CA5C
102
{ACAD_XDICTIONARY
360
CABB
102
}
102
{ACAD_REACTORS
330
CA55
102
}
330
CA55
100
AcDbVisualStyle
  2
Wireframe
 70
     5
 71
     0
 72
     2
 73
     0
 90
        0
 40
-0.6
 41
-30.0
 62
     5
 63
     7
 74
     1
 91
        4
 64
     7
 65
   257
 75
     1
175
     1
 42
1.0
 92
        0
 66
   257
 43
1.0
 76
     1
 77
     6
 78
     2
 67
     7
 79
     3
170
     0
171
     0
290
     0
174
     0
 93
        1
 44
0.0
173
     0
291
     0
 45
0.0
1001
ACAD
1000
AcDbSavedByObjectVersion
1070
     0
  0
VISUALSTYLE
  5
CA68
102
{ACAD_XDICTIONARY
360
CAD3
102
}
102
{ACAD_REACTORS
330
CA55
102
}
330
CA55
100
AcDbVisualStyle
  2
X-Ray
 70
    25
 71
     2
 72
     2
 73
     1
 90
        1
 40
0.5
 41
-30.0
 62
     5
 63
     7
 74
     1
 91
        0
 64
     7
 65
   257
 75
     1
175
     1
 42
1.0
 92
        8
 66
     7
 43
1.0
 76
     1
 77
     6
 78
     2
 67
     7
 79
     3
170
     0
171
     0
290
     0
174
     0
 93
       13
 44
0.0
173
     0
291
     0
 45
0.0
1001
ACAD
1000
AcDbSavedByObjectVersion
1070
     0
  0
DICTIONARYVAR
  5
CAA2
102
{ACAD_REACTORS
330
CA9D
102
}
330
CA9D
100
DictionaryVariables
280
     0
  1
1:1
  0
DICTIONARYVAR
  5
CA9F
102
{ACAD_REACTORS
330
CA9D
102
}
330
CA9D
100
DictionaryVariables
280
     0
  1
STANDARD
  0
DICTIONARYVAR
  5
CA9E
102
{ACAD_REACTORS
330
CA9D
102
}
330
CA9D
100
DictionaryVariables
280
     0
  1
STANDARD
  0
DICTIONARYVAR
  5
CAA0
102
{ACAD_REACTORS
330
CA9D
102
}
330
CA9D
100
DictionaryVariables
280
     0
  1
Imperial24
  0
DICTIONARYVAR
  5
CAA1
102
{ACAD_REACTORS
330
CA9D
102
}
330
CA9D
100
DictionaryVariables
280
     0
  1
Imperial24
  0
DICTIONARYVAR
  5
CAA5
102
{ACAD_REACTORS
330
CA9D
102
}
330
CA9D
100
DictionaryVariables
280
     0
  1
1
  0
DICTIONARYVAR
  5
CAA4
102
{ACAD_REACTORS
330
CA9D
102
}
330
CA9D
100
DictionaryVariables
280
     0
  1
0
  0
DICTIONARYVAR
  5
CAA3
102
{ACAD_REACTORS
330
CA9D
102
}
330
CA9D
100
DictionaryVariables
280
     0
  1
127
  0
DICTIONARYVAR
  5
CAA6
102
{ACAD_REACTORS
330
CA9D
102
}
330
CA9D
100
DictionaryVariables
280
     0
  1
2
  0
DICTIONARY
  5
CAE3
330
CA88
100
AcDbDictionary
280
     1
281
     1
  3
ACAD_XREC_ROUNDTRIP
360
CAE4
  0
DICTIONARY
  5
CAE5
330
CA89
100
AcDbDictionary
280
     1
281
     1
  3
ACAD_XREC_ROUNDTRIP
360
CAE6
  0
DICTIONARY
  5
CAE7
330
CA8A
100
AcDbDictionary
280
     1
281
     1
  3
ACAD_XREC_ROUNDTRIP
360
CAE8
  0
DICTIONARY
  5
CA46
330
CA45
100
AcDbDictionary
280
     1
281
     1
  3
ACAD_XREC_ROUNDTRIP
360
CAAD
  3
BUMPTILE
360
CA48
  3
DIFFUSETILE
360
CA47
  3
OPACITYTILE
360
CA4B
  3
REFLECTIONTILE
360
CA4A
  3
REFRACTIONTILE
360
CA4C
  3
SPECULARTILE
360
CA49
  0
DICTIONARY
  5
CA3E
330
CA3D
100
AcDbDictionary
280
     1
281
     1
  3
ACAD_XREC_ROUNDTRIP
360
CAAC
  3
BUMPTILE
360
CA40
  3
DIFFUSETILE
360
CA3F
  3
OPACITYTILE
360
CA43
  3
REFLECTIONTILE
360
CA42
  3
REFRACTIONTILE
360
CA44
  3
SPECULARTILE
360
CA41
  0
DICTIONARY
  5
CA4E
330
CA4D
100
AcDbDictionary
280
     1
281
     1
  3
ACAD_XREC_ROUNDTRIP
360
CAAE
  3
BUMPTILE
360
CA50
  3
DIFFUSETILE
360
CA4F
  3
OPACITYTILE
360
CA53
  3
REFLECTIONTILE
360
CA52
  3
REFRACTIONTILE
360
CA54
  3
SPECULARTILE
360
CA51
  0
DICTIONARY
  5
CAE1
330
CA86
100
AcDbDictionary
280
     1
281
     1
  3
ACAD_XREC_ROUNDTRIP
360
CAE2
  0
DICTIONARY
  5
CAA8
330
CA70
100
AcDbDictionary
280
     1
281
     1
  3
ACAD_ROUNDTRIP_2008_TABLESTYLE_CELLSTYLEMAP
360
CAA9
  3
ACAD_XREC_ROUNDTRIP
360
CADF
  0
DICTIONARY
  5
CAB9
330
CA5B
100
AcDbDictionary
280
     1
281
     1
  3
ACAD_XREC_ROUNDTRIP
360
CABA
  0
DICTIONARY
  5
CAB7
330
CA5A
100
AcDbDictionary
280
     1
281
     1
  3
ACAD_XREC_ROUNDTRIP
360
CAB8
  0
DICTIONARY
  5
CAC5
330
CA61
100
AcDbDictionary
280
     1
281
     1
  3
ACAD_XREC_ROUNDTRIP
360
CAC6
  0
DICTIONARY
  5
CACD
330
CA65
100
AcDbDictionary
280
     1
281
     1
  3
ACAD_XREC_ROUNDTRIP
360
CACE
  0
DICTIONARY
  5
CABF
330
CA5E
100
AcDbDictionary
280
     1
281
     1
  3
ACAD_XREC_ROUNDTRIP
360
CAC0
  0
DICTIONARY
  5
CAC3
330
CA60
100
AcDbDictionary
280
     1
281
     1
  3
ACAD_XREC_ROUNDTRIP
360
CAC4
  0
DICTIONARY
  5
CADD
330
CA6D
100
AcDbDictionary
280
     1
281
     1
  3
ACAD_XREC_ROUNDTRIP
360
CADE
  0
DICTIONARY
  5
CACB
330
CA64
100
AcDbDictionary
280
     1
281
     1
  3
ACAD_XREC_ROUNDTRIP
360
CACC
  0
DICTIONARY
  5
CAAF
330
CA56
100
AcDbDictionary
280
     1
281
     1
  3
ACAD_XREC_ROUNDTRIP
360
CAB0
  0
DICTIONARY
  5
CAB1
330
CA57
100
AcDbDictionary
280
     1
281
     1
  3
ACAD_XREC_ROUNDTRIP
360
CAB2
  0
DICTIONARY
  5
CAB3
330
CA58
100
AcDbDictionary
280
     1
281
     1
  3
ACAD_XREC_ROUNDTRIP
360
CAB4
  0
DICTIONARY
  5
CAB5
330
CA59
100
AcDbDictionary
280
     1
281
     1
  3
ACAD_XREC_ROUNDTRIP
360
CAB6
  0
DICTIONARY
  5
CABD
330
CA5D
100
AcDbDictionary
280
     1
281
     1
  3
ACAD_XREC_ROUNDTRIP
360
CABE
  0
DICTIONARY
  5
CAD9
330
CA6B
100
AcDbDictionary
280
     1
281
     1
  3
ACAD_XREC_ROUNDTRIP
360
CADA
  0
DICTIONARY
  5
CAC9
330
CA63
100
AcDbDictionary
280
     1
281
     1
  3
ACAD_XREC_ROUNDTRIP
360
CACA
  0
DICTIONARY
  5
CADB
330
CA6C
100
AcDbDictionary
280
     1
281
     1
  3
ACAD_XREC_ROUNDTRIP
360
CADC
  0
DICTIONARY
  5
CAC1
330
CA5F
100
AcDbDictionary
280
     1
281
     1
  3
ACAD_XREC_ROUNDTRIP
360
CAC2
  0
DICTIONARY
  5
CAD7
330
CA6A
100
AcDbDictionary
280
     1
281
     1
  3
ACAD_XREC_ROUNDTRIP
360
CAD8
  0
DICTIONARY
  5
CAD5
330
CA69
100
AcDbDictionary
280
     1
281
     1
  3
ACAD_XREC_ROUNDTRIP
360
CAD6
  0
DICTIONARY
  5
CACF
330
CA66
100
AcDbDictionary
280
     1
281
     1
  3
ACAD_XREC_ROUNDTRIP
360
CAD0
  0
DICTIONARY
  5
CAD1
330
CA67
100
AcDbDictionary
280
     1
281
     1
  3
ACAD_XREC_ROUNDTRIP
360
CAD2
  0
DICTIONARY
  5
CAC7
330
CA62
100
AcDbDictionary
280
     1
281
     1
  3
ACAD_XREC_ROUNDTRIP
360
CAC8
  0
DICTIONARY
  5
CABB
330
CA5C
100
AcDbDictionary
280
     1
281
     1
  3
ACAD_XREC_ROUNDTRIP
360
CABC
  0
DICTIONARY
  5
CAD3
330
CA68
100
AcDbDictionary
280
     1
281
     1
  3
ACAD_XREC_ROUNDTRIP
360
CAD4
  0
XRECORD
  5
CAE4
102
{ACAD_REACTORS
330
CAE3
102
}
330
CAE3
100
AcDbXrecord
280
     1
102
DISPLAYNAME
  1
Imperial24
102
FLAGS
 90
        0
  0
XRECORD
  5
CAE6
102
{ACAD_REACTORS
330
CAE5
102
}
330
CAE5
100
AcDbXrecord
280
     1
102
SHADEPLOT
 70
     0
102
SHADEPLOTRESLEVEL
 70
     2
102
SHADEPLOTCUSTOMDPI
 70
   300
  0
XRECORD
  5
CAE8
102
{ACAD_REACTORS
330
CAE7
102
}
330
CAE7
100
AcDbXrecord
280
     1
102
SHADEPLOT
 70
     0
102
SHADEPLOTRESLEVEL
 70
     2
102
SHADEPLOTCUSTOMDPI
 70
   300
  0
XRECORD
  5
CAAD
102
{ACAD_REACTORS
330
CA46
102
}
330
CA46
100
AcDbXrecord
280
     1
102
MATERIAL
148
0.0
149
0.0
149
0.0
 93
        0
 94
      127
282
     0
 72
     0
 77
     0
171
     0
175
     0
179
     0
273
     0
  0
XRECORD
  5
CA48
102
{ACAD_REACTORS
330
CA46
102
}
330
CA46
100
AcDbXrecord
280
     1
270
     1
271
     1
  0
XRECORD
  5
CA47
102
{ACAD_REACTORS
330
CA46
102
}
330
CA46
100
AcDbXrecord
280
     1
270
     1
271
     1
  0
XRECORD
  5
CA4B
102
{ACAD_REACTORS
330
CA46
102
}
330
CA46
100
AcDbXrecord
280
     1
270
     1
271
     1
  0
XRECORD
  5
CA4A
102
{ACAD_REACTORS
330
CA46
102
}
330
CA46
100
AcDbXrecord
280
     1
270
     1
271
     1
  0
XRECORD
  5
CA4C
102
{ACAD_REACTORS
330
CA46
102
}
330
CA46
100
AcDbXrecord
280
     1
270
     1
271
     1
  0
XRECORD
  5
CA49
102
{ACAD_REACTORS
330
CA46
102
}
330
CA46
100
AcDbXrecord
280
     1
270
     1
271
     1
  0
XRECORD
  5
CAAC
102
{ACAD_REACTORS
330
CA3E
102
}
330
CA3E
100
AcDbXrecord
280
     1
102
MATERIAL
148
0.0
149
0.0
149
0.0
 93
        0
 94
      127
282
     0
 72
     0
 77
     0
171
     0
175
     0
179
     0
273
     0
  0
XRECORD
  5
CA40
102
{ACAD_REACTORS
330
CA3E
102
}
330
CA3E
100
AcDbXrecord
280
     1
270
     1
271
     1
  0
XRECORD
  5
CA3F
102
{ACAD_REACTORS
330
CA3E
102
}
330
CA3E
100
AcDbXrecord
280
     1
270
     1
271
     1
  0
XRECORD
  5
CA43
102
{ACAD_REACTORS
330
CA3E
102
}
330
CA3E
100
AcDbXrecord
280
     1
270
     1
271
     1
  0
XRECORD
  5
CA42
102
{ACAD_REACTORS
330
CA3E
102
}
330
CA3E
100
AcDbXrecord
280
     1
270
     1
271
     1
  0
XRECORD
  5
CA44
102
{ACAD_REACTORS
330
CA3E
102
}
330
CA3E
100
AcDbXrecord
280
     1
270
     1
271
     1
  0
XRECORD
  5
CA41
102
{ACAD_REACTORS
330
CA3E
102
}
330
CA3E
100
AcDbXrecord
280
     1
270
     1
271
     1
  0
XRECORD
  5
CAAE
102
{ACAD_REACTORS
330
CA4E
102
}
330
CA4E
100
AcDbXrecord
280
     1
102
MATERIAL
148
0.0
149
0.0
149
0.0
 93
        0
 94
      127
282
     0
 72
     0
 77
     0
171
     0
175
     0
179
     0
273
     0
  0
XRECORD
  5
CA50
102
{ACAD_REACTORS
330
CA4E
102
}
330
CA4E
100
AcDbXrecord
280
     1
270
     1
271
     1
  0
XRECORD
  5
CA4F
102
{ACAD_REACTORS
330
CA4E
102
}
330
CA4E
100
AcDbXrecord
280
     1
270
     1
271
     1
  0
XRECORD
  5
CA53
102
{ACAD_REACTORS
330
CA4E
102
}
330
CA4E
100
AcDbXrecord
280
     1
270
     1
271
     1
  0
XRECORD
  5
CA52
102
{ACAD_REACTORS
330
CA4E
102
}
330
CA4E
100
AcDbXrecord
280
     1
270
     1
271
     1
  0
XRECORD
  5
CA54
102
{ACAD_REACTORS
330
CA4E
102
}
330
CA4E
100
AcDbXrecord
280
     1
270
     1
271
     1
  0
XRECORD
  5
CA51
102
{ACAD_REACTORS
330
CA4E
102
}
330
CA4E
100
AcDbXrecord
280
     1
270
     1
271
     1
  0
XRECORD
  5
CAE2
102
{ACAD_REACTORS
330
CAE1
102
}
330
CAE1
100
AcDbXrecord
280
     1
102
DISPLAYNAME
  1
Imperial24
102
FLAGS
 90
        0
  0
CELLSTYLEMAP
  5
CAA9
102
{ACAD_REACTORS
330
CAA8
102
}
330
CAA8
100
AcDbCellStyleMap
 90
        3
300
CELLSTYLE
  1
TABLEFORMAT_BEGIN
 90
        5
170
     1
 91
        0
 92
    32768
 62
   257
 93
        1
300
CONTENTFORMAT
  1
CONTENTFORMAT_BEGIN
 90
        0
 91
        0
 92
      512
 93
        0
300

 40
0.0
140
1.0
 94
        5
 62
     0
340
C836
144
0.25
309
CONTENTFORMAT_END
171
     0
 94
        0
309
TABLEFORMAT_END
  1
CELLSTYLE_BEGIN
 90
        1
 91
        1
300
_TITLE
309
CELLSTYLE_END
300
CELLSTYLE
  1
TABLEFORMAT_BEGIN
 90
        5
170
     1
 91
        0
 92
        0
 62
   257
 93
        1
300
CONTENTFORMAT
  1
CONTENTFORMAT_BEGIN
 90
        0
 91
        0
 92
      512
 93
        0
300

 40
0.0
140
1.0
 94
        5
 62
     0
340
C836
144
0.18
309
CONTENTFORMAT_END
171
     0
 94
        0
309
TABLEFORMAT_END
  1
CELLSTYLE_BEGIN
 90
        2
 91
        1
300
_HEADER
309
CELLSTYLE_END
300
CELLSTYLE
  1
TABLEFORMAT_BEGIN
 90
        5
170
     1
 91
        0
 92
        0
 62
   257
 93
        1
300
CONTENTFORMAT
  1
CONTENTFORMAT_BEGIN
 90
        0
 91
        0
 92
      512
 93
        0
300

 40
0.0
140
1.0
 94
        2
 62
     0
340
C836
144
0.18
309
CONTENTFORMAT_END
171
     0
 94
        0
309
TABLEFORMAT_END
  1
CELLSTYLE_BEGIN
 90
        3
 91
        2
300
_DATA
309
CELLSTYLE_END
  0
XRECORD
  5
CADF
102
{ACAD_REACTORS
330
CAA8
102
}
330
CAA8
100
AcDbXrecord
280
     1
102
ACAD_ROUNDTRIP_PRE2007_TABLESTYLE
 90
      512
 91
        0
  1

 92
      512
 93
        0
  2

 94
      512
 95
        0
  3

  0
XRECORD
  5
CABA
102
{ACAD_REACTORS
330
CAB9
102
}
330
CAB9
100
AcDbXrecord
280
     1
102
RTVSPost2010Prop28
280
     1
102
RTVSPost2010PropOp28
 70
     1
102
RTVSPost2010Prop29
280
     1
102
RTVSPost2010PropOp29
 70
     1
102
RTVSPost2010Prop30
280
     0
102
RTVSPost2010PropOp30
 70
     1
102
RTVSPost2010Prop31
280
     0
102
RTVSPost2010PropOp31
 70
     1
102
RTVSPost2010Prop32
280
     0
102
RTVSPost2010PropOp32
 70
     1
102
RTVSPost2010Prop33
280
     0
102
RTVSPost2010PropOp33
 70
     1
102
RTVSPost2010Prop34
280
     0
102
RTVSPost2010PropOp34
 70
     1
102
RTVSPost2010Prop35
280
     0
102
RTVSPost2010PropOp35
 70
     1
102
RTVSPost2010Prop36
280
     0
102
RTVSPost2010PropOp36
 70
     1
102
RTVSPost2010Prop37
 90
       50
102
RTVSPost2010PropOp37
 70
     1
102
RTVSPost2010Prop38
140
0.0
102
RTVSPost2010PropOp38
 70
     1
102
RTVSPost2010Prop39
140
1.0
102
RTVSPost2010PropOp39
 70
     1
102
RTVSPost2010Prop40
 90
        0
102
RTVSPost2010PropOp40
 70
     1
102
RTVSPost2010Prop41ColorIndex
 90
       18
102
RTVSPost2010Prop41ColorRGB
 90
        0
102
RTVSPost2010PropOp41
 70
     1
102
RTVSPost2010Prop42
 90
       50
102
RTVSPost2010PropOp42
 70
     1
102
RTVSPost2010Prop43
 90
        3
102
RTVSPost2010PropOp43
 70
     1
102
RTVSPost2010Prop44ColorIndex
 90
        5
102
RTVSPost2010Prop44ColorRGB
 90
      255
102
RTVSPost2010PropOp44
 70
     1
102
RTVSPost2010Prop45
280
     0
102
RTVSPost2010PropOp45
 70
     1
102
RTVSPost2010Prop46
 90
       50
102
RTVSPost2010PropOp46
 70
     1
102
RTVSPost2010Prop47
 90
       50
102
RTVSPost2010PropOp47
 70
     1
102
RTVSPost2010Prop48
 90
       50
102
RTVSPost2010PropOp48
 70
     1
102
RTVSPost2010Prop49
280
     0
102
RTVSPost2010PropOp49
 70
     1
102
RTVSPost2010Prop50
 90
       50
102
RTVSPost2010PropOp50
 70
     1
102
RTVSPost2010Prop51ColorIndex
 90
      256
102
RTVSPost2010Prop51ColorRGB
 90
-16777216
102
RTVSPost2010PropOp51
 70
     0
102
RTVSPost2010Prop52
140
1.0
102
RTVSPost2010PropOp52
 70
     0
102
RTVSPost2010Prop53
 90
        2
102
RTVSPost2010PropOp53
 70
     1
102
RTVSPost2010Prop54
  1
strokes_ogs.tif
102
RTVSPost2010PropOp54
 70
     1
102
RTVSPost2010Prop55
280
     0
102
RTVSPost2010PropOp55
 70
     1
102
RTVSPost2010Prop56
140
1.0
102
RTVSPost2010PropOp56
 70
     1
102
RTVSPost2010Prop57
140
1.0
102
RTVSPost2010PropOp57
 70
     1
102
RTVSPropertyOp0
 70
     1
102
RTVSPropertyOp1
 70
     1
102
RTVSPropertyOp2
 70
     1
102
RTVSPropertyOp3
 70
     1
102
RTVSPropertyOp4
 70
     1
102
RTVSPropertyOp5
 70
     1
102
RTVSPropertyOp6
 70
     1
102
RTVSPropertyOp7
 70
     1
102
RTVSPropertyOp8
 70
     1
102
RTVSPropertyOp9
 70
     1
102
RTVSPropertyOp10
 70
     1
102
RTVSPropertyOp11
 70
     1
102
RTVSPropertyOp12
 70
     1
102
RTVSPropertyOp13
 70
     1
102
RTVSPropertyOp14
 70
     1
102
RTVSPropertyOp15
 70
     1
102
RTVSPropertyOp16
 70
     1
102
RTVSPropertyOp17
 70
     1
102
RTVSPropertyOp18
 70
     1
102
RTVSPropertyOp19
 70
     1
102
RTVSPropertyOp20
 70
     1
102
RTVSPropertyOp21
 70
     1
102
RTVSPropertyOp22
 70
     1
102
RTVSPropertyOp23
 70
     1
102
RTVSPropertyOp24
 70
     1
102
RTVSPropertyOp25
 70
     1
102
RTVSPropertyOp26
 70
     1
102
RTVSPropertyOp27
 70
     1
102
RTVSPropertyOp28
 70
     1
102
RTVSPropertyOp29
 70
     1
102
RTVSPropertyOp30
 70
     1
102
RTVSPropertyOp31
 70
     1
102
RTVSPropertyOp32
 70
     1
102
RTVSPropertyOp33
 70
     1
102
RTVSPropertyOp34
 70
     1
102
RTVSPropertyOp35
 70
     1
102
RTVSPropertyOp36
 70
     1
102
RTVSPropertyOp37
 70
     1
102
RTVSPropertyOp38
 70
     1
102
RTVSPropertyOp39
 70
     1
102
RTVSPropertyOp40
 70
     1
102
RTVSPropertyOp41
 70
     1
102
RTVSPropertyOp42
 70
     1
102
RTVSPropertyOp43
 70
     1
102
RTVSPropertyOp44
 70
     1
102
RTVSPropertyOp45
 70
     1
102
RTVSPropertyOp46
 70
     1
102
RTVSPropertyOp47
 70
     1
102
RTVSPropertyOp48
 70
     1
102
RTVSPropertyOp49
 70
     1
102
RTVSPropertyOp50
 70
     1
102
RTVSPropertyOp51
 70
     0
102
RTVSPropertyOp52
 70
     0
102
RTVSPropertyOp53
 70
     1
102
RTVSPropertyOp54
 70
     1
102
RTVSPropertyOp55
 70
     1
102
RTVSPropertyOp56
 70
     1
102
RTVSPropertyOp57
 70
     1
102
RTVSPropertyOp58
 70
     1
102
RTVSPropertyOp59
 70
     1
102
RTVSPropertyOp60
 70
     1
102
RTVSPropertyOp61
 70
     1
102
RTVSPropertyOp62
 70
     1
  0
XRECORD
  5
CAB8
102
{ACAD_REACTORS
330
CAB7
102
}
330
CAB7
100
AcDbXrecord
280
     1
102
RTVSPost2010Prop28
280
     0
102
RTVSPost2010PropOp28
 70
     1
102
RTVSPost2010Prop29
280
     1
102
RTVSPost2010PropOp29
 70
     1
102
RTVSPost2010Prop30
280
     1
102
RTVSPost2010PropOp30
 70
     1
102
RTVSPost2010Prop31
280
     0
102
RTVSPost2010PropOp31
 70
     1
102
RTVSPost2010Prop32
280
     0
102
RTVSPost2010PropOp32
 70
     1
102
RTVSPost2010Prop33
280
     0
102
RTVSPost2010PropOp33
 70
     1
102
RTVSPost2010Prop34
280
     0
102
RTVSPost2010PropOp34
 70
     1
102
RTVSPost2010Prop35
280
     0
102
RTVSPost2010PropOp35
 70
     1
102
RTVSPost2010Prop36
280
     0
102
RTVSPost2010PropOp36
 70
     1
102
RTVSPost2010Prop37
 90
       50
102
RTVSPost2010PropOp37
 70
     1
102
RTVSPost2010Prop38
140
0.0
102
RTVSPost2010PropOp38
 70
     1
102
RTVSPost2010Prop39
140
1.0
102
RTVSPost2010PropOp39
 70
     1
102
RTVSPost2010Prop40
 90
        0
102
RTVSPost2010PropOp40
 70
     1
102
RTVSPost2010Prop41ColorIndex
 90
       18
102
RTVSPost2010Prop41ColorRGB
 90
        0
102
RTVSPost2010PropOp41
 70
     1
102
RTVSPost2010Prop42
 90
       50
102
RTVSPost2010PropOp42
 70
     1
102
RTVSPost2010Prop43
 90
        3
102
RTVSPost2010PropOp43
 70
     1
102
RTVSPost2010Prop44ColorIndex
 90
        5
102
RTVSPost2010Prop44ColorRGB
 90
      255
102
RTVSPost2010PropOp44
 70
     1
102
RTVSPost2010Prop45
280
     0
102
RTVSPost2010PropOp45
 70
     1
102
RTVSPost2010Prop46
 90
       50
102
RTVSPost2010PropOp46
 70
     1
102
RTVSPost2010Prop47
 90
       50
102
RTVSPost2010PropOp47
 70
     1
102
RTVSPost2010Prop48
 90
       50
102
RTVSPost2010PropOp48
 70
     1
102
RTVSPost2010Prop49
280
     0
102
RTVSPost2010PropOp49
 70
     1
102
RTVSPost2010Prop50
 90
       50
102
RTVSPost2010PropOp50
 70
     1
102
RTVSPost2010Prop51ColorIndex
 90
      256
102
RTVSPost2010Prop51ColorRGB
 90
-16777216
102
RTVSPost2010PropOp51
 70
     0
102
RTVSPost2010Prop52
140
1.0
102
RTVSPost2010PropOp52
 70
     0
102
RTVSPost2010Prop53
 90
        2
102
RTVSPost2010PropOp53
 70
     1
102
RTVSPost2010Prop54
  1
strokes_ogs.tif
102
RTVSPost2010PropOp54
 70
     1
102
RTVSPost2010Prop55
280
     0
102
RTVSPost2010PropOp55
 70
     1
102
RTVSPost2010Prop56
140
1.0
102
RTVSPost2010PropOp56
 70
     1
102
RTVSPost2010Prop57
140
1.0
102
RTVSPost2010PropOp57
 70
     1
102
RTVSPropertyOp0
 70
     1
102
RTVSPropertyOp1
 70
     1
102
RTVSPropertyOp2
 70
     1
102
RTVSPropertyOp3
 70
     1
102
RTVSPropertyOp4
 70
     1
102
RTVSPropertyOp5
 70
     1
102
RTVSPropertyOp6
 70
     1
102
RTVSPropertyOp7
 70
     1
102
RTVSPropertyOp8
 70
     1
102
RTVSPropertyOp9
 70
     1
102
RTVSPropertyOp10
 70
     1
102
RTVSPropertyOp11
 70
     1
102
RTVSPropertyOp12
 70
     1
102
RTVSPropertyOp13
 70
     1
102
RTVSPropertyOp14
 70
     1
102
RTVSPropertyOp15
 70
     1
102
RTVSPropertyOp16
 70
     1
102
RTVSPropertyOp17
 70
     1
102
RTVSPropertyOp18
 70
     1
102
RTVSPropertyOp19
 70
     1
102
RTVSPropertyOp20
 70
     1
102
RTVSPropertyOp21
 70
     1
102
RTVSPropertyOp22
 70
     1
102
RTVSPropertyOp23
 70
     1
102
RTVSPropertyOp24
 70
     1
102
RTVSPropertyOp25
 70
     1
102
RTVSPropertyOp26
 70
     1
102
RTVSPropertyOp27
 70
     1
102
RTVSPropertyOp28
 70
     1
102
RTVSPropertyOp29
 70
     1
102
RTVSPropertyOp30
 70
     1
102
RTVSPropertyOp31
 70
     1
102
RTVSPropertyOp32
 70
     1
102
RTVSPropertyOp33
 70
     1
102
RTVSPropertyOp34
 70
     1
102
RTVSPropertyOp35
 70
     1
102
RTVSPropertyOp36
 70
     1
102
RTVSPropertyOp37
 70
     1
102
RTVSPropertyOp38
 70
     1
102
RTVSPropertyOp39
 70
     1
102
RTVSPropertyOp40
 70
     1
102
RTVSPropertyOp41
 70
     1
102
RTVSPropertyOp42
 70
     1
102
RTVSPropertyOp43
 70
     1
102
RTVSPropertyOp44
 70
     1
102
RTVSPropertyOp45
 70
     1
102
RTVSPropertyOp46
 70
     1
102
RTVSPropertyOp47
 70
     1
102
RTVSPropertyOp48
 70
     1
102
RTVSPropertyOp49
 70
     1
102
RTVSPropertyOp50
 70
     1
102
RTVSPropertyOp51
 70
     0
102
RTVSPropertyOp52
 70
     0
102
RTVSPropertyOp53
 70
     1
102
RTVSPropertyOp54
 70
     1
102
RTVSPropertyOp55
 70
     1
102
RTVSPropertyOp56
 70
     1
102
RTVSPropertyOp57
 70
     1
102
RTVSPropertyOp58
 70
     1
102
RTVSPropertyOp59
 70
     1
102
RTVSPropertyOp60
 70
     1
102
RTVSPropertyOp61
 70
     1
102
RTVSPropertyOp62
 70
     1
  0
XRECORD
  5
CAC6
102
{ACAD_REACTORS
330
CAC5
102
}
330
CAC5
100
AcDbXrecord
280
     1
102
RTVSPost2010Prop28
280
     0
102
RTVSPost2010PropOp28
 70
     1
102
RTVSPost2010Prop29
280
     1
102
RTVSPost2010PropOp29
 70
     1
102
RTVSPost2010Prop30
280
     1
102
RTVSPost2010PropOp30
 70
     1
102
RTVSPost2010Prop31
280
     0
102
RTVSPost2010PropOp31
 70
     1
102
RTVSPost2010Prop32
280
     0
102
RTVSPost2010PropOp32
 70
     1
102
RTVSPost2010Prop33
280
     0
102
RTVSPost2010PropOp33
 70
     1
102
RTVSPost2010Prop34
280
     0
102
RTVSPost2010PropOp34
 70
     1
102
RTVSPost2010Prop35
280
     0
102
RTVSPost2010PropOp35
 70
     1
102
RTVSPost2010Prop36
280
     0
102
RTVSPost2010PropOp36
 70
     1
102
RTVSPost2010Prop37
 90
       50
102
RTVSPost2010PropOp37
 70
     1
102
RTVSPost2010Prop38
140
0.0
102
RTVSPost2010PropOp38
 70
     1
102
RTVSPost2010Prop39
140
1.0
102
RTVSPost2010PropOp39
 70
     1
102
RTVSPost2010Prop40
 90
        0
102
RTVSPost2010PropOp40
 70
     1
102
RTVSPost2010Prop41ColorIndex
 90
       18
102
RTVSPost2010Prop41ColorRGB
 90
        0
102
RTVSPost2010PropOp41
 70
     1
102
RTVSPost2010Prop42
 90
       50
102
RTVSPost2010PropOp42
 70
     1
102
RTVSPost2010Prop43
 90
        3
102
RTVSPost2010PropOp43
 70
     1
102
RTVSPost2010Prop44ColorIndex
 90
        5
102
RTVSPost2010Prop44ColorRGB
 90
      255
102
RTVSPost2010PropOp44
 70
     1
102
RTVSPost2010Prop45
280
     0
102
RTVSPost2010PropOp45
 70
     1
102
RTVSPost2010Prop46
 90
       50
102
RTVSPost2010PropOp46
 70
     1
102
RTVSPost2010Prop47
 90
       50
102
RTVSPost2010PropOp47
 70
     1
102
RTVSPost2010Prop48
 90
       50
102
RTVSPost2010PropOp48
 70
     1
102
RTVSPost2010Prop49
280
     0
102
RTVSPost2010PropOp49
 70
     1
102
RTVSPost2010Prop50
 90
       50
102
RTVSPost2010PropOp50
 70
     1
102
RTVSPost2010Prop51ColorIndex
 90
      256
102
RTVSPost2010Prop51ColorRGB
 90
-16777216
102
RTVSPost2010PropOp51
 70
     0
102
RTVSPost2010Prop52
140
1.0
102
RTVSPost2010PropOp52
 70
     0
102
RTVSPost2010Prop53
 90
        2
102
RTVSPost2010PropOp53
 70
     1
102
RTVSPost2010Prop54
  1
strokes_ogs.tif
102
RTVSPost2010PropOp54
 70
     1
102
RTVSPost2010Prop55
280
     0
102
RTVSPost2010PropOp55
 70
     1
102
RTVSPost2010Prop56
140
1.0
102
RTVSPost2010PropOp56
 70
     1
102
RTVSPost2010Prop57
140
1.0
102
RTVSPost2010PropOp57
 70
     1
102
RTVSPropertyOp0
 70
     1
102
RTVSPropertyOp1
 70
     1
102
RTVSPropertyOp2
 70
     1
102
RTVSPropertyOp3
 70
     1
102
RTVSPropertyOp4
 70
     1
102
RTVSPropertyOp5
 70
     1
102
RTVSPropertyOp6
 70
     1
102
RTVSPropertyOp7
 70
     1
102
RTVSPropertyOp8
 70
     1
102
RTVSPropertyOp9
 70
     1
102
RTVSPropertyOp10
 70
     1
102
RTVSPropertyOp11
 70
     1
102
RTVSPropertyOp12
 70
     1
102
RTVSPropertyOp13
 70
     1
102
RTVSPropertyOp14
 70
     1
102
RTVSPropertyOp15
 70
     1
102
RTVSPropertyOp16
 70
     1
102
RTVSPropertyOp17
 70
     1
102
RTVSPropertyOp18
 70
     1
102
RTVSPropertyOp19
 70
     1
102
RTVSPropertyOp20
 70
     1
102
RTVSPropertyOp21
 70
     1
102
RTVSPropertyOp22
 70
     1
102
RTVSPropertyOp23
 70
     1
102
RTVSPropertyOp24
 70
     1
102
RTVSPropertyOp25
 70
     1
102
RTVSPropertyOp26
 70
     1
102
RTVSPropertyOp27
 70
     1
102
RTVSPropertyOp28
 70
     1
102
RTVSPropertyOp29
 70
     1
102
RTVSPropertyOp30
 70
     1
102
RTVSPropertyOp31
 70
     1
102
RTVSPropertyOp32
 70
     1
102
RTVSPropertyOp33
 70
     1
102
RTVSPropertyOp34
 70
     1
102
RTVSPropertyOp35
 70
     1
102
RTVSPropertyOp36
 70
     1
102
RTVSPropertyOp37
 70
     1
102
RTVSPropertyOp38
 70
     1
102
RTVSPropertyOp39
 70
     1
102
RTVSPropertyOp40
 70
     1
102
RTVSPropertyOp41
 70
     1
102
RTVSPropertyOp42
 70
     1
102
RTVSPropertyOp43
 70
     1
102
RTVSPropertyOp44
 70
     1
102
RTVSPropertyOp45
 70
     1
102
RTVSPropertyOp46
 70
     1
102
RTVSPropertyOp47
 70
     1
102
RTVSPropertyOp48
 70
     1
102
RTVSPropertyOp49
 70
     1
102
RTVSPropertyOp50
 70
     1
102
RTVSPropertyOp51
 70
     0
102
RTVSPropertyOp52
 70
     0
102
RTVSPropertyOp53
 70
     1
102
RTVSPropertyOp54
 70
     1
102
RTVSPropertyOp55
 70
     1
102
RTVSPropertyOp56
 70
     1
102
RTVSPropertyOp57
 70
     1
102
RTVSPropertyOp58
 70
     1
102
RTVSPropertyOp59
 70
     1
102
RTVSPropertyOp60
 70
     1
102
RTVSPropertyOp61
 70
     1
102
RTVSPropertyOp62
 70
     1
  0
XRECORD
  5
CACE
102
{ACAD_REACTORS
330
CACD
102
}
330
CACD
100
AcDbXrecord
280
     1
102
RTVSPost2010Prop28
280
     0
102
RTVSPost2010PropOp28
 70
     1
102
RTVSPost2010Prop29
280
     1
102
RTVSPost2010PropOp29
 70
     1
102
RTVSPost2010Prop30
280
     1
102
RTVSPost2010PropOp30
 70
     1
102
RTVSPost2010Prop31
280
     0
102
RTVSPost2010PropOp31
 70
     1
102
RTVSPost2010Prop32
280
     0
102
RTVSPost2010PropOp32
 70
     1
102
RTVSPost2010Prop33
280
     0
102
RTVSPost2010PropOp33
 70
     1
102
RTVSPost2010Prop34
280
     0
102
RTVSPost2010PropOp34
 70
     1
102
RTVSPost2010Prop35
280
     0
102
RTVSPost2010PropOp35
 70
     1
102
RTVSPost2010Prop36
280
     0
102
RTVSPost2010PropOp36
 70
     1
102
RTVSPost2010Prop37
 90
       50
102
RTVSPost2010PropOp37
 70
     1
102
RTVSPost2010Prop38
140
0.0
102
RTVSPost2010PropOp38
 70
     1
102
RTVSPost2010Prop39
140
1.0
102
RTVSPost2010PropOp39
 70
     1
102
RTVSPost2010Prop40
 90
        0
102
RTVSPost2010PropOp40
 70
     1
102
RTVSPost2010Prop41ColorIndex
 90
       18
102
RTVSPost2010Prop41ColorRGB
 90
        0
102
RTVSPost2010PropOp41
 70
     1
102
RTVSPost2010Prop42
 90
       50
102
RTVSPost2010PropOp42
 70
     1
102
RTVSPost2010Prop43
 90
        3
102
RTVSPost2010PropOp43
 70
     1
102
RTVSPost2010Prop44ColorIndex
 90
        5
102
RTVSPost2010Prop44ColorRGB
 90
      255
102
RTVSPost2010PropOp44
 70
     1
102
RTVSPost2010Prop45
280
     0
102
RTVSPost2010PropOp45
 70
     1
102
RTVSPost2010Prop46
 90
       50
102
RTVSPost2010PropOp46
 70
     1
102
RTVSPost2010Prop47
 90
       50
102
RTVSPost2010PropOp47
 70
     1
102
RTVSPost2010Prop48
 90
       50
102
RTVSPost2010PropOp48
 70
     1
102
RTVSPost2010Prop49
280
     0
102
RTVSPost2010PropOp49
 70
     1
102
RTVSPost2010Prop50
 90
       50
102
RTVSPost2010PropOp50
 70
     1
102
RTVSPost2010Prop51ColorIndex
 90
      256
102
RTVSPost2010Prop51ColorRGB
 90
-16777216
102
RTVSPost2010PropOp51
 70
     0
102
RTVSPost2010Prop52
140
1.0
102
RTVSPost2010PropOp52
 70
     0
102
RTVSPost2010Prop53
 90
        2
102
RTVSPost2010PropOp53
 70
     1
102
RTVSPost2010Prop54
  1
strokes_ogs.tif
102
RTVSPost2010PropOp54
 70
     1
102
RTVSPost2010Prop55
280
     0
102
RTVSPost2010PropOp55
 70
     1
102
RTVSPost2010Prop56
140
1.0
102
RTVSPost2010PropOp56
 70
     1
102
RTVSPost2010Prop57
140
1.0
102
RTVSPost2010PropOp57
 70
     1
102
RTVSPropertyOp0
 70
     1
102
RTVSPropertyOp1
 70
     1
102
RTVSPropertyOp2
 70
     1
102
RTVSPropertyOp3
 70
     1
102
RTVSPropertyOp4
 70
     1
102
RTVSPropertyOp5
 70
     1
102
RTVSPropertyOp6
 70
     1
102
RTVSPropertyOp7
 70
     1
102
RTVSPropertyOp8
 70
     1
102
RTVSPropertyOp9
 70
     1
102
RTVSPropertyOp10
 70
     1
102
RTVSPropertyOp11
 70
     1
102
RTVSPropertyOp12
 70
     1
102
RTVSPropertyOp13
 70
     1
102
RTVSPropertyOp14
 70
     1
102
RTVSPropertyOp15
 70
     1
102
RTVSPropertyOp16
 70
     1
102
RTVSPropertyOp17
 70
     1
102
RTVSPropertyOp18
 70
     1
102
RTVSPropertyOp19
 70
     1
102
RTVSPropertyOp20
 70
     1
102
RTVSPropertyOp21
 70
     1
102
RTVSPropertyOp22
 70
     1
102
RTVSPropertyOp23
 70
     1
102
RTVSPropertyOp24
 70
     1
102
RTVSPropertyOp25
 70
     1
102
RTVSPropertyOp26
 70
     1
102
RTVSPropertyOp27
 70
     1
102
RTVSPropertyOp28
 70
     1
102
RTVSPropertyOp29
 70
     1
102
RTVSPropertyOp30
 70
     1
102
RTVSPropertyOp31
 70
     1
102
RTVSPropertyOp32
 70
     1
102
RTVSPropertyOp33
 70
     1
102
RTVSPropertyOp34
 70
     1
102
RTVSPropertyOp35
 70
     1
102
RTVSPropertyOp36
 70
     1
102
RTVSPropertyOp37
 70
     1
102
RTVSPropertyOp38
 70
     1
102
RTVSPropertyOp39
 70
     1
102
RTVSPropertyOp40
 70
     1
102
RTVSPropertyOp41
 70
     1
102
RTVSPropertyOp42
 70
     1
102
RTVSPropertyOp43
 70
     1
102
RTVSPropertyOp44
 70
     1
102
RTVSPropertyOp45
 70
     1
102
RTVSPropertyOp46
 70
     1
102
RTVSPropertyOp47
 70
     1
102
RTVSPropertyOp48
 70
     1
102
RTVSPropertyOp49
 70
     1
102
RTVSPropertyOp50
 70
     1
102
RTVSPropertyOp51
 70
     0
102
RTVSPropertyOp52
 70
     0
102
RTVSPropertyOp53
 70
     1
102
RTVSPropertyOp54
 70
     1
102
RTVSPropertyOp55
 70
     1
102
RTVSPropertyOp56
 70
     1
102
RTVSPropertyOp57
 70
     1
102
RTVSPropertyOp58
 70
     1
102
RTVSPropertyOp59
 70
     1
102
RTVSPropertyOp60
 70
     1
102
RTVSPropertyOp61
 70
     1
102
RTVSPropertyOp62
 70
     1
  0
XRECORD
  5
CAC0
102
{ACAD_REACTORS
330
CABF
102
}
330
CABF
100
AcDbXrecord
280
     1
102
RTVSPost2010Prop28
280
     0
102
RTVSPost2010PropOp28
 70
     1
102
RTVSPost2010Prop29
280
     1
102
RTVSPost2010PropOp29
 70
     1
102
RTVSPost2010Prop30
280
     1
102
RTVSPost2010PropOp30
 70
     1
102
RTVSPost2010Prop31
280
     0
102
RTVSPost2010PropOp31
 70
     1
102
RTVSPost2010Prop32
280
     0
102
RTVSPost2010PropOp32
 70
     1
102
RTVSPost2010Prop33
280
     0
102
RTVSPost2010PropOp33
 70
     1
102
RTVSPost2010Prop34
280
     0
102
RTVSPost2010PropOp34
 70
     1
102
RTVSPost2010Prop35
280
     0
102
RTVSPost2010PropOp35
 70
     1
102
RTVSPost2010Prop36
280
     0
102
RTVSPost2010PropOp36
 70
     1
102
RTVSPost2010Prop37
 90
       50
102
RTVSPost2010PropOp37
 70
     1
102
RTVSPost2010Prop38
140
0.0
102
RTVSPost2010PropOp38
 70
     1
102
RTVSPost2010Prop39
140
1.0
102
RTVSPost2010PropOp39
 70
     1
102
RTVSPost2010Prop40
 90
        0
102
RTVSPost2010PropOp40
 70
     1
102
RTVSPost2010Prop41ColorIndex
 90
       18
102
RTVSPost2010Prop41ColorRGB
 90
        0
102
RTVSPost2010PropOp41
 70
     1
102
RTVSPost2010Prop42
 90
       50
102
RTVSPost2010PropOp42
 70
     1
102
RTVSPost2010Prop43
 90
        3
102
RTVSPost2010PropOp43
 70
     1
102
RTVSPost2010Prop44ColorIndex
 90
        5
102
RTVSPost2010Prop44ColorRGB
 90
      255
102
RTVSPost2010PropOp44
 70
     1
102
RTVSPost2010Prop45
280
     0
102
RTVSPost2010PropOp45
 70
     1
102
RTVSPost2010Prop46
 90
       50
102
RTVSPost2010PropOp46
 70
     1
102
RTVSPost2010Prop47
 90
       50
102
RTVSPost2010PropOp47
 70
     1
102
RTVSPost2010Prop48
 90
       50
102
RTVSPost2010PropOp48
 70
     1
102
RTVSPost2010Prop49
280
     0
102
RTVSPost2010PropOp49
 70
     1
102
RTVSPost2010Prop50
 90
       50
102
RTVSPost2010PropOp50
 70
     1
102
RTVSPost2010Prop51ColorIndex
 90
      256
102
RTVSPost2010Prop51ColorRGB
 90
-16777216
102
RTVSPost2010PropOp51
 70
     0
102
RTVSPost2010Prop52
140
1.0
102
RTVSPost2010PropOp52
 70
     0
102
RTVSPost2010Prop53
 90
        2
102
RTVSPost2010PropOp53
 70
     1
102
RTVSPost2010Prop54
  1
strokes_ogs.tif
102
RTVSPost2010PropOp54
 70
     1
102
RTVSPost2010Prop55
280
     0
102
RTVSPost2010PropOp55
 70
     1
102
RTVSPost2010Prop56
140
1.0
102
RTVSPost2010PropOp56
 70
     1
102
RTVSPost2010Prop57
140
1.0
102
RTVSPost2010PropOp57
 70
     1
102
RTVSPropertyOp0
 70
     1
102
RTVSPropertyOp1
 70
     1
102
RTVSPropertyOp2
 70
     1
102
RTVSPropertyOp3
 70
     1
102
RTVSPropertyOp4
 70
     1
102
RTVSPropertyOp5
 70
     1
102
RTVSPropertyOp6
 70
     1
102
RTVSPropertyOp7
 70
     1
102
RTVSPropertyOp8
 70
     1
102
RTVSPropertyOp9
 70
     1
102
RTVSPropertyOp10
 70
     1
102
RTVSPropertyOp11
 70
     1
102
RTVSPropertyOp12
 70
     1
102
RTVSPropertyOp13
 70
     1
102
RTVSPropertyOp14
 70
     1
102
RTVSPropertyOp15
 70
     1
102
RTVSPropertyOp16
 70
     1
102
RTVSPropertyOp17
 70
     1
102
RTVSPropertyOp18
 70
     1
102
RTVSPropertyOp19
 70
     1
102
RTVSPropertyOp20
 70
     1
102
RTVSPropertyOp21
 70
     1
102
RTVSPropertyOp22
 70
     1
102
RTVSPropertyOp23
 70
     1
102
RTVSPropertyOp24
 70
     1
102
RTVSPropertyOp25
 70
     1
102
RTVSPropertyOp26
 70
     1
102
RTVSPropertyOp27
 70
     1
102
RTVSPropertyOp28
 70
     1
102
RTVSPropertyOp29
 70
     1
102
RTVSPropertyOp30
 70
     1
102
RTVSPropertyOp31
 70
     1
102
RTVSPropertyOp32
 70
     1
102
RTVSPropertyOp33
 70
     1
102
RTVSPropertyOp34
 70
     1
102
RTVSPropertyOp35
 70
     1
102
RTVSPropertyOp36
 70
     1
102
RTVSPropertyOp37
 70
     1
102
RTVSPropertyOp38
 70
     1
102
RTVSPropertyOp39
 70
     1
102
RTVSPropertyOp40
 70
     1
102
RTVSPropertyOp41
 70
     1
102
RTVSPropertyOp42
 70
     1
102
RTVSPropertyOp43
 70
     1
102
RTVSPropertyOp44
 70
     1
102
RTVSPropertyOp45
 70
     1
102
RTVSPropertyOp46
 70
     1
102
RTVSPropertyOp47
 70
     1
102
RTVSPropertyOp48
 70
     1
102
RTVSPropertyOp49
 70
     1
102
RTVSPropertyOp50
 70
     1
102
RTVSPropertyOp51
 70
     0
102
RTVSPropertyOp52
 70
     0
102
RTVSPropertyOp53
 70
     1
102
RTVSPropertyOp54
 70
     1
102
RTVSPropertyOp55
 70
     1
102
RTVSPropertyOp56
 70
     1
102
RTVSPropertyOp57
 70
     1
102
RTVSPropertyOp58
 70
     1
102
RTVSPropertyOp59
 70
     1
102
RTVSPropertyOp60
 70
     1
102
RTVSPropertyOp61
 70
     1
102
RTVSPropertyOp62
 70
     1
  0
XRECORD
  5
CAC4
102
{ACAD_REACTORS
330
CAC3
102
}
330
CAC3
100
AcDbXrecord
280
     1
102
RTVSPost2010Prop28
280
     0
102
RTVSPost2010PropOp28
 70
     1
102
RTVSPost2010Prop29
280
     1
102
RTVSPost2010PropOp29
 70
     1
102
RTVSPost2010Prop30
280
     1
102
RTVSPost2010PropOp30
 70
     1
102
RTVSPost2010Prop31
280
     0
102
RTVSPost2010PropOp31
 70
     1
102
RTVSPost2010Prop32
280
     0
102
RTVSPost2010PropOp32
 70
     1
102
RTVSPost2010Prop33
280
     0
102
RTVSPost2010PropOp33
 70
     1
102
RTVSPost2010Prop34
280
     0
102
RTVSPost2010PropOp34
 70
     1
102
RTVSPost2010Prop35
280
     0
102
RTVSPost2010PropOp35
 70
     1
102
RTVSPost2010Prop36
280
     0
102
RTVSPost2010PropOp36
 70
     1
102
RTVSPost2010Prop37
 90
       50
102
RTVSPost2010PropOp37
 70
     1
102
RTVSPost2010Prop38
140
0.0
102
RTVSPost2010PropOp38
 70
     1
102
RTVSPost2010Prop39
140
1.0
102
RTVSPost2010PropOp39
 70
     1
102
RTVSPost2010Prop40
 90
        0
102
RTVSPost2010PropOp40
 70
     1
102
RTVSPost2010Prop41ColorIndex
 90
       18
102
RTVSPost2010Prop41ColorRGB
 90
        0
102
RTVSPost2010PropOp41
 70
     1
102
RTVSPost2010Prop42
 90
       50
102
RTVSPost2010PropOp42
 70
     1
102
RTVSPost2010Prop43
 90
        3
102
RTVSPost2010PropOp43
 70
     1
102
RTVSPost2010Prop44ColorIndex
 90
        5
102
RTVSPost2010Prop44ColorRGB
 90
      255
102
RTVSPost2010PropOp44
 70
     1
102
RTVSPost2010Prop45
280
     0
102
RTVSPost2010PropOp45
 70
     1
102
RTVSPost2010Prop46
 90
       50
102
RTVSPost2010PropOp46
 70
     1
102
RTVSPost2010Prop47
 90
       50
102
RTVSPost2010PropOp47
 70
     1
102
RTVSPost2010Prop48
 90
       50
102
RTVSPost2010PropOp48
 70
     1
102
RTVSPost2010Prop49
280
     0
102
RTVSPost2010PropOp49
 70
     1
102
RTVSPost2010Prop50
 90
       50
102
RTVSPost2010PropOp50
 70
     1
102
RTVSPost2010Prop51ColorIndex
 90
      256
102
RTVSPost2010Prop51ColorRGB
 90
-16777216
102
RTVSPost2010PropOp51
 70
     0
102
RTVSPost2010Prop52
140
1.0
102
RTVSPost2010PropOp52
 70
     0
102
RTVSPost2010Prop53
 90
        2
102
RTVSPost2010PropOp53
 70
     1
102
RTVSPost2010Prop54
  1
strokes_ogs.tif
102
RTVSPost2010PropOp54
 70
     1
102
RTVSPost2010Prop55
280
     0
102
RTVSPost2010PropOp55
 70
     1
102
RTVSPost2010Prop56
140
1.0
102
RTVSPost2010PropOp56
 70
     1
102
RTVSPost2010Prop57
140
1.0
102
RTVSPost2010PropOp57
 70
     1
102
RTVSPropertyOp0
 70
     1
102
RTVSPropertyOp1
 70
     1
102
RTVSPropertyOp2
 70
     1
102
RTVSPropertyOp3
 70
     1
102
RTVSPropertyOp4
 70
     1
102
RTVSPropertyOp5
 70
     1
102
RTVSPropertyOp6
 70
     1
102
RTVSPropertyOp7
 70
     1
102
RTVSPropertyOp8
 70
     1
102
RTVSPropertyOp9
 70
     1
102
RTVSPropertyOp10
 70
     1
102
RTVSPropertyOp11
 70
     1
102
RTVSPropertyOp12
 70
     1
102
RTVSPropertyOp13
 70
     1
102
RTVSPropertyOp14
 70
     1
102
RTVSPropertyOp15
 70
     1
102
RTVSPropertyOp16
 70
     1
102
RTVSPropertyOp17
 70
     1
102
RTVSPropertyOp18
 70
     1
102
RTVSPropertyOp19
 70
     1
102
RTVSPropertyOp20
 70
     1
102
RTVSPropertyOp21
 70
     1
102
RTVSPropertyOp22
 70
     1
102
RTVSPropertyOp23
 70
     1
102
RTVSPropertyOp24
 70
     1
102
RTVSPropertyOp25
 70
     1
102
RTVSPropertyOp26
 70
     1
102
RTVSPropertyOp27
 70
     1
102
RTVSPropertyOp28
 70
     1
102
RTVSPropertyOp29
 70
     1
102
RTVSPropertyOp30
 70
     1
102
RTVSPropertyOp31
 70
     1
102
RTVSPropertyOp32
 70
     1
102
RTVSPropertyOp33
 70
     1
102
RTVSPropertyOp34
 70
     1
102
RTVSPropertyOp35
 70
     1
102
RTVSPropertyOp36
 70
     1
102
RTVSPropertyOp37
 70
     1
102
RTVSPropertyOp38
 70
     1
102
RTVSPropertyOp39
 70
     1
102
RTVSPropertyOp40
 70
     1
102
RTVSPropertyOp41
 70
     1
102
RTVSPropertyOp42
 70
     1
102
RTVSPropertyOp43
 70
     1
102
RTVSPropertyOp44
 70
     1
102
RTVSPropertyOp45
 70
     1
102
RTVSPropertyOp46
 70
     1
102
RTVSPropertyOp47
 70
     1
102
RTVSPropertyOp48
 70
     1
102
RTVSPropertyOp49
 70
     1
102
RTVSPropertyOp50
 70
     1
102
RTVSPropertyOp51
 70
     0
102
RTVSPropertyOp52
 70
     0
102
RTVSPropertyOp53
 70
     1
102
RTVSPropertyOp54
 70
     1
102
RTVSPropertyOp55
 70
     1
102
RTVSPropertyOp56
 70
     1
102
RTVSPropertyOp57
 70
     1
102
RTVSPropertyOp58
 70
     1
102
RTVSPropertyOp59
 70
     1
102
RTVSPropertyOp60
 70
     1
102
RTVSPropertyOp61
 70
     1
102
RTVSPropertyOp62
 70
     1
  0
XRECORD
  5
CADE
102
{ACAD_REACTORS
330
CADD
102
}
330
CADD
100
AcDbXrecord
280
     1
102
RTVSPost2010Prop28
280
     0
102
RTVSPost2010PropOp28
 70
     1
102
RTVSPost2010Prop29
280
     1
102
RTVSPost2010PropOp29
 70
     1
102
RTVSPost2010Prop30
280
     1
102
RTVSPost2010PropOp30
 70
     1
102
RTVSPost2010Prop31
280
     0
102
RTVSPost2010PropOp31
 70
     1
102
RTVSPost2010Prop32
280
     0
102
RTVSPost2010PropOp32
 70
     1
102
RTVSPost2010Prop33
280
     0
102
RTVSPost2010PropOp33
 70
     1
102
RTVSPost2010Prop34
280
     0
102
RTVSPost2010PropOp34
 70
     1
102
RTVSPost2010Prop35
280
     0
102
RTVSPost2010PropOp35
 70
     1
102
RTVSPost2010Prop36
280
     0
102
RTVSPost2010PropOp36
 70
     1
102
RTVSPost2010Prop37
 90
       50
102
RTVSPost2010PropOp37
 70
     0
102
RTVSPost2010Prop38
140
0.0
102
RTVSPost2010PropOp38
 70
     0
102
RTVSPost2010Prop39
140
1.0
102
RTVSPost2010PropOp39
 70
     0
102
RTVSPost2010Prop40
 90
        0
102
RTVSPost2010PropOp40
 70
     0
102
RTVSPost2010Prop41ColorIndex
 90
       18
102
RTVSPost2010Prop41ColorRGB
 90
        0
102
RTVSPost2010PropOp41
 70
     0
102
RTVSPost2010Prop42
 90
       50
102
RTVSPost2010PropOp42
 70
     0
102
RTVSPost2010Prop43
 90
        3
102
RTVSPost2010PropOp43
 70
     0
102
RTVSPost2010Prop44ColorIndex
 90
        5
102
RTVSPost2010Prop44ColorRGB
 90
      255
102
RTVSPost2010PropOp44
 70
     0
102
RTVSPost2010Prop45
280
     0
102
RTVSPost2010PropOp45
 70
     1
102
RTVSPost2010Prop46
 90
       50
102
RTVSPost2010PropOp46
 70
     0
102
RTVSPost2010Prop47
 90
       50
102
RTVSPost2010PropOp47
 70
     0
102
RTVSPost2010Prop48
 90
       50
102
RTVSPost2010PropOp48
 70
     0
102
RTVSPost2010Prop49
280
     0
102
RTVSPost2010PropOp49
 70
     1
102
RTVSPost2010Prop50
 90
       50
102
RTVSPost2010PropOp50
 70
     0
102
RTVSPost2010Prop51ColorIndex
 90
      256
102
RTVSPost2010Prop51ColorRGB
 90
-16777216
102
RTVSPost2010PropOp51
 70
     0
102
RTVSPost2010Prop52
140
1.0
102
RTVSPost2010PropOp52
 70
     0
102
RTVSPost2010Prop53
 90
        2
102
RTVSPost2010PropOp53
 70
     0
102
RTVSPost2010Prop54
  1
strokes_ogs.tif
102
RTVSPost2010PropOp54
 70
     0
102
RTVSPost2010Prop55
280
     0
102
RTVSPost2010PropOp55
 70
     1
102
RTVSPost2010Prop56
140
1.0
102
RTVSPost2010PropOp56
 70
     0
102
RTVSPost2010Prop57
140
1.0
102
RTVSPost2010PropOp57
 70
     0
102
RTVSPropertyOp0
 70
     0
102
RTVSPropertyOp1
 70
     0
102
RTVSPropertyOp2
 70
     0
102
RTVSPropertyOp3
 70
     0
102
RTVSPropertyOp4
 70
     0
102
RTVSPropertyOp5
 70
     0
102
RTVSPropertyOp6
 70
     0
102
RTVSPropertyOp7
 70
     0
102
RTVSPropertyOp8
 70
     0
102
RTVSPropertyOp9
 70
     0
102
RTVSPropertyOp10
 70
     0
102
RTVSPropertyOp11
 70
     0
102
RTVSPropertyOp12
 70
     0
102
RTVSPropertyOp13
 70
     0
102
RTVSPropertyOp14
 70
     2
102
RTVSPropertyOp15
 70
     0
102
RTVSPropertyOp16
 70
     0
102
RTVSPropertyOp17
 70
     0
102
RTVSPropertyOp18
 70
     0
102
RTVSPropertyOp19
 70
     0
102
RTVSPropertyOp20
 70
     0
102
RTVSPropertyOp21
 70
     0
102
RTVSPropertyOp22
 70
     0
102
RTVSPropertyOp23
 70
     0
102
RTVSPropertyOp24
 70
     0
102
RTVSPropertyOp25
 70
     0
102
RTVSPropertyOp26
 70
     0
102
RTVSPropertyOp27
 70
     0
102
RTVSPropertyOp28
 70
     1
102
RTVSPropertyOp29
 70
     1
102
RTVSPropertyOp30
 70
     1
102
RTVSPropertyOp31
 70
     1
102
RTVSPropertyOp32
 70
     1
102
RTVSPropertyOp33
 70
     1
102
RTVSPropertyOp34
 70
     1
102
RTVSPropertyOp35
 70
     1
102
RTVSPropertyOp36
 70
     1
102
RTVSPropertyOp37
 70
     0
102
RTVSPropertyOp38
 70
     0
102
RTVSPropertyOp39
 70
     0
102
RTVSPropertyOp40
 70
     0
102
RTVSPropertyOp41
 70
     0
102
RTVSPropertyOp42
 70
     0
102
RTVSPropertyOp43
 70
     0
102
RTVSPropertyOp44
 70
     0
102
RTVSPropertyOp45
 70
     1
102
RTVSPropertyOp46
 70
     0
102
RTVSPropertyOp47
 70
     0
102
RTVSPropertyOp48
 70
     0
102
RTVSPropertyOp49
 70
     1
102
RTVSPropertyOp50
 70
     0
102
RTVSPropertyOp51
 70
     0
102
RTVSPropertyOp52
 70
     0
102
RTVSPropertyOp53
 70
     0
102
RTVSPropertyOp54
 70
     0
102
RTVSPropertyOp55
 70
     1
102
RTVSPropertyOp56
 70
     0
102
RTVSPropertyOp57
 70
     0
102
RTVSPropertyOp58
 70
     0
102
RTVSPropertyOp59
 70
     0
102
RTVSPropertyOp60
 70
     0
102
RTVSPropertyOp61
 70
     0
102
RTVSPropertyOp62
 70
     0
  0
XRECORD
  5
CACC
102
{ACAD_REACTORS
330
CACB
102
}
330
CACB
100
AcDbXrecord
280
     1
102
RTVSPost2010Prop28
280
     0
102
RTVSPost2010PropOp28
 70
     1
102
RTVSPost2010Prop29
280
     1
102
RTVSPost2010PropOp29
 70
     1
102
RTVSPost2010Prop30
280
     1
102
RTVSPost2010PropOp30
 70
     1
102
RTVSPost2010Prop31
280
     0
102
RTVSPost2010PropOp31
 70
     1
102
RTVSPost2010Prop32
280
     0
102
RTVSPost2010PropOp32
 70
     1
102
RTVSPost2010Prop33
280
     0
102
RTVSPost2010PropOp33
 70
     1
102
RTVSPost2010Prop34
280
     0
102
RTVSPost2010PropOp34
 70
     1
102
RTVSPost2010Prop35
280
     0
102
RTVSPost2010PropOp35
 70
     1
102
RTVSPost2010Prop36
280
     0
102
RTVSPost2010PropOp36
 70
     1
102
RTVSPost2010Prop37
 90
       50
102
RTVSPost2010PropOp37
 70
     1
102
RTVSPost2010Prop38
140
0.0
102
RTVSPost2010PropOp38
 70
     1
102
RTVSPost2010Prop39
140
1.0
102
RTVSPost2010PropOp39
 70
     1
102
RTVSPost2010Prop40
 90
        0
102
RTVSPost2010PropOp40
 70
     1
102
RTVSPost2010Prop41ColorIndex
 90
       18
102
RTVSPost2010Prop41ColorRGB
 90
        0
102
RTVSPost2010PropOp41
 70
     1
102
RTVSPost2010Prop42
 90
       50
102
RTVSPost2010PropOp42
 70
     1
102
RTVSPost2010Prop43
 90
        3
102
RTVSPost2010PropOp43
 70
     1
102
RTVSPost2010Prop44ColorIndex
 90
        5
102
RTVSPost2010Prop44ColorRGB
 90
      255
102
RTVSPost2010PropOp44
 70
     1
102
RTVSPost2010Prop45
280
     0
102
RTVSPost2010PropOp45
 70
     1
102
RTVSPost2010Prop46
 90
       50
102
RTVSPost2010PropOp46
 70
     1
102
RTVSPost2010Prop47
 90
       50
102
RTVSPost2010PropOp47
 70
     1
102
RTVSPost2010Prop48
 90
       50
102
RTVSPost2010PropOp48
 70
     1
102
RTVSPost2010Prop49
280
     0
102
RTVSPost2010PropOp49
 70
     1
102
RTVSPost2010Prop50
 90
       50
102
RTVSPost2010PropOp50
 70
     1
102
RTVSPost2010Prop51ColorIndex
 90
      256
102
RTVSPost2010Prop51ColorRGB
 90
-16777216
102
RTVSPost2010PropOp51
 70
     0
102
RTVSPost2010Prop52
140
1.0
102
RTVSPost2010PropOp52
 70
     0
102
RTVSPost2010Prop53
 90
        2
102
RTVSPost2010PropOp53
 70
     1
102
RTVSPost2010Prop54
  1
strokes_ogs.tif
102
RTVSPost2010PropOp54
 70
     1
102
RTVSPost2010Prop55
280
     0
102
RTVSPost2010PropOp55
 70
     1
102
RTVSPost2010Prop56
140
1.0
102
RTVSPost2010PropOp56
 70
     1
102
RTVSPost2010Prop57
140
1.0
102
RTVSPost2010PropOp57
 70
     1
102
RTVSPropertyOp0
 70
     1
102
RTVSPropertyOp1
 70
     1
102
RTVSPropertyOp2
 70
     1
102
RTVSPropertyOp3
 70
     1
102
RTVSPropertyOp4
 70
     1
102
RTVSPropertyOp5
 70
     1
102
RTVSPropertyOp6
 70
     1
102
RTVSPropertyOp7
 70
     1
102
RTVSPropertyOp8
 70
     1
102
RTVSPropertyOp9
 70
     1
102
RTVSPropertyOp10
 70
     1
102
RTVSPropertyOp11
 70
     1
102
RTVSPropertyOp12
 70
     1
102
RTVSPropertyOp13
 70
     1
102
RTVSPropertyOp14
 70
     1
102
RTVSPropertyOp15
 70
     1
102
RTVSPropertyOp16
 70
     1
102
RTVSPropertyOp17
 70
     1
102
RTVSPropertyOp18
 70
     1
102
RTVSPropertyOp19
 70
     1
102
RTVSPropertyOp20
 70
     1
102
RTVSPropertyOp21
 70
     1
102
RTVSPropertyOp22
 70
     1
102
RTVSPropertyOp23
 70
     1
102
RTVSPropertyOp24
 70
     1
102
RTVSPropertyOp25
 70
     1
102
RTVSPropertyOp26
 70
     1
102
RTVSPropertyOp27
 70
     1
102
RTVSPropertyOp28
 70
     1
102
RTVSPropertyOp29
 70
     1
102
RTVSPropertyOp30
 70
     1
102
RTVSPropertyOp31
 70
     1
102
RTVSPropertyOp32
 70
     1
102
RTVSPropertyOp33
 70
     1
102
RTVSPropertyOp34
 70
     1
102
RTVSPropertyOp35
 70
     1
102
RTVSPropertyOp36
 70
     1
102
RTVSPropertyOp37
 70
     1
102
RTVSPropertyOp38
 70
     1
102
RTVSPropertyOp39
 70
     1
102
RTVSPropertyOp40
 70
     1
102
RTVSPropertyOp41
 70
     1
102
RTVSPropertyOp42
 70
     1
102
RTVSPropertyOp43
 70
     1
102
RTVSPropertyOp44
 70
     1
102
RTVSPropertyOp45
 70
     1
102
RTVSPropertyOp46
 70
     1
102
RTVSPropertyOp47
 70
     1
102
RTVSPropertyOp48
 70
     1
102
RTVSPropertyOp49
 70
     1
102
RTVSPropertyOp50
 70
     1
102
RTVSPropertyOp51
 70
     0
102
RTVSPropertyOp52
 70
     0
102
RTVSPropertyOp53
 70
     1
102
RTVSPropertyOp54
 70
     1
102
RTVSPropertyOp55
 70
     1
102
RTVSPropertyOp56
 70
     1
102
RTVSPropertyOp57
 70
     1
102
RTVSPropertyOp58
 70
     1
102
RTVSPropertyOp59
 70
     1
102
RTVSPropertyOp60
 70
     1
102
RTVSPropertyOp61
 70
     1
102
RTVSPropertyOp62
 70
     1
  0
XRECORD
  5
CAB0
102
{ACAD_REACTORS
330
CAAF
102
}
330
CAAF
100
AcDbXrecord
280
     1
102
RTVSPost2010Prop28
280
     0
102
RTVSPost2010PropOp28
 70
     1
102
RTVSPost2010Prop29
280
     1
102
RTVSPost2010PropOp29
 70
     1
102
RTVSPost2010Prop30
280
     1
102
RTVSPost2010PropOp30
 70
     1
102
RTVSPost2010Prop31
280
     0
102
RTVSPost2010PropOp31
 70
     1
102
RTVSPost2010Prop32
280
     0
102
RTVSPost2010PropOp32
 70
     1
102
RTVSPost2010Prop33
280
     0
102
RTVSPost2010PropOp33
 70
     1
102
RTVSPost2010Prop34
280
     0
102
RTVSPost2010PropOp34
 70
     1
102
RTVSPost2010Prop35
280
     0
102
RTVSPost2010PropOp35
 70
     1
102
RTVSPost2010Prop36
280
     0
102
RTVSPost2010PropOp36
 70
     1
102
RTVSPost2010Prop37
 90
       50
102
RTVSPost2010PropOp37
 70
     1
102
RTVSPost2010Prop38
140
0.0
102
RTVSPost2010PropOp38
 70
     1
102
RTVSPost2010Prop39
140
1.0
102
RTVSPost2010PropOp39
 70
     1
102
RTVSPost2010Prop40
 90
        0
102
RTVSPost2010PropOp40
 70
     1
102
RTVSPost2010Prop41ColorIndex
 90
       18
102
RTVSPost2010Prop41ColorRGB
 90
        0
102
RTVSPost2010PropOp41
 70
     1
102
RTVSPost2010Prop42
 90
       50
102
RTVSPost2010PropOp42
 70
     1
102
RTVSPost2010Prop43
 90
        3
102
RTVSPost2010PropOp43
 70
     1
102
RTVSPost2010Prop44ColorIndex
 90
        5
102
RTVSPost2010Prop44ColorRGB
 90
      255
102
RTVSPost2010PropOp44
 70
     1
102
RTVSPost2010Prop45
280
     0
102
RTVSPost2010PropOp45
 70
     1
102
RTVSPost2010Prop46
 90
       50
102
RTVSPost2010PropOp46
 70
     1
102
RTVSPost2010Prop47
 90
       50
102
RTVSPost2010PropOp47
 70
     1
102
RTVSPost2010Prop48
 90
       50
102
RTVSPost2010PropOp48
 70
     1
102
RTVSPost2010Prop49
280
     0
102
RTVSPost2010PropOp49
 70
     1
102
RTVSPost2010Prop50
 90
       50
102
RTVSPost2010PropOp50
 70
     1
102
RTVSPost2010Prop51ColorIndex
 90
      256
102
RTVSPost2010Prop51ColorRGB
 90
-16777216
102
RTVSPost2010PropOp51
 70
     0
102
RTVSPost2010Prop52
140
1.0
102
RTVSPost2010PropOp52
 70
     0
102
RTVSPost2010Prop53
 90
        2
102
RTVSPost2010PropOp53
 70
     1
102
RTVSPost2010Prop54
  1
strokes_ogs.tif
102
RTVSPost2010PropOp54
 70
     1
102
RTVSPost2010Prop55
280
     0
102
RTVSPost2010PropOp55
 70
     1
102
RTVSPost2010Prop56
140
1.0
102
RTVSPost2010PropOp56
 70
     1
102
RTVSPost2010Prop57
140
1.0
102
RTVSPost2010PropOp57
 70
     1
102
RTVSPropertyOp0
 70
     1
102
RTVSPropertyOp1
 70
     1
102
RTVSPropertyOp2
 70
     1
102
RTVSPropertyOp3
 70
     1
102
RTVSPropertyOp4
 70
     1
102
RTVSPropertyOp5
 70
     1
102
RTVSPropertyOp6
 70
     1
102
RTVSPropertyOp7
 70
     1
102
RTVSPropertyOp8
 70
     1
102
RTVSPropertyOp9
 70
     1
102
RTVSPropertyOp10
 70
     1
102
RTVSPropertyOp11
 70
     1
102
RTVSPropertyOp12
 70
     1
102
RTVSPropertyOp13
 70
     1
102
RTVSPropertyOp14
 70
     1
102
RTVSPropertyOp15
 70
     1
102
RTVSPropertyOp16
 70
     1
102
RTVSPropertyOp17
 70
     1
102
RTVSPropertyOp18
 70
     1
102
RTVSPropertyOp19
 70
     1
102
RTVSPropertyOp20
 70
     1
102
RTVSPropertyOp21
 70
     1
102
RTVSPropertyOp22
 70
     1
102
RTVSPropertyOp23
 70
     1
102
RTVSPropertyOp24
 70
     1
102
RTVSPropertyOp25
 70
     1
102
RTVSPropertyOp26
 70
     1
102
RTVSPropertyOp27
 70
     1
102
RTVSPropertyOp28
 70
     1
102
RTVSPropertyOp29
 70
     1
102
RTVSPropertyOp30
 70
     1
102
RTVSPropertyOp31
 70
     1
102
RTVSPropertyOp32
 70
     1
102
RTVSPropertyOp33
 70
     1
102
RTVSPropertyOp34
 70
     1
102
RTVSPropertyOp35
 70
     1
102
RTVSPropertyOp36
 70
     1
102
RTVSPropertyOp37
 70
     1
102
RTVSPropertyOp38
 70
     1
102
RTVSPropertyOp39
 70
     1
102
RTVSPropertyOp40
 70
     1
102
RTVSPropertyOp41
 70
     1
102
RTVSPropertyOp42
 70
     1
102
RTVSPropertyOp43
 70
     1
102
RTVSPropertyOp44
 70
     1
102
RTVSPropertyOp45
 70
     1
102
RTVSPropertyOp46
 70
     1
102
RTVSPropertyOp47
 70
     1
102
RTVSPropertyOp48
 70
     1
102
RTVSPropertyOp49
 70
     1
102
RTVSPropertyOp50
 70
     1
102
RTVSPropertyOp51
 70
     0
102
RTVSPropertyOp52
 70
     0
102
RTVSPropertyOp53
 70
     1
102
RTVSPropertyOp54
 70
     1
102
RTVSPropertyOp55
 70
     1
102
RTVSPropertyOp56
 70
     1
102
RTVSPropertyOp57
 70
     1
102
RTVSPropertyOp58
 70
     1
102
RTVSPropertyOp59
 70
     1
102
RTVSPropertyOp60
 70
     1
102
RTVSPropertyOp61
 70
     1
102
RTVSPropertyOp62
 70
     1
  0
XRECORD
  5
CAB2
102
{ACAD_REACTORS
330
CAB1
102
}
330
CAB1
100
AcDbXrecord
280
     1
102
RTVSPost2010Prop28
280
     0
102
RTVSPost2010PropOp28
 70
     1
102
RTVSPost2010Prop29
280
     1
102
RTVSPost2010PropOp29
 70
     1
102
RTVSPost2010Prop30
280
     1
102
RTVSPost2010PropOp30
 70
     1
102
RTVSPost2010Prop31
280
     0
102
RTVSPost2010PropOp31
 70
     1
102
RTVSPost2010Prop32
280
     0
102
RTVSPost2010PropOp32
 70
     1
102
RTVSPost2010Prop33
280
     0
102
RTVSPost2010PropOp33
 70
     1
102
RTVSPost2010Prop34
280
     0
102
RTVSPost2010PropOp34
 70
     1
102
RTVSPost2010Prop35
280
     0
102
RTVSPost2010PropOp35
 70
     1
102
RTVSPost2010Prop36
280
     0
102
RTVSPost2010PropOp36
 70
     1
102
RTVSPost2010Prop37
 90
       50
102
RTVSPost2010PropOp37
 70
     1
102
RTVSPost2010Prop38
140
0.0
102
RTVSPost2010PropOp38
 70
     1
102
RTVSPost2010Prop39
140
1.0
102
RTVSPost2010PropOp39
 70
     1
102
RTVSPost2010Prop40
 90
        0
102
RTVSPost2010PropOp40
 70
     1
102
RTVSPost2010Prop41ColorIndex
 90
       18
102
RTVSPost2010Prop41ColorRGB
 90
        0
102
RTVSPost2010PropOp41
 70
     1
102
RTVSPost2010Prop42
 90
       50
102
RTVSPost2010PropOp42
 70
     1
102
RTVSPost2010Prop43
 90
        3
102
RTVSPost2010PropOp43
 70
     1
102
RTVSPost2010Prop44ColorIndex
 90
        5
102
RTVSPost2010Prop44ColorRGB
 90
      255
102
RTVSPost2010PropOp44
 70
     1
102
RTVSPost2010Prop45
280
     0
102
RTVSPost2010PropOp45
 70
     1
102
RTVSPost2010Prop46
 90
       50
102
RTVSPost2010PropOp46
 70
     1
102
RTVSPost2010Prop47
 90
       50
102
RTVSPost2010PropOp47
 70
     1
102
RTVSPost2010Prop48
 90
       50
102
RTVSPost2010PropOp48
 70
     1
102
RTVSPost2010Prop49
280
     0
102
RTVSPost2010PropOp49
 70
     1
102
RTVSPost2010Prop50
 90
       50
102
RTVSPost2010PropOp50
 70
     1
102
RTVSPost2010Prop51ColorIndex
 90
      256
102
RTVSPost2010Prop51ColorRGB
 90
-16777216
102
RTVSPost2010PropOp51
 70
     0
102
RTVSPost2010Prop52
140
1.0
102
RTVSPost2010PropOp52
 70
     0
102
RTVSPost2010Prop53
 90
        2
102
RTVSPost2010PropOp53
 70
     1
102
RTVSPost2010Prop54
  1
strokes_ogs.tif
102
RTVSPost2010PropOp54
 70
     1
102
RTVSPost2010Prop55
280
     0
102
RTVSPost2010PropOp55
 70
     1
102
RTVSPost2010Prop56
140
1.0
102
RTVSPost2010PropOp56
 70
     1
102
RTVSPost2010Prop57
140
1.0
102
RTVSPost2010PropOp57
 70
     1
102
RTVSPropertyOp0
 70
     1
102
RTVSPropertyOp1
 70
     1
102
RTVSPropertyOp2
 70
     1
102
RTVSPropertyOp3
 70
     1
102
RTVSPropertyOp4
 70
     1
102
RTVSPropertyOp5
 70
     1
102
RTVSPropertyOp6
 70
     1
102
RTVSPropertyOp7
 70
     1
102
RTVSPropertyOp8
 70
     1
102
RTVSPropertyOp9
 70
     1
102
RTVSPropertyOp10
 70
     1
102
RTVSPropertyOp11
 70
     1
102
RTVSPropertyOp12
 70
     1
102
RTVSPropertyOp13
 70
     1
102
RTVSPropertyOp14
 70
     1
102
RTVSPropertyOp15
 70
     1
102
RTVSPropertyOp16
 70
     1
102
RTVSPropertyOp17
 70
     1
102
RTVSPropertyOp18
 70
     1
102
RTVSPropertyOp19
 70
     1
102
RTVSPropertyOp20
 70
     1
102
RTVSPropertyOp21
 70
     1
102
RTVSPropertyOp22
 70
     1
102
RTVSPropertyOp23
 70
     1
102
RTVSPropertyOp24
 70
     1
102
RTVSPropertyOp25
 70
     1
102
RTVSPropertyOp26
 70
     1
102
RTVSPropertyOp27
 70
     1
102
RTVSPropertyOp28
 70
     1
102
RTVSPropertyOp29
 70
     1
102
RTVSPropertyOp30
 70
     1
102
RTVSPropertyOp31
 70
     1
102
RTVSPropertyOp32
 70
     1
102
RTVSPropertyOp33
 70
     1
102
RTVSPropertyOp34
 70
     1
102
RTVSPropertyOp35
 70
     1
102
RTVSPropertyOp36
 70
     1
102
RTVSPropertyOp37
 70
     1
102
RTVSPropertyOp38
 70
     1
102
RTVSPropertyOp39
 70
     1
102
RTVSPropertyOp40
 70
     1
102
RTVSPropertyOp41
 70
     1
102
RTVSPropertyOp42
 70
     1
102
RTVSPropertyOp43
 70
     1
102
RTVSPropertyOp44
 70
     1
102
RTVSPropertyOp45
 70
     1
102
RTVSPropertyOp46
 70
     1
102
RTVSPropertyOp47
 70
     1
102
RTVSPropertyOp48
 70
     1
102
RTVSPropertyOp49
 70
     1
102
RTVSPropertyOp50
 70
     1
102
RTVSPropertyOp51
 70
     0
102
RTVSPropertyOp52
 70
     0
102
RTVSPropertyOp53
 70
     1
102
RTVSPropertyOp54
 70
     1
102
RTVSPropertyOp55
 70
     1
102
RTVSPropertyOp56
 70
     1
102
RTVSPropertyOp57
 70
     1
102
RTVSPropertyOp58
 70
     1
102
RTVSPropertyOp59
 70
     1
102
RTVSPropertyOp60
 70
     1
102
RTVSPropertyOp61
 70
     1
102
RTVSPropertyOp62
 70
     1
  0
XRECORD
  5
CAB4
102
{ACAD_REACTORS
330
CAB3
102
}
330
CAB3
100
AcDbXrecord
280
     1
102
RTVSPost2010Prop28
280
     0
102
RTVSPost2010PropOp28
 70
     1
102
RTVSPost2010Prop29
280
     1
102
RTVSPost2010PropOp29
 70
     1
102
RTVSPost2010Prop30
280
     1
102
RTVSPost2010PropOp30
 70
     1
102
RTVSPost2010Prop31
280
     0
102
RTVSPost2010PropOp31
 70
     1
102
RTVSPost2010Prop32
280
     0
102
RTVSPost2010PropOp32
 70
     1
102
RTVSPost2010Prop33
280
     0
102
RTVSPost2010PropOp33
 70
     1
102
RTVSPost2010Prop34
280
     0
102
RTVSPost2010PropOp34
 70
     1
102
RTVSPost2010Prop35
280
     0
102
RTVSPost2010PropOp35
 70
     1
102
RTVSPost2010Prop36
280
     0
102
RTVSPost2010PropOp36
 70
     1
102
RTVSPost2010Prop37
 90
       50
102
RTVSPost2010PropOp37
 70
     1
102
RTVSPost2010Prop38
140
0.0
102
RTVSPost2010PropOp38
 70
     1
102
RTVSPost2010Prop39
140
1.0
102
RTVSPost2010PropOp39
 70
     1
102
RTVSPost2010Prop40
 90
        0
102
RTVSPost2010PropOp40
 70
     1
102
RTVSPost2010Prop41ColorIndex
 90
       18
102
RTVSPost2010Prop41ColorRGB
 90
        0
102
RTVSPost2010PropOp41
 70
     1
102
RTVSPost2010Prop42
 90
       50
102
RTVSPost2010PropOp42
 70
     1
102
RTVSPost2010Prop43
 90
        3
102
RTVSPost2010PropOp43
 70
     1
102
RTVSPost2010Prop44ColorIndex
 90
        5
102
RTVSPost2010Prop44ColorRGB
 90
      255
102
RTVSPost2010PropOp44
 70
     1
102
RTVSPost2010Prop45
280
     0
102
RTVSPost2010PropOp45
 70
     1
102
RTVSPost2010Prop46
 90
       50
102
RTVSPost2010PropOp46
 70
     1
102
RTVSPost2010Prop47
 90
       50
102
RTVSPost2010PropOp47
 70
     1
102
RTVSPost2010Prop48
 90
       50
102
RTVSPost2010PropOp48
 70
     1
102
RTVSPost2010Prop49
280
     0
102
RTVSPost2010PropOp49
 70
     1
102
RTVSPost2010Prop50
 90
       50
102
RTVSPost2010PropOp50
 70
     1
102
RTVSPost2010Prop51ColorIndex
 90
      256
102
RTVSPost2010Prop51ColorRGB
 90
-16777216
102
RTVSPost2010PropOp51
 70
     0
102
RTVSPost2010Prop52
140
1.0
102
RTVSPost2010PropOp52
 70
     0
102
RTVSPost2010Prop53
 90
        2
102
RTVSPost2010PropOp53
 70
     1
102
RTVSPost2010Prop54
  1
strokes_ogs.tif
102
RTVSPost2010PropOp54
 70
     1
102
RTVSPost2010Prop55
280
     0
102
RTVSPost2010PropOp55
 70
     1
102
RTVSPost2010Prop56
140
1.0
102
RTVSPost2010PropOp56
 70
     1
102
RTVSPost2010Prop57
140
1.0
102
RTVSPost2010PropOp57
 70
     1
102
RTVSPropertyOp0
 70
     1
102
RTVSPropertyOp1
 70
     1
102
RTVSPropertyOp2
 70
     1
102
RTVSPropertyOp3
 70
     1
102
RTVSPropertyOp4
 70
     1
102
RTVSPropertyOp5
 70
     1
102
RTVSPropertyOp6
 70
     1
102
RTVSPropertyOp7
 70
     1
102
RTVSPropertyOp8
 70
     1
102
RTVSPropertyOp9
 70
     1
102
RTVSPropertyOp10
 70
     1
102
RTVSPropertyOp11
 70
     1
102
RTVSPropertyOp12
 70
     1
102
RTVSPropertyOp13
 70
     1
102
RTVSPropertyOp14
 70
     1
102
RTVSPropertyOp15
 70
     1
102
RTVSPropertyOp16
 70
     1
102
RTVSPropertyOp17
 70
     1
102
RTVSPropertyOp18
 70
     1
102
RTVSPropertyOp19
 70
     1
102
RTVSPropertyOp20
 70
     1
102
RTVSPropertyOp21
 70
     1
102
RTVSPropertyOp22
 70
     1
102
RTVSPropertyOp23
 70
     1
102
RTVSPropertyOp24
 70
     1
102
RTVSPropertyOp25
 70
     1
102
RTVSPropertyOp26
 70
     1
102
RTVSPropertyOp27
 70
     1
102
RTVSPropertyOp28
 70
     1
102
RTVSPropertyOp29
 70
     1
102
RTVSPropertyOp30
 70
     1
102
RTVSPropertyOp31
 70
     1
102
RTVSPropertyOp32
 70
     1
102
RTVSPropertyOp33
 70
     1
102
RTVSPropertyOp34
 70
     1
102
RTVSPropertyOp35
 70
     1
102
RTVSPropertyOp36
 70
     1
102
RTVSPropertyOp37
 70
     1
102
RTVSPropertyOp38
 70
     1
102
RTVSPropertyOp39
 70
     1
102
RTVSPropertyOp40
 70
     1
102
RTVSPropertyOp41
 70
     1
102
RTVSPropertyOp42
 70
     1
102
RTVSPropertyOp43
 70
     1
102
RTVSPropertyOp44
 70
     1
102
RTVSPropertyOp45
 70
     1
102
RTVSPropertyOp46
 70
     1
102
RTVSPropertyOp47
 70
     1
102
RTVSPropertyOp48
 70
     1
102
RTVSPropertyOp49
 70
     1
102
RTVSPropertyOp50
 70
     1
102
RTVSPropertyOp51
 70
     0
102
RTVSPropertyOp52
 70
     0
102
RTVSPropertyOp53
 70
     1
102
RTVSPropertyOp54
 70
     1
102
RTVSPropertyOp55
 70
     1
102
RTVSPropertyOp56
 70
     1
102
RTVSPropertyOp57
 70
     1
102
RTVSPropertyOp58
 70
     1
102
RTVSPropertyOp59
 70
     1
102
RTVSPropertyOp60
 70
     1
102
RTVSPropertyOp61
 70
     1
102
RTVSPropertyOp62
 70
     1
  0
XRECORD
  5
CAB6
102
{ACAD_REACTORS
330
CAB5
102
}
330
CAB5
100
AcDbXrecord
280
     1
102
RTVSPost2010Prop28
280
     0
102
RTVSPost2010PropOp28
 70
     1
102
RTVSPost2010Prop29
280
     1
102
RTVSPost2010PropOp29
 70
     1
102
RTVSPost2010Prop30
280
     1
102
RTVSPost2010PropOp30
 70
     1
102
RTVSPost2010Prop31
280
     0
102
RTVSPost2010PropOp31
 70
     1
102
RTVSPost2010Prop32
280
     0
102
RTVSPost2010PropOp32
 70
     1
102
RTVSPost2010Prop33
280
     0
102
RTVSPost2010PropOp33
 70
     1
102
RTVSPost2010Prop34
280
     0
102
RTVSPost2010PropOp34
 70
     1
102
RTVSPost2010Prop35
280
     0
102
RTVSPost2010PropOp35
 70
     1
102
RTVSPost2010Prop36
280
     0
102
RTVSPost2010PropOp36
 70
     1
102
RTVSPost2010Prop37
 90
       50
102
RTVSPost2010PropOp37
 70
     1
102
RTVSPost2010Prop38
140
0.0
102
RTVSPost2010PropOp38
 70
     1
102
RTVSPost2010Prop39
140
1.0
102
RTVSPost2010PropOp39
 70
     1
102
RTVSPost2010Prop40
 90
        0
102
RTVSPost2010PropOp40
 70
     1
102
RTVSPost2010Prop41ColorIndex
 90
       18
102
RTVSPost2010Prop41ColorRGB
 90
        0
102
RTVSPost2010PropOp41
 70
     1
102
RTVSPost2010Prop42
 90
       50
102
RTVSPost2010PropOp42
 70
     1
102
RTVSPost2010Prop43
 90
        3
102
RTVSPost2010PropOp43
 70
     1
102
RTVSPost2010Prop44ColorIndex
 90
        5
102
RTVSPost2010Prop44ColorRGB
 90
      255
102
RTVSPost2010PropOp44
 70
     1
102
RTVSPost2010Prop45
280
     0
102
RTVSPost2010PropOp45
 70
     1
102
RTVSPost2010Prop46
 90
       50
102
RTVSPost2010PropOp46
 70
     1
102
RTVSPost2010Prop47
 90
       50
102
RTVSPost2010PropOp47
 70
     1
102
RTVSPost2010Prop48
 90
       50
102
RTVSPost2010PropOp48
 70
     1
102
RTVSPost2010Prop49
280
     0
102
RTVSPost2010PropOp49
 70
     1
102
RTVSPost2010Prop50
 90
       50
102
RTVSPost2010PropOp50
 70
     1
102
RTVSPost2010Prop51ColorIndex
 90
      256
102
RTVSPost2010Prop51ColorRGB
 90
-16777216
102
RTVSPost2010PropOp51
 70
     0
102
RTVSPost2010Prop52
140
1.0
102
RTVSPost2010PropOp52
 70
     0
102
RTVSPost2010Prop53
 90
        2
102
RTVSPost2010PropOp53
 70
     1
102
RTVSPost2010Prop54
  1
strokes_ogs.tif
102
RTVSPost2010PropOp54
 70
     1
102
RTVSPost2010Prop55
280
     0
102
RTVSPost2010PropOp55
 70
     1
102
RTVSPost2010Prop56
140
1.0
102
RTVSPost2010PropOp56
 70
     1
102
RTVSPost2010Prop57
140
1.0
102
RTVSPost2010PropOp57
 70
     1
102
RTVSPropertyOp0
 70
     1
102
RTVSPropertyOp1
 70
     1
102
RTVSPropertyOp2
 70
     1
102
RTVSPropertyOp3
 70
     1
102
RTVSPropertyOp4
 70
     1
102
RTVSPropertyOp5
 70
     1
102
RTVSPropertyOp6
 70
     1
102
RTVSPropertyOp7
 70
     1
102
RTVSPropertyOp8
 70
     1
102
RTVSPropertyOp9
 70
     1
102
RTVSPropertyOp10
 70
     1
102
RTVSPropertyOp11
 70
     1
102
RTVSPropertyOp12
 70
     1
102
RTVSPropertyOp13
 70
     1
102
RTVSPropertyOp14
 70
     1
102
RTVSPropertyOp15
 70
     1
102
RTVSPropertyOp16
 70
     1
102
RTVSPropertyOp17
 70
     1
102
RTVSPropertyOp18
 70
     1
102
RTVSPropertyOp19
 70
     1
102
RTVSPropertyOp20
 70
     1
102
RTVSPropertyOp21
 70
     1
102
RTVSPropertyOp22
 70
     1
102
RTVSPropertyOp23
 70
     1
102
RTVSPropertyOp24
 70
     1
102
RTVSPropertyOp25
 70
     1
102
RTVSPropertyOp26
 70
     1
102
RTVSPropertyOp27
 70
     1
102
RTVSPropertyOp28
 70
     1
102
RTVSPropertyOp29
 70
     1
102
RTVSPropertyOp30
 70
     1
102
RTVSPropertyOp31
 70
     1
102
RTVSPropertyOp32
 70
     1
102
RTVSPropertyOp33
 70
     1
102
RTVSPropertyOp34
 70
     1
102
RTVSPropertyOp35
 70
     1
102
RTVSPropertyOp36
 70
     1
102
RTVSPropertyOp37
 70
     1
102
RTVSPropertyOp38
 70
     1
102
RTVSPropertyOp39
 70
     1
102
RTVSPropertyOp40
 70
     1
102
RTVSPropertyOp41
 70
     1
102
RTVSPropertyOp42
 70
     1
102
RTVSPropertyOp43
 70
     1
102
RTVSPropertyOp44
 70
     1
102
RTVSPropertyOp45
 70
     1
102
RTVSPropertyOp46
 70
     1
102
RTVSPropertyOp47
 70
     1
102
RTVSPropertyOp48
 70
     1
102
RTVSPropertyOp49
 70
     1
102
RTVSPropertyOp50
 70
     1
102
RTVSPropertyOp51
 70
     0
102
RTVSPropertyOp52
 70
     0
102
RTVSPropertyOp53
 70
     1
102
RTVSPropertyOp54
 70
     1
102
RTVSPropertyOp55
 70
     1
102
RTVSPropertyOp56
 70
     1
102
RTVSPropertyOp57
 70
     1
102
RTVSPropertyOp58
 70
     1
102
RTVSPropertyOp59
 70
     1
102
RTVSPropertyOp60
 70
     1
102
RTVSPropertyOp61
 70
     1
102
RTVSPropertyOp62
 70
     1
  0
XRECORD
  5
CABE
102
{ACAD_REACTORS
330
CABD
102
}
330
CABD
100
AcDbXrecord
280
     1
102
RTVSPost2010Prop28
280
     0
102
RTVSPost2010PropOp28
 70
     1
102
RTVSPost2010Prop29
280
     1
102
RTVSPost2010PropOp29
 70
     1
102
RTVSPost2010Prop30
280
     1
102
RTVSPost2010PropOp30
 70
     1
102
RTVSPost2010Prop31
280
     0
102
RTVSPost2010PropOp31
 70
     1
102
RTVSPost2010Prop32
280
     0
102
RTVSPost2010PropOp32
 70
     1
102
RTVSPost2010Prop33
280
     0
102
RTVSPost2010PropOp33
 70
     1
102
RTVSPost2010Prop34
280
     0
102
RTVSPost2010PropOp34
 70
     1
102
RTVSPost2010Prop35
280
     0
102
RTVSPost2010PropOp35
 70
     1
102
RTVSPost2010Prop36
280
     0
102
RTVSPost2010PropOp36
 70
     1
102
RTVSPost2010Prop37
 90
       50
102
RTVSPost2010PropOp37
 70
     1
102
RTVSPost2010Prop38
140
0.0
102
RTVSPost2010PropOp38
 70
     1
102
RTVSPost2010Prop39
140
1.0
102
RTVSPost2010PropOp39
 70
     1
102
RTVSPost2010Prop40
 90
        0
102
RTVSPost2010PropOp40
 70
     1
102
RTVSPost2010Prop41ColorIndex
 90
       18
102
RTVSPost2010Prop41ColorRGB
 90
        0
102
RTVSPost2010PropOp41
 70
     1
102
RTVSPost2010Prop42
 90
       50
102
RTVSPost2010PropOp42
 70
     1
102
RTVSPost2010Prop43
 90
        3
102
RTVSPost2010PropOp43
 70
     1
102
RTVSPost2010Prop44ColorIndex
 90
        5
102
RTVSPost2010Prop44ColorRGB
 90
      255
102
RTVSPost2010PropOp44
 70
     1
102
RTVSPost2010Prop45
280
     0
102
RTVSPost2010PropOp45
 70
     1
102
RTVSPost2010Prop46
 90
       50
102
RTVSPost2010PropOp46
 70
     1
102
RTVSPost2010Prop47
 90
       50
102
RTVSPost2010PropOp47
 70
     1
102
RTVSPost2010Prop48
 90
       50
102
RTVSPost2010PropOp48
 70
     1
102
RTVSPost2010Prop49
280
     0
102
RTVSPost2010PropOp49
 70
     1
102
RTVSPost2010Prop50
 90
       50
102
RTVSPost2010PropOp50
 70
     1
102
RTVSPost2010Prop51ColorIndex
 90
      256
102
RTVSPost2010Prop51ColorRGB
 90
-16777216
102
RTVSPost2010PropOp51
 70
     0
102
RTVSPost2010Prop52
140
1.0
102
RTVSPost2010PropOp52
 70
     0
102
RTVSPost2010Prop53
 90
        2
102
RTVSPost2010PropOp53
 70
     1
102
RTVSPost2010Prop54
  1
strokes_ogs.tif
102
RTVSPost2010PropOp54
 70
     1
102
RTVSPost2010Prop55
280
     0
102
RTVSPost2010PropOp55
 70
     1
102
RTVSPost2010Prop56
140
1.0
102
RTVSPost2010PropOp56
 70
     1
102
RTVSPost2010Prop57
140
1.0
102
RTVSPost2010PropOp57
 70
     1
102
RTVSPropertyOp0
 70
     1
102
RTVSPropertyOp1
 70
     1
102
RTVSPropertyOp2
 70
     1
102
RTVSPropertyOp3
 70
     1
102
RTVSPropertyOp4
 70
     1
102
RTVSPropertyOp5
 70
     1
102
RTVSPropertyOp6
 70
     1
102
RTVSPropertyOp7
 70
     1
102
RTVSPropertyOp8
 70
     1
102
RTVSPropertyOp9
 70
     1
102
RTVSPropertyOp10
 70
     1
102
RTVSPropertyOp11
 70
     1
102
RTVSPropertyOp12
 70
     1
102
RTVSPropertyOp13
 70
     1
102
RTVSPropertyOp14
 70
     1
102
RTVSPropertyOp15
 70
     1
102
RTVSPropertyOp16
 70
     1
102
RTVSPropertyOp17
 70
     1
102
RTVSPropertyOp18
 70
     1
102
RTVSPropertyOp19
 70
     1
102
RTVSPropertyOp20
 70
     1
102
RTVSPropertyOp21
 70
     1
102
RTVSPropertyOp22
 70
     1
102
RTVSPropertyOp23
 70
     1
102
RTVSPropertyOp24
 70
     1
102
RTVSPropertyOp25
 70
     1
102
RTVSPropertyOp26
 70
     1
102
RTVSPropertyOp27
 70
     1
102
RTVSPropertyOp28
 70
     1
102
RTVSPropertyOp29
 70
     1
102
RTVSPropertyOp30
 70
     1
102
RTVSPropertyOp31
 70
     1
102
RTVSPropertyOp32
 70
     1
102
RTVSPropertyOp33
 70
     1
102
RTVSPropertyOp34
 70
     1
102
RTVSPropertyOp35
 70
     1
102
RTVSPropertyOp36
 70
     1
102
RTVSPropertyOp37
 70
     1
102
RTVSPropertyOp38
 70
     1
102
RTVSPropertyOp39
 70
     1
102
RTVSPropertyOp40
 70
     1
102
RTVSPropertyOp41
 70
     1
102
RTVSPropertyOp42
 70
     1
102
RTVSPropertyOp43
 70
     1
102
RTVSPropertyOp44
 70
     1
102
RTVSPropertyOp45
 70
     1
102
RTVSPropertyOp46
 70
     1
102
RTVSPropertyOp47
 70
     1
102
RTVSPropertyOp48
 70
     1
102
RTVSPropertyOp49
 70
     1
102
RTVSPropertyOp50
 70
     1
102
RTVSPropertyOp51
 70
     0
102
RTVSPropertyOp52
 70
     0
102
RTVSPropertyOp53
 70
     1
102
RTVSPropertyOp54
 70
     1
102
RTVSPropertyOp55
 70
     1
102
RTVSPropertyOp56
 70
     1
102
RTVSPropertyOp57
 70
     1
102
RTVSPropertyOp58
 70
     1
102
RTVSPropertyOp59
 70
     1
102
RTVSPropertyOp60
 70
     1
102
RTVSPropertyOp61
 70
     1
102
RTVSPropertyOp62
 70
     1
  0
XRECORD
  5
CADA
102
{ACAD_REACTORS
330
CAD9
102
}
330
CAD9
100
AcDbXrecord
280
     1
102
RTVSPost2010Prop28
280
     0
102
RTVSPost2010PropOp28
 70
     1
102
RTVSPost2010Prop29
280
     1
102
RTVSPost2010PropOp29
 70
     1
102
RTVSPost2010Prop30
280
     1
102
RTVSPost2010PropOp30
 70
     1
102
RTVSPost2010Prop31
280
     0
102
RTVSPost2010PropOp31
 70
     1
102
RTVSPost2010Prop32
280
     0
102
RTVSPost2010PropOp32
 70
     1
102
RTVSPost2010Prop33
280
     0
102
RTVSPost2010PropOp33
 70
     1
102
RTVSPost2010Prop34
280
     0
102
RTVSPost2010PropOp34
 70
     1
102
RTVSPost2010Prop35
280
     0
102
RTVSPost2010PropOp35
 70
     1
102
RTVSPost2010Prop36
280
     0
102
RTVSPost2010PropOp36
 70
     1
102
RTVSPost2010Prop37
 90
       50
102
RTVSPost2010PropOp37
 70
     0
102
RTVSPost2010Prop38
140
0.0
102
RTVSPost2010PropOp38
 70
     0
102
RTVSPost2010Prop39
140
1.0
102
RTVSPost2010PropOp39
 70
     0
102
RTVSPost2010Prop40
 90
        0
102
RTVSPost2010PropOp40
 70
     0
102
RTVSPost2010Prop41ColorIndex
 90
       18
102
RTVSPost2010Prop41ColorRGB
 90
        0
102
RTVSPost2010PropOp41
 70
     0
102
RTVSPost2010Prop42
 90
       50
102
RTVSPost2010PropOp42
 70
     0
102
RTVSPost2010Prop43
 90
        3
102
RTVSPost2010PropOp43
 70
     0
102
RTVSPost2010Prop44ColorIndex
 90
        5
102
RTVSPost2010Prop44ColorRGB
 90
      255
102
RTVSPost2010PropOp44
 70
     0
102
RTVSPost2010Prop45
280
     0
102
RTVSPost2010PropOp45
 70
     1
102
RTVSPost2010Prop46
 90
       50
102
RTVSPost2010PropOp46
 70
     0
102
RTVSPost2010Prop47
 90
       50
102
RTVSPost2010PropOp47
 70
     0
102
RTVSPost2010Prop48
 90
       50
102
RTVSPost2010PropOp48
 70
     0
102
RTVSPost2010Prop49
280
     0
102
RTVSPost2010PropOp49
 70
     1
102
RTVSPost2010Prop50
 90
       50
102
RTVSPost2010PropOp50
 70
     0
102
RTVSPost2010Prop51ColorIndex
 90
      256
102
RTVSPost2010Prop51ColorRGB
 90
-16777216
102
RTVSPost2010PropOp51
 70
     0
102
RTVSPost2010Prop52
140
1.0
102
RTVSPost2010PropOp52
 70
     0
102
RTVSPost2010Prop53
 90
        2
102
RTVSPost2010PropOp53
 70
     0
102
RTVSPost2010Prop54
  1
strokes_ogs.tif
102
RTVSPost2010PropOp54
 70
     0
102
RTVSPost2010Prop55
280
     0
102
RTVSPost2010PropOp55
 70
     1
102
RTVSPost2010Prop56
140
1.0
102
RTVSPost2010PropOp56
 70
     0
102
RTVSPost2010Prop57
140
1.0
102
RTVSPost2010PropOp57
 70
     0
102
RTVSPropertyOp0
 70
     0
102
RTVSPropertyOp1
 70
     0
102
RTVSPropertyOp2
 70
     0
102
RTVSPropertyOp3
 70
     0
102
RTVSPropertyOp4
 70
     0
102
RTVSPropertyOp5
 70
     0
102
RTVSPropertyOp6
 70
     0
102
RTVSPropertyOp7
 70
     0
102
RTVSPropertyOp8
 70
     0
102
RTVSPropertyOp9
 70
     0
102
RTVSPropertyOp10
 70
     0
102
RTVSPropertyOp11
 70
     0
102
RTVSPropertyOp12
 70
     0
102
RTVSPropertyOp13
 70
     0
102
RTVSPropertyOp14
 70
     2
102
RTVSPropertyOp15
 70
     0
102
RTVSPropertyOp16
 70
     0
102
RTVSPropertyOp17
 70
     0
102
RTVSPropertyOp18
 70
     0
102
RTVSPropertyOp19
 70
     0
102
RTVSPropertyOp20
 70
     0
102
RTVSPropertyOp21
 70
     0
102
RTVSPropertyOp22
 70
     0
102
RTVSPropertyOp23
 70
     0
102
RTVSPropertyOp24
 70
     0
102
RTVSPropertyOp25
 70
     0
102
RTVSPropertyOp26
 70
     0
102
RTVSPropertyOp27
 70
     0
102
RTVSPropertyOp28
 70
     1
102
RTVSPropertyOp29
 70
     1
102
RTVSPropertyOp30
 70
     1
102
RTVSPropertyOp31
 70
     1
102
RTVSPropertyOp32
 70
     1
102
RTVSPropertyOp33
 70
     1
102
RTVSPropertyOp34
 70
     1
102
RTVSPropertyOp35
 70
     1
102
RTVSPropertyOp36
 70
     1
102
RTVSPropertyOp37
 70
     0
102
RTVSPropertyOp38
 70
     0
102
RTVSPropertyOp39
 70
     0
102
RTVSPropertyOp40
 70
     0
102
RTVSPropertyOp41
 70
     0
102
RTVSPropertyOp42
 70
     0
102
RTVSPropertyOp43
 70
     0
102
RTVSPropertyOp44
 70
     0
102
RTVSPropertyOp45
 70
     1
102
RTVSPropertyOp46
 70
     0
102
RTVSPropertyOp47
 70
     0
102
RTVSPropertyOp48
 70
     0
102
RTVSPropertyOp49
 70
     1
102
RTVSPropertyOp50
 70
     0
102
RTVSPropertyOp51
 70
     0
102
RTVSPropertyOp52
 70
     0
102
RTVSPropertyOp53
 70
     0
102
RTVSPropertyOp54
 70
     0
102
RTVSPropertyOp55
 70
     1
102
RTVSPropertyOp56
 70
     0
102
RTVSPropertyOp57
 70
     0
102
RTVSPropertyOp58
 70
     0
102
RTVSPropertyOp59
 70
     0
102
RTVSPropertyOp60
 70
     0
102
RTVSPropertyOp61
 70
     0
102
RTVSPropertyOp62
 70
     0
  0
XRECORD
  5
CACA
102
{ACAD_REACTORS
330
CAC9
102
}
330
CAC9
100
AcDbXrecord
280
     1
102
RTVSPost2010Prop28
280
     0
102
RTVSPost2010PropOp28
 70
     1
102
RTVSPost2010Prop29
280
     1
102
RTVSPost2010PropOp29
 70
     1
102
RTVSPost2010Prop30
280
     1
102
RTVSPost2010PropOp30
 70
     1
102
RTVSPost2010Prop31
280
     0
102
RTVSPost2010PropOp31
 70
     1
102
RTVSPost2010Prop32
280
     0
102
RTVSPost2010PropOp32
 70
     1
102
RTVSPost2010Prop33
280
     0
102
RTVSPost2010PropOp33
 70
     1
102
RTVSPost2010Prop34
280
     0
102
RTVSPost2010PropOp34
 70
     1
102
RTVSPost2010Prop35
280
     0
102
RTVSPost2010PropOp35
 70
     1
102
RTVSPost2010Prop36
280
     0
102
RTVSPost2010PropOp36
 70
     1
102
RTVSPost2010Prop37
 90
       50
102
RTVSPost2010PropOp37
 70
     1
102
RTVSPost2010Prop38
140
0.0
102
RTVSPost2010PropOp38
 70
     1
102
RTVSPost2010Prop39
140
1.0
102
RTVSPost2010PropOp39
 70
     1
102
RTVSPost2010Prop40
 90
        0
102
RTVSPost2010PropOp40
 70
     1
102
RTVSPost2010Prop41ColorIndex
 90
       18
102
RTVSPost2010Prop41ColorRGB
 90
        0
102
RTVSPost2010PropOp41
 70
     1
102
RTVSPost2010Prop42
 90
       50
102
RTVSPost2010PropOp42
 70
     1
102
RTVSPost2010Prop43
 90
        3
102
RTVSPost2010PropOp43
 70
     1
102
RTVSPost2010Prop44ColorIndex
 90
        5
102
RTVSPost2010Prop44ColorRGB
 90
      255
102
RTVSPost2010PropOp44
 70
     1
102
RTVSPost2010Prop45
280
     0
102
RTVSPost2010PropOp45
 70
     1
102
RTVSPost2010Prop46
 90
       50
102
RTVSPost2010PropOp46
 70
     1
102
RTVSPost2010Prop47
 90
       50
102
RTVSPost2010PropOp47
 70
     1
102
RTVSPost2010Prop48
 90
       50
102
RTVSPost2010PropOp48
 70
     1
102
RTVSPost2010Prop49
280
     0
102
RTVSPost2010PropOp49
 70
     1
102
RTVSPost2010Prop50
 90
       50
102
RTVSPost2010PropOp50
 70
     1
102
RTVSPost2010Prop51ColorIndex
 90
      256
102
RTVSPost2010Prop51ColorRGB
 90
-16777216
102
RTVSPost2010PropOp51
 70
     0
102
RTVSPost2010Prop52
140
1.0
102
RTVSPost2010PropOp52
 70
     0
102
RTVSPost2010Prop53
 90
        2
102
RTVSPost2010PropOp53
 70
     1
102
RTVSPost2010Prop54
  1
strokes_ogs.tif
102
RTVSPost2010PropOp54
 70
     1
102
RTVSPost2010Prop55
280
     0
102
RTVSPost2010PropOp55
 70
     1
102
RTVSPost2010Prop56
140
1.0
102
RTVSPost2010PropOp56
 70
     1
102
RTVSPost2010Prop57
140
1.0
102
RTVSPost2010PropOp57
 70
     1
102
RTVSPropertyOp0
 70
     1
102
RTVSPropertyOp1
 70
     1
102
RTVSPropertyOp2
 70
     1
102
RTVSPropertyOp3
 70
     1
102
RTVSPropertyOp4
 70
     1
102
RTVSPropertyOp5
 70
     1
102
RTVSPropertyOp6
 70
     1
102
RTVSPropertyOp7
 70
     1
102
RTVSPropertyOp8
 70
     1
102
RTVSPropertyOp9
 70
     1
102
RTVSPropertyOp10
 70
     1
102
RTVSPropertyOp11
 70
     1
102
RTVSPropertyOp12
 70
     1
102
RTVSPropertyOp13
 70
     1
102
RTVSPropertyOp14
 70
     1
102
RTVSPropertyOp15
 70
     1
102
RTVSPropertyOp16
 70
     1
102
RTVSPropertyOp17
 70
     1
102
RTVSPropertyOp18
 70
     1
102
RTVSPropertyOp19
 70
     1
102
RTVSPropertyOp20
 70
     1
102
RTVSPropertyOp21
 70
     1
102
RTVSPropertyOp22
 70
     1
102
RTVSPropertyOp23
 70
     1
102
RTVSPropertyOp24
 70
     1
102
RTVSPropertyOp25
 70
     1
102
RTVSPropertyOp26
 70
     1
102
RTVSPropertyOp27
 70
     1
102
RTVSPropertyOp28
 70
     1
102
RTVSPropertyOp29
 70
     1
102
RTVSPropertyOp30
 70
     1
102
RTVSPropertyOp31
 70
     1
102
RTVSPropertyOp32
 70
     1
102
RTVSPropertyOp33
 70
     1
102
RTVSPropertyOp34
 70
     1
102
RTVSPropertyOp35
 70
     1
102
RTVSPropertyOp36
 70
     1
102
RTVSPropertyOp37
 70
     1
102
RTVSPropertyOp38
 70
     1
102
RTVSPropertyOp39
 70
     1
102
RTVSPropertyOp40
 70
     1
102
RTVSPropertyOp41
 70
     1
102
RTVSPropertyOp42
 70
     1
102
RTVSPropertyOp43
 70
     1
102
RTVSPropertyOp44
 70
     1
102
RTVSPropertyOp45
 70
     1
102
RTVSPropertyOp46
 70
     1
102
RTVSPropertyOp47
 70
     1
102
RTVSPropertyOp48
 70
     1
102
RTVSPropertyOp49
 70
     1
102
RTVSPropertyOp50
 70
     1
102
RTVSPropertyOp51
 70
     0
102
RTVSPropertyOp52
 70
     0
102
RTVSPropertyOp53
 70
     1
102
RTVSPropertyOp54
 70
     1
102
RTVSPropertyOp55
 70
     1
102
RTVSPropertyOp56
 70
     1
102
RTVSPropertyOp57
 70
     1
102
RTVSPropertyOp58
 70
     1
102
RTVSPropertyOp59
 70
     1
102
RTVSPropertyOp60
 70
     1
102
RTVSPropertyOp61
 70
     1
102
RTVSPropertyOp62
 70
     1
  0
XRECORD
  5
CADC
102
{ACAD_REACTORS
330
CADB
102
}
330
CADB
100
AcDbXrecord
280
     1
102
RTVSPost2010Prop28
280
     0
102
RTVSPost2010PropOp28
 70
     1
102
RTVSPost2010Prop29
280
     1
102
RTVSPost2010PropOp29
 70
     1
102
RTVSPost2010Prop30
280
     1
102
RTVSPost2010PropOp30
 70
     1
102
RTVSPost2010Prop31
280
     0
102
RTVSPost2010PropOp31
 70
     1
102
RTVSPost2010Prop32
280
     0
102
RTVSPost2010PropOp32
 70
     1
102
RTVSPost2010Prop33
280
     0
102
RTVSPost2010PropOp33
 70
     1
102
RTVSPost2010Prop34
280
     0
102
RTVSPost2010PropOp34
 70
     1
102
RTVSPost2010Prop35
280
     0
102
RTVSPost2010PropOp35
 70
     1
102
RTVSPost2010Prop36
280
     0
102
RTVSPost2010PropOp36
 70
     1
102
RTVSPost2010Prop37
 90
       50
102
RTVSPost2010PropOp37
 70
     0
102
RTVSPost2010Prop38
140
0.0
102
RTVSPost2010PropOp38
 70
     0
102
RTVSPost2010Prop39
140
1.0
102
RTVSPost2010PropOp39
 70
     0
102
RTVSPost2010Prop40
 90
        0
102
RTVSPost2010PropOp40
 70
     0
102
RTVSPost2010Prop41ColorIndex
 90
       18
102
RTVSPost2010Prop41ColorRGB
 90
        0
102
RTVSPost2010PropOp41
 70
     0
102
RTVSPost2010Prop42
 90
       50
102
RTVSPost2010PropOp42
 70
     0
102
RTVSPost2010Prop43
 90
        3
102
RTVSPost2010PropOp43
 70
     0
102
RTVSPost2010Prop44ColorIndex
 90
        5
102
RTVSPost2010Prop44ColorRGB
 90
      255
102
RTVSPost2010PropOp44
 70
     0
102
RTVSPost2010Prop45
280
     0
102
RTVSPost2010PropOp45
 70
     1
102
RTVSPost2010Prop46
 90
       50
102
RTVSPost2010PropOp46
 70
     0
102
RTVSPost2010Prop47
 90
       50
102
RTVSPost2010PropOp47
 70
     0
102
RTVSPost2010Prop48
 90
       50
102
RTVSPost2010PropOp48
 70
     0
102
RTVSPost2010Prop49
280
     0
102
RTVSPost2010PropOp49
 70
     1
102
RTVSPost2010Prop50
 90
       50
102
RTVSPost2010PropOp50
 70
     0
102
RTVSPost2010Prop51ColorIndex
 90
      256
102
RTVSPost2010Prop51ColorRGB
 90
-16777216
102
RTVSPost2010PropOp51
 70
     0
102
RTVSPost2010Prop52
140
1.0
102
RTVSPost2010PropOp52
 70
     0
102
RTVSPost2010Prop53
 90
        2
102
RTVSPost2010PropOp53
 70
     0
102
RTVSPost2010Prop54
  1
strokes_ogs.tif
102
RTVSPost2010PropOp54
 70
     0
102
RTVSPost2010Prop55
280
     0
102
RTVSPost2010PropOp55
 70
     1
102
RTVSPost2010Prop56
140
1.0
102
RTVSPost2010PropOp56
 70
     0
102
RTVSPost2010Prop57
140
1.0
102
RTVSPost2010PropOp57
 70
     0
102
RTVSPropertyOp0
 70
     0
102
RTVSPropertyOp1
 70
     0
102
RTVSPropertyOp2
 70
     0
102
RTVSPropertyOp3
 70
     0
102
RTVSPropertyOp4
 70
     0
102
RTVSPropertyOp5
 70
     0
102
RTVSPropertyOp6
 70
     0
102
RTVSPropertyOp7
 70
     0
102
RTVSPropertyOp8
 70
     0
102
RTVSPropertyOp9
 70
     0
102
RTVSPropertyOp10
 70
     0
102
RTVSPropertyOp11
 70
     0
102
RTVSPropertyOp12
 70
     0
102
RTVSPropertyOp13
 70
     0
102
RTVSPropertyOp14
 70
     2
102
RTVSPropertyOp15
 70
     0
102
RTVSPropertyOp16
 70
     0
102
RTVSPropertyOp17
 70
     0
102
RTVSPropertyOp18
 70
     0
102
RTVSPropertyOp19
 70
     0
102
RTVSPropertyOp20
 70
     0
102
RTVSPropertyOp21
 70
     0
102
RTVSPropertyOp22
 70
     0
102
RTVSPropertyOp23
 70
     0
102
RTVSPropertyOp24
 70
     0
102
RTVSPropertyOp25
 70
     0
102
RTVSPropertyOp26
 70
     0
102
RTVSPropertyOp27
 70
     0
102
RTVSPropertyOp28
 70
     1
102
RTVSPropertyOp29
 70
     1
102
RTVSPropertyOp30
 70
     1
102
RTVSPropertyOp31
 70
     1
102
RTVSPropertyOp32
 70
     1
102
RTVSPropertyOp33
 70
     1
102
RTVSPropertyOp34
 70
     1
102
RTVSPropertyOp35
 70
     1
102
RTVSPropertyOp36
 70
     1
102
RTVSPropertyOp37
 70
     0
102
RTVSPropertyOp38
 70
     0
102
RTVSPropertyOp39
 70
     0
102
RTVSPropertyOp40
 70
     0
102
RTVSPropertyOp41
 70
     0
102
RTVSPropertyOp42
 70
     0
102
RTVSPropertyOp43
 70
     0
102
RTVSPropertyOp44
 70
     0
102
RTVSPropertyOp45
 70
     1
102
RTVSPropertyOp46
 70
     0
102
RTVSPropertyOp47
 70
     0
102
RTVSPropertyOp48
 70
     0
102
RTVSPropertyOp49
 70
     1
102
RTVSPropertyOp50
 70
     0
102
RTVSPropertyOp51
 70
     0
102
RTVSPropertyOp52
 70
     0
102
RTVSPropertyOp53
 70
     0
102
RTVSPropertyOp54
 70
     0
102
RTVSPropertyOp55
 70
     1
102
RTVSPropertyOp56
 70
     0
102
RTVSPropertyOp57
 70
     0
102
RTVSPropertyOp58
 70
     0
102
RTVSPropertyOp59
 70
     0
102
RTVSPropertyOp60
 70
     0
102
RTVSPropertyOp61
 70
     0
102
RTVSPropertyOp62
 70
     0
  0
XRECORD
  5
CAC2
102
{ACAD_REACTORS
330
CAC1
102
}
330
CAC1
100
AcDbXrecord
280
     1
102
RTVSPost2010Prop28
280
     0
102
RTVSPost2010PropOp28
 70
     1
102
RTVSPost2010Prop29
280
     1
102
RTVSPost2010PropOp29
 70
     1
102
RTVSPost2010Prop30
280
     1
102
RTVSPost2010PropOp30
 70
     1
102
RTVSPost2010Prop31
280
     0
102
RTVSPost2010PropOp31
 70
     1
102
RTVSPost2010Prop32
280
     0
102
RTVSPost2010PropOp32
 70
     1
102
RTVSPost2010Prop33
280
     0
102
RTVSPost2010PropOp33
 70
     1
102
RTVSPost2010Prop34
280
     0
102
RTVSPost2010PropOp34
 70
     1
102
RTVSPost2010Prop35
280
     0
102
RTVSPost2010PropOp35
 70
     1
102
RTVSPost2010Prop36
280
     0
102
RTVSPost2010PropOp36
 70
     1
102
RTVSPost2010Prop37
 90
       50
102
RTVSPost2010PropOp37
 70
     1
102
RTVSPost2010Prop38
140
0.0
102
RTVSPost2010PropOp38
 70
     1
102
RTVSPost2010Prop39
140
1.0
102
RTVSPost2010PropOp39
 70
     1
102
RTVSPost2010Prop40
 90
        0
102
RTVSPost2010PropOp40
 70
     1
102
RTVSPost2010Prop41ColorIndex
 90
       18
102
RTVSPost2010Prop41ColorRGB
 90
        0
102
RTVSPost2010PropOp41
 70
     1
102
RTVSPost2010Prop42
 90
       50
102
RTVSPost2010PropOp42
 70
     1
102
RTVSPost2010Prop43
 90
        3
102
RTVSPost2010PropOp43
 70
     1
102
RTVSPost2010Prop44ColorIndex
 90
        5
102
RTVSPost2010Prop44ColorRGB
 90
      255
102
RTVSPost2010PropOp44
 70
     1
102
RTVSPost2010Prop45
280
     0
102
RTVSPost2010PropOp45
 70
     1
102
RTVSPost2010Prop46
 90
       50
102
RTVSPost2010PropOp46
 70
     1
102
RTVSPost2010Prop47
 90
       50
102
RTVSPost2010PropOp47
 70
     1
102
RTVSPost2010Prop48
 90
       50
102
RTVSPost2010PropOp48
 70
     1
102
RTVSPost2010Prop49
280
     0
102
RTVSPost2010PropOp49
 70
     1
102
RTVSPost2010Prop50
 90
       50
102
RTVSPost2010PropOp50
 70
     1
102
RTVSPost2010Prop51ColorIndex
 90
      256
102
RTVSPost2010Prop51ColorRGB
 90
-16777216
102
RTVSPost2010PropOp51
 70
     0
102
RTVSPost2010Prop52
140
1.0
102
RTVSPost2010PropOp52
 70
     0
102
RTVSPost2010Prop53
 90
        2
102
RTVSPost2010PropOp53
 70
     1
102
RTVSPost2010Prop54
  1
strokes_ogs.tif
102
RTVSPost2010PropOp54
 70
     1
102
RTVSPost2010Prop55
280
     0
102
RTVSPost2010PropOp55
 70
     1
102
RTVSPost2010Prop56
140
1.0
102
RTVSPost2010PropOp56
 70
     1
102
RTVSPost2010Prop57
140
1.0
102
RTVSPost2010PropOp57
 70
     1
102
RTVSPropertyOp0
 70
     1
102
RTVSPropertyOp1
 70
     1
102
RTVSPropertyOp2
 70
     1
102
RTVSPropertyOp3
 70
     1
102
RTVSPropertyOp4
 70
     1
102
RTVSPropertyOp5
 70
     1
102
RTVSPropertyOp6
 70
     1
102
RTVSPropertyOp7
 70
     1
102
RTVSPropertyOp8
 70
     1
102
RTVSPropertyOp9
 70
     1
102
RTVSPropertyOp10
 70
     1
102
RTVSPropertyOp11
 70
     1
102
RTVSPropertyOp12
 70
     1
102
RTVSPropertyOp13
 70
     1
102
RTVSPropertyOp14
 70
     1
102
RTVSPropertyOp15
 70
     1
102
RTVSPropertyOp16
 70
     1
102
RTVSPropertyOp17
 70
     1
102
RTVSPropertyOp18
 70
     1
102
RTVSPropertyOp19
 70
     1
102
RTVSPropertyOp20
 70
     1
102
RTVSPropertyOp21
 70
     1
102
RTVSPropertyOp22
 70
     1
102
RTVSPropertyOp23
 70
     1
102
RTVSPropertyOp24
 70
     1
102
RTVSPropertyOp25
 70
     1
102
RTVSPropertyOp26
 70
     1
102
RTVSPropertyOp27
 70
     1
102
RTVSPropertyOp28
 70
     1
102
RTVSPropertyOp29
 70
     1
102
RTVSPropertyOp30
 70
     1
102
RTVSPropertyOp31
 70
     1
102
RTVSPropertyOp32
 70
     1
102
RTVSPropertyOp33
 70
     1
102
RTVSPropertyOp34
 70
     1
102
RTVSPropertyOp35
 70
     1
102
RTVSPropertyOp36
 70
     1
102
RTVSPropertyOp37
 70
     1
102
RTVSPropertyOp38
 70
     1
102
RTVSPropertyOp39
 70
     1
102
RTVSPropertyOp40
 70
     1
102
RTVSPropertyOp41
 70
     1
102
RTVSPropertyOp42
 70
     1
102
RTVSPropertyOp43
 70
     1
102
RTVSPropertyOp44
 70
     1
102
RTVSPropertyOp45
 70
     1
102
RTVSPropertyOp46
 70
     1
102
RTVSPropertyOp47
 70
     1
102
RTVSPropertyOp48
 70
     1
102
RTVSPropertyOp49
 70
     1
102
RTVSPropertyOp50
 70
     1
102
RTVSPropertyOp51
 70
     0
102
RTVSPropertyOp52
 70
     0
102
RTVSPropertyOp53
 70
     1
102
RTVSPropertyOp54
 70
     1
102
RTVSPropertyOp55
 70
     1
102
RTVSPropertyOp56
 70
     1
102
RTVSPropertyOp57
 70
     1
102
RTVSPropertyOp58
 70
     1
102
RTVSPropertyOp59
 70
     1
102
RTVSPropertyOp60
 70
     1
102
RTVSPropertyOp61
 70
     1
102
RTVSPropertyOp62
 70
     1
  0
XRECORD
  5
CAD8
102
{ACAD_REACTORS
330
CAD7
102
}
330
CAD7
100
AcDbXrecord
280
     1
102
RTVSPost2010Prop28
280
     0
102
RTVSPost2010PropOp28
 70
     1
102
RTVSPost2010Prop29
280
     1
102
RTVSPost2010PropOp29
 70
     1
102
RTVSPost2010Prop30
280
     1
102
RTVSPost2010PropOp30
 70
     1
102
RTVSPost2010Prop31
280
     0
102
RTVSPost2010PropOp31
 70
     1
102
RTVSPost2010Prop32
280
     0
102
RTVSPost2010PropOp32
 70
     1
102
RTVSPost2010Prop33
280
     0
102
RTVSPost2010PropOp33
 70
     1
102
RTVSPost2010Prop34
280
     0
102
RTVSPost2010PropOp34
 70
     1
102
RTVSPost2010Prop35
280
     0
102
RTVSPost2010PropOp35
 70
     1
102
RTVSPost2010Prop36
280
     0
102
RTVSPost2010PropOp36
 70
     1
102
RTVSPost2010Prop37
 90
       50
102
RTVSPost2010PropOp37
 70
     1
102
RTVSPost2010Prop38
140
0.0
102
RTVSPost2010PropOp38
 70
     1
102
RTVSPost2010Prop39
140
1.0
102
RTVSPost2010PropOp39
 70
     1
102
RTVSPost2010Prop40
 90
        0
102
RTVSPost2010PropOp40
 70
     1
102
RTVSPost2010Prop41ColorIndex
 90
       18
102
RTVSPost2010Prop41ColorRGB
 90
        0
102
RTVSPost2010PropOp41
 70
     1
102
RTVSPost2010Prop42
 90
       50
102
RTVSPost2010PropOp42
 70
     1
102
RTVSPost2010Prop43
 90
        3
102
RTVSPost2010PropOp43
 70
     1
102
RTVSPost2010Prop44ColorIndex
 90
        5
102
RTVSPost2010Prop44ColorRGB
 90
      255
102
RTVSPost2010PropOp44
 70
     1
102
RTVSPost2010Prop45
280
     0
102
RTVSPost2010PropOp45
 70
     1
102
RTVSPost2010Prop46
 90
       50
102
RTVSPost2010PropOp46
 70
     1
102
RTVSPost2010Prop47
 90
       50
102
RTVSPost2010PropOp47
 70
     1
102
RTVSPost2010Prop48
 90
       50
102
RTVSPost2010PropOp48
 70
     1
102
RTVSPost2010Prop49
280
     0
102
RTVSPost2010PropOp49
 70
     1
102
RTVSPost2010Prop50
 90
       50
102
RTVSPost2010PropOp50
 70
     1
102
RTVSPost2010Prop51ColorIndex
 90
      256
102
RTVSPost2010Prop51ColorRGB
 90
-16777216
102
RTVSPost2010PropOp51
 70
     0
102
RTVSPost2010Prop52
140
1.0
102
RTVSPost2010PropOp52
 70
     0
102
RTVSPost2010Prop53
 90
        2
102
RTVSPost2010PropOp53
 70
     1
102
RTVSPost2010Prop54
  1
strokes_ogs.tif
102
RTVSPost2010PropOp54
 70
     1
102
RTVSPost2010Prop55
280
     0
102
RTVSPost2010PropOp55
 70
     1
102
RTVSPost2010Prop56
140
1.0
102
RTVSPost2010PropOp56
 70
     1
102
RTVSPost2010Prop57
140
1.0
102
RTVSPost2010PropOp57
 70
     1
102
RTVSPropertyOp0
 70
     1
102
RTVSPropertyOp1
 70
     1
102
RTVSPropertyOp2
 70
     1
102
RTVSPropertyOp3
 70
     1
102
RTVSPropertyOp4
 70
     1
102
RTVSPropertyOp5
 70
     1
102
RTVSPropertyOp6
 70
     1
102
RTVSPropertyOp7
 70
     1
102
RTVSPropertyOp8
 70
     1
102
RTVSPropertyOp9
 70
     1
102
RTVSPropertyOp10
 70
     1
102
RTVSPropertyOp11
 70
     1
102
RTVSPropertyOp12
 70
     1
102
RTVSPropertyOp13
 70
     1
102
RTVSPropertyOp14
 70
     1
102
RTVSPropertyOp15
 70
     1
102
RTVSPropertyOp16
 70
     1
102
RTVSPropertyOp17
 70
     1
102
RTVSPropertyOp18
 70
     1
102
RTVSPropertyOp19
 70
     1
102
RTVSPropertyOp20
 70
     1
102
RTVSPropertyOp21
 70
     1
102
RTVSPropertyOp22
 70
     1
102
RTVSPropertyOp23
 70
     1
102
RTVSPropertyOp24
 70
     1
102
RTVSPropertyOp25
 70
     1
102
RTVSPropertyOp26
 70
     1
102
RTVSPropertyOp27
 70
     1
102
RTVSPropertyOp28
 70
     1
102
RTVSPropertyOp29
 70
     1
102
RTVSPropertyOp30
 70
     1
102
RTVSPropertyOp31
 70
     1
102
RTVSPropertyOp32
 70
     1
102
RTVSPropertyOp33
 70
     1
102
RTVSPropertyOp34
 70
     1
102
RTVSPropertyOp35
 70
     1
102
RTVSPropertyOp36
 70
     1
102
RTVSPropertyOp37
 70
     1
102
RTVSPropertyOp38
 70
     1
102
RTVSPropertyOp39
 70
     1
102
RTVSPropertyOp40
 70
     1
102
RTVSPropertyOp41
 70
     1
102
RTVSPropertyOp42
 70
     1
102
RTVSPropertyOp43
 70
     1
102
RTVSPropertyOp44
 70
     1
102
RTVSPropertyOp45
 70
     1
102
RTVSPropertyOp46
 70
     1
102
RTVSPropertyOp47
 70
     1
102
RTVSPropertyOp48
 70
     1
102
RTVSPropertyOp49
 70
     1
102
RTVSPropertyOp50
 70
     1
102
RTVSPropertyOp51
 70
     0
102
RTVSPropertyOp52
 70
     0
102
RTVSPropertyOp53
 70
     1
102
RTVSPropertyOp54
 70
     1
102
RTVSPropertyOp55
 70
     1
102
RTVSPropertyOp56
 70
     1
102
RTVSPropertyOp57
 70
     1
102
RTVSPropertyOp58
 70
     1
102
RTVSPropertyOp59
 70
     1
102
RTVSPropertyOp60
 70
     1
102
RTVSPropertyOp61
 70
     1
102
RTVSPropertyOp62
 70
     1
  0
XRECORD
  5
CAD6
102
{ACAD_REACTORS
330
CAD5
102
}
330
CAD5
100
AcDbXrecord
280
     1
102
RTVSPost2010Prop28
280
     0
102
RTVSPost2010PropOp28
 70
     1
102
RTVSPost2010Prop29
280
     1
102
RTVSPost2010PropOp29
 70
     1
102
RTVSPost2010Prop30
280
     1
102
RTVSPost2010PropOp30
 70
     1
102
RTVSPost2010Prop31
280
     0
102
RTVSPost2010PropOp31
 70
     1
102
RTVSPost2010Prop32
280
     0
102
RTVSPost2010PropOp32
 70
     1
102
RTVSPost2010Prop33
280
     0
102
RTVSPost2010PropOp33
 70
     1
102
RTVSPost2010Prop34
280
     0
102
RTVSPost2010PropOp34
 70
     1
102
RTVSPost2010Prop35
280
     0
102
RTVSPost2010PropOp35
 70
     1
102
RTVSPost2010Prop36
280
     0
102
RTVSPost2010PropOp36
 70
     1
102
RTVSPost2010Prop37
 90
       50
102
RTVSPost2010PropOp37
 70
     1
102
RTVSPost2010Prop38
140
0.0
102
RTVSPost2010PropOp38
 70
     1
102
RTVSPost2010Prop39
140
1.0
102
RTVSPost2010PropOp39
 70
     1
102
RTVSPost2010Prop40
 90
        0
102
RTVSPost2010PropOp40
 70
     1
102
RTVSPost2010Prop41ColorIndex
 90
       18
102
RTVSPost2010Prop41ColorRGB
 90
        0
102
RTVSPost2010PropOp41
 70
     1
102
RTVSPost2010Prop42
 90
       50
102
RTVSPost2010PropOp42
 70
     1
102
RTVSPost2010Prop43
 90
        3
102
RTVSPost2010PropOp43
 70
     1
102
RTVSPost2010Prop44ColorIndex
 90
        5
102
RTVSPost2010Prop44ColorRGB
 90
      255
102
RTVSPost2010PropOp44
 70
     1
102
RTVSPost2010Prop45
280
     0
102
RTVSPost2010PropOp45
 70
     1
102
RTVSPost2010Prop46
 90
       50
102
RTVSPost2010PropOp46
 70
     1
102
RTVSPost2010Prop47
 90
       50
102
RTVSPost2010PropOp47
 70
     1
102
RTVSPost2010Prop48
 90
       50
102
RTVSPost2010PropOp48
 70
     1
102
RTVSPost2010Prop49
280
     0
102
RTVSPost2010PropOp49
 70
     1
102
RTVSPost2010Prop50
 90
       50
102
RTVSPost2010PropOp50
 70
     1
102
RTVSPost2010Prop51ColorIndex
 90
      256
102
RTVSPost2010Prop51ColorRGB
 90
-16777216
102
RTVSPost2010PropOp51
 70
     0
102
RTVSPost2010Prop52
140
1.0
102
RTVSPost2010PropOp52
 70
     0
102
RTVSPost2010Prop53
 90
        2
102
RTVSPost2010PropOp53
 70
     1
102
RTVSPost2010Prop54
  1
strokes_ogs.tif
102
RTVSPost2010PropOp54
 70
     1
102
RTVSPost2010Prop55
280
     0
102
RTVSPost2010PropOp55
 70
     1
102
RTVSPost2010Prop56
140
1.0
102
RTVSPost2010PropOp56
 70
     1
102
RTVSPost2010Prop57
140
1.0
102
RTVSPost2010PropOp57
 70
     1
102
RTVSPropertyOp0
 70
     1
102
RTVSPropertyOp1
 70
     1
102
RTVSPropertyOp2
 70
     1
102
RTVSPropertyOp3
 70
     1
102
RTVSPropertyOp4
 70
     1
102
RTVSPropertyOp5
 70
     1
102
RTVSPropertyOp6
 70
     1
102
RTVSPropertyOp7
 70
     1
102
RTVSPropertyOp8
 70
     1
102
RTVSPropertyOp9
 70
     1
102
RTVSPropertyOp10
 70
     1
102
RTVSPropertyOp11
 70
     1
102
RTVSPropertyOp12
 70
     1
102
RTVSPropertyOp13
 70
     1
102
RTVSPropertyOp14
 70
     1
102
RTVSPropertyOp15
 70
     1
102
RTVSPropertyOp16
 70
     1
102
RTVSPropertyOp17
 70
     1
102
RTVSPropertyOp18
 70
     1
102
RTVSPropertyOp19
 70
     1
102
RTVSPropertyOp20
 70
     1
102
RTVSPropertyOp21
 70
     1
102
RTVSPropertyOp22
 70
     1
102
RTVSPropertyOp23
 70
     1
102
RTVSPropertyOp24
 70
     1
102
RTVSPropertyOp25
 70
     1
102
RTVSPropertyOp26
 70
     1
102
RTVSPropertyOp27
 70
     1
102
RTVSPropertyOp28
 70
     1
102
RTVSPropertyOp29
 70
     1
102
RTVSPropertyOp30
 70
     1
102
RTVSPropertyOp31
 70
     1
102
RTVSPropertyOp32
 70
     1
102
RTVSPropertyOp33
 70
     1
102
RTVSPropertyOp34
 70
     1
102
RTVSPropertyOp35
 70
     1
102
RTVSPropertyOp36
 70
     1
102
RTVSPropertyOp37
 70
     1
102
RTVSPropertyOp38
 70
     1
102
RTVSPropertyOp39
 70
     1
102
RTVSPropertyOp40
 70
     1
102
RTVSPropertyOp41
 70
     1
102
RTVSPropertyOp42
 70
     1
102
RTVSPropertyOp43
 70
     1
102
RTVSPropertyOp44
 70
     1
102
RTVSPropertyOp45
 70
     1
102
RTVSPropertyOp46
 70
     1
102
RTVSPropertyOp47
 70
     1
102
RTVSPropertyOp48
 70
     1
102
RTVSPropertyOp49
 70
     1
102
RTVSPropertyOp50
 70
     1
102
RTVSPropertyOp51
 70
     0
102
RTVSPropertyOp52
 70
     0
102
RTVSPropertyOp53
 70
     1
102
RTVSPropertyOp54
 70
     1
102
RTVSPropertyOp55
 70
     1
102
RTVSPropertyOp56
 70
     1
102
RTVSPropertyOp57
 70
     1
102
RTVSPropertyOp58
 70
     1
102
RTVSPropertyOp59
 70
     1
102
RTVSPropertyOp60
 70
     1
102
RTVSPropertyOp61
 70
     1
102
RTVSPropertyOp62
 70
     1
  0
XRECORD
  5
CAD0
102
{ACAD_REACTORS
330
CACF
102
}
330
CACF
100
AcDbXrecord
280
     1
102
RTVSPost2010Prop28
280
     0
102
RTVSPost2010PropOp28
 70
     1
102
RTVSPost2010Prop29
280
     1
102
RTVSPost2010PropOp29
 70
     1
102
RTVSPost2010Prop30
280
     1
102
RTVSPost2010PropOp30
 70
     1
102
RTVSPost2010Prop31
280
     0
102
RTVSPost2010PropOp31
 70
     1
102
RTVSPost2010Prop32
280
     0
102
RTVSPost2010PropOp32
 70
     1
102
RTVSPost2010Prop33
280
     0
102
RTVSPost2010PropOp33
 70
     1
102
RTVSPost2010Prop34
280
     0
102
RTVSPost2010PropOp34
 70
     1
102
RTVSPost2010Prop35
280
     0
102
RTVSPost2010PropOp35
 70
     1
102
RTVSPost2010Prop36
280
     0
102
RTVSPost2010PropOp36
 70
     1
102
RTVSPost2010Prop37
 90
       50
102
RTVSPost2010PropOp37
 70
     1
102
RTVSPost2010Prop38
140
0.0
102
RTVSPost2010PropOp38
 70
     1
102
RTVSPost2010Prop39
140
1.0
102
RTVSPost2010PropOp39
 70
     1
102
RTVSPost2010Prop40
 90
        0
102
RTVSPost2010PropOp40
 70
     1
102
RTVSPost2010Prop41ColorIndex
 90
       18
102
RTVSPost2010Prop41ColorRGB
 90
        0
102
RTVSPost2010PropOp41
 70
     1
102
RTVSPost2010Prop42
 90
       50
102
RTVSPost2010PropOp42
 70
     1
102
RTVSPost2010Prop43
 90
        3
102
RTVSPost2010PropOp43
 70
     1
102
RTVSPost2010Prop44ColorIndex
 90
        5
102
RTVSPost2010Prop44ColorRGB
 90
      255
102
RTVSPost2010PropOp44
 70
     1
102
RTVSPost2010Prop45
280
     0
102
RTVSPost2010PropOp45
 70
     1
102
RTVSPost2010Prop46
 90
       50
102
RTVSPost2010PropOp46
 70
     1
102
RTVSPost2010Prop47
 90
       50
102
RTVSPost2010PropOp47
 70
     1
102
RTVSPost2010Prop48
 90
       50
102
RTVSPost2010PropOp48
 70
     1
102
RTVSPost2010Prop49
280
     0
102
RTVSPost2010PropOp49
 70
     1
102
RTVSPost2010Prop50
 90
       50
102
RTVSPost2010PropOp50
 70
     1
102
RTVSPost2010Prop51ColorIndex
 90
      256
102
RTVSPost2010Prop51ColorRGB
 90
-16777216
102
RTVSPost2010PropOp51
 70
     0
102
RTVSPost2010Prop52
140
1.0
102
RTVSPost2010PropOp52
 70
     0
102
RTVSPost2010Prop53
 90
        2
102
RTVSPost2010PropOp53
 70
     1
102
RTVSPost2010Prop54
  1
strokes_ogs.tif
102
RTVSPost2010PropOp54
 70
     1
102
RTVSPost2010Prop55
280
     0
102
RTVSPost2010PropOp55
 70
     1
102
RTVSPost2010Prop56
140
1.0
102
RTVSPost2010PropOp56
 70
     1
102
RTVSPost2010Prop57
140
1.0
102
RTVSPost2010PropOp57
 70
     1
102
RTVSPropertyOp0
 70
     1
102
RTVSPropertyOp1
 70
     1
102
RTVSPropertyOp2
 70
     1
102
RTVSPropertyOp3
 70
     1
102
RTVSPropertyOp4
 70
     1
102
RTVSPropertyOp5
 70
     1
102
RTVSPropertyOp6
 70
     1
102
RTVSPropertyOp7
 70
     1
102
RTVSPropertyOp8
 70
     1
102
RTVSPropertyOp9
 70
     1
102
RTVSPropertyOp10
 70
     1
102
RTVSPropertyOp11
 70
     1
102
RTVSPropertyOp12
 70
     1
102
RTVSPropertyOp13
 70
     1
102
RTVSPropertyOp14
 70
     1
102
RTVSPropertyOp15
 70
     1
102
RTVSPropertyOp16
 70
     1
102
RTVSPropertyOp17
 70
     1
102
RTVSPropertyOp18
 70
     1
102
RTVSPropertyOp19
 70
     1
102
RTVSPropertyOp20
 70
     1
102
RTVSPropertyOp21
 70
     1
102
RTVSPropertyOp22
 70
     1
102
RTVSPropertyOp23
 70
     1
102
RTVSPropertyOp24
 70
     1
102
RTVSPropertyOp25
 70
     1
102
RTVSPropertyOp26
 70
     1
102
RTVSPropertyOp27
 70
     1
102
RTVSPropertyOp28
 70
     1
102
RTVSPropertyOp29
 70
     1
102
RTVSPropertyOp30
 70
     1
102
RTVSPropertyOp31
 70
     1
102
RTVSPropertyOp32
 70
     1
102
RTVSPropertyOp33
 70
     1
102
RTVSPropertyOp34
 70
     1
102
RTVSPropertyOp35
 70
     1
102
RTVSPropertyOp36
 70
     1
102
RTVSPropertyOp37
 70
     1
102
RTVSPropertyOp38
 70
     1
102
RTVSPropertyOp39
 70
     1
102
RTVSPropertyOp40
 70
     1
102
RTVSPropertyOp41
 70
     1
102
RTVSPropertyOp42
 70
     1
102
RTVSPropertyOp43
 70
     1
102
RTVSPropertyOp44
 70
     1
102
RTVSPropertyOp45
 70
     1
102
RTVSPropertyOp46
 70
     1
102
RTVSPropertyOp47
 70
     1
102
RTVSPropertyOp48
 70
     1
102
RTVSPropertyOp49
 70
     1
102
RTVSPropertyOp50
 70
     1
102
RTVSPropertyOp51
 70
     0
102
RTVSPropertyOp52
 70
     0
102
RTVSPropertyOp53
 70
     1
102
RTVSPropertyOp54
 70
     1
102
RTVSPropertyOp55
 70
     1
102
RTVSPropertyOp56
 70
     1
102
RTVSPropertyOp57
 70
     1
102
RTVSPropertyOp58
 70
     1
102
RTVSPropertyOp59
 70
     1
102
RTVSPropertyOp60
 70
     1
102
RTVSPropertyOp61
 70
     1
102
RTVSPropertyOp62
 70
     1
  0
XRECORD
  5
CAD2
102
{ACAD_REACTORS
330
CAD1
102
}
330
CAD1
100
AcDbXrecord
280
     1
102
RTVSPost2010Prop28
280
     0
102
RTVSPost2010PropOp28
 70
     1
102
RTVSPost2010Prop29
280
     1
102
RTVSPost2010PropOp29
 70
     1
102
RTVSPost2010Prop30
280
     1
102
RTVSPost2010PropOp30
 70
     1
102
RTVSPost2010Prop31
280
     0
102
RTVSPost2010PropOp31
 70
     1
102
RTVSPost2010Prop32
280
     0
102
RTVSPost2010PropOp32
 70
     1
102
RTVSPost2010Prop33
280
     0
102
RTVSPost2010PropOp33
 70
     1
102
RTVSPost2010Prop34
280
     0
102
RTVSPost2010PropOp34
 70
     1
102
RTVSPost2010Prop35
280
     0
102
RTVSPost2010PropOp35
 70
     1
102
RTVSPost2010Prop36
280
     0
102
RTVSPost2010PropOp36
 70
     1
102
RTVSPost2010Prop37
 90
       50
102
RTVSPost2010PropOp37
 70
     1
102
RTVSPost2010Prop38
140
0.0
102
RTVSPost2010PropOp38
 70
     1
102
RTVSPost2010Prop39
140
1.0
102
RTVSPost2010PropOp39
 70
     1
102
RTVSPost2010Prop40
 90
        0
102
RTVSPost2010PropOp40
 70
     1
102
RTVSPost2010Prop41ColorIndex
 90
       18
102
RTVSPost2010Prop41ColorRGB
 90
        0
102
RTVSPost2010PropOp41
 70
     1
102
RTVSPost2010Prop42
 90
       50
102
RTVSPost2010PropOp42
 70
     1
102
RTVSPost2010Prop43
 90
        3
102
RTVSPost2010PropOp43
 70
     1
102
RTVSPost2010Prop44ColorIndex
 90
        5
102
RTVSPost2010Prop44ColorRGB
 90
      255
102
RTVSPost2010PropOp44
 70
     1
102
RTVSPost2010Prop45
280
     0
102
RTVSPost2010PropOp45
 70
     1
102
RTVSPost2010Prop46
 90
       50
102
RTVSPost2010PropOp46
 70
     1
102
RTVSPost2010Prop47
 90
       50
102
RTVSPost2010PropOp47
 70
     1
102
RTVSPost2010Prop48
 90
       50
102
RTVSPost2010PropOp48
 70
     1
102
RTVSPost2010Prop49
280
     0
102
RTVSPost2010PropOp49
 70
     1
102
RTVSPost2010Prop50
 90
       50
102
RTVSPost2010PropOp50
 70
     1
102
RTVSPost2010Prop51ColorIndex
 90
      256
102
RTVSPost2010Prop51ColorRGB
 90
-16777216
102
RTVSPost2010PropOp51
 70
     0
102
RTVSPost2010Prop52
140
1.0
102
RTVSPost2010PropOp52
 70
     0
102
RTVSPost2010Prop53
 90
        2
102
RTVSPost2010PropOp53
 70
     1
102
RTVSPost2010Prop54
  1
strokes_ogs.tif
102
RTVSPost2010PropOp54
 70
     1
102
RTVSPost2010Prop55
280
     0
102
RTVSPost2010PropOp55
 70
     1
102
RTVSPost2010Prop56
140
1.0
102
RTVSPost2010PropOp56
 70
     1
102
RTVSPost2010Prop57
140
1.0
102
RTVSPost2010PropOp57
 70
     1
102
RTVSPropertyOp0
 70
     1
102
RTVSPropertyOp1
 70
     1
102
RTVSPropertyOp2
 70
     1
102
RTVSPropertyOp3
 70
     1
102
RTVSPropertyOp4
 70
     1
102
RTVSPropertyOp5
 70
     1
102
RTVSPropertyOp6
 70
     1
102
RTVSPropertyOp7
 70
     1
102
RTVSPropertyOp8
 70
     1
102
RTVSPropertyOp9
 70
     1
102
RTVSPropertyOp10
 70
     1
102
RTVSPropertyOp11
 70
     1
102
RTVSPropertyOp12
 70
     1
102
RTVSPropertyOp13
 70
     1
102
RTVSPropertyOp14
 70
     1
102
RTVSPropertyOp15
 70
     1
102
RTVSPropertyOp16
 70
     1
102
RTVSPropertyOp17
 70
     1
102
RTVSPropertyOp18
 70
     1
102
RTVSPropertyOp19
 70
     1
102
RTVSPropertyOp20
 70
     1
102
RTVSPropertyOp21
 70
     1
102
RTVSPropertyOp22
 70
     1
102
RTVSPropertyOp23
 70
     1
102
RTVSPropertyOp24
 70
     1
102
RTVSPropertyOp25
 70
     1
102
RTVSPropertyOp26
 70
     1
102
RTVSPropertyOp27
 70
     1
102
RTVSPropertyOp28
 70
     1
102
RTVSPropertyOp29
 70
     1
102
RTVSPropertyOp30
 70
     1
102
RTVSPropertyOp31
 70
     1
102
RTVSPropertyOp32
 70
     1
102
RTVSPropertyOp33
 70
     1
102
RTVSPropertyOp34
 70
     1
102
RTVSPropertyOp35
 70
     1
102
RTVSPropertyOp36
 70
     1
102
RTVSPropertyOp37
 70
     1
102
RTVSPropertyOp38
 70
     1
102
RTVSPropertyOp39
 70
     1
102
RTVSPropertyOp40
 70
     1
102
RTVSPropertyOp41
 70
     1
102
RTVSPropertyOp42
 70
     1
102
RTVSPropertyOp43
 70
     1
102
RTVSPropertyOp44
 70
     1
102
RTVSPropertyOp45
 70
     1
102
RTVSPropertyOp46
 70
     1
102
RTVSPropertyOp47
 70
     1
102
RTVSPropertyOp48
 70
     1
102
RTVSPropertyOp49
 70
     1
102
RTVSPropertyOp50
 70
     1
102
RTVSPropertyOp51
 70
     0
102
RTVSPropertyOp52
 70
     0
102
RTVSPropertyOp53
 70
     1
102
RTVSPropertyOp54
 70
     1
102
RTVSPropertyOp55
 70
     1
102
RTVSPropertyOp56
 70
     1
102
RTVSPropertyOp57
 70
     1
102
RTVSPropertyOp58
 70
     1
102
RTVSPropertyOp59
 70
     1
102
RTVSPropertyOp60
 70
     1
102
RTVSPropertyOp61
 70
     1
102
RTVSPropertyOp62
 70
     1
  0
XRECORD
  5
CAC8
102
{ACAD_REACTORS
330
CAC7
102
}
330
CAC7
100
AcDbXrecord
280
     1
102
RTVSPost2010Prop28
280
     0
102
RTVSPost2010PropOp28
 70
     1
102
RTVSPost2010Prop29
280
     1
102
RTVSPost2010PropOp29
 70
     1
102
RTVSPost2010Prop30
280
     1
102
RTVSPost2010PropOp30
 70
     1
102
RTVSPost2010Prop31
280
     0
102
RTVSPost2010PropOp31
 70
     1
102
RTVSPost2010Prop32
280
     0
102
RTVSPost2010PropOp32
 70
     1
102
RTVSPost2010Prop33
280
     0
102
RTVSPost2010PropOp33
 70
     1
102
RTVSPost2010Prop34
280
     0
102
RTVSPost2010PropOp34
 70
     1
102
RTVSPost2010Prop35
280
     0
102
RTVSPost2010PropOp35
 70
     1
102
RTVSPost2010Prop36
280
     0
102
RTVSPost2010PropOp36
 70
     1
102
RTVSPost2010Prop37
 90
       50
102
RTVSPost2010PropOp37
 70
     1
102
RTVSPost2010Prop38
140
0.0
102
RTVSPost2010PropOp38
 70
     1
102
RTVSPost2010Prop39
140
1.0
102
RTVSPost2010PropOp39
 70
     1
102
RTVSPost2010Prop40
 90
        0
102
RTVSPost2010PropOp40
 70
     1
102
RTVSPost2010Prop41ColorIndex
 90
       18
102
RTVSPost2010Prop41ColorRGB
 90
        0
102
RTVSPost2010PropOp41
 70
     1
102
RTVSPost2010Prop42
 90
       50
102
RTVSPost2010PropOp42
 70
     1
102
RTVSPost2010Prop43
 90
        3
102
RTVSPost2010PropOp43
 70
     1
102
RTVSPost2010Prop44ColorIndex
 90
        5
102
RTVSPost2010Prop44ColorRGB
 90
      255
102
RTVSPost2010PropOp44
 70
     1
102
RTVSPost2010Prop45
280
     0
102
RTVSPost2010PropOp45
 70
     1
102
RTVSPost2010Prop46
 90
       50
102
RTVSPost2010PropOp46
 70
     1
102
RTVSPost2010Prop47
 90
       50
102
RTVSPost2010PropOp47
 70
     1
102
RTVSPost2010Prop48
 90
       50
102
RTVSPost2010PropOp48
 70
     1
102
RTVSPost2010Prop49
280
     0
102
RTVSPost2010PropOp49
 70
     1
102
RTVSPost2010Prop50
 90
       50
102
RTVSPost2010PropOp50
 70
     1
102
RTVSPost2010Prop51ColorIndex
 90
      256
102
RTVSPost2010Prop51ColorRGB
 90
-16777216
102
RTVSPost2010PropOp51
 70
     0
102
RTVSPost2010Prop52
140
1.0
102
RTVSPost2010PropOp52
 70
     0
102
RTVSPost2010Prop53
 90
        2
102
RTVSPost2010PropOp53
 70
     1
102
RTVSPost2010Prop54
  1
strokes_ogs.tif
102
RTVSPost2010PropOp54
 70
     1
102
RTVSPost2010Prop55
280
     0
102
RTVSPost2010PropOp55
 70
     1
102
RTVSPost2010Prop56
140
1.0
102
RTVSPost2010PropOp56
 70
     1
102
RTVSPost2010Prop57
140
1.0
102
RTVSPost2010PropOp57
 70
     1
102
RTVSPropertyOp0
 70
     1
102
RTVSPropertyOp1
 70
     1
102
RTVSPropertyOp2
 70
     1
102
RTVSPropertyOp3
 70
     1
102
RTVSPropertyOp4
 70
     1
102
RTVSPropertyOp5
 70
     1
102
RTVSPropertyOp6
 70
     1
102
RTVSPropertyOp7
 70
     1
102
RTVSPropertyOp8
 70
     1
102
RTVSPropertyOp9
 70
     1
102
RTVSPropertyOp10
 70
     1
102
RTVSPropertyOp11
 70
     1
102
RTVSPropertyOp12
 70
     1
102
RTVSPropertyOp13
 70
     1
102
RTVSPropertyOp14
 70
     1
102
RTVSPropertyOp15
 70
     1
102
RTVSPropertyOp16
 70
     1
102
RTVSPropertyOp17
 70
     1
102
RTVSPropertyOp18
 70
     1
102
RTVSPropertyOp19
 70
     1
102
RTVSPropertyOp20
 70
     1
102
RTVSPropertyOp21
 70
     1
102
RTVSPropertyOp22
 70
     1
102
RTVSPropertyOp23
 70
     1
102
RTVSPropertyOp24
 70
     1
102
RTVSPropertyOp25
 70
     1
102
RTVSPropertyOp26
 70
     1
102
RTVSPropertyOp27
 70
     1
102
RTVSPropertyOp28
 70
     1
102
RTVSPropertyOp29
 70
     1
102
RTVSPropertyOp30
 70
     1
102
RTVSPropertyOp31
 70
     1
102
RTVSPropertyOp32
 70
     1
102
RTVSPropertyOp33
 70
     1
102
RTVSPropertyOp34
 70
     1
102
RTVSPropertyOp35
 70
     1
102
RTVSPropertyOp36
 70
     1
102
RTVSPropertyOp37
 70
     1
102
RTVSPropertyOp38
 70
     1
102
RTVSPropertyOp39
 70
     1
102
RTVSPropertyOp40
 70
     1
102
RTVSPropertyOp41
 70
     1
102
RTVSPropertyOp42
 70
     1
102
RTVSPropertyOp43
 70
     1
102
RTVSPropertyOp44
 70
     1
102
RTVSPropertyOp45
 70
     1
102
RTVSPropertyOp46
 70
     1
102
RTVSPropertyOp47
 70
     1
102
RTVSPropertyOp48
 70
     1
102
RTVSPropertyOp49
 70
     1
102
RTVSPropertyOp50
 70
     1
102
RTVSPropertyOp51
 70
     0
102
RTVSPropertyOp52
 70
     0
102
RTVSPropertyOp53
 70
     1
102
RTVSPropertyOp54
 70
     1
102
RTVSPropertyOp55
 70
     1
102
RTVSPropertyOp56
 70
     1
102
RTVSPropertyOp57
 70
     1
102
RTVSPropertyOp58
 70
     1
102
RTVSPropertyOp59
 70
     1
102
RTVSPropertyOp60
 70
     1
102
RTVSPropertyOp61
 70
     1
102
RTVSPropertyOp62
 70
     1
  0
XRECORD
  5
CABC
102
{ACAD_REACTORS
330
CABB
102
}
330
CABB
100
AcDbXrecord
280
     1
102
RTVSPost2010Prop28
280
     0
102
RTVSPost2010PropOp28
 70
     1
102
RTVSPost2010Prop29
280
     1
102
RTVSPost2010PropOp29
 70
     1
102
RTVSPost2010Prop30
280
     1
102
RTVSPost2010PropOp30
 70
     1
102
RTVSPost2010Prop31
280
     0
102
RTVSPost2010PropOp31
 70
     1
102
RTVSPost2010Prop32
280
     0
102
RTVSPost2010PropOp32
 70
     1
102
RTVSPost2010Prop33
280
     0
102
RTVSPost2010PropOp33
 70
     1
102
RTVSPost2010Prop34
280
     0
102
RTVSPost2010PropOp34
 70
     1
102
RTVSPost2010Prop35
280
     0
102
RTVSPost2010PropOp35
 70
     1
102
RTVSPost2010Prop36
280
     0
102
RTVSPost2010PropOp36
 70
     1
102
RTVSPost2010Prop37
 90
       50
102
RTVSPost2010PropOp37
 70
     1
102
RTVSPost2010Prop38
140
0.0
102
RTVSPost2010PropOp38
 70
     1
102
RTVSPost2010Prop39
140
1.0
102
RTVSPost2010PropOp39
 70
     1
102
RTVSPost2010Prop40
 90
        0
102
RTVSPost2010PropOp40
 70
     1
102
RTVSPost2010Prop41ColorIndex
 90
       18
102
RTVSPost2010Prop41ColorRGB
 90
        0
102
RTVSPost2010PropOp41
 70
     1
102
RTVSPost2010Prop42
 90
       50
102
RTVSPost2010PropOp42
 70
     1
102
RTVSPost2010Prop43
 90
        3
102
RTVSPost2010PropOp43
 70
     1
102
RTVSPost2010Prop44ColorIndex
 90
        5
102
RTVSPost2010Prop44ColorRGB
 90
      255
102
RTVSPost2010PropOp44
 70
     1
102
RTVSPost2010Prop45
280
     0
102
RTVSPost2010PropOp45
 70
     1
102
RTVSPost2010Prop46
 90
       50
102
RTVSPost2010PropOp46
 70
     1
102
RTVSPost2010Prop47
 90
       50
102
RTVSPost2010PropOp47
 70
     1
102
RTVSPost2010Prop48
 90
       50
102
RTVSPost2010PropOp48
 70
     1
102
RTVSPost2010Prop49
280
     0
102
RTVSPost2010PropOp49
 70
     1
102
RTVSPost2010Prop50
 90
       50
102
RTVSPost2010PropOp50
 70
     1
102
RTVSPost2010Prop51ColorIndex
 90
      256
102
RTVSPost2010Prop51ColorRGB
 90
-16777216
102
RTVSPost2010PropOp51
 70
     0
102
RTVSPost2010Prop52
140
1.0
102
RTVSPost2010PropOp52
 70
     0
102
RTVSPost2010Prop53
 90
        2
102
RTVSPost2010PropOp53
 70
     1
102
RTVSPost2010Prop54
  1
strokes_ogs.tif
102
RTVSPost2010PropOp54
 70
     1
102
RTVSPost2010Prop55
280
     0
102
RTVSPost2010PropOp55
 70
     1
102
RTVSPost2010Prop56
140
1.0
102
RTVSPost2010PropOp56
 70
     1
102
RTVSPost2010Prop57
140
1.0
102
RTVSPost2010PropOp57
 70
     1
102
RTVSPropertyOp0
 70
     1
102
RTVSPropertyOp1
 70
     1
102
RTVSPropertyOp2
 70
     1
102
RTVSPropertyOp3
 70
     1
102
RTVSPropertyOp4
 70
     1
102
RTVSPropertyOp5
 70
     1
102
RTVSPropertyOp6
 70
     1
102
RTVSPropertyOp7
 70
     1
102
RTVSPropertyOp8
 70
     1
102
RTVSPropertyOp9
 70
     1
102
RTVSPropertyOp10
 70
     1
102
RTVSPropertyOp11
 70
     1
102
RTVSPropertyOp12
 70
     1
102
RTVSPropertyOp13
 70
     1
102
RTVSPropertyOp14
 70
     1
102
RTVSPropertyOp15
 70
     1
102
RTVSPropertyOp16
 70
     1
102
RTVSPropertyOp17
 70
     1
102
RTVSPropertyOp18
 70
     1
102
RTVSPropertyOp19
 70
     1
102
RTVSPropertyOp20
 70
     1
102
RTVSPropertyOp21
 70
     1
102
RTVSPropertyOp22
 70
     1
102
RTVSPropertyOp23
 70
     1
102
RTVSPropertyOp24
 70
     1
102
RTVSPropertyOp25
 70
     1
102
RTVSPropertyOp26
 70
     1
102
RTVSPropertyOp27
 70
     1
102
RTVSPropertyOp28
 70
     1
102
RTVSPropertyOp29
 70
     1
102
RTVSPropertyOp30
 70
     1
102
RTVSPropertyOp31
 70
     1
102
RTVSPropertyOp32
 70
     1
102
RTVSPropertyOp33
 70
     1
102
RTVSPropertyOp34
 70
     1
102
RTVSPropertyOp35
 70
     1
102
RTVSPropertyOp36
 70
     1
102
RTVSPropertyOp37
 70
     1
102
RTVSPropertyOp38
 70
     1
102
RTVSPropertyOp39
 70
     1
102
RTVSPropertyOp40
 70
     1
102
RTVSPropertyOp41
 70
     1
102
RTVSPropertyOp42
 70
     1
102
RTVSPropertyOp43
 70
     1
102
RTVSPropertyOp44
 70
     1
102
RTVSPropertyOp45
 70
     1
102
RTVSPropertyOp46
 70
     1
102
RTVSPropertyOp47
 70
     1
102
RTVSPropertyOp48
 70
     1
102
RTVSPropertyOp49
 70
     1
102
RTVSPropertyOp50
 70
     1
102
RTVSPropertyOp51
 70
     0
102
RTVSPropertyOp52
 70
     0
102
RTVSPropertyOp53
 70
     1
102
RTVSPropertyOp54
 70
     1
102
RTVSPropertyOp55
 70
     1
102
RTVSPropertyOp56
 70
     1
102
RTVSPropertyOp57
 70
     1
102
RTVSPropertyOp58
 70
     1
102
RTVSPropertyOp59
 70
     1
102
RTVSPropertyOp60
 70
     1
102
RTVSPropertyOp61
 70
     1
102
RTVSPropertyOp62
 70
     1
  0
XRECORD
  5
CAD4
102
{ACAD_REACTORS
330
CAD3
102
}
330
CAD3
100
AcDbXrecord
280
     1
102
RTVSPost2010Prop28
280
     0
102
RTVSPost2010PropOp28
 70
     1
102
RTVSPost2010Prop29
280
     1
102
RTVSPost2010PropOp29
 70
     1
102
RTVSPost2010Prop30
280
     1
102
RTVSPost2010PropOp30
 70
     1
102
RTVSPost2010Prop31
280
     0
102
RTVSPost2010PropOp31
 70
     1
102
RTVSPost2010Prop32
280
     0
102
RTVSPost2010PropOp32
 70
     1
102
RTVSPost2010Prop33
280
     0
102
RTVSPost2010PropOp33
 70
     1
102
RTVSPost2010Prop34
280
     0
102
RTVSPost2010PropOp34
 70
     1
102
RTVSPost2010Prop35
280
     0
102
RTVSPost2010PropOp35
 70
     1
102
RTVSPost2010Prop36
280
     0
102
RTVSPost2010PropOp36
 70
     1
102
RTVSPost2010Prop37
 90
       50
102
RTVSPost2010PropOp37
 70
     1
102
RTVSPost2010Prop38
140
0.0
102
RTVSPost2010PropOp38
 70
     1
102
RTVSPost2010Prop39
140
1.0
102
RTVSPost2010PropOp39
 70
     1
102
RTVSPost2010Prop40
 90
        0
102
RTVSPost2010PropOp40
 70
     1
102
RTVSPost2010Prop41ColorIndex
 90
       18
102
RTVSPost2010Prop41ColorRGB
 90
        0
102
RTVSPost2010PropOp41
 70
     1
102
RTVSPost2010Prop42
 90
       50
102
RTVSPost2010PropOp42
 70
     1
102
RTVSPost2010Prop43
 90
        3
102
RTVSPost2010PropOp43
 70
     1
102
RTVSPost2010Prop44ColorIndex
 90
        5
102
RTVSPost2010Prop44ColorRGB
 90
      255
102
RTVSPost2010PropOp44
 70
     1
102
RTVSPost2010Prop45
280
     0
102
RTVSPost2010PropOp45
 70
     1
102
RTVSPost2010Prop46
 90
       50
102
RTVSPost2010PropOp46
 70
     1
102
RTVSPost2010Prop47
 90
       50
102
RTVSPost2010PropOp47
 70
     1
102
RTVSPost2010Prop48
 90
       50
102
RTVSPost2010PropOp48
 70
     1
102
RTVSPost2010Prop49
280
     0
102
RTVSPost2010PropOp49
 70
     1
102
RTVSPost2010Prop50
 90
       50
102
RTVSPost2010PropOp50
 70
     1
102
RTVSPost2010Prop51ColorIndex
 90
      256
102
RTVSPost2010Prop51ColorRGB
 90
-16777216
102
RTVSPost2010PropOp51
 70
     0
102
RTVSPost2010Prop52
140
1.0
102
RTVSPost2010PropOp52
 70
     0
102
RTVSPost2010Prop53
 90
        2
102
RTVSPost2010PropOp53
 70
     1
102
RTVSPost2010Prop54
  1
strokes_ogs.tif
102
RTVSPost2010PropOp54
 70
     1
102
RTVSPost2010Prop55
280
     0
102
RTVSPost2010PropOp55
 70
     1
102
RTVSPost2010Prop56
140
1.0
102
RTVSPost2010PropOp56
 70
     1
102
RTVSPost2010Prop57
140
1.0
102
RTVSPost2010PropOp57
 70
     1
102
RTVSPropertyOp0
 70
     1
102
RTVSPropertyOp1
 70
     1
102
RTVSPropertyOp2
 70
     1
102
RTVSPropertyOp3
 70
     1
102
RTVSPropertyOp4
 70
     1
102
RTVSPropertyOp5
 70
     1
102
RTVSPropertyOp6
 70
     1
102
RTVSPropertyOp7
 70
     1
102
RTVSPropertyOp8
 70
     1
102
RTVSPropertyOp9
 70
     1
102
RTVSPropertyOp10
 70
     1
102
RTVSPropertyOp11
 70
     1
102
RTVSPropertyOp12
 70
     1
102
RTVSPropertyOp13
 70
     1
102
RTVSPropertyOp14
 70
     1
102
RTVSPropertyOp15
 70
     1
102
RTVSPropertyOp16
 70
     1
102
RTVSPropertyOp17
 70
     1
102
RTVSPropertyOp18
 70
     1
102
RTVSPropertyOp19
 70
     1
102
RTVSPropertyOp20
 70
     1
102
RTVSPropertyOp21
 70
     1
102
RTVSPropertyOp22
 70
     1
102
RTVSPropertyOp23
 70
     1
102
RTVSPropertyOp24
 70
     1
102
RTVSPropertyOp25
 70
     1
102
RTVSPropertyOp26
 70
     1
102
RTVSPropertyOp27
 70
     1
102
RTVSPropertyOp28
 70
     1
102
RTVSPropertyOp29
 70
     1
102
RTVSPropertyOp30
 70
     1
102
RTVSPropertyOp31
 70
     1
102
RTVSPropertyOp32
 70
     1
102
RTVSPropertyOp33
 70
     1
102
RTVSPropertyOp34
 70
     1
102
RTVSPropertyOp35
 70
     1
102
RTVSPropertyOp36
 70
     1
102
RTVSPropertyOp37
 70
     1
102
RTVSPropertyOp38
 70
     1
102
RTVSPropertyOp39
 70
     1
102
RTVSPropertyOp40
 70
     1
102
RTVSPropertyOp41
 70
     1
102
RTVSPropertyOp42
 70
     1
102
RTVSPropertyOp43
 70
     1
102
RTVSPropertyOp44
 70
     1
102
RTVSPropertyOp45
 70
     1
102
RTVSPropertyOp46
 70
     1
102
RTVSPropertyOp47
 70
     1
102
RTVSPropertyOp48
 70
     1
102
RTVSPropertyOp49
 70
     1
102
RTVSPropertyOp50
 70
     1
102
RTVSPropertyOp51
 70
     0
102
RTVSPropertyOp52
 70
     0
102
RTVSPropertyOp53
 70
     1
102
RTVSPropertyOp54
 70
     1
102
RTVSPropertyOp55
 70
     1
102
RTVSPropertyOp56
 70
     1
102
RTVSPropertyOp57
 70
     1
102
RTVSPropertyOp58
 70
     1
102
RTVSPropertyOp59
 70
     1
102
RTVSPropertyOp60
 70
     1
102
RTVSPropertyOp61
 70
     1
102
RTVSPropertyOp62
 70
     1
  0
ENDSEC
  0
EOF
