  0
SECTION
  2
HEADER
  9
$ACADVER
  1
AC1015
  9
$ACADMAINTVER
 70
    20
  9
$DWGCODEPAGE
  3
ANSI_932
  9
$INSBASE
 10
0.0
 20
0.0
 30
0.0
  9
$EXTMIN
 10
10.0
 20
9.999999999999998
 30
0.0
  9
$EXTMAX
 10
213.595952
 20
197.4530999999998
 30
0.0
  9
$LIMMIN
 10
0.0
 20
0.0
  9
$LIMMAX
 10
396.0
 20
273.0
  9
$ORTHOMODE
 70
     1
  9
$REGENMODE
 70
     1
  9
$FILLMODE
 70
     1
  9
$QTEXTMODE
 70
     0
  9
$MIRRTEXT
 70
     1
  9
$LTSCALE
 40
20.0
  9
$ATTMODE
 70
     1
  9
$TEXTSIZE
 40
5.0
  9
$TRACEWID
 40
1.0
  9
$TEXTSTYLE
  7
STANDARD
  9
$CLAYER
  8
0
  9
$CELTYPE
  6
BYLAYER
  9
$CECOLOR
 62
   256
  9
$CELTSCALE
 40
1.0
  9
$DISPSILH
 70
     0
  9
$DIMSCALE
 40
1.0
  9
$DIMASZ
 40
2.5
  9
$DIMEXO
 40
1.0
  9
$DIMDLI
 40
10.0
  9
$DIMRND
 40
0.0
  9
$DIMDLE
 40
0.0
  9
$DIMEXE
 40
1.0
  9
$DIMTP
 40
0.0
  9
$DIMTM
 40
0.0
  9
$DIMTXT
 40
3.2
  9
$DIMCEN
 40
0.0
  9
$DIMTSZ
 40
0.0
  9
$DIMTOL
 70
     0
  9
$DIMLIM
 70
     0
  9
$DIMTIH
 70
     0
  9
$DIMTOH
 70
     0
  9
$DIMSE1
 70
     0
  9
$DIMSE2
 70
     0
  9
$DIMTAD
 70
     3
  9
$DIMZIN
 70
     8
  9
$DIMBLK
  1

  9
$DIMASO
 70
     1
  9
$DIMSHO
 70
     1
  9
$DIMPOST
  1

  9
$DIMAPOST
  1

  9
$DIMALT
 70
     0
  9
$DIMALTD
 70
     2
  9
$DIMALTF
 40
25.4
  9
$DIMLFAC
 40
1.0
  9
$DIMTOFL
 70
     1
  9
$DIMTVP
 40
0.0
  9
$DIMTIX
 70
     0
  9
$DIMSOXD
 70
     0
  9
$DIMSAH
 70
     1
  9
$DIMBLK1
  1

  9
$DIMBLK2
  1

  9
$DIMSTYLE
  2
STANDARD
  9
$DIMCLRD
 70
     0
  9
$DIMCLRE
 70
     0
  9
$DIMCLRT
 70
     0
  9
$DIMTFAC
 40
1.0
  9
$DIMGAP
 40
1.0
  9
$DIMJUST
 70
     0
  9
$DIMSD1
 70
     0
  9
$DIMSD2
 70
     0
  9
$DIMTOLJ
 70
     1
  9
$DIMTZIN
 70
     0
  9
$DIMALTZ
 70
     0
  9
$DIMALTTZ
 70
     0
  9
$DIMUPT
 70
     0
  9
$DIMDEC
 70
     4
  9
$DIMTDEC
 70
     4
  9
$DIMALTU
 70
     2
  9
$DIMALTTD
 70
     2
  9
$DIMTXSTY
  7
STANDARD
  9
$DIMAUNIT
 70
     0
  9
$DIMADEC
 70
     0
  9
$DIMALTRND
 40
0.0
  9
$DIMAZIN
 70
     0
  9
$DIMDSEP
 70
    46
  9
$DIMATFIT
 70
     3
  9
$DIMFRAC
 70
     0
  9
$DIMLDRBLK
  1

  9
$DIMLUNIT
 70
     2
  9
$DIMLWD
 70
    -2
  9
$DIMLWE
 70
    -2
  9
$DIMTMOVE
 70
     0
  9
$LUNITS
 70
     2
  9
$LUPREC
 70
     4
  9
$SKETCHINC
 40
1.0
  9
$FILLETRAD
 40
1.0
  9
$AUNITS
 70
     0
  9
$AUPREC
 70
     2
  9
$MENU
  1
.
  9
$ELEVATION
 40
0.0
  9
$PELEVATION
 40
0.0
  9
$THICKNESS
 40
0.0
  9
$LIMCHECK
 70
     0
  9
$CHAMFERA
 40
10.0
  9
$CHAMFERB
 40
10.0
  9
$CHAMFERC
 40
0.0
  9
$CHAMFERD
 40
0.0
  9
$SKPOLY
 70
     0
  9
$TDCREATE
 40
2451296.794200926
  9
$TDUCREATE
 40
2451296.419200926
  9
$TDUPDATE
 40
2457192.658251944
  9
$TDUUPDATE
 40
2457192.283251945
  9
$TDINDWG
 40
0.0000110532
  9
$TDUSRTIMER
 40
0.0000105787
  9
$USRTIMER
 70
     1
  9
$ANGBASE
 50
0.0
  9
$ANGDIR
 70
     0
  9
$PDMODE
 70
     0
  9
$PDSIZE
 40
0.0
  9
$PLINEWID
 40
0.0
  9
$SPLFRAME
 70
     0
  9
$SPLINETYPE
 70
     6
  9
$SPLINESEGS
 70
     8
  9
$HANDSEED
  5
B5EF
  9
$SURFTAB1
 70
     6
  9
$SURFTAB2
 70
     6
  9
$SURFTYPE
 70
     6
  9
$SURFU
 70
     6
  9
$SURFV
 70
     6
  9
$UCSBASE
  2

  9
$UCSNAME
  2

  9
$UCSORG
 10
0.0
 20
0.0
 30
0.0
  9
$UCSXDIR
 10
1.0
 20
0.0
 30
0.0
  9
$UCSYDIR
 10
0.0
 20
1.0
 30
0.0
  9
$UCSORTHOREF
  2

  9
$UCSORTHOVIEW
 70
     0
  9
$UCSORGTOP
 10
0.0
 20
0.0
 30
0.0
  9
$UCSORGBOTTOM
 10
0.0
 20
0.0
 30
0.0
  9
$UCSORGLEFT
 10
0.0
 20
0.0
 30
0.0
  9
$UCSORGRIGHT
 10
0.0
 20
0.0
 30
0.0
  9
$UCSORGFRONT
 10
0.0
 20
0.0
 30
0.0
  9
$UCSORGBACK
 10
0.0
 20
0.0
 30
0.0
  9
$PUCSBASE
  2

  9
$PUCSNAME
  2

  9
$PUCSORG
 10
0.0
 20
0.0
 30
0.0
  9
$PUCSXDIR
 10
1.0
 20
0.0
 30
0.0
  9
$PUCSYDIR
 10
0.0
 20
1.0
 30
0.0
  9
$PUCSORTHOREF
  2

  9
$PUCSORTHOVIEW
 70
     0
  9
$PUCSORGTOP
 10
0.0
 20
0.0
 30
0.0
  9
$PUCSORGBOTTOM
 10
0.0
 20
0.0
 30
0.0
  9
$PUCSORGLEFT
 10
0.0
 20
0.0
 30
0.0
  9
$PUCSORGRIGHT
 10
0.0
 20
0.0
 30
0.0
  9
$PUCSORGFRONT
 10
0.0
 20
0.0
 30
0.0
  9
$PUCSORGBACK
 10
0.0
 20
0.0
 30
0.0
  9
$USERI1
 70
     0
  9
$USERI2
 70
     0
  9
$USERI3
 70
     0
  9
$USERI4
 70
     0
  9
$USERI5
 70
     0
  9
$USERR1
 40
0.0
  9
$USERR2
 40
0.0
  9
$USERR3
 40
0.0
  9
$USERR4
 40
0.0
  9
$USERR5
 40
0.0
  9
$WORLDVIEW
 70
     1
  9
$SHADEDGE
 70
     3
  9
$SHADEDIF
 70
    70
  9
$TILEMODE
 70
     1
  9
$MAXACTVP
 70
    16
  9
$PINSBASE
 10
0.0
 20
0.0
 30
0.0
  9
$PLIMCHECK
 70
     0
  9
$PEXTMIN
 10
1.000000000000000E+20
 20
1.000000000000000E+20
 30
1.000000000000000E+20
  9
$PEXTMAX
 10
-1.000000000000000E+20
 20
-1.000000000000000E+20
 30
-1.000000000000000E+20
  9
$PLIMMIN
 10
0.0
 20
0.0
  9
$PLIMMAX
 10
420.0
 20
297.0
  9
$UNITMODE
 70
     0
  9
$VISRETAIN
 70
     0
  9
$PLINEGEN
 70
     0
  9
$PSLTSCALE
 70
     0
  9
$TREEDEPTH
 70
  3020
  9
$CMLSTYLE
  2
STANDARD
  9
$CMLJUST
 70
     0
  9
$CMLSCALE
 40
1.0
  9
$PROXYGRAPHICS
 70
     1
  9
$MEASUREMENT
 70
     0
  9
$CELWEIGHT
370
    -1
  9
$ENDCAPS
280
     0
  9
$JOINSTYLE
280
     0
  9
$LWDISPLAY
290
     0
  9
$INSUNITS
 70
     0
  9
$HYPERLINKBASE
  1

  9
$STYLESHEET
  1

  9
$XEDIT
290
     1
  9
$CEPSNTYPE
380
     0
  9
$PSTYLEMODE
290
     1
  9
$FINGERPRINTGUID
  2
{05C89C70-0027-43D8-9093-89ABE9CC86CA}
  9
$VERSIONGUID
  2
{B8A15D20-3354-4B52-BC33-005320E38DE5}
  9
$EXTNAMES
290
     1
  9
$PSVPSCALE
 40
0.0
  9
$OLESTARTUP
290
     0
  0
ENDSEC
  0
SECTION
  2
CLASSES
  0
CLASS
  1
ACDBDICTIONARYWDFLT
  2
AcDbDictionaryWithDefault
  3
ObjectDBX Classes
 90
        0
280
     0
281
     0
  0
CLASS
  1
ACDBPLACEHOLDER
  2
AcDbPlaceHolder
  3
ObjectDBX Classes
 90
        0
280
     0
281
     0
  0
CLASS
  1
LAYOUT
  2
AcDbLayout
  3
ObjectDBX Classes
 90
        0
280
     0
281
     0
  0
CLASS
  1
DICTIONARYVAR
  2
AcDbDictionaryVar
  3
ObjectDBX Classes
 90
        0
280
     0
281
     0
  0
CLASS
  1
MATERIAL
  2
AcDbMaterial
  3
ObjectDBX Classes
 90
     1153
280
     0
281
     0
  0
CLASS
  1
VISUALSTYLE
  2
AcDbVisualStyle
  3
ObjectDBX Classes
 90
     4095
280
     0
281
     0
  0
CLASS
  1
TABLESTYLE
  2
AcDbTableStyle
  3
ObjectDBX Classes
 90
     4095
280
     0
281
     0
  0
CLASS
  1
SCALE
  2
AcDbScale
  3
ObjectDBX Classes
 90
     1153
280
     0
281
     0
  0
CLASS
  1
MLEADERSTYLE
  2
AcDbMLeaderStyle
  3
ACDB_MLEADERSTYLE_CLASS
 90
     4095
280
     0
281
     0
  0
CLASS
  1
ACDBSECTIONVIEWSTYLE
  2
AcDbSectionViewStyle
  3
ObjectDBX Classes
 90
     1025
280
     0
281
     0
  0
CLASS
  1
ACDBDETAILVIEWSTYLE
  2
AcDbDetailViewStyle
  3
ObjectDBX Classes
 90
     1025
280
     0
281
     0
  0
CLASS
  1
CELLSTYLEMAP
  2
AcDbCellStyleMap
  3
ObjectDBX Classes
 90
     1152
280
     0
281
     0
  0
ENDSEC
  0
SECTION
  2
TABLES
  0
TABLE
  2
VPORT
  5
B305
330
0
100
AcDbSymbolTable
 70
     1
  0
VPORT
  5
B538
330
B305
100
AcDbSymbolTableRecord
100
AcDbViewportTableRecord
  2
*ACTIVE
 70
     0
 10
0.0
 20
0.0
 11
1.0
 21
1.0
 12
168.586827281082
 22
103.7267538323378
 13
0.0
 23
0.0
 14
10.0
 24
10.0
 15
10.0
 25
10.0
 16
0.0
 26
0.0
 36
1.0
 17
0.0
 27
0.0
 37
0.0
 40
189.571851064192
 41
1.899603698811096
 42
50.0
 43
0.0
 44
0.0
 50
0.0
 51
0.0
 71
     0
 72
   100
 73
     1
 74
     0
 75
     0
 76
     0
 77
     0
 78
     0
281
     0
 65
     1
110
0.0
120
0.0
130
0.0
111
1.0
121
0.0
131
0.0
112
0.0
122
1.0
132
0.0
 79
     0
146
0.0
1001
ACAD_NAV_VCDISPLAY
1070
     3
  0
ENDTAB
  0
TABLE
  2
LTYPE
  5
B302
330
0
100
AcDbSymbolTable
 70
     4
  0
LTYPE
  5
B310
330
B302
100
AcDbSymbolTableRecord
100
AcDbLinetypeTableRecord
  2
BYBLOCK
 70
     0
  3

 72
    65
 73
     0
 40
0.0
  0
LTYPE
  5
B311
330
B302
100
AcDbSymbolTableRecord
100
AcDbLinetypeTableRecord
  2
BYLAYER
 70
     0
  3

 72
    65
 73
     0
 40
0.0
  0
LTYPE
  5
B312
330
B302
100
AcDbSymbolTableRecord
100
AcDbLinetypeTableRecord
  2
CONTINUOUS
 70
     0
  3
Solid line
 72
    65
 73
     0
 40
0.0
  0
LTYPE
  5
B320
330
B302
100
AcDbSymbolTableRecord
100
AcDbLinetypeTableRecord
  2
DASHED
 70
     0
  3
__ __ __ __ __ __ __ __ __ __ __ __ __ __ __ __
 72
    65
 73
     2
 40
0.75
 49
0.5
 74
     0
 49
-0.25
 74
     0
  0
LTYPE
  5
B321
330
B302
100
AcDbSymbolTableRecord
100
AcDbLinetypeTableRecord
  2
CENTER
 70
     0
  3
____ _ ____ _ ____ _ ____ _ ____ _ ____ _ ____ 
 72
    65
 73
     4
 40
2.0
 49
1.25
 74
     0
 49
-0.25
 74
     0
 49
0.25
 74
     0
 49
-0.25
 74
     0
  0
LTYPE
  5
B322
330
B302
100
AcDbSymbolTableRecord
100
AcDbLinetypeTableRecord
  2
PHANTOM
 70
     0
  3
______  __  __  ______  __  __  ______  __  __ 
 72
    65
 73
     6
 40
2.5
 49
1.25
 74
     0
 49
-0.25
 74
     0
 49
0.25
 74
     0
 49
-0.25
 74
     0
 49
0.25
 74
     0
 49
-0.25
 74
     0
  0
ENDTAB
  0
TABLE
  2
LAYER
  5
B2FF
330
0
100
AcDbSymbolTable
 70
     8
  0
LAYER
  5
B30D
102
{ACAD_XDICTIONARY
360
B593
102
}
330
B2FF
100
AcDbSymbolTableRecord
100
AcDbLayerTableRecord
  2
0
 70
     0
 62
     7
  6
CONTINUOUS
370
    -3
390
B541
  0
LAYER
  5
B323
102
{ACAD_XDICTIONARY
360
B595
102
}
330
B2FF
100
AcDbSymbolTableRecord
100
AcDbLayerTableRecord
  2
4
 70
     0
 62
     1
  6
CENTER
370
    -3
390
B541
  0
LAYER
  5
B324
102
{ACAD_XDICTIONARY
360
B597
102
}
330
B2FF
100
AcDbSymbolTableRecord
100
AcDbLayerTableRecord
  2
5
 70
     0
 62
     6
  6
PHANTOM
370
    -3
390
B541
  0
LAYER
  5
B325
102
{ACAD_XDICTIONARY
360
B599
102
}
330
B2FF
100
AcDbSymbolTableRecord
100
AcDbLayerTableRecord
  2
1
 70
     0
 62
     7
  6
CONTINUOUS
370
    -3
390
B541
  0
LAYER
  5
B326
102
{ACAD_XDICTIONARY
360
B59B
102
}
330
B2FF
100
AcDbSymbolTableRecord
100
AcDbLayerTableRecord
  2
2
 70
     0
 62
     4
  6
CONTINUOUS
370
    -3
390
B541
  0
LAYER
  5
B327
102
{ACAD_XDICTIONARY
360
B59D
102
}
330
B2FF
100
AcDbSymbolTableRecord
100
AcDbLayerTableRecord
  2
3
 70
     0
 62
     2
  6
DASHED
370
    -3
390
B541
  0
LAYER
  5
B328
102
{ACAD_XDICTIONARY
360
B59F
102
}
330
B2FF
100
AcDbSymbolTableRecord
100
AcDbLayerTableRecord
  2
6
 70
     0
 62
     5
  6
CONTINUOUS
370
    -3
390
B541
  0
LAYER
  5
B329
102
{ACAD_XDICTIONARY
360
B5A1
102
}
330
B2FF
100
AcDbSymbolTableRecord
100
AcDbLayerTableRecord
  2
7
 70
     0
 62
     3
  6
CONTINUOUS
370
    -3
390
B541
  0
ENDTAB
  0
TABLE
  2
STYLE
  5
B300
330
0
100
AcDbSymbolTable
 70
     1
  0
STYLE
  5
B30E
330
B300
100
AcDbSymbolTableRecord
100
AcDbTextStyleTableRecord
  2
STANDARD
 70
     0
 40
0.0
 41
1.0
 50
0.0
 71
     0
 42
5.0
  3
txt
  4

  0
ENDTAB
  0
TABLE
  2
VIEW
  5
B303
330
0
100
AcDbSymbolTable
 70
     1
  0
VIEW
  5
B32A
330
B303
100
AcDbSymbolTableRecord
100
AcDbViewTableRecord
  2
7
 70
     0
 40
228.341822
 10
219.9563869999999
 20
114.170911
 41
439.9127749999998
 11
0.0
 21
0.0
 31
1.0
 12
0.0
 22
0.0
 32
0.0
 42
50.0
 43
0.0
 44
0.0
 50
0.0
 71
     0
281
     0
 72
     0
  0
ENDTAB
  0
TABLE
  2
UCS
  5
B304
330
0
100
AcDbSymbolTable
 70
     0
  0
ENDTAB
  0
TABLE
  2
APPID
  5
B306
330
0
100
AcDbSymbolTable
 70
     3
  0
APPID
  5
B30F
330
B306
100
AcDbSymbolTableRecord
100
AcDbRegAppTableRecord
  2
ACAD
 70
     0
  0
APPID
  5
B5AD
330
B306
100
AcDbSymbolTableRecord
100
AcDbRegAppTableRecord
  2
ACAD_NAV_VCDISPLAY
 70
     0
  0
APPID
  5
B5E6
330
B306
100
AcDbSymbolTableRecord
100
AcDbRegAppTableRecord
  2
ACAD_MLEADERVER
 70
     0
  0
ENDTAB
  0
TABLE
  2
DIMSTYLE
  5
B307
330
0
100
AcDbSymbolTable
 70
     1
100
AcDbDimStyleTable
 71
     0
  0
DIMSTYLE
105
B32C
330
B307
100
AcDbSymbolTableRecord
100
AcDbDimStyleTableRecord
  2
STANDARD
 70
     0
 41
2.5
 42
1.0
 43
10.0
 44
1.0
 73
     0
 74
     0
 77
     3
 78
     8
140
3.2
141
0.0
147
1.0
172
     1
173
     1
284
     8
285
     8
286
     8
340
B30E
  0
ENDTAB
  0
TABLE
  2
BLOCK_RECORD
  5
B2FE
330
0
100
AcDbSymbolTable
 70
     0
  0
BLOCK_RECORD
  5
B31B
102
{ACAD_XDICTIONARY
360
B53B
102
}
330
B2FE
100
AcDbSymbolTableRecord
100
AcDbBlockTableRecord
  2
*MODEL_SPACE
340
B58F
  0
BLOCK_RECORD
  5
B317
102
{ACAD_XDICTIONARY
360
B539
102
}
330
B2FE
100
AcDbSymbolTableRecord
100
AcDbBlockTableRecord
  2
*PAPER_SPACE
340
B590
  0
ENDTAB
  0
ENDSEC
  0
SECTION
  2
BLOCKS
  0
BLOCK
  5
B31C
330
B31B
100
AcDbEntity
  8
0
100
AcDbBlockBegin
  2
*MODEL_SPACE
 70
     0
 10
0.0
 20
0.0
 30
0.0
  3
*MODEL_SPACE
  1

  0
ENDBLK
  5
B31D
330
B31B
100
AcDbEntity
  8
0
100
AcDbBlockEnd
  0
BLOCK
  5
B318
330
B317
100
AcDbEntity
 67
     1
  8
0
100
AcDbBlockBegin
  2
*PAPER_SPACE
 70
     0
 10
0.0
 20
0.0
 30
0.0
  3
*PAPER_SPACE
  1

  0
ENDBLK
  5
B319
330
B317
100
AcDbEntity
 67
     1
  8
0
100
AcDbBlockEnd
  0
ENDSEC
  0
SECTION
  2
ENTITIES
  0
TEXT
  5
B334
330
B31B
100
AcDbEntity
  8
7
  6
Continuous
100
AcDbText
 10
10.0
 20
18.0
 30
0.0
 40
3.0
  1
TYPE No.TM-144SS-32
100
AcDbText
  0
TEXT
  5
B335
330
B31B
100
AcDbEntity
  8
7
  6
Continuous
100
AcDbText
 10
10.0
 20
26.0
 30
0.0
 40
3.0
  1
CODE No.5733
100
AcDbText
  0
TEXT
  5
B336
330
B31B
100
AcDbEntity
  8
1
  6
Continuous
100
AcDbText
 10
10.0
 20
10.0
 30
0.0
 40
1.399999999999999
  1
LAYER
100
AcDbText
  0
TEXT
  5
B337
330
B31B
100
AcDbEntity
  8
1
  6
Continuous
100
AcDbText
 10
17.97951099999998
 20
10.04873699999998
 30
0.0
 40
1.399999999999999
  1
1
100
AcDbText
  0
TEXT
  5
B338
330
B31B
100
AcDbEntity
  8
7
  6
Continuous
100
AcDbText
 10
29.97951099999999
 20
10.04873699999998
 30
0.0
 40
1.399999999999999
  1
7
100
AcDbText
  0
TEXT
  5
B339
330
B31B
100
AcDbEntity
  8
4
  6
CENTER
100
AcDbText
 10
23.97951099999999
 20
10.04873699999998
 30
0.0
 40
1.399999999999999
  1
4
100
AcDbText
  0
TEXT
  5
B33A
330
B31B
100
AcDbEntity
  8
3
  6
DASHED
100
AcDbText
 10
21.979511
 20
10.04873699999998
 30
0.0
 40
1.399999999999999
  1
3
100
AcDbText
  0
TEXT
  5
B33B
330
B31B
100
AcDbEntity
  8
2
  6
Continuous
100
AcDbText
 10
19.97951099999999
 20
10.04873699999998
 30
0.0
 40
1.399999999999999
  1
2
100
AcDbText
  0
TEXT
  5
B33C
330
B31B
100
AcDbEntity
  8
6
  6
Continuous
100
AcDbText
 10
27.979511
 20
10.04873699999998
 30
0.0
 40
1.399999999999999
  1
6
100
AcDbText
  0
TEXT
  5
B33D
330
B31B
100
AcDbEntity
  8
5
  6
PHANTOM
100
AcDbText
 10
25.97951099999999
 20
10.04873699999998
 30
0.0
 40
1.399999999999999
  1
5
100
AcDbText
  0
LINE
  5
B33E
330
B31B
100
AcDbEntity
  8
1
  6
Continuous
100
AcDbLine
 10
111.845952
 20
126.9531
 30
0.0
 11
122.345952
 21
126.9531
 31
0.0
  0
LINE
  5
B33F
330
B31B
100
AcDbEntity
  8
1
  6
Continuous
100
AcDbLine
 10
134.345952
 20
128.0841
 30
0.0
 11
134.345952
 21
131.9031
 31
0.0
  0
LINE
  5
B340
330
B31B
100
AcDbEntity
  8
1
  6
Continuous
100
AcDbLine
 10
130.345952
 20
127.4531
 30
0.0
 11
130.345952
 21
137.9531
 31
0.0
  0
LINE
  5
B341
330
B31B
100
AcDbEntity
  8
1
  6
Continuous
100
AcDbLine
 10
126.345952
 20
127.9531
 30
0.0
 11
126.345952
 21
137.4531
 31
0.0
  0
LINE
  5
B342
330
B31B
100
AcDbEntity
  8
1
  6
Continuous
100
AcDbLine
 10
107.845952
 20
129.9530999999998
 30
0.0
 11
107.845952
 21
137.4531
 31
0.0
  0
LINE
  5
B343
330
B31B
100
AcDbEntity
  8
1
  6
Continuous
100
AcDbLine
 10
105.8459519999999
 20
129.9511
 30
0.0
 11
105.8459519999999
 21
135.9510999999999
 31
0.0
  0
LINE
  5
B344
330
B31B
100
AcDbEntity
  8
4
  6
CENTER
100
AcDbLine
 10
117.095952
 20
91.500017
 30
0.0
 11
117.095952
 21
141.9531
 31
0.0
  0
LINE
  5
B345
330
B31B
100
AcDbEntity
  8
1
  6
Continuous
100
AcDbLine
 10
109.3459519999999
 20
138.9531
 30
0.0
 11
124.8459519999999
 21
138.9531
 31
0.0
  0
LINE
  5
B346
330
B31B
100
AcDbEntity
  8
1
  6
Continuous
100
AcDbLine
 10
111.595952
 20
178.9531
 30
0.0
 11
122.5959519999999
 21
178.9531
 31
0.0
  0
LINE
  5
B347
330
B31B
100
AcDbEntity
  8
1
  6
Continuous
100
AcDbLine
 10
111.595952
 20
194.4530999999998
 30
0.0
 11
122.5959519999999
 21
194.4530999999998
 31
0.0
  0
LINE
  5
B348
330
B31B
100
AcDbEntity
  8
4
  6
CENTER
100
AcDbLine
 10
95.495952
 20
186.7031
 30
0.0
 11
139.345952
 21
186.7031
 31
0.0
  0
LINE
  5
B349
330
B31B
100
AcDbEntity
  8
4
  6
CENTER
100
AcDbLine
 10
202.095952
 20
91.500017
 30
0.0
 11
202.095952
 21
141.953138
 31
0.0
  0
LINE
  5
B34A
330
B31B
100
AcDbEntity
  8
1
  6
Continuous
100
AcDbLine
 10
134.345952
 20
182.7031
 30
0.0
 11
134.345952
 21
190.7031
 31
0.0
  0
LINE
  5
B34B
330
B31B
100
AcDbEntity
  8
1
  6
Continuous
100
AcDbLine
 10
130.345952
 20
181.4531
 30
0.0
 11
130.345952
 21
191.9531
 31
0.0
  0
LINE
  5
B34C
330
B31B
100
AcDbEntity
  8
1
  6
Continuous
100
AcDbLine
 10
126.345952
 20
181.4531
 30
0.0
 11
126.345952
 21
191.9531
 31
0.0
  0
LINE
  5
B34D
330
B31B
100
AcDbEntity
  8
4
  6
CENTER
100
AcDbLine
 10
117.095952
 20
175.9531
 30
0.0
 11
117.095952
 21
197.4530999999998
 31
0.0
  0
LINE
  5
B34E
330
B31B
100
AcDbEntity
  8
1
  6
Continuous
100
AcDbLine
 10
107.845952
 20
181.4531
 30
0.0
 11
107.845952
 21
191.9531
 31
0.0
  0
LINE
  5
B34F
330
B31B
100
AcDbEntity
  8
1
  6
Continuous
100
AcDbLine
 10
105.8459519999999
 20
183.7030999999998
 30
0.0
 11
105.8459519999999
 21
189.7031
 31
0.0
  0
LINE
  5
B350
330
B31B
100
AcDbEntity
  8
1
  6
Continuous
100
AcDbLine
 10
105.8459519999999
 20
129.9530999999998
 30
0.0
 11
111.595952
 21
129.9530999999998
 31
0.0
  0
LINE
  5
B351
330
B31B
100
AcDbEntity
  8
1
  6
Continuous
100
AcDbLine
 10
105.8459519999999
 20
135.9531
 30
0.0
 11
107.845952
 21
135.9531
 31
0.0
  0
ARC
  5
B352
330
B31B
100
AcDbEntity
  8
1
  6
Continuous
100
AcDbCircle
 10
109.3459519999999
 20
137.4531
 30
0.0
 40
1.5
100
AcDbArc
 50
90.0
 51
180.0
  0
ARC
  5
B353
330
B31B
100
AcDbEntity
  8
1
  6
Continuous
100
AcDbCircle
 10
124.8459519999999
 20
137.4531
 30
0.0
 40
1.5
100
AcDbArc
 50
0.0
 51
90.0
  0
ARC
  5
B354
330
B31B
100
AcDbEntity
  8
1
  6
Continuous
100
AcDbCircle
 10
117.095952
 20
126.758656
 30
0.0
 40
7.694443999999997
100
AcDbArc
 50
24.52954699999999
 51
155.4704529999999
  0
LINE
  5
B355
330
B31B
100
AcDbEntity
  8
1
  6
Continuous
100
AcDbLine
 10
122.5959519999999
 20
129.9530999999998
 30
0.0
 11
122.345952
 21
126.9531
 31
0.0
  0
LINE
  5
B356
330
B31B
100
AcDbEntity
  8
1
  6
Continuous
100
AcDbLine
 10
111.595952
 20
129.9530999999998
 30
0.0
 11
111.845952
 21
126.9531
 31
0.0
  0
ARC
  5
B357
330
B31B
100
AcDbEntity
  8
1
  6
Continuous
100
AcDbCircle
 10
117.095952
 20
125.9513139999999
 30
0.0
 40
6.801785999999997
100
AcDbArc
 50
36.039539
 51
143.960461
  0
LINE
  5
B358
330
B31B
100
AcDbEntity
  8
1
  6
Continuous
100
AcDbLine
 10
122.5959519999999
 20
129.9530999999998
 30
0.0
 11
126.345952
 21
129.9530999999998
 31
0.0
  0
LINE
  5
B359
330
B31B
100
AcDbEntity
  8
1
  6
Continuous
100
AcDbLine
 10
126.345952
 20
137.4531
 30
0.0
 11
130.345952
 21
137.9531
 31
0.0
  0
LINE
  5
B35A
330
B31B
100
AcDbEntity
  8
1
  6
Continuous
100
AcDbLine
 10
126.345952
 20
127.9531
 30
0.0
 11
130.345952
 21
127.4531
 31
0.0
  0
LINE
  5
B35B
330
B31B
100
AcDbEntity
  8
4
  6
CENTER
100
AcDbLine
 10
100.8459519999999
 20
132.7031
 30
0.0
 11
137.345952
 21
132.7031
 31
0.0
  0
LINE
  5
B35C
330
B31B
100
AcDbEntity
  8
1
  6
Continuous
100
AcDbLine
 10
130.345952
 20
137.3221
 30
0.0
 11
134.345952
 21
137.3221
 31
0.0
  0
LINE
  5
B35D
330
B31B
100
AcDbEntity
  8
1
  6
Continuous
100
AcDbLine
 10
130.345952
 20
128.0841
 30
0.0
 11
134.345952
 21
128.0841
 31
0.0
  0
LINE
  5
B35E
330
B31B
100
AcDbEntity
  8
1
  6
Continuous
100
AcDbLine
 10
131.345952
 20
133.5030999999998
 30
0.0
 11
134.345952
 21
133.5030999999998
 31
0.0
  0
LINE
  5
B35F
330
B31B
100
AcDbEntity
  8
1
  6
Continuous
100
AcDbLine
 10
131.345952
 20
131.9031
 30
0.0
 11
134.345952
 21
131.9031
 31
0.0
  0
LINE
  5
B360
330
B31B
100
AcDbEntity
  8
1
  6
Continuous
100
AcDbLine
 10
131.345952
 20
131.9031
 30
0.0
 11
131.345952
 21
133.5030999999998
 31
0.0
  0
LINE
  5
B361
330
B31B
100
AcDbEntity
  8
1
  6
Continuous
100
AcDbLine
 10
134.345952
 20
133.5030999999998
 30
0.0
 11
134.345952
 21
137.3221
 31
0.0
  0
LINE
  5
B362
330
B31B
100
AcDbEntity
  8
1
  6
Continuous
100
AcDbLine
 10
130.345952
 20
135.0125999999999
 30
0.0
 11
132.845952
 21
135.0125999999999
 31
0.0
  0
LINE
  5
B363
330
B31B
100
AcDbEntity
  8
1
  6
Continuous
100
AcDbLine
 10
130.345952
 20
130.3935999999999
 30
0.0
 11
132.845952
 21
130.3935999999999
 31
0.0
  0
LINE
  5
B364
330
B31B
100
AcDbEntity
  8
1
  6
Continuous
100
AcDbLine
 10
132.845952
 20
135.0125999999999
 30
0.0
 11
134.345952
 21
134.4125999999999
 31
0.0
  0
LINE
  5
B365
330
B31B
100
AcDbEntity
  8
1
  6
Continuous
100
AcDbLine
 10
132.845952
 20
135.0125999999999
 30
0.0
 11
134.345952
 21
135.6125999999999
 31
0.0
  0
LINE
  5
B366
330
B31B
100
AcDbEntity
  8
1
  6
Continuous
100
AcDbLine
 10
132.845952
 20
130.3935999999999
 30
0.0
 11
134.345952
 21
130.9935999999999
 31
0.0
  0
LINE
  5
B367
330
B31B
100
AcDbEntity
  8
1
  6
Continuous
100
AcDbLine
 10
132.845952
 20
130.3935999999999
 30
0.0
 11
134.345952
 21
129.7935999999999
 31
0.0
  0
LINE
  5
B368
330
B31B
100
AcDbEntity
  8
4
  6
CENTER
100
AcDbLine
 10
191.345952
 20
132.7031379999999
 30
0.0
 11
212.845952
 21
132.7031379999999
 31
0.0
  0
ARC
  5
B369
330
B31B
100
AcDbEntity
  8
1
  6
Continuous
100
AcDbCircle
 10
202.095952
 20
132.7031379999999
 30
0.0
 40
3.0
100
AcDbArc
 50
15.46601
 51
164.5339899999999
  0
LINE
  5
B36A
330
B31B
100
AcDbEntity
  8
1
  6
Continuous
100
AcDbLine
 10
198.095952
 20
133.5031379999997
 30
0.0
 11
206.0959519999999
 21
133.5031379999997
 31
0.0
  0
LINE
  5
B36B
330
B31B
100
AcDbEntity
  8
1
  6
Continuous
100
AcDbLine
 10
198.095952
 20
131.9031379999999
 30
0.0
 11
206.0959519999999
 21
131.9031379999999
 31
0.0
  0
ARC
  5
B36C
330
B31B
100
AcDbEntity
  8
1
  6
Continuous
100
AcDbCircle
 10
202.095952
 20
132.7031379999999
 30
0.0
 40
3.0
100
AcDbArc
 50
195.4660099999999
 51
344.53399
  0
CIRCLE
  5
B36D
330
B31B
100
AcDbEntity
  8
1
  6
Continuous
100
AcDbCircle
 10
202.095952
 20
132.7031379999999
 30
0.0
 40
5.25
  0
LINE
  5
B36E
330
B31B
100
AcDbEntity
  8
1
  6
Continuous
100
AcDbLine
 10
208.345952
 20
129.9531379999999
 30
0.0
 11
208.345952
 21
133.453138
 31
0.0
  0
LINE
  5
B36F
330
B31B
100
AcDbEntity
  8
1
  6
Continuous
100
AcDbLine
 10
195.845952
 20
129.9531379999999
 30
0.0
 11
195.845952
 21
133.453138
 31
0.0
  0
LINE
  5
B370
330
B31B
100
AcDbEntity
  8
1
  6
Continuous
100
AcDbLine
 10
195.4909669999999
 20
129.9531379999999
 30
0.0
 11
197.623816
 21
129.9531379999999
 31
0.0
  0
ARC
  5
B371
330
B31B
100
AcDbEntity
  8
1
  6
Continuous
100
AcDbCircle
 10
202.095952
 20
132.652002
 30
0.0
 40
6.301135999999998
100
AcDbArc
 50
7.304446000000001
 51
172.6955539999999
  0
LINE
  5
B372
330
B31B
100
AcDbEntity
  8
1
  6
Continuous
100
AcDbLine
 10
206.568087
 20
129.9531379999999
 30
0.0
 11
208.6872469999999
 21
129.9531379999999
 31
0.0
  0
ARC
  5
B373
330
B31B
100
AcDbEntity
  8
1
  6
Continuous
100
AcDbCircle
 10
195.845952
 20
128.4531379999999
 30
0.0
 40
1.5
100
AcDbArc
 50
180.0
 51
260.405932
  0
ARC
  5
B374
330
B31B
100
AcDbEntity
  8
1
  6
Continuous
100
AcDbCircle
 10
208.345952
 20
128.4531379999999
 30
0.0
 40
1.5
100
AcDbArc
 50
279.594068
 51
355.7894899999998
  0
LINE
  5
B375
330
B31B
100
AcDbEntity
  8
1
  6
Continuous
100
AcDbLine
 10
130.345952
 20
190.7031
 30
0.0
 11
134.345952
 21
190.7031
 31
0.0
  0
LINE
  5
B376
330
B31B
100
AcDbEntity
  8
1
  6
Continuous
100
AcDbLine
 10
130.345952
 20
182.7031
 30
0.0
 11
134.345952
 21
182.7031
 31
0.0
  0
LINE
  5
B377
330
B31B
100
AcDbEntity
  8
1
  6
Continuous
100
AcDbLine
 10
130.345952
 20
191.9531
 30
0.0
 11
126.345952
 21
191.4531
 31
0.0
  0
LINE
  5
B378
330
B31B
100
AcDbEntity
  8
1
  6
Continuous
100
AcDbLine
 10
130.345952
 20
181.4531
 30
0.0
 11
126.345952
 21
181.9530999999998
 31
0.0
  0
LINE
  5
B379
330
B31B
100
AcDbEntity
  8
1
  6
Continuous
100
AcDbLine
 10
108.845952
 20
192.9531
 30
0.0
 11
110.0959519999999
 21
192.9531
 31
0.0
  0
LINE
  5
B37A
330
B31B
100
AcDbEntity
  8
1
  6
Continuous
100
AcDbLine
 10
108.845952
 20
180.4531
 30
0.0
 11
110.0959519999999
 21
180.4531
 31
0.0
  0
LINE
  5
B37B
330
B31B
100
AcDbEntity
  8
1
  6
Continuous
100
AcDbLine
 10
105.8459519999999
 20
189.7031
 30
0.0
 11
107.845952
 21
189.7031
 31
0.0
  0
LINE
  5
B37C
330
B31B
100
AcDbEntity
  8
1
  6
Continuous
100
AcDbLine
 10
105.8459519999999
 20
183.7030999999998
 30
0.0
 11
107.845952
 21
183.7030999999998
 31
0.0
  0
ARC
  5
B37D
330
B31B
100
AcDbEntity
  8
1
  6
Continuous
100
AcDbCircle
 10
108.0959519999999
 20
186.7031
 30
0.0
 40
3.75
100
AcDbArc
 50
126.869898
 51
233.130102
  0
ARC
  5
B37E
330
B31B
100
AcDbEntity
  8
1
  6
Continuous
100
AcDbCircle
 10
125.345952
 20
191.9531
 30
0.0
 40
1.0
100
AcDbArc
 50
0.0
 51
90.0
  0
ARC
  5
B37F
330
B31B
100
AcDbEntity
  8
1
  6
Continuous
100
AcDbCircle
 10
125.345952
 20
181.4531
 30
0.0
 40
1.0
100
AcDbArc
 50
270.0
 51
0.0
  0
ARC
  5
B380
330
B31B
100
AcDbEntity
  8
1
  6
Continuous
100
AcDbCircle
 10
108.845952
 20
181.4531
 30
0.0
 40
1.0
100
AcDbArc
 50
180.0
 51
270.0
  0
ARC
  5
B381
330
B31B
100
AcDbEntity
  8
1
  6
Continuous
100
AcDbCircle
 10
108.845952
 20
191.9531
 30
0.0
 40
1.0
100
AcDbArc
 50
90.0
 51
180.0
  0
ARC
  5
B382
330
B31B
100
AcDbEntity
  8
1
  6
Continuous
100
AcDbCircle
 10
117.095952
 20
211.9280999999999
 30
0.0
 40
20.225
100
AcDbArc
 50
249.750657
 51
290.249343
  0
ARC
  5
B383
330
B31B
100
AcDbEntity
  8
1
  6
Continuous
100
AcDbCircle
 10
117.095952
 20
161.4781
 30
0.0
 40
20.225
100
AcDbArc
 50
69.75065699999999
 51
110.249343
  0
LINE
  5
B384
330
B31B
100
AcDbEntity
  8
1
  6
Continuous
100
AcDbLine
 10
122.5959519999999
 20
194.4530999999998
 30
0.0
 11
124.095952
 21
192.9531
 31
0.0
  0
LINE
  5
B385
330
B31B
100
AcDbEntity
  8
1
  6
Continuous
100
AcDbLine
 10
111.595952
 20
194.4530999999998
 30
0.0
 11
110.0959519999999
 21
192.9531
 31
0.0
  0
LINE
  5
B386
330
B31B
100
AcDbEntity
  8
1
  6
Continuous
100
AcDbLine
 10
110.0959519999999
 20
180.4531
 30
0.0
 11
111.595952
 21
178.9531
 31
0.0
  0
LINE
  5
B387
330
B31B
100
AcDbEntity
  8
1
  6
Continuous
100
AcDbLine
 10
124.095952
 20
180.4531
 30
0.0
 11
122.5959519999999
 21
178.9531
 31
0.0
  0
LINE
  5
B388
330
B31B
100
AcDbEntity
  8
1
  6
Continuous
100
AcDbLine
 10
124.095952
 20
192.9531
 30
0.0
 11
125.345952
 21
192.9531
 31
0.0
  0
LINE
  5
B389
330
B31B
100
AcDbEntity
  8
1
  6
Continuous
100
AcDbLine
 10
124.095952
 20
180.4531
 30
0.0
 11
125.345952
 21
180.4531
 31
0.0
  0
LINE
  5
B38A
330
B31B
100
AcDbEntity
  8
1
  6
Continuous
100
AcDbLine
 10
134.345952
 20
187.3031
 30
0.0
 11
132.845952
 21
186.7031
 31
0.0
  0
LINE
  5
B38B
330
B31B
100
AcDbEntity
  8
1
  6
Continuous
100
AcDbLine
 10
132.845952
 20
186.7031
 30
0.0
 11
134.345952
 21
186.1031
 31
0.0
  0
LINE
  5
B38C
330
B31B
100
AcDbEntity
  8
1
  6
Continuous
100
AcDbLine
 10
132.845952
 20
186.7031
 30
0.0
 11
130.345952
 21
186.7031
 31
0.0
  0
LINE
  5
B38D
330
B31B
100
AcDbEntity
  8
1
  6
Continuous
100
AcDbLine
 10
209.0031649999999
 20
127.8714249999999
 30
0.0
 11
208.595952
 21
127.8531
 31
0.0
  0
LINE
  5
B38E
330
B31B
100
AcDbEntity
  8
1
  6
Continuous
100
AcDbLine
 10
195.166213
 20
127.8724389999998
 30
0.0
 11
195.595952
 21
127.8531
 31
0.0
  0
LINE
  5
B38F
330
B31B
100
AcDbEntity
  8
1
  6
Continuous
100
AcDbLine
 10
100.495952
 20
193.2031
 30
0.0
 11
110.3459519999999
 21
193.2031
 31
0.0
  0
LINE
  5
B390
330
B31B
100
AcDbEntity
  8
1
  6
Continuous
100
AcDbLine
 10
100.495952
 20
180.2031
 30
0.0
 11
110.3459519999999
 21
180.2031
 31
0.0
  0
LINE
  5
B391
330
B31B
100
AcDbEntity
  8
1
  6
Continuous
100
AcDbLine
 10
123.8459519999999
 20
193.2031
 30
0.0
 11
134.2959519999998
 21
193.2031
 31
0.0
  0
LINE
  5
B392
330
B31B
100
AcDbEntity
  8
1
  6
Continuous
100
AcDbLine
 10
123.8459519999999
 20
180.2031
 30
0.0
 11
134.2959519999998
 21
180.2031
 31
0.0
  0
ARC
  5
B393
330
B31B
100
AcDbEntity
  8
1
  6
Continuous
100
AcDbCircle
 10
107.24298
 20
183.8531
 30
0.0
 40
0.3
100
AcDbArc
 50
210.0
 51
330.0
  0
ARC
  5
B394
330
B31B
100
AcDbEntity
  8
1
  6
Continuous
100
AcDbCircle
 10
107.84298
 20
189.5531
 30
0.0
 40
0.3
100
AcDbArc
 50
89.43252800000001
 51
150.0
  0
ARC
  5
B395
330
B31B
100
AcDbEntity
  8
1
  6
Continuous
100
AcDbCircle
 10
108.073285
 20
132.9520999999998
 30
0.0
 40
3.735641
100
AcDbArc
 50
126.600977
 51
233.399023
  0
LINE
  5
B396
330
B31B
100
AcDbEntity
  8
1
  6
Continuous
100
AcDbLine
 10
208.595952
 20
96.500017
 30
0.0
 11
208.595952
 21
128.9545549999999
 31
0.0
  0
LINE
  5
B397
330
B31B
100
AcDbEntity
  8
1
  6
Continuous
100
AcDbLine
 10
195.595952
 20
96.500017
 30
0.0
 11
195.595952
 21
128.9545549999999
 31
0.0
  0
ARC
  5
B398
330
B31B
100
AcDbEntity
  8
1
  6
Continuous
100
AcDbCircle
 10
208.0959519999999
 20
133.2583889999999
 30
0.0
 40
1.0
100
AcDbArc
 50
0.0
 51
84.600387
  0
ARC
  5
B399
330
B31B
100
AcDbEntity
  8
1
  6
Continuous
100
AcDbCircle
 10
196.095952
 20
133.2583889999999
 30
0.0
 40
1.0
100
AcDbArc
 50
95.39961299999999
 51
180.0
  0
LINE
  5
B39A
330
B31B
100
AcDbEntity
  8
1
  6
Continuous
100
AcDbLine
 10
209.095952
 20
133.2583889999999
 30
0.0
 11
209.8419029999998
 21
128.343006
 31
0.0
  0
LINE
  5
B39B
330
B31B
100
AcDbEntity
  8
1
  6
Continuous
100
AcDbLine
 10
195.0959519999999
 20
133.2583889999999
 30
0.0
 11
194.345952
 21
128.4531379999999
 31
0.0
  0
LINE
  5
B39C
330
B31B
100
AcDbEntity
  8
1
  6
Continuous
100
AcDbLine
 10
195.4909669999999
 20
129.9531379999999
 30
0.0
 11
195.166213
 21
127.8724389999998
 31
0.0
  0
LINE
  5
B39D
330
B31B
100
AcDbEntity
  8
1
  6
Continuous
100
AcDbLine
 10
208.6872469999999
 20
129.9531379999999
 30
0.0
 11
209.0031649999999
 21
127.8714249999999
 31
0.0
  0
ARC
  5
B39E
330
B31B
100
AcDbEntity
  8
1
  6
Continuous
100
AcDbCircle
 10
32.75
 20
132.652002
 30
0.0
 40
6.301135999999998
100
AcDbArc
 50
7.304446000000001
 51
172.6955539999999
  0
LINE
  5
B39F
330
B31B
100
AcDbEntity
  8
4
  6
CENTER
100
AcDbLine
 10
32.75
 20
91.500017
 30
0.0
 11
32.75
 21
141.953138
 31
0.0
  0
LINE
  5
B3A0
330
B31B
100
AcDbEntity
  8
1
  6
Continuous
100
AcDbLine
 10
26.25
 20
96.500017
 30
0.0
 11
26.25
 21
129.022382
 31
0.0
  0
LINE
  5
B3A1
330
B31B
100
AcDbEntity
  8
1
  6
Continuous
100
AcDbLine
 10
39.25
 20
96.500017
 30
0.0
 11
39.25
 21
129.022382
 31
0.0
  0
LINE
  5
B3A2
330
B31B
100
AcDbEntity
  8
4
  6
CENTER
100
AcDbLine
 10
22.0
 20
132.7031379999999
 30
0.0
 11
43.5
 21
132.7031379999999
 31
0.0
  0
LINE
  5
B3A3
330
B31B
100
AcDbEntity
  8
1
  6
Continuous
100
AcDbLine
 10
26.145015
 20
129.9531379999999
 30
0.0
 11
25.820261
 21
127.8724389999998
 31
0.0
  0
LINE
  5
B3A4
330
B31B
100
AcDbEntity
  8
1
  6
Continuous
100
AcDbLine
 10
25.75
 20
133.2583889999999
 30
0.0
 11
25.0
 21
128.4531379999999
 31
0.0
  0
ARC
  5
B3A5
330
B31B
100
AcDbEntity
  8
1
  6
Continuous
100
AcDbCircle
 10
26.75
 20
133.2583889999999
 30
0.0
 40
1.0
100
AcDbArc
 50
95.39961299999999
 51
180.0
  0
LINE
  5
B3A6
330
B31B
100
AcDbEntity
  8
1
  6
Continuous
100
AcDbLine
 10
25.820261
 20
127.8724389999998
 30
0.0
 11
26.25
 21
127.8531
 31
0.0
  0
ARC
  5
B3A7
330
B31B
100
AcDbEntity
  8
1
  6
Continuous
100
AcDbCircle
 10
26.5
 20
128.4531379999999
 30
0.0
 40
1.5
100
AcDbArc
 50
180.0
 51
260.405932
  0
LINE
  5
B3A8
330
B31B
100
AcDbEntity
  8
1
  6
Continuous
100
AcDbLine
 10
26.145015
 20
129.9531379999999
 30
0.0
 11
27.833508
 21
129.9531379999999
 31
0.0
  0
LINE
  5
B3A9
330
B31B
100
AcDbEntity
  8
1
  6
Continuous
100
AcDbLine
 10
26.5
 20
129.9531379999999
 30
0.0
 11
26.5
 21
133.453138
 31
0.0
  0
LINE
  5
B3AA
330
B31B
100
AcDbEntity
  8
1
  6
Continuous
100
AcDbLine
 10
39.341295
 20
129.9531379999999
 30
0.0
 11
39.657213
 21
127.8714249999999
 31
0.0
  0
LINE
  5
B3AB
330
B31B
100
AcDbEntity
  8
1
  6
Continuous
100
AcDbLine
 10
39.75
 20
133.2583889999999
 30
0.0
 11
40.495952
 21
128.343006
 31
0.0
  0
ARC
  5
B3AC
330
B31B
100
AcDbEntity
  8
1
  6
Continuous
100
AcDbCircle
 10
38.75
 20
133.2583889999999
 30
0.0
 40
1.0
100
AcDbArc
 50
0.0
 51
84.600387
  0
LINE
  5
B3AD
330
B31B
100
AcDbEntity
  8
1
  6
Continuous
100
AcDbLine
 10
39.657213
 20
127.8714249999999
 30
0.0
 11
39.25
 21
127.8531
 31
0.0
  0
ARC
  5
B3AE
330
B31B
100
AcDbEntity
  8
1
  6
Continuous
100
AcDbCircle
 10
39.0
 20
128.4531379999999
 30
0.0
 40
1.5
100
AcDbArc
 50
279.594068
 51
355.7894899999998
  0
LINE
  5
B3AF
330
B31B
100
AcDbEntity
  8
1
  6
Continuous
100
AcDbLine
 10
37.66649199999999
 20
129.9531379999999
 30
0.0
 11
39.341295
 21
129.9531379999999
 31
0.0
  0
LINE
  5
B3B0
330
B31B
100
AcDbEntity
  8
1
  6
Continuous
100
AcDbLine
 10
39.0
 20
129.9531379999999
 30
0.0
 11
39.0
 21
133.453138
 31
0.0
  0
LINE
  5
B3B1
330
B31B
100
AcDbEntity
  8
4
  6
CENTER
100
AcDbLine
 10
117.095952
 20
38.0
 30
0.0
 11
117.095952
 21
59.5
 31
0.0
  0
LINE
  5
B3B2
330
B31B
100
AcDbEntity
  8
1
  6
Continuous
100
AcDbLine
 10
100.495952
 20
42.25
 30
0.0
 11
134.2959519999998
 21
42.25
 31
0.0
  0
LINE
  5
B3B3
330
B31B
100
AcDbEntity
  8
1
  6
Continuous
100
AcDbLine
 10
111.595952
 20
41.0
 30
0.0
 11
122.5959519999999
 21
41.0
 31
0.0
  0
LINE
  5
B3B4
330
B31B
100
AcDbEntity
  8
1
  6
Continuous
100
AcDbLine
 10
100.495952
 20
55.25
 30
0.0
 11
134.2959519999998
 21
55.25
 31
0.0
  0
LINE
  5
B3B5
330
B31B
100
AcDbEntity
  8
4
  6
CENTER
100
AcDbLine
 10
95.495952
 20
48.75
 30
0.0
 11
139.345952
 21
48.75
 31
0.0
  0
LINE
  5
B3B6
330
B31B
100
AcDbEntity
  8
1
  6
Continuous
100
AcDbLine
 10
111.595952
 20
56.5
 30
0.0
 11
122.5959519999999
 21
56.5
 31
0.0
  0
LINE
  5
B3B7
330
B31B
100
AcDbEntity
  8
1
  6
Continuous
100
AcDbLine
 10
134.345952
 20
44.75
 30
0.0
 11
134.345952
 21
52.75
 31
0.0
  0
LINE
  5
B3B8
330
B31B
100
AcDbEntity
  8
1
  6
Continuous
100
AcDbLine
 10
134.2959519999998
 20
48.17
 30
0.0
 11
134.345952
 21
48.15
 31
0.0
  0
LINE
  5
B3B9
330
B31B
100
AcDbEntity
  8
1
  6
Continuous
100
AcDbLine
 10
134.345952
 20
49.35
 30
0.0
 11
134.2959519999998
 21
49.32999999999999
 31
0.0
  0
LINE
  5
B3BA
330
B31B
100
AcDbEntity
  8
1
  6
Continuous
100
AcDbLine
 10
134.2959519999998
 20
52.75
 30
0.0
 11
134.345952
 21
52.75
 31
0.0
  0
LINE
  5
B3BB
330
B31B
100
AcDbEntity
  8
1
  6
Continuous
100
AcDbLine
 10
134.2959519999998
 20
44.75
 30
0.0
 11
134.345952
 21
44.75
 31
0.0
  0
LINE
  5
B3BC
330
B31B
100
AcDbEntity
  8
1
  6
Continuous
100
AcDbLine
 10
111.8140979999999
 20
127.335342
 30
0.0
 11
108.198765
 21
123.089618
 31
0.0
  0
LINE
  5
B3BD
330
B31B
100
AcDbEntity
  8
1
  6
Continuous
100
AcDbLine
 10
111.74385
 20
128.1783129999998
 30
0.0
 11
107.741945
 21
123.4786099999999
 31
0.0
  0
LINE
  5
B3BE
330
B31B
100
AcDbEntity
  8
1
  6
Continuous
100
AcDbLine
 10
107.741945
 20
123.4786099999999
 30
0.0
 11
108.198765
 21
123.089618
 31
0.0
  0
LINE
  5
B3BF
330
B31B
100
AcDbEntity
  8
1
  6
Continuous
100
AcDbLine
 10
109.2979159999998
 20
125.3058909999999
 30
0.0
 11
109.754737
 21
124.916898
 31
0.0
  0
CIRCLE
  5
B3C0
330
B31B
100
AcDbEntity
  8
1
  6
Continuous
100
AcDbCircle
 10
32.75
 20
132.9510999999999
 30
0.0
 40
3.0
  0
LINE
  5
B3C1
330
B31B
100
AcDbEntity
  8
1
  6
Continuous
100
AcDbLine
 10
29.75
 20
132.9510999999999
 30
0.0
 11
28.75649199999999
 21
130.5682999999999
 31
0.0
  0
LINE
  5
B3C2
330
B31B
100
AcDbEntity
  8
1
  6
Continuous
100
AcDbLine
 10
35.75
 20
132.9510999999999
 30
0.0
 11
36.743508
 21
130.5682999999999
 31
0.0
  0
ARC
  5
B3C3
330
B31B
100
AcDbEntity
  8
1
  6
Continuous
100
AcDbCircle
 10
37.66649199999999
 20
130.9531379999999
 30
0.0
 40
1.0
100
AcDbArc
 50
202.6336909999999
 51
270.0
  0
ARC
  5
B3C4
330
B31B
100
AcDbEntity
  8
1
  6
Continuous
100
AcDbCircle
 10
27.833508
 20
130.9531379999999
 30
0.0
 40
1.0
100
AcDbArc
 50
270.0
 51
337.3663089999999
  0
LINE
  5
B3C5
330
B31B
100
AcDbEntity
  8
1
  6
Continuous
100
AcDbLine
 10
111.845952
 20
56.5
 30
0.0
 11
111.845952
 21
55.25
 31
0.0
  0
LINE
  5
B3C6
330
B31B
100
AcDbEntity
  8
1
  6
Continuous
100
AcDbLine
 10
122.345952
 20
41.00044699999997
 30
0.0
 11
122.345952
 21
42.25
 31
0.0
  0
LINE
  5
B3C7
330
B31B
100
AcDbEntity
  8
1
  6
Continuous
100
AcDbLine
 10
122.5959519999999
 20
56.5
 30
0.0
 11
122.5959519999999
 21
55.25
 31
0.0
  0
LINE
  5
B3C8
330
B31B
100
AcDbEntity
  8
1
  6
Continuous
100
AcDbLine
 10
111.595952
 20
56.5
 30
0.0
 11
111.595952
 21
55.25
 31
0.0
  0
LINE
  5
B3C9
330
B31B
100
AcDbEntity
  8
1
  6
Continuous
100
AcDbLine
 10
111.595952
 20
56.5
 30
0.0
 11
110.3459519999999
 21
55.25
 31
0.0
  0
LINE
  5
B3CA
330
B31B
100
AcDbEntity
  8
1
  6
Continuous
100
AcDbLine
 10
122.5959519999999
 20
56.5
 30
0.0
 11
123.8459519999999
 21
55.25
 31
0.0
  0
LINE
  5
B3CB
330
B31B
100
AcDbEntity
  8
1
  6
Continuous
100
AcDbLine
 10
111.595952
 20
41.00044699999997
 30
0.0
 11
110.346026
 21
42.25
 31
0.0
  0
LINE
  5
B3CC
330
B31B
100
AcDbEntity
  8
1
  6
Continuous
100
AcDbLine
 10
122.5959519999999
 20
41.0
 30
0.0
 11
123.8459519999999
 21
42.25
 31
0.0
  0
LINE
  5
B3CD
330
B31B
100
AcDbEntity
  8
1
  6
Continuous
100
AcDbLine
 10
122.5959519999999
 20
42.25
 30
0.0
 11
122.5959519999999
 21
41.00044699999997
 31
0.0
  0
LINE
  5
B3CE
330
B31B
100
AcDbEntity
  8
1
  6
Continuous
100
AcDbLine
 10
122.345952
 20
55.25
 30
0.0
 11
122.345952
 21
56.5
 31
0.0
  0
LINE
  5
B3CF
330
B31B
100
AcDbEntity
  8
1
  6
Continuous
100
AcDbLine
 10
111.845952
 20
42.25
 30
0.0
 11
111.845952
 21
41.00044699999997
 31
0.0
  0
LINE
  5
B3D0
330
B31B
100
AcDbEntity
  8
1
  6
Continuous
100
AcDbLine
 10
111.595952
 20
42.25
 30
0.0
 11
111.595952
 21
41.00044699999997
 31
0.0
  0
ARC
  5
B3D1
330
B31B
100
AcDbEntity
  8
5
  6
PHANTOM
100
AcDbCircle
 10
117.2439519999999
 20
115.7800169999999
 30
0.0
 40
13.5
100
AcDbArc
 50
114.016592
 51
67.30429599999999
  0
ARC
  5
B3D2
330
B31B
100
AcDbEntity
  8
1
  6
Continuous
100
AcDbCircle
 10
117.095952
 20
113.1000169999998
 30
0.0
 40
16.0
100
AcDbArc
 50
109.54252
 51
70.45748
  0
ARC
  5
B3D3
330
B31B
100
AcDbEntity
  8
5
  6
PHANTOM
100
AcDbCircle
 10
117.2439519999999
 20
115.7800169999999
 30
0.0
 40
14.1
100
AcDbArc
 50
113.1671899999999
 51
68.09156899999999
  0
ARC
  5
B3D4
330
B31B
100
AcDbEntity
  8
5
  6
PHANTOM
100
AcDbCircle
 10
117.2439519999999
 20
115.7800169999999
 30
0.0
 40
14.69999999999999
100
AcDbArc
 50
277.1087329999999
 51
68.811642
  0
ARC
  5
B3D5
330
B31B
100
AcDbEntity
  8
1
  6
Continuous
100
AcDbCircle
 10
117.095952
 20
113.1000169999998
 30
0.0
 40
16.6
100
AcDbArc
 50
108.9968499999999
 51
71.00315000000001
  0
ARC
  5
B3D6
330
B31B
100
AcDbEntity
  8
1
  6
Continuous
100
AcDbCircle
 10
117.095952
 20
113.1000169999998
 30
0.0
 40
17.19999999999998
100
AcDbArc
 50
356.408029
 51
71.509568
  0
LINE
  5
B3D7
330
B31B
100
AcDbEntity
  8
5
  6
PHANTOM
100
AcDbLine
 10
118.9888649999998
 20
101.788402
 30
0.0
 11
119.0631169999999
 21
101.193014
 31
0.0
  0
LINE
  5
B3D8
330
B31B
100
AcDbEntity
  8
4
  6
CENTER
100
AcDbLine
 10
21.25
 20
113.1000169999998
 30
0.0
 11
44.24999999999999
 21
113.1000169999998
 31
0.0
  0
LINE
  5
B3D9
330
B31B
100
AcDbEntity
  8
1
  6
Continuous
100
AcDbLine
 10
133.663341
 20
112.0600159999999
 30
0.0
 11
134.2621619999999
 21
112.0224249999999
 31
0.0
  0
LINE
  5
B3DA
330
B31B
100
AcDbEntity
  8
1
  6
Continuous
100
AcDbLine
 10
26.25
 20
96.500017
 30
0.0
 11
39.25
 21
96.500017
 31
0.0
  0
LINE
  5
B3DB
330
B31B
100
AcDbEntity
  8
1
  6
Continuous
100
AcDbLine
 10
208.595952
 20
128.9545549999999
 30
0.0
 11
205.7716319999999
 21
128.9545549999999
 31
0.0
  0
LINE
  5
B3DC
330
B31B
100
AcDbEntity
  8
1
  6
Continuous
100
AcDbLine
 10
198.4202709999999
 20
128.9545549999999
 30
0.0
 11
195.595952
 21
128.9545549999999
 31
0.0
  0
LINE
  5
B3DD
330
B31B
100
AcDbEntity
  8
1
  6
Continuous
100
AcDbLine
 10
26.25
 20
129.022382
 30
0.0
 11
39.25
 21
129.022382
 31
0.0
  0
LINE
  5
B3DE
330
B31B
100
AcDbEntity
  8
1
  6
Continuous
100
AcDbLine
 10
134.2959519999998
 20
190.7031
 30
0.0
 11
134.2959519999998
 21
193.2031
 31
0.0
  0
LINE
  5
B3DF
330
B31B
100
AcDbEntity
  8
4
  6
CENTER
100
AcDbLine
 10
95.495952
 20
113.1000169999998
 30
0.0
 11
138.695952
 21
113.1000169999998
 31
0.0
  0
LINE
  5
B3E0
330
B31B
100
AcDbEntity
  8
1
  6
Continuous
100
AcDbLine
 10
195.595952
 20
96.500017
 30
0.0
 11
208.595952
 21
96.500017
 31
0.0
  0
LINE
  5
B3E1
330
B31B
100
AcDbEntity
  8
4
  6
CENTER
100
AcDbLine
 10
190.595952
 20
113.1000169999998
 30
0.0
 11
213.595952
 21
113.1000169999998
 31
0.0
  0
LINE
  5
B3E2
330
B31B
100
AcDbEntity
  8
1
  6
Continuous
100
AcDbLine
 10
100.495952
 20
55.25
 30
0.0
 11
100.495952
 21
42.25
 31
0.0
  0
LINE
  5
B3E3
330
B31B
100
AcDbEntity
  8
1
  6
Continuous
100
AcDbLine
 10
134.2959519999998
 20
55.25
 30
0.0
 11
134.2959519999998
 21
42.25
 31
0.0
  0
LINE
  5
B3E4
330
B31B
100
AcDbEntity
  8
1
  6
Continuous
100
AcDbLine
 10
100.495952
 20
193.2031
 30
0.0
 11
100.495952
 21
180.2031
 31
0.0
  0
LINE
  5
B3E5
330
B31B
100
AcDbEntity
  8
1
  6
Continuous
100
AcDbLine
 10
134.2959519999998
 20
180.2031
 30
0.0
 11
134.2959519999998
 21
182.7031
 31
0.0
  0
LINE
  5
B3E6
330
B31B
100
AcDbEntity
  8
1
  6
Continuous
100
AcDbLine
 10
198.005133
 20
112.0565649999999
 30
0.0
 11
201.8382349999999
 21
113.078954
 31
0.0
  0
LINE
  5
B3E7
330
B31B
100
AcDbEntity
  8
1
  6
Continuous
100
AcDbLine
 10
202.3536679999998
 20
113.078954
 30
0.0
 11
206.18677
 21
112.0565649999999
 31
0.0
  0
ARC
  5
B3E8
330
B31B
100
AcDbEntity
  8
1
  6
Continuous
100
AcDbCircle
 10
197.7474169999999
 20
113.022786
 30
0.0
 40
1.0
100
AcDbArc
 50
239.0305899999999
 51
284.9346080000001
  0
ARC
  5
B3E9
330
B31B
100
AcDbEntity
  8
1
  6
Continuous
100
AcDbCircle
 10
206.444486
 20
113.022786
 30
0.0
 40
1.0
100
AcDbArc
 50
255.065392
 51
300.9694099999999
  0
LINE
  5
B3EA
330
B31B
100
AcDbEntity
  8
1
  6
Continuous
100
AcDbLine
 10
197.2328359999999
 20
112.165343
 30
0.0
 11
195.595952
 21
113.222694
 31
0.0
  0
LINE
  5
B3EB
330
B31B
100
AcDbEntity
  8
1
  6
Continuous
100
AcDbLine
 10
206.959067
 20
112.165343
 30
0.0
 11
208.595952
 21
113.222694
 31
0.0
  0
LINE
  5
B3EC
330
B31B
100
AcDbEntity
  8
1
  6
Continuous
100
AcDbLine
 10
133.671678
 20
44.462944
 30
0.0
 11
134.2246089999999
 21
48.618091
 31
0.0
  0
LINE
  5
B3ED
330
B31B
100
AcDbEntity
  8
1
  6
Continuous
100
AcDbLine
 10
133.704398
 20
44.46335
 30
0.0
 11
134.25833
 21
48.61783599999998
 31
0.0
  0
LINE
  5
B3EE
330
B31B
100
AcDbEntity
  8
1
  6
Continuous
100
AcDbLine
 10
134.2246089999999
 20
48.881909
 30
0.0
 11
133.671678
 21
53.037056
 31
0.0
  0
LINE
  5
B3EF
330
B31B
100
AcDbEntity
  8
1
  6
Continuous
100
AcDbLine
 10
133.704398
 20
53.03665
 30
0.0
 11
134.25833
 21
48.88216400000001
 31
0.0
  0
ARC
  5
B3F0
330
B31B
100
AcDbEntity
  8
1
  6
Continuous
100
AcDbCircle
 10
134.6629399999999
 20
44.331035
 30
0.0
 40
1.0
100
AcDbArc
 50
172.420103
 51
196.66826
  0
ARC
  5
B3F1
330
B31B
100
AcDbEntity
  8
1
  6
Continuous
100
AcDbCircle
 10
134.695626
 20
44.331187
 30
0.0
 40
1.0
100
AcDbArc
 50
172.405357
 51
196.699244
  0
ARC
  5
B3F2
330
B31B
100
AcDbEntity
  8
1
  6
Continuous
100
AcDbCircle
 10
134.6629399999999
 20
53.168965
 30
0.0
 40
1.0
100
AcDbArc
 50
163.3317399999999
 51
187.5798969999999
  0
ARC
  5
B3F3
330
B31B
100
AcDbEntity
  8
1
  6
Continuous
100
AcDbCircle
 10
134.695626
 20
53.168813
 30
0.0
 40
1.0
100
AcDbArc
 50
163.300756
 51
187.5946429999999
  0
LINE
  5
B3F4
330
B31B
100
AcDbEntity
  8
1
  6
Continuous
100
AcDbLine
 10
133.704958
 20
53.45579499999999
 30
0.0
 11
134.2621619999999
 21
55.25
 31
0.0
  0
LINE
  5
B3F5
330
B31B
100
AcDbEntity
  8
1
  6
Continuous
100
AcDbLine
 10
134.2959519999998
 20
55.25
 30
0.0
 11
133.7377999999999
 21
53.456161
 31
0.0
  0
LINE
  5
B3F6
330
B31B
100
AcDbEntity
  8
1
  6
Continuous
100
AcDbLine
 10
133.704958
 20
44.04420499999999
 30
0.0
 11
134.2621619999999
 21
42.25
 31
0.0
  0
LINE
  5
B3F7
330
B31B
100
AcDbEntity
  8
1
  6
Continuous
100
AcDbLine
 10
133.7377999999999
 20
44.043839
 30
0.0
 11
134.2959519999998
 21
42.25
 31
0.0
  0
ARC
  5
B3F8
330
B31B
100
AcDbEntity
  8
1
  6
Continuous
100
AcDbCircle
 10
133.233347
 20
48.75
 30
0.0
 40
1.0
100
AcDbArc
 50
352.4201029999999
 51
7.579897
  0
ARC
  5
B3F9
330
B31B
100
AcDbEntity
  8
1
  6
Continuous
100
AcDbCircle
 10
133.267102
 20
48.75
 30
0.0
 40
1.0
100
AcDbArc
 50
352.4053569999999
 51
7.594642999999996
  0
ARC
  5
B3FA
330
B31B
100
AcDbEntity
  8
1
  6
Continuous
100
AcDbCircle
 10
202.095952
 20
112.112734
 30
0.0
 40
1.0
100
AcDbArc
 50
75.06539200000002
 51
104.934608
  0
LINE
  5
B3FB
330
B31B
100
AcDbEntity
  8
1
  6
Continuous
100
AcDbLine
 10
104.2734609999999
 20
186.7353299999998
 30
0.0
 11
104.257827
 21
183.6753699999999
 31
0.0
  0
LINE
  5
B3FC
330
B31B
100
AcDbEntity
  8
1
  6
Continuous
100
AcDbLine
 10
105.3123279999999
 20
184.1903439999999
 30
0.0
 11
105.3098149999998
 21
183.698496
 31
0.0
  0
LINE
  5
B3FD
330
B31B
100
AcDbEntity
  8
1
  6
Continuous
100
AcDbLine
 10
106.2307239999999
 20
183.7030999999998
 30
0.0
 11
106.2305959999999
 21
183.6780409999999
 31
0.0
  0
LINE
  5
B3FE
330
B31B
100
AcDbEntity
  8
1
  6
Continuous
100
AcDbLine
 10
102.8455349999999
 20
186.6566979999998
 30
0.0
 11
102.8298909999999
 21
183.5947379999998
 31
0.0
  0
LINE
  5
B3FF
330
B31B
100
AcDbEntity
  8
1
  6
Continuous
100
AcDbLine
 10
103.523564
 20
186.653234
 30
0.0
 11
103.5077889999999
 21
183.565524
 31
0.0
  0
LINE
  5
B400
330
B31B
100
AcDbEntity
  8
1
  6
Continuous
100
AcDbLine
 10
102.020999
 20
186.644024
 30
0.0
 11
102.0050569999998
 21
183.5238149999999
 31
0.0
  0
LINE
  5
B401
330
B31B
100
AcDbEntity
  8
1
  6
Continuous
100
AcDbLine
 10
101.376343
 20
186.6480379999999
 30
0.0
 11
101.360486
 21
183.5443279999998
 31
0.0
  0
ARC
  5
B402
330
B31B
100
AcDbEntity
  8
1
  6
Continuous
100
AcDbCircle
 10
104.738992
 20
189.7929919999999
 30
0.0
 40
0.09
100
AcDbArc
 50
359.707272
 51
179.7072719999999
  0
ARC
  5
B403
330
B31B
100
AcDbEntity
  8
1
  6
Continuous
100
AcDbCircle
 10
104.347826
 20
183.67491
 30
0.0
 40
0.09
100
AcDbArc
 50
179.7072719999999
 51
359.707272
  0
LINE
  5
B404
330
B31B
100
AcDbEntity
  8
1
  6
Continuous
100
AcDbLine
 10
104.828991
 20
189.7925319999999
 30
0.0
 11
104.738224
 21
188.37288
 31
0.0
  0
LINE
  5
B405
330
B31B
100
AcDbEntity
  8
1
  6
Continuous
100
AcDbLine
 10
104.648993
 20
189.7934509999998
 30
0.0
 11
104.2734609999999
 21
186.7353299999998
 31
0.0
  0
ARC
  5
B406
330
B31B
100
AcDbEntity
  8
1
  6
Continuous
100
AcDbCircle
 10
105.696115
 20
189.7596009999998
 30
0.0
 40
0.1185
100
AcDbArc
 50
355.233466
 51
179.7072719999999
  0
ARC
  5
B407
330
B31B
100
AcDbEntity
  8
1
  6
Continuous
100
AcDbCircle
 10
105.4283139999999
 20
183.69789
 30
0.0
 40
0.1185
100
AcDbArc
 50
179.7072719999999
 51
359.707272
  0
LINE
  5
B408
330
B31B
100
AcDbEntity
  8
1
  6
Continuous
100
AcDbLine
 10
105.814205
 20
189.7497549999999
 30
0.0
 11
105.8109709999999
 21
189.6765429999999
 31
0.0
  0
LINE
  5
B409
330
B31B
100
AcDbEntity
  8
1
  6
Continuous
100
AcDbLine
 10
105.5525129999999
 20
189.458716
 30
0.0
 11
105.5776159999999
 21
189.7602069999998
 31
0.0
  0
ARC
  5
B40A
330
B31B
100
AcDbEntity
  8
1
  6
Continuous
100
AcDbCircle
 10
106.570296
 20
189.7708849999999
 30
0.0
 40
0.10275
100
AcDbArc
 50
359.707272
 51
179.7072719999999
  0
ARC
  5
B40B
330
B31B
100
AcDbEntity
  8
1
  6
Continuous
100
AcDbCircle
 10
106.333345
 20
183.677516
 30
0.0
 40
0.10275
100
AcDbArc
 50
179.7072719999999
 51
359.707272
  0
LINE
  5
B40C
330
B31B
100
AcDbEntity
  8
1
  6
Continuous
100
AcDbLine
 10
106.673045
 20
189.77036
 30
0.0
 11
106.670429
 21
189.7031
 31
0.0
  0
LINE
  5
B40D
330
B31B
100
AcDbEntity
  8
1
  6
Continuous
100
AcDbLine
 10
106.467547
 20
189.7714099999998
 30
0.0
 11
106.462583
 21
189.7031
 31
0.0
  0
ARC
  5
B40E
330
B31B
100
AcDbEntity
  8
1
  6
Continuous
100
AcDbCircle
 10
102.91789
 20
183.5942879999999
 30
0.0
 40
0.088
100
AcDbArc
 50
179.7072719999999
 51
359.707272
  0
ARC
  5
B40F
330
B31B
100
AcDbEntity
  8
1
  6
Continuous
100
AcDbCircle
 10
103.1248689999999
 20
189.71731
 30
0.0
 40
0.088
100
AcDbArc
 50
356.4206159999998
 51
179.7072719999999
  0
LINE
  5
B410
330
B31B
100
AcDbEntity
  8
1
  6
Continuous
100
AcDbLine
 10
103.212698
 20
189.7118169999999
 30
0.0
 11
103.005889
 21
183.5938379999998
 31
0.0
  0
LINE
  5
B411
330
B31B
100
AcDbEntity
  8
1
  6
Continuous
100
AcDbLine
 10
103.0368709999999
 20
189.71776
 30
0.0
 11
102.8455349999999
 21
186.6566979999998
 31
0.0
  0
ARC
  5
B412
330
B31B
100
AcDbEntity
  8
1
  6
Continuous
100
AcDbCircle
 10
103.771488
 20
189.739757
 30
0.0
 40
0.06225
100
AcDbArc
 50
359.707272
 51
179.7072719999999
  0
ARC
  5
B413
330
B31B
100
AcDbEntity
  8
1
  6
Continuous
100
AcDbCircle
 10
103.5700379999999
 20
183.5652059999999
 30
0.0
 40
0.06225
100
AcDbArc
 50
179.7072719999999
 51
359.707272
  0
LINE
  5
B414
330
B31B
100
AcDbEntity
  8
1
  6
Continuous
100
AcDbLine
 10
103.833737
 20
189.7394389999998
 30
0.0
 11
103.632287
 21
183.5648879999999
 31
0.0
  0
LINE
  5
B415
330
B31B
100
AcDbEntity
  8
1
  6
Continuous
100
AcDbLine
 10
103.523564
 20
186.653234
 30
0.0
 11
103.709238
 21
189.7400749999999
 31
0.0
  0
ARC
  5
B416
330
B31B
100
AcDbEntity
  8
1
  6
Continuous
100
AcDbCircle
 10
102.246153
 20
189.7631649999999
 30
0.0
 40
0.02975
100
AcDbArc
 50
356.4127399999999
 51
179.7072719999999
  0
ARC
  5
B417
330
B31B
100
AcDbEntity
  8
1
  6
Continuous
100
AcDbCircle
 10
102.034807
 20
183.5236629999999
 30
0.0
 40
0.02975
100
AcDbArc
 50
179.7072719999999
 51
359.707272
  0
LINE
  5
B418
330
B31B
100
AcDbEntity
  8
1
  6
Continuous
100
AcDbLine
 10
102.0645569999998
 20
183.523511
 30
0.0
 11
102.275844
 21
189.7613039999999
 31
0.0
  0
LINE
  5
B419
330
B31B
100
AcDbEntity
  8
1
  6
Continuous
100
AcDbLine
 10
102.216403
 20
189.7633169999998
 30
0.0
 11
102.020999
 21
186.644024
 31
0.0
  0
LINE
  5
B41A
330
B31B
100
AcDbEntity
  8
1
  6
Continuous
100
AcDbLine
 10
100.794635
 20
186.589703
 30
0.0
 11
100.7787109999999
 21
183.472994
 31
0.0
  0
ARC
  5
B41B
330
B31B
100
AcDbEntity
  8
1
  6
Continuous
100
AcDbCircle
 10
100.811961
 20
183.472824
 30
0.0
 40
0.03325
100
AcDbArc
 50
179.7072719999999
 51
359.707272
  0
ARC
  5
B41C
330
B31B
100
AcDbEntity
  8
1
  6
Continuous
100
AcDbCircle
 10
100.9101869999998
 20
189.705903
 30
0.0
 40
0.03325
100
AcDbArc
 50
358.4870379999999
 51
179.7072719999999
  0
LINE
  5
B41D
330
B31B
100
AcDbEntity
  8
1
  6
Continuous
100
AcDbLine
 10
100.9434249999999
 20
189.705026
 30
0.0
 11
100.8452099999998
 21
183.472654
 31
0.0
  0
LINE
  5
B41E
330
B31B
100
AcDbEntity
  8
1
  6
Continuous
100
AcDbLine
 10
100.794635
 20
186.589703
 30
0.0
 11
100.8769369999999
 21
189.7060729999998
 31
0.0
  0
ARC
  5
B41F
330
B31B
100
AcDbEntity
  8
1
  6
Continuous
100
AcDbCircle
 10
101.530927
 20
189.7510389999999
 30
0.0
 40
0.04625
100
AcDbArc
 50
358.000219
 51
179.7072719999999
  0
ARC
  5
B420
330
B31B
100
AcDbEntity
  8
1
  6
Continuous
100
AcDbCircle
 10
101.4067349999999
 20
183.544092
 30
0.0
 40
0.04625
100
AcDbArc
 50
179.7072719999999
 51
359.707272
  0
LINE
  5
B421
330
B31B
100
AcDbEntity
  8
1
  6
Continuous
100
AcDbLine
 10
101.4529849999999
 20
183.543856
 30
0.0
 11
101.577149
 21
189.749425
 31
0.0
  0
LINE
  5
B422
330
B31B
100
AcDbEntity
  8
1
  6
Continuous
100
AcDbLine
 10
101.484678
 20
189.7512749999999
 30
0.0
 11
101.376343
 21
186.6480379999999
 31
0.0
  0
LINE
  5
B423
330
B31B
100
AcDbEntity
  8
1
  6
Continuous
100
AcDbLine
 10
29.763275
 20
120.5895099999999
 30
0.0
 11
35.678775
 21
120.2049319999999
 31
0.0
  0
ARC
  5
B424
330
B31B
100
AcDbEntity
  8
1
  6
Continuous
100
AcDbCircle
 10
29.763275
 20
120.3972599999999
 30
0.0
 40
0.19225
100
AcDbArc
 50
90.0
 51
270.0
  0
ARC
  5
B425
330
B31B
100
AcDbEntity
  8
1
  6
Continuous
100
AcDbCircle
 10
33.013618
 20
117.6290849999999
 30
0.0
 40
1.5
100
AcDbArc
 50
258.1113419999999
 51
270.0
  0
ARC
  5
B426
330
B31B
100
AcDbEntity
  8
1
  6
Continuous
100
AcDbCircle
 10
33.013618
 20
115.229085
 30
0.0
 40
1.5
100
AcDbArc
 50
258.1113419999999
 51
270.0
  0
ARC
  5
B427
330
B31B
100
AcDbEntity
  8
1
  6
Continuous
100
AcDbCircle
 10
35.70743499999998
 20
116.429085
 30
0.0
 40
0.3
100
AcDbArc
 50
270.0
 51
90.0
  0
ARC
  5
B428
330
B31B
100
AcDbEntity
  8
1
  6
Continuous
100
AcDbCircle
 10
35.70743499999998
 20
114.0290849999999
 30
0.0
 40
0.3
100
AcDbArc
 50
270.0
 51
90.0
  0
LINE
  5
B429
330
B31B
100
AcDbEntity
  8
1
  6
Continuous
100
AcDbLine
 10
33.013618
 20
116.129085
 30
0.0
 11
35.70743499999998
 21
116.129085
 31
0.0
  0
LINE
  5
B42A
330
B31B
100
AcDbEntity
  8
1
  6
Continuous
100
AcDbLine
 10
33.013618
 20
113.729085
 30
0.0
 11
35.70743499999998
 21
113.729085
 31
0.0
  0
LINE
  5
B42B
330
B31B
100
AcDbEntity
  8
1
  6
Continuous
100
AcDbLine
 10
30.007435
 20
116.729085
 30
0.0
 11
32.70460299999999
 21
116.16126
 31
0.0
  0
ARC
  5
B42C
330
B31B
100
AcDbEntity
  8
1
  6
Continuous
100
AcDbCircle
 10
30.007435
 20
117.0290849999999
 30
0.0
 40
0.3
100
AcDbArc
 50
77.981988
 51
270.0
  0
LINE
  5
B42D
330
B31B
100
AcDbEntity
  8
1
  6
Continuous
100
AcDbLine
 10
30.007435
 20
114.329085
 30
0.0
 11
32.70460299999999
 21
113.7612599999999
 31
0.0
  0
ARC
  5
B42E
330
B31B
100
AcDbEntity
  8
1
  6
Continuous
100
AcDbCircle
 10
30.007435
 20
114.6290849999999
 30
0.0
 40
0.3
100
AcDbArc
 50
77.981988
 51
270.0
  0
LINE
  5
B42F
330
B31B
100
AcDbEntity
  8
1
  6
Continuous
100
AcDbLine
 10
30.069901
 20
117.32251
 30
0.0
 11
35.70743499999998
 21
116.729085
 31
0.0
  0
LINE
  5
B430
330
B31B
100
AcDbEntity
  8
1
  6
Continuous
100
AcDbLine
 10
30.069901
 20
114.9225099999999
 30
0.0
 11
35.70743499999998
 21
114.329085
 31
0.0
  0
LINE
  5
B431
330
B31B
100
AcDbEntity
  8
1
  6
Continuous
100
AcDbLine
 10
29.763275
 20
120.20501
 30
0.0
 11
32.72102499999999
 21
119.820432
 31
0.0
  0
LINE
  5
B432
330
B31B
100
AcDbEntity
  8
1
  6
Continuous
100
AcDbLine
 10
29.78627499999999
 20
118.567391
 30
0.0
 11
32.72102499999999
 21
118.1396719999999
 31
0.0
  0
LINE
  5
B433
330
B31B
100
AcDbEntity
  8
1
  6
Continuous
100
AcDbLine
 10
35.678775
 20
119.820432
 30
0.0
 11
32.72102499999999
 21
119.820432
 31
0.0
  0
LINE
  5
B434
330
B31B
100
AcDbEntity
  8
1
  6
Continuous
100
AcDbLine
 10
35.62440399999999
 20
118.1396719999999
 30
0.0
 11
32.72102499999999
 21
118.1396719999999
 31
0.0
  0
LINE
  5
B435
330
B31B
100
AcDbEntity
  8
1
  6
Continuous
100
AcDbLine
 10
29.78627499999999
 20
118.9978909999999
 30
0.0
 11
35.65577499999999
 21
118.5678739999999
 31
0.0
  0
ARC
  5
B436
330
B31B
100
AcDbEntity
  8
1
  6
Continuous
100
AcDbCircle
 10
35.678775
 20
120.012682
 30
0.0
 40
0.19225
100
AcDbArc
 50
270.0
 51
90.0
  0
ARC
  5
B437
330
B31B
100
AcDbEntity
  8
1
  6
Continuous
100
AcDbCircle
 10
35.65577499999999
 20
118.352624
 30
0.0
 40
0.21525
100
AcDbArc
 50
261.619662
 51
90.0
  0
ARC
  5
B438
330
B31B
100
AcDbEntity
  8
1
  6
Continuous
100
AcDbCircle
 10
29.78627499999999
 20
118.7826409999999
 30
0.0
 40
0.21525
100
AcDbArc
 50
90.0
 51
270.0
  0
LINE
  5
B439
330
B31B
100
AcDbEntity
  8
1
  6
Continuous
100
AcDbLine
 10
29.617275
 20
128.4134029999999
 30
0.0
 11
32.72102499999999
 21
128.3209239999999
 31
0.0
  0
LINE
  5
B43A
330
B31B
100
AcDbEntity
  8
1
  6
Continuous
100
AcDbLine
 10
35.824775
 20
128.4134239999999
 30
0.0
 11
29.61865299999999
 21
128.505882
 31
0.0
  0
ARC
  5
B43B
330
B31B
100
AcDbEntity
  8
1
  6
Continuous
100
AcDbCircle
 10
35.824775
 20
128.367174
 30
0.0
 40
0.04625
100
AcDbArc
 50
270.0
 51
90.0
  0
ARC
  5
B43C
330
B31B
100
AcDbEntity
  8
1
  6
Continuous
100
AcDbCircle
 10
29.617275
 20
128.4596529999998
 30
0.0
 40
0.04625
100
AcDbArc
 50
88.292947
 51
270.0
  0
LINE
  5
B43D
330
B31B
100
AcDbEntity
  8
1
  6
Continuous
100
AcDbLine
 10
32.72102499999999
 20
128.3209239999999
 30
0.0
 11
35.824775
 21
128.3209239999999
 31
0.0
  0
LINE
  5
B43E
330
B31B
100
AcDbEntity
  8
1
  6
Continuous
100
AcDbLine
 10
32.72102499999999
 20
128.6652639999998
 30
0.0
 11
29.604275
 21
128.7316439999998
 31
0.0
  0
LINE
  5
B43F
330
B31B
100
AcDbEntity
  8
1
  6
Continuous
100
AcDbLine
 10
29.604983
 20
128.798136
 30
0.0
 11
35.837775
 21
128.7317639999999
 31
0.0
  0
ARC
  5
B440
330
B31B
100
AcDbEntity
  8
1
  6
Continuous
100
AcDbCircle
 10
29.604275
 20
128.7648939999999
 30
0.0
 40
0.03325
100
AcDbArc
 50
88.77976600000001
 51
270.0
  0
ARC
  5
B441
330
B31B
100
AcDbEntity
  8
1
  6
Continuous
100
AcDbCircle
 10
35.837775
 20
128.6985139999998
 30
0.0
 40
0.03325
100
AcDbArc
 50
270.0
 51
90.0
  0
LINE
  5
B442
330
B31B
100
AcDbEntity
  8
1
  6
Continuous
100
AcDbLine
 10
32.72102499999999
 20
128.6652639999998
 30
0.0
 11
35.837775
 21
128.6652639999998
 31
0.0
  0
LINE
  5
B443
330
B31B
100
AcDbEntity
  8
1
  6
Continuous
100
AcDbLine
 10
29.600775
 20
128.047275
 30
0.0
 11
32.72102499999999
 21
127.86781
 31
0.0
  0
LINE
  5
B444
330
B31B
100
AcDbEntity
  8
1
  6
Continuous
100
AcDbLine
 10
35.84127500000001
 20
127.92731
 30
0.0
 11
29.60248400000001
 21
128.106726
 31
0.0
  0
ARC
  5
B445
330
B31B
100
AcDbEntity
  8
1
  6
Continuous
100
AcDbCircle
 10
35.84127500000001
 20
127.89756
 30
0.0
 40
0.02975
100
AcDbArc
 50
270.0
 51
90.0
  0
ARC
  5
B446
330
B31B
100
AcDbEntity
  8
1
  6
Continuous
100
AcDbCircle
 10
29.600775
 20
128.0770249999999
 30
0.0
 40
0.02975
100
AcDbArc
 50
86.70546800000003
 51
270.0
  0
LINE
  5
B447
330
B31B
100
AcDbEntity
  8
1
  6
Continuous
100
AcDbLine
 10
32.72102499999999
 20
127.303995
 30
0.0
 11
29.633275
 21
127.473896
 31
0.0
  0
LINE
  5
B448
330
B31B
100
AcDbEntity
  8
1
  6
Continuous
100
AcDbLine
 10
29.633275
 20
127.598396
 30
0.0
 11
35.80877499999999
 21
127.4284949999999
 31
0.0
  0
ARC
  5
B449
330
B31B
100
AcDbEntity
  8
1
  6
Continuous
100
AcDbCircle
 10
35.80877499999999
 20
127.366245
 30
0.0
 40
0.06225
100
AcDbArc
 50
270.0
 51
90.0
  0
ARC
  5
B44A
330
B31B
100
AcDbEntity
  8
1
  6
Continuous
100
AcDbCircle
 10
29.633275
 20
127.536146
 30
0.0
 40
0.06225
100
AcDbArc
 50
90.0
 51
270.0
  0
LINE
  5
B44B
330
B31B
100
AcDbEntity
  8
1
  6
Continuous
100
AcDbLine
 10
29.659025
 20
126.801651
 30
0.0
 11
32.72102499999999
 21
126.625957
 31
0.0
  0
LINE
  5
B44C
330
B31B
100
AcDbEntity
  8
1
  6
Continuous
100
AcDbLine
 10
29.66407
 20
126.977506
 30
0.0
 11
35.783025
 21
126.801957
 31
0.0
  0
ARC
  5
B44D
330
B31B
100
AcDbEntity
  8
1
  6
Continuous
100
AcDbCircle
 10
29.659025
 20
126.889651
 30
0.0
 40
0.088
100
AcDbArc
 50
86.71334399999997
 51
270.0
  0
ARC
  5
B44E
330
B31B
100
AcDbEntity
  8
1
  6
Continuous
100
AcDbCircle
 10
35.783025
 20
126.7139569999999
 30
0.0
 40
0.088
100
AcDbArc
 50
270.0
 51
90.0
  0
LINE
  5
B44F
330
B31B
100
AcDbEntity
  8
1
  6
Continuous
100
AcDbLine
 10
29.67377499999999
 20
126.035075
 30
0.0
 11
32.72102499999999
 21
125.829258
 31
0.0
  0
LINE
  5
B450
330
B31B
100
AcDbEntity
  8
1
  6
Continuous
100
AcDbLine
 10
29.67377499999999
 20
126.240575
 30
0.0
 11
35.76827500000001
 21
126.034758
 31
0.0
  0
ARC
  5
B451
330
B31B
100
AcDbEntity
  8
1
  6
Continuous
100
AcDbCircle
 10
35.76827500000001
 20
125.932008
 30
0.0
 40
0.10275
100
AcDbArc
 50
270.0
 51
90.0
  0
ARC
  5
B452
330
B31B
100
AcDbEntity
  8
1
  6
Continuous
100
AcDbCircle
 10
29.67377499999999
 20
126.137825
 30
0.0
 40
0.10275
100
AcDbArc
 50
90.0
 51
270.0
  0
LINE
  5
B453
330
B31B
100
AcDbEntity
  8
1
  6
Continuous
100
AcDbLine
 10
32.72102499999999
 20
124.908385
 30
0.0
 11
29.689525
 21
125.1452129999998
 31
0.0
  0
LINE
  5
B454
330
B31B
100
AcDbEntity
  8
1
  6
Continuous
100
AcDbLine
 10
29.69876799999999
 20
125.381852
 30
0.0
 11
35.75252499999999
 21
125.145385
 31
0.0
  0
ARC
  5
B455
330
B31B
100
AcDbEntity
  8
1
  6
Continuous
100
AcDbCircle
 10
35.75252499999999
 20
125.0268849999999
 30
0.0
 40
0.1185
100
AcDbArc
 50
270.0
 51
90.0
  0
ARC
  5
B456
330
B31B
100
AcDbEntity
  8
1
  6
Continuous
100
AcDbCircle
 10
29.689525
 20
125.2637129999999
 30
0.0
 40
0.1185
100
AcDbArc
 50
85.52619399999997
 51
270.0
  0
LINE
  5
B457
330
B31B
100
AcDbEntity
  8
1
  6
Continuous
100
AcDbLine
 10
29.66102499999999
 20
124.216432
 30
0.0
 11
32.72102499999999
 21
123.8565289999999
 31
0.0
  0
LINE
  5
B458
330
B31B
100
AcDbEntity
  8
1
  6
Continuous
100
AcDbLine
 10
29.66102499999999
 20
124.396432
 30
0.0
 11
35.78102499999999
 21
124.0365289999999
 31
0.0
  0
ARC
  5
B459
330
B31B
100
AcDbEntity
  8
1
  6
Continuous
100
AcDbCircle
 10
35.78102499999999
 20
123.946529
 30
0.0
 40
0.09
100
AcDbArc
 50
270.0
 51
90.0
  0
ARC
  5
B45A
330
B31B
100
AcDbEntity
  8
1
  6
Continuous
100
AcDbCircle
 10
29.66102499999999
 20
124.306432
 30
0.0
 40
0.09
100
AcDbArc
 50
90.0
 51
270.0
  0
LINE
  5
B45B
330
B31B
100
AcDbEntity
  8
1
  6
Continuous
100
AcDbLine
 10
29.72352499999999
 20
122.9706669999999
 30
0.0
 11
32.72102499999999
 21
122.6652899999999
 31
0.0
  0
LINE
  5
B45C
330
B31B
100
AcDbEntity
  8
1
  6
Continuous
100
AcDbLine
 10
29.739021
 20
123.274878
 30
0.0
 11
35.718525
 21
122.9702899999999
 31
0.0
  0
ARC
  5
B45D
330
B31B
100
AcDbEntity
  8
1
  6
Continuous
100
AcDbCircle
 10
29.72352499999999
 20
123.1231669999999
 30
0.0
 40
0.1525
100
AcDbArc
 50
84.16789599999999
 51
270.0
  0
ARC
  5
B45E
330
B31B
100
AcDbEntity
  8
1
  6
Continuous
100
AcDbCircle
 10
35.718525
 20
122.8177899999999
 30
0.0
 40
0.1525
100
AcDbArc
 50
270.0
 51
90.0
  0
LINE
  5
B45F
330
B31B
100
AcDbEntity
  8
1
  6
Continuous
100
AcDbLine
 10
29.742525
 20
121.6675679999999
 30
0.0
 11
32.72102499999999
 21
121.3242579999999
 31
0.0
  0
LINE
  5
B460
330
B31B
100
AcDbEntity
  8
1
  6
Continuous
100
AcDbLine
 10
29.762227
 20
122.009432
 30
0.0
 11
35.699525
 21
121.667258
 31
0.0
  0
ARC
  5
B461
330
B31B
100
AcDbEntity
  8
1
  6
Continuous
100
AcDbCircle
 10
29.742525
 20
121.8390679999999
 30
0.0
 40
0.1715
100
AcDbArc
 50
83.40322200000001
 51
270.0
  0
ARC
  5
B462
330
B31B
100
AcDbEntity
  8
1
  6
Continuous
100
AcDbCircle
 10
35.699525
 20
121.495758
 30
0.0
 40
0.1715
100
AcDbArc
 50
270.0
 51
90.0
  0
LINE
  5
B463
330
B31B
100
AcDbEntity
  8
1
  6
Continuous
100
AcDbLine
 10
32.72102499999999
 20
127.86781
 30
0.0
 11
35.84127500000001
 21
127.86781
 31
0.0
  0
LINE
  5
B464
330
B31B
100
AcDbEntity
  8
1
  6
Continuous
100
AcDbLine
 10
32.72102499999999
 20
127.303995
 30
0.0
 11
35.80877499999999
 21
127.303995
 31
0.0
  0
LINE
  5
B465
330
B31B
100
AcDbEntity
  8
1
  6
Continuous
100
AcDbLine
 10
32.72102499999999
 20
126.625957
 30
0.0
 11
35.783025
 21
126.625957
 31
0.0
  0
LINE
  5
B466
330
B31B
100
AcDbEntity
  8
1
  6
Continuous
100
AcDbLine
 10
32.72102499999999
 20
125.829258
 30
0.0
 11
35.76827500000001
 21
125.829258
 31
0.0
  0
LINE
  5
B467
330
B31B
100
AcDbEntity
  8
1
  6
Continuous
100
AcDbLine
 10
32.72102499999999
 20
124.908385
 30
0.0
 11
35.75252499999999
 21
124.908385
 31
0.0
  0
LINE
  5
B468
330
B31B
100
AcDbEntity
  8
1
  6
Continuous
100
AcDbLine
 10
32.72102499999999
 20
123.8565289999999
 30
0.0
 11
35.78102499999999
 21
123.8565289999999
 31
0.0
  0
LINE
  5
B469
330
B31B
100
AcDbEntity
  8
1
  6
Continuous
100
AcDbLine
 10
32.72102499999999
 20
122.6652899999999
 30
0.0
 11
35.718525
 21
122.6652899999999
 31
0.0
  0
LINE
  5
B46A
330
B31B
100
AcDbEntity
  8
1
  6
Continuous
100
AcDbLine
 10
32.72102499999999
 20
121.3242579999999
 30
0.0
 11
35.699525
 21
121.3242579999999
 31
0.0
  0
ARC
  5
B46B
330
B31B
100
AcDbEntity
  8
1
  6
Continuous
100
AcDbCircle
 10
35.545999
 20
107.016281
 30
0.0
 40
0.3
100
AcDbArc
 50
270.0
 51
90.0
  0
LINE
  5
B46C
330
B31B
100
AcDbEntity
  8
1
  6
Continuous
100
AcDbLine
 10
32.852182
 20
106.716281
 30
0.0
 11
35.545999
 21
106.716281
 31
0.0
  0
LINE
  5
B46D
330
B31B
100
AcDbEntity
  8
1
  6
Continuous
100
AcDbLine
 10
29.908465
 20
107.909706
 30
0.0
 11
35.545999
 21
107.316281
 31
0.0
  0
ARC
  5
B46E
330
B31B
100
AcDbEntity
  8
1
  6
Continuous
100
AcDbCircle
 10
35.578285
 20
111.4637
 30
0.0
 40
0.3
100
AcDbArc
 50
270.0
 51
90.0
  0
LINE
  5
B46F
330
B31B
100
AcDbEntity
  8
1
  6
Continuous
100
AcDbLine
 10
32.884468
 20
111.1636999999999
 30
0.0
 11
35.578285
 21
111.1636999999999
 31
0.0
  0
LINE
  5
B470
330
B31B
100
AcDbEntity
  8
1
  6
Continuous
100
AcDbLine
 10
29.94075099999999
 20
112.3571249999999
 30
0.0
 11
35.578285
 21
111.7636999999999
 31
0.0
  0
ARC
  5
B471
330
B31B
100
AcDbEntity
  8
1
  6
Continuous
100
AcDbCircle
 10
29.845999
 20
107.616281
 30
0.0
 40
0.3
100
AcDbArc
 50
77.981988
 51
270.0
  0
LINE
  5
B472
330
B31B
100
AcDbEntity
  8
1
  6
Continuous
100
AcDbLine
 10
29.845999
 20
107.316281
 30
0.0
 11
32.54316699999999
 21
106.748456
 31
0.0
  0
ARC
  5
B473
330
B31B
100
AcDbEntity
  8
1
  6
Continuous
100
AcDbCircle
 10
29.87828499999999
 20
112.0637
 30
0.0
 40
0.3
100
AcDbArc
 50
77.981988
 51
270.0
  0
LINE
  5
B474
330
B31B
100
AcDbEntity
  8
1
  6
Continuous
100
AcDbLine
 10
29.87828499999999
 20
111.7636999999999
 30
0.0
 11
32.575453
 21
111.195875
 31
0.0
  0
ARC
  5
B475
330
B31B
100
AcDbEntity
  8
1
  6
Continuous
100
AcDbCircle
 10
32.852182
 20
108.216281
 30
0.0
 40
1.5
100
AcDbArc
 50
258.1113419999999
 51
270.0
  0
ARC
  5
B476
330
B31B
100
AcDbEntity
  8
1
  6
Continuous
100
AcDbCircle
 10
32.884468
 20
112.6637
 30
0.0
 40
1.5
100
AcDbArc
 50
258.1113419999999
 51
270.0
  0
LINE
  5
B477
330
B31B
100
AcDbEntity
  8
1
  6
Continuous
100
AcDbLine
 10
29.87617399999999
 20
105.894535
 30
0.0
 11
35.513708
 21
105.3011099999999
 31
0.0
  0
LINE
  5
B478
330
B31B
100
AcDbEntity
  8
1
  6
Continuous
100
AcDbLine
 10
32.819891
 20
104.7011099999999
 30
0.0
 11
35.513708
 21
104.7011099999999
 31
0.0
  0
ARC
  5
B479
330
B31B
100
AcDbEntity
  8
1
  6
Continuous
100
AcDbCircle
 10
35.513708
 20
105.00111
 30
0.0
 40
0.3
100
AcDbArc
 50
270.0
 51
90.0
  0
LINE
  5
B47A
330
B31B
100
AcDbEntity
  8
1
  6
Continuous
100
AcDbLine
 10
29.65671099999999
 20
103.658204
 30
0.0
 11
35.52621099999999
 21
103.228187
 31
0.0
  0
LINE
  5
B47B
330
B31B
100
AcDbEntity
  8
1
  6
Continuous
100
AcDbLine
 10
35.49484000000001
 20
102.799985
 30
0.0
 11
32.59146099999998
 21
102.799985
 31
0.0
  0
LINE
  5
B47C
330
B31B
100
AcDbEntity
  8
1
  6
Continuous
100
AcDbLine
 10
29.65671099999999
 20
103.227704
 30
0.0
 11
32.59146099999998
 21
102.799985
 31
0.0
  0
LINE
  5
B47D
330
B31B
100
AcDbEntity
  8
1
  6
Continuous
100
AcDbLine
 10
29.813708
 20
105.3011099999999
 30
0.0
 11
32.510876
 21
104.7332849999999
 31
0.0
  0
ARC
  5
B47E
330
B31B
100
AcDbEntity
  8
1
  6
Continuous
100
AcDbCircle
 10
32.819891
 20
106.20111
 30
0.0
 40
1.5
100
AcDbArc
 50
258.1113419999999
 51
270.0
  0
ARC
  5
B47F
330
B31B
100
AcDbEntity
  8
1
  6
Continuous
100
AcDbCircle
 10
29.813708
 20
105.60111
 30
0.0
 40
0.3
100
AcDbArc
 50
77.981988
 51
270.0
  0
ARC
  5
B480
330
B31B
100
AcDbEntity
  8
1
  6
Continuous
100
AcDbCircle
 10
29.65671099999999
 20
103.442954
 30
0.0
 40
0.21525
100
AcDbArc
 50
90.0
 51
270.0
  0
ARC
  5
B481
330
B31B
100
AcDbEntity
  8
1
  6
Continuous
100
AcDbCircle
 10
35.52621099999999
 20
103.012937
 30
0.0
 40
0.21525
100
AcDbArc
 50
261.619662
 51
90.0
  0
ARC
  5
B482
330
B31B
100
AcDbEntity
  8
1
  6
Continuous
100
AcDbCircle
 10
32.93289999999998
 20
110.134728
 30
0.0
 40
1.5
100
AcDbArc
 50
258.1113419999999
 51
270.0
  0
ARC
  5
B483
330
B31B
100
AcDbEntity
  8
1
  6
Continuous
100
AcDbCircle
 10
35.626717
 20
108.934728
 30
0.0
 40
0.3
100
AcDbArc
 50
270.0
 51
90.0
  0
LINE
  5
B484
330
B31B
100
AcDbEntity
  8
1
  6
Continuous
100
AcDbLine
 10
32.93289999999998
 20
108.634728
 30
0.0
 11
35.626717
 21
108.634728
 31
0.0
  0
LINE
  5
B485
330
B31B
100
AcDbEntity
  8
1
  6
Continuous
100
AcDbLine
 10
29.989183
 20
109.8281529999999
 30
0.0
 11
35.626717
 21
109.234728
 31
0.0
  0
LINE
  5
B486
330
B31B
100
AcDbEntity
  8
1
  6
Continuous
100
AcDbLine
 10
29.926717
 20
109.234728
 30
0.0
 11
32.62388499999998
 21
108.666903
 31
0.0
  0
ARC
  5
B487
330
B31B
100
AcDbEntity
  8
1
  6
Continuous
100
AcDbCircle
 10
29.926717
 20
109.534728
 30
0.0
 40
0.3
100
AcDbArc
 50
77.981988
 51
270.0
  0
LINE
  5
B488
330
B31B
100
AcDbEntity
  8
1
  6
Continuous
100
AcDbLine
 10
32.73817299999999
 20
101.1996469999999
 30
0.0
 11
35.735673
 21
101.1996469999999
 31
0.0
  0
ARC
  5
B489
330
B31B
100
AcDbEntity
  8
1
  6
Continuous
100
AcDbCircle
 10
35.735673
 20
101.352147
 30
0.0
 40
0.1525
100
AcDbArc
 50
270.0
 51
90.0
  0
LINE
  5
B48A
330
B31B
100
AcDbEntity
  8
1
  6
Continuous
100
AcDbLine
 10
29.74067299999999
 20
101.505024
 30
0.0
 11
32.73817299999999
 21
101.1996469999999
 31
0.0
  0
ARC
  5
B48B
330
B31B
100
AcDbEntity
  8
1
  6
Continuous
100
AcDbCircle
 10
29.74067299999999
 20
101.6575239999999
 30
0.0
 40
0.1525
100
AcDbArc
 50
84.16789599999999
 51
270.0
  0
LINE
  5
B48C
330
B31B
100
AcDbEntity
  8
1
  6
Continuous
100
AcDbLine
 10
29.756169
 20
101.809235
 30
0.0
 11
35.735673
 21
101.5046469999999
 31
0.0
  0
LINE
  5
B48D
330
B31B
100
AcDbEntity
  8
1
  6
Continuous
100
AcDbLine
 10
32.609023
 20
99.780963
 30
0.0
 11
35.60652299999999
 21
99.780963
 31
0.0
  0
ARC
  5
B48E
330
B31B
100
AcDbEntity
  8
1
  6
Continuous
100
AcDbCircle
 10
35.60652299999999
 20
99.933463
 30
0.0
 40
0.1525
100
AcDbArc
 50
270.0
 51
90.0
  0
LINE
  5
B48F
330
B31B
100
AcDbEntity
  8
1
  6
Continuous
100
AcDbLine
 10
29.611523
 20
100.08634
 30
0.0
 11
32.609023
 21
99.780963
 31
0.0
  0
ARC
  5
B490
330
B31B
100
AcDbEntity
  8
1
  6
Continuous
100
AcDbCircle
 10
29.611523
 20
100.23884
 30
0.0
 40
0.1525
100
AcDbArc
 50
84.16789599999999
 51
270.0
  0
LINE
  5
B491
330
B31B
100
AcDbEntity
  8
1
  6
Continuous
100
AcDbLine
 10
29.627019
 20
100.390551
 30
0.0
 11
35.60652299999999
 21
100.085963
 31
0.0
  0
ARC
  5
B492
330
B31B
100
AcDbEntity
  8
1
  6
Continuous
100
AcDbCircle
 10
29.69052700000001
 20
99.01001800000001
 30
0.0
 40
0.1185
100
AcDbArc
 50
85.52619399999997
 51
270.0
  0
LINE
  5
B493
330
B31B
100
AcDbEntity
  8
1
  6
Continuous
100
AcDbLine
 10
32.72202699999999
 20
98.65469
 30
0.0
 11
29.69052700000001
 21
98.891518
 31
0.0
  0
ARC
  5
B494
330
B31B
100
AcDbEntity
  8
1
  6
Continuous
100
AcDbCircle
 10
35.75352699999999
 20
98.77318999999999
 30
0.0
 40
0.1185
100
AcDbArc
 50
270.0
 51
90.0
  0
LINE
  5
B495
330
B31B
100
AcDbEntity
  8
1
  6
Continuous
100
AcDbLine
 10
29.69977
 20
99.12815700000001
 30
0.0
 11
35.75352699999999
 21
98.89169
 31
0.0
  0
LINE
  5
B496
330
B31B
100
AcDbEntity
  8
1
  6
Continuous
100
AcDbLine
 10
32.72202699999999
 20
98.65469
 30
0.0
 11
35.75352699999999
 21
98.65469
 31
0.0
  0
ARC
  5
B497
330
B31B
100
AcDbEntity
  8
1
  6
Continuous
100
AcDbCircle
 10
29.676168
 20
97.621256
 30
0.0
 40
0.088
100
AcDbArc
 50
86.71334399999997
 51
270.0
  0
ARC
  5
B498
330
B31B
100
AcDbEntity
  8
1
  6
Continuous
100
AcDbCircle
 10
29.65041799999999
 20
98.267751
 30
0.0
 40
0.06225
100
AcDbArc
 50
90.0
 51
270.0
  0
LINE
  5
B499
330
B31B
100
AcDbEntity
  8
1
  6
Continuous
100
AcDbLine
 10
29.676168
 20
97.53325600000003
 30
0.0
 11
32.738168
 21
97.357562
 31
0.0
  0
LINE
  5
B49A
330
B31B
100
AcDbEntity
  8
1
  6
Continuous
100
AcDbLine
 10
32.738168
 20
98.0356
 30
0.0
 11
29.65041799999999
 21
98.205501
 31
0.0
  0
LINE
  5
B49B
330
B31B
100
AcDbEntity
  8
1
  6
Continuous
100
AcDbLine
 10
32.738168
 20
97.357562
 30
0.0
 11
35.800168
 21
97.357562
 31
0.0
  0
LINE
  5
B49C
330
B31B
100
AcDbEntity
  8
1
  6
Continuous
100
AcDbLine
 10
32.738168
 20
98.0356
 30
0.0
 11
35.825918
 21
98.0356
 31
0.0
  0
ARC
  5
B49D
330
B31B
100
AcDbEntity
  8
1
  6
Continuous
100
AcDbCircle
 10
35.800168
 20
97.44556199999999
 30
0.0
 40
0.088
100
AcDbArc
 50
270.0
 51
90.0
  0
LINE
  5
B49E
330
B31B
100
AcDbEntity
  8
1
  6
Continuous
100
AcDbLine
 10
29.68121299999999
 20
97.70911099999999
 30
0.0
 11
35.800168
 21
97.533562
 31
0.0
  0
ARC
  5
B49F
330
B31B
100
AcDbEntity
  8
1
  6
Continuous
100
AcDbCircle
 10
35.825918
 20
98.09784999999999
 30
0.0
 40
0.06225
100
AcDbArc
 50
270.0
 51
90.0
  0
LINE
  5
B4A0
330
B31B
100
AcDbEntity
  8
1
  6
Continuous
100
AcDbLine
 10
29.65041799999999
 20
98.33000099999999
 30
0.0
 11
35.825918
 21
98.1601
 31
0.0
  0
ARC
  5
B4A1
330
B31B
100
AcDbEntity
  8
1
  6
Continuous
100
AcDbCircle
 10
29.55684600000001
 20
96.85259300000002
 30
0.0
 40
0.03325
100
AcDbArc
 50
88.77976600000001
 51
270.0
  0
LINE
  5
B4A2
330
B31B
100
AcDbEntity
  8
1
  6
Continuous
100
AcDbLine
 10
32.67359600000001
 20
96.75296299999999
 30
0.0
 11
29.55684600000001
 21
96.81934300000001
 31
0.0
  0
LINE
  5
B4A3
330
B31B
100
AcDbEntity
  8
1
  6
Continuous
100
AcDbLine
 10
32.67359600000001
 20
96.75296299999999
 30
0.0
 11
35.79034599999999
 21
96.75296299999999
 31
0.0
  0
ARC
  5
B4A4
330
B31B
100
AcDbEntity
  8
1
  6
Continuous
100
AcDbCircle
 10
35.79034599999999
 20
96.78621300000001
 30
0.0
 40
0.03325
100
AcDbArc
 50
270.0
 51
90.0
  0
LINE
  5
B4A5
330
B31B
100
AcDbEntity
  8
1
  6
Continuous
100
AcDbLine
 10
29.557554
 20
96.885835
 30
0.0
 11
35.79034599999999
 21
96.81946299999999
 31
0.0
  0
ARC
  5
B4A6
330
B31B
100
AcDbEntity
  8
1
  6
Continuous
100
AcDbCircle
 10
106.3686909999999
 20
45.56154999999999
 30
0.0
 40
0.1525
100
AcDbArc
 50
172.499128
 51
358.331232
  0
LINE
  5
B4A7
330
B31B
100
AcDbEntity
  8
1
  6
Continuous
100
AcDbLine
 10
100.6926769999999
 20
45.60832099999998
 30
0.0
 11
100.75912
 21
45.605677
 31
0.0
  0
ARC
  5
B4A8
330
B31B
100
AcDbEntity
  8
1
  6
Continuous
100
AcDbCircle
 10
105.1841079999999
 20
45.533535
 30
0.0
 40
0.09
100
AcDbArc
 50
178.331232
 51
358.331232
  0
ARC
  5
B4A9
330
B31B
100
AcDbEntity
  8
1
  6
Continuous
100
AcDbCircle
 10
103.353863
 20
45.599612
 30
0.0
 40
0.10275
100
AcDbArc
 50
178.331232
 51
358.331232
  0
ARC
  5
B4AA
330
B31B
100
AcDbEntity
  8
1
  6
Continuous
100
AcDbCircle
 10
104.228063
 20
45.5899
 30
0.0
 40
0.1185
100
AcDbArc
 50
173.857426
 51
358.331232
  0
ARC
  5
B4AB
330
B31B
100
AcDbEntity
  8
1
  6
Continuous
100
AcDbCircle
 10
101.0313749999999
 20
45.610751
 30
0.0
 40
0.04625
100
AcDbArc
 50
176.624179
 51
358.331232
  0
ARC
  5
B4AC
330
B31B
100
AcDbEntity
  8
1
  6
Continuous
100
AcDbCircle
 10
101.41336
 20
45.583115
 30
0.0
 40
0.02975
100
AcDbArc
 50
175.0366999999999
 51
358.331232
  0
ARC
  5
B4AD
330
B31B
100
AcDbEntity
  8
1
  6
Continuous
100
AcDbCircle
 10
101.954956
 20
45.59985
 30
0.0
 40
0.06225
100
AcDbArc
 50
178.331232
 51
358.331232
  0
ARC
  5
B4AE
330
B31B
100
AcDbEntity
  8
1
  6
Continuous
100
AcDbCircle
 10
102.6019259999999
 20
45.60676299999999
 30
0.0
 40
0.088
100
AcDbArc
 50
175.044576
 51
358.331232
  0
LINE
  5
B4AF
330
B31B
100
AcDbEntity
  8
1
  6
Continuous
100
AcDbLine
 10
101.26043
 20
48.709145
 30
0.0
 11
101.3508159999999
 21
51.81157800000001
 31
0.0
  0
LINE
  5
B4B0
330
B31B
100
AcDbEntity
  8
1
  6
Continuous
100
AcDbLine
 10
100.9162359999999
 20
48.719172
 30
0.0
 11
101.007
 21
51.8346
 31
0.0
  0
ARC
  5
B4B1
330
B31B
100
AcDbEntity
  8
1
  6
Continuous
100
AcDbCircle
 10
102.3046239999999
 20
51.767783
 30
0.0
 40
0.06225
100
AcDbArc
 50
358.331232
 51
178.331232
  0
ARC
  5
B4B2
330
B31B
100
AcDbEntity
  8
1
  6
Continuous
100
AcDbCircle
 10
102.9558849999999
 20
51.723049
 30
0.0
 40
0.088
100
AcDbArc
 50
358.331232
 51
178.331232
  0
ARC
  5
B4B3
330
B31B
100
AcDbEntity
  8
1
  6
Continuous
100
AcDbCircle
 10
103.7370729999999
 20
51.685534
 30
0.0
 40
0.10275
100
AcDbArc
 50
358.331232
 51
178.331232
  0
ARC
  5
B4B4
330
B31B
100
AcDbEntity
  8
1
  6
Continuous
100
AcDbCircle
 10
104.641354
 20
51.64343200000001
 30
0.0
 40
0.1185
100
AcDbArc
 50
358.331232
 51
178.331232
  0
LINE
  5
B4B5
330
B31B
100
AcDbEntity
  8
1
  6
Continuous
100
AcDbLine
 10
101.713352
 20
48.695949
 30
0.0
 11
101.804218
 21
51.814876
 31
0.0
  0
LINE
  5
B4B6
330
B31B
100
AcDbEntity
  8
1
  6
Continuous
100
AcDbLine
 10
102.2769279999999
 20
48.67952999999999
 30
0.0
 11
102.366847
 21
51.765971
 31
0.0
  0
LINE
  5
B4B7
330
B31B
100
AcDbEntity
  8
1
  6
Continuous
100
AcDbLine
 10
102.9546779999999
 20
48.659785
 30
0.0
 11
103.0438479999999
 21
51.720486
 31
0.0
  0
LINE
  5
B4B8
330
B31B
100
AcDbEntity
  8
1
  6
Continuous
100
AcDbLine
 10
103.751039
 20
48.636584
 30
0.0
 11
103.83978
 21
51.682541
 31
0.0
  0
LINE
  5
B4B9
330
B31B
100
AcDbEntity
  8
1
  6
Continuous
100
AcDbLine
 10
104.671522
 20
48.609767
 30
0.0
 11
104.759803
 21
51.639981
 31
0.0
  0
ARC
  5
B4BA
330
B31B
100
AcDbEntity
  8
1
  6
Continuous
100
AcDbCircle
 10
105.722081
 20
51.640458
 30
0.0
 40
0.09
100
AcDbArc
 50
358.331232
 51
178.331232
  0
LINE
  5
B4BB
330
B31B
100
AcDbEntity
  8
1
  6
Continuous
100
AcDbLine
 10
105.722932
 20
48.579135
 30
0.0
 11
105.812043
 21
51.63783699999999
 31
0.0
  0
ARC
  5
B4BC
330
B31B
100
AcDbEntity
  8
1
  6
Continuous
100
AcDbCircle
 10
106.848522
 20
51.545114
 30
0.0
 40
0.1525
100
AcDbArc
 50
358.331232
 51
178.331232
  0
LINE
  5
B4BD
330
B31B
100
AcDbEntity
  8
1
  6
Continuous
100
AcDbLine
 10
106.9136659999999
 20
48.544445
 30
0.0
 11
107.000957
 21
51.540673
 31
0.0
  0
LINE
  5
B4BE
330
B31B
100
AcDbEntity
  8
1
  6
Continuous
100
AcDbLine
 10
101.2583549999999
 20
51.81427199999999
 30
0.0
 11
100.9852049999999
 21
45.613475
 31
0.0
  0
LINE
  5
B4BF
330
B31B
100
AcDbEntity
  8
1
  6
Continuous
100
AcDbLine
 10
100.6926769999999
 20
45.60832099999998
 30
0.0
 11
100.9405289999999
 21
51.836537
 31
0.0
  0
LINE
  5
B4C0
330
B31B
100
AcDbEntity
  8
1
  6
Continuous
100
AcDbLine
 10
101.744743
 20
51.816609
 30
0.0
 11
101.3837209999998
 21
45.585689
 31
0.0
  0
LINE
  5
B4C1
330
B31B
100
AcDbEntity
  8
1
  6
Continuous
100
AcDbLine
 10
101.8927319999999
 20
45.601663
 30
0.0
 11
102.2423999999999
 21
51.76959599999999
 31
0.0
  0
LINE
  5
B4C2
330
B31B
100
AcDbEntity
  8
1
  6
Continuous
100
AcDbLine
 10
102.514256
 20
45.614364
 30
0.0
 11
102.867923
 21
51.725612
 31
0.0
  0
LINE
  5
B4C3
330
B31B
100
AcDbEntity
  8
1
  6
Continuous
100
AcDbLine
 10
103.251157
 20
45.60260399999999
 30
0.0
 11
103.6343669999999
 21
51.68852600000001
 31
0.0
  0
LINE
  5
B4C4
330
B31B
100
AcDbEntity
  8
1
  6
Continuous
100
AcDbLine
 10
104.110243
 20
45.60258
 30
0.0
 11
104.5229039999999
 21
51.646883
 31
0.0
  0
LINE
  5
B4C5
330
B31B
100
AcDbEntity
  8
1
  6
Continuous
100
AcDbLine
 10
105.0941459999999
 20
45.53615599999999
 30
0.0
 11
105.6321199999999
 21
51.643079
 31
0.0
  0
LINE
  5
B4C6
330
B31B
100
AcDbEntity
  8
1
  6
Continuous
100
AcDbLine
 10
101.077605
 20
45.60940399999998
 30
0.0
 11
101.26043
 21
48.709145
 31
0.0
  0
LINE
  5
B4C7
330
B31B
100
AcDbEntity
  8
1
  6
Continuous
100
AcDbLine
 10
100.9162359999999
 20
48.719172
 30
0.0
 11
100.75912
 21
45.605677
 31
0.0
  0
LINE
  5
B4C8
330
B31B
100
AcDbEntity
  8
1
  6
Continuous
100
AcDbLine
 10
101.443097
 20
45.58224899999999
 30
0.0
 11
101.713352
 21
48.695949
 31
0.0
  0
LINE
  5
B4C9
330
B31B
100
AcDbEntity
  8
1
  6
Continuous
100
AcDbLine
 10
102.2769279999999
 20
48.67952999999999
 30
0.0
 11
102.017179
 21
45.598038
 31
0.0
  0
LINE
  5
B4CA
330
B31B
100
AcDbEntity
  8
1
  6
Continuous
100
AcDbLine
 10
102.689889
 20
45.60419999999999
 30
0.0
 11
102.9546779999999
 21
48.659785
 31
0.0
  0
LINE
  5
B4CB
330
B31B
100
AcDbEntity
  8
1
  6
Continuous
100
AcDbLine
 10
103.4565699999999
 20
45.59662
 30
0.0
 11
103.751039
 21
48.636584
 31
0.0
  0
LINE
  5
B4CC
330
B31B
100
AcDbEntity
  8
1
  6
Continuous
100
AcDbLine
 10
104.671522
 20
48.609767
 30
0.0
 11
104.3465129999999
 21
45.58644899999999
 31
0.0
  0
LINE
  5
B4CD
330
B31B
100
AcDbEntity
  8
1
  6
Continuous
100
AcDbLine
 10
105.2740699999999
 20
45.530914
 30
0.0
 11
105.722932
 21
48.579135
 31
0.0
  0
LINE
  5
B4CE
330
B31B
100
AcDbEntity
  8
1
  6
Continuous
100
AcDbLine
 10
106.2174959999999
 20
45.58145699999999
 30
0.0
 11
106.696086
 21
51.54955499999999
 31
0.0
  0
LINE
  5
B4CF
330
B31B
100
AcDbEntity
  8
1
  6
Continuous
100
AcDbLine
 10
106.521127
 20
45.557109
 30
0.0
 11
106.9136659999999
 21
48.544445
 31
0.0
  0
ARC
  5
B4D0
330
B31B
100
AcDbEntity
  8
1
  6
Continuous
100
AcDbCircle
 10
101.304585
 20
51.812925
 30
0.0
 40
0.04625
100
AcDbArc
 50
358.331232
 51
178.331232
  0
ARC
  5
B4D1
330
B31B
100
AcDbEntity
  8
1
  6
Continuous
100
AcDbCircle
 10
100.9737639999999
 20
51.835569
 30
0.0
 40
0.03325
100
AcDbArc
 50
358.331232
 51
178.331232
  0
ARC
  5
B4D2
330
B31B
100
AcDbEntity
  8
1
  6
Continuous
100
AcDbCircle
 10
101.7744809999999
 20
51.815742
 30
0.0
 40
0.02975
100
AcDbArc
 50
358.331232
 51
178.331232
  0
LINE
  5
B4D3
330
B31B
100
AcDbEntity
  8
1
  6
Continuous
100
AcDbLine
 10
108.01122
 20
45.664937
 30
0.0
 11
108.4817689999999
 21
48.610233
 31
0.0
  0
LINE
  5
B4D4
330
B31B
100
AcDbEntity
  8
1
  6
Continuous
100
AcDbLine
 10
107.626883
 20
45.67613399999999
 30
0.0
 11
108.1835659999998
 21
51.577926
 31
0.0
  0
ARC
  5
B4D5
330
B31B
100
AcDbEntity
  8
1
  6
Continuous
100
AcDbCircle
 10
108.375734
 20
51.572328
 30
0.0
 40
0.19225
100
AcDbArc
 50
358.331232
 51
178.331232
  0
LINE
  5
B4D6
330
B31B
100
AcDbEntity
  8
1
  6
Continuous
100
AcDbLine
 10
108.567902
 20
51.566729
 30
0.0
 11
108.4817689999999
 21
48.610233
 31
0.0
  0
ARC
  5
B4D7
330
B31B
100
AcDbEntity
  8
1
  6
Continuous
100
AcDbCircle
 10
107.8190519999999
 20
45.670536
 30
0.0
 40
0.19225
100
AcDbArc
 50
178.331232
 51
358.331232
  0
LINE
  5
B4D8
330
B31B
100
AcDbEntity
  8
1
  6
Continuous
100
AcDbLine
 10
116.4444749999999
 20
45.77199
 30
0.0
 11
117.066694
 21
51.406418
 31
0.0
  0
LINE
  5
B4D9
330
B31B
100
AcDbEntity
  8
1
  6
Continuous
100
AcDbLine
 10
114.044506
 20
45.784252
 30
0.0
 11
114.6667249999999
 21
51.41868
 31
0.0
  0
LINE
  5
B4DA
330
B31B
100
AcDbEntity
  8
1
  6
Continuous
100
AcDbLine
 10
117.652923
 20
48.709571
 30
0.0
 11
117.666686
 21
51.403353
 31
0.0
  0
LINE
  5
B4DB
330
B31B
100
AcDbEntity
  8
1
  6
Continuous
100
AcDbLine
 10
115.252955
 20
48.72183299999999
 30
0.0
 11
115.2667179999999
 21
51.415615
 31
0.0
  0
LINE
  5
B4DC
330
B31B
100
AcDbEntity
  8
1
  6
Continuous
100
AcDbLine
 10
109.2445679999999
 20
45.80877499999998
 30
0.0
 11
109.8667879999998
 21
51.44320399999998
 31
0.0
  0
LINE
  5
B4DD
330
B31B
100
AcDbEntity
  8
1
  6
Continuous
100
AcDbLine
 10
111.644537
 20
45.796513
 30
0.0
 11
112.266757
 21
51.430942
 31
0.0
  0
LINE
  5
B4DE
330
B31B
100
AcDbEntity
  8
1
  6
Continuous
100
AcDbLine
 10
112.852986
 20
48.73409500000001
 30
0.0
 11
112.8667489999999
 21
51.427876
 31
0.0
  0
LINE
  5
B4DF
330
B31B
100
AcDbEntity
  8
1
  6
Continuous
100
AcDbLine
 10
110.4530169999998
 20
48.746356
 30
0.0
 11
110.46678
 21
51.44013799999999
 31
0.0
  0
LINE
  5
B4E0
330
B31B
100
AcDbEntity
  8
1
  6
Continuous
100
AcDbLine
 10
117.0375729999999
 20
45.706493
 30
0.0
 11
117.6191699999999
 21
48.400725
 31
0.0
  0
ARC
  5
B4E1
330
B31B
100
AcDbEntity
  8
1
  6
Continuous
100
AcDbCircle
 10
116.737577
 20
45.70802599999999
 30
0.0
 40
0.3
100
AcDbArc
 50
167.6892599999999
 51
359.707272
  0
ARC
  5
B4E2
330
B31B
100
AcDbEntity
  8
1
  6
Continuous
100
AcDbCircle
 10
114.337608
 20
45.72028699999999
 30
0.0
 40
0.3
100
AcDbArc
 50
167.6892599999999
 51
359.707272
  0
LINE
  5
B4E3
330
B31B
100
AcDbEntity
  8
1
  6
Continuous
100
AcDbLine
 10
114.637604
 20
45.71875499999999
 30
0.0
 11
115.219201
 21
48.412986
 31
0.0
  0
ARC
  5
B4E4
330
B31B
100
AcDbEntity
  8
1
  6
Continuous
100
AcDbCircle
 10
116.1529429999998
 20
48.71723499999998
 30
0.0
 40
1.5
100
AcDbArc
 50
347.818614
 51
359.707272
  0
ARC
  5
B4E5
330
B31B
100
AcDbEntity
  8
1
  6
Continuous
100
AcDbCircle
 10
113.7529739999999
 20
48.729496
 30
0.0
 40
1.5
100
AcDbArc
 50
347.818614
 51
359.707272
  0
ARC
  5
B4E6
330
B31B
100
AcDbEntity
  8
1
  6
Continuous
100
AcDbCircle
 10
109.537671
 20
45.74481099999998
 30
0.0
 40
0.3
100
AcDbArc
 50
167.6892599999999
 51
359.707272
  0
LINE
  5
B4E7
330
B31B
100
AcDbEntity
  8
1
  6
Continuous
100
AcDbLine
 10
112.237635
 20
45.731016
 30
0.0
 11
112.819233
 21
48.42524799999999
 31
0.0
  0
ARC
  5
B4E8
330
B31B
100
AcDbEntity
  8
1
  6
Continuous
100
AcDbCircle
 10
111.9376389999999
 20
45.732549
 30
0.0
 40
0.3
100
AcDbArc
 50
167.6892599999999
 51
359.707272
  0
LINE
  5
B4E9
330
B31B
100
AcDbEntity
  8
1
  6
Continuous
100
AcDbLine
 10
109.8376669999999
 20
45.74327799999998
 30
0.0
 11
110.4192639999999
 21
48.43751000000001
 31
0.0
  0
ARC
  5
B4EA
330
B31B
100
AcDbEntity
  8
1
  6
Continuous
100
AcDbCircle
 10
111.3530059999999
 20
48.74175799999999
 30
0.0
 40
1.5
100
AcDbArc
 50
347.818614
 51
359.707272
  0
ARC
  5
B4EB
330
B31B
100
AcDbEntity
  8
1
  6
Continuous
100
AcDbCircle
 10
108.953037
 20
48.75402000000001
 30
0.0
 40
1.5
100
AcDbArc
 50
347.818614
 51
359.707272
  0
ARC
  5
B4EC
330
B31B
100
AcDbEntity
  8
1
  6
Continuous
100
AcDbCircle
 10
117.3666899999999
 20
51.404886
 30
0.0
 40
0.3
100
AcDbArc
 50
359.707272
 51
179.7072719999999
  0
ARC
  5
B4ED
330
B31B
100
AcDbEntity
  8
1
  6
Continuous
100
AcDbCircle
 10
114.9667219999999
 20
51.417147
 30
0.0
 40
0.3
100
AcDbArc
 50
359.707272
 51
179.7072719999999
  0
ARC
  5
B4EE
330
B31B
100
AcDbEntity
  8
1
  6
Continuous
100
AcDbCircle
 10
112.566753
 20
51.429409
 30
0.0
 40
0.3
100
AcDbArc
 50
359.707272
 51
179.7072719999999
  0
ARC
  5
B4EF
330
B31B
100
AcDbEntity
  8
1
  6
Continuous
100
AcDbCircle
 10
110.166784
 20
51.441671
 30
0.0
 40
0.3
100
AcDbArc
 50
359.707272
 51
179.7072719999999
  0
ARC
  5
B4F0
330
B31B
100
AcDbEntity
  8
1
  6
Continuous
100
AcDbCircle
 10
199.345619
 20
121.816568
 30
0.0
 40
0.3
100
AcDbArc
 50
89.707272
 51
269.707272
  0
ARC
  5
B4F1
330
B31B
100
AcDbEntity
  8
1
  6
Continuous
100
AcDbCircle
 10
199.333358
 20
119.4166
 30
0.0
 40
0.3
100
AcDbArc
 50
89.707272
 51
269.707272
  0
ARC
  5
B4F2
330
B31B
100
AcDbEntity
  8
1
  6
Continuous
100
AcDbCircle
 10
199.3210959999999
 20
117.016631
 30
0.0
 40
0.3
100
AcDbArc
 50
89.707272
 51
269.707272
  0
ARC
  5
B4F3
330
B31B
100
AcDbEntity
  8
1
  6
Continuous
100
AcDbCircle
 10
199.3088339999999
 20
114.616662
 30
0.0
 40
0.3
100
AcDbArc
 50
89.707272
 51
269.707272
  0
LINE
  5
B4F4
330
B31B
100
AcDbEntity
  8
1
  6
Continuous
100
AcDbLine
 10
205.044012
 20
121.487451
 30
0.0
 11
202.34978
 21
122.069048
 31
0.0
  0
ARC
  5
B4F5
330
B31B
100
AcDbEntity
  8
1
  6
Continuous
100
AcDbCircle
 10
205.030218
 20
118.787486
 30
0.0
 40
0.3
100
AcDbArc
 50
257.6892599999998
 51
89.707272
  0
LINE
  5
B4F6
330
B31B
100
AcDbEntity
  8
1
  6
Continuous
100
AcDbLine
 10
205.0317499999999
 20
119.0874819999999
 30
0.0
 11
202.3375189999999
 21
119.669079
 31
0.0
  0
LINE
  5
B4F7
330
B31B
100
AcDbEntity
  8
1
  6
Continuous
100
AcDbLine
 10
205.0194889999999
 20
116.6875129999999
 30
0.0
 11
202.3252569999999
 21
117.269111
 31
0.0
  0
ARC
  5
B4F8
330
B31B
100
AcDbEntity
  8
1
  6
Continuous
100
AcDbCircle
 10
205.017956
 20
116.3875169999998
 30
0.0
 40
0.3
100
AcDbArc
 50
257.6892599999998
 51
89.707272
  0
ARC
  5
B4F9
330
B31B
100
AcDbEntity
  8
1
  6
Continuous
100
AcDbCircle
 10
205.005694
 20
113.987548
 30
0.0
 40
0.3
100
AcDbArc
 50
257.6892599999998
 51
89.707272
  0
LINE
  5
B4FA
330
B31B
100
AcDbEntity
  8
1
  6
Continuous
100
AcDbLine
 10
205.007227
 20
114.287545
 30
0.0
 11
202.3129949999999
 21
114.869142
 31
0.0
  0
ARC
  5
B4FB
330
B31B
100
AcDbEntity
  8
1
  6
Continuous
100
AcDbCircle
 10
202.0210089999999
 20
118.202852
 30
0.0
 40
1.5
100
AcDbArc
 50
77.81861399999998
 51
89.707272
  0
ARC
  5
B4FC
330
B31B
100
AcDbEntity
  8
1
  6
Continuous
100
AcDbCircle
 10
202.0087469999999
 20
115.802884
 30
0.0
 40
1.5
100
AcDbArc
 50
77.81861399999998
 51
89.707272
  0
ARC
  5
B4FD
330
B31B
100
AcDbEntity
  8
1
  6
Continuous
100
AcDbCircle
 10
201.996485
 20
113.4029149999998
 30
0.0
 40
1.5
100
AcDbArc
 50
77.81861399999998
 51
89.707272
  0
ARC
  5
B4FE
330
B31B
100
AcDbEntity
  8
1
  6
Continuous
100
AcDbCircle
 10
205.042479
 20
121.187455
 30
0.0
 40
0.3
100
AcDbArc
 50
257.6892599999998
 51
89.707272
  0
ARC
  5
B4FF
330
B31B
100
AcDbEntity
  8
1
  6
Continuous
100
AcDbCircle
 10
202.0332699999999
 20
120.6028209999999
 30
0.0
 40
1.5
100
AcDbArc
 50
77.81861399999998
 51
89.707272
  0
LINE
  5
B500
330
B31B
100
AcDbEntity
  8
1
  6
Continuous
100
AcDbLine
 10
204.9662529999999
 20
118.494384
 30
0.0
 11
199.331825
 21
119.1166029999999
 31
0.0
  0
LINE
  5
B501
330
B31B
100
AcDbEntity
  8
1
  6
Continuous
100
AcDbLine
 10
204.9539919999999
 20
116.0944149999999
 30
0.0
 11
199.3195629999999
 21
116.716635
 31
0.0
  0
LINE
  5
B502
330
B31B
100
AcDbEntity
  8
1
  6
Continuous
100
AcDbLine
 10
204.9417299999999
 20
113.694446
 30
0.0
 11
199.3073009999999
 21
114.316666
 31
0.0
  0
LINE
  5
B503
330
B31B
100
AcDbEntity
  8
1
  6
Continuous
100
AcDbLine
 10
202.028672
 20
119.702833
 30
0.0
 11
199.3348899999998
 21
119.7165959999999
 31
0.0
  0
LINE
  5
B504
330
B31B
100
AcDbEntity
  8
1
  6
Continuous
100
AcDbLine
 10
202.01641
 20
117.3028639999998
 30
0.0
 11
199.322629
 21
117.316627
 31
0.0
  0
LINE
  5
B505
330
B31B
100
AcDbEntity
  8
1
  6
Continuous
100
AcDbLine
 10
202.004149
 20
114.9028949999999
 30
0.0
 11
199.3103669999999
 21
114.916658
 31
0.0
  0
LINE
  5
B506
330
B31B
100
AcDbEntity
  8
1
  6
Continuous
100
AcDbLine
 10
204.9785149999999
 20
120.894352
 30
0.0
 11
199.344087
 21
121.5165719999999
 31
0.0
  0
LINE
  5
B507
330
B31B
100
AcDbEntity
  8
1
  6
Continuous
100
AcDbLine
 10
202.040934
 20
122.1028009999999
 30
0.0
 11
199.3471519999999
 21
122.1165639999999
 31
0.0
  0
LINE
  5
B508
330
B31B
100
AcDbEntity
  8
1
  6
Continuous
100
AcDbLine
 10
204.945157
 20
122.6074899999999
 30
0.0
 11
199.310729
 21
123.22971
 31
0.0
  0
LINE
  5
B509
330
B31B
100
AcDbEntity
  8
1
  6
Continuous
100
AcDbLine
 10
205.187934
 20
124.3161729999999
 30
0.0
 11
199.320707
 21
124.776171
 31
0.0
  0
LINE
  5
B50A
330
B31B
100
AcDbEntity
  8
1
  6
Continuous
100
AcDbLine
 10
205.0106539999999
 20
123.2005879999999
 30
0.0
 11
202.3164219999999
 21
123.782186
 31
0.0
  0
ARC
  5
B50B
330
B31B
100
AcDbEntity
  8
1
  6
Continuous
100
AcDbCircle
 10
205.009121
 20
122.9005919999998
 30
0.0
 40
0.3
100
AcDbArc
 50
257.6892599999998
 51
89.707272
  0
LINE
  5
B50C
330
B31B
100
AcDbEntity
  8
1
  6
Continuous
100
AcDbLine
 10
205.190133
 20
124.7466669999999
 30
0.0
 11
202.2576069999999
 21
125.189374
 31
0.0
  0
ARC
  5
B50D
330
B31B
100
AcDbEntity
  8
1
  6
Continuous
100
AcDbCircle
 10
205.1890329999999
 20
124.5314199999999
 30
0.0
 40
0.21525
100
AcDbArc
 50
269.707272
 51
89.707272
  0
LINE
  5
B50E
330
B31B
100
AcDbEntity
  8
1
  6
Continuous
100
AcDbLine
 10
202.007576
 20
123.8159389999998
 30
0.0
 11
199.313794
 21
123.829702
 31
0.0
  0
LINE
  5
B50F
330
B31B
100
AcDbEntity
  8
1
  6
Continuous
100
AcDbLine
 10
199.3542659999999
 20
125.204208
 30
0.0
 11
202.2576069999999
 21
125.189374
 31
0.0
  0
ARC
  5
B510
330
B31B
100
AcDbEntity
  8
1
  6
Continuous
100
AcDbCircle
 10
199.312261
 20
123.529706
 30
0.0
 40
0.3
100
AcDbArc
 50
89.707272
 51
269.707272
  0
ARC
  5
B511
330
B31B
100
AcDbEntity
  8
1
  6
Continuous
100
AcDbCircle
 10
199.321807
 20
124.9914189999998
 30
0.0
 40
0.21525
100
AcDbArc
 50
81.32693399999999
 51
269.707272
  0
ARC
  5
B512
330
B31B
100
AcDbEntity
  8
1
  6
Continuous
100
AcDbCircle
 10
201.999912
 20
122.315959
 30
0.0
 40
1.5
100
AcDbArc
 50
77.81861399999998
 51
89.707272
  0
LINE
  5
B513
330
B31B
100
AcDbEntity
  8
1
  6
Continuous
100
AcDbLine
 10
205.164222
 20
126.9857809999999
 30
0.0
 11
199.2287499999999
 21
127.358284
 31
0.0
  0
ARC
  5
B514
330
B31B
100
AcDbEntity
  8
1
  6
Continuous
100
AcDbCircle
 10
205.184794
 20
127.1560419999999
 30
0.0
 40
0.1715
100
AcDbArc
 50
263.110494
 51
89.707272
  0
LINE
  5
B515
330
B31B
100
AcDbEntity
  8
1
  6
Continuous
100
AcDbLine
 10
205.180963
 20
125.7202329999999
 30
0.0
 11
199.203093
 21
126.055366
 31
0.0
  0
LINE
  5
B516
330
B31B
100
AcDbEntity
  8
1
  6
Continuous
100
AcDbLine
 10
205.1980129999999
 20
126.02436
 30
0.0
 11
202.202112
 21
126.3450479999999
 31
0.0
  0
ARC
  5
B517
330
B31B
100
AcDbEntity
  8
1
  6
Continuous
100
AcDbCircle
 10
205.197234
 20
125.871862
 30
0.0
 40
0.1525
100
AcDbArc
 50
263.8751679999999
 51
89.707272
  0
LINE
  5
B518
330
B31B
100
AcDbEntity
  8
1
  6
Continuous
100
AcDbLine
 10
205.185671
 20
127.327539
 30
0.0
 11
203.1885179999999
 21
127.568082
 31
0.0
  0
LINE
  5
B519
330
B31B
100
AcDbEntity
  8
1
  6
Continuous
100
AcDbLine
 10
202.202112
 20
126.3450479999999
 30
0.0
 11
199.204651
 21
126.360362
 31
0.0
  0
ARC
  5
B51A
330
B31B
100
AcDbEntity
  8
1
  6
Continuous
100
AcDbCircle
 10
199.203872
 20
126.2078639999999
 30
0.0
 40
0.1525
100
AcDbArc
 50
89.707272
 51
269.707272
  0
ARC
  5
B51B
330
B31B
100
AcDbEntity
  8
1
  6
Continuous
100
AcDbCircle
 10
199.2296259999999
 20
127.529782
 30
0.0
 40
0.1715
100
AcDbArc
 50
89.707272
 51
269.707272
  0
LINE
  5
B51C
330
B31B
100
AcDbEntity
  8
1
  6
Continuous
100
AcDbLine
 10
200.5218269999998
 20
127.694682
 30
0.0
 11
199.230502
 21
127.701279
 31
0.0
  0
LINE
  5
B51D
330
B31B
100
AcDbEntity
  8
1
  6
Continuous
100
AcDbLine
 10
205.121098
 20
128.2303379999999
 30
0.0
 11
204.88971
 21
128.2582069999999
 31
0.0
  0
ARC
  5
B51E
330
B31B
100
AcDbEntity
  8
1
  6
Continuous
100
AcDbCircle
 10
205.1202219999999
 20
128.05884
 30
0.0
 40
0.1715
100
AcDbArc
 50
263.110494
 51
89.707272
  0
LINE
  5
B51F
330
B31B
100
AcDbEntity
  8
1
  6
Continuous
100
AcDbLine
 10
205.09965
 20
127.8885789999999
 30
0.0
 11
204.301081
 21
127.9386959999998
 31
0.0
  0
ARC
  5
B520
330
B31B
100
AcDbEntity
  8
1
  6
Continuous
100
AcDbCircle
 10
199.165054
 20
128.4325799999998
 30
0.0
 40
0.1715
100
AcDbArc
 50
168.9273049999999
 51
269.707272
  0
LINE
  5
B521
330
B31B
100
AcDbEntity
  8
1
  6
Continuous
100
AcDbLine
 10
199.3124489999999
 20
128.251777
 30
0.0
 11
199.1641779999999
 21
128.2610819999999
 31
0.0
  0
LINE
  5
B522
330
B31B
100
AcDbEntity
  8
1
  6
Continuous
100
AcDbLine
 10
105.5576559999998
 20
183.942745
 30
0.0
 11
105.546812
 21
183.697285
 31
0.0
  0
LINE
  5
B523
330
B31B
100
AcDbEntity
  8
1
  6
Continuous
100
AcDbLine
 10
106.4371079999999
 20
183.7030999999998
 30
0.0
 11
106.436093
 21
183.6769909999999
 31
0.0
  0
ARC
  5
B524
330
B31B
100
AcDbEntity
  8
1
  6
Continuous
100
AcDbCircle
 10
202.095952
 20
111.100017
 30
0.0
 40
0.7
100
AcDbArc
 50
0.0
 51
180.0
  0
LINE
  5
B525
330
B31B
100
AcDbEntity
  8
1
  6
Continuous
100
AcDbLine
 10
201.3959519999999
 20
111.100017
 30
0.0
 11
199.4959519999999
 21
99.000017
 31
0.0
  0
LINE
  5
B526
330
B31B
100
AcDbEntity
  8
1
  6
Continuous
100
AcDbLine
 10
202.795952
 20
111.100017
 30
0.0
 11
204.695952
 21
99.000017
 31
0.0
  0
ARC
  5
B527
330
B31B
100
AcDbEntity
  8
1
  6
Continuous
100
AcDbCircle
 10
202.095952
 20
99.10201700000001
 30
0.0
 40
2.601999999999998
100
AcDbArc
 50
182.2466049999999
 51
357.753395
  0
LINE
  5
B528
330
B31B
100
AcDbEntity
  8
1
  6
Continuous
100
AcDbLine
 10
133.169185
 20
48.067515
 30
0.0
 11
121.069185
 21
46.167515
 31
0.0
  0
ARC
  5
B529
330
B31B
100
AcDbEntity
  8
1
  6
Continuous
100
AcDbCircle
 10
133.169185
 20
48.76751500000001
 30
0.0
 40
0.7
100
AcDbArc
 50
270.0
 51
90.0
  0
LINE
  5
B52A
330
B31B
100
AcDbEntity
  8
1
  6
Continuous
100
AcDbLine
 10
133.169185
 20
49.467515
 30
0.0
 11
121.069185
 21
51.36751499999999
 31
0.0
  0
ARC
  5
B52B
330
B31B
100
AcDbEntity
  8
1
  6
Continuous
100
AcDbCircle
 10
121.1711849999999
 20
48.76751500000001
 30
0.0
 40
2.601999999999998
100
AcDbArc
 50
92.246605
 51
267.753395
  0
LINE
  5
B52C
330
B31B
100
AcDbEntity
  8
1
  6
Continuous
100
AcDbLine
 10
104.5529149999999
 20
185.474527
 30
0.0
 11
104.437825
 21
183.67445
 31
0.0
  0
LINE
  5
B52D
330
B31B
100
AcDbEntity
  8
1
  6
Continuous
100
AcDbLine
 10
198.095952
 20
130.3937369999999
 30
0.0
 11
202.095952
 21
128.084336
 31
0.0
  0
LINE
  5
B52E
330
B31B
100
AcDbEntity
  8
1
  6
Continuous
100
AcDbLine
 10
202.095952
 20
128.084336
 30
0.0
 11
206.0959519999999
 21
130.3937369999999
 31
0.0
  0
LINE
  5
B52F
330
B31B
100
AcDbEntity
  8
1
  6
Continuous
100
AcDbLine
 10
206.0959519999999
 20
130.3937369999999
 30
0.0
 11
206.0959519999999
 21
135.012539
 31
0.0
  0
LINE
  5
B530
330
B31B
100
AcDbEntity
  8
1
  6
Continuous
100
AcDbLine
 10
206.0959519999999
 20
135.012539
 30
0.0
 11
202.095952
 21
137.3219399999999
 31
0.0
  0
LINE
  5
B531
330
B31B
100
AcDbEntity
  8
1
  6
Continuous
100
AcDbLine
 10
202.095952
 20
137.3219399999999
 30
0.0
 11
198.095952
 21
135.012539
 31
0.0
  0
LINE
  5
B532
330
B31B
100
AcDbEntity
  8
1
  6
Continuous
100
AcDbLine
 10
198.095952
 20
135.012539
 30
0.0
 11
198.095952
 21
130.3937369999999
 31
0.0
  0
ENDSEC
  0
SECTION
  2
OBJECTS
  0
DICTIONARY
  5
B309
330
0
100
AcDbDictionary
281
     1
  3
ACAD_CIP_PREVIOUS_PRODUCT_INFO
350
B592
  3
ACAD_COLOR
350
B574
  3
ACAD_DETAILVIEWSTYLE
350
B58D
  3
ACAD_GROUP
350
B30A
  3
ACAD_LAYOUT
350
B316
  3
ACAD_MATERIAL
350
B542
  3
ACAD_MLEADERSTYLE
350
B589
  3
ACAD_MLINESTYLE
350
B313
  3
ACAD_PLOTSETTINGS
350
B315
  3
ACAD_PLOTSTYLENAME
350
B540
  3
ACAD_SCALELIST
350
B577
  3
ACAD_SECTIONVIEWSTYLE
350
B58B
  3
ACAD_TABLESTYLE
350
B575
  3
ACAD_VISUALSTYLE
350
B55B
  3
ACDB_RECOMPOSE_DATA
350
B5B0
  3
AcDbVariableDictionary
350
B5A3
  3
DWGPROPS
350
B5B1
  0
DICTIONARY
  5
B593
330
B30D
100
AcDbDictionary
280
     1
281
     1
  3
ADSK_XREC_LAYER_RECONCILED
360
B594
  0
DICTIONARY
  5
B595
330
B323
100
AcDbDictionary
280
     1
281
     1
  3
ADSK_XREC_LAYER_RECONCILED
360
B596
  0
DICTIONARY
  5
B597
330
B324
100
AcDbDictionary
280
     1
281
     1
  3
ADSK_XREC_LAYER_RECONCILED
360
B598
  0
DICTIONARY
  5
B599
330
B325
100
AcDbDictionary
280
     1
281
     1
  3
ADSK_XREC_LAYER_RECONCILED
360
B59A
  0
DICTIONARY
  5
B59B
330
B326
100
AcDbDictionary
280
     1
281
     1
  3
ADSK_XREC_LAYER_RECONCILED
360
B59C
  0
DICTIONARY
  5
B59D
330
B327
100
AcDbDictionary
280
     1
281
     1
  3
ADSK_XREC_LAYER_RECONCILED
360
B59E
  0
DICTIONARY
  5
B59F
330
B328
100
AcDbDictionary
280
     1
281
     1
  3
ADSK_XREC_LAYER_RECONCILED
360
B5A0
  0
DICTIONARY
  5
B5A1
330
B329
100
AcDbDictionary
280
     1
281
     1
  3
ADSK_XREC_LAYER_RECONCILED
360
B5A2
  0
DICTIONARY
  5
B53B
330
B31B
100
AcDbDictionary
281
     1
  3
ACAD_LAYOUTSELFREF
350
B53C
  0
DICTIONARY
  5
B539
330
B317
100
AcDbDictionary
281
     1
  3
ACAD_LAYOUTSELFREF
350
B53A
  0
XRECORD
  5
B592
102
{ACAD_REACTORS
330
B309
102
}
330
B309
100
AcDbXrecord
280
     1
300
ACDLT
300
2014
300
ACDLT_F_S
  0
DICTIONARY
  5
B574
102
{ACAD_REACTORS
330
B309
102
}
330
B309
100
AcDbDictionary
281
     1
  0
DICTIONARY
  5
B58D
102
{ACAD_REACTORS
330
B309
102
}
330
B309
100
AcDbDictionary
281
     1
  3
Imperial24
350
B58E
  0
DICTIONARY
  5
B30A
102
{ACAD_REACTORS
330
B309
102
}
330
B309
100
AcDbDictionary
281
     1
  0
DICTIONARY
  5
B316
102
{ACAD_REACTORS
330
B309
102
}
330
B309
100
AcDbDictionary
281
     1
  3
Model
350
B58F
  3
レイアウト1
350
B590
  0
DICTIONARY
  5
B542
102
{ACAD_REACTORS
330
B309
102
}
330
B309
100
AcDbDictionary
281
     1
  3
ByBlock
350
B54B
  3
ByLayer
350
B543
  3
Global
350
B553
  0
DICTIONARY
  5
B589
102
{ACAD_REACTORS
330
B309
102
}
330
B309
100
AcDbDictionary
281
     1
  3
Standard
350
B58A
  0
DICTIONARY
  5
B313
102
{ACAD_REACTORS
330
B309
102
}
330
B309
100
AcDbDictionary
281
     1
  3
STANDARD
350
B314
  0
DICTIONARY
  5
B315
102
{ACAD_REACTORS
330
B309
102
}
330
B309
100
AcDbDictionary
281
     1
  0
ACDBDICTIONARYWDFLT
  5
B540
102
{ACAD_REACTORS
330
B309
102
}
330
B309
100
AcDbDictionary
281
     1
  3
Normal
350
B541
100
AcDbDictionaryWithDefault
340
B541
  0
DICTIONARY
  5
B577
102
{ACAD_REACTORS
330
B309
102
}
330
B309
100
AcDbDictionary
281
     1
  3
A0
350
B578
  3
A1
350
B579
  3
A2
350
B57A
  3
A3
350
B57B
  3
A4
350
B57C
  3
A5
350
B57D
  3
A6
350
B57E
  3
A7
350
B57F
  3
A8
350
B580
  3
A9
350
B581
  3
B0
350
B582
  3
B1
350
B583
  3
B2
350
B584
  3
B3
350
B585
  3
B4
350
B586
  3
B5
350
B587
  3
B6
350
B588
  0
DICTIONARY
  5
B58B
102
{ACAD_REACTORS
330
B309
102
}
330
B309
100
AcDbDictionary
281
     1
  3
Imperial24
350
B58C
  0
DICTIONARY
  5
B575
102
{ACAD_REACTORS
330
B309
102
}
330
B309
100
AcDbDictionary
281
     1
  3
Standard
350
B576
  0
DICTIONARY
  5
B55B
102
{ACAD_REACTORS
330
B309
102
}
330
B309
100
AcDbDictionary
281
     1
  3
2dWireframe
350
B561
  3
Basic
350
B560
  3
Brighten
350
B567
  3
ColorChange
350
B56B
  3
Conceptual
350
B564
  3
Dim
350
B566
  3
EdgeColorOff
350
B573
  3
Facepattern
350
B56A
  3
Flat
350
B55C
  3
FlatWithEdges
350
B55D
  3
Gouraud
350
B55E
  3
GouraudWithEdges
350
B55F
  3
Hidden
350
B563
  3
JitterOff
350
B571
  3
Linepattern
350
B569
  3
OverhangOff
350
B572
  3
Realistic
350
B565
  3
Shaded
350
B570
  3
Shaded with edges
350
B56F
  3
Shades of Gray
350
B56C
  3
Sketchy
350
B56D
  3
Thicken
350
B568
  3
Wireframe
350
B562
  3
X-Ray
350
B56E
  0
XRECORD
  5
B5B0
102
{ACAD_REACTORS
330
B309
102
}
330
B309
100
AcDbXrecord
280
     1
 90
        1
330
B576
  0
DICTIONARY
  5
B5A3
102
{ACAD_REACTORS
330
B309
102
}
330
B309
100
AcDbDictionary
281
     1
  3
CANNOSCALE
350
B5A8
  3
CMLEADERSTYLE
350
B5A5
  3
CTABLESTYLE
350
B5A4
  3
CVIEWDETAILSTYLE
350
B5A6
  3
CVIEWSECTIONSTYLE
350
B5A7
  3
DIMASSOC
350
B5AB
  3
INDEXCTL
350
B5AA
  3
SORTENTS
350
B5A9
  3
XCLIPFRAME
350
B5AC
  0
XRECORD
  5
B5B1
102
{ACAD_REACTORS
330
B309
102
}
330
B309
100
AcDbXrecord
280
     1
  1
DWGPROPS COOKIE
  2

  3

  4

  6

  7

  8
Yoshitsune
  9

300
=
301
=
302
=
303
=
304
=
305
=
306
=
307
=
308
=
309
=
 40
0.0000103356481481
 41
2451296.794200926
 42
2457192.658251944
  1

 90
        0
  0
XRECORD
  5
B594
102
{ACAD_REACTORS
330
B593
102
}
330
B593
100
AcDbXrecord
280
     1
290
     1
  0
XRECORD
  5
B596
102
{ACAD_REACTORS
330
B595
102
}
330
B595
100
AcDbXrecord
280
     1
290
     1
  0
XRECORD
  5
B598
102
{ACAD_REACTORS
330
B597
102
}
330
B597
100
AcDbXrecord
280
     1
290
     1
  0
XRECORD
  5
B59A
102
{ACAD_REACTORS
330
B599
102
}
330
B599
100
AcDbXrecord
280
     1
290
     1
  0
XRECORD
  5
B59C
102
{ACAD_REACTORS
330
B59B
102
}
330
B59B
100
AcDbXrecord
280
     1
290
     1
  0
XRECORD
  5
B59E
102
{ACAD_REACTORS
330
B59D
102
}
330
B59D
100
AcDbXrecord
280
     1
290
     1
  0
XRECORD
  5
B5A0
102
{ACAD_REACTORS
330
B59F
102
}
330
B59F
100
AcDbXrecord
280
     1
290
     1
  0
XRECORD
  5
B5A2
102
{ACAD_REACTORS
330
B5A1
102
}
330
B5A1
100
AcDbXrecord
280
     1
290
     1
  0
XRECORD
  5
B53C
102
{ACAD_REACTORS
330
B53B
102
}
330
B53B
100
AcDbXrecord
280
     1
340
B31B
  0
XRECORD
  5
B53A
102
{ACAD_REACTORS
330
B539
102
}
330
B539
100
AcDbXrecord
280
     1
340
B317
  0
ACDBDETAILVIEWSTYLE
  5
B58E
102
{ACAD_XDICTIONARY
360
B5E9
102
}
102
{ACAD_REACTORS
330
B58D
102
}
330
B58D
100
AcDbModelDocViewStyle
 70
     0
  3
Imperial24
290
     0
100
AcDbDetailViewStyle
 70
     0
 71
     0
 90
        3
 71
     1
340
B30E
 40
0.24
340
0
 40
0.24
300

 40
0.36
280
     3
 71
     2
340
B312
 90
       25
 71
     3
340
B30E
 40
0.24
 90
        1
 40
0.75
 90
        1
300
%<\AcVar ViewType \f "%tc1">% %<\AcVar ViewDetailId>%\PSCALE %<\AcVar ViewScale \f "%sn">%
 71
     4
340
B312
 90
       25
340
B312
 90
       25
280
     0
  0
LAYOUT
  5
B58F
102
{ACAD_XDICTIONARY
360
B5EB
102
}
102
{ACAD_REACTORS
330
B316
102
}
330
B316
100
AcDbPlotSettings
  1

  2
Canon LBP9100C
  4

  6

 40
0.0
 41
0.0
 42
0.0
 43
0.0
 44
0.0
 45
0.0
 46
0.0
 47
0.0
 48
0.0
 49
0.0
140
0.0
141
0.0
142
1.0
143
1.0
 70
  1712
 72
     0
 73
     0
 74
     0
  7

 75
     0
147
1.0
148
0.0
149
0.0
100
AcDbLayout
  1
Model
 70
     1
 71
     0
 10
0.0
 20
0.0
 11
12.0
 21
9.0
 12
0.0
 22
0.0
 32
0.0
 14
0.0
 24
0.0
 34
0.0
 15
0.0
 25
0.0
 35
0.0
146
0.0
 13
0.0
 23
0.0
 33
0.0
 16
1.0
 26
0.0
 36
0.0
 17
0.0
 27
1.0
 37
0.0
 76
     0
330
B31B
331
B538
  0
LAYOUT
  5
B590
102
{ACAD_XDICTIONARY
360
B5ED
102
}
102
{ACAD_REACTORS
330
B316
102
}
330
B316
100
AcDbPlotSettings
  1

  2
Canon LBP9100C
  4

  6

 40
0.0
 41
0.0
 42
0.0
 43
0.0
 44
0.0
 45
0.0
 46
0.0
 47
0.0
 48
0.0
 49
0.0
140
0.0
141
0.0
142
1.0
143
1.0
 70
   688
 72
     0
 73
     0
 74
     5
  7

 75
    16
147
1.0
148
0.0
149
0.0
100
AcDbLayout
  1
レイアウト1
 70
     0
 71
     1
 10
0.0
 20
0.0
 11
420.0
 21
297.0
 12
0.0
 22
0.0
 32
0.0
 14
1.000000000000000E+20
 24
1.000000000000000E+20
 34
1.000000000000000E+20
 15
-1.000000000000000E+20
 25
-1.000000000000000E+20
 35
-1.000000000000000E+20
146
0.0
 13
0.0
 23
0.0
 33
0.0
 16
1.0
 26
0.0
 36
0.0
 17
0.0
 27
1.0
 37
0.0
 76
     0
330
B317
  0
MATERIAL
  5
B54B
102
{ACAD_XDICTIONARY
360
B54C
102
}
102
{ACAD_REACTORS
330
B542
102
}
330
B542
100
AcDbMaterial
  1
ByBlock
 72
     0
 43
0.0208333333333333
 43
0.0
 43
0.0
 43
0.0
 43
0.0
 43
0.0208333333333333
 43
0.0
 43
0.0
 43
0.0
 43
0.0
 43
1.0
 43
0.0
 43
0.0
 43
0.0
 43
0.0
 43
1.0
 77
     0
 47
0.0208333333333333
 47
0.0
 47
0.0
 47
0.0
 47
0.0
 47
0.0208333333333333
 47
0.0
 47
0.0
 47
0.0
 47
0.0
 47
1.0
 47
0.0
 47
0.0
 47
0.0
 47
0.0
 47
1.0
171
     0
 49
0.0208333333333333
 49
0.0
 49
0.0
 49
0.0
 49
0.0
 49
0.0208333333333333
 49
0.0
 49
0.0
 49
0.0
 49
0.0
 49
1.0
 49
0.0
 49
0.0
 49
0.0
 49
0.0
 49
1.0
175
     0
142
0.0208333333333333
142
0.0
142
0.0
142
0.0
142
0.0
142
0.0208333333333333
142
0.0
142
0.0
142
0.0
142
0.0
142
1.0
142
0.0
142
0.0
142
0.0
142
0.0
142
1.0
179
     0
144
0.0208333333333333
144
0.0
144
0.0
144
0.0
144
0.0
144
0.0208333333333333
144
0.0
144
0.0
144
0.0
144
0.0
144
1.0
144
0.0
144
0.0
144
0.0
144
0.0
144
1.0
147
0.0208333333333333
147
0.0
147
0.0
147
0.0
147
0.0
147
0.0208333333333333
147
0.0
147
0.0
147
0.0
147
0.0
147
1.0
147
0.0
147
0.0
147
0.0
147
0.0
147
1.0
  0
MATERIAL
  5
B543
102
{ACAD_XDICTIONARY
360
B544
102
}
102
{ACAD_REACTORS
330
B542
102
}
330
B542
100
AcDbMaterial
  1
ByLayer
 72
     0
 43
0.0208333333333333
 43
0.0
 43
0.0
 43
0.0
 43
0.0
 43
0.0208333333333333
 43
0.0
 43
0.0
 43
0.0
 43
0.0
 43
1.0
 43
0.0
 43
0.0
 43
0.0
 43
0.0
 43
1.0
 77
     0
 47
0.0208333333333333
 47
0.0
 47
0.0
 47
0.0
 47
0.0
 47
0.0208333333333333
 47
0.0
 47
0.0
 47
0.0
 47
0.0
 47
1.0
 47
0.0
 47
0.0
 47
0.0
 47
0.0
 47
1.0
171
     0
 49
0.0208333333333333
 49
0.0
 49
0.0
 49
0.0
 49
0.0
 49
0.0208333333333333
 49
0.0
 49
0.0
 49
0.0
 49
0.0
 49
1.0
 49
0.0
 49
0.0
 49
0.0
 49
0.0
 49
1.0
175
     0
142
0.0208333333333333
142
0.0
142
0.0
142
0.0
142
0.0
142
0.0208333333333333
142
0.0
142
0.0
142
0.0
142
0.0
142
1.0
142
0.0
142
0.0
142
0.0
142
0.0
142
1.0
179
     0
144
0.0208333333333333
144
0.0
144
0.0
144
0.0
144
0.0
144
0.0208333333333333
144
0.0
144
0.0
144
0.0
144
0.0
144
1.0
144
0.0
144
0.0
144
0.0
144
0.0
144
1.0
147
0.0208333333333333
147
0.0
147
0.0
147
0.0
147
0.0
147
0.0208333333333333
147
0.0
147
0.0
147
0.0
147
0.0
147
1.0
147
0.0
147
0.0
147
0.0
147
0.0
147
1.0
  0
MATERIAL
  5
B553
102
{ACAD_XDICTIONARY
360
B554
102
}
102
{ACAD_REACTORS
330
B542
102
}
330
B542
100
AcDbMaterial
  1
Global
 72
     0
 43
0.0208333333333333
 43
0.0
 43
0.0
 43
0.0
 43
0.0
 43
0.0208333333333333
 43
0.0
 43
0.0
 43
0.0
 43
0.0
 43
1.0
 43
0.0
 43
0.0
 43
0.0
 43
0.0
 43
1.0
 77
     0
 47
0.0208333333333333
 47
0.0
 47
0.0
 47
0.0
 47
0.0
 47
0.0208333333333333
 47
0.0
 47
0.0
 47
0.0
 47
0.0
 47
1.0
 47
0.0
 47
0.0
 47
0.0
 47
0.0
 47
1.0
171
     0
 49
0.0208333333333333
 49
0.0
 49
0.0
 49
0.0
 49
0.0
 49
0.0208333333333333
 49
0.0
 49
0.0
 49
0.0
 49
0.0
 49
1.0
 49
0.0
 49
0.0
 49
0.0
 49
0.0
 49
1.0
175
     0
142
0.0208333333333333
142
0.0
142
0.0
142
0.0
142
0.0
142
0.0208333333333333
142
0.0
142
0.0
142
0.0
142
0.0
142
1.0
142
0.0
142
0.0
142
0.0
142
0.0
142
1.0
179
     0
144
0.0208333333333333
144
0.0
144
0.0
144
0.0
144
0.0
144
0.0208333333333333
144
0.0
144
0.0
144
0.0
144
0.0
144
1.0
144
0.0
144
0.0
144
0.0
144
0.0
144
1.0
147
0.0208333333333333
147
0.0
147
0.0
147
0.0
147
0.0
147
0.0208333333333333
147
0.0
147
0.0
147
0.0
147
0.0
147
1.0
147
0.0
147
0.0
147
0.0
147
0.0
147
1.0
  0
MLEADERSTYLE
  5
B58A
102
{ACAD_REACTORS
330
B589
102
}
330
B589
100
AcDbMLeaderStyle
170
     2
171
     1
172
     0
 90
        2
 40
0.0
 41
0.0
173
     1
 91
-1056964608
340
B310
 92
       -2
290
     1
 42
0.09
291
     1
 43
0.36
  3
Standard
 44
0.18
300

342
B30E
174
     1
178
     6
175
     1
176
     0
 93
-1056964608
 45
0.18
292
     0
297
     0
 46
0.18
 94
-1056964608
 47
1.0
 49
1.0
140
1.0
293
     1
141
0.0
294
     1
177
     0
142
1.0
295
     0
296
     0
143
0.125
1001
ACAD_MLEADERVER
1070
     2
  0
MLINESTYLE
  5
B314
102
{ACAD_REACTORS
330
B313
102
}
330
B313
100
AcDbMlineStyle
  2
STANDARD
 70
     0
  3

 62
   256
 51
90.0
 52
90.0
 71
     2
 49
0.5
 62
   256
  6
BYLAYER
 49
-0.5
 62
   256
  6
BYLAYER
  0
ACDBPLACEHOLDER
  5
B541
102
{ACAD_REACTORS
330
B540
102
}
330
B540
  0
SCALE
  5
B578
102
{ACAD_REACTORS
330
B577
102
}
330
B577
100
AcDbScale
 70
     0
300
1:1
140
1.0
141
1.0
290
     1
  0
SCALE
  5
B579
102
{ACAD_REACTORS
330
B577
102
}
330
B577
100
AcDbScale
 70
     0
300
1/128" = 1'-0"
140
0.0078125
141
12.0
290
     0
  0
SCALE
  5
B57A
102
{ACAD_REACTORS
330
B577
102
}
330
B577
100
AcDbScale
 70
     0
300
1/64" = 1'-0"
140
0.015625
141
12.0
290
     0
  0
SCALE
  5
B57B
102
{ACAD_REACTORS
330
B577
102
}
330
B577
100
AcDbScale
 70
     0
300
1/32" = 1'-0"
140
0.03125
141
12.0
290
     0
  0
SCALE
  5
B57C
102
{ACAD_REACTORS
330
B577
102
}
330
B577
100
AcDbScale
 70
     0
300
1/16" = 1'-0"
140
0.0625
141
12.0
290
     0
  0
SCALE
  5
B57D
102
{ACAD_REACTORS
330
B577
102
}
330
B577
100
AcDbScale
 70
     0
300
3/32" = 1'-0"
140
0.09375
141
12.0
290
     0
  0
SCALE
  5
B57E
102
{ACAD_REACTORS
330
B577
102
}
330
B577
100
AcDbScale
 70
     0
300
1/8" = 1'-0"
140
0.125
141
12.0
290
     0
  0
SCALE
  5
B57F
102
{ACAD_REACTORS
330
B577
102
}
330
B577
100
AcDbScale
 70
     0
300
3/16" = 1'-0"
140
0.1875
141
12.0
290
     0
  0
SCALE
  5
B580
102
{ACAD_REACTORS
330
B577
102
}
330
B577
100
AcDbScale
 70
     0
300
1/4" = 1'-0"
140
0.25
141
12.0
290
     0
  0
SCALE
  5
B581
102
{ACAD_REACTORS
330
B577
102
}
330
B577
100
AcDbScale
 70
     0
300
3/8" = 1'-0"
140
0.375
141
12.0
290
     0
  0
SCALE
  5
B582
102
{ACAD_REACTORS
330
B577
102
}
330
B577
100
AcDbScale
 70
     0
300
1/2" = 1'-0"
140
0.5
141
12.0
290
     0
  0
SCALE
  5
B583
102
{ACAD_REACTORS
330
B577
102
}
330
B577
100
AcDbScale
 70
     0
300
3/4" = 1'-0"
140
0.75
141
12.0
290
     0
  0
SCALE
  5
B584
102
{ACAD_REACTORS
330
B577
102
}
330
B577
100
AcDbScale
 70
     0
300
1" = 1'-0"
140
1.0
141
12.0
290
     0
  0
SCALE
  5
B585
102
{ACAD_REACTORS
330
B577
102
}
330
B577
100
AcDbScale
 70
     0
300
1-1/2" = 1'-0"
140
1.5
141
12.0
290
     0
  0
SCALE
  5
B586
102
{ACAD_REACTORS
330
B577
102
}
330
B577
100
AcDbScale
 70
     0
300
3" = 1'-0"
140
3.0
141
12.0
290
     0
  0
SCALE
  5
B587
102
{ACAD_REACTORS
330
B577
102
}
330
B577
100
AcDbScale
 70
     0
300
6" = 1'-0"
140
6.0
141
12.0
290
     0
  0
SCALE
  5
B588
102
{ACAD_REACTORS
330
B577
102
}
330
B577
100
AcDbScale
 70
     0
300
1'-0" = 1'-0"
140
12.0
141
12.0
290
     0
  0
ACDBSECTIONVIEWSTYLE
  5
B58C
102
{ACAD_XDICTIONARY
360
B5E7
102
}
102
{ACAD_REACTORS
330
B58B
102
}
330
B58B
100
AcDbModelDocViewStyle
 70
     0
  3
Imperial24
290
     0
100
AcDbSectionViewStyle
 70
     0
 71
     0
 90
       78
 71
     1
340
B30E
 40
0.24
340
0
340
0
 40
0.24
300
I, O, Q, S, X, Z
 40
0.48
 90
        3
 40
0.18
 90
        1
 71
     2
340
B312
 90
       25
340
B312
 90
       50
 40
0.24
 40
0.0
 40
0.24
 71
     3
340
B30E
 40
0.24
 90
        1
 40
0.75
 90
        1
300
%<\AcVar ViewType \f "%tc1">% %<\AcVar ViewSectionStartId>%-%<\AcVar ViewSectionEndId>%\PSCALE %<\AcVar ViewScale \f "%sn">%
 71
     4
300
ANSI31
 40
1.0
 90
        0
290
     0
290
     0
 90
        6
 40
0.0
 40
1.570796326794896
 40
0.2617993877991494
 40
1.308996938995747
 40
-0.2617993877991494
 40
1.832595714594046
  0
TABLESTYLE
  5
B576
102
{ACAD_XDICTIONARY
360
B5AE
102
}
102
{ACAD_REACTORS
330
B575
102
}
330
B575
100
AcDbTableStyle
  3
Standard
 70
     0
 71
     0
 40
0.06
 41
0.06
280
     0
281
     0
  7
STANDARD
140
0.18
170
     2
 62
     0
 63
     7
283
     0
274
    -2
284
     1
 64
     0
275
    -2
285
     1
 65
     0
276
    -2
286
     1
 66
     0
277
    -2
287
     1
 67
     0
278
    -2
288
     1
 68
     0
279
    -2
289
     1
 69
     0
  7
STANDARD
140
0.25
170
     5
 62
     0
 63
     7
283
     0
274
    -2
284
     1
 64
     0
275
    -2
285
     1
 65
     0
276
    -2
286
     1
 66
     0
277
    -2
287
     1
 67
     0
278
    -2
288
     1
 68
     0
279
    -2
289
     1
 69
     0
  7
STANDARD
140
0.18
170
     5
 62
     0
 63
     7
283
     0
274
    -2
284
     1
 64
     0
275
    -2
285
     1
 65
     0
276
    -2
286
     1
 66
     0
277
    -2
287
     1
 67
     0
278
    -2
288
     1
 68
     0
279
    -2
289
     1
 69
     0
  0
VISUALSTYLE
  5
B561
102
{ACAD_XDICTIONARY
360
B5BF
102
}
102
{ACAD_REACTORS
330
B55B
102
}
330
B55B
100
AcDbVisualStyle
  2
2dWireframe
 70
     4
 71
     0
 72
     2
 73
     0
 90
        0
 40
-0.6
 41
-30.0
 62
     5
 63
     7
 74
     1
 91
        4
 64
     7
 65
   257
 75
     1
175
     1
 42
1.0
 92
        0
 66
   257
 43
1.0
 76
     1
 77
     6
 78
     2
 67
     7
 79
     5
170
     0
171
     0
290
     0
174
     0
 93
        1
 44
0.0
173
     0
291
     0
 45
0.0
1001
ACAD
1000
AcDbSavedByObjectVersion
1070
     0
  0
VISUALSTYLE
  5
B560
102
{ACAD_XDICTIONARY
360
B5BD
102
}
102
{ACAD_REACTORS
330
B55B
102
}
330
B55B
100
AcDbVisualStyle
  2
Basic
 70
     7
 71
     1
 72
     0
 73
     1
 90
        0
 40
-0.6
 41
-30.0
 62
     5
 63
     7
 74
     0
 91
        4
 64
     7
 65
   257
 75
     1
175
     1
 42
1.0
 92
        8
 66
     7
 43
1.0
 76
     1
 77
     6
 78
     2
 67
     7
 79
     5
170
     0
171
     0
290
     0
174
     0
 93
        1
 44
0.0
173
     0
291
     1
 45
0.0
1001
ACAD
1000
AcDbSavedByObjectVersion
1070
     0
  0
VISUALSTYLE
  5
B567
102
{ACAD_XDICTIONARY
360
B5CB
102
}
102
{ACAD_REACTORS
330
B55B
102
}
330
B55B
100
AcDbVisualStyle
  2
Brighten
 70
    12
 71
     2
 72
     2
 73
     0
 90
        0
 40
-0.6
 41
-30.0
 62
     5
 63
     7
 74
     1
 91
        4
 64
     7
 65
   257
 75
     1
175
     1
 42
1.0
 92
        8
 66
     7
 43
1.0
 76
     1
 77
     6
 78
     2
 67
     7
 79
     5
170
     0
171
     0
290
     0
174
     0
 93
        1
 44
50.0
173
     0
291
     1
 45
0.0
1001
ACAD
1000
AcDbSavedByObjectVersion
1070
     0
  0
VISUALSTYLE
  5
B56B
102
{ACAD_XDICTIONARY
360
B5D3
102
}
102
{ACAD_REACTORS
330
B55B
102
}
330
B55B
100
AcDbVisualStyle
  2
ColorChange
 70
    16
 71
     2
 72
     2
 73
     3
 90
        0
 40
-0.6
 41
-30.0
 62
     5
 63
     8
 74
     1
 91
        4
 64
     7
 65
   257
 75
     1
175
     1
 42
1.0
 92
        8
 66
     8
 43
1.0
 76
     1
 77
     6
 78
     2
 67
     7
 79
     5
170
     0
171
     0
290
     0
174
     0
 93
        1
 44
0.0
173
     0
291
     1
 45
0.0
1001
ACAD
1000
AcDbSavedByObjectVersion
1070
     0
  0
VISUALSTYLE
  5
B564
102
{ACAD_XDICTIONARY
360
B5C5
102
}
102
{ACAD_REACTORS
330
B55B
102
}
330
B55B
100
AcDbVisualStyle
  2
Conceptual
 70
     9
 71
     3
 72
     2
 73
     0
 90
        0
 40
-0.6
 41
-30.0
 62
     5
 63
     7
 74
     2
 91
        2
 64
     7
 65
   257
 75
     1
175
     1
 42
179.0
 92
        8
 66
     7
 43
1.0
 76
     1
 77
     6
 78
     2
 67
     7
 79
     3
170
     0
171
     0
290
     0
174
     0
 93
        1
 44
0.0
173
     0
291
     0
 45
0.0
1001
ACAD
1000
AcDbSavedByObjectVersion
1070
     0
  0
VISUALSTYLE
  5
B566
102
{ACAD_XDICTIONARY
360
B5C9
102
}
102
{ACAD_REACTORS
330
B55B
102
}
330
B55B
100
AcDbVisualStyle
  2
Dim
 70
    11
 71
     2
 72
     2
 73
     0
 90
        0
 40
-0.6
 41
-30.0
 62
     5
 63
     7
 74
     1
 91
        4
 64
     7
 65
   257
 75
     1
175
     1
 42
1.0
 92
        8
 66
     7
 43
1.0
 76
     1
 77
     6
 78
     2
 67
     7
 79
     5
170
     0
171
     0
290
     0
174
     0
 93
        1
 44
-50.0
173
     0
291
     1
 45
0.0
1001
ACAD
1000
AcDbSavedByObjectVersion
1070
     0
  0
VISUALSTYLE
  5
B573
102
{ACAD_XDICTIONARY
360
B5E3
102
}
102
{ACAD_REACTORS
330
B55B
102
}
330
B55B
100
AcDbVisualStyle
  2
EdgeColorOff
 70
    22
 71
     2
 72
     2
 73
     0
 90
        0
 40
-0.6
 41
-30.0
 62
     5
 63
     7
 74
     1
 91
        4
 64
     7
 65
   257
 75
     1
175
     1
 42
1.0
 92
        8
 66
     7
 43
1.0
 76
     1
 77
     6
 78
     2
 67
     7
 79
     5
170
     0
171
     0
290
     0
174
     0
 93
        1
 44
0.0
173
     0
291
     1
 45
0.0
1001
ACAD
1000
AcDbSavedByObjectVersion
1070
     0
  0
VISUALSTYLE
  5
B56A
102
{ACAD_XDICTIONARY
360
B5D1
102
}
102
{ACAD_REACTORS
330
B55B
102
}
330
B55B
100
AcDbVisualStyle
  2
Facepattern
 70
    15
 71
     2
 72
     2
 73
     0
 90
        0
 40
-0.6
 41
-30.0
 62
     5
 63
     7
 74
     1
 91
        4
 64
     7
 65
   257
 75
     1
175
     1
 42
1.0
 92
        8
 66
     7
 43
1.0
 76
     1
 77
     6
 78
     2
 67
     7
 79
     5
170
     0
171
     0
290
     0
174
     0
 93
        1
 44
0.0
173
     0
291
     1
 45
0.0
1001
ACAD
1000
AcDbSavedByObjectVersion
1070
     0
  0
VISUALSTYLE
  5
B55C
102
{ACAD_XDICTIONARY
360
B5B5
102
}
102
{ACAD_REACTORS
330
B55B
102
}
330
B55B
100
AcDbVisualStyle
  2
Flat
 70
     0
 71
     2
 72
     1
 73
     1
 90
        2
 40
-0.6
 41
30.0
 62
     5
 63
     7
 74
     0
 91
        0
 64
     7
 65
   257
 75
     1
175
     1
 42
1.0
 92
        8
 66
     7
 43
1.0
 76
     1
 77
     6
 78
     2
 67
     7
 79
     5
170
     0
171
     0
290
     0
174
     0
 93
       13
 44
0.0
173
     0
291
     1
 45
0.0
1001
ACAD
1000
AcDbSavedByObjectVersion
1070
     0
  0
VISUALSTYLE
  5
B55D
102
{ACAD_XDICTIONARY
360
B5B7
102
}
102
{ACAD_REACTORS
330
B55B
102
}
330
B55B
100
AcDbVisualStyle
  2
FlatWithEdges
 70
     1
 71
     2
 72
     1
 73
     1
 90
        2
 40
-0.6
 41
30.0
 62
     5
 63
     7
 74
     1
 91
        0
 64
     7
 65
   257
 75
     1
175
     1
 42
1.0
 92
        0
 66
   257
 43
1.0
 76
     1
 77
     6
 78
     2
 67
     7
 79
     5
170
     0
171
     0
290
     0
174
     0
 93
       13
 44
0.0
173
     0
291
     1
 45
0.0
1001
ACAD
1000
AcDbSavedByObjectVersion
1070
     0
  0
VISUALSTYLE
  5
B55E
102
{ACAD_XDICTIONARY
360
B5B9
102
}
102
{ACAD_REACTORS
330
B55B
102
}
330
B55B
100
AcDbVisualStyle
  2
Gouraud
 70
     2
 71
     2
 72
     2
 73
     1
 90
        2
 40
-0.6
 41
30.0
 62
     5
 63
     7
 74
     0
 91
        0
 64
     7
 65
   257
 75
     1
175
     1
 42
1.0
 92
        0
 66
     7
 43
1.0
 76
     1
 77
     6
 78
     2
 67
     7
 79
     5
170
     0
171
     0
290
     0
174
     0
 93
       13
 44
0.0
173
     0
291
     1
 45
0.0
1001
ACAD
1000
AcDbSavedByObjectVersion
1070
     0
  0
VISUALSTYLE
  5
B55F
102
{ACAD_XDICTIONARY
360
B5BB
102
}
102
{ACAD_REACTORS
330
B55B
102
}
330
B55B
100
AcDbVisualStyle
  2
GouraudWithEdges
 70
     3
 71
     2
 72
     2
 73
     1
 90
        2
 40
-0.6
 41
30.0
 62
     5
 63
     7
 74
     1
 91
        0
 64
     7
 65
   257
 75
     1
175
     1
 42
1.0
 92
        0
 66
   257
 43
1.0
 76
     1
 77
     6
 78
     2
 67
     7
 79
     5
170
     0
171
     0
290
     0
174
     0
 93
       13
 44
0.0
173
     0
291
     1
 45
0.0
1001
ACAD
1000
AcDbSavedByObjectVersion
1070
     0
  0
VISUALSTYLE
  5
B563
102
{ACAD_XDICTIONARY
360
B5C3
102
}
102
{ACAD_REACTORS
330
B55B
102
}
330
B55B
100
AcDbVisualStyle
  2
Hidden
 70
     6
 71
     1
 72
     2
 73
     2
 90
        0
 40
-0.6
 41
-30.0
 62
     5
 63
     7
 74
     2
 91
        2
 64
     7
 65
   257
 75
     2
175
     1
 42
40.0
 92
        0
 66
   257
 43
1.0
 76
     1
 77
     6
 78
     2
 67
     7
 79
     3
170
     0
171
     0
290
     0
174
     0
 93
        1
 44
0.0
173
     0
291
     0
 45
0.0
1001
ACAD
1000
AcDbSavedByObjectVersion
1070
     0
  0
VISUALSTYLE
  5
B571
102
{ACAD_XDICTIONARY
360
B5DF
102
}
102
{ACAD_REACTORS
330
B55B
102
}
330
B55B
100
AcDbVisualStyle
  2
JitterOff
 70
    20
 71
     2
 72
     2
 73
     0
 90
        0
 40
-0.6
 41
-30.0
 62
     5
 63
     7
 74
     1
 91
        4
 64
     7
 65
   257
 75
     1
175
     1
 42
1.0
 92
       10
 66
     7
 43
1.0
 76
     1
 77
     6
 78
     2
 67
     7
 79
     5
170
     0
171
     0
290
     0
174
     0
 93
        1
 44
0.0
173
     0
291
     1
 45
0.0
1001
ACAD
1000
AcDbSavedByObjectVersion
1070
     0
  0
VISUALSTYLE
  5
B569
102
{ACAD_XDICTIONARY
360
B5CF
102
}
102
{ACAD_REACTORS
330
B55B
102
}
330
B55B
100
AcDbVisualStyle
  2
Linepattern
 70
    14
 71
     2
 72
     2
 73
     0
 90
        0
 40
-0.6
 41
-30.0
 62
     5
 63
     7
 74
     1
 91
        4
 64
     7
 65
   257
 75
     7
175
     7
 42
1.0
 92
        8
 66
     7
 43
1.0
 76
     1
 77
     6
 78
     2
 67
     7
 79
     5
170
     0
171
     0
290
     0
174
     0
 93
        1
 44
0.0
173
     0
291
     1
 45
0.0
1001
ACAD
1000
AcDbSavedByObjectVersion
1070
     0
  0
VISUALSTYLE
  5
B572
102
{ACAD_XDICTIONARY
360
B5E1
102
}
102
{ACAD_REACTORS
330
B55B
102
}
330
B55B
100
AcDbVisualStyle
  2
OverhangOff
 70
    21
 71
     2
 72
     2
 73
     0
 90
        0
 40
-0.6
 41
-30.0
 62
     5
 63
     7
 74
     1
 91
        4
 64
     7
 65
   257
 75
     1
175
     1
 42
1.0
 92
        9
 66
     7
 43
1.0
 76
     1
 77
     6
 78
     2
 67
     7
 79
     5
170
     0
171
     0
290
     0
174
     0
 93
        1
 44
0.0
173
     0
291
     1
 45
0.0
1001
ACAD
1000
AcDbSavedByObjectVersion
1070
     0
  0
VISUALSTYLE
  5
B565
102
{ACAD_XDICTIONARY
360
B5C7
102
}
102
{ACAD_REACTORS
330
B55B
102
}
330
B55B
100
AcDbVisualStyle
  2
Realistic
 70
     8
 71
     2
 72
     3
 73
     0
 90
        2
 40
-0.6
 41
30.0
 62
     5
 63
     7
 74
     0
 91
        0
 64
     7
 65
   257
 75
     1
175
     1
 42
1.0
 92
        8
 66
   257
 43
1.0
 76
     1
 77
     6
 78
     2
 67
     7
 79
     3
170
     0
171
     0
290
     0
174
     0
 93
       13
 44
0.0
173
     0
291
     0
 45
0.0
1001
ACAD
1000
AcDbSavedByObjectVersion
1070
     0
  0
VISUALSTYLE
  5
B570
102
{ACAD_XDICTIONARY
360
B5DD
102
}
102
{ACAD_REACTORS
330
B55B
102
}
330
B55B
100
AcDbVisualStyle
  2
Shaded
 70
    27
 71
     2
 72
     2
 73
     1
 90
        2
 40
-0.6
 41
30.0
 62
     5
 63
     7
 74
     0
 91
        4
 64
     7
 65
   257
 75
     1
175
     1
 42
1.0
 92
        8
 66
   257
 43
1.0
 76
     1
 77
     6
 78
     2
 67
     8
 79
     3
170
     0
171
     0
290
     0
174
     0
 93
        5
 44
0.0
173
     0
291
     0
 45
0.0
1001
ACAD
1000
AcDbSavedByObjectVersion
1070
     0
  0
VISUALSTYLE
  5
B56F
102
{ACAD_XDICTIONARY
360
B5DB
102
}
102
{ACAD_REACTORS
330
B55B
102
}
330
B55B
100
AcDbVisualStyle
  2
Shaded with edges
 70
    26
 71
     2
 72
     2
 73
     1
 90
        2
 40
-0.6
 41
30.0
 62
     5
 63
     7
 74
     1
 91
       10
 64
     7
 65
   257
 75
     2
175
     1
 42
1.0
 92
        8
 66
   257
 43
1.0
 76
     1
 77
     6
 78
     2
 67
     7
 79
     3
170
     0
171
     0
290
     0
174
     0
 93
        5
 44
0.0
173
     0
291
     0
 45
0.0
1001
ACAD
1000
AcDbSavedByObjectVersion
1070
     0
  0
VISUALSTYLE
  5
B56C
102
{ACAD_XDICTIONARY
360
B5D5
102
}
102
{ACAD_REACTORS
330
B55B
102
}
330
B55B
100
AcDbVisualStyle
  2
Shades of Gray
 70
    23
 71
     2
 72
     2
 73
     3
 90
        0
 40
-0.6
 41
-30.0
 62
     5
 63
     7
 74
     2
 91
        2
 64
     7
 65
     7
 75
     1
175
     1
 42
40.0
 92
        8
 66
     7
 43
1.0
 76
     1
 77
     6
 78
     2
 67
     7
 79
     3
170
     0
171
     0
290
     0
174
     0
 93
        1
 44
0.0
173
     0
291
     0
 45
0.0
1001
ACAD
1000
AcDbSavedByObjectVersion
1070
     0
  0
VISUALSTYLE
  5
B56D
102
{ACAD_XDICTIONARY
360
B5D7
102
}
102
{ACAD_REACTORS
330
B55B
102
}
330
B55B
100
AcDbVisualStyle
  2
Sketchy
 70
    24
 71
     1
 72
     2
 73
     2
 90
        0
 40
-0.6
 41
-30.0
 62
     5
 63
     7
 74
     2
 91
        2
 64
     7
 65
     7
 75
     1
175
     1
 42
40.0
 92
       11
 66
     7
 43
1.0
 76
     1
 77
     6
 78
     2
 67
     7
 79
     6
170
     0
171
     0
290
     0
174
     0
 93
        1
 44
0.0
173
     0
291
     0
 45
0.0
1001
ACAD
1000
AcDbSavedByObjectVersion
1070
     0
  0
VISUALSTYLE
  5
B568
102
{ACAD_XDICTIONARY
360
B5CD
102
}
102
{ACAD_REACTORS
330
B55B
102
}
330
B55B
100
AcDbVisualStyle
  2
Thicken
 70
    13
 71
     2
 72
     2
 73
     0
 90
        0
 40
-0.6
 41
-30.0
 62
     5
 63
     7
 74
     1
 91
        4
 64
     7
 65
   257
 75
     1
175
     1
 42
1.0
 92
       12
 66
     7
 43
1.0
 76
     1
 77
     6
 78
     2
 67
     7
 79
     5
170
     0
171
     0
290
     0
174
     0
 93
        1
 44
0.0
173
     0
291
     1
 45
0.0
1001
ACAD
1000
AcDbSavedByObjectVersion
1070
     0
  0
VISUALSTYLE
  5
B562
102
{ACAD_XDICTIONARY
360
B5C1
102
}
102
{ACAD_REACTORS
330
B55B
102
}
330
B55B
100
AcDbVisualStyle
  2
Wireframe
 70
     5
 71
     0
 72
     2
 73
     0
 90
        0
 40
-0.6
 41
-30.0
 62
     5
 63
     7
 74
     1
 91
        4
 64
     7
 65
   257
 75
     1
175
     1
 42
1.0
 92
        0
 66
   257
 43
1.0
 76
     1
 77
     6
 78
     2
 67
     7
 79
     3
170
     0
171
     0
290
     0
174
     0
 93
        1
 44
0.0
173
     0
291
     0
 45
0.0
1001
ACAD
1000
AcDbSavedByObjectVersion
1070
     0
  0
VISUALSTYLE
  5
B56E
102
{ACAD_XDICTIONARY
360
B5D9
102
}
102
{ACAD_REACTORS
330
B55B
102
}
330
B55B
100
AcDbVisualStyle
  2
X-Ray
 70
    25
 71
     2
 72
     2
 73
     1
 90
        1
 40
0.5
 41
-30.0
 62
     5
 63
     7
 74
     1
 91
        0
 64
     7
 65
   257
 75
     1
175
     1
 42
1.0
 92
        8
 66
     7
 43
1.0
 76
     1
 77
     6
 78
     2
 67
     7
 79
     3
170
     0
171
     0
290
     0
174
     0
 93
       13
 44
0.0
173
     0
291
     0
 45
0.0
1001
ACAD
1000
AcDbSavedByObjectVersion
1070
     0
  0
DICTIONARYVAR
  5
B5A8
102
{ACAD_REACTORS
330
B5A3
102
}
330
B5A3
100
DictionaryVariables
280
     0
  1
1:1
  0
DICTIONARYVAR
  5
B5A5
102
{ACAD_REACTORS
330
B5A3
102
}
330
B5A3
100
DictionaryVariables
280
     0
  1
STANDARD
  0
DICTIONARYVAR
  5
B5A4
102
{ACAD_REACTORS
330
B5A3
102
}
330
B5A3
100
DictionaryVariables
280
     0
  1
STANDARD
  0
DICTIONARYVAR
  5
B5A6
102
{ACAD_REACTORS
330
B5A3
102
}
330
B5A3
100
DictionaryVariables
280
     0
  1
Imperial24
  0
DICTIONARYVAR
  5
B5A7
102
{ACAD_REACTORS
330
B5A3
102
}
330
B5A3
100
DictionaryVariables
280
     0
  1
Imperial24
  0
DICTIONARYVAR
  5
B5AB
102
{ACAD_REACTORS
330
B5A3
102
}
330
B5A3
100
DictionaryVariables
280
     0
  1
1
  0
DICTIONARYVAR
  5
B5AA
102
{ACAD_REACTORS
330
B5A3
102
}
330
B5A3
100
DictionaryVariables
280
     0
  1
0
  0
DICTIONARYVAR
  5
B5A9
102
{ACAD_REACTORS
330
B5A3
102
}
330
B5A3
100
DictionaryVariables
280
     0
  1
127
  0
DICTIONARYVAR
  5
B5AC
102
{ACAD_REACTORS
330
B5A3
102
}
330
B5A3
100
DictionaryVariables
280
     0
  1
2
  0
DICTIONARY
  5
B5E9
330
B58E
100
AcDbDictionary
280
     1
281
     1
  3
ACAD_XREC_ROUNDTRIP
360
B5EA
  0
DICTIONARY
  5
B5EB
330
B58F
100
AcDbDictionary
280
     1
281
     1
  3
ACAD_XREC_ROUNDTRIP
360
B5EC
  0
DICTIONARY
  5
B5ED
330
B590
100
AcDbDictionary
280
     1
281
     1
  3
ACAD_XREC_ROUNDTRIP
360
B5EE
  0
DICTIONARY
  5
B54C
330
B54B
100
AcDbDictionary
280
     1
281
     1
  3
ACAD_XREC_ROUNDTRIP
360
B5B3
  3
BUMPTILE
360
B54E
  3
DIFFUSETILE
360
B54D
  3
OPACITYTILE
360
B551
  3
REFLECTIONTILE
360
B550
  3
REFRACTIONTILE
360
B552
  3
SPECULARTILE
360
B54F
  0
DICTIONARY
  5
B544
330
B543
100
AcDbDictionary
280
     1
281
     1
  3
ACAD_XREC_ROUNDTRIP
360
B5B2
  3
BUMPTILE
360
B546
  3
DIFFUSETILE
360
B545
  3
OPACITYTILE
360
B549
  3
REFLECTIONTILE
360
B548
  3
REFRACTIONTILE
360
B54A
  3
SPECULARTILE
360
B547
  0
DICTIONARY
  5
B554
330
B553
100
AcDbDictionary
280
     1
281
     1
  3
ACAD_XREC_ROUNDTRIP
360
B5B4
  3
BUMPTILE
360
B556
  3
DIFFUSETILE
360
B555
  3
OPACITYTILE
360
B559
  3
REFLECTIONTILE
360
B558
  3
REFRACTIONTILE
360
B55A
  3
SPECULARTILE
360
B557
  0
DICTIONARY
  5
B5E7
330
B58C
100
AcDbDictionary
280
     1
281
     1
  3
ACAD_XREC_ROUNDTRIP
360
B5E8
  0
DICTIONARY
  5
B5AE
330
B576
100
AcDbDictionary
280
     1
281
     1
  3
ACAD_ROUNDTRIP_2008_TABLESTYLE_CELLSTYLEMAP
360
B5AF
  3
ACAD_XREC_ROUNDTRIP
360
B5E5
  0
DICTIONARY
  5
B5BF
330
B561
100
AcDbDictionary
280
     1
281
     1
  3
ACAD_XREC_ROUNDTRIP
360
B5C0
  0
DICTIONARY
  5
B5BD
330
B560
100
AcDbDictionary
280
     1
281
     1
  3
ACAD_XREC_ROUNDTRIP
360
B5BE
  0
DICTIONARY
  5
B5CB
330
B567
100
AcDbDictionary
280
     1
281
     1
  3
ACAD_XREC_ROUNDTRIP
360
B5CC
  0
DICTIONARY
  5
B5D3
330
B56B
100
AcDbDictionary
280
     1
281
     1
  3
ACAD_XREC_ROUNDTRIP
360
B5D4
  0
DICTIONARY
  5
B5C5
330
B564
100
AcDbDictionary
280
     1
281
     1
  3
ACAD_XREC_ROUNDTRIP
360
B5C6
  0
DICTIONARY
  5
B5C9
330
B566
100
AcDbDictionary
280
     1
281
     1
  3
ACAD_XREC_ROUNDTRIP
360
B5CA
  0
DICTIONARY
  5
B5E3
330
B573
100
AcDbDictionary
280
     1
281
     1
  3
ACAD_XREC_ROUNDTRIP
360
B5E4
  0
DICTIONARY
  5
B5D1
330
B56A
100
AcDbDictionary
280
     1
281
     1
  3
ACAD_XREC_ROUNDTRIP
360
B5D2
  0
DICTIONARY
  5
B5B5
330
B55C
100
AcDbDictionary
280
     1
281
     1
  3
ACAD_XREC_ROUNDTRIP
360
B5B6
  0
DICTIONARY
  5
B5B7
330
B55D
100
AcDbDictionary
280
     1
281
     1
  3
ACAD_XREC_ROUNDTRIP
360
B5B8
  0
DICTIONARY
  5
B5B9
330
B55E
100
AcDbDictionary
280
     1
281
     1
  3
ACAD_XREC_ROUNDTRIP
360
B5BA
  0
DICTIONARY
  5
B5BB
330
B55F
100
AcDbDictionary
280
     1
281
     1
  3
ACAD_XREC_ROUNDTRIP
360
B5BC
  0
DICTIONARY
  5
B5C3
330
B563
100
AcDbDictionary
280
     1
281
     1
  3
ACAD_XREC_ROUNDTRIP
360
B5C4
  0
DICTIONARY
  5
B5DF
330
B571
100
AcDbDictionary
280
     1
281
     1
  3
ACAD_XREC_ROUNDTRIP
360
B5E0
  0
DICTIONARY
  5
B5CF
330
B569
100
AcDbDictionary
280
     1
281
     1
  3
ACAD_XREC_ROUNDTRIP
360
B5D0
  0
DICTIONARY
  5
B5E1
330
B572
100
AcDbDictionary
280
     1
281
     1
  3
ACAD_XREC_ROUNDTRIP
360
B5E2
  0
DICTIONARY
  5
B5C7
330
B565
100
AcDbDictionary
280
     1
281
     1
  3
ACAD_XREC_ROUNDTRIP
360
B5C8
  0
DICTIONARY
  5
B5DD
330
B570
100
AcDbDictionary
280
     1
281
     1
  3
ACAD_XREC_ROUNDTRIP
360
B5DE
  0
DICTIONARY
  5
B5DB
330
B56F
100
AcDbDictionary
280
     1
281
     1
  3
ACAD_XREC_ROUNDTRIP
360
B5DC
  0
DICTIONARY
  5
B5D5
330
B56C
100
AcDbDictionary
280
     1
281
     1
  3
ACAD_XREC_ROUNDTRIP
360
B5D6
  0
DICTIONARY
  5
B5D7
330
B56D
100
AcDbDictionary
280
     1
281
     1
  3
ACAD_XREC_ROUNDTRIP
360
B5D8
  0
DICTIONARY
  5
B5CD
330
B568
100
AcDbDictionary
280
     1
281
     1
  3
ACAD_XREC_ROUNDTRIP
360
B5CE
  0
DICTIONARY
  5
B5C1
330
B562
100
AcDbDictionary
280
     1
281
     1
  3
ACAD_XREC_ROUNDTRIP
360
B5C2
  0
DICTIONARY
  5
B5D9
330
B56E
100
AcDbDictionary
280
     1
281
     1
  3
ACAD_XREC_ROUNDTRIP
360
B5DA
  0
XRECORD
  5
B5EA
102
{ACAD_REACTORS
330
B5E9
102
}
330
B5E9
100
AcDbXrecord
280
     1
102
DISPLAYNAME
  1
Imperial24
102
FLAGS
 90
        0
  0
XRECORD
  5
B5EC
102
{ACAD_REACTORS
330
B5EB
102
}
330
B5EB
100
AcDbXrecord
280
     1
102
SHADEPLOT
 70
     0
102
SHADEPLOTRESLEVEL
 70
     2
102
SHADEPLOTCUSTOMDPI
 70
   300
  0
XRECORD
  5
B5EE
102
{ACAD_REACTORS
330
B5ED
102
}
330
B5ED
100
AcDbXrecord
280
     1
102
SHADEPLOT
 70
     0
102
SHADEPLOTRESLEVEL
 70
     2
102
SHADEPLOTCUSTOMDPI
 70
   300
  0
XRECORD
  5
B5B3
102
{ACAD_REACTORS
330
B54C
102
}
330
B54C
100
AcDbXrecord
280
     1
102
MATERIAL
148
0.0
149
0.0
149
0.0
 93
        0
 94
      127
282
     0
 72
     0
 77
     0
171
     0
175
     0
179
     0
273
     0
  0
XRECORD
  5
B54E
102
{ACAD_REACTORS
330
B54C
102
}
330
B54C
100
AcDbXrecord
280
     1
270
     1
271
     1
  0
XRECORD
  5
B54D
102
{ACAD_REACTORS
330
B54C
102
}
330
B54C
100
AcDbXrecord
280
     1
270
     1
271
     1
  0
XRECORD
  5
B551
102
{ACAD_REACTORS
330
B54C
102
}
330
B54C
100
AcDbXrecord
280
     1
270
     1
271
     1
  0
XRECORD
  5
B550
102
{ACAD_REACTORS
330
B54C
102
}
330
B54C
100
AcDbXrecord
280
     1
270
     1
271
     1
  0
XRECORD
  5
B552
102
{ACAD_REACTORS
330
B54C
102
}
330
B54C
100
AcDbXrecord
280
     1
270
     1
271
     1
  0
XRECORD
  5
B54F
102
{ACAD_REACTORS
330
B54C
102
}
330
B54C
100
AcDbXrecord
280
     1
270
     1
271
     1
  0
XRECORD
  5
B5B2
102
{ACAD_REACTORS
330
B544
102
}
330
B544
100
AcDbXrecord
280
     1
102
MATERIAL
148
0.0
149
0.0
149
0.0
 93
        0
 94
      127
282
     0
 72
     0
 77
     0
171
     0
175
     0
179
     0
273
     0
  0
XRECORD
  5
B546
102
{ACAD_REACTORS
330
B544
102
}
330
B544
100
AcDbXrecord
280
     1
270
     1
271
     1
  0
XRECORD
  5
B545
102
{ACAD_REACTORS
330
B544
102
}
330
B544
100
AcDbXrecord
280
     1
270
     1
271
     1
  0
XRECORD
  5
B549
102
{ACAD_REACTORS
330
B544
102
}
330
B544
100
AcDbXrecord
280
     1
270
     1
271
     1
  0
XRECORD
  5
B548
102
{ACAD_REACTORS
330
B544
102
}
330
B544
100
AcDbXrecord
280
     1
270
     1
271
     1
  0
XRECORD
  5
B54A
102
{ACAD_REACTORS
330
B544
102
}
330
B544
100
AcDbXrecord
280
     1
270
     1
271
     1
  0
XRECORD
  5
B547
102
{ACAD_REACTORS
330
B544
102
}
330
B544
100
AcDbXrecord
280
     1
270
     1
271
     1
  0
XRECORD
  5
B5B4
102
{ACAD_REACTORS
330
B554
102
}
330
B554
100
AcDbXrecord
280
     1
102
MATERIAL
148
0.0
149
0.0
149
0.0
 93
        0
 94
      127
282
     0
 72
     0
 77
     0
171
     0
175
     0
179
     0
273
     0
  0
XRECORD
  5
B556
102
{ACAD_REACTORS
330
B554
102
}
330
B554
100
AcDbXrecord
280
     1
270
     1
271
     1
  0
XRECORD
  5
B555
102
{ACAD_REACTORS
330
B554
102
}
330
B554
100
AcDbXrecord
280
     1
270
     1
271
     1
  0
XRECORD
  5
B559
102
{ACAD_REACTORS
330
B554
102
}
330
B554
100
AcDbXrecord
280
     1
270
     1
271
     1
  0
XRECORD
  5
B558
102
{ACAD_REACTORS
330
B554
102
}
330
B554
100
AcDbXrecord
280
     1
270
     1
271
     1
  0
XRECORD
  5
B55A
102
{ACAD_REACTORS
330
B554
102
}
330
B554
100
AcDbXrecord
280
     1
270
     1
271
     1
  0
XRECORD
  5
B557
102
{ACAD_REACTORS
330
B554
102
}
330
B554
100
AcDbXrecord
280
     1
270
     1
271
     1
  0
XRECORD
  5
B5E8
102
{ACAD_REACTORS
330
B5E7
102
}
330
B5E7
100
AcDbXrecord
280
     1
102
DISPLAYNAME
  1
Imperial24
102
FLAGS
 90
        0
  0
CELLSTYLEMAP
  5
B5AF
102
{ACAD_REACTORS
330
B5AE
102
}
330
B5AE
100
AcDbCellStyleMap
 90
        3
300
CELLSTYLE
  1
TABLEFORMAT_BEGIN
 90
        5
170
     1
 91
        0
 92
    32768
 62
   257
 93
        1
300
CONTENTFORMAT
  1
CONTENTFORMAT_BEGIN
 90
        0
 91
        0
 92
      512
 93
        0
300

 40
0.0
140
1.0
 94
        5
 62
     0
340
B30E
144
0.25
309
CONTENTFORMAT_END
171
     0
 94
        0
309
TABLEFORMAT_END
  1
CELLSTYLE_BEGIN
 90
        1
 91
        1
300
_TITLE
309
CELLSTYLE_END
300
CELLSTYLE
  1
TABLEFORMAT_BEGIN
 90
        5
170
     1
 91
        0
 92
        0
 62
   257
 93
        1
300
CONTENTFORMAT
  1
CONTENTFORMAT_BEGIN
 90
        0
 91
        0
 92
      512
 93
        0
300

 40
0.0
140
1.0
 94
        5
 62
     0
340
B30E
144
0.18
309
CONTENTFORMAT_END
171
     0
 94
        0
309
TABLEFORMAT_END
  1
CELLSTYLE_BEGIN
 90
        2
 91
        1
300
_HEADER
309
CELLSTYLE_END
300
CELLSTYLE
  1
TABLEFORMAT_BEGIN
 90
        5
170
     1
 91
        0
 92
        0
 62
   257
 93
        1
300
CONTENTFORMAT
  1
CONTENTFORMAT_BEGIN
 90
        0
 91
        0
 92
      512
 93
        0
300

 40
0.0
140
1.0
 94
        2
 62
     0
340
B30E
144
0.18
309
CONTENTFORMAT_END
171
     0
 94
        0
309
TABLEFORMAT_END
  1
CELLSTYLE_BEGIN
 90
        3
 91
        2
300
_DATA
309
CELLSTYLE_END
  0
XRECORD
  5
B5E5
102
{ACAD_REACTORS
330
B5AE
102
}
330
B5AE
100
AcDbXrecord
280
     1
102
ACAD_ROUNDTRIP_PRE2007_TABLESTYLE
 90
      512
 91
        0
  1

 92
      512
 93
        0
  2

 94
      512
 95
        0
  3

  0
XRECORD
  5
B5C0
102
{ACAD_REACTORS
330
B5BF
102
}
330
B5BF
100
AcDbXrecord
280
     1
102
RTVSPost2010Prop28
280
     1
102
RTVSPost2010PropOp28
 70
     1
102
RTVSPost2010Prop29
280
     1
102
RTVSPost2010PropOp29
 70
     1
102
RTVSPost2010Prop30
280
     0
102
RTVSPost2010PropOp30
 70
     1
102
RTVSPost2010Prop31
280
     0
102
RTVSPost2010PropOp31
 70
     1
102
RTVSPost2010Prop32
280
     0
102
RTVSPost2010PropOp32
 70
     1
102
RTVSPost2010Prop33
280
     0
102
RTVSPost2010PropOp33
 70
     1
102
RTVSPost2010Prop34
280
     0
102
RTVSPost2010PropOp34
 70
     1
102
RTVSPost2010Prop35
280
     0
102
RTVSPost2010PropOp35
 70
     1
102
RTVSPost2010Prop36
280
     0
102
RTVSPost2010PropOp36
 70
     1
102
RTVSPost2010Prop37
 90
       50
102
RTVSPost2010PropOp37
 70
     1
102
RTVSPost2010Prop38
140
0.0
102
RTVSPost2010PropOp38
 70
     1
102
RTVSPost2010Prop39
140
1.0
102
RTVSPost2010PropOp39
 70
     1
102
RTVSPost2010Prop40
 90
        0
102
RTVSPost2010PropOp40
 70
     1
102
RTVSPost2010Prop41ColorIndex
 90
       18
102
RTVSPost2010Prop41ColorRGB
 90
        0
102
RTVSPost2010PropOp41
 70
     1
102
RTVSPost2010Prop42
 90
       50
102
RTVSPost2010PropOp42
 70
     1
102
RTVSPost2010Prop43
 90
        3
102
RTVSPost2010PropOp43
 70
     1
102
RTVSPost2010Prop44ColorIndex
 90
        5
102
RTVSPost2010Prop44ColorRGB
 90
      255
102
RTVSPost2010PropOp44
 70
     1
102
RTVSPost2010Prop45
280
     0
102
RTVSPost2010PropOp45
 70
     1
102
RTVSPost2010Prop46
 90
       50
102
RTVSPost2010PropOp46
 70
     1
102
RTVSPost2010Prop47
 90
       50
102
RTVSPost2010PropOp47
 70
     1
102
RTVSPost2010Prop48
 90
       50
102
RTVSPost2010PropOp48
 70
     1
102
RTVSPost2010Prop49
280
     0
102
RTVSPost2010PropOp49
 70
     1
102
RTVSPost2010Prop50
 90
       50
102
RTVSPost2010PropOp50
 70
     1
102
RTVSPost2010Prop51ColorIndex
 90
      256
102
RTVSPost2010Prop51ColorRGB
 90
-16777216
102
RTVSPost2010PropOp51
 70
     0
102
RTVSPost2010Prop52
140
1.0
102
RTVSPost2010PropOp52
 70
     0
102
RTVSPost2010Prop53
 90
        2
102
RTVSPost2010PropOp53
 70
     1
102
RTVSPost2010Prop54
  1
strokes_ogs.tif
102
RTVSPost2010PropOp54
 70
     1
102
RTVSPost2010Prop55
280
     0
102
RTVSPost2010PropOp55
 70
     1
102
RTVSPost2010Prop56
140
1.0
102
RTVSPost2010PropOp56
 70
     1
102
RTVSPost2010Prop57
140
1.0
102
RTVSPost2010PropOp57
 70
     1
102
RTVSPropertyOp0
 70
     1
102
RTVSPropertyOp1
 70
     1
102
RTVSPropertyOp2
 70
     1
102
RTVSPropertyOp3
 70
     1
102
RTVSPropertyOp4
 70
     1
102
RTVSPropertyOp5
 70
     1
102
RTVSPropertyOp6
 70
     1
102
RTVSPropertyOp7
 70
     1
102
RTVSPropertyOp8
 70
     1
102
RTVSPropertyOp9
 70
     1
102
RTVSPropertyOp10
 70
     1
102
RTVSPropertyOp11
 70
     1
102
RTVSPropertyOp12
 70
     1
102
RTVSPropertyOp13
 70
     1
102
RTVSPropertyOp14
 70
     1
102
RTVSPropertyOp15
 70
     1
102
RTVSPropertyOp16
 70
     1
102
RTVSPropertyOp17
 70
     1
102
RTVSPropertyOp18
 70
     1
102
RTVSPropertyOp19
 70
     1
102
RTVSPropertyOp20
 70
     1
102
RTVSPropertyOp21
 70
     1
102
RTVSPropertyOp22
 70
     1
102
RTVSPropertyOp23
 70
     1
102
RTVSPropertyOp24
 70
     1
102
RTVSPropertyOp25
 70
     1
102
RTVSPropertyOp26
 70
     1
102
RTVSPropertyOp27
 70
     1
102
RTVSPropertyOp28
 70
     1
102
RTVSPropertyOp29
 70
     1
102
RTVSPropertyOp30
 70
     1
102
RTVSPropertyOp31
 70
     1
102
RTVSPropertyOp32
 70
     1
102
RTVSPropertyOp33
 70
     1
102
RTVSPropertyOp34
 70
     1
102
RTVSPropertyOp35
 70
     1
102
RTVSPropertyOp36
 70
     1
102
RTVSPropertyOp37
 70
     1
102
RTVSPropertyOp38
 70
     1
102
RTVSPropertyOp39
 70
     1
102
RTVSPropertyOp40
 70
     1
102
RTVSPropertyOp41
 70
     1
102
RTVSPropertyOp42
 70
     1
102
RTVSPropertyOp43
 70
     1
102
RTVSPropertyOp44
 70
     1
102
RTVSPropertyOp45
 70
     1
102
RTVSPropertyOp46
 70
     1
102
RTVSPropertyOp47
 70
     1
102
RTVSPropertyOp48
 70
     1
102
RTVSPropertyOp49
 70
     1
102
RTVSPropertyOp50
 70
     1
102
RTVSPropertyOp51
 70
     0
102
RTVSPropertyOp52
 70
     0
102
RTVSPropertyOp53
 70
     1
102
RTVSPropertyOp54
 70
     1
102
RTVSPropertyOp55
 70
     1
102
RTVSPropertyOp56
 70
     1
102
RTVSPropertyOp57
 70
     1
102
RTVSPropertyOp58
 70
     1
102
RTVSPropertyOp59
 70
     1
102
RTVSPropertyOp60
 70
     1
102
RTVSPropertyOp61
 70
     1
102
RTVSPropertyOp62
 70
     1
  0
XRECORD
  5
B5BE
102
{ACAD_REACTORS
330
B5BD
102
}
330
B5BD
100
AcDbXrecord
280
     1
102
RTVSPost2010Prop28
280
     0
102
RTVSPost2010PropOp28
 70
     1
102
RTVSPost2010Prop29
280
     1
102
RTVSPost2010PropOp29
 70
     1
102
RTVSPost2010Prop30
280
     1
102
RTVSPost2010PropOp30
 70
     1
102
RTVSPost2010Prop31
280
     0
102
RTVSPost2010PropOp31
 70
     1
102
RTVSPost2010Prop32
280
     0
102
RTVSPost2010PropOp32
 70
     1
102
RTVSPost2010Prop33
280
     0
102
RTVSPost2010PropOp33
 70
     1
102
RTVSPost2010Prop34
280
     0
102
RTVSPost2010PropOp34
 70
     1
102
RTVSPost2010Prop35
280
     0
102
RTVSPost2010PropOp35
 70
     1
102
RTVSPost2010Prop36
280
     0
102
RTVSPost2010PropOp36
 70
     1
102
RTVSPost2010Prop37
 90
       50
102
RTVSPost2010PropOp37
 70
     1
102
RTVSPost2010Prop38
140
0.0
102
RTVSPost2010PropOp38
 70
     1
102
RTVSPost2010Prop39
140
1.0
102
RTVSPost2010PropOp39
 70
     1
102
RTVSPost2010Prop40
 90
        0
102
RTVSPost2010PropOp40
 70
     1
102
RTVSPost2010Prop41ColorIndex
 90
       18
102
RTVSPost2010Prop41ColorRGB
 90
        0
102
RTVSPost2010PropOp41
 70
     1
102
RTVSPost2010Prop42
 90
       50
102
RTVSPost2010PropOp42
 70
     1
102
RTVSPost2010Prop43
 90
        3
102
RTVSPost2010PropOp43
 70
     1
102
RTVSPost2010Prop44ColorIndex
 90
        5
102
RTVSPost2010Prop44ColorRGB
 90
      255
102
RTVSPost2010PropOp44
 70
     1
102
RTVSPost2010Prop45
280
     0
102
RTVSPost2010PropOp45
 70
     1
102
RTVSPost2010Prop46
 90
       50
102
RTVSPost2010PropOp46
 70
     1
102
RTVSPost2010Prop47
 90
       50
102
RTVSPost2010PropOp47
 70
     1
102
RTVSPost2010Prop48
 90
       50
102
RTVSPost2010PropOp48
 70
     1
102
RTVSPost2010Prop49
280
     0
102
RTVSPost2010PropOp49
 70
     1
102
RTVSPost2010Prop50
 90
       50
102
RTVSPost2010PropOp50
 70
     1
102
RTVSPost2010Prop51ColorIndex
 90
      256
102
RTVSPost2010Prop51ColorRGB
 90
-16777216
102
RTVSPost2010PropOp51
 70
     0
102
RTVSPost2010Prop52
140
1.0
102
RTVSPost2010PropOp52
 70
     0
102
RTVSPost2010Prop53
 90
        2
102
RTVSPost2010PropOp53
 70
     1
102
RTVSPost2010Prop54
  1
strokes_ogs.tif
102
RTVSPost2010PropOp54
 70
     1
102
RTVSPost2010Prop55
280
     0
102
RTVSPost2010PropOp55
 70
     1
102
RTVSPost2010Prop56
140
1.0
102
RTVSPost2010PropOp56
 70
     1
102
RTVSPost2010Prop57
140
1.0
102
RTVSPost2010PropOp57
 70
     1
102
RTVSPropertyOp0
 70
     1
102
RTVSPropertyOp1
 70
     1
102
RTVSPropertyOp2
 70
     1
102
RTVSPropertyOp3
 70
     1
102
RTVSPropertyOp4
 70
     1
102
RTVSPropertyOp5
 70
     1
102
RTVSPropertyOp6
 70
     1
102
RTVSPropertyOp7
 70
     1
102
RTVSPropertyOp8
 70
     1
102
RTVSPropertyOp9
 70
     1
102
RTVSPropertyOp10
 70
     1
102
RTVSPropertyOp11
 70
     1
102
RTVSPropertyOp12
 70
     1
102
RTVSPropertyOp13
 70
     1
102
RTVSPropertyOp14
 70
     1
102
RTVSPropertyOp15
 70
     1
102
RTVSPropertyOp16
 70
     1
102
RTVSPropertyOp17
 70
     1
102
RTVSPropertyOp18
 70
     1
102
RTVSPropertyOp19
 70
     1
102
RTVSPropertyOp20
 70
     1
102
RTVSPropertyOp21
 70
     1
102
RTVSPropertyOp22
 70
     1
102
RTVSPropertyOp23
 70
     1
102
RTVSPropertyOp24
 70
     1
102
RTVSPropertyOp25
 70
     1
102
RTVSPropertyOp26
 70
     1
102
RTVSPropertyOp27
 70
     1
102
RTVSPropertyOp28
 70
     1
102
RTVSPropertyOp29
 70
     1
102
RTVSPropertyOp30
 70
     1
102
RTVSPropertyOp31
 70
     1
102
RTVSPropertyOp32
 70
     1
102
RTVSPropertyOp33
 70
     1
102
RTVSPropertyOp34
 70
     1
102
RTVSPropertyOp35
 70
     1
102
RTVSPropertyOp36
 70
     1
102
RTVSPropertyOp37
 70
     1
102
RTVSPropertyOp38
 70
     1
102
RTVSPropertyOp39
 70
     1
102
RTVSPropertyOp40
 70
     1
102
RTVSPropertyOp41
 70
     1
102
RTVSPropertyOp42
 70
     1
102
RTVSPropertyOp43
 70
     1
102
RTVSPropertyOp44
 70
     1
102
RTVSPropertyOp45
 70
     1
102
RTVSPropertyOp46
 70
     1
102
RTVSPropertyOp47
 70
     1
102
RTVSPropertyOp48
 70
     1
102
RTVSPropertyOp49
 70
     1
102
RTVSPropertyOp50
 70
     1
102
RTVSPropertyOp51
 70
     0
102
RTVSPropertyOp52
 70
     0
102
RTVSPropertyOp53
 70
     1
102
RTVSPropertyOp54
 70
     1
102
RTVSPropertyOp55
 70
     1
102
RTVSPropertyOp56
 70
     1
102
RTVSPropertyOp57
 70
     1
102
RTVSPropertyOp58
 70
     1
102
RTVSPropertyOp59
 70
     1
102
RTVSPropertyOp60
 70
     1
102
RTVSPropertyOp61
 70
     1
102
RTVSPropertyOp62
 70
     1
  0
XRECORD
  5
B5CC
102
{ACAD_REACTORS
330
B5CB
102
}
330
B5CB
100
AcDbXrecord
280
     1
102
RTVSPost2010Prop28
280
     0
102
RTVSPost2010PropOp28
 70
     1
102
RTVSPost2010Prop29
280
     1
102
RTVSPost2010PropOp29
 70
     1
102
RTVSPost2010Prop30
280
     1
102
RTVSPost2010PropOp30
 70
     1
102
RTVSPost2010Prop31
280
     0
102
RTVSPost2010PropOp31
 70
     1
102
RTVSPost2010Prop32
280
     0
102
RTVSPost2010PropOp32
 70
     1
102
RTVSPost2010Prop33
280
     0
102
RTVSPost2010PropOp33
 70
     1
102
RTVSPost2010Prop34
280
     0
102
RTVSPost2010PropOp34
 70
     1
102
RTVSPost2010Prop35
280
     0
102
RTVSPost2010PropOp35
 70
     1
102
RTVSPost2010Prop36
280
     0
102
RTVSPost2010PropOp36
 70
     1
102
RTVSPost2010Prop37
 90
       50
102
RTVSPost2010PropOp37
 70
     1
102
RTVSPost2010Prop38
140
0.0
102
RTVSPost2010PropOp38
 70
     1
102
RTVSPost2010Prop39
140
1.0
102
RTVSPost2010PropOp39
 70
     1
102
RTVSPost2010Prop40
 90
        0
102
RTVSPost2010PropOp40
 70
     1
102
RTVSPost2010Prop41ColorIndex
 90
       18
102
RTVSPost2010Prop41ColorRGB
 90
        0
102
RTVSPost2010PropOp41
 70
     1
102
RTVSPost2010Prop42
 90
       50
102
RTVSPost2010PropOp42
 70
     1
102
RTVSPost2010Prop43
 90
        3
102
RTVSPost2010PropOp43
 70
     1
102
RTVSPost2010Prop44ColorIndex
 90
        5
102
RTVSPost2010Prop44ColorRGB
 90
      255
102
RTVSPost2010PropOp44
 70
     1
102
RTVSPost2010Prop45
280
     0
102
RTVSPost2010PropOp45
 70
     1
102
RTVSPost2010Prop46
 90
       50
102
RTVSPost2010PropOp46
 70
     1
102
RTVSPost2010Prop47
 90
       50
102
RTVSPost2010PropOp47
 70
     1
102
RTVSPost2010Prop48
 90
       50
102
RTVSPost2010PropOp48
 70
     1
102
RTVSPost2010Prop49
280
     0
102
RTVSPost2010PropOp49
 70
     1
102
RTVSPost2010Prop50
 90
       50
102
RTVSPost2010PropOp50
 70
     1
102
RTVSPost2010Prop51ColorIndex
 90
      256
102
RTVSPost2010Prop51ColorRGB
 90
-16777216
102
RTVSPost2010PropOp51
 70
     0
102
RTVSPost2010Prop52
140
1.0
102
RTVSPost2010PropOp52
 70
     0
102
RTVSPost2010Prop53
 90
        2
102
RTVSPost2010PropOp53
 70
     1
102
RTVSPost2010Prop54
  1
strokes_ogs.tif
102
RTVSPost2010PropOp54
 70
     1
102
RTVSPost2010Prop55
280
     0
102
RTVSPost2010PropOp55
 70
     1
102
RTVSPost2010Prop56
140
1.0
102
RTVSPost2010PropOp56
 70
     1
102
RTVSPost2010Prop57
140
1.0
102
RTVSPost2010PropOp57
 70
     1
102
RTVSPropertyOp0
 70
     1
102
RTVSPropertyOp1
 70
     1
102
RTVSPropertyOp2
 70
     1
102
RTVSPropertyOp3
 70
     1
102
RTVSPropertyOp4
 70
     1
102
RTVSPropertyOp5
 70
     1
102
RTVSPropertyOp6
 70
     1
102
RTVSPropertyOp7
 70
     1
102
RTVSPropertyOp8
 70
     1
102
RTVSPropertyOp9
 70
     1
102
RTVSPropertyOp10
 70
     1
102
RTVSPropertyOp11
 70
     1
102
RTVSPropertyOp12
 70
     1
102
RTVSPropertyOp13
 70
     1
102
RTVSPropertyOp14
 70
     1
102
RTVSPropertyOp15
 70
     1
102
RTVSPropertyOp16
 70
     1
102
RTVSPropertyOp17
 70
     1
102
RTVSPropertyOp18
 70
     1
102
RTVSPropertyOp19
 70
     1
102
RTVSPropertyOp20
 70
     1
102
RTVSPropertyOp21
 70
     1
102
RTVSPropertyOp22
 70
     1
102
RTVSPropertyOp23
 70
     1
102
RTVSPropertyOp24
 70
     1
102
RTVSPropertyOp25
 70
     1
102
RTVSPropertyOp26
 70
     1
102
RTVSPropertyOp27
 70
     1
102
RTVSPropertyOp28
 70
     1
102
RTVSPropertyOp29
 70
     1
102
RTVSPropertyOp30
 70
     1
102
RTVSPropertyOp31
 70
     1
102
RTVSPropertyOp32
 70
     1
102
RTVSPropertyOp33
 70
     1
102
RTVSPropertyOp34
 70
     1
102
RTVSPropertyOp35
 70
     1
102
RTVSPropertyOp36
 70
     1
102
RTVSPropertyOp37
 70
     1
102
RTVSPropertyOp38
 70
     1
102
RTVSPropertyOp39
 70
     1
102
RTVSPropertyOp40
 70
     1
102
RTVSPropertyOp41
 70
     1
102
RTVSPropertyOp42
 70
     1
102
RTVSPropertyOp43
 70
     1
102
RTVSPropertyOp44
 70
     1
102
RTVSPropertyOp45
 70
     1
102
RTVSPropertyOp46
 70
     1
102
RTVSPropertyOp47
 70
     1
102
RTVSPropertyOp48
 70
     1
102
RTVSPropertyOp49
 70
     1
102
RTVSPropertyOp50
 70
     1
102
RTVSPropertyOp51
 70
     0
102
RTVSPropertyOp52
 70
     0
102
RTVSPropertyOp53
 70
     1
102
RTVSPropertyOp54
 70
     1
102
RTVSPropertyOp55
 70
     1
102
RTVSPropertyOp56
 70
     1
102
RTVSPropertyOp57
 70
     1
102
RTVSPropertyOp58
 70
     1
102
RTVSPropertyOp59
 70
     1
102
RTVSPropertyOp60
 70
     1
102
RTVSPropertyOp61
 70
     1
102
RTVSPropertyOp62
 70
     1
  0
XRECORD
  5
B5D4
102
{ACAD_REACTORS
330
B5D3
102
}
330
B5D3
100
AcDbXrecord
280
     1
102
RTVSPost2010Prop28
280
     0
102
RTVSPost2010PropOp28
 70
     1
102
RTVSPost2010Prop29
280
     1
102
RTVSPost2010PropOp29
 70
     1
102
RTVSPost2010Prop30
280
     1
102
RTVSPost2010PropOp30
 70
     1
102
RTVSPost2010Prop31
280
     0
102
RTVSPost2010PropOp31
 70
     1
102
RTVSPost2010Prop32
280
     0
102
RTVSPost2010PropOp32
 70
     1
102
RTVSPost2010Prop33
280
     0
102
RTVSPost2010PropOp33
 70
     1
102
RTVSPost2010Prop34
280
     0
102
RTVSPost2010PropOp34
 70
     1
102
RTVSPost2010Prop35
280
     0
102
RTVSPost2010PropOp35
 70
     1
102
RTVSPost2010Prop36
280
     0
102
RTVSPost2010PropOp36
 70
     1
102
RTVSPost2010Prop37
 90
       50
102
RTVSPost2010PropOp37
 70
     1
102
RTVSPost2010Prop38
140
0.0
102
RTVSPost2010PropOp38
 70
     1
102
RTVSPost2010Prop39
140
1.0
102
RTVSPost2010PropOp39
 70
     1
102
RTVSPost2010Prop40
 90
        0
102
RTVSPost2010PropOp40
 70
     1
102
RTVSPost2010Prop41ColorIndex
 90
       18
102
RTVSPost2010Prop41ColorRGB
 90
        0
102
RTVSPost2010PropOp41
 70
     1
102
RTVSPost2010Prop42
 90
       50
102
RTVSPost2010PropOp42
 70
     1
102
RTVSPost2010Prop43
 90
        3
102
RTVSPost2010PropOp43
 70
     1
102
RTVSPost2010Prop44ColorIndex
 90
        5
102
RTVSPost2010Prop44ColorRGB
 90
      255
102
RTVSPost2010PropOp44
 70
     1
102
RTVSPost2010Prop45
280
     0
102
RTVSPost2010PropOp45
 70
     1
102
RTVSPost2010Prop46
 90
       50
102
RTVSPost2010PropOp46
 70
     1
102
RTVSPost2010Prop47
 90
       50
102
RTVSPost2010PropOp47
 70
     1
102
RTVSPost2010Prop48
 90
       50
102
RTVSPost2010PropOp48
 70
     1
102
RTVSPost2010Prop49
280
     0
102
RTVSPost2010PropOp49
 70
     1
102
RTVSPost2010Prop50
 90
       50
102
RTVSPost2010PropOp50
 70
     1
102
RTVSPost2010Prop51ColorIndex
 90
      256
102
RTVSPost2010Prop51ColorRGB
 90
-16777216
102
RTVSPost2010PropOp51
 70
     0
102
RTVSPost2010Prop52
140
1.0
102
RTVSPost2010PropOp52
 70
     0
102
RTVSPost2010Prop53
 90
        2
102
RTVSPost2010PropOp53
 70
     1
102
RTVSPost2010Prop54
  1
strokes_ogs.tif
102
RTVSPost2010PropOp54
 70
     1
102
RTVSPost2010Prop55
280
     0
102
RTVSPost2010PropOp55
 70
     1
102
RTVSPost2010Prop56
140
1.0
102
RTVSPost2010PropOp56
 70
     1
102
RTVSPost2010Prop57
140
1.0
102
RTVSPost2010PropOp57
 70
     1
102
RTVSPropertyOp0
 70
     1
102
RTVSPropertyOp1
 70
     1
102
RTVSPropertyOp2
 70
     1
102
RTVSPropertyOp3
 70
     1
102
RTVSPropertyOp4
 70
     1
102
RTVSPropertyOp5
 70
     1
102
RTVSPropertyOp6
 70
     1
102
RTVSPropertyOp7
 70
     1
102
RTVSPropertyOp8
 70
     1
102
RTVSPropertyOp9
 70
     1
102
RTVSPropertyOp10
 70
     1
102
RTVSPropertyOp11
 70
     1
102
RTVSPropertyOp12
 70
     1
102
RTVSPropertyOp13
 70
     1
102
RTVSPropertyOp14
 70
     1
102
RTVSPropertyOp15
 70
     1
102
RTVSPropertyOp16
 70
     1
102
RTVSPropertyOp17
 70
     1
102
RTVSPropertyOp18
 70
     1
102
RTVSPropertyOp19
 70
     1
102
RTVSPropertyOp20
 70
     1
102
RTVSPropertyOp21
 70
     1
102
RTVSPropertyOp22
 70
     1
102
RTVSPropertyOp23
 70
     1
102
RTVSPropertyOp24
 70
     1
102
RTVSPropertyOp25
 70
     1
102
RTVSPropertyOp26
 70
     1
102
RTVSPropertyOp27
 70
     1
102
RTVSPropertyOp28
 70
     1
102
RTVSPropertyOp29
 70
     1
102
RTVSPropertyOp30
 70
     1
102
RTVSPropertyOp31
 70
     1
102
RTVSPropertyOp32
 70
     1
102
RTVSPropertyOp33
 70
     1
102
RTVSPropertyOp34
 70
     1
102
RTVSPropertyOp35
 70
     1
102
RTVSPropertyOp36
 70
     1
102
RTVSPropertyOp37
 70
     1
102
RTVSPropertyOp38
 70
     1
102
RTVSPropertyOp39
 70
     1
102
RTVSPropertyOp40
 70
     1
102
RTVSPropertyOp41
 70
     1
102
RTVSPropertyOp42
 70
     1
102
RTVSPropertyOp43
 70
     1
102
RTVSPropertyOp44
 70
     1
102
RTVSPropertyOp45
 70
     1
102
RTVSPropertyOp46
 70
     1
102
RTVSPropertyOp47
 70
     1
102
RTVSPropertyOp48
 70
     1
102
RTVSPropertyOp49
 70
     1
102
RTVSPropertyOp50
 70
     1
102
RTVSPropertyOp51
 70
     0
102
RTVSPropertyOp52
 70
     0
102
RTVSPropertyOp53
 70
     1
102
RTVSPropertyOp54
 70
     1
102
RTVSPropertyOp55
 70
     1
102
RTVSPropertyOp56
 70
     1
102
RTVSPropertyOp57
 70
     1
102
RTVSPropertyOp58
 70
     1
102
RTVSPropertyOp59
 70
     1
102
RTVSPropertyOp60
 70
     1
102
RTVSPropertyOp61
 70
     1
102
RTVSPropertyOp62
 70
     1
  0
XRECORD
  5
B5C6
102
{ACAD_REACTORS
330
B5C5
102
}
330
B5C5
100
AcDbXrecord
280
     1
102
RTVSPost2010Prop28
280
     0
102
RTVSPost2010PropOp28
 70
     1
102
RTVSPost2010Prop29
280
     1
102
RTVSPost2010PropOp29
 70
     1
102
RTVSPost2010Prop30
280
     1
102
RTVSPost2010PropOp30
 70
     1
102
RTVSPost2010Prop31
280
     0
102
RTVSPost2010PropOp31
 70
     1
102
RTVSPost2010Prop32
280
     0
102
RTVSPost2010PropOp32
 70
     1
102
RTVSPost2010Prop33
280
     0
102
RTVSPost2010PropOp33
 70
     1
102
RTVSPost2010Prop34
280
     0
102
RTVSPost2010PropOp34
 70
     1
102
RTVSPost2010Prop35
280
     0
102
RTVSPost2010PropOp35
 70
     1
102
RTVSPost2010Prop36
280
     0
102
RTVSPost2010PropOp36
 70
     1
102
RTVSPost2010Prop37
 90
       50
102
RTVSPost2010PropOp37
 70
     1
102
RTVSPost2010Prop38
140
0.0
102
RTVSPost2010PropOp38
 70
     1
102
RTVSPost2010Prop39
140
1.0
102
RTVSPost2010PropOp39
 70
     1
102
RTVSPost2010Prop40
 90
        0
102
RTVSPost2010PropOp40
 70
     1
102
RTVSPost2010Prop41ColorIndex
 90
       18
102
RTVSPost2010Prop41ColorRGB
 90
        0
102
RTVSPost2010PropOp41
 70
     1
102
RTVSPost2010Prop42
 90
       50
102
RTVSPost2010PropOp42
 70
     1
102
RTVSPost2010Prop43
 90
        3
102
RTVSPost2010PropOp43
 70
     1
102
RTVSPost2010Prop44ColorIndex
 90
        5
102
RTVSPost2010Prop44ColorRGB
 90
      255
102
RTVSPost2010PropOp44
 70
     1
102
RTVSPost2010Prop45
280
     0
102
RTVSPost2010PropOp45
 70
     1
102
RTVSPost2010Prop46
 90
       50
102
RTVSPost2010PropOp46
 70
     1
102
RTVSPost2010Prop47
 90
       50
102
RTVSPost2010PropOp47
 70
     1
102
RTVSPost2010Prop48
 90
       50
102
RTVSPost2010PropOp48
 70
     1
102
RTVSPost2010Prop49
280
     0
102
RTVSPost2010PropOp49
 70
     1
102
RTVSPost2010Prop50
 90
       50
102
RTVSPost2010PropOp50
 70
     1
102
RTVSPost2010Prop51ColorIndex
 90
      256
102
RTVSPost2010Prop51ColorRGB
 90
-16777216
102
RTVSPost2010PropOp51
 70
     0
102
RTVSPost2010Prop52
140
1.0
102
RTVSPost2010PropOp52
 70
     0
102
RTVSPost2010Prop53
 90
        2
102
RTVSPost2010PropOp53
 70
     1
102
RTVSPost2010Prop54
  1
strokes_ogs.tif
102
RTVSPost2010PropOp54
 70
     1
102
RTVSPost2010Prop55
280
     0
102
RTVSPost2010PropOp55
 70
     1
102
RTVSPost2010Prop56
140
1.0
102
RTVSPost2010PropOp56
 70
     1
102
RTVSPost2010Prop57
140
1.0
102
RTVSPost2010PropOp57
 70
     1
102
RTVSPropertyOp0
 70
     1
102
RTVSPropertyOp1
 70
     1
102
RTVSPropertyOp2
 70
     1
102
RTVSPropertyOp3
 70
     1
102
RTVSPropertyOp4
 70
     1
102
RTVSPropertyOp5
 70
     1
102
RTVSPropertyOp6
 70
     1
102
RTVSPropertyOp7
 70
     1
102
RTVSPropertyOp8
 70
     1
102
RTVSPropertyOp9
 70
     1
102
RTVSPropertyOp10
 70
     1
102
RTVSPropertyOp11
 70
     1
102
RTVSPropertyOp12
 70
     1
102
RTVSPropertyOp13
 70
     1
102
RTVSPropertyOp14
 70
     1
102
RTVSPropertyOp15
 70
     1
102
RTVSPropertyOp16
 70
     1
102
RTVSPropertyOp17
 70
     1
102
RTVSPropertyOp18
 70
     1
102
RTVSPropertyOp19
 70
     1
102
RTVSPropertyOp20
 70
     1
102
RTVSPropertyOp21
 70
     1
102
RTVSPropertyOp22
 70
     1
102
RTVSPropertyOp23
 70
     1
102
RTVSPropertyOp24
 70
     1
102
RTVSPropertyOp25
 70
     1
102
RTVSPropertyOp26
 70
     1
102
RTVSPropertyOp27
 70
     1
102
RTVSPropertyOp28
 70
     1
102
RTVSPropertyOp29
 70
     1
102
RTVSPropertyOp30
 70
     1
102
RTVSPropertyOp31
 70
     1
102
RTVSPropertyOp32
 70
     1
102
RTVSPropertyOp33
 70
     1
102
RTVSPropertyOp34
 70
     1
102
RTVSPropertyOp35
 70
     1
102
RTVSPropertyOp36
 70
     1
102
RTVSPropertyOp37
 70
     1
102
RTVSPropertyOp38
 70
     1
102
RTVSPropertyOp39
 70
     1
102
RTVSPropertyOp40
 70
     1
102
RTVSPropertyOp41
 70
     1
102
RTVSPropertyOp42
 70
     1
102
RTVSPropertyOp43
 70
     1
102
RTVSPropertyOp44
 70
     1
102
RTVSPropertyOp45
 70
     1
102
RTVSPropertyOp46
 70
     1
102
RTVSPropertyOp47
 70
     1
102
RTVSPropertyOp48
 70
     1
102
RTVSPropertyOp49
 70
     1
102
RTVSPropertyOp50
 70
     1
102
RTVSPropertyOp51
 70
     0
102
RTVSPropertyOp52
 70
     0
102
RTVSPropertyOp53
 70
     1
102
RTVSPropertyOp54
 70
     1
102
RTVSPropertyOp55
 70
     1
102
RTVSPropertyOp56
 70
     1
102
RTVSPropertyOp57
 70
     1
102
RTVSPropertyOp58
 70
     1
102
RTVSPropertyOp59
 70
     1
102
RTVSPropertyOp60
 70
     1
102
RTVSPropertyOp61
 70
     1
102
RTVSPropertyOp62
 70
     1
  0
XRECORD
  5
B5CA
102
{ACAD_REACTORS
330
B5C9
102
}
330
B5C9
100
AcDbXrecord
280
     1
102
RTVSPost2010Prop28
280
     0
102
RTVSPost2010PropOp28
 70
     1
102
RTVSPost2010Prop29
280
     1
102
RTVSPost2010PropOp29
 70
     1
102
RTVSPost2010Prop30
280
     1
102
RTVSPost2010PropOp30
 70
     1
102
RTVSPost2010Prop31
280
     0
102
RTVSPost2010PropOp31
 70
     1
102
RTVSPost2010Prop32
280
     0
102
RTVSPost2010PropOp32
 70
     1
102
RTVSPost2010Prop33
280
     0
102
RTVSPost2010PropOp33
 70
     1
102
RTVSPost2010Prop34
280
     0
102
RTVSPost2010PropOp34
 70
     1
102
RTVSPost2010Prop35
280
     0
102
RTVSPost2010PropOp35
 70
     1
102
RTVSPost2010Prop36
280
     0
102
RTVSPost2010PropOp36
 70
     1
102
RTVSPost2010Prop37
 90
       50
102
RTVSPost2010PropOp37
 70
     1
102
RTVSPost2010Prop38
140
0.0
102
RTVSPost2010PropOp38
 70
     1
102
RTVSPost2010Prop39
140
1.0
102
RTVSPost2010PropOp39
 70
     1
102
RTVSPost2010Prop40
 90
        0
102
RTVSPost2010PropOp40
 70
     1
102
RTVSPost2010Prop41ColorIndex
 90
       18
102
RTVSPost2010Prop41ColorRGB
 90
        0
102
RTVSPost2010PropOp41
 70
     1
102
RTVSPost2010Prop42
 90
       50
102
RTVSPost2010PropOp42
 70
     1
102
RTVSPost2010Prop43
 90
        3
102
RTVSPost2010PropOp43
 70
     1
102
RTVSPost2010Prop44ColorIndex
 90
        5
102
RTVSPost2010Prop44ColorRGB
 90
      255
102
RTVSPost2010PropOp44
 70
     1
102
RTVSPost2010Prop45
280
     0
102
RTVSPost2010PropOp45
 70
     1
102
RTVSPost2010Prop46
 90
       50
102
RTVSPost2010PropOp46
 70
     1
102
RTVSPost2010Prop47
 90
       50
102
RTVSPost2010PropOp47
 70
     1
102
RTVSPost2010Prop48
 90
       50
102
RTVSPost2010PropOp48
 70
     1
102
RTVSPost2010Prop49
280
     0
102
RTVSPost2010PropOp49
 70
     1
102
RTVSPost2010Prop50
 90
       50
102
RTVSPost2010PropOp50
 70
     1
102
RTVSPost2010Prop51ColorIndex
 90
      256
102
RTVSPost2010Prop51ColorRGB
 90
-16777216
102
RTVSPost2010PropOp51
 70
     0
102
RTVSPost2010Prop52
140
1.0
102
RTVSPost2010PropOp52
 70
     0
102
RTVSPost2010Prop53
 90
        2
102
RTVSPost2010PropOp53
 70
     1
102
RTVSPost2010Prop54
  1
strokes_ogs.tif
102
RTVSPost2010PropOp54
 70
     1
102
RTVSPost2010Prop55
280
     0
102
RTVSPost2010PropOp55
 70
     1
102
RTVSPost2010Prop56
140
1.0
102
RTVSPost2010PropOp56
 70
     1
102
RTVSPost2010Prop57
140
1.0
102
RTVSPost2010PropOp57
 70
     1
102
RTVSPropertyOp0
 70
     1
102
RTVSPropertyOp1
 70
     1
102
RTVSPropertyOp2
 70
     1
102
RTVSPropertyOp3
 70
     1
102
RTVSPropertyOp4
 70
     1
102
RTVSPropertyOp5
 70
     1
102
RTVSPropertyOp6
 70
     1
102
RTVSPropertyOp7
 70
     1
102
RTVSPropertyOp8
 70
     1
102
RTVSPropertyOp9
 70
     1
102
RTVSPropertyOp10
 70
     1
102
RTVSPropertyOp11
 70
     1
102
RTVSPropertyOp12
 70
     1
102
RTVSPropertyOp13
 70
     1
102
RTVSPropertyOp14
 70
     1
102
RTVSPropertyOp15
 70
     1
102
RTVSPropertyOp16
 70
     1
102
RTVSPropertyOp17
 70
     1
102
RTVSPropertyOp18
 70
     1
102
RTVSPropertyOp19
 70
     1
102
RTVSPropertyOp20
 70
     1
102
RTVSPropertyOp21
 70
     1
102
RTVSPropertyOp22
 70
     1
102
RTVSPropertyOp23
 70
     1
102
RTVSPropertyOp24
 70
     1
102
RTVSPropertyOp25
 70
     1
102
RTVSPropertyOp26
 70
     1
102
RTVSPropertyOp27
 70
     1
102
RTVSPropertyOp28
 70
     1
102
RTVSPropertyOp29
 70
     1
102
RTVSPropertyOp30
 70
     1
102
RTVSPropertyOp31
 70
     1
102
RTVSPropertyOp32
 70
     1
102
RTVSPropertyOp33
 70
     1
102
RTVSPropertyOp34
 70
     1
102
RTVSPropertyOp35
 70
     1
102
RTVSPropertyOp36
 70
     1
102
RTVSPropertyOp37
 70
     1
102
RTVSPropertyOp38
 70
     1
102
RTVSPropertyOp39
 70
     1
102
RTVSPropertyOp40
 70
     1
102
RTVSPropertyOp41
 70
     1
102
RTVSPropertyOp42
 70
     1
102
RTVSPropertyOp43
 70
     1
102
RTVSPropertyOp44
 70
     1
102
RTVSPropertyOp45
 70
     1
102
RTVSPropertyOp46
 70
     1
102
RTVSPropertyOp47
 70
     1
102
RTVSPropertyOp48
 70
     1
102
RTVSPropertyOp49
 70
     1
102
RTVSPropertyOp50
 70
     1
102
RTVSPropertyOp51
 70
     0
102
RTVSPropertyOp52
 70
     0
102
RTVSPropertyOp53
 70
     1
102
RTVSPropertyOp54
 70
     1
102
RTVSPropertyOp55
 70
     1
102
RTVSPropertyOp56
 70
     1
102
RTVSPropertyOp57
 70
     1
102
RTVSPropertyOp58
 70
     1
102
RTVSPropertyOp59
 70
     1
102
RTVSPropertyOp60
 70
     1
102
RTVSPropertyOp61
 70
     1
102
RTVSPropertyOp62
 70
     1
  0
XRECORD
  5
B5E4
102
{ACAD_REACTORS
330
B5E3
102
}
330
B5E3
100
AcDbXrecord
280
     1
102
RTVSPost2010Prop28
280
     0
102
RTVSPost2010PropOp28
 70
     1
102
RTVSPost2010Prop29
280
     1
102
RTVSPost2010PropOp29
 70
     1
102
RTVSPost2010Prop30
280
     1
102
RTVSPost2010PropOp30
 70
     1
102
RTVSPost2010Prop31
280
     0
102
RTVSPost2010PropOp31
 70
     1
102
RTVSPost2010Prop32
280
     0
102
RTVSPost2010PropOp32
 70
     1
102
RTVSPost2010Prop33
280
     0
102
RTVSPost2010PropOp33
 70
     1
102
RTVSPost2010Prop34
280
     0
102
RTVSPost2010PropOp34
 70
     1
102
RTVSPost2010Prop35
280
     0
102
RTVSPost2010PropOp35
 70
     1
102
RTVSPost2010Prop36
280
     0
102
RTVSPost2010PropOp36
 70
     1
102
RTVSPost2010Prop37
 90
       50
102
RTVSPost2010PropOp37
 70
     0
102
RTVSPost2010Prop38
140
0.0
102
RTVSPost2010PropOp38
 70
     0
102
RTVSPost2010Prop39
140
1.0
102
RTVSPost2010PropOp39
 70
     0
102
RTVSPost2010Prop40
 90
        0
102
RTVSPost2010PropOp40
 70
     0
102
RTVSPost2010Prop41ColorIndex
 90
       18
102
RTVSPost2010Prop41ColorRGB
 90
        0
102
RTVSPost2010PropOp41
 70
     0
102
RTVSPost2010Prop42
 90
       50
102
RTVSPost2010PropOp42
 70
     0
102
RTVSPost2010Prop43
 90
        3
102
RTVSPost2010PropOp43
 70
     0
102
RTVSPost2010Prop44ColorIndex
 90
        5
102
RTVSPost2010Prop44ColorRGB
 90
      255
102
RTVSPost2010PropOp44
 70
     0
102
RTVSPost2010Prop45
280
     0
102
RTVSPost2010PropOp45
 70
     1
102
RTVSPost2010Prop46
 90
       50
102
RTVSPost2010PropOp46
 70
     0
102
RTVSPost2010Prop47
 90
       50
102
RTVSPost2010PropOp47
 70
     0
102
RTVSPost2010Prop48
 90
       50
102
RTVSPost2010PropOp48
 70
     0
102
RTVSPost2010Prop49
280
     0
102
RTVSPost2010PropOp49
 70
     1
102
RTVSPost2010Prop50
 90
       50
102
RTVSPost2010PropOp50
 70
     0
102
RTVSPost2010Prop51ColorIndex
 90
      256
102
RTVSPost2010Prop51ColorRGB
 90
-16777216
102
RTVSPost2010PropOp51
 70
     0
102
RTVSPost2010Prop52
140
1.0
102
RTVSPost2010PropOp52
 70
     0
102
RTVSPost2010Prop53
 90
        2
102
RTVSPost2010PropOp53
 70
     0
102
RTVSPost2010Prop54
  1
strokes_ogs.tif
102
RTVSPost2010PropOp54
 70
     0
102
RTVSPost2010Prop55
280
     0
102
RTVSPost2010PropOp55
 70
     1
102
RTVSPost2010Prop56
140
1.0
102
RTVSPost2010PropOp56
 70
     0
102
RTVSPost2010Prop57
140
1.0
102
RTVSPost2010PropOp57
 70
     0
102
RTVSPropertyOp0
 70
     0
102
RTVSPropertyOp1
 70
     0
102
RTVSPropertyOp2
 70
     0
102
RTVSPropertyOp3
 70
     0
102
RTVSPropertyOp4
 70
     0
102
RTVSPropertyOp5
 70
     0
102
RTVSPropertyOp6
 70
     0
102
RTVSPropertyOp7
 70
     0
102
RTVSPropertyOp8
 70
     0
102
RTVSPropertyOp9
 70
     0
102
RTVSPropertyOp10
 70
     0
102
RTVSPropertyOp11
 70
     0
102
RTVSPropertyOp12
 70
     0
102
RTVSPropertyOp13
 70
     0
102
RTVSPropertyOp14
 70
     2
102
RTVSPropertyOp15
 70
     0
102
RTVSPropertyOp16
 70
     0
102
RTVSPropertyOp17
 70
     0
102
RTVSPropertyOp18
 70
     0
102
RTVSPropertyOp19
 70
     0
102
RTVSPropertyOp20
 70
     0
102
RTVSPropertyOp21
 70
     0
102
RTVSPropertyOp22
 70
     0
102
RTVSPropertyOp23
 70
     0
102
RTVSPropertyOp24
 70
     0
102
RTVSPropertyOp25
 70
     0
102
RTVSPropertyOp26
 70
     0
102
RTVSPropertyOp27
 70
     0
102
RTVSPropertyOp28
 70
     1
102
RTVSPropertyOp29
 70
     1
102
RTVSPropertyOp30
 70
     1
102
RTVSPropertyOp31
 70
     1
102
RTVSPropertyOp32
 70
     1
102
RTVSPropertyOp33
 70
     1
102
RTVSPropertyOp34
 70
     1
102
RTVSPropertyOp35
 70
     1
102
RTVSPropertyOp36
 70
     1
102
RTVSPropertyOp37
 70
     0
102
RTVSPropertyOp38
 70
     0
102
RTVSPropertyOp39
 70
     0
102
RTVSPropertyOp40
 70
     0
102
RTVSPropertyOp41
 70
     0
102
RTVSPropertyOp42
 70
     0
102
RTVSPropertyOp43
 70
     0
102
RTVSPropertyOp44
 70
     0
102
RTVSPropertyOp45
 70
     1
102
RTVSPropertyOp46
 70
     0
102
RTVSPropertyOp47
 70
     0
102
RTVSPropertyOp48
 70
     0
102
RTVSPropertyOp49
 70
     1
102
RTVSPropertyOp50
 70
     0
102
RTVSPropertyOp51
 70
     0
102
RTVSPropertyOp52
 70
     0
102
RTVSPropertyOp53
 70
     0
102
RTVSPropertyOp54
 70
     0
102
RTVSPropertyOp55
 70
     1
102
RTVSPropertyOp56
 70
     0
102
RTVSPropertyOp57
 70
     0
102
RTVSPropertyOp58
 70
     0
102
RTVSPropertyOp59
 70
     0
102
RTVSPropertyOp60
 70
     0
102
RTVSPropertyOp61
 70
     0
102
RTVSPropertyOp62
 70
     0
  0
XRECORD
  5
B5D2
102
{ACAD_REACTORS
330
B5D1
102
}
330
B5D1
100
AcDbXrecord
280
     1
102
RTVSPost2010Prop28
280
     0
102
RTVSPost2010PropOp28
 70
     1
102
RTVSPost2010Prop29
280
     1
102
RTVSPost2010PropOp29
 70
     1
102
RTVSPost2010Prop30
280
     1
102
RTVSPost2010PropOp30
 70
     1
102
RTVSPost2010Prop31
280
     0
102
RTVSPost2010PropOp31
 70
     1
102
RTVSPost2010Prop32
280
     0
102
RTVSPost2010PropOp32
 70
     1
102
RTVSPost2010Prop33
280
     0
102
RTVSPost2010PropOp33
 70
     1
102
RTVSPost2010Prop34
280
     0
102
RTVSPost2010PropOp34
 70
     1
102
RTVSPost2010Prop35
280
     0
102
RTVSPost2010PropOp35
 70
     1
102
RTVSPost2010Prop36
280
     0
102
RTVSPost2010PropOp36
 70
     1
102
RTVSPost2010Prop37
 90
       50
102
RTVSPost2010PropOp37
 70
     1
102
RTVSPost2010Prop38
140
0.0
102
RTVSPost2010PropOp38
 70
     1
102
RTVSPost2010Prop39
140
1.0
102
RTVSPost2010PropOp39
 70
     1
102
RTVSPost2010Prop40
 90
        0
102
RTVSPost2010PropOp40
 70
     1
102
RTVSPost2010Prop41ColorIndex
 90
       18
102
RTVSPost2010Prop41ColorRGB
 90
        0
102
RTVSPost2010PropOp41
 70
     1
102
RTVSPost2010Prop42
 90
       50
102
RTVSPost2010PropOp42
 70
     1
102
RTVSPost2010Prop43
 90
        3
102
RTVSPost2010PropOp43
 70
     1
102
RTVSPost2010Prop44ColorIndex
 90
        5
102
RTVSPost2010Prop44ColorRGB
 90
      255
102
RTVSPost2010PropOp44
 70
     1
102
RTVSPost2010Prop45
280
     0
102
RTVSPost2010PropOp45
 70
     1
102
RTVSPost2010Prop46
 90
       50
102
RTVSPost2010PropOp46
 70
     1
102
RTVSPost2010Prop47
 90
       50
102
RTVSPost2010PropOp47
 70
     1
102
RTVSPost2010Prop48
 90
       50
102
RTVSPost2010PropOp48
 70
     1
102
RTVSPost2010Prop49
280
     0
102
RTVSPost2010PropOp49
 70
     1
102
RTVSPost2010Prop50
 90
       50
102
RTVSPost2010PropOp50
 70
     1
102
RTVSPost2010Prop51ColorIndex
 90
      256
102
RTVSPost2010Prop51ColorRGB
 90
-16777216
102
RTVSPost2010PropOp51
 70
     0
102
RTVSPost2010Prop52
140
1.0
102
RTVSPost2010PropOp52
 70
     0
102
RTVSPost2010Prop53
 90
        2
102
RTVSPost2010PropOp53
 70
     1
102
RTVSPost2010Prop54
  1
strokes_ogs.tif
102
RTVSPost2010PropOp54
 70
     1
102
RTVSPost2010Prop55
280
     0
102
RTVSPost2010PropOp55
 70
     1
102
RTVSPost2010Prop56
140
1.0
102
RTVSPost2010PropOp56
 70
     1
102
RTVSPost2010Prop57
140
1.0
102
RTVSPost2010PropOp57
 70
     1
102
RTVSPropertyOp0
 70
     1
102
RTVSPropertyOp1
 70
     1
102
RTVSPropertyOp2
 70
     1
102
RTVSPropertyOp3
 70
     1
102
RTVSPropertyOp4
 70
     1
102
RTVSPropertyOp5
 70
     1
102
RTVSPropertyOp6
 70
     1
102
RTVSPropertyOp7
 70
     1
102
RTVSPropertyOp8
 70
     1
102
RTVSPropertyOp9
 70
     1
102
RTVSPropertyOp10
 70
     1
102
RTVSPropertyOp11
 70
     1
102
RTVSPropertyOp12
 70
     1
102
RTVSPropertyOp13
 70
     1
102
RTVSPropertyOp14
 70
     1
102
RTVSPropertyOp15
 70
     1
102
RTVSPropertyOp16
 70
     1
102
RTVSPropertyOp17
 70
     1
102
RTVSPropertyOp18
 70
     1
102
RTVSPropertyOp19
 70
     1
102
RTVSPropertyOp20
 70
     1
102
RTVSPropertyOp21
 70
     1
102
RTVSPropertyOp22
 70
     1
102
RTVSPropertyOp23
 70
     1
102
RTVSPropertyOp24
 70
     1
102
RTVSPropertyOp25
 70
     1
102
RTVSPropertyOp26
 70
     1
102
RTVSPropertyOp27
 70
     1
102
RTVSPropertyOp28
 70
     1
102
RTVSPropertyOp29
 70
     1
102
RTVSPropertyOp30
 70
     1
102
RTVSPropertyOp31
 70
     1
102
RTVSPropertyOp32
 70
     1
102
RTVSPropertyOp33
 70
     1
102
RTVSPropertyOp34
 70
     1
102
RTVSPropertyOp35
 70
     1
102
RTVSPropertyOp36
 70
     1
102
RTVSPropertyOp37
 70
     1
102
RTVSPropertyOp38
 70
     1
102
RTVSPropertyOp39
 70
     1
102
RTVSPropertyOp40
 70
     1
102
RTVSPropertyOp41
 70
     1
102
RTVSPropertyOp42
 70
     1
102
RTVSPropertyOp43
 70
     1
102
RTVSPropertyOp44
 70
     1
102
RTVSPropertyOp45
 70
     1
102
RTVSPropertyOp46
 70
     1
102
RTVSPropertyOp47
 70
     1
102
RTVSPropertyOp48
 70
     1
102
RTVSPropertyOp49
 70
     1
102
RTVSPropertyOp50
 70
     1
102
RTVSPropertyOp51
 70
     0
102
RTVSPropertyOp52
 70
     0
102
RTVSPropertyOp53
 70
     1
102
RTVSPropertyOp54
 70
     1
102
RTVSPropertyOp55
 70
     1
102
RTVSPropertyOp56
 70
     1
102
RTVSPropertyOp57
 70
     1
102
RTVSPropertyOp58
 70
     1
102
RTVSPropertyOp59
 70
     1
102
RTVSPropertyOp60
 70
     1
102
RTVSPropertyOp61
 70
     1
102
RTVSPropertyOp62
 70
     1
  0
XRECORD
  5
B5B6
102
{ACAD_REACTORS
330
B5B5
102
}
330
B5B5
100
AcDbXrecord
280
     1
102
RTVSPost2010Prop28
280
     0
102
RTVSPost2010PropOp28
 70
     1
102
RTVSPost2010Prop29
280
     1
102
RTVSPost2010PropOp29
 70
     1
102
RTVSPost2010Prop30
280
     1
102
RTVSPost2010PropOp30
 70
     1
102
RTVSPost2010Prop31
280
     0
102
RTVSPost2010PropOp31
 70
     1
102
RTVSPost2010Prop32
280
     0
102
RTVSPost2010PropOp32
 70
     1
102
RTVSPost2010Prop33
280
     0
102
RTVSPost2010PropOp33
 70
     1
102
RTVSPost2010Prop34
280
     0
102
RTVSPost2010PropOp34
 70
     1
102
RTVSPost2010Prop35
280
     0
102
RTVSPost2010PropOp35
 70
     1
102
RTVSPost2010Prop36
280
     0
102
RTVSPost2010PropOp36
 70
     1
102
RTVSPost2010Prop37
 90
       50
102
RTVSPost2010PropOp37
 70
     1
102
RTVSPost2010Prop38
140
0.0
102
RTVSPost2010PropOp38
 70
     1
102
RTVSPost2010Prop39
140
1.0
102
RTVSPost2010PropOp39
 70
     1
102
RTVSPost2010Prop40
 90
        0
102
RTVSPost2010PropOp40
 70
     1
102
RTVSPost2010Prop41ColorIndex
 90
       18
102
RTVSPost2010Prop41ColorRGB
 90
        0
102
RTVSPost2010PropOp41
 70
     1
102
RTVSPost2010Prop42
 90
       50
102
RTVSPost2010PropOp42
 70
     1
102
RTVSPost2010Prop43
 90
        3
102
RTVSPost2010PropOp43
 70
     1
102
RTVSPost2010Prop44ColorIndex
 90
        5
102
RTVSPost2010Prop44ColorRGB
 90
      255
102
RTVSPost2010PropOp44
 70
     1
102
RTVSPost2010Prop45
280
     0
102
RTVSPost2010PropOp45
 70
     1
102
RTVSPost2010Prop46
 90
       50
102
RTVSPost2010PropOp46
 70
     1
102
RTVSPost2010Prop47
 90
       50
102
RTVSPost2010PropOp47
 70
     1
102
RTVSPost2010Prop48
 90
       50
102
RTVSPost2010PropOp48
 70
     1
102
RTVSPost2010Prop49
280
     0
102
RTVSPost2010PropOp49
 70
     1
102
RTVSPost2010Prop50
 90
       50
102
RTVSPost2010PropOp50
 70
     1
102
RTVSPost2010Prop51ColorIndex
 90
      256
102
RTVSPost2010Prop51ColorRGB
 90
-16777216
102
RTVSPost2010PropOp51
 70
     0
102
RTVSPost2010Prop52
140
1.0
102
RTVSPost2010PropOp52
 70
     0
102
RTVSPost2010Prop53
 90
        2
102
RTVSPost2010PropOp53
 70
     1
102
RTVSPost2010Prop54
  1
strokes_ogs.tif
102
RTVSPost2010PropOp54
 70
     1
102
RTVSPost2010Prop55
280
     0
102
RTVSPost2010PropOp55
 70
     1
102
RTVSPost2010Prop56
140
1.0
102
RTVSPost2010PropOp56
 70
     1
102
RTVSPost2010Prop57
140
1.0
102
RTVSPost2010PropOp57
 70
     1
102
RTVSPropertyOp0
 70
     1
102
RTVSPropertyOp1
 70
     1
102
RTVSPropertyOp2
 70
     1
102
RTVSPropertyOp3
 70
     1
102
RTVSPropertyOp4
 70
     1
102
RTVSPropertyOp5
 70
     1
102
RTVSPropertyOp6
 70
     1
102
RTVSPropertyOp7
 70
     1
102
RTVSPropertyOp8
 70
     1
102
RTVSPropertyOp9
 70
     1
102
RTVSPropertyOp10
 70
     1
102
RTVSPropertyOp11
 70
     1
102
RTVSPropertyOp12
 70
     1
102
RTVSPropertyOp13
 70
     1
102
RTVSPropertyOp14
 70
     1
102
RTVSPropertyOp15
 70
     1
102
RTVSPropertyOp16
 70
     1
102
RTVSPropertyOp17
 70
     1
102
RTVSPropertyOp18
 70
     1
102
RTVSPropertyOp19
 70
     1
102
RTVSPropertyOp20
 70
     1
102
RTVSPropertyOp21
 70
     1
102
RTVSPropertyOp22
 70
     1
102
RTVSPropertyOp23
 70
     1
102
RTVSPropertyOp24
 70
     1
102
RTVSPropertyOp25
 70
     1
102
RTVSPropertyOp26
 70
     1
102
RTVSPropertyOp27
 70
     1
102
RTVSPropertyOp28
 70
     1
102
RTVSPropertyOp29
 70
     1
102
RTVSPropertyOp30
 70
     1
102
RTVSPropertyOp31
 70
     1
102
RTVSPropertyOp32
 70
     1
102
RTVSPropertyOp33
 70
     1
102
RTVSPropertyOp34
 70
     1
102
RTVSPropertyOp35
 70
     1
102
RTVSPropertyOp36
 70
     1
102
RTVSPropertyOp37
 70
     1
102
RTVSPropertyOp38
 70
     1
102
RTVSPropertyOp39
 70
     1
102
RTVSPropertyOp40
 70
     1
102
RTVSPropertyOp41
 70
     1
102
RTVSPropertyOp42
 70
     1
102
RTVSPropertyOp43
 70
     1
102
RTVSPropertyOp44
 70
     1
102
RTVSPropertyOp45
 70
     1
102
RTVSPropertyOp46
 70
     1
102
RTVSPropertyOp47
 70
     1
102
RTVSPropertyOp48
 70
     1
102
RTVSPropertyOp49
 70
     1
102
RTVSPropertyOp50
 70
     1
102
RTVSPropertyOp51
 70
     0
102
RTVSPropertyOp52
 70
     0
102
RTVSPropertyOp53
 70
     1
102
RTVSPropertyOp54
 70
     1
102
RTVSPropertyOp55
 70
     1
102
RTVSPropertyOp56
 70
     1
102
RTVSPropertyOp57
 70
     1
102
RTVSPropertyOp58
 70
     1
102
RTVSPropertyOp59
 70
     1
102
RTVSPropertyOp60
 70
     1
102
RTVSPropertyOp61
 70
     1
102
RTVSPropertyOp62
 70
     1
  0
XRECORD
  5
B5B8
102
{ACAD_REACTORS
330
B5B7
102
}
330
B5B7
100
AcDbXrecord
280
     1
102
RTVSPost2010Prop28
280
     0
102
RTVSPost2010PropOp28
 70
     1
102
RTVSPost2010Prop29
280
     1
102
RTVSPost2010PropOp29
 70
     1
102
RTVSPost2010Prop30
280
     1
102
RTVSPost2010PropOp30
 70
     1
102
RTVSPost2010Prop31
280
     0
102
RTVSPost2010PropOp31
 70
     1
102
RTVSPost2010Prop32
280
     0
102
RTVSPost2010PropOp32
 70
     1
102
RTVSPost2010Prop33
280
     0
102
RTVSPost2010PropOp33
 70
     1
102
RTVSPost2010Prop34
280
     0
102
RTVSPost2010PropOp34
 70
     1
102
RTVSPost2010Prop35
280
     0
102
RTVSPost2010PropOp35
 70
     1
102
RTVSPost2010Prop36
280
     0
102
RTVSPost2010PropOp36
 70
     1
102
RTVSPost2010Prop37
 90
       50
102
RTVSPost2010PropOp37
 70
     1
102
RTVSPost2010Prop38
140
0.0
102
RTVSPost2010PropOp38
 70
     1
102
RTVSPost2010Prop39
140
1.0
102
RTVSPost2010PropOp39
 70
     1
102
RTVSPost2010Prop40
 90
        0
102
RTVSPost2010PropOp40
 70
     1
102
RTVSPost2010Prop41ColorIndex
 90
       18
102
RTVSPost2010Prop41ColorRGB
 90
        0
102
RTVSPost2010PropOp41
 70
     1
102
RTVSPost2010Prop42
 90
       50
102
RTVSPost2010PropOp42
 70
     1
102
RTVSPost2010Prop43
 90
        3
102
RTVSPost2010PropOp43
 70
     1
102
RTVSPost2010Prop44ColorIndex
 90
        5
102
RTVSPost2010Prop44ColorRGB
 90
      255
102
RTVSPost2010PropOp44
 70
     1
102
RTVSPost2010Prop45
280
     0
102
RTVSPost2010PropOp45
 70
     1
102
RTVSPost2010Prop46
 90
       50
102
RTVSPost2010PropOp46
 70
     1
102
RTVSPost2010Prop47
 90
       50
102
RTVSPost2010PropOp47
 70
     1
102
RTVSPost2010Prop48
 90
       50
102
RTVSPost2010PropOp48
 70
     1
102
RTVSPost2010Prop49
280
     0
102
RTVSPost2010PropOp49
 70
     1
102
RTVSPost2010Prop50
 90
       50
102
RTVSPost2010PropOp50
 70
     1
102
RTVSPost2010Prop51ColorIndex
 90
      256
102
RTVSPost2010Prop51ColorRGB
 90
-16777216
102
RTVSPost2010PropOp51
 70
     0
102
RTVSPost2010Prop52
140
1.0
102
RTVSPost2010PropOp52
 70
     0
102
RTVSPost2010Prop53
 90
        2
102
RTVSPost2010PropOp53
 70
     1
102
RTVSPost2010Prop54
  1
strokes_ogs.tif
102
RTVSPost2010PropOp54
 70
     1
102
RTVSPost2010Prop55
280
     0
102
RTVSPost2010PropOp55
 70
     1
102
RTVSPost2010Prop56
140
1.0
102
RTVSPost2010PropOp56
 70
     1
102
RTVSPost2010Prop57
140
1.0
102
RTVSPost2010PropOp57
 70
     1
102
RTVSPropertyOp0
 70
     1
102
RTVSPropertyOp1
 70
     1
102
RTVSPropertyOp2
 70
     1
102
RTVSPropertyOp3
 70
     1
102
RTVSPropertyOp4
 70
     1
102
RTVSPropertyOp5
 70
     1
102
RTVSPropertyOp6
 70
     1
102
RTVSPropertyOp7
 70
     1
102
RTVSPropertyOp8
 70
     1
102
RTVSPropertyOp9
 70
     1
102
RTVSPropertyOp10
 70
     1
102
RTVSPropertyOp11
 70
     1
102
RTVSPropertyOp12
 70
     1
102
RTVSPropertyOp13
 70
     1
102
RTVSPropertyOp14
 70
     1
102
RTVSPropertyOp15
 70
     1
102
RTVSPropertyOp16
 70
     1
102
RTVSPropertyOp17
 70
     1
102
RTVSPropertyOp18
 70
     1
102
RTVSPropertyOp19
 70
     1
102
RTVSPropertyOp20
 70
     1
102
RTVSPropertyOp21
 70
     1
102
RTVSPropertyOp22
 70
     1
102
RTVSPropertyOp23
 70
     1
102
RTVSPropertyOp24
 70
     1
102
RTVSPropertyOp25
 70
     1
102
RTVSPropertyOp26
 70
     1
102
RTVSPropertyOp27
 70
     1
102
RTVSPropertyOp28
 70
     1
102
RTVSPropertyOp29
 70
     1
102
RTVSPropertyOp30
 70
     1
102
RTVSPropertyOp31
 70
     1
102
RTVSPropertyOp32
 70
     1
102
RTVSPropertyOp33
 70
     1
102
RTVSPropertyOp34
 70
     1
102
RTVSPropertyOp35
 70
     1
102
RTVSPropertyOp36
 70
     1
102
RTVSPropertyOp37
 70
     1
102
RTVSPropertyOp38
 70
     1
102
RTVSPropertyOp39
 70
     1
102
RTVSPropertyOp40
 70
     1
102
RTVSPropertyOp41
 70
     1
102
RTVSPropertyOp42
 70
     1
102
RTVSPropertyOp43
 70
     1
102
RTVSPropertyOp44
 70
     1
102
RTVSPropertyOp45
 70
     1
102
RTVSPropertyOp46
 70
     1
102
RTVSPropertyOp47
 70
     1
102
RTVSPropertyOp48
 70
     1
102
RTVSPropertyOp49
 70
     1
102
RTVSPropertyOp50
 70
     1
102
RTVSPropertyOp51
 70
     0
102
RTVSPropertyOp52
 70
     0
102
RTVSPropertyOp53
 70
     1
102
RTVSPropertyOp54
 70
     1
102
RTVSPropertyOp55
 70
     1
102
RTVSPropertyOp56
 70
     1
102
RTVSPropertyOp57
 70
     1
102
RTVSPropertyOp58
 70
     1
102
RTVSPropertyOp59
 70
     1
102
RTVSPropertyOp60
 70
     1
102
RTVSPropertyOp61
 70
     1
102
RTVSPropertyOp62
 70
     1
  0
XRECORD
  5
B5BA
102
{ACAD_REACTORS
330
B5B9
102
}
330
B5B9
100
AcDbXrecord
280
     1
102
RTVSPost2010Prop28
280
     0
102
RTVSPost2010PropOp28
 70
     1
102
RTVSPost2010Prop29
280
     1
102
RTVSPost2010PropOp29
 70
     1
102
RTVSPost2010Prop30
280
     1
102
RTVSPost2010PropOp30
 70
     1
102
RTVSPost2010Prop31
280
     0
102
RTVSPost2010PropOp31
 70
     1
102
RTVSPost2010Prop32
280
     0
102
RTVSPost2010PropOp32
 70
     1
102
RTVSPost2010Prop33
280
     0
102
RTVSPost2010PropOp33
 70
     1
102
RTVSPost2010Prop34
280
     0
102
RTVSPost2010PropOp34
 70
     1
102
RTVSPost2010Prop35
280
     0
102
RTVSPost2010PropOp35
 70
     1
102
RTVSPost2010Prop36
280
     0
102
RTVSPost2010PropOp36
 70
     1
102
RTVSPost2010Prop37
 90
       50
102
RTVSPost2010PropOp37
 70
     1
102
RTVSPost2010Prop38
140
0.0
102
RTVSPost2010PropOp38
 70
     1
102
RTVSPost2010Prop39
140
1.0
102
RTVSPost2010PropOp39
 70
     1
102
RTVSPost2010Prop40
 90
        0
102
RTVSPost2010PropOp40
 70
     1
102
RTVSPost2010Prop41ColorIndex
 90
       18
102
RTVSPost2010Prop41ColorRGB
 90
        0
102
RTVSPost2010PropOp41
 70
     1
102
RTVSPost2010Prop42
 90
       50
102
RTVSPost2010PropOp42
 70
     1
102
RTVSPost2010Prop43
 90
        3
102
RTVSPost2010PropOp43
 70
     1
102
RTVSPost2010Prop44ColorIndex
 90
        5
102
RTVSPost2010Prop44ColorRGB
 90
      255
102
RTVSPost2010PropOp44
 70
     1
102
RTVSPost2010Prop45
280
     0
102
RTVSPost2010PropOp45
 70
     1
102
RTVSPost2010Prop46
 90
       50
102
RTVSPost2010PropOp46
 70
     1
102
RTVSPost2010Prop47
 90
       50
102
RTVSPost2010PropOp47
 70
     1
102
RTVSPost2010Prop48
 90
       50
102
RTVSPost2010PropOp48
 70
     1
102
RTVSPost2010Prop49
280
     0
102
RTVSPost2010PropOp49
 70
     1
102
RTVSPost2010Prop50
 90
       50
102
RTVSPost2010PropOp50
 70
     1
102
RTVSPost2010Prop51ColorIndex
 90
      256
102
RTVSPost2010Prop51ColorRGB
 90
-16777216
102
RTVSPost2010PropOp51
 70
     0
102
RTVSPost2010Prop52
140
1.0
102
RTVSPost2010PropOp52
 70
     0
102
RTVSPost2010Prop53
 90
        2
102
RTVSPost2010PropOp53
 70
     1
102
RTVSPost2010Prop54
  1
strokes_ogs.tif
102
RTVSPost2010PropOp54
 70
     1
102
RTVSPost2010Prop55
280
     0
102
RTVSPost2010PropOp55
 70
     1
102
RTVSPost2010Prop56
140
1.0
102
RTVSPost2010PropOp56
 70
     1
102
RTVSPost2010Prop57
140
1.0
102
RTVSPost2010PropOp57
 70
     1
102
RTVSPropertyOp0
 70
     1
102
RTVSPropertyOp1
 70
     1
102
RTVSPropertyOp2
 70
     1
102
RTVSPropertyOp3
 70
     1
102
RTVSPropertyOp4
 70
     1
102
RTVSPropertyOp5
 70
     1
102
RTVSPropertyOp6
 70
     1
102
RTVSPropertyOp7
 70
     1
102
RTVSPropertyOp8
 70
     1
102
RTVSPropertyOp9
 70
     1
102
RTVSPropertyOp10
 70
     1
102
RTVSPropertyOp11
 70
     1
102
RTVSPropertyOp12
 70
     1
102
RTVSPropertyOp13
 70
     1
102
RTVSPropertyOp14
 70
     1
102
RTVSPropertyOp15
 70
     1
102
RTVSPropertyOp16
 70
     1
102
RTVSPropertyOp17
 70
     1
102
RTVSPropertyOp18
 70
     1
102
RTVSPropertyOp19
 70
     1
102
RTVSPropertyOp20
 70
     1
102
RTVSPropertyOp21
 70
     1
102
RTVSPropertyOp22
 70
     1
102
RTVSPropertyOp23
 70
     1
102
RTVSPropertyOp24
 70
     1
102
RTVSPropertyOp25
 70
     1
102
RTVSPropertyOp26
 70
     1
102
RTVSPropertyOp27
 70
     1
102
RTVSPropertyOp28
 70
     1
102
RTVSPropertyOp29
 70
     1
102
RTVSPropertyOp30
 70
     1
102
RTVSPropertyOp31
 70
     1
102
RTVSPropertyOp32
 70
     1
102
RTVSPropertyOp33
 70
     1
102
RTVSPropertyOp34
 70
     1
102
RTVSPropertyOp35
 70
     1
102
RTVSPropertyOp36
 70
     1
102
RTVSPropertyOp37
 70
     1
102
RTVSPropertyOp38
 70
     1
102
RTVSPropertyOp39
 70
     1
102
RTVSPropertyOp40
 70
     1
102
RTVSPropertyOp41
 70
     1
102
RTVSPropertyOp42
 70
     1
102
RTVSPropertyOp43
 70
     1
102
RTVSPropertyOp44
 70
     1
102
RTVSPropertyOp45
 70
     1
102
RTVSPropertyOp46
 70
     1
102
RTVSPropertyOp47
 70
     1
102
RTVSPropertyOp48
 70
     1
102
RTVSPropertyOp49
 70
     1
102
RTVSPropertyOp50
 70
     1
102
RTVSPropertyOp51
 70
     0
102
RTVSPropertyOp52
 70
     0
102
RTVSPropertyOp53
 70
     1
102
RTVSPropertyOp54
 70
     1
102
RTVSPropertyOp55
 70
     1
102
RTVSPropertyOp56
 70
     1
102
RTVSPropertyOp57
 70
     1
102
RTVSPropertyOp58
 70
     1
102
RTVSPropertyOp59
 70
     1
102
RTVSPropertyOp60
 70
     1
102
RTVSPropertyOp61
 70
     1
102
RTVSPropertyOp62
 70
     1
  0
XRECORD
  5
B5BC
102
{ACAD_REACTORS
330
B5BB
102
}
330
B5BB
100
AcDbXrecord
280
     1
102
RTVSPost2010Prop28
280
     0
102
RTVSPost2010PropOp28
 70
     1
102
RTVSPost2010Prop29
280
     1
102
RTVSPost2010PropOp29
 70
     1
102
RTVSPost2010Prop30
280
     1
102
RTVSPost2010PropOp30
 70
     1
102
RTVSPost2010Prop31
280
     0
102
RTVSPost2010PropOp31
 70
     1
102
RTVSPost2010Prop32
280
     0
102
RTVSPost2010PropOp32
 70
     1
102
RTVSPost2010Prop33
280
     0
102
RTVSPost2010PropOp33
 70
     1
102
RTVSPost2010Prop34
280
     0
102
RTVSPost2010PropOp34
 70
     1
102
RTVSPost2010Prop35
280
     0
102
RTVSPost2010PropOp35
 70
     1
102
RTVSPost2010Prop36
280
     0
102
RTVSPost2010PropOp36
 70
     1
102
RTVSPost2010Prop37
 90
       50
102
RTVSPost2010PropOp37
 70
     1
102
RTVSPost2010Prop38
140
0.0
102
RTVSPost2010PropOp38
 70
     1
102
RTVSPost2010Prop39
140
1.0
102
RTVSPost2010PropOp39
 70
     1
102
RTVSPost2010Prop40
 90
        0
102
RTVSPost2010PropOp40
 70
     1
102
RTVSPost2010Prop41ColorIndex
 90
       18
102
RTVSPost2010Prop41ColorRGB
 90
        0
102
RTVSPost2010PropOp41
 70
     1
102
RTVSPost2010Prop42
 90
       50
102
RTVSPost2010PropOp42
 70
     1
102
RTVSPost2010Prop43
 90
        3
102
RTVSPost2010PropOp43
 70
     1
102
RTVSPost2010Prop44ColorIndex
 90
        5
102
RTVSPost2010Prop44ColorRGB
 90
      255
102
RTVSPost2010PropOp44
 70
     1
102
RTVSPost2010Prop45
280
     0
102
RTVSPost2010PropOp45
 70
     1
102
RTVSPost2010Prop46
 90
       50
102
RTVSPost2010PropOp46
 70
     1
102
RTVSPost2010Prop47
 90
       50
102
RTVSPost2010PropOp47
 70
     1
102
RTVSPost2010Prop48
 90
       50
102
RTVSPost2010PropOp48
 70
     1
102
RTVSPost2010Prop49
280
     0
102
RTVSPost2010PropOp49
 70
     1
102
RTVSPost2010Prop50
 90
       50
102
RTVSPost2010PropOp50
 70
     1
102
RTVSPost2010Prop51ColorIndex
 90
      256
102
RTVSPost2010Prop51ColorRGB
 90
-16777216
102
RTVSPost2010PropOp51
 70
     0
102
RTVSPost2010Prop52
140
1.0
102
RTVSPost2010PropOp52
 70
     0
102
RTVSPost2010Prop53
 90
        2
102
RTVSPost2010PropOp53
 70
     1
102
RTVSPost2010Prop54
  1
strokes_ogs.tif
102
RTVSPost2010PropOp54
 70
     1
102
RTVSPost2010Prop55
280
     0
102
RTVSPost2010PropOp55
 70
     1
102
RTVSPost2010Prop56
140
1.0
102
RTVSPost2010PropOp56
 70
     1
102
RTVSPost2010Prop57
140
1.0
102
RTVSPost2010PropOp57
 70
     1
102
RTVSPropertyOp0
 70
     1
102
RTVSPropertyOp1
 70
     1
102
RTVSPropertyOp2
 70
     1
102
RTVSPropertyOp3
 70
     1
102
RTVSPropertyOp4
 70
     1
102
RTVSPropertyOp5
 70
     1
102
RTVSPropertyOp6
 70
     1
102
RTVSPropertyOp7
 70
     1
102
RTVSPropertyOp8
 70
     1
102
RTVSPropertyOp9
 70
     1
102
RTVSPropertyOp10
 70
     1
102
RTVSPropertyOp11
 70
     1
102
RTVSPropertyOp12
 70
     1
102
RTVSPropertyOp13
 70
     1
102
RTVSPropertyOp14
 70
     1
102
RTVSPropertyOp15
 70
     1
102
RTVSPropertyOp16
 70
     1
102
RTVSPropertyOp17
 70
     1
102
RTVSPropertyOp18
 70
     1
102
RTVSPropertyOp19
 70
     1
102
RTVSPropertyOp20
 70
     1
102
RTVSPropertyOp21
 70
     1
102
RTVSPropertyOp22
 70
     1
102
RTVSPropertyOp23
 70
     1
102
RTVSPropertyOp24
 70
     1
102
RTVSPropertyOp25
 70
     1
102
RTVSPropertyOp26
 70
     1
102
RTVSPropertyOp27
 70
     1
102
RTVSPropertyOp28
 70
     1
102
RTVSPropertyOp29
 70
     1
102
RTVSPropertyOp30
 70
     1
102
RTVSPropertyOp31
 70
     1
102
RTVSPropertyOp32
 70
     1
102
RTVSPropertyOp33
 70
     1
102
RTVSPropertyOp34
 70
     1
102
RTVSPropertyOp35
 70
     1
102
RTVSPropertyOp36
 70
     1
102
RTVSPropertyOp37
 70
     1
102
RTVSPropertyOp38
 70
     1
102
RTVSPropertyOp39
 70
     1
102
RTVSPropertyOp40
 70
     1
102
RTVSPropertyOp41
 70
     1
102
RTVSPropertyOp42
 70
     1
102
RTVSPropertyOp43
 70
     1
102
RTVSPropertyOp44
 70
     1
102
RTVSPropertyOp45
 70
     1
102
RTVSPropertyOp46
 70
     1
102
RTVSPropertyOp47
 70
     1
102
RTVSPropertyOp48
 70
     1
102
RTVSPropertyOp49
 70
     1
102
RTVSPropertyOp50
 70
     1
102
RTVSPropertyOp51
 70
     0
102
RTVSPropertyOp52
 70
     0
102
RTVSPropertyOp53
 70
     1
102
RTVSPropertyOp54
 70
     1
102
RTVSPropertyOp55
 70
     1
102
RTVSPropertyOp56
 70
     1
102
RTVSPropertyOp57
 70
     1
102
RTVSPropertyOp58
 70
     1
102
RTVSPropertyOp59
 70
     1
102
RTVSPropertyOp60
 70
     1
102
RTVSPropertyOp61
 70
     1
102
RTVSPropertyOp62
 70
     1
  0
XRECORD
  5
B5C4
102
{ACAD_REACTORS
330
B5C3
102
}
330
B5C3
100
AcDbXrecord
280
     1
102
RTVSPost2010Prop28
280
     0
102
RTVSPost2010PropOp28
 70
     1
102
RTVSPost2010Prop29
280
     1
102
RTVSPost2010PropOp29
 70
     1
102
RTVSPost2010Prop30
280
     1
102
RTVSPost2010PropOp30
 70
     1
102
RTVSPost2010Prop31
280
     0
102
RTVSPost2010PropOp31
 70
     1
102
RTVSPost2010Prop32
280
     0
102
RTVSPost2010PropOp32
 70
     1
102
RTVSPost2010Prop33
280
     0
102
RTVSPost2010PropOp33
 70
     1
102
RTVSPost2010Prop34
280
     0
102
RTVSPost2010PropOp34
 70
     1
102
RTVSPost2010Prop35
280
     0
102
RTVSPost2010PropOp35
 70
     1
102
RTVSPost2010Prop36
280
     0
102
RTVSPost2010PropOp36
 70
     1
102
RTVSPost2010Prop37
 90
       50
102
RTVSPost2010PropOp37
 70
     1
102
RTVSPost2010Prop38
140
0.0
102
RTVSPost2010PropOp38
 70
     1
102
RTVSPost2010Prop39
140
1.0
102
RTVSPost2010PropOp39
 70
     1
102
RTVSPost2010Prop40
 90
        0
102
RTVSPost2010PropOp40
 70
     1
102
RTVSPost2010Prop41ColorIndex
 90
       18
102
RTVSPost2010Prop41ColorRGB
 90
        0
102
RTVSPost2010PropOp41
 70
     1
102
RTVSPost2010Prop42
 90
       50
102
RTVSPost2010PropOp42
 70
     1
102
RTVSPost2010Prop43
 90
        3
102
RTVSPost2010PropOp43
 70
     1
102
RTVSPost2010Prop44ColorIndex
 90
        5
102
RTVSPost2010Prop44ColorRGB
 90
      255
102
RTVSPost2010PropOp44
 70
     1
102
RTVSPost2010Prop45
280
     0
102
RTVSPost2010PropOp45
 70
     1
102
RTVSPost2010Prop46
 90
       50
102
RTVSPost2010PropOp46
 70
     1
102
RTVSPost2010Prop47
 90
       50
102
RTVSPost2010PropOp47
 70
     1
102
RTVSPost2010Prop48
 90
       50
102
RTVSPost2010PropOp48
 70
     1
102
RTVSPost2010Prop49
280
     0
102
RTVSPost2010PropOp49
 70
     1
102
RTVSPost2010Prop50
 90
       50
102
RTVSPost2010PropOp50
 70
     1
102
RTVSPost2010Prop51ColorIndex
 90
      256
102
RTVSPost2010Prop51ColorRGB
 90
-16777216
102
RTVSPost2010PropOp51
 70
     0
102
RTVSPost2010Prop52
140
1.0
102
RTVSPost2010PropOp52
 70
     0
102
RTVSPost2010Prop53
 90
        2
102
RTVSPost2010PropOp53
 70
     1
102
RTVSPost2010Prop54
  1
strokes_ogs.tif
102
RTVSPost2010PropOp54
 70
     1
102
RTVSPost2010Prop55
280
     0
102
RTVSPost2010PropOp55
 70
     1
102
RTVSPost2010Prop56
140
1.0
102
RTVSPost2010PropOp56
 70
     1
102
RTVSPost2010Prop57
140
1.0
102
RTVSPost2010PropOp57
 70
     1
102
RTVSPropertyOp0
 70
     1
102
RTVSPropertyOp1
 70
     1
102
RTVSPropertyOp2
 70
     1
102
RTVSPropertyOp3
 70
     1
102
RTVSPropertyOp4
 70
     1
102
RTVSPropertyOp5
 70
     1
102
RTVSPropertyOp6
 70
     1
102
RTVSPropertyOp7
 70
     1
102
RTVSPropertyOp8
 70
     1
102
RTVSPropertyOp9
 70
     1
102
RTVSPropertyOp10
 70
     1
102
RTVSPropertyOp11
 70
     1
102
RTVSPropertyOp12
 70
     1
102
RTVSPropertyOp13
 70
     1
102
RTVSPropertyOp14
 70
     1
102
RTVSPropertyOp15
 70
     1
102
RTVSPropertyOp16
 70
     1
102
RTVSPropertyOp17
 70
     1
102
RTVSPropertyOp18
 70
     1
102
RTVSPropertyOp19
 70
     1
102
RTVSPropertyOp20
 70
     1
102
RTVSPropertyOp21
 70
     1
102
RTVSPropertyOp22
 70
     1
102
RTVSPropertyOp23
 70
     1
102
RTVSPropertyOp24
 70
     1
102
RTVSPropertyOp25
 70
     1
102
RTVSPropertyOp26
 70
     1
102
RTVSPropertyOp27
 70
     1
102
RTVSPropertyOp28
 70
     1
102
RTVSPropertyOp29
 70
     1
102
RTVSPropertyOp30
 70
     1
102
RTVSPropertyOp31
 70
     1
102
RTVSPropertyOp32
 70
     1
102
RTVSPropertyOp33
 70
     1
102
RTVSPropertyOp34
 70
     1
102
RTVSPropertyOp35
 70
     1
102
RTVSPropertyOp36
 70
     1
102
RTVSPropertyOp37
 70
     1
102
RTVSPropertyOp38
 70
     1
102
RTVSPropertyOp39
 70
     1
102
RTVSPropertyOp40
 70
     1
102
RTVSPropertyOp41
 70
     1
102
RTVSPropertyOp42
 70
     1
102
RTVSPropertyOp43
 70
     1
102
RTVSPropertyOp44
 70
     1
102
RTVSPropertyOp45
 70
     1
102
RTVSPropertyOp46
 70
     1
102
RTVSPropertyOp47
 70
     1
102
RTVSPropertyOp48
 70
     1
102
RTVSPropertyOp49
 70
     1
102
RTVSPropertyOp50
 70
     1
102
RTVSPropertyOp51
 70
     0
102
RTVSPropertyOp52
 70
     0
102
RTVSPropertyOp53
 70
     1
102
RTVSPropertyOp54
 70
     1
102
RTVSPropertyOp55
 70
     1
102
RTVSPropertyOp56
 70
     1
102
RTVSPropertyOp57
 70
     1
102
RTVSPropertyOp58
 70
     1
102
RTVSPropertyOp59
 70
     1
102
RTVSPropertyOp60
 70
     1
102
RTVSPropertyOp61
 70
     1
102
RTVSPropertyOp62
 70
     1
  0
XRECORD
  5
B5E0
102
{ACAD_REACTORS
330
B5DF
102
}
330
B5DF
100
AcDbXrecord
280
     1
102
RTVSPost2010Prop28
280
     0
102
RTVSPost2010PropOp28
 70
     1
102
RTVSPost2010Prop29
280
     1
102
RTVSPost2010PropOp29
 70
     1
102
RTVSPost2010Prop30
280
     1
102
RTVSPost2010PropOp30
 70
     1
102
RTVSPost2010Prop31
280
     0
102
RTVSPost2010PropOp31
 70
     1
102
RTVSPost2010Prop32
280
     0
102
RTVSPost2010PropOp32
 70
     1
102
RTVSPost2010Prop33
280
     0
102
RTVSPost2010PropOp33
 70
     1
102
RTVSPost2010Prop34
280
     0
102
RTVSPost2010PropOp34
 70
     1
102
RTVSPost2010Prop35
280
     0
102
RTVSPost2010PropOp35
 70
     1
102
RTVSPost2010Prop36
280
     0
102
RTVSPost2010PropOp36
 70
     1
102
RTVSPost2010Prop37
 90
       50
102
RTVSPost2010PropOp37
 70
     0
102
RTVSPost2010Prop38
140
0.0
102
RTVSPost2010PropOp38
 70
     0
102
RTVSPost2010Prop39
140
1.0
102
RTVSPost2010PropOp39
 70
     0
102
RTVSPost2010Prop40
 90
        0
102
RTVSPost2010PropOp40
 70
     0
102
RTVSPost2010Prop41ColorIndex
 90
       18
102
RTVSPost2010Prop41ColorRGB
 90
        0
102
RTVSPost2010PropOp41
 70
     0
102
RTVSPost2010Prop42
 90
       50
102
RTVSPost2010PropOp42
 70
     0
102
RTVSPost2010Prop43
 90
        3
102
RTVSPost2010PropOp43
 70
     0
102
RTVSPost2010Prop44ColorIndex
 90
        5
102
RTVSPost2010Prop44ColorRGB
 90
      255
102
RTVSPost2010PropOp44
 70
     0
102
RTVSPost2010Prop45
280
     0
102
RTVSPost2010PropOp45
 70
     1
102
RTVSPost2010Prop46
 90
       50
102
RTVSPost2010PropOp46
 70
     0
102
RTVSPost2010Prop47
 90
       50
102
RTVSPost2010PropOp47
 70
     0
102
RTVSPost2010Prop48
 90
       50
102
RTVSPost2010PropOp48
 70
     0
102
RTVSPost2010Prop49
280
     0
102
RTVSPost2010PropOp49
 70
     1
102
RTVSPost2010Prop50
 90
       50
102
RTVSPost2010PropOp50
 70
     0
102
RTVSPost2010Prop51ColorIndex
 90
      256
102
RTVSPost2010Prop51ColorRGB
 90
-16777216
102
RTVSPost2010PropOp51
 70
     0
102
RTVSPost2010Prop52
140
1.0
102
RTVSPost2010PropOp52
 70
     0
102
RTVSPost2010Prop53
 90
        2
102
RTVSPost2010PropOp53
 70
     0
102
RTVSPost2010Prop54
  1
strokes_ogs.tif
102
RTVSPost2010PropOp54
 70
     0
102
RTVSPost2010Prop55
280
     0
102
RTVSPost2010PropOp55
 70
     1
102
RTVSPost2010Prop56
140
1.0
102
RTVSPost2010PropOp56
 70
     0
102
RTVSPost2010Prop57
140
1.0
102
RTVSPost2010PropOp57
 70
     0
102
RTVSPropertyOp0
 70
     0
102
RTVSPropertyOp1
 70
     0
102
RTVSPropertyOp2
 70
     0
102
RTVSPropertyOp3
 70
     0
102
RTVSPropertyOp4
 70
     0
102
RTVSPropertyOp5
 70
     0
102
RTVSPropertyOp6
 70
     0
102
RTVSPropertyOp7
 70
     0
102
RTVSPropertyOp8
 70
     0
102
RTVSPropertyOp9
 70
     0
102
RTVSPropertyOp10
 70
     0
102
RTVSPropertyOp11
 70
     0
102
RTVSPropertyOp12
 70
     0
102
RTVSPropertyOp13
 70
     0
102
RTVSPropertyOp14
 70
     2
102
RTVSPropertyOp15
 70
     0
102
RTVSPropertyOp16
 70
     0
102
RTVSPropertyOp17
 70
     0
102
RTVSPropertyOp18
 70
     0
102
RTVSPropertyOp19
 70
     0
102
RTVSPropertyOp20
 70
     0
102
RTVSPropertyOp21
 70
     0
102
RTVSPropertyOp22
 70
     0
102
RTVSPropertyOp23
 70
     0
102
RTVSPropertyOp24
 70
     0
102
RTVSPropertyOp25
 70
     0
102
RTVSPropertyOp26
 70
     0
102
RTVSPropertyOp27
 70
     0
102
RTVSPropertyOp28
 70
     1
102
RTVSPropertyOp29
 70
     1
102
RTVSPropertyOp30
 70
     1
102
RTVSPropertyOp31
 70
     1
102
RTVSPropertyOp32
 70
     1
102
RTVSPropertyOp33
 70
     1
102
RTVSPropertyOp34
 70
     1
102
RTVSPropertyOp35
 70
     1
102
RTVSPropertyOp36
 70
     1
102
RTVSPropertyOp37
 70
     0
102
RTVSPropertyOp38
 70
     0
102
RTVSPropertyOp39
 70
     0
102
RTVSPropertyOp40
 70
     0
102
RTVSPropertyOp41
 70
     0
102
RTVSPropertyOp42
 70
     0
102
RTVSPropertyOp43
 70
     0
102
RTVSPropertyOp44
 70
     0
102
RTVSPropertyOp45
 70
     1
102
RTVSPropertyOp46
 70
     0
102
RTVSPropertyOp47
 70
     0
102
RTVSPropertyOp48
 70
     0
102
RTVSPropertyOp49
 70
     1
102
RTVSPropertyOp50
 70
     0
102
RTVSPropertyOp51
 70
     0
102
RTVSPropertyOp52
 70
     0
102
RTVSPropertyOp53
 70
     0
102
RTVSPropertyOp54
 70
     0
102
RTVSPropertyOp55
 70
     1
102
RTVSPropertyOp56
 70
     0
102
RTVSPropertyOp57
 70
     0
102
RTVSPropertyOp58
 70
     0
102
RTVSPropertyOp59
 70
     0
102
RTVSPropertyOp60
 70
     0
102
RTVSPropertyOp61
 70
     0
102
RTVSPropertyOp62
 70
     0
  0
XRECORD
  5
B5D0
102
{ACAD_REACTORS
330
B5CF
102
}
330
B5CF
100
AcDbXrecord
280
     1
102
RTVSPost2010Prop28
280
     0
102
RTVSPost2010PropOp28
 70
     1
102
RTVSPost2010Prop29
280
     1
102
RTVSPost2010PropOp29
 70
     1
102
RTVSPost2010Prop30
280
     1
102
RTVSPost2010PropOp30
 70
     1
102
RTVSPost2010Prop31
280
     0
102
RTVSPost2010PropOp31
 70
     1
102
RTVSPost2010Prop32
280
     0
102
RTVSPost2010PropOp32
 70
     1
102
RTVSPost2010Prop33
280
     0
102
RTVSPost2010PropOp33
 70
     1
102
RTVSPost2010Prop34
280
     0
102
RTVSPost2010PropOp34
 70
     1
102
RTVSPost2010Prop35
280
     0
102
RTVSPost2010PropOp35
 70
     1
102
RTVSPost2010Prop36
280
     0
102
RTVSPost2010PropOp36
 70
     1
102
RTVSPost2010Prop37
 90
       50
102
RTVSPost2010PropOp37
 70
     1
102
RTVSPost2010Prop38
140
0.0
102
RTVSPost2010PropOp38
 70
     1
102
RTVSPost2010Prop39
140
1.0
102
RTVSPost2010PropOp39
 70
     1
102
RTVSPost2010Prop40
 90
        0
102
RTVSPost2010PropOp40
 70
     1
102
RTVSPost2010Prop41ColorIndex
 90
       18
102
RTVSPost2010Prop41ColorRGB
 90
        0
102
RTVSPost2010PropOp41
 70
     1
102
RTVSPost2010Prop42
 90
       50
102
RTVSPost2010PropOp42
 70
     1
102
RTVSPost2010Prop43
 90
        3
102
RTVSPost2010PropOp43
 70
     1
102
RTVSPost2010Prop44ColorIndex
 90
        5
102
RTVSPost2010Prop44ColorRGB
 90
      255
102
RTVSPost2010PropOp44
 70
     1
102
RTVSPost2010Prop45
280
     0
102
RTVSPost2010PropOp45
 70
     1
102
RTVSPost2010Prop46
 90
       50
102
RTVSPost2010PropOp46
 70
     1
102
RTVSPost2010Prop47
 90
       50
102
RTVSPost2010PropOp47
 70
     1
102
RTVSPost2010Prop48
 90
       50
102
RTVSPost2010PropOp48
 70
     1
102
RTVSPost2010Prop49
280
     0
102
RTVSPost2010PropOp49
 70
     1
102
RTVSPost2010Prop50
 90
       50
102
RTVSPost2010PropOp50
 70
     1
102
RTVSPost2010Prop51ColorIndex
 90
      256
102
RTVSPost2010Prop51ColorRGB
 90
-16777216
102
RTVSPost2010PropOp51
 70
     0
102
RTVSPost2010Prop52
140
1.0
102
RTVSPost2010PropOp52
 70
     0
102
RTVSPost2010Prop53
 90
        2
102
RTVSPost2010PropOp53
 70
     1
102
RTVSPost2010Prop54
  1
strokes_ogs.tif
102
RTVSPost2010PropOp54
 70
     1
102
RTVSPost2010Prop55
280
     0
102
RTVSPost2010PropOp55
 70
     1
102
RTVSPost2010Prop56
140
1.0
102
RTVSPost2010PropOp56
 70
     1
102
RTVSPost2010Prop57
140
1.0
102
RTVSPost2010PropOp57
 70
     1
102
RTVSPropertyOp0
 70
     1
102
RTVSPropertyOp1
 70
     1
102
RTVSPropertyOp2
 70
     1
102
RTVSPropertyOp3
 70
     1
102
RTVSPropertyOp4
 70
     1
102
RTVSPropertyOp5
 70
     1
102
RTVSPropertyOp6
 70
     1
102
RTVSPropertyOp7
 70
     1
102
RTVSPropertyOp8
 70
     1
102
RTVSPropertyOp9
 70
     1
102
RTVSPropertyOp10
 70
     1
102
RTVSPropertyOp11
 70
     1
102
RTVSPropertyOp12
 70
     1
102
RTVSPropertyOp13
 70
     1
102
RTVSPropertyOp14
 70
     1
102
RTVSPropertyOp15
 70
     1
102
RTVSPropertyOp16
 70
     1
102
RTVSPropertyOp17
 70
     1
102
RTVSPropertyOp18
 70
     1
102
RTVSPropertyOp19
 70
     1
102
RTVSPropertyOp20
 70
     1
102
RTVSPropertyOp21
 70
     1
102
RTVSPropertyOp22
 70
     1
102
RTVSPropertyOp23
 70
     1
102
RTVSPropertyOp24
 70
     1
102
RTVSPropertyOp25
 70
     1
102
RTVSPropertyOp26
 70
     1
102
RTVSPropertyOp27
 70
     1
102
RTVSPropertyOp28
 70
     1
102
RTVSPropertyOp29
 70
     1
102
RTVSPropertyOp30
 70
     1
102
RTVSPropertyOp31
 70
     1
102
RTVSPropertyOp32
 70
     1
102
RTVSPropertyOp33
 70
     1
102
RTVSPropertyOp34
 70
     1
102
RTVSPropertyOp35
 70
     1
102
RTVSPropertyOp36
 70
     1
102
RTVSPropertyOp37
 70
     1
102
RTVSPropertyOp38
 70
     1
102
RTVSPropertyOp39
 70
     1
102
RTVSPropertyOp40
 70
     1
102
RTVSPropertyOp41
 70
     1
102
RTVSPropertyOp42
 70
     1
102
RTVSPropertyOp43
 70
     1
102
RTVSPropertyOp44
 70
     1
102
RTVSPropertyOp45
 70
     1
102
RTVSPropertyOp46
 70
     1
102
RTVSPropertyOp47
 70
     1
102
RTVSPropertyOp48
 70
     1
102
RTVSPropertyOp49
 70
     1
102
RTVSPropertyOp50
 70
     1
102
RTVSPropertyOp51
 70
     0
102
RTVSPropertyOp52
 70
     0
102
RTVSPropertyOp53
 70
     1
102
RTVSPropertyOp54
 70
     1
102
RTVSPropertyOp55
 70
     1
102
RTVSPropertyOp56
 70
     1
102
RTVSPropertyOp57
 70
     1
102
RTVSPropertyOp58
 70
     1
102
RTVSPropertyOp59
 70
     1
102
RTVSPropertyOp60
 70
     1
102
RTVSPropertyOp61
 70
     1
102
RTVSPropertyOp62
 70
     1
  0
XRECORD
  5
B5E2
102
{ACAD_REACTORS
330
B5E1
102
}
330
B5E1
100
AcDbXrecord
280
     1
102
RTVSPost2010Prop28
280
     0
102
RTVSPost2010PropOp28
 70
     1
102
RTVSPost2010Prop29
280
     1
102
RTVSPost2010PropOp29
 70
     1
102
RTVSPost2010Prop30
280
     1
102
RTVSPost2010PropOp30
 70
     1
102
RTVSPost2010Prop31
280
     0
102
RTVSPost2010PropOp31
 70
     1
102
RTVSPost2010Prop32
280
     0
102
RTVSPost2010PropOp32
 70
     1
102
RTVSPost2010Prop33
280
     0
102
RTVSPost2010PropOp33
 70
     1
102
RTVSPost2010Prop34
280
     0
102
RTVSPost2010PropOp34
 70
     1
102
RTVSPost2010Prop35
280
     0
102
RTVSPost2010PropOp35
 70
     1
102
RTVSPost2010Prop36
280
     0
102
RTVSPost2010PropOp36
 70
     1
102
RTVSPost2010Prop37
 90
       50
102
RTVSPost2010PropOp37
 70
     0
102
RTVSPost2010Prop38
140
0.0
102
RTVSPost2010PropOp38
 70
     0
102
RTVSPost2010Prop39
140
1.0
102
RTVSPost2010PropOp39
 70
     0
102
RTVSPost2010Prop40
 90
        0
102
RTVSPost2010PropOp40
 70
     0
102
RTVSPost2010Prop41ColorIndex
 90
       18
102
RTVSPost2010Prop41ColorRGB
 90
        0
102
RTVSPost2010PropOp41
 70
     0
102
RTVSPost2010Prop42
 90
       50
102
RTVSPost2010PropOp42
 70
     0
102
RTVSPost2010Prop43
 90
        3
102
RTVSPost2010PropOp43
 70
     0
102
RTVSPost2010Prop44ColorIndex
 90
        5
102
RTVSPost2010Prop44ColorRGB
 90
      255
102
RTVSPost2010PropOp44
 70
     0
102
RTVSPost2010Prop45
280
     0
102
RTVSPost2010PropOp45
 70
     1
102
RTVSPost2010Prop46
 90
       50
102
RTVSPost2010PropOp46
 70
     0
102
RTVSPost2010Prop47
 90
       50
102
RTVSPost2010PropOp47
 70
     0
102
RTVSPost2010Prop48
 90
       50
102
RTVSPost2010PropOp48
 70
     0
102
RTVSPost2010Prop49
280
     0
102
RTVSPost2010PropOp49
 70
     1
102
RTVSPost2010Prop50
 90
       50
102
RTVSPost2010PropOp50
 70
     0
102
RTVSPost2010Prop51ColorIndex
 90
      256
102
RTVSPost2010Prop51ColorRGB
 90
-16777216
102
RTVSPost2010PropOp51
 70
     0
102
RTVSPost2010Prop52
140
1.0
102
RTVSPost2010PropOp52
 70
     0
102
RTVSPost2010Prop53
 90
        2
102
RTVSPost2010PropOp53
 70
     0
102
RTVSPost2010Prop54
  1
strokes_ogs.tif
102
RTVSPost2010PropOp54
 70
     0
102
RTVSPost2010Prop55
280
     0
102
RTVSPost2010PropOp55
 70
     1
102
RTVSPost2010Prop56
140
1.0
102
RTVSPost2010PropOp56
 70
     0
102
RTVSPost2010Prop57
140
1.0
102
RTVSPost2010PropOp57
 70
     0
102
RTVSPropertyOp0
 70
     0
102
RTVSPropertyOp1
 70
     0
102
RTVSPropertyOp2
 70
     0
102
RTVSPropertyOp3
 70
     0
102
RTVSPropertyOp4
 70
     0
102
RTVSPropertyOp5
 70
     0
102
RTVSPropertyOp6
 70
     0
102
RTVSPropertyOp7
 70
     0
102
RTVSPropertyOp8
 70
     0
102
RTVSPropertyOp9
 70
     0
102
RTVSPropertyOp10
 70
     0
102
RTVSPropertyOp11
 70
     0
102
RTVSPropertyOp12
 70
     0
102
RTVSPropertyOp13
 70
     0
102
RTVSPropertyOp14
 70
     2
102
RTVSPropertyOp15
 70
     0
102
RTVSPropertyOp16
 70
     0
102
RTVSPropertyOp17
 70
     0
102
RTVSPropertyOp18
 70
     0
102
RTVSPropertyOp19
 70
     0
102
RTVSPropertyOp20
 70
     0
102
RTVSPropertyOp21
 70
     0
102
RTVSPropertyOp22
 70
     0
102
RTVSPropertyOp23
 70
     0
102
RTVSPropertyOp24
 70
     0
102
RTVSPropertyOp25
 70
     0
102
RTVSPropertyOp26
 70
     0
102
RTVSPropertyOp27
 70
     0
102
RTVSPropertyOp28
 70
     1
102
RTVSPropertyOp29
 70
     1
102
RTVSPropertyOp30
 70
     1
102
RTVSPropertyOp31
 70
     1
102
RTVSPropertyOp32
 70
     1
102
RTVSPropertyOp33
 70
     1
102
RTVSPropertyOp34
 70
     1
102
RTVSPropertyOp35
 70
     1
102
RTVSPropertyOp36
 70
     1
102
RTVSPropertyOp37
 70
     0
102
RTVSPropertyOp38
 70
     0
102
RTVSPropertyOp39
 70
     0
102
RTVSPropertyOp40
 70
     0
102
RTVSPropertyOp41
 70
     0
102
RTVSPropertyOp42
 70
     0
102
RTVSPropertyOp43
 70
     0
102
RTVSPropertyOp44
 70
     0
102
RTVSPropertyOp45
 70
     1
102
RTVSPropertyOp46
 70
     0
102
RTVSPropertyOp47
 70
     0
102
RTVSPropertyOp48
 70
     0
102
RTVSPropertyOp49
 70
     1
102
RTVSPropertyOp50
 70
     0
102
RTVSPropertyOp51
 70
     0
102
RTVSPropertyOp52
 70
     0
102
RTVSPropertyOp53
 70
     0
102
RTVSPropertyOp54
 70
     0
102
RTVSPropertyOp55
 70
     1
102
RTVSPropertyOp56
 70
     0
102
RTVSPropertyOp57
 70
     0
102
RTVSPropertyOp58
 70
     0
102
RTVSPropertyOp59
 70
     0
102
RTVSPropertyOp60
 70
     0
102
RTVSPropertyOp61
 70
     0
102
RTVSPropertyOp62
 70
     0
  0
XRECORD
  5
B5C8
102
{ACAD_REACTORS
330
B5C7
102
}
330
B5C7
100
AcDbXrecord
280
     1
102
RTVSPost2010Prop28
280
     0
102
RTVSPost2010PropOp28
 70
     1
102
RTVSPost2010Prop29
280
     1
102
RTVSPost2010PropOp29
 70
     1
102
RTVSPost2010Prop30
280
     1
102
RTVSPost2010PropOp30
 70
     1
102
RTVSPost2010Prop31
280
     0
102
RTVSPost2010PropOp31
 70
     1
102
RTVSPost2010Prop32
280
     0
102
RTVSPost2010PropOp32
 70
     1
102
RTVSPost2010Prop33
280
     0
102
RTVSPost2010PropOp33
 70
     1
102
RTVSPost2010Prop34
280
     0
102
RTVSPost2010PropOp34
 70
     1
102
RTVSPost2010Prop35
280
     0
102
RTVSPost2010PropOp35
 70
     1
102
RTVSPost2010Prop36
280
     0
102
RTVSPost2010PropOp36
 70
     1
102
RTVSPost2010Prop37
 90
       50
102
RTVSPost2010PropOp37
 70
     1
102
RTVSPost2010Prop38
140
0.0
102
RTVSPost2010PropOp38
 70
     1
102
RTVSPost2010Prop39
140
1.0
102
RTVSPost2010PropOp39
 70
     1
102
RTVSPost2010Prop40
 90
        0
102
RTVSPost2010PropOp40
 70
     1
102
RTVSPost2010Prop41ColorIndex
 90
       18
102
RTVSPost2010Prop41ColorRGB
 90
        0
102
RTVSPost2010PropOp41
 70
     1
102
RTVSPost2010Prop42
 90
       50
102
RTVSPost2010PropOp42
 70
     1
102
RTVSPost2010Prop43
 90
        3
102
RTVSPost2010PropOp43
 70
     1
102
RTVSPost2010Prop44ColorIndex
 90
        5
102
RTVSPost2010Prop44ColorRGB
 90
      255
102
RTVSPost2010PropOp44
 70
     1
102
RTVSPost2010Prop45
280
     0
102
RTVSPost2010PropOp45
 70
     1
102
RTVSPost2010Prop46
 90
       50
102
RTVSPost2010PropOp46
 70
     1
102
RTVSPost2010Prop47
 90
       50
102
RTVSPost2010PropOp47
 70
     1
102
RTVSPost2010Prop48
 90
       50
102
RTVSPost2010PropOp48
 70
     1
102
RTVSPost2010Prop49
280
     0
102
RTVSPost2010PropOp49
 70
     1
102
RTVSPost2010Prop50
 90
       50
102
RTVSPost2010PropOp50
 70
     1
102
RTVSPost2010Prop51ColorIndex
 90
      256
102
RTVSPost2010Prop51ColorRGB
 90
-16777216
102
RTVSPost2010PropOp51
 70
     0
102
RTVSPost2010Prop52
140
1.0
102
RTVSPost2010PropOp52
 70
     0
102
RTVSPost2010Prop53
 90
        2
102
RTVSPost2010PropOp53
 70
     1
102
RTVSPost2010Prop54
  1
strokes_ogs.tif
102
RTVSPost2010PropOp54
 70
     1
102
RTVSPost2010Prop55
280
     0
102
RTVSPost2010PropOp55
 70
     1
102
RTVSPost2010Prop56
140
1.0
102
RTVSPost2010PropOp56
 70
     1
102
RTVSPost2010Prop57
140
1.0
102
RTVSPost2010PropOp57
 70
     1
102
RTVSPropertyOp0
 70
     1
102
RTVSPropertyOp1
 70
     1
102
RTVSPropertyOp2
 70
     1
102
RTVSPropertyOp3
 70
     1
102
RTVSPropertyOp4
 70
     1
102
RTVSPropertyOp5
 70
     1
102
RTVSPropertyOp6
 70
     1
102
RTVSPropertyOp7
 70
     1
102
RTVSPropertyOp8
 70
     1
102
RTVSPropertyOp9
 70
     1
102
RTVSPropertyOp10
 70
     1
102
RTVSPropertyOp11
 70
     1
102
RTVSPropertyOp12
 70
     1
102
RTVSPropertyOp13
 70
     1
102
RTVSPropertyOp14
 70
     1
102
RTVSPropertyOp15
 70
     1
102
RTVSPropertyOp16
 70
     1
102
RTVSPropertyOp17
 70
     1
102
RTVSPropertyOp18
 70
     1
102
RTVSPropertyOp19
 70
     1
102
RTVSPropertyOp20
 70
     1
102
RTVSPropertyOp21
 70
     1
102
RTVSPropertyOp22
 70
     1
102
RTVSPropertyOp23
 70
     1
102
RTVSPropertyOp24
 70
     1
102
RTVSPropertyOp25
 70
     1
102
RTVSPropertyOp26
 70
     1
102
RTVSPropertyOp27
 70
     1
102
RTVSPropertyOp28
 70
     1
102
RTVSPropertyOp29
 70
     1
102
RTVSPropertyOp30
 70
     1
102
RTVSPropertyOp31
 70
     1
102
RTVSPropertyOp32
 70
     1
102
RTVSPropertyOp33
 70
     1
102
RTVSPropertyOp34
 70
     1
102
RTVSPropertyOp35
 70
     1
102
RTVSPropertyOp36
 70
     1
102
RTVSPropertyOp37
 70
     1
102
RTVSPropertyOp38
 70
     1
102
RTVSPropertyOp39
 70
     1
102
RTVSPropertyOp40
 70
     1
102
RTVSPropertyOp41
 70
     1
102
RTVSPropertyOp42
 70
     1
102
RTVSPropertyOp43
 70
     1
102
RTVSPropertyOp44
 70
     1
102
RTVSPropertyOp45
 70
     1
102
RTVSPropertyOp46
 70
     1
102
RTVSPropertyOp47
 70
     1
102
RTVSPropertyOp48
 70
     1
102
RTVSPropertyOp49
 70
     1
102
RTVSPropertyOp50
 70
     1
102
RTVSPropertyOp51
 70
     0
102
RTVSPropertyOp52
 70
     0
102
RTVSPropertyOp53
 70
     1
102
RTVSPropertyOp54
 70
     1
102
RTVSPropertyOp55
 70
     1
102
RTVSPropertyOp56
 70
     1
102
RTVSPropertyOp57
 70
     1
102
RTVSPropertyOp58
 70
     1
102
RTVSPropertyOp59
 70
     1
102
RTVSPropertyOp60
 70
     1
102
RTVSPropertyOp61
 70
     1
102
RTVSPropertyOp62
 70
     1
  0
XRECORD
  5
B5DE
102
{ACAD_REACTORS
330
B5DD
102
}
330
B5DD
100
AcDbXrecord
280
     1
102
RTVSPost2010Prop28
280
     0
102
RTVSPost2010PropOp28
 70
     1
102
RTVSPost2010Prop29
280
     1
102
RTVSPost2010PropOp29
 70
     1
102
RTVSPost2010Prop30
280
     1
102
RTVSPost2010PropOp30
 70
     1
102
RTVSPost2010Prop31
280
     0
102
RTVSPost2010PropOp31
 70
     1
102
RTVSPost2010Prop32
280
     0
102
RTVSPost2010PropOp32
 70
     1
102
RTVSPost2010Prop33
280
     0
102
RTVSPost2010PropOp33
 70
     1
102
RTVSPost2010Prop34
280
     0
102
RTVSPost2010PropOp34
 70
     1
102
RTVSPost2010Prop35
280
     0
102
RTVSPost2010PropOp35
 70
     1
102
RTVSPost2010Prop36
280
     0
102
RTVSPost2010PropOp36
 70
     1
102
RTVSPost2010Prop37
 90
       50
102
RTVSPost2010PropOp37
 70
     1
102
RTVSPost2010Prop38
140
0.0
102
RTVSPost2010PropOp38
 70
     1
102
RTVSPost2010Prop39
140
1.0
102
RTVSPost2010PropOp39
 70
     1
102
RTVSPost2010Prop40
 90
        0
102
RTVSPost2010PropOp40
 70
     1
102
RTVSPost2010Prop41ColorIndex
 90
       18
102
RTVSPost2010Prop41ColorRGB
 90
        0
102
RTVSPost2010PropOp41
 70
     1
102
RTVSPost2010Prop42
 90
       50
102
RTVSPost2010PropOp42
 70
     1
102
RTVSPost2010Prop43
 90
        3
102
RTVSPost2010PropOp43
 70
     1
102
RTVSPost2010Prop44ColorIndex
 90
        5
102
RTVSPost2010Prop44ColorRGB
 90
      255
102
RTVSPost2010PropOp44
 70
     1
102
RTVSPost2010Prop45
280
     0
102
RTVSPost2010PropOp45
 70
     1
102
RTVSPost2010Prop46
 90
       50
102
RTVSPost2010PropOp46
 70
     1
102
RTVSPost2010Prop47
 90
       50
102
RTVSPost2010PropOp47
 70
     1
102
RTVSPost2010Prop48
 90
       50
102
RTVSPost2010PropOp48
 70
     1
102
RTVSPost2010Prop49
280
     0
102
RTVSPost2010PropOp49
 70
     1
102
RTVSPost2010Prop50
 90
       50
102
RTVSPost2010PropOp50
 70
     1
102
RTVSPost2010Prop51ColorIndex
 90
      256
102
RTVSPost2010Prop51ColorRGB
 90
-16777216
102
RTVSPost2010PropOp51
 70
     0
102
RTVSPost2010Prop52
140
1.0
102
RTVSPost2010PropOp52
 70
     0
102
RTVSPost2010Prop53
 90
        2
102
RTVSPost2010PropOp53
 70
     1
102
RTVSPost2010Prop54
  1
strokes_ogs.tif
102
RTVSPost2010PropOp54
 70
     1
102
RTVSPost2010Prop55
280
     0
102
RTVSPost2010PropOp55
 70
     1
102
RTVSPost2010Prop56
140
1.0
102
RTVSPost2010PropOp56
 70
     1
102
RTVSPost2010Prop57
140
1.0
102
RTVSPost2010PropOp57
 70
     1
102
RTVSPropertyOp0
 70
     1
102
RTVSPropertyOp1
 70
     1
102
RTVSPropertyOp2
 70
     1
102
RTVSPropertyOp3
 70
     1
102
RTVSPropertyOp4
 70
     1
102
RTVSPropertyOp5
 70
     1
102
RTVSPropertyOp6
 70
     1
102
RTVSPropertyOp7
 70
     1
102
RTVSPropertyOp8
 70
     1
102
RTVSPropertyOp9
 70
     1
102
RTVSPropertyOp10
 70
     1
102
RTVSPropertyOp11
 70
     1
102
RTVSPropertyOp12
 70
     1
102
RTVSPropertyOp13
 70
     1
102
RTVSPropertyOp14
 70
     1
102
RTVSPropertyOp15
 70
     1
102
RTVSPropertyOp16
 70
     1
102
RTVSPropertyOp17
 70
     1
102
RTVSPropertyOp18
 70
     1
102
RTVSPropertyOp19
 70
     1
102
RTVSPropertyOp20
 70
     1
102
RTVSPropertyOp21
 70
     1
102
RTVSPropertyOp22
 70
     1
102
RTVSPropertyOp23
 70
     1
102
RTVSPropertyOp24
 70
     1
102
RTVSPropertyOp25
 70
     1
102
RTVSPropertyOp26
 70
     1
102
RTVSPropertyOp27
 70
     1
102
RTVSPropertyOp28
 70
     1
102
RTVSPropertyOp29
 70
     1
102
RTVSPropertyOp30
 70
     1
102
RTVSPropertyOp31
 70
     1
102
RTVSPropertyOp32
 70
     1
102
RTVSPropertyOp33
 70
     1
102
RTVSPropertyOp34
 70
     1
102
RTVSPropertyOp35
 70
     1
102
RTVSPropertyOp36
 70
     1
102
RTVSPropertyOp37
 70
     1
102
RTVSPropertyOp38
 70
     1
102
RTVSPropertyOp39
 70
     1
102
RTVSPropertyOp40
 70
     1
102
RTVSPropertyOp41
 70
     1
102
RTVSPropertyOp42
 70
     1
102
RTVSPropertyOp43
 70
     1
102
RTVSPropertyOp44
 70
     1
102
RTVSPropertyOp45
 70
     1
102
RTVSPropertyOp46
 70
     1
102
RTVSPropertyOp47
 70
     1
102
RTVSPropertyOp48
 70
     1
102
RTVSPropertyOp49
 70
     1
102
RTVSPropertyOp50
 70
     1
102
RTVSPropertyOp51
 70
     0
102
RTVSPropertyOp52
 70
     0
102
RTVSPropertyOp53
 70
     1
102
RTVSPropertyOp54
 70
     1
102
RTVSPropertyOp55
 70
     1
102
RTVSPropertyOp56
 70
     1
102
RTVSPropertyOp57
 70
     1
102
RTVSPropertyOp58
 70
     1
102
RTVSPropertyOp59
 70
     1
102
RTVSPropertyOp60
 70
     1
102
RTVSPropertyOp61
 70
     1
102
RTVSPropertyOp62
 70
     1
  0
XRECORD
  5
B5DC
102
{ACAD_REACTORS
330
B5DB
102
}
330
B5DB
100
AcDbXrecord
280
     1
102
RTVSPost2010Prop28
280
     0
102
RTVSPost2010PropOp28
 70
     1
102
RTVSPost2010Prop29
280
     1
102
RTVSPost2010PropOp29
 70
     1
102
RTVSPost2010Prop30
280
     1
102
RTVSPost2010PropOp30
 70
     1
102
RTVSPost2010Prop31
280
     0
102
RTVSPost2010PropOp31
 70
     1
102
RTVSPost2010Prop32
280
     0
102
RTVSPost2010PropOp32
 70
     1
102
RTVSPost2010Prop33
280
     0
102
RTVSPost2010PropOp33
 70
     1
102
RTVSPost2010Prop34
280
     0
102
RTVSPost2010PropOp34
 70
     1
102
RTVSPost2010Prop35
280
     0
102
RTVSPost2010PropOp35
 70
     1
102
RTVSPost2010Prop36
280
     0
102
RTVSPost2010PropOp36
 70
     1
102
RTVSPost2010Prop37
 90
       50
102
RTVSPost2010PropOp37
 70
     1
102
RTVSPost2010Prop38
140
0.0
102
RTVSPost2010PropOp38
 70
     1
102
RTVSPost2010Prop39
140
1.0
102
RTVSPost2010PropOp39
 70
     1
102
RTVSPost2010Prop40
 90
        0
102
RTVSPost2010PropOp40
 70
     1
102
RTVSPost2010Prop41ColorIndex
 90
       18
102
RTVSPost2010Prop41ColorRGB
 90
        0
102
RTVSPost2010PropOp41
 70
     1
102
RTVSPost2010Prop42
 90
       50
102
RTVSPost2010PropOp42
 70
     1
102
RTVSPost2010Prop43
 90
        3
102
RTVSPost2010PropOp43
 70
     1
102
RTVSPost2010Prop44ColorIndex
 90
        5
102
RTVSPost2010Prop44ColorRGB
 90
      255
102
RTVSPost2010PropOp44
 70
     1
102
RTVSPost2010Prop45
280
     0
102
RTVSPost2010PropOp45
 70
     1
102
RTVSPost2010Prop46
 90
       50
102
RTVSPost2010PropOp46
 70
     1
102
RTVSPost2010Prop47
 90
       50
102
RTVSPost2010PropOp47
 70
     1
102
RTVSPost2010Prop48
 90
       50
102
RTVSPost2010PropOp48
 70
     1
102
RTVSPost2010Prop49
280
     0
102
RTVSPost2010PropOp49
 70
     1
102
RTVSPost2010Prop50
 90
       50
102
RTVSPost2010PropOp50
 70
     1
102
RTVSPost2010Prop51ColorIndex
 90
      256
102
RTVSPost2010Prop51ColorRGB
 90
-16777216
102
RTVSPost2010PropOp51
 70
     0
102
RTVSPost2010Prop52
140
1.0
102
RTVSPost2010PropOp52
 70
     0
102
RTVSPost2010Prop53
 90
        2
102
RTVSPost2010PropOp53
 70
     1
102
RTVSPost2010Prop54
  1
strokes_ogs.tif
102
RTVSPost2010PropOp54
 70
     1
102
RTVSPost2010Prop55
280
     0
102
RTVSPost2010PropOp55
 70
     1
102
RTVSPost2010Prop56
140
1.0
102
RTVSPost2010PropOp56
 70
     1
102
RTVSPost2010Prop57
140
1.0
102
RTVSPost2010PropOp57
 70
     1
102
RTVSPropertyOp0
 70
     1
102
RTVSPropertyOp1
 70
     1
102
RTVSPropertyOp2
 70
     1
102
RTVSPropertyOp3
 70
     1
102
RTVSPropertyOp4
 70
     1
102
RTVSPropertyOp5
 70
     1
102
RTVSPropertyOp6
 70
     1
102
RTVSPropertyOp7
 70
     1
102
RTVSPropertyOp8
 70
     1
102
RTVSPropertyOp9
 70
     1
102
RTVSPropertyOp10
 70
     1
102
RTVSPropertyOp11
 70
     1
102
RTVSPropertyOp12
 70
     1
102
RTVSPropertyOp13
 70
     1
102
RTVSPropertyOp14
 70
     1
102
RTVSPropertyOp15
 70
     1
102
RTVSPropertyOp16
 70
     1
102
RTVSPropertyOp17
 70
     1
102
RTVSPropertyOp18
 70
     1
102
RTVSPropertyOp19
 70
     1
102
RTVSPropertyOp20
 70
     1
102
RTVSPropertyOp21
 70
     1
102
RTVSPropertyOp22
 70
     1
102
RTVSPropertyOp23
 70
     1
102
RTVSPropertyOp24
 70
     1
102
RTVSPropertyOp25
 70
     1
102
RTVSPropertyOp26
 70
     1
102
RTVSPropertyOp27
 70
     1
102
RTVSPropertyOp28
 70
     1
102
RTVSPropertyOp29
 70
     1
102
RTVSPropertyOp30
 70
     1
102
RTVSPropertyOp31
 70
     1
102
RTVSPropertyOp32
 70
     1
102
RTVSPropertyOp33
 70
     1
102
RTVSPropertyOp34
 70
     1
102
RTVSPropertyOp35
 70
     1
102
RTVSPropertyOp36
 70
     1
102
RTVSPropertyOp37
 70
     1
102
RTVSPropertyOp38
 70
     1
102
RTVSPropertyOp39
 70
     1
102
RTVSPropertyOp40
 70
     1
102
RTVSPropertyOp41
 70
     1
102
RTVSPropertyOp42
 70
     1
102
RTVSPropertyOp43
 70
     1
102
RTVSPropertyOp44
 70
     1
102
RTVSPropertyOp45
 70
     1
102
RTVSPropertyOp46
 70
     1
102
RTVSPropertyOp47
 70
     1
102
RTVSPropertyOp48
 70
     1
102
RTVSPropertyOp49
 70
     1
102
RTVSPropertyOp50
 70
     1
102
RTVSPropertyOp51
 70
     0
102
RTVSPropertyOp52
 70
     0
102
RTVSPropertyOp53
 70
     1
102
RTVSPropertyOp54
 70
     1
102
RTVSPropertyOp55
 70
     1
102
RTVSPropertyOp56
 70
     1
102
RTVSPropertyOp57
 70
     1
102
RTVSPropertyOp58
 70
     1
102
RTVSPropertyOp59
 70
     1
102
RTVSPropertyOp60
 70
     1
102
RTVSPropertyOp61
 70
     1
102
RTVSPropertyOp62
 70
     1
  0
XRECORD
  5
B5D6
102
{ACAD_REACTORS
330
B5D5
102
}
330
B5D5
100
AcDbXrecord
280
     1
102
RTVSPost2010Prop28
280
     0
102
RTVSPost2010PropOp28
 70
     1
102
RTVSPost2010Prop29
280
     1
102
RTVSPost2010PropOp29
 70
     1
102
RTVSPost2010Prop30
280
     1
102
RTVSPost2010PropOp30
 70
     1
102
RTVSPost2010Prop31
280
     0
102
RTVSPost2010PropOp31
 70
     1
102
RTVSPost2010Prop32
280
     0
102
RTVSPost2010PropOp32
 70
     1
102
RTVSPost2010Prop33
280
     0
102
RTVSPost2010PropOp33
 70
     1
102
RTVSPost2010Prop34
280
     0
102
RTVSPost2010PropOp34
 70
     1
102
RTVSPost2010Prop35
280
     0
102
RTVSPost2010PropOp35
 70
     1
102
RTVSPost2010Prop36
280
     0
102
RTVSPost2010PropOp36
 70
     1
102
RTVSPost2010Prop37
 90
       50
102
RTVSPost2010PropOp37
 70
     1
102
RTVSPost2010Prop38
140
0.0
102
RTVSPost2010PropOp38
 70
     1
102
RTVSPost2010Prop39
140
1.0
102
RTVSPost2010PropOp39
 70
     1
102
RTVSPost2010Prop40
 90
        0
102
RTVSPost2010PropOp40
 70
     1
102
RTVSPost2010Prop41ColorIndex
 90
       18
102
RTVSPost2010Prop41ColorRGB
 90
        0
102
RTVSPost2010PropOp41
 70
     1
102
RTVSPost2010Prop42
 90
       50
102
RTVSPost2010PropOp42
 70
     1
102
RTVSPost2010Prop43
 90
        3
102
RTVSPost2010PropOp43
 70
     1
102
RTVSPost2010Prop44ColorIndex
 90
        5
102
RTVSPost2010Prop44ColorRGB
 90
      255
102
RTVSPost2010PropOp44
 70
     1
102
RTVSPost2010Prop45
280
     0
102
RTVSPost2010PropOp45
 70
     1
102
RTVSPost2010Prop46
 90
       50
102
RTVSPost2010PropOp46
 70
     1
102
RTVSPost2010Prop47
 90
       50
102
RTVSPost2010PropOp47
 70
     1
102
RTVSPost2010Prop48
 90
       50
102
RTVSPost2010PropOp48
 70
     1
102
RTVSPost2010Prop49
280
     0
102
RTVSPost2010PropOp49
 70
     1
102
RTVSPost2010Prop50
 90
       50
102
RTVSPost2010PropOp50
 70
     1
102
RTVSPost2010Prop51ColorIndex
 90
      256
102
RTVSPost2010Prop51ColorRGB
 90
-16777216
102
RTVSPost2010PropOp51
 70
     0
102
RTVSPost2010Prop52
140
1.0
102
RTVSPost2010PropOp52
 70
     0
102
RTVSPost2010Prop53
 90
        2
102
RTVSPost2010PropOp53
 70
     1
102
RTVSPost2010Prop54
  1
strokes_ogs.tif
102
RTVSPost2010PropOp54
 70
     1
102
RTVSPost2010Prop55
280
     0
102
RTVSPost2010PropOp55
 70
     1
102
RTVSPost2010Prop56
140
1.0
102
RTVSPost2010PropOp56
 70
     1
102
RTVSPost2010Prop57
140
1.0
102
RTVSPost2010PropOp57
 70
     1
102
RTVSPropertyOp0
 70
     1
102
RTVSPropertyOp1
 70
     1
102
RTVSPropertyOp2
 70
     1
102
RTVSPropertyOp3
 70
     1
102
RTVSPropertyOp4
 70
     1
102
RTVSPropertyOp5
 70
     1
102
RTVSPropertyOp6
 70
     1
102
RTVSPropertyOp7
 70
     1
102
RTVSPropertyOp8
 70
     1
102
RTVSPropertyOp9
 70
     1
102
RTVSPropertyOp10
 70
     1
102
RTVSPropertyOp11
 70
     1
102
RTVSPropertyOp12
 70
     1
102
RTVSPropertyOp13
 70
     1
102
RTVSPropertyOp14
 70
     1
102
RTVSPropertyOp15
 70
     1
102
RTVSPropertyOp16
 70
     1
102
RTVSPropertyOp17
 70
     1
102
RTVSPropertyOp18
 70
     1
102
RTVSPropertyOp19
 70
     1
102
RTVSPropertyOp20
 70
     1
102
RTVSPropertyOp21
 70
     1
102
RTVSPropertyOp22
 70
     1
102
RTVSPropertyOp23
 70
     1
102
RTVSPropertyOp24
 70
     1
102
RTVSPropertyOp25
 70
     1
102
RTVSPropertyOp26
 70
     1
102
RTVSPropertyOp27
 70
     1
102
RTVSPropertyOp28
 70
     1
102
RTVSPropertyOp29
 70
     1
102
RTVSPropertyOp30
 70
     1
102
RTVSPropertyOp31
 70
     1
102
RTVSPropertyOp32
 70
     1
102
RTVSPropertyOp33
 70
     1
102
RTVSPropertyOp34
 70
     1
102
RTVSPropertyOp35
 70
     1
102
RTVSPropertyOp36
 70
     1
102
RTVSPropertyOp37
 70
     1
102
RTVSPropertyOp38
 70
     1
102
RTVSPropertyOp39
 70
     1
102
RTVSPropertyOp40
 70
     1
102
RTVSPropertyOp41
 70
     1
102
RTVSPropertyOp42
 70
     1
102
RTVSPropertyOp43
 70
     1
102
RTVSPropertyOp44
 70
     1
102
RTVSPropertyOp45
 70
     1
102
RTVSPropertyOp46
 70
     1
102
RTVSPropertyOp47
 70
     1
102
RTVSPropertyOp48
 70
     1
102
RTVSPropertyOp49
 70
     1
102
RTVSPropertyOp50
 70
     1
102
RTVSPropertyOp51
 70
     0
102
RTVSPropertyOp52
 70
     0
102
RTVSPropertyOp53
 70
     1
102
RTVSPropertyOp54
 70
     1
102
RTVSPropertyOp55
 70
     1
102
RTVSPropertyOp56
 70
     1
102
RTVSPropertyOp57
 70
     1
102
RTVSPropertyOp58
 70
     1
102
RTVSPropertyOp59
 70
     1
102
RTVSPropertyOp60
 70
     1
102
RTVSPropertyOp61
 70
     1
102
RTVSPropertyOp62
 70
     1
  0
XRECORD
  5
B5D8
102
{ACAD_REACTORS
330
B5D7
102
}
330
B5D7
100
AcDbXrecord
280
     1
102
RTVSPost2010Prop28
280
     0
102
RTVSPost2010PropOp28
 70
     1
102
RTVSPost2010Prop29
280
     1
102
RTVSPost2010PropOp29
 70
     1
102
RTVSPost2010Prop30
280
     1
102
RTVSPost2010PropOp30
 70
     1
102
RTVSPost2010Prop31
280
     0
102
RTVSPost2010PropOp31
 70
     1
102
RTVSPost2010Prop32
280
     0
102
RTVSPost2010PropOp32
 70
     1
102
RTVSPost2010Prop33
280
     0
102
RTVSPost2010PropOp33
 70
     1
102
RTVSPost2010Prop34
280
     0
102
RTVSPost2010PropOp34
 70
     1
102
RTVSPost2010Prop35
280
     0
102
RTVSPost2010PropOp35
 70
     1
102
RTVSPost2010Prop36
280
     0
102
RTVSPost2010PropOp36
 70
     1
102
RTVSPost2010Prop37
 90
       50
102
RTVSPost2010PropOp37
 70
     1
102
RTVSPost2010Prop38
140
0.0
102
RTVSPost2010PropOp38
 70
     1
102
RTVSPost2010Prop39
140
1.0
102
RTVSPost2010PropOp39
 70
     1
102
RTVSPost2010Prop40
 90
        0
102
RTVSPost2010PropOp40
 70
     1
102
RTVSPost2010Prop41ColorIndex
 90
       18
102
RTVSPost2010Prop41ColorRGB
 90
        0
102
RTVSPost2010PropOp41
 70
     1
102
RTVSPost2010Prop42
 90
       50
102
RTVSPost2010PropOp42
 70
     1
102
RTVSPost2010Prop43
 90
        3
102
RTVSPost2010PropOp43
 70
     1
102
RTVSPost2010Prop44ColorIndex
 90
        5
102
RTVSPost2010Prop44ColorRGB
 90
      255
102
RTVSPost2010PropOp44
 70
     1
102
RTVSPost2010Prop45
280
     0
102
RTVSPost2010PropOp45
 70
     1
102
RTVSPost2010Prop46
 90
       50
102
RTVSPost2010PropOp46
 70
     1
102
RTVSPost2010Prop47
 90
       50
102
RTVSPost2010PropOp47
 70
     1
102
RTVSPost2010Prop48
 90
       50
102
RTVSPost2010PropOp48
 70
     1
102
RTVSPost2010Prop49
280
     0
102
RTVSPost2010PropOp49
 70
     1
102
RTVSPost2010Prop50
 90
       50
102
RTVSPost2010PropOp50
 70
     1
102
RTVSPost2010Prop51ColorIndex
 90
      256
102
RTVSPost2010Prop51ColorRGB
 90
-16777216
102
RTVSPost2010PropOp51
 70
     0
102
RTVSPost2010Prop52
140
1.0
102
RTVSPost2010PropOp52
 70
     0
102
RTVSPost2010Prop53
 90
        2
102
RTVSPost2010PropOp53
 70
     1
102
RTVSPost2010Prop54
  1
strokes_ogs.tif
102
RTVSPost2010PropOp54
 70
     1
102
RTVSPost2010Prop55
280
     0
102
RTVSPost2010PropOp55
 70
     1
102
RTVSPost2010Prop56
140
1.0
102
RTVSPost2010PropOp56
 70
     1
102
RTVSPost2010Prop57
140
1.0
102
RTVSPost2010PropOp57
 70
     1
102
RTVSPropertyOp0
 70
     1
102
RTVSPropertyOp1
 70
     1
102
RTVSPropertyOp2
 70
     1
102
RTVSPropertyOp3
 70
     1
102
RTVSPropertyOp4
 70
     1
102
RTVSPropertyOp5
 70
     1
102
RTVSPropertyOp6
 70
     1
102
RTVSPropertyOp7
 70
     1
102
RTVSPropertyOp8
 70
     1
102
RTVSPropertyOp9
 70
     1
102
RTVSPropertyOp10
 70
     1
102
RTVSPropertyOp11
 70
     1
102
RTVSPropertyOp12
 70
     1
102
RTVSPropertyOp13
 70
     1
102
RTVSPropertyOp14
 70
     1
102
RTVSPropertyOp15
 70
     1
102
RTVSPropertyOp16
 70
     1
102
RTVSPropertyOp17
 70
     1
102
RTVSPropertyOp18
 70
     1
102
RTVSPropertyOp19
 70
     1
102
RTVSPropertyOp20
 70
     1
102
RTVSPropertyOp21
 70
     1
102
RTVSPropertyOp22
 70
     1
102
RTVSPropertyOp23
 70
     1
102
RTVSPropertyOp24
 70
     1
102
RTVSPropertyOp25
 70
     1
102
RTVSPropertyOp26
 70
     1
102
RTVSPropertyOp27
 70
     1
102
RTVSPropertyOp28
 70
     1
102
RTVSPropertyOp29
 70
     1
102
RTVSPropertyOp30
 70
     1
102
RTVSPropertyOp31
 70
     1
102
RTVSPropertyOp32
 70
     1
102
RTVSPropertyOp33
 70
     1
102
RTVSPropertyOp34
 70
     1
102
RTVSPropertyOp35
 70
     1
102
RTVSPropertyOp36
 70
     1
102
RTVSPropertyOp37
 70
     1
102
RTVSPropertyOp38
 70
     1
102
RTVSPropertyOp39
 70
     1
102
RTVSPropertyOp40
 70
     1
102
RTVSPropertyOp41
 70
     1
102
RTVSPropertyOp42
 70
     1
102
RTVSPropertyOp43
 70
     1
102
RTVSPropertyOp44
 70
     1
102
RTVSPropertyOp45
 70
     1
102
RTVSPropertyOp46
 70
     1
102
RTVSPropertyOp47
 70
     1
102
RTVSPropertyOp48
 70
     1
102
RTVSPropertyOp49
 70
     1
102
RTVSPropertyOp50
 70
     1
102
RTVSPropertyOp51
 70
     0
102
RTVSPropertyOp52
 70
     0
102
RTVSPropertyOp53
 70
     1
102
RTVSPropertyOp54
 70
     1
102
RTVSPropertyOp55
 70
     1
102
RTVSPropertyOp56
 70
     1
102
RTVSPropertyOp57
 70
     1
102
RTVSPropertyOp58
 70
     1
102
RTVSPropertyOp59
 70
     1
102
RTVSPropertyOp60
 70
     1
102
RTVSPropertyOp61
 70
     1
102
RTVSPropertyOp62
 70
     1
  0
XRECORD
  5
B5CE
102
{ACAD_REACTORS
330
B5CD
102
}
330
B5CD
100
AcDbXrecord
280
     1
102
RTVSPost2010Prop28
280
     0
102
RTVSPost2010PropOp28
 70
     1
102
RTVSPost2010Prop29
280
     1
102
RTVSPost2010PropOp29
 70
     1
102
RTVSPost2010Prop30
280
     1
102
RTVSPost2010PropOp30
 70
     1
102
RTVSPost2010Prop31
280
     0
102
RTVSPost2010PropOp31
 70
     1
102
RTVSPost2010Prop32
280
     0
102
RTVSPost2010PropOp32
 70
     1
102
RTVSPost2010Prop33
280
     0
102
RTVSPost2010PropOp33
 70
     1
102
RTVSPost2010Prop34
280
     0
102
RTVSPost2010PropOp34
 70
     1
102
RTVSPost2010Prop35
280
     0
102
RTVSPost2010PropOp35
 70
     1
102
RTVSPost2010Prop36
280
     0
102
RTVSPost2010PropOp36
 70
     1
102
RTVSPost2010Prop37
 90
       50
102
RTVSPost2010PropOp37
 70
     1
102
RTVSPost2010Prop38
140
0.0
102
RTVSPost2010PropOp38
 70
     1
102
RTVSPost2010Prop39
140
1.0
102
RTVSPost2010PropOp39
 70
     1
102
RTVSPost2010Prop40
 90
        0
102
RTVSPost2010PropOp40
 70
     1
102
RTVSPost2010Prop41ColorIndex
 90
       18
102
RTVSPost2010Prop41ColorRGB
 90
        0
102
RTVSPost2010PropOp41
 70
     1
102
RTVSPost2010Prop42
 90
       50
102
RTVSPost2010PropOp42
 70
     1
102
RTVSPost2010Prop43
 90
        3
102
RTVSPost2010PropOp43
 70
     1
102
RTVSPost2010Prop44ColorIndex
 90
        5
102
RTVSPost2010Prop44ColorRGB
 90
      255
102
RTVSPost2010PropOp44
 70
     1
102
RTVSPost2010Prop45
280
     0
102
RTVSPost2010PropOp45
 70
     1
102
RTVSPost2010Prop46
 90
       50
102
RTVSPost2010PropOp46
 70
     1
102
RTVSPost2010Prop47
 90
       50
102
RTVSPost2010PropOp47
 70
     1
102
RTVSPost2010Prop48
 90
       50
102
RTVSPost2010PropOp48
 70
     1
102
RTVSPost2010Prop49
280
     0
102
RTVSPost2010PropOp49
 70
     1
102
RTVSPost2010Prop50
 90
       50
102
RTVSPost2010PropOp50
 70
     1
102
RTVSPost2010Prop51ColorIndex
 90
      256
102
RTVSPost2010Prop51ColorRGB
 90
-16777216
102
RTVSPost2010PropOp51
 70
     0
102
RTVSPost2010Prop52
140
1.0
102
RTVSPost2010PropOp52
 70
     0
102
RTVSPost2010Prop53
 90
        2
102
RTVSPost2010PropOp53
 70
     1
102
RTVSPost2010Prop54
  1
strokes_ogs.tif
102
RTVSPost2010PropOp54
 70
     1
102
RTVSPost2010Prop55
280
     0
102
RTVSPost2010PropOp55
 70
     1
102
RTVSPost2010Prop56
140
1.0
102
RTVSPost2010PropOp56
 70
     1
102
RTVSPost2010Prop57
140
1.0
102
RTVSPost2010PropOp57
 70
     1
102
RTVSPropertyOp0
 70
     1
102
RTVSPropertyOp1
 70
     1
102
RTVSPropertyOp2
 70
     1
102
RTVSPropertyOp3
 70
     1
102
RTVSPropertyOp4
 70
     1
102
RTVSPropertyOp5
 70
     1
102
RTVSPropertyOp6
 70
     1
102
RTVSPropertyOp7
 70
     1
102
RTVSPropertyOp8
 70
     1
102
RTVSPropertyOp9
 70
     1
102
RTVSPropertyOp10
 70
     1
102
RTVSPropertyOp11
 70
     1
102
RTVSPropertyOp12
 70
     1
102
RTVSPropertyOp13
 70
     1
102
RTVSPropertyOp14
 70
     1
102
RTVSPropertyOp15
 70
     1
102
RTVSPropertyOp16
 70
     1
102
RTVSPropertyOp17
 70
     1
102
RTVSPropertyOp18
 70
     1
102
RTVSPropertyOp19
 70
     1
102
RTVSPropertyOp20
 70
     1
102
RTVSPropertyOp21
 70
     1
102
RTVSPropertyOp22
 70
     1
102
RTVSPropertyOp23
 70
     1
102
RTVSPropertyOp24
 70
     1
102
RTVSPropertyOp25
 70
     1
102
RTVSPropertyOp26
 70
     1
102
RTVSPropertyOp27
 70
     1
102
RTVSPropertyOp28
 70
     1
102
RTVSPropertyOp29
 70
     1
102
RTVSPropertyOp30
 70
     1
102
RTVSPropertyOp31
 70
     1
102
RTVSPropertyOp32
 70
     1
102
RTVSPropertyOp33
 70
     1
102
RTVSPropertyOp34
 70
     1
102
RTVSPropertyOp35
 70
     1
102
RTVSPropertyOp36
 70
     1
102
RTVSPropertyOp37
 70
     1
102
RTVSPropertyOp38
 70
     1
102
RTVSPropertyOp39
 70
     1
102
RTVSPropertyOp40
 70
     1
102
RTVSPropertyOp41
 70
     1
102
RTVSPropertyOp42
 70
     1
102
RTVSPropertyOp43
 70
     1
102
RTVSPropertyOp44
 70
     1
102
RTVSPropertyOp45
 70
     1
102
RTVSPropertyOp46
 70
     1
102
RTVSPropertyOp47
 70
     1
102
RTVSPropertyOp48
 70
     1
102
RTVSPropertyOp49
 70
     1
102
RTVSPropertyOp50
 70
     1
102
RTVSPropertyOp51
 70
     0
102
RTVSPropertyOp52
 70
     0
102
RTVSPropertyOp53
 70
     1
102
RTVSPropertyOp54
 70
     1
102
RTVSPropertyOp55
 70
     1
102
RTVSPropertyOp56
 70
     1
102
RTVSPropertyOp57
 70
     1
102
RTVSPropertyOp58
 70
     1
102
RTVSPropertyOp59
 70
     1
102
RTVSPropertyOp60
 70
     1
102
RTVSPropertyOp61
 70
     1
102
RTVSPropertyOp62
 70
     1
  0
XRECORD
  5
B5C2
102
{ACAD_REACTORS
330
B5C1
102
}
330
B5C1
100
AcDbXrecord
280
     1
102
RTVSPost2010Prop28
280
     0
102
RTVSPost2010PropOp28
 70
     1
102
RTVSPost2010Prop29
280
     1
102
RTVSPost2010PropOp29
 70
     1
102
RTVSPost2010Prop30
280
     1
102
RTVSPost2010PropOp30
 70
     1
102
RTVSPost2010Prop31
280
     0
102
RTVSPost2010PropOp31
 70
     1
102
RTVSPost2010Prop32
280
     0
102
RTVSPost2010PropOp32
 70
     1
102
RTVSPost2010Prop33
280
     0
102
RTVSPost2010PropOp33
 70
     1
102
RTVSPost2010Prop34
280
     0
102
RTVSPost2010PropOp34
 70
     1
102
RTVSPost2010Prop35
280
     0
102
RTVSPost2010PropOp35
 70
     1
102
RTVSPost2010Prop36
280
     0
102
RTVSPost2010PropOp36
 70
     1
102
RTVSPost2010Prop37
 90
       50
102
RTVSPost2010PropOp37
 70
     1
102
RTVSPost2010Prop38
140
0.0
102
RTVSPost2010PropOp38
 70
     1
102
RTVSPost2010Prop39
140
1.0
102
RTVSPost2010PropOp39
 70
     1
102
RTVSPost2010Prop40
 90
        0
102
RTVSPost2010PropOp40
 70
     1
102
RTVSPost2010Prop41ColorIndex
 90
       18
102
RTVSPost2010Prop41ColorRGB
 90
        0
102
RTVSPost2010PropOp41
 70
     1
102
RTVSPost2010Prop42
 90
       50
102
RTVSPost2010PropOp42
 70
     1
102
RTVSPost2010Prop43
 90
        3
102
RTVSPost2010PropOp43
 70
     1
102
RTVSPost2010Prop44ColorIndex
 90
        5
102
RTVSPost2010Prop44ColorRGB
 90
      255
102
RTVSPost2010PropOp44
 70
     1
102
RTVSPost2010Prop45
280
     0
102
RTVSPost2010PropOp45
 70
     1
102
RTVSPost2010Prop46
 90
       50
102
RTVSPost2010PropOp46
 70
     1
102
RTVSPost2010Prop47
 90
       50
102
RTVSPost2010PropOp47
 70
     1
102
RTVSPost2010Prop48
 90
       50
102
RTVSPost2010PropOp48
 70
     1
102
RTVSPost2010Prop49
280
     0
102
RTVSPost2010PropOp49
 70
     1
102
RTVSPost2010Prop50
 90
       50
102
RTVSPost2010PropOp50
 70
     1
102
RTVSPost2010Prop51ColorIndex
 90
      256
102
RTVSPost2010Prop51ColorRGB
 90
-16777216
102
RTVSPost2010PropOp51
 70
     0
102
RTVSPost2010Prop52
140
1.0
102
RTVSPost2010PropOp52
 70
     0
102
RTVSPost2010Prop53
 90
        2
102
RTVSPost2010PropOp53
 70
     1
102
RTVSPost2010Prop54
  1
strokes_ogs.tif
102
RTVSPost2010PropOp54
 70
     1
102
RTVSPost2010Prop55
280
     0
102
RTVSPost2010PropOp55
 70
     1
102
RTVSPost2010Prop56
140
1.0
102
RTVSPost2010PropOp56
 70
     1
102
RTVSPost2010Prop57
140
1.0
102
RTVSPost2010PropOp57
 70
     1
102
RTVSPropertyOp0
 70
     1
102
RTVSPropertyOp1
 70
     1
102
RTVSPropertyOp2
 70
     1
102
RTVSPropertyOp3
 70
     1
102
RTVSPropertyOp4
 70
     1
102
RTVSPropertyOp5
 70
     1
102
RTVSPropertyOp6
 70
     1
102
RTVSPropertyOp7
 70
     1
102
RTVSPropertyOp8
 70
     1
102
RTVSPropertyOp9
 70
     1
102
RTVSPropertyOp10
 70
     1
102
RTVSPropertyOp11
 70
     1
102
RTVSPropertyOp12
 70
     1
102
RTVSPropertyOp13
 70
     1
102
RTVSPropertyOp14
 70
     1
102
RTVSPropertyOp15
 70
     1
102
RTVSPropertyOp16
 70
     1
102
RTVSPropertyOp17
 70
     1
102
RTVSPropertyOp18
 70
     1
102
RTVSPropertyOp19
 70
     1
102
RTVSPropertyOp20
 70
     1
102
RTVSPropertyOp21
 70
     1
102
RTVSPropertyOp22
 70
     1
102
RTVSPropertyOp23
 70
     1
102
RTVSPropertyOp24
 70
     1
102
RTVSPropertyOp25
 70
     1
102
RTVSPropertyOp26
 70
     1
102
RTVSPropertyOp27
 70
     1
102
RTVSPropertyOp28
 70
     1
102
RTVSPropertyOp29
 70
     1
102
RTVSPropertyOp30
 70
     1
102
RTVSPropertyOp31
 70
     1
102
RTVSPropertyOp32
 70
     1
102
RTVSPropertyOp33
 70
     1
102
RTVSPropertyOp34
 70
     1
102
RTVSPropertyOp35
 70
     1
102
RTVSPropertyOp36
 70
     1
102
RTVSPropertyOp37
 70
     1
102
RTVSPropertyOp38
 70
     1
102
RTVSPropertyOp39
 70
     1
102
RTVSPropertyOp40
 70
     1
102
RTVSPropertyOp41
 70
     1
102
RTVSPropertyOp42
 70
     1
102
RTVSPropertyOp43
 70
     1
102
RTVSPropertyOp44
 70
     1
102
RTVSPropertyOp45
 70
     1
102
RTVSPropertyOp46
 70
     1
102
RTVSPropertyOp47
 70
     1
102
RTVSPropertyOp48
 70
     1
102
RTVSPropertyOp49
 70
     1
102
RTVSPropertyOp50
 70
     1
102
RTVSPropertyOp51
 70
     0
102
RTVSPropertyOp52
 70
     0
102
RTVSPropertyOp53
 70
     1
102
RTVSPropertyOp54
 70
     1
102
RTVSPropertyOp55
 70
     1
102
RTVSPropertyOp56
 70
     1
102
RTVSPropertyOp57
 70
     1
102
RTVSPropertyOp58
 70
     1
102
RTVSPropertyOp59
 70
     1
102
RTVSPropertyOp60
 70
     1
102
RTVSPropertyOp61
 70
     1
102
RTVSPropertyOp62
 70
     1
  0
XRECORD
  5
B5DA
102
{ACAD_REACTORS
330
B5D9
102
}
330
B5D9
100
AcDbXrecord
280
     1
102
RTVSPost2010Prop28
280
     0
102
RTVSPost2010PropOp28
 70
     1
102
RTVSPost2010Prop29
280
     1
102
RTVSPost2010PropOp29
 70
     1
102
RTVSPost2010Prop30
280
     1
102
RTVSPost2010PropOp30
 70
     1
102
RTVSPost2010Prop31
280
     0
102
RTVSPost2010PropOp31
 70
     1
102
RTVSPost2010Prop32
280
     0
102
RTVSPost2010PropOp32
 70
     1
102
RTVSPost2010Prop33
280
     0
102
RTVSPost2010PropOp33
 70
     1
102
RTVSPost2010Prop34
280
     0
102
RTVSPost2010PropOp34
 70
     1
102
RTVSPost2010Prop35
280
     0
102
RTVSPost2010PropOp35
 70
     1
102
RTVSPost2010Prop36
280
     0
102
RTVSPost2010PropOp36
 70
     1
102
RTVSPost2010Prop37
 90
       50
102
RTVSPost2010PropOp37
 70
     1
102
RTVSPost2010Prop38
140
0.0
102
RTVSPost2010PropOp38
 70
     1
102
RTVSPost2010Prop39
140
1.0
102
RTVSPost2010PropOp39
 70
     1
102
RTVSPost2010Prop40
 90
        0
102
RTVSPost2010PropOp40
 70
     1
102
RTVSPost2010Prop41ColorIndex
 90
       18
102
RTVSPost2010Prop41ColorRGB
 90
        0
102
RTVSPost2010PropOp41
 70
     1
102
RTVSPost2010Prop42
 90
       50
102
RTVSPost2010PropOp42
 70
     1
102
RTVSPost2010Prop43
 90
        3
102
RTVSPost2010PropOp43
 70
     1
102
RTVSPost2010Prop44ColorIndex
 90
        5
102
RTVSPost2010Prop44ColorRGB
 90
      255
102
RTVSPost2010PropOp44
 70
     1
102
RTVSPost2010Prop45
280
     0
102
RTVSPost2010PropOp45
 70
     1
102
RTVSPost2010Prop46
 90
       50
102
RTVSPost2010PropOp46
 70
     1
102
RTVSPost2010Prop47
 90
       50
102
RTVSPost2010PropOp47
 70
     1
102
RTVSPost2010Prop48
 90
       50
102
RTVSPost2010PropOp48
 70
     1
102
RTVSPost2010Prop49
280
     0
102
RTVSPost2010PropOp49
 70
     1
102
RTVSPost2010Prop50
 90
       50
102
RTVSPost2010PropOp50
 70
     1
102
RTVSPost2010Prop51ColorIndex
 90
      256
102
RTVSPost2010Prop51ColorRGB
 90
-16777216
102
RTVSPost2010PropOp51
 70
     0
102
RTVSPost2010Prop52
140
1.0
102
RTVSPost2010PropOp52
 70
     0
102
RTVSPost2010Prop53
 90
        2
102
RTVSPost2010PropOp53
 70
     1
102
RTVSPost2010Prop54
  1
strokes_ogs.tif
102
RTVSPost2010PropOp54
 70
     1
102
RTVSPost2010Prop55
280
     0
102
RTVSPost2010PropOp55
 70
     1
102
RTVSPost2010Prop56
140
1.0
102
RTVSPost2010PropOp56
 70
     1
102
RTVSPost2010Prop57
140
1.0
102
RTVSPost2010PropOp57
 70
     1
102
RTVSPropertyOp0
 70
     1
102
RTVSPropertyOp1
 70
     1
102
RTVSPropertyOp2
 70
     1
102
RTVSPropertyOp3
 70
     1
102
RTVSPropertyOp4
 70
     1
102
RTVSPropertyOp5
 70
     1
102
RTVSPropertyOp6
 70
     1
102
RTVSPropertyOp7
 70
     1
102
RTVSPropertyOp8
 70
     1
102
RTVSPropertyOp9
 70
     1
102
RTVSPropertyOp10
 70
     1
102
RTVSPropertyOp11
 70
     1
102
RTVSPropertyOp12
 70
     1
102
RTVSPropertyOp13
 70
     1
102
RTVSPropertyOp14
 70
     1
102
RTVSPropertyOp15
 70
     1
102
RTVSPropertyOp16
 70
     1
102
RTVSPropertyOp17
 70
     1
102
RTVSPropertyOp18
 70
     1
102
RTVSPropertyOp19
 70
     1
102
RTVSPropertyOp20
 70
     1
102
RTVSPropertyOp21
 70
     1
102
RTVSPropertyOp22
 70
     1
102
RTVSPropertyOp23
 70
     1
102
RTVSPropertyOp24
 70
     1
102
RTVSPropertyOp25
 70
     1
102
RTVSPropertyOp26
 70
     1
102
RTVSPropertyOp27
 70
     1
102
RTVSPropertyOp28
 70
     1
102
RTVSPropertyOp29
 70
     1
102
RTVSPropertyOp30
 70
     1
102
RTVSPropertyOp31
 70
     1
102
RTVSPropertyOp32
 70
     1
102
RTVSPropertyOp33
 70
     1
102
RTVSPropertyOp34
 70
     1
102
RTVSPropertyOp35
 70
     1
102
RTVSPropertyOp36
 70
     1
102
RTVSPropertyOp37
 70
     1
102
RTVSPropertyOp38
 70
     1
102
RTVSPropertyOp39
 70
     1
102
RTVSPropertyOp40
 70
     1
102
RTVSPropertyOp41
 70
     1
102
RTVSPropertyOp42
 70
     1
102
RTVSPropertyOp43
 70
     1
102
RTVSPropertyOp44
 70
     1
102
RTVSPropertyOp45
 70
     1
102
RTVSPropertyOp46
 70
     1
102
RTVSPropertyOp47
 70
     1
102
RTVSPropertyOp48
 70
     1
102
RTVSPropertyOp49
 70
     1
102
RTVSPropertyOp50
 70
     1
102
RTVSPropertyOp51
 70
     0
102
RTVSPropertyOp52
 70
     0
102
RTVSPropertyOp53
 70
     1
102
RTVSPropertyOp54
 70
     1
102
RTVSPropertyOp55
 70
     1
102
RTVSPropertyOp56
 70
     1
102
RTVSPropertyOp57
 70
     1
102
RTVSPropertyOp58
 70
     1
102
RTVSPropertyOp59
 70
     1
102
RTVSPropertyOp60
 70
     1
102
RTVSPropertyOp61
 70
     1
102
RTVSPropertyOp62
 70
     1
  0
ENDSEC
  0
EOF
