  0
SECTION
  2
HEADER
  9
$ACADVER
  1
AC1015
  9
$ACADMAINTVER
 70
    20
  9
$DWGCODEPAGE
  3
ANSI_932
  9
$INSBASE
 10
0.0
 20
0.0
 30
0.0
  9
$EXTMIN
 10
10.0
 20
9.999999999999998
 30
0.0
  9
$EXTMAX
 10
247.345952
 20
230.0978
 30
0.0
  9
$LIMMIN
 10
0.0
 20
0.0
  9
$LIMMAX
 10
396.0
 20
273.0
  9
$ORTHOMODE
 70
     1
  9
$REGENMODE
 70
     1
  9
$FILLMODE
 70
     1
  9
$QTEXTMODE
 70
     0
  9
$MIRRTEXT
 70
     1
  9
$LTSCALE
 40
20.0
  9
$ATTMODE
 70
     1
  9
$TEXTSIZE
 40
5.0
  9
$TRACEWID
 40
1.0
  9
$TEXTSTYLE
  7
STANDARD
  9
$CLAYER
  8
0
  9
$CELTYPE
  6
BYLAYER
  9
$CECOLOR
 62
   256
  9
$CELTSCALE
 40
1.0
  9
$DISPSILH
 70
     0
  9
$DIMSCALE
 40
1.0
  9
$DIMASZ
 40
2.5
  9
$DIMEXO
 40
1.0
  9
$DIMDLI
 40
10.0
  9
$DIMRND
 40
0.0
  9
$DIMDLE
 40
0.0
  9
$DIMEXE
 40
1.0
  9
$DIMTP
 40
0.0
  9
$DIMTM
 40
0.0
  9
$DIMTXT
 40
3.2
  9
$DIMCEN
 40
0.0
  9
$DIMTSZ
 40
0.0
  9
$DIMTOL
 70
     0
  9
$DIMLIM
 70
     0
  9
$DIMTIH
 70
     0
  9
$DIMTOH
 70
     0
  9
$DIMSE1
 70
     0
  9
$DIMSE2
 70
     0
  9
$DIMTAD
 70
     3
  9
$DIMZIN
 70
     8
  9
$DIMBLK
  1

  9
$DIMASO
 70
     1
  9
$DIMSHO
 70
     1
  9
$DIMPOST
  1

  9
$DIMAPOST
  1

  9
$DIMALT
 70
     0
  9
$DIMALTD
 70
     2
  9
$DIMALTF
 40
25.4
  9
$DIMLFAC
 40
1.0
  9
$DIMTOFL
 70
     1
  9
$DIMTVP
 40
0.0
  9
$DIMTIX
 70
     0
  9
$DIMSOXD
 70
     0
  9
$DIMSAH
 70
     1
  9
$DIMBLK1
  1

  9
$DIMBLK2
  1

  9
$DIMSTYLE
  2
STANDARD
  9
$DIMCLRD
 70
     0
  9
$DIMCLRE
 70
     0
  9
$DIMCLRT
 70
     0
  9
$DIMTFAC
 40
1.0
  9
$DIMGAP
 40
1.0
  9
$DIMJUST
 70
     0
  9
$DIMSD1
 70
     0
  9
$DIMSD2
 70
     0
  9
$DIMTOLJ
 70
     1
  9
$DIMTZIN
 70
     0
  9
$DIMALTZ
 70
     0
  9
$DIMALTTZ
 70
     0
  9
$DIMUPT
 70
     0
  9
$DIMDEC
 70
     4
  9
$DIMTDEC
 70
     4
  9
$DIMALTU
 70
     2
  9
$DIMALTTD
 70
     2
  9
$DIMTXSTY
  7
STANDARD
  9
$DIMAUNIT
 70
     0
  9
$DIMADEC
 70
     0
  9
$DIMALTRND
 40
0.0
  9
$DIMAZIN
 70
     0
  9
$DIMDSEP
 70
    46
  9
$DIMATFIT
 70
     3
  9
$DIMFRAC
 70
     0
  9
$DIMLDRBLK
  1

  9
$DIMLUNIT
 70
     2
  9
$DIMLWD
 70
    -2
  9
$DIMLWE
 70
    -2
  9
$DIMTMOVE
 70
     0
  9
$LUNITS
 70
     2
  9
$LUPREC
 70
     4
  9
$SKETCHINC
 40
1.0
  9
$FILLETRAD
 40
1.0
  9
$AUNITS
 70
     0
  9
$AUPREC
 70
     2
  9
$MENU
  1
.
  9
$ELEVATION
 40
0.0
  9
$PELEVATION
 40
0.0
  9
$THICKNESS
 40
0.0
  9
$LIMCHECK
 70
     0
  9
$CHAMFERA
 40
10.0
  9
$CHAMFERB
 40
10.0
  9
$CHAMFERC
 40
0.0
  9
$CHAMFERD
 40
0.0
  9
$SKPOLY
 70
     0
  9
$TDCREATE
 40
2451296.794904745
  9
$TDUCREATE
 40
2451296.419904745
  9
$TDUPDATE
 40
2457192.658290706
  9
$TDUUPDATE
 40
2457192.283290706
  9
$TDINDWG
 40
0.0000108796
  9
$TDUSRTIMER
 40
0.0000105671
  9
$USRTIMER
 70
     1
  9
$ANGBASE
 50
0.0
  9
$ANGDIR
 70
     0
  9
$PDMODE
 70
     0
  9
$PDSIZE
 40
0.0
  9
$PLINEWID
 40
0.0
  9
$SPLFRAME
 70
     0
  9
$SPLINETYPE
 70
     6
  9
$SPLINESEGS
 70
     8
  9
$HANDSEED
  5
BD57
  9
$SURFTAB1
 70
     6
  9
$SURFTAB2
 70
     6
  9
$SURFTYPE
 70
     6
  9
$SURFU
 70
     6
  9
$SURFV
 70
     6
  9
$UCSBASE
  2

  9
$UCSNAME
  2

  9
$UCSORG
 10
0.0
 20
0.0
 30
0.0
  9
$UCSXDIR
 10
1.0
 20
0.0
 30
0.0
  9
$UCSYDIR
 10
0.0
 20
1.0
 30
0.0
  9
$UCSORTHOREF
  2

  9
$UCSORTHOVIEW
 70
     0
  9
$UCSORGTOP
 10
0.0
 20
0.0
 30
0.0
  9
$UCSORGBOTTOM
 10
0.0
 20
0.0
 30
0.0
  9
$UCSORGLEFT
 10
0.0
 20
0.0
 30
0.0
  9
$UCSORGRIGHT
 10
0.0
 20
0.0
 30
0.0
  9
$UCSORGFRONT
 10
0.0
 20
0.0
 30
0.0
  9
$UCSORGBACK
 10
0.0
 20
0.0
 30
0.0
  9
$PUCSBASE
  2

  9
$PUCSNAME
  2

  9
$PUCSORG
 10
0.0
 20
0.0
 30
0.0
  9
$PUCSXDIR
 10
1.0
 20
0.0
 30
0.0
  9
$PUCSYDIR
 10
0.0
 20
1.0
 30
0.0
  9
$PUCSORTHOREF
  2

  9
$PUCSORTHOVIEW
 70
     0
  9
$PUCSORGTOP
 10
0.0
 20
0.0
 30
0.0
  9
$PUCSORGBOTTOM
 10
0.0
 20
0.0
 30
0.0
  9
$PUCSORGLEFT
 10
0.0
 20
0.0
 30
0.0
  9
$PUCSORGRIGHT
 10
0.0
 20
0.0
 30
0.0
  9
$PUCSORGFRONT
 10
0.0
 20
0.0
 30
0.0
  9
$PUCSORGBACK
 10
0.0
 20
0.0
 30
0.0
  9
$USERI1
 70
     0
  9
$USERI2
 70
     0
  9
$USERI3
 70
     0
  9
$USERI4
 70
     0
  9
$USERI5
 70
     0
  9
$USERR1
 40
0.0
  9
$USERR2
 40
0.0
  9
$USERR3
 40
0.0
  9
$USERR4
 40
0.0
  9
$USERR5
 40
0.0
  9
$WORLDVIEW
 70
     1
  9
$SHADEDGE
 70
     3
  9
$SHADEDIF
 70
    70
  9
$TILEMODE
 70
     1
  9
$MAXACTVP
 70
    16
  9
$PINSBASE
 10
0.0
 20
0.0
 30
0.0
  9
$PLIMCHECK
 70
     0
  9
$PEXTMIN
 10
1.000000000000000E+20
 20
1.000000000000000E+20
 30
1.000000000000000E+20
  9
$PEXTMAX
 10
-1.000000000000000E+20
 20
-1.000000000000000E+20
 30
-1.000000000000000E+20
  9
$PLIMMIN
 10
0.0
 20
0.0
  9
$PLIMMAX
 10
420.0
 20
297.0
  9
$UNITMODE
 70
     0
  9
$VISRETAIN
 70
     0
  9
$PLINEGEN
 70
     0
  9
$PSLTSCALE
 70
     0
  9
$TREEDEPTH
 70
  3020
  9
$CMLSTYLE
  2
STANDARD
  9
$CMLJUST
 70
     0
  9
$CMLSCALE
 40
1.0
  9
$PROXYGRAPHICS
 70
     1
  9
$MEASUREMENT
 70
     0
  9
$CELWEIGHT
370
    -1
  9
$ENDCAPS
280
     0
  9
$JOINSTYLE
280
     0
  9
$LWDISPLAY
290
     0
  9
$INSUNITS
 70
     0
  9
$HYPERLINKBASE
  1

  9
$STYLESHEET
  1

  9
$XEDIT
290
     1
  9
$CEPSNTYPE
380
     0
  9
$PSTYLEMODE
290
     1
  9
$FINGERPRINTGUID
  2
{1CC87FE5-69F1-4112-95E7-39A4226CB9D6}
  9
$VERSIONGUID
  2
{3E63E0F8-92D4-4333-9446-153063E77740}
  9
$EXTNAMES
290
     1
  9
$PSVPSCALE
 40
0.0
  9
$OLESTARTUP
290
     0
  0
ENDSEC
  0
SECTION
  2
CLASSES
  0
CLASS
  1
ACDBDICTIONARYWDFLT
  2
AcDbDictionaryWithDefault
  3
ObjectDBX Classes
 90
        0
280
     0
281
     0
  0
CLASS
  1
ACDBPLACEHOLDER
  2
AcDbPlaceHolder
  3
ObjectDBX Classes
 90
        0
280
     0
281
     0
  0
CLASS
  1
LAYOUT
  2
AcDbLayout
  3
ObjectDBX Classes
 90
        0
280
     0
281
     0
  0
CLASS
  1
DICTIONARYVAR
  2
AcDbDictionaryVar
  3
ObjectDBX Classes
 90
        0
280
     0
281
     0
  0
CLASS
  1
MATERIAL
  2
AcDbMaterial
  3
ObjectDBX Classes
 90
     1153
280
     0
281
     0
  0
CLASS
  1
VISUALSTYLE
  2
AcDbVisualStyle
  3
ObjectDBX Classes
 90
     4095
280
     0
281
     0
  0
CLASS
  1
TABLESTYLE
  2
AcDbTableStyle
  3
ObjectDBX Classes
 90
     4095
280
     0
281
     0
  0
CLASS
  1
SCALE
  2
AcDbScale
  3
ObjectDBX Classes
 90
     1153
280
     0
281
     0
  0
CLASS
  1
MLEADERSTYLE
  2
AcDbMLeaderStyle
  3
ACDB_MLEADERSTYLE_CLASS
 90
     4095
280
     0
281
     0
  0
CLASS
  1
ACDBSECTIONVIEWSTYLE
  2
AcDbSectionViewStyle
  3
ObjectDBX Classes
 90
     1025
280
     0
281
     0
  0
CLASS
  1
ACDBDETAILVIEWSTYLE
  2
AcDbDetailViewStyle
  3
ObjectDBX Classes
 90
     1025
280
     0
281
     0
  0
CLASS
  1
CELLSTYLEMAP
  2
AcDbCellStyleMap
  3
ObjectDBX Classes
 90
     1152
280
     0
281
     0
  0
ENDSEC
  0
SECTION
  2
TABLES
  0
TABLE
  2
VPORT
  5
BA73
330
0
100
AcDbSymbolTable
 70
     1
  0
VPORT
  5
BCA0
330
BA73
100
AcDbSymbolTableRecord
100
AcDbViewportTableRecord
  2
*ACTIVE
 70
     0
 10
0.0
 20
0.0
 11
1.0
 21
1.0
 12
195.3458738478651
 22
120.0456854309253
 13
0.0
 23
0.0
 14
10.0
 24
10.0
 15
10.0
 25
10.0
 16
0.0
 26
0.0
 36
1.0
 17
0.0
 27
0.0
 37
0.0
 40
222.5747497555787
 41
1.899603698811096
 42
50.0
 43
0.0
 44
0.0
 50
0.0
 51
0.0
 71
     0
 72
   100
 73
     1
 74
     0
 75
     0
 76
     0
 77
     0
 78
     0
281
     0
 65
     1
110
0.0
120
0.0
130
0.0
111
1.0
121
0.0
131
0.0
112
0.0
122
1.0
132
0.0
 79
     0
146
0.0
1001
ACAD_NAV_VCDISPLAY
1070
     3
  0
ENDTAB
  0
TABLE
  2
LTYPE
  5
BA70
330
0
100
AcDbSymbolTable
 70
     4
  0
LTYPE
  5
BA7E
330
BA70
100
AcDbSymbolTableRecord
100
AcDbLinetypeTableRecord
  2
BYBLOCK
 70
     0
  3

 72
    65
 73
     0
 40
0.0
  0
LTYPE
  5
BA7F
330
BA70
100
AcDbSymbolTableRecord
100
AcDbLinetypeTableRecord
  2
BYLAYER
 70
     0
  3

 72
    65
 73
     0
 40
0.0
  0
LTYPE
  5
BA80
330
BA70
100
AcDbSymbolTableRecord
100
AcDbLinetypeTableRecord
  2
CONTINUOUS
 70
     0
  3
Solid line
 72
    65
 73
     0
 40
0.0
  0
LTYPE
  5
BA8E
330
BA70
100
AcDbSymbolTableRecord
100
AcDbLinetypeTableRecord
  2
DASHED
 70
     0
  3
__ __ __ __ __ __ __ __ __ __ __ __ __ __ __ __
 72
    65
 73
     2
 40
0.75
 49
0.5
 74
     0
 49
-0.25
 74
     0
  0
LTYPE
  5
BA8F
330
BA70
100
AcDbSymbolTableRecord
100
AcDbLinetypeTableRecord
  2
CENTER
 70
     0
  3
____ _ ____ _ ____ _ ____ _ ____ _ ____ _ ____ 
 72
    65
 73
     4
 40
2.0
 49
1.25
 74
     0
 49
-0.25
 74
     0
 49
0.25
 74
     0
 49
-0.25
 74
     0
  0
LTYPE
  5
BA90
330
BA70
100
AcDbSymbolTableRecord
100
AcDbLinetypeTableRecord
  2
PHANTOM
 70
     0
  3
______  __  __  ______  __  __  ______  __  __ 
 72
    65
 73
     6
 40
2.5
 49
1.25
 74
     0
 49
-0.25
 74
     0
 49
0.25
 74
     0
 49
-0.25
 74
     0
 49
0.25
 74
     0
 49
-0.25
 74
     0
  0
ENDTAB
  0
TABLE
  2
LAYER
  5
BA6D
330
0
100
AcDbSymbolTable
 70
     8
  0
LAYER
  5
BA7B
102
{ACAD_XDICTIONARY
360
BCFB
102
}
330
BA6D
100
AcDbSymbolTableRecord
100
AcDbLayerTableRecord
  2
0
 70
     0
 62
     7
  6
CONTINUOUS
370
    -3
390
BCA9
  0
LAYER
  5
BA91
102
{ACAD_XDICTIONARY
360
BCFD
102
}
330
BA6D
100
AcDbSymbolTableRecord
100
AcDbLayerTableRecord
  2
4
 70
     0
 62
     1
  6
CENTER
370
    -3
390
BCA9
  0
LAYER
  5
BA92
102
{ACAD_XDICTIONARY
360
BCFF
102
}
330
BA6D
100
AcDbSymbolTableRecord
100
AcDbLayerTableRecord
  2
5
 70
     0
 62
     6
  6
PHANTOM
370
    -3
390
BCA9
  0
LAYER
  5
BA93
102
{ACAD_XDICTIONARY
360
BD01
102
}
330
BA6D
100
AcDbSymbolTableRecord
100
AcDbLayerTableRecord
  2
1
 70
     0
 62
     7
  6
CONTINUOUS
370
    -3
390
BCA9
  0
LAYER
  5
BA94
102
{ACAD_XDICTIONARY
360
BD03
102
}
330
BA6D
100
AcDbSymbolTableRecord
100
AcDbLayerTableRecord
  2
2
 70
     0
 62
     4
  6
CONTINUOUS
370
    -3
390
BCA9
  0
LAYER
  5
BA95
102
{ACAD_XDICTIONARY
360
BD05
102
}
330
BA6D
100
AcDbSymbolTableRecord
100
AcDbLayerTableRecord
  2
3
 70
     0
 62
     2
  6
DASHED
370
    -3
390
BCA9
  0
LAYER
  5
BA96
102
{ACAD_XDICTIONARY
360
BD07
102
}
330
BA6D
100
AcDbSymbolTableRecord
100
AcDbLayerTableRecord
  2
6
 70
     0
 62
     5
  6
CONTINUOUS
370
    -3
390
BCA9
  0
LAYER
  5
BA97
102
{ACAD_XDICTIONARY
360
BD09
102
}
330
BA6D
100
AcDbSymbolTableRecord
100
AcDbLayerTableRecord
  2
7
 70
     0
 62
     3
  6
CONTINUOUS
370
    -3
390
BCA9
  0
ENDTAB
  0
TABLE
  2
STYLE
  5
BA6E
330
0
100
AcDbSymbolTable
 70
     1
  0
STYLE
  5
BA7C
330
BA6E
100
AcDbSymbolTableRecord
100
AcDbTextStyleTableRecord
  2
STANDARD
 70
     0
 40
0.0
 41
1.0
 50
0.0
 71
     0
 42
5.0
  3
txt
  4

  0
ENDTAB
  0
TABLE
  2
VIEW
  5
BA71
330
0
100
AcDbSymbolTable
 70
     1
  0
VIEW
  5
BA98
330
BA71
100
AcDbSymbolTableRecord
100
AcDbViewTableRecord
  2
7
 70
     0
 40
256.261322
 10
246.850595
 20
128.130661
 41
493.7011909999998
 11
0.0
 21
0.0
 31
1.0
 12
0.0
 22
0.0
 32
0.0
 42
50.0
 43
0.0
 44
0.0
 50
0.0
 71
     0
281
     0
 72
     0
  0
ENDTAB
  0
TABLE
  2
UCS
  5
BA72
330
0
100
AcDbSymbolTable
 70
     0
  0
ENDTAB
  0
TABLE
  2
APPID
  5
BA74
330
0
100
AcDbSymbolTable
 70
     3
  0
APPID
  5
BA7D
330
BA74
100
AcDbSymbolTableRecord
100
AcDbRegAppTableRecord
  2
ACAD
 70
     0
  0
APPID
  5
BD15
330
BA74
100
AcDbSymbolTableRecord
100
AcDbRegAppTableRecord
  2
ACAD_NAV_VCDISPLAY
 70
     0
  0
APPID
  5
BD4E
330
BA74
100
AcDbSymbolTableRecord
100
AcDbRegAppTableRecord
  2
ACAD_MLEADERVER
 70
     0
  0
ENDTAB
  0
TABLE
  2
DIMSTYLE
  5
BA75
330
0
100
AcDbSymbolTable
 70
     1
100
AcDbDimStyleTable
 71
     0
  0
DIMSTYLE
105
BA9A
330
BA75
100
AcDbSymbolTableRecord
100
AcDbDimStyleTableRecord
  2
STANDARD
 70
     0
 41
2.5
 42
1.0
 43
10.0
 44
1.0
 73
     0
 74
     0
 77
     3
 78
     8
140
3.2
141
0.0
147
1.0
172
     1
173
     1
284
     8
285
     8
286
     8
340
BA7C
  0
ENDTAB
  0
TABLE
  2
BLOCK_RECORD
  5
BA6C
330
0
100
AcDbSymbolTable
 70
     0
  0
BLOCK_RECORD
  5
BA89
102
{ACAD_XDICTIONARY
360
BCA3
102
}
330
BA6C
100
AcDbSymbolTableRecord
100
AcDbBlockTableRecord
  2
*MODEL_SPACE
340
BCF7
  0
BLOCK_RECORD
  5
BA85
102
{ACAD_XDICTIONARY
360
BCA1
102
}
330
BA6C
100
AcDbSymbolTableRecord
100
AcDbBlockTableRecord
  2
*PAPER_SPACE
340
BCF8
  0
ENDTAB
  0
ENDSEC
  0
SECTION
  2
BLOCKS
  0
BLOCK
  5
BA8A
330
BA89
100
AcDbEntity
  8
0
100
AcDbBlockBegin
  2
*MODEL_SPACE
 70
     0
 10
0.0
 20
0.0
 30
0.0
  3
*MODEL_SPACE
  1

  0
ENDBLK
  5
BA8B
330
BA89
100
AcDbEntity
  8
0
100
AcDbBlockEnd
  0
BLOCK
  5
BA86
330
BA85
100
AcDbEntity
 67
     1
  8
0
100
AcDbBlockBegin
  2
*PAPER_SPACE
 70
     0
 10
0.0
 20
0.0
 30
0.0
  3
*PAPER_SPACE
  1

  0
ENDBLK
  5
BA87
330
BA85
100
AcDbEntity
 67
     1
  8
0
100
AcDbBlockEnd
  0
ENDSEC
  0
SECTION
  2
ENTITIES
  0
TEXT
  5
BAA2
330
BA89
100
AcDbEntity
  8
7
  6
Continuous
100
AcDbText
 10
10.0
 20
18.0
 30
0.0
 40
3.0
  1
TYPE No.TM-144SS-64
100
AcDbText
  0
TEXT
  5
BAA3
330
BA89
100
AcDbEntity
  8
7
  6
Continuous
100
AcDbText
 10
10.0
 20
26.0
 30
0.0
 40
3.0
  1
CODE No.5737
100
AcDbText
  0
TEXT
  5
BAA4
330
BA89
100
AcDbEntity
  8
1
  6
Continuous
100
AcDbText
 10
10.0
 20
10.0
 30
0.0
 40
1.399999999999999
  1
LAYER
100
AcDbText
  0
TEXT
  5
BAA5
330
BA89
100
AcDbEntity
  8
1
  6
Continuous
100
AcDbText
 10
17.97951099999998
 20
10.04873699999998
 30
0.0
 40
1.399999999999999
  1
1
100
AcDbText
  0
TEXT
  5
BAA6
330
BA89
100
AcDbEntity
  8
7
  6
Continuous
100
AcDbText
 10
29.97951099999999
 20
10.04873699999998
 30
0.0
 40
1.399999999999999
  1
7
100
AcDbText
  0
TEXT
  5
BAA7
330
BA89
100
AcDbEntity
  8
4
  6
CENTER
100
AcDbText
 10
23.97951099999999
 20
10.04873699999998
 30
0.0
 40
1.399999999999999
  1
4
100
AcDbText
  0
TEXT
  5
BAA8
330
BA89
100
AcDbEntity
  8
3
  6
DASHED
100
AcDbText
 10
21.979511
 20
10.04873699999998
 30
0.0
 40
1.399999999999999
  1
3
100
AcDbText
  0
TEXT
  5
BAA9
330
BA89
100
AcDbEntity
  8
2
  6
Continuous
100
AcDbText
 10
19.97951099999999
 20
10.04873699999998
 30
0.0
 40
1.399999999999999
  1
2
100
AcDbText
  0
TEXT
  5
BAAA
330
BA89
100
AcDbEntity
  8
6
  6
Continuous
100
AcDbText
 10
27.979511
 20
10.04873699999998
 30
0.0
 40
1.399999999999999
  1
6
100
AcDbText
  0
TEXT
  5
BAAB
330
BA89
100
AcDbEntity
  8
5
  6
PHANTOM
100
AcDbText
 10
25.97951099999999
 20
10.04873699999998
 30
0.0
 40
1.399999999999999
  1
5
100
AcDbText
  0
LINE
  5
BAAC
330
BA89
100
AcDbEntity
  8
1
  6
Continuous
100
AcDbLine
 10
128.0459519999998
 20
159.5978
 30
0.0
 11
138.5459519999998
 21
159.5978
 31
0.0
  0
LINE
  5
BAAD
330
BA89
100
AcDbEntity
  8
1
  6
Continuous
100
AcDbLine
 10
150.545952
 20
160.7288
 30
0.0
 11
150.545952
 21
164.5477999999999
 31
0.0
  0
LINE
  5
BAAE
330
BA89
100
AcDbEntity
  8
1
  6
Continuous
100
AcDbLine
 10
146.545952
 20
160.0978
 30
0.0
 11
146.545952
 21
170.5977999999998
 31
0.0
  0
LINE
  5
BAAF
330
BA89
100
AcDbEntity
  8
1
  6
Continuous
100
AcDbLine
 10
142.5459519999998
 20
160.5978
 30
0.0
 11
142.5459519999998
 21
170.0978
 31
0.0
  0
LINE
  5
BAB0
330
BA89
100
AcDbEntity
  8
1
  6
Continuous
100
AcDbLine
 10
124.0459519999999
 20
162.5978
 30
0.0
 11
124.0459519999999
 21
170.0978
 31
0.0
  0
LINE
  5
BAB1
330
BA89
100
AcDbEntity
  8
1
  6
Continuous
100
AcDbLine
 10
122.045952
 20
162.5957999999999
 30
0.0
 11
122.045952
 21
168.5958
 31
0.0
  0
LINE
  5
BAB2
330
BA89
100
AcDbEntity
  8
4
  6
CENTER
100
AcDbLine
 10
133.2959519999998
 20
89.500022
 30
0.0
 11
133.2959519999998
 21
174.5978
 31
0.0
  0
LINE
  5
BAB3
330
BA89
100
AcDbEntity
  8
1
  6
Continuous
100
AcDbLine
 10
125.545952
 20
171.5977999999998
 30
0.0
 11
141.045952
 21
171.5977999999998
 31
0.0
  0
LINE
  5
BAB4
330
BA89
100
AcDbEntity
  8
1
  6
Continuous
100
AcDbLine
 10
127.795952
 20
211.5978
 30
0.0
 11
138.795952
 21
211.5978
 31
0.0
  0
LINE
  5
BAB5
330
BA89
100
AcDbEntity
  8
1
  6
Continuous
100
AcDbLine
 10
127.795952
 20
227.0977999999999
 30
0.0
 11
138.795952
 21
227.0977999999999
 31
0.0
  0
LINE
  5
BAB6
330
BA89
100
AcDbEntity
  8
4
  6
CENTER
100
AcDbLine
 10
93.49595200000001
 20
219.3478
 30
0.0
 11
173.095952
 21
219.3478
 31
0.0
  0
LINE
  5
BAB7
330
BA89
100
AcDbEntity
  8
4
  6
CENTER
100
AcDbLine
 10
233.845952
 20
89.500022
 30
0.0
 11
233.845952
 21
174.5978379999999
 31
0.0
  0
LINE
  5
BAB8
330
BA89
100
AcDbEntity
  8
1
  6
Continuous
100
AcDbLine
 10
150.545952
 20
215.3478
 30
0.0
 11
150.545952
 21
223.3478
 31
0.0
  0
LINE
  5
BAB9
330
BA89
100
AcDbEntity
  8
1
  6
Continuous
100
AcDbLine
 10
146.545952
 20
214.0978
 30
0.0
 11
146.545952
 21
224.5978
 31
0.0
  0
LINE
  5
BABA
330
BA89
100
AcDbEntity
  8
1
  6
Continuous
100
AcDbLine
 10
142.5459519999998
 20
214.0978
 30
0.0
 11
142.5459519999998
 21
224.5978
 31
0.0
  0
LINE
  5
BABB
330
BA89
100
AcDbEntity
  8
4
  6
CENTER
100
AcDbLine
 10
133.2959519999998
 20
208.5977999999998
 30
0.0
 11
133.2959519999998
 21
230.0978
 31
0.0
  0
LINE
  5
BABC
330
BA89
100
AcDbEntity
  8
1
  6
Continuous
100
AcDbLine
 10
124.0459519999999
 20
214.0978
 30
0.0
 11
124.0459519999999
 21
224.5978
 31
0.0
  0
LINE
  5
BABD
330
BA89
100
AcDbEntity
  8
1
  6
Continuous
100
AcDbLine
 10
122.045952
 20
216.3478
 30
0.0
 11
122.045952
 21
222.3478
 31
0.0
  0
LINE
  5
BABE
330
BA89
100
AcDbEntity
  8
1
  6
Continuous
100
AcDbLine
 10
122.045952
 20
162.5978
 30
0.0
 11
127.795952
 21
162.5978
 31
0.0
  0
LINE
  5
BABF
330
BA89
100
AcDbEntity
  8
1
  6
Continuous
100
AcDbLine
 10
122.045952
 20
168.5978
 30
0.0
 11
124.0459519999999
 21
168.5978
 31
0.0
  0
ARC
  5
BAC0
330
BA89
100
AcDbEntity
  8
1
  6
Continuous
100
AcDbCircle
 10
125.545952
 20
170.0978
 30
0.0
 40
1.5
100
AcDbArc
 50
90.0
 51
180.0
  0
ARC
  5
BAC1
330
BA89
100
AcDbEntity
  8
1
  6
Continuous
100
AcDbCircle
 10
141.045952
 20
170.0978
 30
0.0
 40
1.5
100
AcDbArc
 50
0.0
 51
90.0
  0
ARC
  5
BAC2
330
BA89
100
AcDbEntity
  8
1
  6
Continuous
100
AcDbCircle
 10
133.2959519999998
 20
159.4033559999998
 30
0.0
 40
7.694443999999997
100
AcDbArc
 50
24.52954699999999
 51
155.4704529999999
  0
LINE
  5
BAC3
330
BA89
100
AcDbEntity
  8
1
  6
Continuous
100
AcDbLine
 10
138.795952
 20
162.5978
 30
0.0
 11
138.5459519999998
 21
159.5978
 31
0.0
  0
LINE
  5
BAC4
330
BA89
100
AcDbEntity
  8
1
  6
Continuous
100
AcDbLine
 10
127.795952
 20
162.5978
 30
0.0
 11
128.0459519999998
 21
159.5978
 31
0.0
  0
ARC
  5
BAC5
330
BA89
100
AcDbEntity
  8
1
  6
Continuous
100
AcDbCircle
 10
133.2959519999998
 20
158.596014
 30
0.0
 40
6.801785999999997
100
AcDbArc
 50
36.039539
 51
143.960461
  0
LINE
  5
BAC6
330
BA89
100
AcDbEntity
  8
1
  6
Continuous
100
AcDbLine
 10
138.795952
 20
162.5978
 30
0.0
 11
142.5459519999998
 21
162.5978
 31
0.0
  0
LINE
  5
BAC7
330
BA89
100
AcDbEntity
  8
1
  6
Continuous
100
AcDbLine
 10
142.5459519999998
 20
170.0978
 30
0.0
 11
146.545952
 21
170.5977999999998
 31
0.0
  0
LINE
  5
BAC8
330
BA89
100
AcDbEntity
  8
1
  6
Continuous
100
AcDbLine
 10
142.5459519999998
 20
160.5978
 30
0.0
 11
146.545952
 21
160.0978
 31
0.0
  0
LINE
  5
BAC9
330
BA89
100
AcDbEntity
  8
4
  6
CENTER
100
AcDbLine
 10
117.045952
 20
165.3477999999998
 30
0.0
 11
153.545952
 21
165.3477999999998
 31
0.0
  0
LINE
  5
BACA
330
BA89
100
AcDbEntity
  8
1
  6
Continuous
100
AcDbLine
 10
146.545952
 20
169.9668
 30
0.0
 11
150.545952
 21
169.9668
 31
0.0
  0
LINE
  5
BACB
330
BA89
100
AcDbEntity
  8
1
  6
Continuous
100
AcDbLine
 10
146.545952
 20
160.7288
 30
0.0
 11
150.545952
 21
160.7288
 31
0.0
  0
LINE
  5
BACC
330
BA89
100
AcDbEntity
  8
1
  6
Continuous
100
AcDbLine
 10
147.545952
 20
166.1477999999999
 30
0.0
 11
150.545952
 21
166.1477999999999
 31
0.0
  0
LINE
  5
BACD
330
BA89
100
AcDbEntity
  8
1
  6
Continuous
100
AcDbLine
 10
147.545952
 20
164.5477999999999
 30
0.0
 11
150.545952
 21
164.5477999999999
 31
0.0
  0
LINE
  5
BACE
330
BA89
100
AcDbEntity
  8
1
  6
Continuous
100
AcDbLine
 10
147.545952
 20
164.5477999999999
 30
0.0
 11
147.545952
 21
166.1477999999999
 31
0.0
  0
LINE
  5
BACF
330
BA89
100
AcDbEntity
  8
1
  6
Continuous
100
AcDbLine
 10
150.545952
 20
166.1477999999999
 30
0.0
 11
150.545952
 21
169.9668
 31
0.0
  0
LINE
  5
BAD0
330
BA89
100
AcDbEntity
  8
1
  6
Continuous
100
AcDbLine
 10
146.545952
 20
167.6572999999999
 30
0.0
 11
149.0459519999998
 21
167.6572999999999
 31
0.0
  0
LINE
  5
BAD1
330
BA89
100
AcDbEntity
  8
1
  6
Continuous
100
AcDbLine
 10
146.545952
 20
163.0382999999999
 30
0.0
 11
149.0459519999998
 21
163.0382999999999
 31
0.0
  0
LINE
  5
BAD2
330
BA89
100
AcDbEntity
  8
1
  6
Continuous
100
AcDbLine
 10
149.0459519999998
 20
167.6572999999999
 30
0.0
 11
150.545952
 21
167.0573
 31
0.0
  0
LINE
  5
BAD3
330
BA89
100
AcDbEntity
  8
1
  6
Continuous
100
AcDbLine
 10
149.0459519999998
 20
167.6572999999999
 30
0.0
 11
150.545952
 21
168.2572999999998
 31
0.0
  0
LINE
  5
BAD4
330
BA89
100
AcDbEntity
  8
1
  6
Continuous
100
AcDbLine
 10
149.0459519999998
 20
163.0382999999999
 30
0.0
 11
150.545952
 21
163.6382999999999
 31
0.0
  0
LINE
  5
BAD5
330
BA89
100
AcDbEntity
  8
1
  6
Continuous
100
AcDbLine
 10
149.0459519999998
 20
163.0382999999999
 30
0.0
 11
150.545952
 21
162.4382999999999
 31
0.0
  0
LINE
  5
BAD6
330
BA89
100
AcDbEntity
  8
4
  6
CENTER
100
AcDbLine
 10
223.095952
 20
165.3478379999999
 30
0.0
 11
244.595952
 21
165.3478379999999
 31
0.0
  0
ARC
  5
BAD7
330
BA89
100
AcDbEntity
  8
1
  6
Continuous
100
AcDbCircle
 10
233.845952
 20
165.3478379999999
 30
0.0
 40
3.0
100
AcDbArc
 50
15.46601
 51
164.5339899999999
  0
LINE
  5
BAD8
330
BA89
100
AcDbEntity
  8
1
  6
Continuous
100
AcDbLine
 10
229.845952
 20
166.1478379999998
 30
0.0
 11
237.845952
 21
166.1478379999998
 31
0.0
  0
LINE
  5
BAD9
330
BA89
100
AcDbEntity
  8
1
  6
Continuous
100
AcDbLine
 10
229.845952
 20
164.5478379999999
 30
0.0
 11
237.845952
 21
164.5478379999999
 31
0.0
  0
ARC
  5
BADA
330
BA89
100
AcDbEntity
  8
1
  6
Continuous
100
AcDbCircle
 10
233.845952
 20
165.3478379999999
 30
0.0
 40
3.0
100
AcDbArc
 50
195.4660099999999
 51
344.53399
  0
CIRCLE
  5
BADB
330
BA89
100
AcDbEntity
  8
1
  6
Continuous
100
AcDbCircle
 10
233.845952
 20
165.3478379999999
 30
0.0
 40
5.25
  0
LINE
  5
BADC
330
BA89
100
AcDbEntity
  8
1
  6
Continuous
100
AcDbLine
 10
240.095952
 20
162.597838
 30
0.0
 11
240.095952
 21
166.0978379999999
 31
0.0
  0
LINE
  5
BADD
330
BA89
100
AcDbEntity
  8
1
  6
Continuous
100
AcDbLine
 10
227.595952
 20
162.597838
 30
0.0
 11
227.595952
 21
166.0978379999999
 31
0.0
  0
LINE
  5
BADE
330
BA89
100
AcDbEntity
  8
1
  6
Continuous
100
AcDbLine
 10
227.342177
 20
162.597838
 30
0.0
 11
229.373816
 21
162.597838
 31
0.0
  0
ARC
  5
BADF
330
BA89
100
AcDbEntity
  8
1
  6
Continuous
100
AcDbCircle
 10
233.845952
 20
165.296702
 30
0.0
 40
6.301135999999998
100
AcDbArc
 50
7.304446000000001
 51
172.6955539999999
  0
LINE
  5
BAE0
330
BA89
100
AcDbEntity
  8
1
  6
Continuous
100
AcDbLine
 10
238.3180869999999
 20
162.597838
 30
0.0
 11
240.336102
 21
162.597838
 31
0.0
  0
ARC
  5
BAE1
330
BA89
100
AcDbEntity
  8
1
  6
Continuous
100
AcDbCircle
 10
227.595952
 20
161.0978379999998
 30
0.0
 40
1.5
100
AcDbArc
 50
180.0
 51
260.405932
  0
ARC
  5
BAE2
330
BA89
100
AcDbEntity
  8
1
  6
Continuous
100
AcDbCircle
 10
240.095952
 20
161.0978379999998
 30
0.0
 40
1.5
100
AcDbArc
 50
279.594068
 51
355.7894899999998
  0
LINE
  5
BAE3
330
BA89
100
AcDbEntity
  8
1
  6
Continuous
100
AcDbLine
 10
146.545952
 20
223.3478
 30
0.0
 11
150.545952
 21
223.3478
 31
0.0
  0
LINE
  5
BAE4
330
BA89
100
AcDbEntity
  8
1
  6
Continuous
100
AcDbLine
 10
146.545952
 20
215.3478
 30
0.0
 11
150.545952
 21
215.3478
 31
0.0
  0
LINE
  5
BAE5
330
BA89
100
AcDbEntity
  8
1
  6
Continuous
100
AcDbLine
 10
146.545952
 20
224.5978
 30
0.0
 11
142.5459519999998
 21
224.0978
 31
0.0
  0
LINE
  5
BAE6
330
BA89
100
AcDbEntity
  8
1
  6
Continuous
100
AcDbLine
 10
146.545952
 20
214.0978
 30
0.0
 11
142.5459519999998
 21
214.5977999999999
 31
0.0
  0
LINE
  5
BAE7
330
BA89
100
AcDbEntity
  8
1
  6
Continuous
100
AcDbLine
 10
125.0459519999999
 20
225.5978
 30
0.0
 11
126.295952
 21
225.5978
 31
0.0
  0
LINE
  5
BAE8
330
BA89
100
AcDbEntity
  8
1
  6
Continuous
100
AcDbLine
 10
125.0459519999999
 20
213.0978
 30
0.0
 11
126.295952
 21
213.0978
 31
0.0
  0
LINE
  5
BAE9
330
BA89
100
AcDbEntity
  8
1
  6
Continuous
100
AcDbLine
 10
122.045952
 20
222.3478
 30
0.0
 11
124.0459519999999
 21
222.3478
 31
0.0
  0
LINE
  5
BAEA
330
BA89
100
AcDbEntity
  8
1
  6
Continuous
100
AcDbLine
 10
122.045952
 20
216.3478
 30
0.0
 11
124.0459519999999
 21
216.3478
 31
0.0
  0
ARC
  5
BAEB
330
BA89
100
AcDbEntity
  8
1
  6
Continuous
100
AcDbCircle
 10
124.295952
 20
219.3478
 30
0.0
 40
3.75
100
AcDbArc
 50
126.869898
 51
233.130102
  0
ARC
  5
BAEC
330
BA89
100
AcDbEntity
  8
1
  6
Continuous
100
AcDbCircle
 10
141.5459519999998
 20
224.5978
 30
0.0
 40
1.0
100
AcDbArc
 50
0.0
 51
90.0
  0
ARC
  5
BAED
330
BA89
100
AcDbEntity
  8
1
  6
Continuous
100
AcDbCircle
 10
141.5459519999998
 20
214.0978
 30
0.0
 40
1.0
100
AcDbArc
 50
270.0
 51
0.0
  0
ARC
  5
BAEE
330
BA89
100
AcDbEntity
  8
1
  6
Continuous
100
AcDbCircle
 10
125.0459519999999
 20
214.0978
 30
0.0
 40
1.0
100
AcDbArc
 50
180.0
 51
270.0
  0
ARC
  5
BAEF
330
BA89
100
AcDbEntity
  8
1
  6
Continuous
100
AcDbCircle
 10
125.0459519999999
 20
224.5978
 30
0.0
 40
1.0
100
AcDbArc
 50
90.0
 51
180.0
  0
ARC
  5
BAF0
330
BA89
100
AcDbEntity
  8
1
  6
Continuous
100
AcDbCircle
 10
133.2959519999998
 20
244.5727999999999
 30
0.0
 40
20.225
100
AcDbArc
 50
249.750657
 51
290.249343
  0
ARC
  5
BAF1
330
BA89
100
AcDbEntity
  8
1
  6
Continuous
100
AcDbCircle
 10
133.2959519999998
 20
194.1228
 30
0.0
 40
20.225
100
AcDbArc
 50
69.75065699999999
 51
110.249343
  0
LINE
  5
BAF2
330
BA89
100
AcDbEntity
  8
1
  6
Continuous
100
AcDbLine
 10
138.795952
 20
227.0977999999999
 30
0.0
 11
140.295952
 21
225.5978
 31
0.0
  0
LINE
  5
BAF3
330
BA89
100
AcDbEntity
  8
1
  6
Continuous
100
AcDbLine
 10
127.795952
 20
227.0977999999999
 30
0.0
 11
126.295952
 21
225.5978
 31
0.0
  0
LINE
  5
BAF4
330
BA89
100
AcDbEntity
  8
1
  6
Continuous
100
AcDbLine
 10
126.295952
 20
213.0978
 30
0.0
 11
127.795952
 21
211.5978
 31
0.0
  0
LINE
  5
BAF5
330
BA89
100
AcDbEntity
  8
1
  6
Continuous
100
AcDbLine
 10
140.295952
 20
213.0978
 30
0.0
 11
138.795952
 21
211.5978
 31
0.0
  0
LINE
  5
BAF6
330
BA89
100
AcDbEntity
  8
1
  6
Continuous
100
AcDbLine
 10
140.295952
 20
225.5978
 30
0.0
 11
141.5459519999998
 21
225.5978
 31
0.0
  0
LINE
  5
BAF7
330
BA89
100
AcDbEntity
  8
1
  6
Continuous
100
AcDbLine
 10
140.295952
 20
213.0978
 30
0.0
 11
141.5459519999998
 21
213.0978
 31
0.0
  0
LINE
  5
BAF8
330
BA89
100
AcDbEntity
  8
1
  6
Continuous
100
AcDbLine
 10
150.545952
 20
219.9478
 30
0.0
 11
149.0459519999998
 21
219.3478
 31
0.0
  0
LINE
  5
BAF9
330
BA89
100
AcDbEntity
  8
1
  6
Continuous
100
AcDbLine
 10
149.0459519999998
 20
219.3478
 30
0.0
 11
150.545952
 21
218.7478
 31
0.0
  0
LINE
  5
BAFA
330
BA89
100
AcDbEntity
  8
1
  6
Continuous
100
AcDbLine
 10
149.0459519999998
 20
219.3478
 30
0.0
 11
146.545952
 21
219.3478
 31
0.0
  0
LINE
  5
BAFB
330
BA89
100
AcDbEntity
  8
1
  6
Continuous
100
AcDbLine
 10
240.652706
 20
160.511604
 30
0.0
 11
240.345952
 21
160.4978
 31
0.0
  0
LINE
  5
BAFC
330
BA89
100
AcDbEntity
  8
1
  6
Continuous
100
AcDbLine
 10
227.016718
 20
160.5126159999998
 30
0.0
 11
227.345952
 21
160.4978
 31
0.0
  0
LINE
  5
BAFD
330
BA89
100
AcDbEntity
  8
1
  6
Continuous
100
AcDbLine
 10
100.495952
 20
225.8478
 30
0.0
 11
126.545952
 21
225.8478
 31
0.0
  0
LINE
  5
BAFE
330
BA89
100
AcDbEntity
  8
1
  6
Continuous
100
AcDbLine
 10
100.495952
 20
212.8478
 30
0.0
 11
126.545952
 21
212.8478
 31
0.0
  0
LINE
  5
BAFF
330
BA89
100
AcDbEntity
  8
1
  6
Continuous
100
AcDbLine
 10
140.045952
 20
225.8478
 30
0.0
 11
166.095952
 21
225.8478
 31
0.0
  0
LINE
  5
BB00
330
BA89
100
AcDbEntity
  8
1
  6
Continuous
100
AcDbLine
 10
140.045952
 20
212.8478
 30
0.0
 11
166.095952
 21
212.8478
 31
0.0
  0
ARC
  5
BB01
330
BA89
100
AcDbEntity
  8
1
  6
Continuous
100
AcDbCircle
 10
124.273285
 20
165.5968
 30
0.0
 40
3.735641
100
AcDbArc
 50
126.600977
 51
233.399023
  0
LINE
  5
BB02
330
BA89
100
AcDbEntity
  8
1
  6
Continuous
100
AcDbLine
 10
240.345952
 20
96.50002200000001
 30
0.0
 11
240.345952
 21
162.1342249999998
 31
0.0
  0
LINE
  5
BB03
330
BA89
100
AcDbEntity
  8
1
  6
Continuous
100
AcDbLine
 10
227.345952
 20
96.50002200000001
 30
0.0
 11
227.345952
 21
162.1342249999998
 31
0.0
  0
ARC
  5
BB04
330
BA89
100
AcDbEntity
  8
1
  6
Continuous
100
AcDbCircle
 10
239.845952
 20
165.9030889999999
 30
0.0
 40
1.0
100
AcDbArc
 50
0.0
 51
84.600387
  0
ARC
  5
BB05
330
BA89
100
AcDbEntity
  8
1
  6
Continuous
100
AcDbCircle
 10
227.845952
 20
165.9030889999999
 30
0.0
 40
1.0
100
AcDbArc
 50
95.39961299999999
 51
180.0
  0
LINE
  5
BB06
330
BA89
100
AcDbEntity
  8
1
  6
Continuous
100
AcDbLine
 10
240.845952
 20
165.9030889999999
 30
0.0
 11
241.5919029999999
 21
160.987706
 31
0.0
  0
LINE
  5
BB07
330
BA89
100
AcDbEntity
  8
1
  6
Continuous
100
AcDbLine
 10
226.8459519999999
 20
165.9030889999999
 30
0.0
 11
226.095952
 21
161.0978379999998
 31
0.0
  0
ARC
  5
BB08
330
BA89
100
AcDbEntity
  8
1
  6
Continuous
100
AcDbCircle
 10
32.75
 20
165.296702
 30
0.0
 40
6.301135999999998
100
AcDbArc
 50
7.304446000000001
 51
172.6955539999999
  0
LINE
  5
BB09
330
BA89
100
AcDbEntity
  8
4
  6
CENTER
100
AcDbLine
 10
32.75
 20
89.500022
 30
0.0
 11
32.75
 21
174.5978379999999
 31
0.0
  0
LINE
  5
BB0A
330
BA89
100
AcDbEntity
  8
1
  6
Continuous
100
AcDbLine
 10
26.25
 20
96.50002200000001
 30
0.0
 11
26.25
 21
161.8982659999998
 31
0.0
  0
LINE
  5
BB0B
330
BA89
100
AcDbEntity
  8
1
  6
Continuous
100
AcDbLine
 10
39.25
 20
96.50002200000001
 30
0.0
 11
39.25
 21
161.8982659999998
 31
0.0
  0
LINE
  5
BB0C
330
BA89
100
AcDbEntity
  8
4
  6
CENTER
100
AcDbLine
 10
22.0
 20
165.3478379999999
 30
0.0
 11
43.5
 21
165.3478379999999
 31
0.0
  0
LINE
  5
BB0D
330
BA89
100
AcDbEntity
  8
1
  6
Continuous
100
AcDbLine
 10
25.75
 20
165.9030889999999
 30
0.0
 11
25.0
 21
161.0978379999998
 31
0.0
  0
ARC
  5
BB0E
330
BA89
100
AcDbEntity
  8
1
  6
Continuous
100
AcDbCircle
 10
26.75
 20
165.9030889999999
 30
0.0
 40
1.0
100
AcDbArc
 50
95.39961299999999
 51
180.0
  0
LINE
  5
BB0F
330
BA89
100
AcDbEntity
  8
1
  6
Continuous
100
AcDbLine
 10
25.920766
 20
160.5126159999998
 30
0.0
 11
26.25
 21
160.4978
 31
0.0
  0
ARC
  5
BB10
330
BA89
100
AcDbEntity
  8
1
  6
Continuous
100
AcDbCircle
 10
26.5
 20
161.0978379999998
 30
0.0
 40
1.5
100
AcDbArc
 50
180.0
 51
260.405932
  0
LINE
  5
BB11
330
BA89
100
AcDbEntity
  8
1
  6
Continuous
100
AcDbLine
 10
26.246226
 20
162.597838
 30
0.0
 11
27.833508
 21
162.597838
 31
0.0
  0
LINE
  5
BB12
330
BA89
100
AcDbEntity
  8
1
  6
Continuous
100
AcDbLine
 10
26.5
 20
162.597838
 30
0.0
 11
26.5
 21
166.0978379999999
 31
0.0
  0
LINE
  5
BB13
330
BA89
100
AcDbEntity
  8
1
  6
Continuous
100
AcDbLine
 10
39.75
 20
165.9030889999999
 30
0.0
 11
40.495952
 21
160.987706
 31
0.0
  0
ARC
  5
BB14
330
BA89
100
AcDbEntity
  8
1
  6
Continuous
100
AcDbCircle
 10
38.75
 20
165.9030889999999
 30
0.0
 40
1.0
100
AcDbArc
 50
0.0
 51
84.600387
  0
LINE
  5
BB15
330
BA89
100
AcDbEntity
  8
1
  6
Continuous
100
AcDbLine
 10
39.556754
 20
160.511604
 30
0.0
 11
39.25
 21
160.4978
 31
0.0
  0
ARC
  5
BB16
330
BA89
100
AcDbEntity
  8
1
  6
Continuous
100
AcDbCircle
 10
39.0
 20
161.0978379999998
 30
0.0
 40
1.5
100
AcDbArc
 50
279.594068
 51
355.7894899999998
  0
LINE
  5
BB17
330
BA89
100
AcDbEntity
  8
1
  6
Continuous
100
AcDbLine
 10
37.66649199999999
 20
162.597838
 30
0.0
 11
39.24015
 21
162.597838
 31
0.0
  0
LINE
  5
BB18
330
BA89
100
AcDbEntity
  8
1
  6
Continuous
100
AcDbLine
 10
39.0
 20
162.597838
 30
0.0
 11
39.0
 21
166.0978379999999
 31
0.0
  0
LINE
  5
BB19
330
BA89
100
AcDbEntity
  8
4
  6
CENTER
100
AcDbLine
 10
133.2959519999998
 20
36.0
 30
0.0
 11
133.2959519999998
 21
61.5
 31
0.0
  0
LINE
  5
BB1A
330
BA89
100
AcDbEntity
  8
1
  6
Continuous
100
AcDbLine
 10
100.495952
 20
42.25
 30
0.0
 11
166.095952
 21
42.25
 31
0.0
  0
LINE
  5
BB1B
330
BA89
100
AcDbEntity
  8
1
  6
Continuous
100
AcDbLine
 10
127.795952
 20
41.0
 30
0.0
 11
138.795952
 21
41.0
 31
0.0
  0
LINE
  5
BB1C
330
BA89
100
AcDbEntity
  8
1
  6
Continuous
100
AcDbLine
 10
100.495952
 20
55.25
 30
0.0
 11
166.095952
 21
55.25
 31
0.0
  0
LINE
  5
BB1D
330
BA89
100
AcDbEntity
  8
4
  6
CENTER
100
AcDbLine
 10
93.49595200000001
 20
48.75
 30
0.0
 11
173.095952
 21
48.75
 31
0.0
  0
LINE
  5
BB1E
330
BA89
100
AcDbEntity
  8
1
  6
Continuous
100
AcDbLine
 10
127.795952
 20
56.5
 30
0.0
 11
138.795952
 21
56.5
 31
0.0
  0
LINE
  5
BB1F
330
BA89
100
AcDbEntity
  8
1
  6
Continuous
100
AcDbLine
 10
128.0119399999998
 20
160.005933
 30
0.0
 11
124.396608
 21
155.760208
 31
0.0
  0
LINE
  5
BB20
330
BA89
100
AcDbEntity
  8
1
  6
Continuous
100
AcDbLine
 10
127.9416929999999
 20
160.848904
 30
0.0
 11
123.939788
 21
156.149201
 31
0.0
  0
LINE
  5
BB21
330
BA89
100
AcDbEntity
  8
1
  6
Continuous
100
AcDbLine
 10
123.939788
 20
156.149201
 30
0.0
 11
124.396608
 21
155.760208
 31
0.0
  0
LINE
  5
BB22
330
BA89
100
AcDbEntity
  8
1
  6
Continuous
100
AcDbLine
 10
125.495759
 20
157.976481
 30
0.0
 11
125.952579
 21
157.5874879999998
 31
0.0
  0
CIRCLE
  5
BB23
330
BA89
100
AcDbEntity
  8
1
  6
Continuous
100
AcDbCircle
 10
32.75
 20
165.5958
 30
0.0
 40
3.0
  0
LINE
  5
BB24
330
BA89
100
AcDbEntity
  8
1
  6
Continuous
100
AcDbLine
 10
29.75
 20
165.5958
 30
0.0
 11
28.75649199999999
 21
163.213
 31
0.0
  0
LINE
  5
BB25
330
BA89
100
AcDbEntity
  8
1
  6
Continuous
100
AcDbLine
 10
35.75
 20
165.5958
 30
0.0
 11
36.743508
 21
163.213
 31
0.0
  0
ARC
  5
BB26
330
BA89
100
AcDbEntity
  8
1
  6
Continuous
100
AcDbCircle
 10
37.66649199999999
 20
163.597838
 30
0.0
 40
1.0
100
AcDbArc
 50
202.6336909999999
 51
270.0
  0
ARC
  5
BB27
330
BA89
100
AcDbEntity
  8
1
  6
Continuous
100
AcDbCircle
 10
27.833508
 20
163.597838
 30
0.0
 40
1.0
100
AcDbArc
 50
270.0
 51
337.3663089999999
  0
LINE
  5
BB28
330
BA89
100
AcDbEntity
  8
1
  6
Continuous
100
AcDbLine
 10
128.0459519999998
 20
56.5
 30
0.0
 11
128.0459519999998
 21
55.25
 31
0.0
  0
LINE
  5
BB29
330
BA89
100
AcDbEntity
  8
1
  6
Continuous
100
AcDbLine
 10
138.5459519999998
 20
41.00044699999997
 30
0.0
 11
138.5459519999998
 21
42.25
 31
0.0
  0
LINE
  5
BB2A
330
BA89
100
AcDbEntity
  8
1
  6
Continuous
100
AcDbLine
 10
138.795952
 20
56.5
 30
0.0
 11
138.795952
 21
55.25
 31
0.0
  0
LINE
  5
BB2B
330
BA89
100
AcDbEntity
  8
1
  6
Continuous
100
AcDbLine
 10
127.795952
 20
56.5
 30
0.0
 11
127.795952
 21
55.25
 31
0.0
  0
LINE
  5
BB2C
330
BA89
100
AcDbEntity
  8
1
  6
Continuous
100
AcDbLine
 10
127.795952
 20
56.5
 30
0.0
 11
126.545952
 21
55.25
 31
0.0
  0
LINE
  5
BB2D
330
BA89
100
AcDbEntity
  8
1
  6
Continuous
100
AcDbLine
 10
138.795952
 20
56.5
 30
0.0
 11
140.045952
 21
55.25
 31
0.0
  0
LINE
  5
BB2E
330
BA89
100
AcDbEntity
  8
1
  6
Continuous
100
AcDbLine
 10
127.795952
 20
41.00044699999997
 30
0.0
 11
126.546026
 21
42.25
 31
0.0
  0
LINE
  5
BB2F
330
BA89
100
AcDbEntity
  8
1
  6
Continuous
100
AcDbLine
 10
138.795952
 20
41.0
 30
0.0
 11
140.045952
 21
42.25
 31
0.0
  0
LINE
  5
BB30
330
BA89
100
AcDbEntity
  8
1
  6
Continuous
100
AcDbLine
 10
138.795952
 20
42.25
 30
0.0
 11
138.795952
 21
41.00044699999997
 31
0.0
  0
LINE
  5
BB31
330
BA89
100
AcDbEntity
  8
1
  6
Continuous
100
AcDbLine
 10
138.5459519999998
 20
55.25
 30
0.0
 11
138.5459519999998
 21
56.5
 31
0.0
  0
LINE
  5
BB32
330
BA89
100
AcDbEntity
  8
1
  6
Continuous
100
AcDbLine
 10
128.0459519999998
 20
42.25
 30
0.0
 11
128.0459519999998
 21
41.00044699999997
 31
0.0
  0
LINE
  5
BB33
330
BA89
100
AcDbEntity
  8
1
  6
Continuous
100
AcDbLine
 10
127.795952
 20
42.25
 30
0.0
 11
127.795952
 21
41.00044699999997
 31
0.0
  0
LINE
  5
BB34
330
BA89
100
AcDbEntity
  8
1
  6
Continuous
100
AcDbLine
 10
227.342177
 20
162.597838
 30
0.0
 11
227.016718
 21
160.5126159999998
 31
0.0
  0
LINE
  5
BB35
330
BA89
100
AcDbEntity
  8
1
  6
Continuous
100
AcDbLine
 10
240.336102
 20
162.597838
 30
0.0
 11
240.652706
 21
160.511604
 31
0.0
  0
LINE
  5
BB36
330
BA89
100
AcDbEntity
  8
1
  6
Continuous
100
AcDbLine
 10
26.246226
 20
162.597838
 30
0.0
 11
25.920766
 21
160.5126159999998
 31
0.0
  0
LINE
  5
BB37
330
BA89
100
AcDbEntity
  8
1
  6
Continuous
100
AcDbLine
 10
39.24015
 20
162.597838
 30
0.0
 11
39.556754
 21
160.511604
 31
0.0
  0
LINE
  5
BB38
330
BA89
100
AcDbEntity
  8
1
  6
Continuous
100
AcDbLine
 10
26.25
 20
161.8982659999998
 30
0.0
 11
39.25
 21
161.8982659999998
 31
0.0
  0
LINE
  5
BB39
330
BA89
100
AcDbEntity
  8
1
  6
Continuous
100
AcDbLine
 10
227.345952
 20
162.1342249999998
 30
0.0
 11
229.694423
 21
162.1342249999998
 31
0.0
  0
LINE
  5
BB3A
330
BA89
100
AcDbEntity
  8
1
  6
Continuous
100
AcDbLine
 10
237.9974799999998
 20
162.1342249999998
 30
0.0
 11
240.345952
 21
162.1342249999998
 31
0.0
  0
ARC
  5
BB3B
330
BA89
100
AcDbEntity
  8
5
  6
PHANTOM
100
AcDbCircle
 10
133.5223939999999
 20
133.359327
 30
0.0
 40
28.0
100
AcDbArc
 50
101.4878689999999
 51
49.29116
  0
ARC
  5
BB3C
330
BA89
100
AcDbEntity
  8
1
  6
Continuous
100
AcDbCircle
 10
133.2959519999998
 20
129.3000219999999
 30
0.0
 40
32.0
100
AcDbArc
 50
99.63206800000001
 51
49.87174899999999
  0
ARC
  5
BB3D
330
BA89
100
AcDbEntity
  8
5
  6
PHANTOM
100
AcDbCircle
 10
133.5223939999999
 20
133.359327
 30
0.0
 40
28.8
100
AcDbArc
 50
101.3002579999999
 51
49.358073
  0
ARC
  5
BB3E
330
BA89
100
AcDbEntity
  8
5
  6
PHANTOM
100
AcDbCircle
 10
133.5223939999999
 20
133.359327
 30
0.0
 40
29.6
100
AcDbArc
 50
354.4185909999998
 51
49.421289
  0
ARC
  5
BB3F
330
BA89
100
AcDbEntity
  8
1
  6
Continuous
100
AcDbCircle
 10
133.2959519999998
 20
129.3000219999999
 30
0.0
 40
32.79999999999999
100
AcDbArc
 50
99.51305000000001
 51
49.925834
  0
LINE
  5
BB40
330
BA89
100
AcDbEntity
  8
5
  6
PHANTOM
100
AcDbLine
 10
162.185854
 20
130.5582389999998
 30
0.0
 11
162.9820609999999
 21
130.480431
 31
0.0
  0
LINE
  5
BB41
330
BA89
100
AcDbEntity
  8
4
  6
CENTER
100
AcDbLine
 10
19.25
 20
129.3000219999999
 30
0.0
 11
46.25
 21
129.3000219999999
 31
0.0
  0
LINE
  5
BB42
330
BA89
100
AcDbEntity
  8
1
  6
Continuous
100
AcDbLine
 10
154.9038119999999
 20
155.0305559999999
 30
0.0
 11
154.3879059999999
 21
154.4162189999999
 31
0.0
  0
LINE
  5
BB43
330
BA89
100
AcDbEntity
  8
1
  6
Continuous
100
AcDbLine
 10
26.25
 20
96.50002200000001
 30
0.0
 11
39.25
 21
96.50002200000001
 31
0.0
  0
LINE
  5
BB44
330
BA89
100
AcDbEntity
  8
1
  6
Continuous
100
AcDbLine
 10
100.495952
 20
225.8478
 30
0.0
 11
100.495952
 21
212.8478
 31
0.0
  0
LINE
  5
BB45
330
BA89
100
AcDbEntity
  8
1
  6
Continuous
100
AcDbLine
 10
166.095952
 20
225.8478
 30
0.0
 11
166.095952
 21
212.8478
 31
0.0
  0
LINE
  5
BB46
330
BA89
100
AcDbEntity
  8
1
  6
Continuous
100
AcDbLine
 10
100.495952
 20
55.25
 30
0.0
 11
100.495952
 21
42.25
 31
0.0
  0
LINE
  5
BB47
330
BA89
100
AcDbEntity
  8
1
  6
Continuous
100
AcDbLine
 10
166.095952
 20
55.25
 30
0.0
 11
166.095952
 21
42.25
 31
0.0
  0
LINE
  5
BB48
330
BA89
100
AcDbEntity
  8
1
  6
Continuous
100
AcDbLine
 10
227.345952
 20
96.50002200000001
 30
0.0
 11
240.345952
 21
96.50002200000001
 31
0.0
  0
LINE
  5
BB49
330
BA89
100
AcDbEntity
  8
4
  6
CENTER
100
AcDbLine
 10
220.345952
 20
129.3000219999999
 30
0.0
 11
247.345952
 21
129.3000219999999
 31
0.0
  0
LINE
  5
BB4A
330
BA89
100
AcDbEntity
  8
4
  6
CENTER
100
AcDbLine
 10
93.49595200000001
 20
129.3000219999999
 30
0.0
 11
173.095952
 21
129.3000219999999
 31
0.0
  0
ARC
  5
BB4B
330
BA89
100
AcDbEntity
  8
1
  6
Continuous
100
AcDbCircle
 10
236.951057
 20
158.998533
 30
0.0
 40
0.21525
100
AcDbArc
 50
270.0
 51
90.0
  0
ARC
  5
BB4C
330
BA89
100
AcDbEntity
  8
1
  6
Continuous
100
AcDbCircle
 10
231.0815569999999
 20
159.4285499999998
 30
0.0
 40
0.21525
100
AcDbArc
 50
81.619662
 51
270.0
  0
ARC
  5
BB4D
330
BA89
100
AcDbEntity
  8
1
  6
Continuous
100
AcDbCircle
 10
231.0585569999998
 20
160.707593
 30
0.0
 40
0.19225
100
AcDbArc
 50
90.43972700000002
 51
270.0
  0
ARC
  5
BB4E
330
BA89
100
AcDbEntity
  8
1
  6
Continuous
100
AcDbCircle
 10
236.9740569999999
 20
160.3230149999999
 30
0.0
 40
0.19225
100
AcDbArc
 50
270.0
 51
90.0
  0
LINE
  5
BB4F
330
BA89
100
AcDbEntity
  8
1
  6
Continuous
100
AcDbLine
 10
236.951057
 20
158.783283
 30
0.0
 11
231.0815569999999
 21
159.2133
 31
0.0
  0
LINE
  5
BB50
330
BA89
100
AcDbEntity
  8
1
  6
Continuous
100
AcDbLine
 10
231.1129279999999
 20
159.641502
 30
0.0
 11
234.016307
 21
159.641502
 31
0.0
  0
LINE
  5
BB51
330
BA89
100
AcDbEntity
  8
1
  6
Continuous
100
AcDbLine
 10
236.951057
 20
159.213783
 30
0.0
 11
234.016307
 21
159.641502
 31
0.0
  0
LINE
  5
BB52
330
BA89
100
AcDbEntity
  8
1
  6
Continuous
100
AcDbLine
 10
236.9740569999999
 20
160.130765
 30
0.0
 11
235.1089409999999
 21
160.2520199999998
 31
0.0
  0
LINE
  5
BB53
330
BA89
100
AcDbEntity
  8
1
  6
Continuous
100
AcDbLine
 10
236.9740569999999
 20
160.5152649999999
 30
0.0
 11
236.136987
 21
160.6241049999999
 31
0.0
  0
LINE
  5
BB54
330
BA89
100
AcDbEntity
  8
1
  6
Continuous
100
AcDbLine
 10
30.17091
 20
128.9381569999999
 30
0.0
 11
35.808444
 21
128.344732
 31
0.0
  0
LINE
  5
BB55
330
BA89
100
AcDbEntity
  8
1
  6
Continuous
100
AcDbLine
 10
30.17091
 20
131.3381569999999
 30
0.0
 11
35.808444
 21
130.744732
 31
0.0
  0
LINE
  5
BB56
330
BA89
100
AcDbEntity
  8
1
  6
Continuous
100
AcDbLine
 10
30.17091
 20
133.738157
 30
0.0
 11
35.808444
 21
133.144732
 31
0.0
  0
LINE
  5
BB57
330
BA89
100
AcDbEntity
  8
1
  6
Continuous
100
AcDbLine
 10
30.17091
 20
136.138157
 30
0.0
 11
35.808444
 21
135.544732
 31
0.0
  0
ARC
  5
BB58
330
BA89
100
AcDbEntity
  8
1
  6
Continuous
100
AcDbCircle
 10
30.10844399999999
 20
128.644732
 30
0.0
 40
0.3
100
AcDbArc
 50
77.981988
 51
270.0
  0
LINE
  5
BB59
330
BA89
100
AcDbEntity
  8
1
  6
Continuous
100
AcDbLine
 10
30.10844399999999
 20
128.344732
 30
0.0
 11
32.95844300000001
 21
127.744732
 31
0.0
  0
LINE
  5
BB5A
330
BA89
100
AcDbEntity
  8
1
  6
Continuous
100
AcDbLine
 10
30.10844399999999
 20
130.744732
 30
0.0
 11
32.80561199999999
 21
130.1769069999998
 31
0.0
  0
ARC
  5
BB5B
330
BA89
100
AcDbEntity
  8
1
  6
Continuous
100
AcDbCircle
 10
30.10844399999999
 20
131.044732
 30
0.0
 40
0.3
100
AcDbArc
 50
77.981988
 51
270.0
  0
ARC
  5
BB5C
330
BA89
100
AcDbEntity
  8
1
  6
Continuous
100
AcDbCircle
 10
30.10844399999999
 20
133.4447319999999
 30
0.0
 40
0.3
100
AcDbArc
 50
77.981988
 51
270.0
  0
LINE
  5
BB5D
330
BA89
100
AcDbEntity
  8
1
  6
Continuous
100
AcDbLine
 10
30.10844399999999
 20
133.144732
 30
0.0
 11
32.80561199999999
 21
132.5769069999997
 31
0.0
  0
LINE
  5
BB5E
330
BA89
100
AcDbEntity
  8
1
  6
Continuous
100
AcDbLine
 10
30.10844399999999
 20
135.544732
 30
0.0
 11
32.80561199999999
 21
134.976907
 31
0.0
  0
ARC
  5
BB5F
330
BA89
100
AcDbEntity
  8
1
  6
Continuous
100
AcDbCircle
 10
30.10844399999999
 20
135.844732
 30
0.0
 40
0.3
100
AcDbArc
 50
77.981988
 51
270.0
  0
LINE
  5
BB60
330
BA89
100
AcDbEntity
  8
1
  6
Continuous
100
AcDbLine
 10
112.072845
 20
221.893969
 30
0.0
 11
111.4794199999999
 21
216.256435
 31
0.0
  0
LINE
  5
BB61
330
BA89
100
AcDbEntity
  8
1
  6
Continuous
100
AcDbLine
 10
236.7953879999999
 20
156.880626
 30
0.0
 11
231.1578539999999
 21
157.4740509999998
 31
0.0
  0
ARC
  5
BB62
330
BA89
100
AcDbEntity
  8
1
  6
Continuous
100
AcDbCircle
 10
111.77942
 20
221.956435
 30
0.0
 40
0.3
100
AcDbArc
 50
347.9819879999998
 51
180.0
  0
LINE
  5
BB63
330
BA89
100
AcDbEntity
  8
1
  6
Continuous
100
AcDbLine
 10
111.4794199999999
 20
221.956435
 30
0.0
 11
110.9115949999999
 21
219.2592669999999
 31
0.0
  0
ARC
  5
BB64
330
BA89
100
AcDbEntity
  8
1
  6
Continuous
100
AcDbCircle
 10
236.857854
 20
157.1740509999998
 30
0.0
 40
0.3
100
AcDbArc
 50
257.981988
 51
90.0
  0
LINE
  5
BB65
330
BA89
100
AcDbEntity
  8
1
  6
Continuous
100
AcDbLine
 10
236.857854
 20
157.4740509999998
 30
0.0
 11
234.160686
 21
158.041876
 31
0.0
  0
LINE
  5
BB66
330
BA89
100
AcDbEntity
  8
1
  6
Continuous
100
AcDbLine
 10
32.95844300000001
 20
127.744732
 30
0.0
 11
35.808444
 21
127.744732
 31
0.0
  0
LINE
  5
BB67
330
BA89
100
AcDbEntity
  8
1
  6
Continuous
100
AcDbLine
 10
33.11462699999999
 20
130.144732
 30
0.0
 11
35.808444
 21
130.144732
 31
0.0
  0
LINE
  5
BB68
330
BA89
100
AcDbEntity
  8
1
  6
Continuous
100
AcDbLine
 10
33.11462699999999
 20
132.544732
 30
0.0
 11
35.808444
 21
132.544732
 31
0.0
  0
LINE
  5
BB69
330
BA89
100
AcDbEntity
  8
1
  6
Continuous
100
AcDbLine
 10
33.11462699999999
 20
134.9447319999999
 30
0.0
 11
35.808444
 21
134.9447319999999
 31
0.0
  0
ARC
  5
BB6A
330
BA89
100
AcDbEntity
  8
1
  6
Continuous
100
AcDbCircle
 10
35.808444
 20
128.044732
 30
0.0
 40
0.3
100
AcDbArc
 50
270.0
 51
90.0
  0
ARC
  5
BB6B
330
BA89
100
AcDbEntity
  8
1
  6
Continuous
100
AcDbCircle
 10
35.808444
 20
130.4447319999999
 30
0.0
 40
0.3
100
AcDbArc
 50
270.0
 51
90.0
  0
ARC
  5
BB6C
330
BA89
100
AcDbEntity
  8
1
  6
Continuous
100
AcDbCircle
 10
35.808444
 20
132.8447319999999
 30
0.0
 40
0.3
100
AcDbArc
 50
270.0
 51
90.0
  0
ARC
  5
BB6D
330
BA89
100
AcDbEntity
  8
1
  6
Continuous
100
AcDbCircle
 10
35.808444
 20
135.244732
 30
0.0
 40
0.3
100
AcDbArc
 50
270.0
 51
90.0
  0
LINE
  5
BB6E
330
BA89
100
AcDbEntity
  8
1
  6
Continuous
100
AcDbLine
 10
110.8794199999999
 20
218.950252
 30
0.0
 11
110.8794199999999
 21
216.256435
 31
0.0
  0
LINE
  5
BB6F
330
BA89
100
AcDbEntity
  8
1
  6
Continuous
100
AcDbLine
 10
233.8516709999999
 20
158.074051
 30
0.0
 11
231.1578539999999
 21
158.074051
 31
0.0
  0
ARC
  5
BB70
330
BA89
100
AcDbEntity
  8
1
  6
Continuous
100
AcDbCircle
 10
111.17942
 20
216.256435
 30
0.0
 40
0.3
100
AcDbArc
 50
180.0
 51
0.0
  0
ARC
  5
BB71
330
BA89
100
AcDbEntity
  8
1
  6
Continuous
100
AcDbCircle
 10
231.1578539999999
 20
157.7740509999999
 30
0.0
 40
0.3
100
AcDbArc
 50
90.0
 51
270.0
  0
ARC
  5
BB72
330
BA89
100
AcDbEntity
  8
1
  6
Continuous
100
AcDbCircle
 10
33.11462699999999
 20
131.6447319999997
 30
0.0
 40
1.5
100
AcDbArc
 50
258.1113419999999
 51
270.0
  0
ARC
  5
BB73
330
BA89
100
AcDbEntity
  8
1
  6
Continuous
100
AcDbCircle
 10
33.11462699999999
 20
134.044732
 30
0.0
 40
1.5
100
AcDbArc
 50
258.1113419999999
 51
270.0
  0
ARC
  5
BB74
330
BA89
100
AcDbEntity
  8
1
  6
Continuous
100
AcDbCircle
 10
33.11462699999999
 20
136.4447319999999
 30
0.0
 40
1.5
100
AcDbArc
 50
258.1113419999999
 51
270.0
  0
ARC
  5
BB75
330
BA89
100
AcDbEntity
  8
1
  6
Continuous
100
AcDbCircle
 10
112.37942
 20
218.950252
 30
0.0
 40
1.5
100
AcDbArc
 50
168.1113419999998
 51
180.0
  0
ARC
  5
BB76
330
BA89
100
AcDbEntity
  8
1
  6
Continuous
100
AcDbCircle
 10
233.8516709999999
 20
156.5740509999999
 30
0.0
 40
1.5
100
AcDbArc
 50
78.11134200000002
 51
90.0
  0
LINE
  5
BB77
330
BA89
100
AcDbEntity
  8
1
  6
Continuous
100
AcDbLine
 10
112.9821799999999
 20
219.018335
 30
0.0
 11
112.9821799999999
 21
216.324518
 31
0.0
  0
LINE
  5
BB78
330
BA89
100
AcDbEntity
  8
1
  6
Continuous
100
AcDbLine
 10
114.175605
 20
221.9620519999998
 30
0.0
 11
113.5821799999999
 21
216.324518
 31
0.0
  0
LINE
  5
BB79
330
BA89
100
AcDbEntity
  8
1
  6
Continuous
100
AcDbLine
 10
115.38218
 20
219.018335
 30
0.0
 11
115.38218
 21
216.324518
 31
0.0
  0
LINE
  5
BB7A
330
BA89
100
AcDbEntity
  8
1
  6
Continuous
100
AcDbLine
 10
116.575605
 20
221.9620519999998
 30
0.0
 11
115.98218
 21
216.324518
 31
0.0
  0
LINE
  5
BB7B
330
BA89
100
AcDbEntity
  8
1
  6
Continuous
100
AcDbLine
 10
117.78218
 20
219.018335
 30
0.0
 11
117.78218
 21
216.324518
 31
0.0
  0
LINE
  5
BB7C
330
BA89
100
AcDbEntity
  8
1
  6
Continuous
100
AcDbLine
 10
118.9756049999999
 20
221.9620519999998
 30
0.0
 11
118.38218
 21
216.324518
 31
0.0
  0
ARC
  5
BB7D
330
BA89
100
AcDbEntity
  8
1
  6
Continuous
100
AcDbCircle
 10
113.28218
 20
216.324518
 30
0.0
 40
0.3
100
AcDbArc
 50
180.0
 51
0.0
  0
ARC
  5
BB7E
330
BA89
100
AcDbEntity
  8
1
  6
Continuous
100
AcDbCircle
 10
115.68218
 20
216.324518
 30
0.0
 40
0.3
100
AcDbArc
 50
180.0
 51
0.0
  0
ARC
  5
BB7F
330
BA89
100
AcDbEntity
  8
1
  6
Continuous
100
AcDbCircle
 10
118.0821799999999
 20
216.324518
 30
0.0
 40
0.3
100
AcDbArc
 50
180.0
 51
0.0
  0
ARC
  5
BB80
330
BA89
100
AcDbEntity
  8
1
  6
Continuous
100
AcDbCircle
 10
114.48218
 20
219.018335
 30
0.0
 40
1.5
100
AcDbArc
 50
168.1113419999998
 51
180.0
  0
LINE
  5
BB81
330
BA89
100
AcDbEntity
  8
1
  6
Continuous
100
AcDbLine
 10
113.5821799999999
 20
222.024518
 30
0.0
 11
113.014356
 21
219.327351
 31
0.0
  0
ARC
  5
BB82
330
BA89
100
AcDbEntity
  8
1
  6
Continuous
100
AcDbCircle
 10
113.88218
 20
222.024518
 30
0.0
 40
0.3
100
AcDbArc
 50
347.9819879999998
 51
180.0
  0
ARC
  5
BB83
330
BA89
100
AcDbEntity
  8
1
  6
Continuous
100
AcDbCircle
 10
116.88218
 20
219.018335
 30
0.0
 40
1.5
100
AcDbArc
 50
168.1113419999998
 51
180.0
  0
ARC
  5
BB84
330
BA89
100
AcDbEntity
  8
1
  6
Continuous
100
AcDbCircle
 10
116.28218
 20
222.024518
 30
0.0
 40
0.3
100
AcDbArc
 50
347.9819879999998
 51
180.0
  0
LINE
  5
BB85
330
BA89
100
AcDbEntity
  8
1
  6
Continuous
100
AcDbLine
 10
115.98218
 20
222.024518
 30
0.0
 11
115.414356
 21
219.327351
 31
0.0
  0
ARC
  5
BB86
330
BA89
100
AcDbEntity
  8
1
  6
Continuous
100
AcDbCircle
 10
119.28218
 20
219.018335
 30
0.0
 40
1.5
100
AcDbArc
 50
168.1113419999998
 51
180.0
  0
LINE
  5
BB87
330
BA89
100
AcDbEntity
  8
1
  6
Continuous
100
AcDbLine
 10
118.38218
 20
222.024518
 30
0.0
 11
117.814356
 21
219.327351
 31
0.0
  0
ARC
  5
BB88
330
BA89
100
AcDbEntity
  8
1
  6
Continuous
100
AcDbCircle
 10
118.68218
 20
222.024518
 30
0.0
 40
0.3
100
AcDbArc
 50
347.9819879999998
 51
180.0
  0
LINE
  5
BB89
330
BA89
100
AcDbEntity
  8
1
  6
Continuous
100
AcDbLine
 10
120.18218
 20
219.018335
 30
0.0
 11
120.18218
 21
216.324518
 31
0.0
  0
LINE
  5
BB8A
330
BA89
100
AcDbEntity
  8
1
  6
Continuous
100
AcDbLine
 10
121.3756049999999
 20
221.9620519999998
 30
0.0
 11
121.3438379999999
 21
221.660272
 31
0.0
  0
LINE
  5
BB8B
330
BA89
100
AcDbEntity
  8
1
  6
Continuous
100
AcDbLine
 10
123.1846299999999
 20
216.3478
 30
0.0
 11
123.18218
 21
216.324518
 31
0.0
  0
ARC
  5
BB8C
330
BA89
100
AcDbEntity
  8
1
  6
Continuous
100
AcDbCircle
 10
120.4821799999999
 20
216.324518
 30
0.0
 40
0.3
100
AcDbArc
 50
180.0
 51
0.0
  0
ARC
  5
BB8D
330
BA89
100
AcDbEntity
  8
1
  6
Continuous
100
AcDbCircle
 10
122.88218
 20
216.324518
 30
0.0
 40
0.3
100
AcDbArc
 50
175.549021
 51
0.0
  0
ARC
  5
BB8E
330
BA89
100
AcDbEntity
  8
1
  6
Continuous
100
AcDbCircle
 10
121.6821799999999
 20
219.018335
 30
0.0
 40
1.5
100
AcDbArc
 50
168.1113419999998
 51
180.0
  0
ARC
  5
BB8F
330
BA89
100
AcDbEntity
  8
1
  6
Continuous
100
AcDbCircle
 10
121.0821799999999
 20
222.024518
 30
0.0
 40
0.3
100
AcDbArc
 50
347.9819879999998
 51
180.0
  0
LINE
  5
BB90
330
BA89
100
AcDbEntity
  8
1
  6
Continuous
100
AcDbLine
 10
120.78218
 20
222.024518
 30
0.0
 11
120.214356
 21
219.327351
 31
0.0
  0
ARC
  5
BB91
330
BA89
100
AcDbEntity
  8
1
  6
Continuous
100
AcDbCircle
 10
30.10844399999999
 20
137.9731889999999
 30
0.0
 40
0.3
100
AcDbArc
 50
77.981988
 51
270.0
  0
LINE
  5
BB92
330
BA89
100
AcDbEntity
  8
1
  6
Continuous
100
AcDbLine
 10
30.10844399999999
 20
137.6731889999998
 30
0.0
 11
32.80561199999999
 21
137.1053639999997
 31
0.0
  0
LINE
  5
BB93
330
BA89
100
AcDbEntity
  8
1
  6
Continuous
100
AcDbLine
 10
30.17091
 20
138.2666139999997
 30
0.0
 11
35.808444
 21
137.6731889999998
 31
0.0
  0
LINE
  5
BB94
330
BA89
100
AcDbEntity
  8
1
  6
Continuous
100
AcDbLine
 10
29.863236
 20
154.953536
 30
0.0
 11
35.80053400000001
 21
154.611362
 31
0.0
  0
LINE
  5
BB95
330
BA89
100
AcDbEntity
  8
1
  6
Continuous
100
AcDbLine
 10
29.84353399999999
 20
154.611672
 30
0.0
 11
32.822034
 21
154.268362
 31
0.0
  0
LINE
  5
BB96
330
BA89
100
AcDbEntity
  8
1
  6
Continuous
100
AcDbLine
 10
29.887284
 20
151.9419949999999
 30
0.0
 11
35.75678400000001
 21
151.511978
 31
0.0
  0
LINE
  5
BB97
330
BA89
100
AcDbEntity
  8
1
  6
Continuous
100
AcDbLine
 10
29.887284
 20
151.511495
 30
0.0
 11
32.822034
 21
151.083776
 31
0.0
  0
LINE
  5
BB98
330
BA89
100
AcDbEntity
  8
1
  6
Continuous
100
AcDbLine
 10
29.864284
 20
153.1491139999999
 30
0.0
 11
32.822034
 21
152.7645359999999
 31
0.0
  0
LINE
  5
BB99
330
BA89
100
AcDbEntity
  8
1
  6
Continuous
100
AcDbLine
 10
30.17091
 20
140.6666139999997
 30
0.0
 11
35.808444
 21
140.0731889999998
 31
0.0
  0
LINE
  5
BB9A
330
BA89
100
AcDbEntity
  8
1
  6
Continuous
100
AcDbLine
 10
30.17091
 20
143.0666139999999
 30
0.0
 11
35.808444
 21
142.4731889999999
 31
0.0
  0
LINE
  5
BB9B
330
BA89
100
AcDbEntity
  8
1
  6
Continuous
100
AcDbLine
 10
30.17091
 20
145.466614
 30
0.0
 11
35.808444
 21
144.8731889999999
 31
0.0
  0
LINE
  5
BB9C
330
BA89
100
AcDbEntity
  8
1
  6
Continuous
100
AcDbLine
 10
30.10844399999999
 20
140.0731889999998
 30
0.0
 11
32.80561199999999
 21
139.5053639999999
 31
0.0
  0
ARC
  5
BB9D
330
BA89
100
AcDbEntity
  8
1
  6
Continuous
100
AcDbCircle
 10
30.10844399999999
 20
140.3731889999999
 30
0.0
 40
0.3
100
AcDbArc
 50
77.981988
 51
270.0
  0
ARC
  5
BB9E
330
BA89
100
AcDbEntity
  8
1
  6
Continuous
100
AcDbCircle
 10
30.10844399999999
 20
142.773189
 30
0.0
 40
0.3
100
AcDbArc
 50
77.981988
 51
270.0
  0
LINE
  5
BB9F
330
BA89
100
AcDbEntity
  8
1
  6
Continuous
100
AcDbLine
 10
30.10844399999999
 20
142.4731889999999
 30
0.0
 11
32.80561199999999
 21
141.905364
 31
0.0
  0
LINE
  5
BBA0
330
BA89
100
AcDbEntity
  8
1
  6
Continuous
100
AcDbLine
 10
30.10844399999999
 20
144.8731889999999
 30
0.0
 11
32.80561199999999
 21
144.305364
 31
0.0
  0
ARC
  5
BBA1
330
BA89
100
AcDbEntity
  8
1
  6
Continuous
100
AcDbCircle
 10
30.10844399999999
 20
145.1731889999998
 30
0.0
 40
0.3
100
AcDbArc
 50
77.981988
 51
270.0
  0
LINE
  5
BBA2
330
BA89
100
AcDbEntity
  8
1
  6
Continuous
100
AcDbLine
 10
30.17091
 20
147.866614
 30
0.0
 11
35.808444
 21
147.273189
 31
0.0
  0
LINE
  5
BBA3
330
BA89
100
AcDbEntity
  8
1
  6
Continuous
100
AcDbLine
 10
30.17091
 20
150.2666139999998
 30
0.0
 11
35.808444
 21
149.6731889999998
 31
0.0
  0
ARC
  5
BBA4
330
BA89
100
AcDbEntity
  8
1
  6
Continuous
100
AcDbCircle
 10
30.10844399999999
 20
147.5731889999998
 30
0.0
 40
0.3
100
AcDbArc
 50
77.981988
 51
270.0
  0
LINE
  5
BBA5
330
BA89
100
AcDbEntity
  8
1
  6
Continuous
100
AcDbLine
 10
30.10844399999999
 20
147.273189
 30
0.0
 11
32.80561199999999
 21
146.705364
 31
0.0
  0
ARC
  5
BBA6
330
BA89
100
AcDbEntity
  8
1
  6
Continuous
100
AcDbCircle
 10
30.10844399999999
 20
149.9731889999999
 30
0.0
 40
0.3
100
AcDbArc
 50
77.981988
 51
270.0
  0
LINE
  5
BBA7
330
BA89
100
AcDbEntity
  8
1
  6
Continuous
100
AcDbLine
 10
30.10844399999999
 20
149.6731889999998
 30
0.0
 11
32.80561199999999
 21
149.1053639999998
 31
0.0
  0
LINE
  5
BBA8
330
BA89
100
AcDbEntity
  8
1
  6
Continuous
100
AcDbLine
 10
29.864284
 20
153.533614
 30
0.0
 11
35.779784
 21
153.149036
 31
0.0
  0
ARC
  5
BBA9
330
BA89
100
AcDbEntity
  8
1
  6
Continuous
100
AcDbCircle
 10
29.84353399999999
 20
154.783172
 30
0.0
 40
0.1715
100
AcDbArc
 50
83.40322200000001
 51
270.0
  0
ARC
  5
BBAA
330
BA89
100
AcDbEntity
  8
1
  6
Continuous
100
AcDbCircle
 10
29.887284
 20
151.726745
 30
0.0
 40
0.21525
100
AcDbArc
 50
90.0
 51
270.0
  0
ARC
  5
BBAB
330
BA89
100
AcDbEntity
  8
1
  6
Continuous
100
AcDbCircle
 10
29.864284
 20
153.341364
 30
0.0
 40
0.19225
100
AcDbArc
 50
90.0
 51
270.0
  0
LINE
  5
BBAC
330
BA89
100
AcDbEntity
  8
1
  6
Continuous
100
AcDbLine
 10
33.11462699999999
 20
137.0731889999998
 30
0.0
 11
35.808444
 21
137.0731889999998
 31
0.0
  0
ARC
  5
BBAD
330
BA89
100
AcDbEntity
  8
1
  6
Continuous
100
AcDbCircle
 10
35.808444
 20
137.3731889999999
 30
0.0
 40
0.3
100
AcDbArc
 50
270.0
 51
90.0
  0
LINE
  5
BBAE
330
BA89
100
AcDbEntity
  8
1
  6
Continuous
100
AcDbLine
 10
32.822034
 20
154.268362
 30
0.0
 11
35.80053400000001
 21
154.268362
 31
0.0
  0
ARC
  5
BBAF
330
BA89
100
AcDbEntity
  8
1
  6
Continuous
100
AcDbCircle
 10
35.80053400000001
 20
154.439862
 30
0.0
 40
0.1715
100
AcDbArc
 50
270.0
 51
90.0
  0
ARC
  5
BBB0
330
BA89
100
AcDbEntity
  8
1
  6
Continuous
100
AcDbCircle
 10
35.75678400000001
 20
151.2967279999998
 30
0.0
 40
0.21525
100
AcDbArc
 50
261.619662
 51
90.0
  0
ARC
  5
BBB1
330
BA89
100
AcDbEntity
  8
1
  6
Continuous
100
AcDbCircle
 10
35.779784
 20
152.956786
 30
0.0
 40
0.19225
100
AcDbArc
 50
270.0
 51
90.0
  0
LINE
  5
BBB2
330
BA89
100
AcDbEntity
  8
1
  6
Continuous
100
AcDbLine
 10
35.72541300000001
 20
151.083776
 30
0.0
 11
32.822034
 21
151.083776
 31
0.0
  0
LINE
  5
BBB3
330
BA89
100
AcDbEntity
  8
1
  6
Continuous
100
AcDbLine
 10
35.779784
 20
152.7645359999999
 30
0.0
 11
32.822034
 21
152.7645359999999
 31
0.0
  0
LINE
  5
BBB4
330
BA89
100
AcDbEntity
  8
1
  6
Continuous
100
AcDbLine
 10
33.11462699999999
 20
139.4731889999999
 30
0.0
 11
35.808444
 21
139.4731889999999
 31
0.0
  0
LINE
  5
BBB5
330
BA89
100
AcDbEntity
  8
1
  6
Continuous
100
AcDbLine
 10
33.11462699999999
 20
141.8731889999999
 30
0.0
 11
35.808444
 21
141.8731889999999
 31
0.0
  0
LINE
  5
BBB6
330
BA89
100
AcDbEntity
  8
1
  6
Continuous
100
AcDbLine
 10
33.11462699999999
 20
144.273189
 30
0.0
 11
35.808444
 21
144.273189
 31
0.0
  0
ARC
  5
BBB7
330
BA89
100
AcDbEntity
  8
1
  6
Continuous
100
AcDbCircle
 10
35.808444
 20
139.7731889999998
 30
0.0
 40
0.3
100
AcDbArc
 50
270.0
 51
90.0
  0
ARC
  5
BBB8
330
BA89
100
AcDbEntity
  8
1
  6
Continuous
100
AcDbCircle
 10
35.808444
 20
142.1731889999998
 30
0.0
 40
0.3
100
AcDbArc
 50
270.0
 51
90.0
  0
ARC
  5
BBB9
330
BA89
100
AcDbEntity
  8
1
  6
Continuous
100
AcDbCircle
 10
35.808444
 20
144.5731889999999
 30
0.0
 40
0.3
100
AcDbArc
 50
270.0
 51
90.0
  0
LINE
  5
BBBA
330
BA89
100
AcDbEntity
  8
1
  6
Continuous
100
AcDbLine
 10
33.11462699999999
 20
146.6731889999998
 30
0.0
 11
35.808444
 21
146.6731889999998
 31
0.0
  0
LINE
  5
BBBB
330
BA89
100
AcDbEntity
  8
1
  6
Continuous
100
AcDbLine
 10
33.11462699999999
 20
149.0731889999999
 30
0.0
 11
35.808444
 21
149.0731889999999
 31
0.0
  0
ARC
  5
BBBC
330
BA89
100
AcDbEntity
  8
1
  6
Continuous
100
AcDbCircle
 10
35.808444
 20
146.973189
 30
0.0
 40
0.3
100
AcDbArc
 50
270.0
 51
90.0
  0
ARC
  5
BBBD
330
BA89
100
AcDbEntity
  8
1
  6
Continuous
100
AcDbCircle
 10
35.808444
 20
149.373189
 30
0.0
 40
0.3
100
AcDbArc
 50
270.0
 51
90.0
  0
ARC
  5
BBBE
330
BA89
100
AcDbEntity
  8
1
  6
Continuous
100
AcDbCircle
 10
33.11462699999999
 20
140.9731889999999
 30
0.0
 40
1.5
100
AcDbArc
 50
258.1113419999999
 51
270.0
  0
ARC
  5
BBBF
330
BA89
100
AcDbEntity
  8
1
  6
Continuous
100
AcDbCircle
 10
33.11462699999999
 20
143.3731889999999
 30
0.0
 40
1.5
100
AcDbArc
 50
258.1113419999999
 51
270.0
  0
ARC
  5
BBC0
330
BA89
100
AcDbEntity
  8
1
  6
Continuous
100
AcDbCircle
 10
33.11462699999999
 20
145.7731889999998
 30
0.0
 40
1.5
100
AcDbArc
 50
258.1113419999999
 51
270.0
  0
ARC
  5
BBC1
330
BA89
100
AcDbEntity
  8
1
  6
Continuous
100
AcDbCircle
 10
33.11462699999999
 20
148.1731889999998
 30
0.0
 40
1.5
100
AcDbArc
 50
258.1113419999999
 51
270.0
  0
ARC
  5
BBC2
330
BA89
100
AcDbEntity
  8
1
  6
Continuous
100
AcDbCircle
 10
33.11462699999999
 20
150.5731889999998
 30
0.0
 40
1.5
100
AcDbArc
 50
258.1113419999999
 51
270.0
  0
LINE
  5
BBC3
330
BA89
100
AcDbEntity
  8
1
  6
Continuous
100
AcDbLine
 10
29.84002999999999
 20
156.218982
 30
0.0
 11
35.81953399999999
 21
155.914394
 31
0.0
  0
LINE
  5
BBC4
330
BA89
100
AcDbEntity
  8
1
  6
Continuous
100
AcDbLine
 10
29.82453400000001
 20
155.9147709999998
 30
0.0
 11
32.822034
 21
155.6093939999998
 31
0.0
  0
LINE
  5
BBC5
330
BA89
100
AcDbEntity
  8
1
  6
Continuous
100
AcDbLine
 10
29.76203400000001
 20
157.3405359999999
 30
0.0
 11
35.88203399999999
 21
156.980633
 31
0.0
  0
LINE
  5
BBC6
330
BA89
100
AcDbEntity
  8
1
  6
Continuous
100
AcDbLine
 10
29.76203400000001
 20
157.160536
 30
0.0
 11
32.822034
 21
156.800633
 31
0.0
  0
LINE
  5
BBC7
330
BA89
100
AcDbEntity
  8
1
  6
Continuous
100
AcDbLine
 10
29.799777
 20
158.3259559999999
 30
0.0
 11
35.85353400000001
 21
158.0894889999999
 31
0.0
  0
LINE
  5
BBC8
330
BA89
100
AcDbEntity
  8
1
  6
Continuous
100
AcDbLine
 10
32.822034
 20
157.8524889999999
 30
0.0
 11
29.790534
 21
158.0893169999999
 31
0.0
  0
LINE
  5
BBC9
330
BA89
100
AcDbEntity
  8
1
  6
Continuous
100
AcDbLine
 10
29.77478400000001
 20
159.1846789999999
 30
0.0
 11
35.869284
 21
158.978862
 31
0.0
  0
LINE
  5
BBCA
330
BA89
100
AcDbEntity
  8
1
  6
Continuous
100
AcDbLine
 10
29.77478400000001
 20
158.9791789999999
 30
0.0
 11
32.822034
 21
158.7733619999999
 31
0.0
  0
LINE
  5
BBCB
330
BA89
100
AcDbEntity
  8
1
  6
Continuous
100
AcDbLine
 10
29.76507899999999
 20
159.9216099999999
 30
0.0
 11
35.884034
 21
159.7460609999999
 31
0.0
  0
LINE
  5
BBCC
330
BA89
100
AcDbEntity
  8
1
  6
Continuous
100
AcDbLine
 10
29.760034
 20
159.745755
 30
0.0
 11
32.822034
 21
159.570061
 31
0.0
  0
LINE
  5
BBCD
330
BA89
100
AcDbEntity
  8
1
  6
Continuous
100
AcDbLine
 10
29.73428399999999
 20
160.5424999999998
 30
0.0
 11
35.909784
 21
160.372599
 31
0.0
  0
LINE
  5
BBCE
330
BA89
100
AcDbEntity
  8
1
  6
Continuous
100
AcDbLine
 10
32.822034
 20
160.248099
 30
0.0
 11
29.73428399999999
 21
160.418
 31
0.0
  0
LINE
  5
BBCF
330
BA89
100
AcDbEntity
  8
1
  6
Continuous
100
AcDbLine
 10
35.942284
 20
160.871414
 30
0.0
 11
29.703493
 21
161.05083
 31
0.0
  0
LINE
  5
BBD0
330
BA89
100
AcDbEntity
  8
1
  6
Continuous
100
AcDbLine
 10
29.701784
 20
160.991379
 30
0.0
 11
32.822034
 21
160.811914
 31
0.0
  0
LINE
  5
BBD1
330
BA89
100
AcDbEntity
  8
1
  6
Continuous
100
AcDbLine
 10
29.705992
 20
161.7422399999998
 30
0.0
 11
35.93878399999999
 21
161.6758679999998
 31
0.0
  0
LINE
  5
BBD2
330
BA89
100
AcDbEntity
  8
1
  6
Continuous
100
AcDbLine
 10
32.822034
 20
161.6093679999998
 30
0.0
 11
29.705284
 21
161.6757479999999
 31
0.0
  0
LINE
  5
BBD3
330
BA89
100
AcDbEntity
  8
1
  6
Continuous
100
AcDbLine
 10
35.925784
 20
161.357528
 30
0.0
 11
29.719662
 21
161.449986
 31
0.0
  0
LINE
  5
BBD4
330
BA89
100
AcDbEntity
  8
1
  6
Continuous
100
AcDbLine
 10
29.71828400000001
 20
161.357507
 30
0.0
 11
32.822034
 21
161.2650279999998
 31
0.0
  0
ARC
  5
BBD5
330
BA89
100
AcDbEntity
  8
1
  6
Continuous
100
AcDbCircle
 10
29.82453400000001
 20
156.067271
 30
0.0
 40
0.1525
100
AcDbArc
 50
84.16789599999999
 51
270.0
  0
ARC
  5
BBD6
330
BA89
100
AcDbEntity
  8
1
  6
Continuous
100
AcDbCircle
 10
29.76203400000001
 20
157.250536
 30
0.0
 40
0.09
100
AcDbArc
 50
90.0
 51
270.0
  0
ARC
  5
BBD7
330
BA89
100
AcDbEntity
  8
1
  6
Continuous
100
AcDbCircle
 10
29.790534
 20
158.207817
 30
0.0
 40
0.1185
100
AcDbArc
 50
85.52619399999997
 51
270.0
  0
ARC
  5
BBD8
330
BA89
100
AcDbEntity
  8
1
  6
Continuous
100
AcDbCircle
 10
29.77478400000001
 20
159.0819289999998
 30
0.0
 40
0.10275
100
AcDbArc
 50
90.0
 51
270.0
  0
ARC
  5
BBD9
330
BA89
100
AcDbEntity
  8
1
  6
Continuous
100
AcDbCircle
 10
29.760034
 20
159.833755
 30
0.0
 40
0.088
100
AcDbArc
 50
86.71334399999997
 51
270.0
  0
ARC
  5
BBDA
330
BA89
100
AcDbEntity
  8
1
  6
Continuous
100
AcDbCircle
 10
29.73428399999999
 20
160.48025
 30
0.0
 40
0.06225
100
AcDbArc
 50
90.0
 51
270.0
  0
ARC
  5
BBDB
330
BA89
100
AcDbEntity
  8
1
  6
Continuous
100
AcDbCircle
 10
29.701784
 20
161.021129
 30
0.0
 40
0.02975
100
AcDbArc
 50
86.70546800000003
 51
270.0
  0
ARC
  5
BBDC
330
BA89
100
AcDbEntity
  8
1
  6
Continuous
100
AcDbCircle
 10
29.705284
 20
161.708998
 30
0.0
 40
0.03325
100
AcDbArc
 50
88.77976600000001
 51
270.0
  0
ARC
  5
BBDD
330
BA89
100
AcDbEntity
  8
1
  6
Continuous
100
AcDbCircle
 10
29.71828400000001
 20
161.403757
 30
0.0
 40
0.04625
100
AcDbArc
 50
88.292947
 51
270.0
  0
LINE
  5
BBDE
330
BA89
100
AcDbEntity
  8
1
  6
Continuous
100
AcDbLine
 10
32.822034
 20
155.6093939999998
 30
0.0
 11
35.81953399999999
 21
155.6093939999998
 31
0.0
  0
LINE
  5
BBDF
330
BA89
100
AcDbEntity
  8
1
  6
Continuous
100
AcDbLine
 10
32.822034
 20
156.800633
 30
0.0
 11
35.88203399999999
 21
156.800633
 31
0.0
  0
LINE
  5
BBE0
330
BA89
100
AcDbEntity
  8
1
  6
Continuous
100
AcDbLine
 10
32.822034
 20
157.8524889999999
 30
0.0
 11
35.85353400000001
 21
157.8524889999999
 31
0.0
  0
LINE
  5
BBE1
330
BA89
100
AcDbEntity
  8
1
  6
Continuous
100
AcDbLine
 10
32.822034
 20
158.7733619999999
 30
0.0
 11
35.869284
 21
158.7733619999999
 31
0.0
  0
LINE
  5
BBE2
330
BA89
100
AcDbEntity
  8
1
  6
Continuous
100
AcDbLine
 10
32.822034
 20
159.570061
 30
0.0
 11
35.884034
 21
159.570061
 31
0.0
  0
LINE
  5
BBE3
330
BA89
100
AcDbEntity
  8
1
  6
Continuous
100
AcDbLine
 10
32.822034
 20
160.248099
 30
0.0
 11
35.909784
 21
160.248099
 31
0.0
  0
LINE
  5
BBE4
330
BA89
100
AcDbEntity
  8
1
  6
Continuous
100
AcDbLine
 10
32.822034
 20
160.811914
 30
0.0
 11
35.942284
 21
160.811914
 31
0.0
  0
LINE
  5
BBE5
330
BA89
100
AcDbEntity
  8
1
  6
Continuous
100
AcDbLine
 10
32.822034
 20
161.2650279999998
 30
0.0
 11
35.925784
 21
161.2650279999998
 31
0.0
  0
ARC
  5
BBE6
330
BA89
100
AcDbEntity
  8
1
  6
Continuous
100
AcDbCircle
 10
35.81953399999999
 20
155.7618939999999
 30
0.0
 40
0.1525
100
AcDbArc
 50
270.0
 51
90.0
  0
ARC
  5
BBE7
330
BA89
100
AcDbEntity
  8
1
  6
Continuous
100
AcDbCircle
 10
35.88203399999999
 20
156.890633
 30
0.0
 40
0.09
100
AcDbArc
 50
270.0
 51
90.0
  0
ARC
  5
BBE8
330
BA89
100
AcDbEntity
  8
1
  6
Continuous
100
AcDbCircle
 10
35.85353400000001
 20
157.970989
 30
0.0
 40
0.1185
100
AcDbArc
 50
270.0
 51
90.0
  0
ARC
  5
BBE9
330
BA89
100
AcDbEntity
  8
1
  6
Continuous
100
AcDbCircle
 10
35.869284
 20
158.876112
 30
0.0
 40
0.10275
100
AcDbArc
 50
270.0
 51
90.0
  0
ARC
  5
BBEA
330
BA89
100
AcDbEntity
  8
1
  6
Continuous
100
AcDbCircle
 10
35.884034
 20
159.658061
 30
0.0
 40
0.088
100
AcDbArc
 50
270.0
 51
90.0
  0
ARC
  5
BBEB
330
BA89
100
AcDbEntity
  8
1
  6
Continuous
100
AcDbCircle
 10
35.909784
 20
160.310349
 30
0.0
 40
0.06225
100
AcDbArc
 50
270.0
 51
90.0
  0
ARC
  5
BBEC
330
BA89
100
AcDbEntity
  8
1
  6
Continuous
100
AcDbCircle
 10
35.942284
 20
160.8416639999998
 30
0.0
 40
0.02975
100
AcDbArc
 50
270.0
 51
90.0
  0
LINE
  5
BBED
330
BA89
100
AcDbEntity
  8
1
  6
Continuous
100
AcDbLine
 10
32.822034
 20
161.6093679999998
 30
0.0
 11
35.93878399999999
 21
161.6093679999998
 31
0.0
  0
ARC
  5
BBEE
330
BA89
100
AcDbEntity
  8
1
  6
Continuous
100
AcDbCircle
 10
35.93878399999999
 20
161.6426179999999
 30
0.0
 40
0.03325
100
AcDbArc
 50
270.0
 51
90.0
  0
ARC
  5
BBEF
330
BA89
100
AcDbEntity
  8
1
  6
Continuous
100
AcDbCircle
 10
35.925784
 20
161.3112779999999
 30
0.0
 40
0.04625
100
AcDbArc
 50
270.0
 51
90.0
  0
ARC
  5
BBF0
330
BA89
100
AcDbEntity
  8
1
  6
Continuous
100
AcDbCircle
 10
35.76045899999999
 20
123.48433
 30
0.0
 40
0.3
100
AcDbArc
 50
270.0
 51
90.0
  0
LINE
  5
BBF1
330
BA89
100
AcDbEntity
  8
1
  6
Continuous
100
AcDbLine
 10
30.060459
 20
123.78433
 30
0.0
 11
32.757627
 21
123.216505
 31
0.0
  0
LINE
  5
BBF2
330
BA89
100
AcDbEntity
  8
1
  6
Continuous
100
AcDbLine
 10
30.122925
 20
121.977755
 30
0.0
 11
35.76045899999999
 21
121.38433
 31
0.0
  0
LINE
  5
BBF3
330
BA89
100
AcDbEntity
  8
1
  6
Continuous
100
AcDbLine
 10
30.060459
 20
121.38433
 30
0.0
 11
32.757627
 21
120.816505
 31
0.0
  0
ARC
  5
BBF4
330
BA89
100
AcDbEntity
  8
1
  6
Continuous
100
AcDbCircle
 10
30.060459
 20
121.68433
 30
0.0
 40
0.3
100
AcDbArc
 50
77.981988
 51
270.0
  0
LINE
  5
BBF5
330
BA89
100
AcDbEntity
  8
1
  6
Continuous
100
AcDbLine
 10
33.066642
 20
123.1843299999999
 30
0.0
 11
35.76045899999999
 21
123.1843299999999
 31
0.0
  0
ARC
  5
BBF6
330
BA89
100
AcDbEntity
  8
1
  6
Continuous
100
AcDbCircle
 10
33.066642
 20
124.68433
 30
0.0
 40
1.5
100
AcDbArc
 50
258.1113419999999
 51
270.0
  0
ARC
  5
BBF7
330
BA89
100
AcDbEntity
  8
1
  6
Continuous
100
AcDbCircle
 10
35.76045899999999
 20
121.08433
 30
0.0
 40
0.3
100
AcDbArc
 50
270.0
 51
90.0
  0
LINE
  5
BBF8
330
BA89
100
AcDbEntity
  8
1
  6
Continuous
100
AcDbLine
 10
33.066642
 20
120.78433
 30
0.0
 11
35.76045899999999
 21
120.78433
 31
0.0
  0
ARC
  5
BBF9
330
BA89
100
AcDbEntity
  8
1
  6
Continuous
100
AcDbCircle
 10
33.066642
 20
122.28433
 30
0.0
 40
1.5
100
AcDbArc
 50
258.1113419999999
 51
270.0
  0
LINE
  5
BBFA
330
BA89
100
AcDbEntity
  8
1
  6
Continuous
100
AcDbLine
 10
30.122925
 20
126.7777549999999
 30
0.0
 11
35.76045899999999
 21
126.18433
 31
0.0
  0
LINE
  5
BBFB
330
BA89
100
AcDbEntity
  8
1
  6
Continuous
100
AcDbLine
 10
30.122925
 20
124.3777549999999
 30
0.0
 11
35.76045899999999
 21
123.78433
 31
0.0
  0
LINE
  5
BBFC
330
BA89
100
AcDbEntity
  8
1
  6
Continuous
100
AcDbLine
 10
30.060459
 20
126.18433
 30
0.0
 11
32.757627
 21
125.616505
 31
0.0
  0
ARC
  5
BBFD
330
BA89
100
AcDbEntity
  8
1
  6
Continuous
100
AcDbCircle
 10
30.060459
 20
126.48433
 30
0.0
 40
0.3
100
AcDbArc
 50
77.981988
 51
270.0
  0
ARC
  5
BBFE
330
BA89
100
AcDbEntity
  8
1
  6
Continuous
100
AcDbCircle
 10
30.060459
 20
124.0843299999999
 30
0.0
 40
0.3
100
AcDbArc
 50
77.981988
 51
270.0
  0
LINE
  5
BBFF
330
BA89
100
AcDbEntity
  8
1
  6
Continuous
100
AcDbLine
 10
33.066642
 20
125.5843299999999
 30
0.0
 11
35.76045899999999
 21
125.5843299999999
 31
0.0
  0
ARC
  5
BC00
330
BA89
100
AcDbEntity
  8
1
  6
Continuous
100
AcDbCircle
 10
33.066642
 20
127.0843299999999
 30
0.0
 40
1.5
100
AcDbArc
 50
258.1113419999999
 51
270.0
  0
ARC
  5
BC01
330
BA89
100
AcDbEntity
  8
1
  6
Continuous
100
AcDbCircle
 10
35.76045899999999
 20
125.88433
 30
0.0
 40
0.3
100
AcDbArc
 50
270.0
 51
90.0
  0
LINE
  5
BC02
330
BA89
100
AcDbEntity
  8
1
  6
Continuous
100
AcDbLine
 10
227.345952
 20
156.230556
 30
0.0
 11
230.3480589999999
 21
155.155175
 31
0.0
  0
LINE
  5
BC03
330
BA89
100
AcDbEntity
  8
1
  6
Continuous
100
AcDbLine
 10
231.0412809999998
 20
155.16211
 30
0.0
 11
233.489956
 21
156.0949389999999
 31
0.0
  0
LINE
  5
BC04
330
BA89
100
AcDbEntity
  8
1
  6
Continuous
100
AcDbLine
 10
234.2019469999999
 20
156.0949389999999
 30
0.0
 11
236.650622
 21
155.16211
 31
0.0
  0
LINE
  5
BC05
330
BA89
100
AcDbEntity
  8
1
  6
Continuous
100
AcDbLine
 10
237.343844
 20
155.155175
 30
0.0
 11
240.345952
 21
156.230556
 31
0.0
  0
LINE
  5
BC06
330
BA89
100
AcDbEntity
  8
1
  6
Continuous
100
AcDbLine
 10
240.345952
 20
155.617925
 30
0.0
 11
237.343844
 21
154.5425429999999
 31
0.0
  0
LINE
  5
BC07
330
BA89
100
AcDbEntity
  8
1
  6
Continuous
100
AcDbLine
 10
236.650622
 20
154.549479
 30
0.0
 11
234.2019469999999
 21
155.4823069999999
 31
0.0
  0
LINE
  5
BC08
330
BA89
100
AcDbEntity
  8
1
  6
Continuous
100
AcDbLine
 10
233.489956
 20
155.4823069999999
 30
0.0
 11
231.0412809999998
 21
154.549479
 31
0.0
  0
LINE
  5
BC09
330
BA89
100
AcDbEntity
  8
1
  6
Continuous
100
AcDbLine
 10
230.3480589999999
 20
154.5425429999999
 30
0.0
 11
227.345952
 21
155.617925
 31
0.0
  0
ARC
  5
BC0A
330
BA89
100
AcDbEntity
  8
1
  6
Continuous
100
AcDbCircle
 10
237.006618
 20
155.4839659999998
 30
0.0
 40
1.0
100
AcDbArc
 50
249.145542
 51
289.707979
  0
ARC
  5
BC0B
330
BA89
100
AcDbEntity
  8
1
  6
Continuous
100
AcDbCircle
 10
230.6852859999999
 20
155.4839659999998
 30
0.0
 40
1.0
100
AcDbArc
 50
250.292021
 51
290.854458
  0
ARC
  5
BC0C
330
BA89
100
AcDbEntity
  8
1
  6
Continuous
100
AcDbCircle
 10
230.6852859999999
 20
156.0965979999998
 30
0.0
 40
1.0
100
AcDbArc
 50
250.292021
 51
290.854458
  0
ARC
  5
BC0D
330
BA89
100
AcDbEntity
  8
1
  6
Continuous
100
AcDbCircle
 10
237.006618
 20
156.0965979999998
 30
0.0
 40
1.0
100
AcDbArc
 50
249.145542
 51
289.707979
  0
ARC
  5
BC0E
330
BA89
100
AcDbEntity
  8
1
  6
Continuous
100
AcDbCircle
 10
233.845952
 20
154.5478199999998
 30
0.0
 40
1.0
100
AcDbArc
 50
69.14554200000001
 51
110.854458
  0
ARC
  5
BC0F
330
BA89
100
AcDbEntity
  8
1
  6
Continuous
100
AcDbCircle
 10
233.845952
 20
155.1604509999999
 30
0.0
 40
1.0
100
AcDbArc
 50
69.14554200000001
 51
110.854458
  0
LINE
  5
BC10
330
BA89
100
AcDbEntity
  8
1
  6
Continuous
100
AcDbLine
 10
153.9038119999999
 20
225.8478
 30
0.0
 11
154.601946
 21
225.010039
 31
0.0
  0
LINE
  5
BC11
330
BA89
100
AcDbEntity
  8
1
  6
Continuous
100
AcDbLine
 10
154.816386
 20
224.184446
 30
0.0
 11
153.938794
 21
219.533208
 31
0.0
  0
LINE
  5
BC12
330
BA89
100
AcDbEntity
  8
1
  6
Continuous
100
AcDbLine
 10
153.938794
 20
219.162392
 30
0.0
 11
154.816386
 21
214.511154
 31
0.0
  0
LINE
  5
BC13
330
BA89
100
AcDbEntity
  8
1
  6
Continuous
100
AcDbLine
 10
154.601946
 20
213.685561
 30
0.0
 11
153.9038119999999
 21
212.8478
 31
0.0
  0
ARC
  5
BC14
330
BA89
100
AcDbEntity
  8
1
  6
Continuous
100
AcDbCircle
 10
153.8337249999998
 20
224.369854
 30
0.0
 40
1.0
100
AcDbArc
 50
349.3150879999998
 51
39.805571
  0
ARC
  5
BC15
330
BA89
100
AcDbEntity
  8
1
  6
Continuous
100
AcDbCircle
 10
153.8337249999998
 20
214.325746
 30
0.0
 40
1.0
100
AcDbArc
 50
320.194429
 51
10.68491199999999
  0
ARC
  5
BC16
330
BA89
100
AcDbEntity
  8
1
  6
Continuous
100
AcDbCircle
 10
154.921456
 20
219.3478
 30
0.0
 40
1.0
100
AcDbArc
 50
169.315088
 51
190.684912
  0
LINE
  5
BC17
330
BA89
100
AcDbEntity
  8
1
  6
Continuous
100
AcDbLine
 10
29.724558
 20
119.259876
 30
0.0
 11
32.42172599999999
 21
118.6920509999999
 31
0.0
  0
LINE
  5
BC18
330
BA89
100
AcDbEntity
  8
1
  6
Continuous
100
AcDbLine
 10
29.724558
 20
116.859876
 30
0.0
 11
32.42172599999999
 21
116.2920509999999
 31
0.0
  0
LINE
  5
BC19
330
BA89
100
AcDbEntity
  8
1
  6
Continuous
100
AcDbLine
 10
29.78702399999999
 20
119.853301
 30
0.0
 11
35.42455799999999
 21
119.259876
 31
0.0
  0
LINE
  5
BC1A
330
BA89
100
AcDbEntity
  8
1
  6
Continuous
100
AcDbLine
 10
29.78702399999999
 20
117.4533009999999
 30
0.0
 11
35.42455799999999
 21
116.859876
 31
0.0
  0
ARC
  5
BC1B
330
BA89
100
AcDbEntity
  8
1
  6
Continuous
100
AcDbCircle
 10
29.724558
 20
119.5598759999999
 30
0.0
 40
0.3
100
AcDbArc
 50
77.981988
 51
270.0
  0
ARC
  5
BC1C
330
BA89
100
AcDbEntity
  8
1
  6
Continuous
100
AcDbCircle
 10
29.724558
 20
117.1598759999999
 30
0.0
 40
0.3
100
AcDbArc
 50
77.981988
 51
270.0
  0
ARC
  5
BC1D
330
BA89
100
AcDbEntity
  8
1
  6
Continuous
100
AcDbCircle
 10
32.73074099999998
 20
120.1598759999999
 30
0.0
 40
1.5
100
AcDbArc
 50
258.1113419999999
 51
270.0
  0
ARC
  5
BC1E
330
BA89
100
AcDbEntity
  8
1
  6
Continuous
100
AcDbCircle
 10
32.73074099999998
 20
117.759876
 30
0.0
 40
1.5
100
AcDbArc
 50
258.1113419999999
 51
270.0
  0
ARC
  5
BC1F
330
BA89
100
AcDbEntity
  8
1
  6
Continuous
100
AcDbCircle
 10
35.42455799999999
 20
118.9598759999998
 30
0.0
 40
0.3
100
AcDbArc
 50
270.0
 51
90.0
  0
ARC
  5
BC20
330
BA89
100
AcDbEntity
  8
1
  6
Continuous
100
AcDbCircle
 10
35.42455799999999
 20
116.5598759999999
 30
0.0
 40
0.3
100
AcDbArc
 50
270.0
 51
90.0
  0
LINE
  5
BC21
330
BA89
100
AcDbEntity
  8
1
  6
Continuous
100
AcDbLine
 10
32.73074099999998
 20
118.659876
 30
0.0
 11
35.42455799999999
 21
118.659876
 31
0.0
  0
LINE
  5
BC22
330
BA89
100
AcDbEntity
  8
1
  6
Continuous
100
AcDbLine
 10
32.73074099999998
 20
116.259876
 30
0.0
 11
35.42455799999999
 21
116.259876
 31
0.0
  0
LINE
  5
BC23
330
BA89
100
AcDbEntity
  8
1
  6
Continuous
100
AcDbLine
 10
102.720256
 20
48.67867799999999
 30
0.0
 11
102.720256
 21
51.76642799999999
 31
0.0
  0
ARC
  5
BC24
330
BA89
100
AcDbEntity
  8
1
  6
Continuous
100
AcDbCircle
 10
102.658006
 20
51.76642799999999
 30
0.0
 40
0.06225
100
AcDbArc
 50
0.0
 51
180.0
  0
ARC
  5
BC25
330
BA89
100
AcDbEntity
  8
1
  6
Continuous
100
AcDbCircle
 10
102.488105
 20
45.59092800000001
 30
0.0
 40
0.06225
100
AcDbArc
 50
180.0
 51
0.0
  0
LINE
  5
BC26
330
BA89
100
AcDbEntity
  8
1
  6
Continuous
100
AcDbLine
 10
102.425855
 20
45.59092800000001
 30
0.0
 11
102.5957559999999
 21
51.76642799999999
 31
0.0
  0
LINE
  5
BC27
330
BA89
100
AcDbEntity
  8
1
  6
Continuous
100
AcDbLine
 10
102.720256
 20
48.67867799999999
 30
0.0
 11
102.550355
 21
45.59092800000001
 31
0.0
  0
LINE
  5
BC28
330
BA89
100
AcDbEntity
  8
1
  6
Continuous
100
AcDbLine
 10
102.156441
 20
48.67867799999999
 30
0.0
 11
102.156441
 21
51.79892800000001
 31
0.0
  0
LINE
  5
BC29
330
BA89
100
AcDbEntity
  8
1
  6
Continuous
100
AcDbLine
 10
101.7033269999999
 20
48.67867799999999
 30
0.0
 11
101.7033269999999
 21
51.782428
 31
0.0
  0
ARC
  5
BC2A
330
BA89
100
AcDbEntity
  8
1
  6
Continuous
100
AcDbCircle
 10
102.126691
 20
51.79892800000001
 30
0.0
 40
0.02975
100
AcDbArc
 50
0.0
 51
180.0
  0
LINE
  5
BC2B
330
BA89
100
AcDbEntity
  8
1
  6
Continuous
100
AcDbLine
 10
101.358987
 20
48.67867799999999
 30
0.0
 11
101.358987
 21
51.795428
 31
0.0
  0
ARC
  5
BC2C
330
BA89
100
AcDbEntity
  8
1
  6
Continuous
100
AcDbCircle
 10
101.325737
 20
51.795428
 30
0.0
 40
0.03325
100
AcDbArc
 50
0.0
 51
180.0
  0
ARC
  5
BC2D
330
BA89
100
AcDbEntity
  8
1
  6
Continuous
100
AcDbCircle
 10
101.6570769999999
 20
51.782428
 30
0.0
 40
0.04625
100
AcDbArc
 50
0.0
 51
180.0
  0
ARC
  5
BC2E
330
BA89
100
AcDbEntity
  8
1
  6
Continuous
100
AcDbCircle
 10
101.947226
 20
45.55842799999999
 30
0.0
 40
0.02975
100
AcDbArc
 50
176.705468
 51
0.0
  0
ARC
  5
BC2F
330
BA89
100
AcDbEntity
  8
1
  6
Continuous
100
AcDbCircle
 10
101.2593569999998
 20
45.561928
 30
0.0
 40
0.03325
100
AcDbArc
 50
178.779766
 51
0.0
  0
ARC
  5
BC30
330
BA89
100
AcDbEntity
  8
1
  6
Continuous
100
AcDbCircle
 10
101.5645979999999
 20
45.574928
 30
0.0
 40
0.04625
100
AcDbArc
 50
178.292947
 51
0.0
  0
LINE
  5
BC31
330
BA89
100
AcDbEntity
  8
1
  6
Continuous
100
AcDbLine
 10
102.0969409999999
 20
51.79892800000001
 30
0.0
 11
101.9175249999999
 21
45.560137
 31
0.0
  0
LINE
  5
BC32
330
BA89
100
AcDbEntity
  8
1
  6
Continuous
100
AcDbLine
 10
101.9769759999999
 20
45.55842799999999
 30
0.0
 11
102.156441
 21
48.67867799999999
 31
0.0
  0
LINE
  5
BC33
330
BA89
100
AcDbEntity
  8
1
  6
Continuous
100
AcDbLine
 10
101.226115
 20
45.562636
 30
0.0
 11
101.2924869999998
 21
51.795428
 31
0.0
  0
LINE
  5
BC34
330
BA89
100
AcDbEntity
  8
1
  6
Continuous
100
AcDbLine
 10
101.358987
 20
48.67867799999999
 30
0.0
 11
101.292607
 21
45.561928
 31
0.0
  0
LINE
  5
BC35
330
BA89
100
AcDbEntity
  8
1
  6
Continuous
100
AcDbLine
 10
101.6108269999999
 20
51.782428
 30
0.0
 11
101.5183689999998
 21
45.576306
 31
0.0
  0
LINE
  5
BC36
330
BA89
100
AcDbEntity
  8
1
  6
Continuous
100
AcDbLine
 10
101.6108479999999
 20
45.574928
 30
0.0
 11
101.7033269999999
 21
48.67867799999999
 31
0.0
  0
LINE
  5
BC37
330
BA89
100
AcDbEntity
  8
1
  6
Continuous
100
AcDbLine
 10
108.6999929999999
 20
48.67867799999999
 30
0.0
 11
108.6999929999999
 21
51.657178
 31
0.0
  0
ARC
  5
BC38
330
BA89
100
AcDbEntity
  8
1
  6
Continuous
100
AcDbCircle
 10
108.528493
 20
51.657178
 30
0.0
 40
0.1715
100
AcDbArc
 50
0.0
 51
180.0
  0
ARC
  5
BC39
330
BA89
100
AcDbEntity
  8
1
  6
Continuous
100
AcDbCircle
 10
110.0115689999998
 20
51.636428
 30
0.0
 40
0.19225
100
AcDbArc
 50
0.0
 51
180.0
  0
LINE
  5
BC3A
330
BA89
100
AcDbEntity
  8
1
  6
Continuous
100
AcDbLine
 10
110.203819
 20
51.636428
 30
0.0
 11
110.203819
 21
48.67867799999999
 31
0.0
  0
LINE
  5
BC3B
330
BA89
100
AcDbEntity
  8
1
  6
Continuous
100
AcDbLine
 10
107.3589609999999
 20
48.67867799999999
 30
0.0
 11
107.3589609999999
 21
51.676178
 31
0.0
  0
LINE
  5
BC3C
330
BA89
100
AcDbEntity
  8
1
  6
Continuous
100
AcDbLine
 10
106.1677219999999
 20
48.67867799999999
 30
0.0
 11
106.1677219999999
 21
51.738678
 31
0.0
  0
LINE
  5
BC3D
330
BA89
100
AcDbEntity
  8
1
  6
Continuous
100
AcDbLine
 10
105.115866
 20
48.67867799999999
 30
0.0
 11
105.115866
 21
51.71017800000001
 31
0.0
  0
LINE
  5
BC3E
330
BA89
100
AcDbEntity
  8
1
  6
Continuous
100
AcDbLine
 10
104.194993
 20
48.67867799999999
 30
0.0
 11
104.194993
 21
51.725928
 31
0.0
  0
LINE
  5
BC3F
330
BA89
100
AcDbEntity
  8
1
  6
Continuous
100
AcDbLine
 10
103.398294
 20
48.67867799999999
 30
0.0
 11
103.398294
 21
51.740678
 31
0.0
  0
ARC
  5
BC40
330
BA89
100
AcDbEntity
  8
1
  6
Continuous
100
AcDbCircle
 10
107.2064609999999
 20
51.676178
 30
0.0
 40
0.1525
100
AcDbArc
 50
0.0
 51
180.0
  0
ARC
  5
BC41
330
BA89
100
AcDbEntity
  8
1
  6
Continuous
100
AcDbCircle
 10
106.0777219999998
 20
51.738678
 30
0.0
 40
0.09
100
AcDbArc
 50
0.0
 51
180.0
  0
ARC
  5
BC42
330
BA89
100
AcDbEntity
  8
1
  6
Continuous
100
AcDbCircle
 10
104.9973659999998
 20
51.71017800000001
 30
0.0
 40
0.1185
100
AcDbArc
 50
0.0
 51
180.0
  0
ARC
  5
BC43
330
BA89
100
AcDbEntity
  8
1
  6
Continuous
100
AcDbCircle
 10
104.092243
 20
51.725928
 30
0.0
 40
0.10275
100
AcDbArc
 50
0.0
 51
180.0
  0
ARC
  5
BC44
330
BA89
100
AcDbEntity
  8
1
  6
Continuous
100
AcDbCircle
 10
103.310294
 20
51.740678
 30
0.0
 40
0.088
100
AcDbArc
 50
0.0
 51
180.0
  0
ARC
  5
BC45
330
BA89
100
AcDbEntity
  8
1
  6
Continuous
100
AcDbCircle
 10
108.1851829999999
 20
45.700178
 30
0.0
 40
0.1715
100
AcDbArc
 50
173.403222
 51
0.0
  0
ARC
  5
BC46
330
BA89
100
AcDbEntity
  8
1
  6
Continuous
100
AcDbCircle
 10
109.6269909999999
 20
45.720928
 30
0.0
 40
0.19225
100
AcDbArc
 50
180.0
 51
0.0
  0
ARC
  5
BC47
330
BA89
100
AcDbEntity
  8
1
  6
Continuous
100
AcDbCircle
 10
106.901084
 20
45.681178
 30
0.0
 40
0.1525
100
AcDbArc
 50
174.1678959999999
 51
0.0
  0
ARC
  5
BC48
330
BA89
100
AcDbEntity
  8
1
  6
Continuous
100
AcDbCircle
 10
105.7178189999999
 20
45.618678
 30
0.0
 40
0.09
100
AcDbArc
 50
180.0
 51
0.0
  0
ARC
  5
BC49
330
BA89
100
AcDbEntity
  8
1
  6
Continuous
100
AcDbCircle
 10
104.760538
 20
45.64717799999999
 30
0.0
 40
0.1185
100
AcDbArc
 50
175.526194
 51
0.0
  0
ARC
  5
BC4A
330
BA89
100
AcDbEntity
  8
1
  6
Continuous
100
AcDbCircle
 10
103.8864259999999
 20
45.631428
 30
0.0
 40
0.10275
100
AcDbArc
 50
180.0
 51
0.0
  0
ARC
  5
BC4B
330
BA89
100
AcDbEntity
  8
1
  6
Continuous
100
AcDbCircle
 10
103.1346
 20
45.616678
 30
0.0
 40
0.088
100
AcDbArc
 50
176.713344
 51
0.0
  0
LINE
  5
BC4C
330
BA89
100
AcDbEntity
  8
1
  6
Continuous
100
AcDbLine
 10
108.0148189999998
 20
45.71988
 30
0.0
 11
108.3569929999999
 21
51.657178
 31
0.0
  0
LINE
  5
BC4D
330
BA89
100
AcDbEntity
  8
1
  6
Continuous
100
AcDbLine
 10
108.356683
 20
45.700178
 30
0.0
 11
108.6999929999999
 21
48.67867799999999
 31
0.0
  0
LINE
  5
BC4E
330
BA89
100
AcDbEntity
  8
1
  6
Continuous
100
AcDbLine
 10
109.819241
 20
45.720928
 30
0.0
 11
110.203819
 21
48.67867799999999
 31
0.0
  0
LINE
  5
BC4F
330
BA89
100
AcDbEntity
  8
1
  6
Continuous
100
AcDbLine
 10
109.4347409999999
 20
45.720928
 30
0.0
 11
109.8193189999998
 21
51.636428
 31
0.0
  0
LINE
  5
BC50
330
BA89
100
AcDbEntity
  8
1
  6
Continuous
100
AcDbLine
 10
106.749373
 20
45.696674
 30
0.0
 11
107.053961
 21
51.676178
 31
0.0
  0
LINE
  5
BC51
330
BA89
100
AcDbEntity
  8
1
  6
Continuous
100
AcDbLine
 10
107.053584
 20
45.681178
 30
0.0
 11
107.3589609999999
 21
48.67867799999999
 31
0.0
  0
LINE
  5
BC52
330
BA89
100
AcDbEntity
  8
1
  6
Continuous
100
AcDbLine
 10
105.627819
 20
45.618678
 30
0.0
 11
105.9877219999999
 21
51.738678
 31
0.0
  0
LINE
  5
BC53
330
BA89
100
AcDbEntity
  8
1
  6
Continuous
100
AcDbLine
 10
105.807819
 20
45.618678
 30
0.0
 11
106.1677219999999
 21
48.67867799999999
 31
0.0
  0
LINE
  5
BC54
330
BA89
100
AcDbEntity
  8
1
  6
Continuous
100
AcDbLine
 10
104.642399
 20
45.656421
 30
0.0
 11
104.8788659999999
 21
51.71017800000001
 31
0.0
  0
LINE
  5
BC55
330
BA89
100
AcDbEntity
  8
1
  6
Continuous
100
AcDbLine
 10
105.115866
 20
48.67867799999999
 30
0.0
 11
104.879038
 21
45.64717799999999
 31
0.0
  0
LINE
  5
BC56
330
BA89
100
AcDbEntity
  8
1
  6
Continuous
100
AcDbLine
 10
103.783676
 20
45.631428
 30
0.0
 11
103.989493
 21
51.725928
 31
0.0
  0
LINE
  5
BC57
330
BA89
100
AcDbEntity
  8
1
  6
Continuous
100
AcDbLine
 10
103.9891759999999
 20
45.631428
 30
0.0
 11
104.194993
 21
48.67867799999999
 31
0.0
  0
LINE
  5
BC58
330
BA89
100
AcDbEntity
  8
1
  6
Continuous
100
AcDbLine
 10
103.0467449999999
 20
45.62172299999999
 30
0.0
 11
103.222294
 21
51.740678
 31
0.0
  0
LINE
  5
BC59
330
BA89
100
AcDbEntity
  8
1
  6
Continuous
100
AcDbLine
 10
103.2226
 20
45.616678
 30
0.0
 11
103.398294
 21
48.67867799999999
 31
0.0
  0
LINE
  5
BC5A
330
BA89
100
AcDbEntity
  8
1
  6
Continuous
100
AcDbLine
 10
231.933804
 20
160.4584419999999
 30
0.0
 11
231.0585569999998
 21
160.515343
 31
0.0
  0
ARC
  5
BC5B
330
BA89
100
AcDbEntity
  8
1
  6
Continuous
100
AcDbCircle
 10
105.3838889999999
 20
216.187255
 30
0.0
 40
0.1525
100
AcDbArc
 50
180.0
 51
0.0
  0
LINE
  5
BC5C
330
BA89
100
AcDbEntity
  8
1
  6
Continuous
100
AcDbLine
 10
105.2313889999998
 20
219.1847549999998
 30
0.0
 11
105.2313889999998
 21
216.187255
 31
0.0
  0
LINE
  5
BC5D
330
BA89
100
AcDbEntity
  8
1
  6
Continuous
100
AcDbLine
 10
105.8409769999999
 20
222.166759
 30
0.0
 11
105.5363889999999
 21
216.187255
 31
0.0
  0
LINE
  5
BC5E
330
BA89
100
AcDbEntity
  8
1
  6
Continuous
100
AcDbLine
 10
107.952904
 20
216.219213
 30
0.0
 11
107.952904
 21
219.176963
 31
0.0
  0
LINE
  5
BC5F
330
BA89
100
AcDbEntity
  8
1
  6
Continuous
100
AcDbLine
 10
109.343252
 20
216.1535869999999
 30
0.0
 11
109.343252
 21
219.0569659999999
 31
0.0
  0
ARC
  5
BC60
330
BA89
100
AcDbEntity
  8
1
  6
Continuous
100
AcDbCircle
 10
108.1451539999999
 20
216.219213
 30
0.0
 40
0.19225
100
AcDbArc
 50
180.0
 51
0.0
  0
ARC
  5
BC61
330
BA89
100
AcDbEntity
  8
1
  6
Continuous
100
AcDbCircle
 10
109.5562039999999
 20
216.122216
 30
0.0
 40
0.21525
100
AcDbArc
 50
171.619662
 51
0.0
  0
ARC
  5
BC62
330
BA89
100
AcDbEntity
  8
1
  6
Continuous
100
AcDbCircle
 10
106.6850949999998
 20
216.2062549999999
 30
0.0
 40
0.1715
100
AcDbArc
 50
180.0
 51
0.0
  0
LINE
  5
BC63
330
BA89
100
AcDbEntity
  8
1
  6
Continuous
100
AcDbLine
 10
106.5135949999999
 20
219.1847549999998
 30
0.0
 11
106.5135949999999
 21
216.2062549999999
 31
0.0
  0
LINE
  5
BC64
330
BA89
100
AcDbEntity
  8
1
  6
Continuous
100
AcDbLine
 10
108.721982
 20
222.1347129999998
 30
0.0
 11
108.337404
 21
216.219213
 31
0.0
  0
LINE
  5
BC65
330
BA89
100
AcDbEntity
  8
1
  6
Continuous
100
AcDbLine
 10
110.2014709999999
 20
221.991716
 30
0.0
 11
109.771454
 21
216.122216
 31
0.0
  0
LINE
  5
BC66
330
BA89
100
AcDbEntity
  8
1
  6
Continuous
100
AcDbLine
 10
107.198769
 20
222.1435529999999
 30
0.0
 11
106.8565949999999
 21
216.2062549999999
 31
0.0
  0
ARC
  5
BC67
330
BA89
100
AcDbEntity
  8
1
  6
Continuous
100
AcDbCircle
 10
105.6892659999999
 20
222.1822549999999
 30
0.0
 40
0.1525
100
AcDbArc
 50
354.167896
 51
180.0
  0
LINE
  5
BC68
330
BA89
100
AcDbEntity
  8
1
  6
Continuous
100
AcDbLine
 10
105.5367659999999
 20
222.1822549999999
 30
0.0
 11
105.2313889999998
 21
219.1847549999998
 31
0.0
  0
ARC
  5
BC69
330
BA89
100
AcDbEntity
  8
1
  6
Continuous
100
AcDbCircle
 10
108.529732
 20
222.1347129999998
 30
0.0
 40
0.19225
100
AcDbArc
 50
0.0
 51
180.0
  0
ARC
  5
BC6A
330
BA89
100
AcDbEntity
  8
1
  6
Continuous
100
AcDbCircle
 10
109.9862209999999
 20
221.991716
 30
0.0
 40
0.21525
100
AcDbArc
 50
0.0
 51
180.0
  0
ARC
  5
BC6B
330
BA89
100
AcDbEntity
  8
1
  6
Continuous
100
AcDbCircle
 10
107.028405
 20
222.1632549999999
 30
0.0
 40
0.1715
100
AcDbArc
 50
353.403222
 51
180.0
  0
LINE
  5
BC6C
330
BA89
100
AcDbEntity
  8
1
  6
Continuous
100
AcDbLine
 10
108.3374819999999
 20
222.1347129999998
 30
0.0
 11
107.952904
 21
219.176963
 31
0.0
  0
LINE
  5
BC6D
330
BA89
100
AcDbEntity
  8
1
  6
Continuous
100
AcDbLine
 10
109.7709709999999
 20
221.991716
 30
0.0
 11
109.343252
 21
219.0569659999999
 31
0.0
  0
LINE
  5
BC6E
330
BA89
100
AcDbEntity
  8
1
  6
Continuous
100
AcDbLine
 10
106.856905
 20
222.1632549999999
 30
0.0
 11
106.5135949999999
 21
219.1847549999998
 31
0.0
  0
LINE
  5
BC6F
330
BA89
100
AcDbEntity
  8
1
  6
Continuous
100
AcDbLine
 10
103.169463
 20
222.1822549999999
 30
0.0
 11
102.864086
 21
219.1847549999998
 31
0.0
  0
ARC
  5
BC70
330
BA89
100
AcDbEntity
  8
1
  6
Continuous
100
AcDbCircle
 10
103.321963
 20
222.1822549999999
 30
0.0
 40
0.1525
100
AcDbArc
 50
354.167896
 51
180.0
  0
LINE
  5
BC71
330
BA89
100
AcDbEntity
  8
1
  6
Continuous
100
AcDbLine
 10
103.473674
 20
222.166759
 30
0.0
 11
103.1690859999998
 21
216.187255
 31
0.0
  0
LINE
  5
BC72
330
BA89
100
AcDbEntity
  8
1
  6
Continuous
100
AcDbLine
 10
104.7674769999999
 20
222.1435529999999
 30
0.0
 11
104.4253029999999
 21
216.2062549999999
 31
0.0
  0
ARC
  5
BC73
330
BA89
100
AcDbEntity
  8
1
  6
Continuous
100
AcDbCircle
 10
104.5971129999999
 20
222.1632549999999
 30
0.0
 40
0.1715
100
AcDbArc
 50
353.403222
 51
180.0
  0
LINE
  5
BC74
330
BA89
100
AcDbEntity
  8
1
  6
Continuous
100
AcDbLine
 10
104.4256129999999
 20
222.1632549999999
 30
0.0
 11
104.0823029999999
 21
219.1847549999998
 31
0.0
  0
ARC
  5
BC75
330
BA89
100
AcDbEntity
  8
1
  6
Continuous
100
AcDbCircle
 10
103.016586
 20
216.187255
 30
0.0
 40
0.1525
100
AcDbArc
 50
180.0
 51
0.0
  0
LINE
  5
BC76
330
BA89
100
AcDbEntity
  8
1
  6
Continuous
100
AcDbLine
 10
102.864086
 20
219.1847549999998
 30
0.0
 11
102.864086
 21
216.187255
 31
0.0
  0
ARC
  5
BC77
330
BA89
100
AcDbEntity
  8
1
  6
Continuous
100
AcDbCircle
 10
104.253803
 20
216.2062549999999
 30
0.0
 40
0.1715
100
AcDbArc
 50
180.0
 51
0.0
  0
LINE
  5
BC78
330
BA89
100
AcDbEntity
  8
1
  6
Continuous
100
AcDbLine
 10
104.0823029999999
 20
219.1847549999998
 30
0.0
 11
104.0823029999999
 21
216.2062549999999
 31
0.0
  0
LINE
  5
BC79
330
BA89
100
AcDbEntity
  8
1
  6
Continuous
100
AcDbLine
 10
102.0134899999999
 20
219.2632769999999
 30
0.0
 11
102.2503179999999
 21
222.294777
 31
0.0
  0
LINE
  5
BC7A
330
BA89
100
AcDbEntity
  8
1
  6
Continuous
100
AcDbLine
 10
102.4869569999999
 20
222.2855339999999
 30
0.0
 11
102.2504899999999
 21
216.231777
 31
0.0
  0
ARC
  5
BC7B
330
BA89
100
AcDbEntity
  8
1
  6
Continuous
100
AcDbCircle
 10
102.368818
 20
222.294777
 30
0.0
 40
0.1185
100
AcDbArc
 50
355.5261939999998
 51
180.0
  0
LINE
  5
BC7C
330
BA89
100
AcDbEntity
  8
1
  6
Continuous
100
AcDbLine
 10
101.481491
 20
222.29133
 30
0.0
 11
101.1215879999999
 21
219.2313299999999
 31
0.0
  0
LINE
  5
BC7D
330
BA89
100
AcDbEntity
  8
1
  6
Continuous
100
AcDbLine
 10
101.6614909999999
 20
222.29133
 30
0.0
 11
101.3015879999999
 21
216.1713299999999
 31
0.0
  0
ARC
  5
BC7E
330
BA89
100
AcDbEntity
  8
1
  6
Continuous
100
AcDbCircle
 10
101.571491
 20
222.29133
 30
0.0
 40
0.09
100
AcDbArc
 50
0.0
 51
180.0
  0
ARC
  5
BC7F
330
BA89
100
AcDbEntity
  8
1
  6
Continuous
100
AcDbCircle
 10
102.1319899999999
 20
216.231777
 30
0.0
 40
0.1185
100
AcDbArc
 50
180.0
 51
0.0
  0
ARC
  5
BC80
330
BA89
100
AcDbEntity
  8
1
  6
Continuous
100
AcDbCircle
 10
101.211588
 20
216.1713299999999
 30
0.0
 40
0.09
100
AcDbArc
 50
180.0
 51
0.0
  0
LINE
  5
BC81
330
BA89
100
AcDbEntity
  8
1
  6
Continuous
100
AcDbLine
 10
102.0134899999999
 20
219.2632769999999
 30
0.0
 11
102.0134899999999
 21
216.231777
 31
0.0
  0
LINE
  5
BC82
330
BA89
100
AcDbEntity
  8
1
  6
Continuous
100
AcDbLine
 10
101.1215879999999
 20
219.2313299999999
 30
0.0
 11
101.1215879999999
 21
216.1713299999999
 31
0.0
  0
LINE
  5
BC83
330
BA89
100
AcDbEntity
  8
1
  6
Continuous
100
AcDbLine
 10
32.80561199999999
 20
137.1053639999997
 30
0.0
 11
33.11462699999999
 21
137.0731889999998
 31
0.0
  0
LINE
  5
BC84
330
BA89
100
AcDbEntity
  8
1
  6
Continuous
100
AcDbLine
 10
120.927041
 20
217.7006989999999
 30
0.0
 11
120.78218
 21
216.324518
 31
0.0
  0
ARC
  5
BC85
330
BA89
100
AcDbEntity
  8
1
  6
Continuous
100
AcDbCircle
 10
125.278948
 20
133.388574
 30
0.0
 40
32.04489199999999
100
AcDbArc
 50
57.44806799999999
 51
65.07526600000002
  0
ARC
  5
BC86
330
BA89
100
AcDbEntity
  8
1
  6
Continuous
100
AcDbCircle
 10
136.4685069999999
 20
129.4752399999999
 30
0.0
 40
31.51086599999999
100
AcDbArc
 50
54.19376299999999
 51
78.925747
  0
ARC
  5
BC87
330
BA89
100
AcDbEntity
  8
1
  6
Continuous
100
AcDbCircle
 10
136.4685069999999
 20
129.4752399999999
 30
0.0
 40
30.71086599999999
100
AcDbArc
 50
54.24868499999998
 51
78.857219
  0
ARC
  5
BC88
330
BA89
100
AcDbEntity
  8
1
  6
Continuous
100
AcDbCircle
 10
125.278948
 20
133.388574
 30
0.0
 40
31.244892
100
AcDbArc
 50
57.51545799999998
 51
64.535701
  0
ARC
  5
BC89
330
BA89
100
AcDbEntity
  8
1
  6
Continuous
100
AcDbCircle
 10
142.596778
 20
160.588313
 30
0.0
 40
1.0
100
AcDbArc
 50
237.5154579999999
 51
258.8572189999998
  0
ARC
  5
BC8A
330
BA89
100
AcDbEntity
  8
1
  6
Continuous
100
AcDbCircle
 10
136.4685069999999
 20
129.4752399999999
 30
0.0
 40
29.910866
100
AcDbArc
 50
54.306499
 51
78.857219
  0
ARC
  5
BC8B
330
BA89
100
AcDbEntity
  8
1
  6
Continuous
100
AcDbCircle
 10
125.278948
 20
133.388574
 30
0.0
 40
30.444892
100
AcDbArc
 50
57.51545799999998
 51
63.96569599999998
  0
ARC
  5
BC8C
330
BA89
100
AcDbEntity
  8
1
  6
Continuous
100
AcDbCircle
 10
142.596778
 20
160.588313
 30
0.0
 40
1.8
100
AcDbArc
 50
237.5154579999999
 51
258.8572189999998
  0
ARC
  5
BC8D
330
BA89
100
AcDbEntity
  8
5
  6
PHANTOM
100
AcDbCircle
 10
125.2906929999999
 20
133.5295219999999
 30
0.0
 40
30.444892
100
AcDbArc
 50
56.986198
 51
63.96569599999998
  0
ARC
  5
BC8E
330
BA89
100
AcDbEntity
  8
5
  6
PHANTOM
100
AcDbCircle
 10
125.286306
 20
133.4768759999998
 30
0.0
 40
31.244892
100
AcDbArc
 50
57.256341
 51
64.535701
  0
ARC
  5
BC8F
330
BA89
100
AcDbEntity
  8
5
  6
PHANTOM
100
AcDbCircle
 10
125.282161
 20
133.427132
 30
0.0
 40
32.04489199999999
100
AcDbArc
 50
57.44806799999999
 51
65.07526600000002
  0
ARC
  5
BC90
330
BA89
100
AcDbEntity
  8
5
  6
PHANTOM
100
AcDbCircle
 10
136.7266439999999
 20
133.775729
 30
0.0
 40
27.285252
100
AcDbArc
 50
53.96768699999999
 51
77.731965
  0
ARC
  5
BC91
330
BA89
100
AcDbEntity
  8
5
  6
PHANTOM
100
AcDbCircle
 10
136.7266439999999
 20
133.775729
 30
0.0
 40
26.48525199999999
100
AcDbArc
 50
54.036347
 51
77.390169
  0
ARC
  5
BC92
330
BA89
100
AcDbEntity
  8
5
  6
PHANTOM
100
AcDbCircle
 10
136.7266439999999
 20
133.775729
 30
0.0
 40
25.68525199999999
100
AcDbArc
 50
54.10919899999999
 51
77.10790299999998
  0
ARC
  5
BC93
330
BA89
100
AcDbEntity
  8
5
  6
PHANTOM
100
AcDbCircle
 10
142.859034
 20
160.5681319999999
 30
0.0
 40
1.8
100
AcDbArc
 50
236.986198
 51
257.1079029999999
  0
ARC
  5
BC94
330
BA89
100
AcDbEntity
  8
5
  6
PHANTOM
100
AcDbCircle
 10
142.726968
 20
160.5980179999999
 30
0.0
 40
1.0
100
AcDbArc
 50
237.256341
 51
257.390169
  0
LINE
  5
BC95
330
BA89
100
AcDbEntity
  8
1
  6
Continuous
100
AcDbLine
 10
229.845952
 20
163.0384369999999
 30
0.0
 11
233.845952
 21
160.729036
 31
0.0
  0
LINE
  5
BC96
330
BA89
100
AcDbEntity
  8
1
  6
Continuous
100
AcDbLine
 10
233.845952
 20
160.729036
 30
0.0
 11
237.845952
 21
163.0384369999999
 31
0.0
  0
LINE
  5
BC97
330
BA89
100
AcDbEntity
  8
1
  6
Continuous
100
AcDbLine
 10
237.845952
 20
163.0384369999999
 30
0.0
 11
237.845952
 21
167.6572389999998
 31
0.0
  0
LINE
  5
BC98
330
BA89
100
AcDbEntity
  8
1
  6
Continuous
100
AcDbLine
 10
237.845952
 20
167.6572389999998
 30
0.0
 11
233.845952
 21
169.9666399999999
 31
0.0
  0
LINE
  5
BC99
330
BA89
100
AcDbEntity
  8
1
  6
Continuous
100
AcDbLine
 10
233.845952
 20
169.9666399999999
 30
0.0
 11
229.845952
 21
167.6572389999998
 31
0.0
  0
LINE
  5
BC9A
330
BA89
100
AcDbEntity
  8
1
  6
Continuous
100
AcDbLine
 10
229.845952
 20
167.6572389999998
 30
0.0
 11
229.845952
 21
163.0384369999999
 31
0.0
  0
ENDSEC
  0
SECTION
  2
OBJECTS
  0
DICTIONARY
  5
BA77
330
0
100
AcDbDictionary
281
     1
  3
ACAD_CIP_PREVIOUS_PRODUCT_INFO
350
BCFA
  3
ACAD_COLOR
350
BCDC
  3
ACAD_DETAILVIEWSTYLE
350
BCF5
  3
ACAD_GROUP
350
BA78
  3
ACAD_LAYOUT
350
BA84
  3
ACAD_MATERIAL
350
BCAA
  3
ACAD_MLEADERSTYLE
350
BCF1
  3
ACAD_MLINESTYLE
350
BA81
  3
ACAD_PLOTSETTINGS
350
BA83
  3
ACAD_PLOTSTYLENAME
350
BCA8
  3
ACAD_SCALELIST
350
BCDF
  3
ACAD_SECTIONVIEWSTYLE
350
BCF3
  3
ACAD_TABLESTYLE
350
BCDD
  3
ACAD_VISUALSTYLE
350
BCC3
  3
ACDB_RECOMPOSE_DATA
350
BD18
  3
AcDbVariableDictionary
350
BD0B
  3
DWGPROPS
350
BD19
  0
DICTIONARY
  5
BCFB
330
BA7B
100
AcDbDictionary
280
     1
281
     1
  3
ADSK_XREC_LAYER_RECONCILED
360
BCFC
  0
DICTIONARY
  5
BCFD
330
BA91
100
AcDbDictionary
280
     1
281
     1
  3
ADSK_XREC_LAYER_RECONCILED
360
BCFE
  0
DICTIONARY
  5
BCFF
330
BA92
100
AcDbDictionary
280
     1
281
     1
  3
ADSK_XREC_LAYER_RECONCILED
360
BD00
  0
DICTIONARY
  5
BD01
330
BA93
100
AcDbDictionary
280
     1
281
     1
  3
ADSK_XREC_LAYER_RECONCILED
360
BD02
  0
DICTIONARY
  5
BD03
330
BA94
100
AcDbDictionary
280
     1
281
     1
  3
ADSK_XREC_LAYER_RECONCILED
360
BD04
  0
DICTIONARY
  5
BD05
330
BA95
100
AcDbDictionary
280
     1
281
     1
  3
ADSK_XREC_LAYER_RECONCILED
360
BD06
  0
DICTIONARY
  5
BD07
330
BA96
100
AcDbDictionary
280
     1
281
     1
  3
ADSK_XREC_LAYER_RECONCILED
360
BD08
  0
DICTIONARY
  5
BD09
330
BA97
100
AcDbDictionary
280
     1
281
     1
  3
ADSK_XREC_LAYER_RECONCILED
360
BD0A
  0
DICTIONARY
  5
BCA3
330
BA89
100
AcDbDictionary
281
     1
  3
ACAD_LAYOUTSELFREF
350
BCA4
  0
DICTIONARY
  5
BCA1
330
BA85
100
AcDbDictionary
281
     1
  3
ACAD_LAYOUTSELFREF
350
BCA2
  0
XRECORD
  5
BCFA
102
{ACAD_REACTORS
330
BA77
102
}
330
BA77
100
AcDbXrecord
280
     1
300
ACDLT
300
2014
300
ACDLT_F_S
  0
DICTIONARY
  5
BCDC
102
{ACAD_REACTORS
330
BA77
102
}
330
BA77
100
AcDbDictionary
281
     1
  0
DICTIONARY
  5
BCF5
102
{ACAD_REACTORS
330
BA77
102
}
330
BA77
100
AcDbDictionary
281
     1
  3
Imperial24
350
BCF6
  0
DICTIONARY
  5
BA78
102
{ACAD_REACTORS
330
BA77
102
}
330
BA77
100
AcDbDictionary
281
     1
  0
DICTIONARY
  5
BA84
102
{ACAD_REACTORS
330
BA77
102
}
330
BA77
100
AcDbDictionary
281
     1
  3
Model
350
BCF7
  3
レイアウト1
350
BCF8
  0
DICTIONARY
  5
BCAA
102
{ACAD_REACTORS
330
BA77
102
}
330
BA77
100
AcDbDictionary
281
     1
  3
ByBlock
350
BCB3
  3
ByLayer
350
BCAB
  3
Global
350
BCBB
  0
DICTIONARY
  5
BCF1
102
{ACAD_REACTORS
330
BA77
102
}
330
BA77
100
AcDbDictionary
281
     1
  3
Standard
350
BCF2
  0
DICTIONARY
  5
BA81
102
{ACAD_REACTORS
330
BA77
102
}
330
BA77
100
AcDbDictionary
281
     1
  3
STANDARD
350
BA82
  0
DICTIONARY
  5
BA83
102
{ACAD_REACTORS
330
BA77
102
}
330
BA77
100
AcDbDictionary
281
     1
  0
ACDBDICTIONARYWDFLT
  5
BCA8
102
{ACAD_REACTORS
330
BA77
102
}
330
BA77
100
AcDbDictionary
281
     1
  3
Normal
350
BCA9
100
AcDbDictionaryWithDefault
340
BCA9
  0
DICTIONARY
  5
BCDF
102
{ACAD_REACTORS
330
BA77
102
}
330
BA77
100
AcDbDictionary
281
     1
  3
A0
350
BCE0
  3
A1
350
BCE1
  3
A2
350
BCE2
  3
A3
350
BCE3
  3
A4
350
BCE4
  3
A5
350
BCE5
  3
A6
350
BCE6
  3
A7
350
BCE7
  3
A8
350
BCE8
  3
A9
350
BCE9
  3
B0
350
BCEA
  3
B1
350
BCEB
  3
B2
350
BCEC
  3
B3
350
BCED
  3
B4
350
BCEE
  3
B5
350
BCEF
  3
B6
350
BCF0
  0
DICTIONARY
  5
BCF3
102
{ACAD_REACTORS
330
BA77
102
}
330
BA77
100
AcDbDictionary
281
     1
  3
Imperial24
350
BCF4
  0
DICTIONARY
  5
BCDD
102
{ACAD_REACTORS
330
BA77
102
}
330
BA77
100
AcDbDictionary
281
     1
  3
Standard
350
BCDE
  0
DICTIONARY
  5
BCC3
102
{ACAD_REACTORS
330
BA77
102
}
330
BA77
100
AcDbDictionary
281
     1
  3
2dWireframe
350
BCC9
  3
Basic
350
BCC8
  3
Brighten
350
BCCF
  3
ColorChange
350
BCD3
  3
Conceptual
350
BCCC
  3
Dim
350
BCCE
  3
EdgeColorOff
350
BCDB
  3
Facepattern
350
BCD2
  3
Flat
350
BCC4
  3
FlatWithEdges
350
BCC5
  3
Gouraud
350
BCC6
  3
GouraudWithEdges
350
BCC7
  3
Hidden
350
BCCB
  3
JitterOff
350
BCD9
  3
Linepattern
350
BCD1
  3
OverhangOff
350
BCDA
  3
Realistic
350
BCCD
  3
Shaded
350
BCD8
  3
Shaded with edges
350
BCD7
  3
Shades of Gray
350
BCD4
  3
Sketchy
350
BCD5
  3
Thicken
350
BCD0
  3
Wireframe
350
BCCA
  3
X-Ray
350
BCD6
  0
XRECORD
  5
BD18
102
{ACAD_REACTORS
330
BA77
102
}
330
BA77
100
AcDbXrecord
280
     1
 90
        1
330
BCDE
  0
DICTIONARY
  5
BD0B
102
{ACAD_REACTORS
330
BA77
102
}
330
BA77
100
AcDbDictionary
281
     1
  3
CANNOSCALE
350
BD10
  3
CMLEADERSTYLE
350
BD0D
  3
CTABLESTYLE
350
BD0C
  3
CVIEWDETAILSTYLE
350
BD0E
  3
CVIEWSECTIONSTYLE
350
BD0F
  3
DIMASSOC
350
BD13
  3
INDEXCTL
350
BD12
  3
SORTENTS
350
BD11
  3
XCLIPFRAME
350
BD14
  0
XRECORD
  5
BD19
102
{ACAD_REACTORS
330
BA77
102
}
330
BA77
100
AcDbXrecord
280
     1
  1
DWGPROPS COOKIE
  2

  3

  4

  6

  7

  8
Yoshitsune
  9

300
=
301
=
302
=
303
=
304
=
305
=
306
=
307
=
308
=
309
=
 40
0.000010150462963
 41
2451296.794904745
 42
2457192.658290706
  1

 90
        0
  0
XRECORD
  5
BCFC
102
{ACAD_REACTORS
330
BCFB
102
}
330
BCFB
100
AcDbXrecord
280
     1
290
     1
  0
XRECORD
  5
BCFE
102
{ACAD_REACTORS
330
BCFD
102
}
330
BCFD
100
AcDbXrecord
280
     1
290
     1
  0
XRECORD
  5
BD00
102
{ACAD_REACTORS
330
BCFF
102
}
330
BCFF
100
AcDbXrecord
280
     1
290
     1
  0
XRECORD
  5
BD02
102
{ACAD_REACTORS
330
BD01
102
}
330
BD01
100
AcDbXrecord
280
     1
290
     1
  0
XRECORD
  5
BD04
102
{ACAD_REACTORS
330
BD03
102
}
330
BD03
100
AcDbXrecord
280
     1
290
     1
  0
XRECORD
  5
BD06
102
{ACAD_REACTORS
330
BD05
102
}
330
BD05
100
AcDbXrecord
280
     1
290
     1
  0
XRECORD
  5
BD08
102
{ACAD_REACTORS
330
BD07
102
}
330
BD07
100
AcDbXrecord
280
     1
290
     1
  0
XRECORD
  5
BD0A
102
{ACAD_REACTORS
330
BD09
102
}
330
BD09
100
AcDbXrecord
280
     1
290
     1
  0
XRECORD
  5
BCA4
102
{ACAD_REACTORS
330
BCA3
102
}
330
BCA3
100
AcDbXrecord
280
     1
340
BA89
  0
XRECORD
  5
BCA2
102
{ACAD_REACTORS
330
BCA1
102
}
330
BCA1
100
AcDbXrecord
280
     1
340
BA85
  0
ACDBDETAILVIEWSTYLE
  5
BCF6
102
{ACAD_XDICTIONARY
360
BD51
102
}
102
{ACAD_REACTORS
330
BCF5
102
}
330
BCF5
100
AcDbModelDocViewStyle
 70
     0
  3
Imperial24
290
     0
100
AcDbDetailViewStyle
 70
     0
 71
     0
 90
        3
 71
     1
340
BA7C
 40
0.24
340
0
 40
0.24
300

 40
0.36
280
     3
 71
     2
340
BA80
 90
       25
 71
     3
340
BA7C
 40
0.24
 90
        1
 40
0.75
 90
        1
300
%<\AcVar ViewType \f "%tc1">% %<\AcVar ViewDetailId>%\PSCALE %<\AcVar ViewScale \f "%sn">%
 71
     4
340
BA80
 90
       25
340
BA80
 90
       25
280
     0
  0
LAYOUT
  5
BCF7
102
{ACAD_XDICTIONARY
360
BD53
102
}
102
{ACAD_REACTORS
330
BA84
102
}
330
BA84
100
AcDbPlotSettings
  1

  2
Canon LBP9100C
  4

  6

 40
0.0
 41
0.0
 42
0.0
 43
0.0
 44
0.0
 45
0.0
 46
0.0
 47
0.0
 48
0.0
 49
0.0
140
0.0
141
0.0
142
1.0
143
1.0
 70
  1712
 72
     0
 73
     0
 74
     0
  7

 75
     0
147
1.0
148
0.0
149
0.0
100
AcDbLayout
  1
Model
 70
     1
 71
     0
 10
0.0
 20
0.0
 11
12.0
 21
9.0
 12
0.0
 22
0.0
 32
0.0
 14
0.0
 24
0.0
 34
0.0
 15
0.0
 25
0.0
 35
0.0
146
0.0
 13
0.0
 23
0.0
 33
0.0
 16
1.0
 26
0.0
 36
0.0
 17
0.0
 27
1.0
 37
0.0
 76
     0
330
BA89
331
BCA0
  0
LAYOUT
  5
BCF8
102
{ACAD_XDICTIONARY
360
BD55
102
}
102
{ACAD_REACTORS
330
BA84
102
}
330
BA84
100
AcDbPlotSettings
  1

  2
Canon LBP9100C
  4

  6

 40
0.0
 41
0.0
 42
0.0
 43
0.0
 44
0.0
 45
0.0
 46
0.0
 47
0.0
 48
0.0
 49
0.0
140
0.0
141
0.0
142
1.0
143
1.0
 70
   688
 72
     0
 73
     0
 74
     5
  7

 75
    16
147
1.0
148
0.0
149
0.0
100
AcDbLayout
  1
レイアウト1
 70
     0
 71
     1
 10
0.0
 20
0.0
 11
420.0
 21
297.0
 12
0.0
 22
0.0
 32
0.0
 14
1.000000000000000E+20
 24
1.000000000000000E+20
 34
1.000000000000000E+20
 15
-1.000000000000000E+20
 25
-1.000000000000000E+20
 35
-1.000000000000000E+20
146
0.0
 13
0.0
 23
0.0
 33
0.0
 16
1.0
 26
0.0
 36
0.0
 17
0.0
 27
1.0
 37
0.0
 76
     0
330
BA85
  0
MATERIAL
  5
BCB3
102
{ACAD_XDICTIONARY
360
BCB4
102
}
102
{ACAD_REACTORS
330
BCAA
102
}
330
BCAA
100
AcDbMaterial
  1
ByBlock
 72
     0
 43
0.0208333333333333
 43
0.0
 43
0.0
 43
0.0
 43
0.0
 43
0.0208333333333333
 43
0.0
 43
0.0
 43
0.0
 43
0.0
 43
1.0
 43
0.0
 43
0.0
 43
0.0
 43
0.0
 43
1.0
 77
     0
 47
0.0208333333333333
 47
0.0
 47
0.0
 47
0.0
 47
0.0
 47
0.0208333333333333
 47
0.0
 47
0.0
 47
0.0
 47
0.0
 47
1.0
 47
0.0
 47
0.0
 47
0.0
 47
0.0
 47
1.0
171
     0
 49
0.0208333333333333
 49
0.0
 49
0.0
 49
0.0
 49
0.0
 49
0.0208333333333333
 49
0.0
 49
0.0
 49
0.0
 49
0.0
 49
1.0
 49
0.0
 49
0.0
 49
0.0
 49
0.0
 49
1.0
175
     0
142
0.0208333333333333
142
0.0
142
0.0
142
0.0
142
0.0
142
0.0208333333333333
142
0.0
142
0.0
142
0.0
142
0.0
142
1.0
142
0.0
142
0.0
142
0.0
142
0.0
142
1.0
179
     0
144
0.0208333333333333
144
0.0
144
0.0
144
0.0
144
0.0
144
0.0208333333333333
144
0.0
144
0.0
144
0.0
144
0.0
144
1.0
144
0.0
144
0.0
144
0.0
144
0.0
144
1.0
147
0.0208333333333333
147
0.0
147
0.0
147
0.0
147
0.0
147
0.0208333333333333
147
0.0
147
0.0
147
0.0
147
0.0
147
1.0
147
0.0
147
0.0
147
0.0
147
0.0
147
1.0
  0
MATERIAL
  5
BCAB
102
{ACAD_XDICTIONARY
360
BCAC
102
}
102
{ACAD_REACTORS
330
BCAA
102
}
330
BCAA
100
AcDbMaterial
  1
ByLayer
 72
     0
 43
0.0208333333333333
 43
0.0
 43
0.0
 43
0.0
 43
0.0
 43
0.0208333333333333
 43
0.0
 43
0.0
 43
0.0
 43
0.0
 43
1.0
 43
0.0
 43
0.0
 43
0.0
 43
0.0
 43
1.0
 77
     0
 47
0.0208333333333333
 47
0.0
 47
0.0
 47
0.0
 47
0.0
 47
0.0208333333333333
 47
0.0
 47
0.0
 47
0.0
 47
0.0
 47
1.0
 47
0.0
 47
0.0
 47
0.0
 47
0.0
 47
1.0
171
     0
 49
0.0208333333333333
 49
0.0
 49
0.0
 49
0.0
 49
0.0
 49
0.0208333333333333
 49
0.0
 49
0.0
 49
0.0
 49
0.0
 49
1.0
 49
0.0
 49
0.0
 49
0.0
 49
0.0
 49
1.0
175
     0
142
0.0208333333333333
142
0.0
142
0.0
142
0.0
142
0.0
142
0.0208333333333333
142
0.0
142
0.0
142
0.0
142
0.0
142
1.0
142
0.0
142
0.0
142
0.0
142
0.0
142
1.0
179
     0
144
0.0208333333333333
144
0.0
144
0.0
144
0.0
144
0.0
144
0.0208333333333333
144
0.0
144
0.0
144
0.0
144
0.0
144
1.0
144
0.0
144
0.0
144
0.0
144
0.0
144
1.0
147
0.0208333333333333
147
0.0
147
0.0
147
0.0
147
0.0
147
0.0208333333333333
147
0.0
147
0.0
147
0.0
147
0.0
147
1.0
147
0.0
147
0.0
147
0.0
147
0.0
147
1.0
  0
MATERIAL
  5
BCBB
102
{ACAD_XDICTIONARY
360
BCBC
102
}
102
{ACAD_REACTORS
330
BCAA
102
}
330
BCAA
100
AcDbMaterial
  1
Global
 72
     0
 43
0.0208333333333333
 43
0.0
 43
0.0
 43
0.0
 43
0.0
 43
0.0208333333333333
 43
0.0
 43
0.0
 43
0.0
 43
0.0
 43
1.0
 43
0.0
 43
0.0
 43
0.0
 43
0.0
 43
1.0
 77
     0
 47
0.0208333333333333
 47
0.0
 47
0.0
 47
0.0
 47
0.0
 47
0.0208333333333333
 47
0.0
 47
0.0
 47
0.0
 47
0.0
 47
1.0
 47
0.0
 47
0.0
 47
0.0
 47
0.0
 47
1.0
171
     0
 49
0.0208333333333333
 49
0.0
 49
0.0
 49
0.0
 49
0.0
 49
0.0208333333333333
 49
0.0
 49
0.0
 49
0.0
 49
0.0
 49
1.0
 49
0.0
 49
0.0
 49
0.0
 49
0.0
 49
1.0
175
     0
142
0.0208333333333333
142
0.0
142
0.0
142
0.0
142
0.0
142
0.0208333333333333
142
0.0
142
0.0
142
0.0
142
0.0
142
1.0
142
0.0
142
0.0
142
0.0
142
0.0
142
1.0
179
     0
144
0.0208333333333333
144
0.0
144
0.0
144
0.0
144
0.0
144
0.0208333333333333
144
0.0
144
0.0
144
0.0
144
0.0
144
1.0
144
0.0
144
0.0
144
0.0
144
0.0
144
1.0
147
0.0208333333333333
147
0.0
147
0.0
147
0.0
147
0.0
147
0.0208333333333333
147
0.0
147
0.0
147
0.0
147
0.0
147
1.0
147
0.0
147
0.0
147
0.0
147
0.0
147
1.0
  0
MLEADERSTYLE
  5
BCF2
102
{ACAD_REACTORS
330
BCF1
102
}
330
BCF1
100
AcDbMLeaderStyle
170
     2
171
     1
172
     0
 90
        2
 40
0.0
 41
0.0
173
     1
 91
-1056964608
340
BA7E
 92
       -2
290
     1
 42
0.09
291
     1
 43
0.36
  3
Standard
 44
0.18
300

342
BA7C
174
     1
178
     6
175
     1
176
     0
 93
-1056964608
 45
0.18
292
     0
297
     0
 46
0.18
 94
-1056964608
 47
1.0
 49
1.0
140
1.0
293
     1
141
0.0
294
     1
177
     0
142
1.0
295
     0
296
     0
143
0.125
1001
ACAD_MLEADERVER
1070
     2
  0
MLINESTYLE
  5
BA82
102
{ACAD_REACTORS
330
BA81
102
}
330
BA81
100
AcDbMlineStyle
  2
STANDARD
 70
     0
  3

 62
   256
 51
90.0
 52
90.0
 71
     2
 49
0.5
 62
   256
  6
BYLAYER
 49
-0.5
 62
   256
  6
BYLAYER
  0
ACDBPLACEHOLDER
  5
BCA9
102
{ACAD_REACTORS
330
BCA8
102
}
330
BCA8
  0
SCALE
  5
BCE0
102
{ACAD_REACTORS
330
BCDF
102
}
330
BCDF
100
AcDbScale
 70
     0
300
1:1
140
1.0
141
1.0
290
     1
  0
SCALE
  5
BCE1
102
{ACAD_REACTORS
330
BCDF
102
}
330
BCDF
100
AcDbScale
 70
     0
300
1/128" = 1'-0"
140
0.0078125
141
12.0
290
     0
  0
SCALE
  5
BCE2
102
{ACAD_REACTORS
330
BCDF
102
}
330
BCDF
100
AcDbScale
 70
     0
300
1/64" = 1'-0"
140
0.015625
141
12.0
290
     0
  0
SCALE
  5
BCE3
102
{ACAD_REACTORS
330
BCDF
102
}
330
BCDF
100
AcDbScale
 70
     0
300
1/32" = 1'-0"
140
0.03125
141
12.0
290
     0
  0
SCALE
  5
BCE4
102
{ACAD_REACTORS
330
BCDF
102
}
330
BCDF
100
AcDbScale
 70
     0
300
1/16" = 1'-0"
140
0.0625
141
12.0
290
     0
  0
SCALE
  5
BCE5
102
{ACAD_REACTORS
330
BCDF
102
}
330
BCDF
100
AcDbScale
 70
     0
300
3/32" = 1'-0"
140
0.09375
141
12.0
290
     0
  0
SCALE
  5
BCE6
102
{ACAD_REACTORS
330
BCDF
102
}
330
BCDF
100
AcDbScale
 70
     0
300
1/8" = 1'-0"
140
0.125
141
12.0
290
     0
  0
SCALE
  5
BCE7
102
{ACAD_REACTORS
330
BCDF
102
}
330
BCDF
100
AcDbScale
 70
     0
300
3/16" = 1'-0"
140
0.1875
141
12.0
290
     0
  0
SCALE
  5
BCE8
102
{ACAD_REACTORS
330
BCDF
102
}
330
BCDF
100
AcDbScale
 70
     0
300
1/4" = 1'-0"
140
0.25
141
12.0
290
     0
  0
SCALE
  5
BCE9
102
{ACAD_REACTORS
330
BCDF
102
}
330
BCDF
100
AcDbScale
 70
     0
300
3/8" = 1'-0"
140
0.375
141
12.0
290
     0
  0
SCALE
  5
BCEA
102
{ACAD_REACTORS
330
BCDF
102
}
330
BCDF
100
AcDbScale
 70
     0
300
1/2" = 1'-0"
140
0.5
141
12.0
290
     0
  0
SCALE
  5
BCEB
102
{ACAD_REACTORS
330
BCDF
102
}
330
BCDF
100
AcDbScale
 70
     0
300
3/4" = 1'-0"
140
0.75
141
12.0
290
     0
  0
SCALE
  5
BCEC
102
{ACAD_REACTORS
330
BCDF
102
}
330
BCDF
100
AcDbScale
 70
     0
300
1" = 1'-0"
140
1.0
141
12.0
290
     0
  0
SCALE
  5
BCED
102
{ACAD_REACTORS
330
BCDF
102
}
330
BCDF
100
AcDbScale
 70
     0
300
1-1/2" = 1'-0"
140
1.5
141
12.0
290
     0
  0
SCALE
  5
BCEE
102
{ACAD_REACTORS
330
BCDF
102
}
330
BCDF
100
AcDbScale
 70
     0
300
3" = 1'-0"
140
3.0
141
12.0
290
     0
  0
SCALE
  5
BCEF
102
{ACAD_REACTORS
330
BCDF
102
}
330
BCDF
100
AcDbScale
 70
     0
300
6" = 1'-0"
140
6.0
141
12.0
290
     0
  0
SCALE
  5
BCF0
102
{ACAD_REACTORS
330
BCDF
102
}
330
BCDF
100
AcDbScale
 70
     0
300
1'-0" = 1'-0"
140
12.0
141
12.0
290
     0
  0
ACDBSECTIONVIEWSTYLE
  5
BCF4
102
{ACAD_XDICTIONARY
360
BD4F
102
}
102
{ACAD_REACTORS
330
BCF3
102
}
330
BCF3
100
AcDbModelDocViewStyle
 70
     0
  3
Imperial24
290
     0
100
AcDbSectionViewStyle
 70
     0
 71
     0
 90
       78
 71
     1
340
BA7C
 40
0.24
340
0
340
0
 40
0.24
300
I, O, Q, S, X, Z
 40
0.48
 90
        3
 40
0.18
 90
        1
 71
     2
340
BA80
 90
       25
340
BA80
 90
       50
 40
0.24
 40
0.0
 40
0.24
 71
     3
340
BA7C
 40
0.24
 90
        1
 40
0.75
 90
        1
300
%<\AcVar ViewType \f "%tc1">% %<\AcVar ViewSectionStartId>%-%<\AcVar ViewSectionEndId>%\PSCALE %<\AcVar ViewScale \f "%sn">%
 71
     4
300
ANSI31
 40
1.0
 90
        0
290
     0
290
     0
 90
        6
 40
0.0
 40
1.570796326794896
 40
0.2617993877991494
 40
1.308996938995747
 40
-0.2617993877991494
 40
1.832595714594046
  0
TABLESTYLE
  5
BCDE
102
{ACAD_XDICTIONARY
360
BD16
102
}
102
{ACAD_REACTORS
330
BCDD
102
}
330
BCDD
100
AcDbTableStyle
  3
Standard
 70
     0
 71
     0
 40
0.06
 41
0.06
280
     0
281
     0
  7
STANDARD
140
0.18
170
     2
 62
     0
 63
     7
283
     0
274
    -2
284
     1
 64
     0
275
    -2
285
     1
 65
     0
276
    -2
286
     1
 66
     0
277
    -2
287
     1
 67
     0
278
    -2
288
     1
 68
     0
279
    -2
289
     1
 69
     0
  7
STANDARD
140
0.25
170
     5
 62
     0
 63
     7
283
     0
274
    -2
284
     1
 64
     0
275
    -2
285
     1
 65
     0
276
    -2
286
     1
 66
     0
277
    -2
287
     1
 67
     0
278
    -2
288
     1
 68
     0
279
    -2
289
     1
 69
     0
  7
STANDARD
140
0.18
170
     5
 62
     0
 63
     7
283
     0
274
    -2
284
     1
 64
     0
275
    -2
285
     1
 65
     0
276
    -2
286
     1
 66
     0
277
    -2
287
     1
 67
     0
278
    -2
288
     1
 68
     0
279
    -2
289
     1
 69
     0
  0
VISUALSTYLE
  5
BCC9
102
{ACAD_XDICTIONARY
360
BD27
102
}
102
{ACAD_REACTORS
330
BCC3
102
}
330
BCC3
100
AcDbVisualStyle
  2
2dWireframe
 70
     4
 71
     0
 72
     2
 73
     0
 90
        0
 40
-0.6
 41
-30.0
 62
     5
 63
     7
 74
     1
 91
        4
 64
     7
 65
   257
 75
     1
175
     1
 42
1.0
 92
        0
 66
   257
 43
1.0
 76
     1
 77
     6
 78
     2
 67
     7
 79
     5
170
     0
171
     0
290
     0
174
     0
 93
        1
 44
0.0
173
     0
291
     0
 45
0.0
1001
ACAD
1000
AcDbSavedByObjectVersion
1070
     0
  0
VISUALSTYLE
  5
BCC8
102
{ACAD_XDICTIONARY
360
BD25
102
}
102
{ACAD_REACTORS
330
BCC3
102
}
330
BCC3
100
AcDbVisualStyle
  2
Basic
 70
     7
 71
     1
 72
     0
 73
     1
 90
        0
 40
-0.6
 41
-30.0
 62
     5
 63
     7
 74
     0
 91
        4
 64
     7
 65
   257
 75
     1
175
     1
 42
1.0
 92
        8
 66
     7
 43
1.0
 76
     1
 77
     6
 78
     2
 67
     7
 79
     5
170
     0
171
     0
290
     0
174
     0
 93
        1
 44
0.0
173
     0
291
     1
 45
0.0
1001
ACAD
1000
AcDbSavedByObjectVersion
1070
     0
  0
VISUALSTYLE
  5
BCCF
102
{ACAD_XDICTIONARY
360
BD33
102
}
102
{ACAD_REACTORS
330
BCC3
102
}
330
BCC3
100
AcDbVisualStyle
  2
Brighten
 70
    12
 71
     2
 72
     2
 73
     0
 90
        0
 40
-0.6
 41
-30.0
 62
     5
 63
     7
 74
     1
 91
        4
 64
     7
 65
   257
 75
     1
175
     1
 42
1.0
 92
        8
 66
     7
 43
1.0
 76
     1
 77
     6
 78
     2
 67
     7
 79
     5
170
     0
171
     0
290
     0
174
     0
 93
        1
 44
50.0
173
     0
291
     1
 45
0.0
1001
ACAD
1000
AcDbSavedByObjectVersion
1070
     0
  0
VISUALSTYLE
  5
BCD3
102
{ACAD_XDICTIONARY
360
BD3B
102
}
102
{ACAD_REACTORS
330
BCC3
102
}
330
BCC3
100
AcDbVisualStyle
  2
ColorChange
 70
    16
 71
     2
 72
     2
 73
     3
 90
        0
 40
-0.6
 41
-30.0
 62
     5
 63
     8
 74
     1
 91
        4
 64
     7
 65
   257
 75
     1
175
     1
 42
1.0
 92
        8
 66
     8
 43
1.0
 76
     1
 77
     6
 78
     2
 67
     7
 79
     5
170
     0
171
     0
290
     0
174
     0
 93
        1
 44
0.0
173
     0
291
     1
 45
0.0
1001
ACAD
1000
AcDbSavedByObjectVersion
1070
     0
  0
VISUALSTYLE
  5
BCCC
102
{ACAD_XDICTIONARY
360
BD2D
102
}
102
{ACAD_REACTORS
330
BCC3
102
}
330
BCC3
100
AcDbVisualStyle
  2
Conceptual
 70
     9
 71
     3
 72
     2
 73
     0
 90
        0
 40
-0.6
 41
-30.0
 62
     5
 63
     7
 74
     2
 91
        2
 64
     7
 65
   257
 75
     1
175
     1
 42
179.0
 92
        8
 66
     7
 43
1.0
 76
     1
 77
     6
 78
     2
 67
     7
 79
     3
170
     0
171
     0
290
     0
174
     0
 93
        1
 44
0.0
173
     0
291
     0
 45
0.0
1001
ACAD
1000
AcDbSavedByObjectVersion
1070
     0
  0
VISUALSTYLE
  5
BCCE
102
{ACAD_XDICTIONARY
360
BD31
102
}
102
{ACAD_REACTORS
330
BCC3
102
}
330
BCC3
100
AcDbVisualStyle
  2
Dim
 70
    11
 71
     2
 72
     2
 73
     0
 90
        0
 40
-0.6
 41
-30.0
 62
     5
 63
     7
 74
     1
 91
        4
 64
     7
 65
   257
 75
     1
175
     1
 42
1.0
 92
        8
 66
     7
 43
1.0
 76
     1
 77
     6
 78
     2
 67
     7
 79
     5
170
     0
171
     0
290
     0
174
     0
 93
        1
 44
-50.0
173
     0
291
     1
 45
0.0
1001
ACAD
1000
AcDbSavedByObjectVersion
1070
     0
  0
VISUALSTYLE
  5
BCDB
102
{ACAD_XDICTIONARY
360
BD4B
102
}
102
{ACAD_REACTORS
330
BCC3
102
}
330
BCC3
100
AcDbVisualStyle
  2
EdgeColorOff
 70
    22
 71
     2
 72
     2
 73
     0
 90
        0
 40
-0.6
 41
-30.0
 62
     5
 63
     7
 74
     1
 91
        4
 64
     7
 65
   257
 75
     1
175
     1
 42
1.0
 92
        8
 66
     7
 43
1.0
 76
     1
 77
     6
 78
     2
 67
     7
 79
     5
170
     0
171
     0
290
     0
174
     0
 93
        1
 44
0.0
173
     0
291
     1
 45
0.0
1001
ACAD
1000
AcDbSavedByObjectVersion
1070
     0
  0
VISUALSTYLE
  5
BCD2
102
{ACAD_XDICTIONARY
360
BD39
102
}
102
{ACAD_REACTORS
330
BCC3
102
}
330
BCC3
100
AcDbVisualStyle
  2
Facepattern
 70
    15
 71
     2
 72
     2
 73
     0
 90
        0
 40
-0.6
 41
-30.0
 62
     5
 63
     7
 74
     1
 91
        4
 64
     7
 65
   257
 75
     1
175
     1
 42
1.0
 92
        8
 66
     7
 43
1.0
 76
     1
 77
     6
 78
     2
 67
     7
 79
     5
170
     0
171
     0
290
     0
174
     0
 93
        1
 44
0.0
173
     0
291
     1
 45
0.0
1001
ACAD
1000
AcDbSavedByObjectVersion
1070
     0
  0
VISUALSTYLE
  5
BCC4
102
{ACAD_XDICTIONARY
360
BD1D
102
}
102
{ACAD_REACTORS
330
BCC3
102
}
330
BCC3
100
AcDbVisualStyle
  2
Flat
 70
     0
 71
     2
 72
     1
 73
     1
 90
        2
 40
-0.6
 41
30.0
 62
     5
 63
     7
 74
     0
 91
        0
 64
     7
 65
   257
 75
     1
175
     1
 42
1.0
 92
        8
 66
     7
 43
1.0
 76
     1
 77
     6
 78
     2
 67
     7
 79
     5
170
     0
171
     0
290
     0
174
     0
 93
       13
 44
0.0
173
     0
291
     1
 45
0.0
1001
ACAD
1000
AcDbSavedByObjectVersion
1070
     0
  0
VISUALSTYLE
  5
BCC5
102
{ACAD_XDICTIONARY
360
BD1F
102
}
102
{ACAD_REACTORS
330
BCC3
102
}
330
BCC3
100
AcDbVisualStyle
  2
FlatWithEdges
 70
     1
 71
     2
 72
     1
 73
     1
 90
        2
 40
-0.6
 41
30.0
 62
     5
 63
     7
 74
     1
 91
        0
 64
     7
 65
   257
 75
     1
175
     1
 42
1.0
 92
        0
 66
   257
 43
1.0
 76
     1
 77
     6
 78
     2
 67
     7
 79
     5
170
     0
171
     0
290
     0
174
     0
 93
       13
 44
0.0
173
     0
291
     1
 45
0.0
1001
ACAD
1000
AcDbSavedByObjectVersion
1070
     0
  0
VISUALSTYLE
  5
BCC6
102
{ACAD_XDICTIONARY
360
BD21
102
}
102
{ACAD_REACTORS
330
BCC3
102
}
330
BCC3
100
AcDbVisualStyle
  2
Gouraud
 70
     2
 71
     2
 72
     2
 73
     1
 90
        2
 40
-0.6
 41
30.0
 62
     5
 63
     7
 74
     0
 91
        0
 64
     7
 65
   257
 75
     1
175
     1
 42
1.0
 92
        0
 66
     7
 43
1.0
 76
     1
 77
     6
 78
     2
 67
     7
 79
     5
170
     0
171
     0
290
     0
174
     0
 93
       13
 44
0.0
173
     0
291
     1
 45
0.0
1001
ACAD
1000
AcDbSavedByObjectVersion
1070
     0
  0
VISUALSTYLE
  5
BCC7
102
{ACAD_XDICTIONARY
360
BD23
102
}
102
{ACAD_REACTORS
330
BCC3
102
}
330
BCC3
100
AcDbVisualStyle
  2
GouraudWithEdges
 70
     3
 71
     2
 72
     2
 73
     1
 90
        2
 40
-0.6
 41
30.0
 62
     5
 63
     7
 74
     1
 91
        0
 64
     7
 65
   257
 75
     1
175
     1
 42
1.0
 92
        0
 66
   257
 43
1.0
 76
     1
 77
     6
 78
     2
 67
     7
 79
     5
170
     0
171
     0
290
     0
174
     0
 93
       13
 44
0.0
173
     0
291
     1
 45
0.0
1001
ACAD
1000
AcDbSavedByObjectVersion
1070
     0
  0
VISUALSTYLE
  5
BCCB
102
{ACAD_XDICTIONARY
360
BD2B
102
}
102
{ACAD_REACTORS
330
BCC3
102
}
330
BCC3
100
AcDbVisualStyle
  2
Hidden
 70
     6
 71
     1
 72
     2
 73
     2
 90
        0
 40
-0.6
 41
-30.0
 62
     5
 63
     7
 74
     2
 91
        2
 64
     7
 65
   257
 75
     2
175
     1
 42
40.0
 92
        0
 66
   257
 43
1.0
 76
     1
 77
     6
 78
     2
 67
     7
 79
     3
170
     0
171
     0
290
     0
174
     0
 93
        1
 44
0.0
173
     0
291
     0
 45
0.0
1001
ACAD
1000
AcDbSavedByObjectVersion
1070
     0
  0
VISUALSTYLE
  5
BCD9
102
{ACAD_XDICTIONARY
360
BD47
102
}
102
{ACAD_REACTORS
330
BCC3
102
}
330
BCC3
100
AcDbVisualStyle
  2
JitterOff
 70
    20
 71
     2
 72
     2
 73
     0
 90
        0
 40
-0.6
 41
-30.0
 62
     5
 63
     7
 74
     1
 91
        4
 64
     7
 65
   257
 75
     1
175
     1
 42
1.0
 92
       10
 66
     7
 43
1.0
 76
     1
 77
     6
 78
     2
 67
     7
 79
     5
170
     0
171
     0
290
     0
174
     0
 93
        1
 44
0.0
173
     0
291
     1
 45
0.0
1001
ACAD
1000
AcDbSavedByObjectVersion
1070
     0
  0
VISUALSTYLE
  5
BCD1
102
{ACAD_XDICTIONARY
360
BD37
102
}
102
{ACAD_REACTORS
330
BCC3
102
}
330
BCC3
100
AcDbVisualStyle
  2
Linepattern
 70
    14
 71
     2
 72
     2
 73
     0
 90
        0
 40
-0.6
 41
-30.0
 62
     5
 63
     7
 74
     1
 91
        4
 64
     7
 65
   257
 75
     7
175
     7
 42
1.0
 92
        8
 66
     7
 43
1.0
 76
     1
 77
     6
 78
     2
 67
     7
 79
     5
170
     0
171
     0
290
     0
174
     0
 93
        1
 44
0.0
173
     0
291
     1
 45
0.0
1001
ACAD
1000
AcDbSavedByObjectVersion
1070
     0
  0
VISUALSTYLE
  5
BCDA
102
{ACAD_XDICTIONARY
360
BD49
102
}
102
{ACAD_REACTORS
330
BCC3
102
}
330
BCC3
100
AcDbVisualStyle
  2
OverhangOff
 70
    21
 71
     2
 72
     2
 73
     0
 90
        0
 40
-0.6
 41
-30.0
 62
     5
 63
     7
 74
     1
 91
        4
 64
     7
 65
   257
 75
     1
175
     1
 42
1.0
 92
        9
 66
     7
 43
1.0
 76
     1
 77
     6
 78
     2
 67
     7
 79
     5
170
     0
171
     0
290
     0
174
     0
 93
        1
 44
0.0
173
     0
291
     1
 45
0.0
1001
ACAD
1000
AcDbSavedByObjectVersion
1070
     0
  0
VISUALSTYLE
  5
BCCD
102
{ACAD_XDICTIONARY
360
BD2F
102
}
102
{ACAD_REACTORS
330
BCC3
102
}
330
BCC3
100
AcDbVisualStyle
  2
Realistic
 70
     8
 71
     2
 72
     3
 73
     0
 90
        2
 40
-0.6
 41
30.0
 62
     5
 63
     7
 74
     0
 91
        0
 64
     7
 65
   257
 75
     1
175
     1
 42
1.0
 92
        8
 66
   257
 43
1.0
 76
     1
 77
     6
 78
     2
 67
     7
 79
     3
170
     0
171
     0
290
     0
174
     0
 93
       13
 44
0.0
173
     0
291
     0
 45
0.0
1001
ACAD
1000
AcDbSavedByObjectVersion
1070
     0
  0
VISUALSTYLE
  5
BCD8
102
{ACAD_XDICTIONARY
360
BD45
102
}
102
{ACAD_REACTORS
330
BCC3
102
}
330
BCC3
100
AcDbVisualStyle
  2
Shaded
 70
    27
 71
     2
 72
     2
 73
     1
 90
        2
 40
-0.6
 41
30.0
 62
     5
 63
     7
 74
     0
 91
        4
 64
     7
 65
   257
 75
     1
175
     1
 42
1.0
 92
        8
 66
   257
 43
1.0
 76
     1
 77
     6
 78
     2
 67
     8
 79
     3
170
     0
171
     0
290
     0
174
     0
 93
        5
 44
0.0
173
     0
291
     0
 45
0.0
1001
ACAD
1000
AcDbSavedByObjectVersion
1070
     0
  0
VISUALSTYLE
  5
BCD7
102
{ACAD_XDICTIONARY
360
BD43
102
}
102
{ACAD_REACTORS
330
BCC3
102
}
330
BCC3
100
AcDbVisualStyle
  2
Shaded with edges
 70
    26
 71
     2
 72
     2
 73
     1
 90
        2
 40
-0.6
 41
30.0
 62
     5
 63
     7
 74
     1
 91
       10
 64
     7
 65
   257
 75
     2
175
     1
 42
1.0
 92
        8
 66
   257
 43
1.0
 76
     1
 77
     6
 78
     2
 67
     7
 79
     3
170
     0
171
     0
290
     0
174
     0
 93
        5
 44
0.0
173
     0
291
     0
 45
0.0
1001
ACAD
1000
AcDbSavedByObjectVersion
1070
     0
  0
VISUALSTYLE
  5
BCD4
102
{ACAD_XDICTIONARY
360
BD3D
102
}
102
{ACAD_REACTORS
330
BCC3
102
}
330
BCC3
100
AcDbVisualStyle
  2
Shades of Gray
 70
    23
 71
     2
 72
     2
 73
     3
 90
        0
 40
-0.6
 41
-30.0
 62
     5
 63
     7
 74
     2
 91
        2
 64
     7
 65
     7
 75
     1
175
     1
 42
40.0
 92
        8
 66
     7
 43
1.0
 76
     1
 77
     6
 78
     2
 67
     7
 79
     3
170
     0
171
     0
290
     0
174
     0
 93
        1
 44
0.0
173
     0
291
     0
 45
0.0
1001
ACAD
1000
AcDbSavedByObjectVersion
1070
     0
  0
VISUALSTYLE
  5
BCD5
102
{ACAD_XDICTIONARY
360
BD3F
102
}
102
{ACAD_REACTORS
330
BCC3
102
}
330
BCC3
100
AcDbVisualStyle
  2
Sketchy
 70
    24
 71
     1
 72
     2
 73
     2
 90
        0
 40
-0.6
 41
-30.0
 62
     5
 63
     7
 74
     2
 91
        2
 64
     7
 65
     7
 75
     1
175
     1
 42
40.0
 92
       11
 66
     7
 43
1.0
 76
     1
 77
     6
 78
     2
 67
     7
 79
     6
170
     0
171
     0
290
     0
174
     0
 93
        1
 44
0.0
173
     0
291
     0
 45
0.0
1001
ACAD
1000
AcDbSavedByObjectVersion
1070
     0
  0
VISUALSTYLE
  5
BCD0
102
{ACAD_XDICTIONARY
360
BD35
102
}
102
{ACAD_REACTORS
330
BCC3
102
}
330
BCC3
100
AcDbVisualStyle
  2
Thicken
 70
    13
 71
     2
 72
     2
 73
     0
 90
        0
 40
-0.6
 41
-30.0
 62
     5
 63
     7
 74
     1
 91
        4
 64
     7
 65
   257
 75
     1
175
     1
 42
1.0
 92
       12
 66
     7
 43
1.0
 76
     1
 77
     6
 78
     2
 67
     7
 79
     5
170
     0
171
     0
290
     0
174
     0
 93
        1
 44
0.0
173
     0
291
     1
 45
0.0
1001
ACAD
1000
AcDbSavedByObjectVersion
1070
     0
  0
VISUALSTYLE
  5
BCCA
102
{ACAD_XDICTIONARY
360
BD29
102
}
102
{ACAD_REACTORS
330
BCC3
102
}
330
BCC3
100
AcDbVisualStyle
  2
Wireframe
 70
     5
 71
     0
 72
     2
 73
     0
 90
        0
 40
-0.6
 41
-30.0
 62
     5
 63
     7
 74
     1
 91
        4
 64
     7
 65
   257
 75
     1
175
     1
 42
1.0
 92
        0
 66
   257
 43
1.0
 76
     1
 77
     6
 78
     2
 67
     7
 79
     3
170
     0
171
     0
290
     0
174
     0
 93
        1
 44
0.0
173
     0
291
     0
 45
0.0
1001
ACAD
1000
AcDbSavedByObjectVersion
1070
     0
  0
VISUALSTYLE
  5
BCD6
102
{ACAD_XDICTIONARY
360
BD41
102
}
102
{ACAD_REACTORS
330
BCC3
102
}
330
BCC3
100
AcDbVisualStyle
  2
X-Ray
 70
    25
 71
     2
 72
     2
 73
     1
 90
        1
 40
0.5
 41
-30.0
 62
     5
 63
     7
 74
     1
 91
        0
 64
     7
 65
   257
 75
     1
175
     1
 42
1.0
 92
        8
 66
     7
 43
1.0
 76
     1
 77
     6
 78
     2
 67
     7
 79
     3
170
     0
171
     0
290
     0
174
     0
 93
       13
 44
0.0
173
     0
291
     0
 45
0.0
1001
ACAD
1000
AcDbSavedByObjectVersion
1070
     0
  0
DICTIONARYVAR
  5
BD10
102
{ACAD_REACTORS
330
BD0B
102
}
330
BD0B
100
DictionaryVariables
280
     0
  1
1:1
  0
DICTIONARYVAR
  5
BD0D
102
{ACAD_REACTORS
330
BD0B
102
}
330
BD0B
100
DictionaryVariables
280
     0
  1
STANDARD
  0
DICTIONARYVAR
  5
BD0C
102
{ACAD_REACTORS
330
BD0B
102
}
330
BD0B
100
DictionaryVariables
280
     0
  1
STANDARD
  0
DICTIONARYVAR
  5
BD0E
102
{ACAD_REACTORS
330
BD0B
102
}
330
BD0B
100
DictionaryVariables
280
     0
  1
Imperial24
  0
DICTIONARYVAR
  5
BD0F
102
{ACAD_REACTORS
330
BD0B
102
}
330
BD0B
100
DictionaryVariables
280
     0
  1
Imperial24
  0
DICTIONARYVAR
  5
BD13
102
{ACAD_REACTORS
330
BD0B
102
}
330
BD0B
100
DictionaryVariables
280
     0
  1
1
  0
DICTIONARYVAR
  5
BD12
102
{ACAD_REACTORS
330
BD0B
102
}
330
BD0B
100
DictionaryVariables
280
     0
  1
0
  0
DICTIONARYVAR
  5
BD11
102
{ACAD_REACTORS
330
BD0B
102
}
330
BD0B
100
DictionaryVariables
280
     0
  1
127
  0
DICTIONARYVAR
  5
BD14
102
{ACAD_REACTORS
330
BD0B
102
}
330
BD0B
100
DictionaryVariables
280
     0
  1
2
  0
DICTIONARY
  5
BD51
330
BCF6
100
AcDbDictionary
280
     1
281
     1
  3
ACAD_XREC_ROUNDTRIP
360
BD52
  0
DICTIONARY
  5
BD53
330
BCF7
100
AcDbDictionary
280
     1
281
     1
  3
ACAD_XREC_ROUNDTRIP
360
BD54
  0
DICTIONARY
  5
BD55
330
BCF8
100
AcDbDictionary
280
     1
281
     1
  3
ACAD_XREC_ROUNDTRIP
360
BD56
  0
DICTIONARY
  5
BCB4
330
BCB3
100
AcDbDictionary
280
     1
281
     1
  3
ACAD_XREC_ROUNDTRIP
360
BD1B
  3
BUMPTILE
360
BCB6
  3
DIFFUSETILE
360
BCB5
  3
OPACITYTILE
360
BCB9
  3
REFLECTIONTILE
360
BCB8
  3
REFRACTIONTILE
360
BCBA
  3
SPECULARTILE
360
BCB7
  0
DICTIONARY
  5
BCAC
330
BCAB
100
AcDbDictionary
280
     1
281
     1
  3
ACAD_XREC_ROUNDTRIP
360
BD1A
  3
BUMPTILE
360
BCAE
  3
DIFFUSETILE
360
BCAD
  3
OPACITYTILE
360
BCB1
  3
REFLECTIONTILE
360
BCB0
  3
REFRACTIONTILE
360
BCB2
  3
SPECULARTILE
360
BCAF
  0
DICTIONARY
  5
BCBC
330
BCBB
100
AcDbDictionary
280
     1
281
     1
  3
ACAD_XREC_ROUNDTRIP
360
BD1C
  3
BUMPTILE
360
BCBE
  3
DIFFUSETILE
360
BCBD
  3
OPACITYTILE
360
BCC1
  3
REFLECTIONTILE
360
BCC0
  3
REFRACTIONTILE
360
BCC2
  3
SPECULARTILE
360
BCBF
  0
DICTIONARY
  5
BD4F
330
BCF4
100
AcDbDictionary
280
     1
281
     1
  3
ACAD_XREC_ROUNDTRIP
360
BD50
  0
DICTIONARY
  5
BD16
330
BCDE
100
AcDbDictionary
280
     1
281
     1
  3
ACAD_ROUNDTRIP_2008_TABLESTYLE_CELLSTYLEMAP
360
BD17
  3
ACAD_XREC_ROUNDTRIP
360
BD4D
  0
DICTIONARY
  5
BD27
330
BCC9
100
AcDbDictionary
280
     1
281
     1
  3
ACAD_XREC_ROUNDTRIP
360
BD28
  0
DICTIONARY
  5
BD25
330
BCC8
100
AcDbDictionary
280
     1
281
     1
  3
ACAD_XREC_ROUNDTRIP
360
BD26
  0
DICTIONARY
  5
BD33
330
BCCF
100
AcDbDictionary
280
     1
281
     1
  3
ACAD_XREC_ROUNDTRIP
360
BD34
  0
DICTIONARY
  5
BD3B
330
BCD3
100
AcDbDictionary
280
     1
281
     1
  3
ACAD_XREC_ROUNDTRIP
360
BD3C
  0
DICTIONARY
  5
BD2D
330
BCCC
100
AcDbDictionary
280
     1
281
     1
  3
ACAD_XREC_ROUNDTRIP
360
BD2E
  0
DICTIONARY
  5
BD31
330
BCCE
100
AcDbDictionary
280
     1
281
     1
  3
ACAD_XREC_ROUNDTRIP
360
BD32
  0
DICTIONARY
  5
BD4B
330
BCDB
100
AcDbDictionary
280
     1
281
     1
  3
ACAD_XREC_ROUNDTRIP
360
BD4C
  0
DICTIONARY
  5
BD39
330
BCD2
100
AcDbDictionary
280
     1
281
     1
  3
ACAD_XREC_ROUNDTRIP
360
BD3A
  0
DICTIONARY
  5
BD1D
330
BCC4
100
AcDbDictionary
280
     1
281
     1
  3
ACAD_XREC_ROUNDTRIP
360
BD1E
  0
DICTIONARY
  5
BD1F
330
BCC5
100
AcDbDictionary
280
     1
281
     1
  3
ACAD_XREC_ROUNDTRIP
360
BD20
  0
DICTIONARY
  5
BD21
330
BCC6
100
AcDbDictionary
280
     1
281
     1
  3
ACAD_XREC_ROUNDTRIP
360
BD22
  0
DICTIONARY
  5
BD23
330
BCC7
100
AcDbDictionary
280
     1
281
     1
  3
ACAD_XREC_ROUNDTRIP
360
BD24
  0
DICTIONARY
  5
BD2B
330
BCCB
100
AcDbDictionary
280
     1
281
     1
  3
ACAD_XREC_ROUNDTRIP
360
BD2C
  0
DICTIONARY
  5
BD47
330
BCD9
100
AcDbDictionary
280
     1
281
     1
  3
ACAD_XREC_ROUNDTRIP
360
BD48
  0
DICTIONARY
  5
BD37
330
BCD1
100
AcDbDictionary
280
     1
281
     1
  3
ACAD_XREC_ROUNDTRIP
360
BD38
  0
DICTIONARY
  5
BD49
330
BCDA
100
AcDbDictionary
280
     1
281
     1
  3
ACAD_XREC_ROUNDTRIP
360
BD4A
  0
DICTIONARY
  5
BD2F
330
BCCD
100
AcDbDictionary
280
     1
281
     1
  3
ACAD_XREC_ROUNDTRIP
360
BD30
  0
DICTIONARY
  5
BD45
330
BCD8
100
AcDbDictionary
280
     1
281
     1
  3
ACAD_XREC_ROUNDTRIP
360
BD46
  0
DICTIONARY
  5
BD43
330
BCD7
100
AcDbDictionary
280
     1
281
     1
  3
ACAD_XREC_ROUNDTRIP
360
BD44
  0
DICTIONARY
  5
BD3D
330
BCD4
100
AcDbDictionary
280
     1
281
     1
  3
ACAD_XREC_ROUNDTRIP
360
BD3E
  0
DICTIONARY
  5
BD3F
330
BCD5
100
AcDbDictionary
280
     1
281
     1
  3
ACAD_XREC_ROUNDTRIP
360
BD40
  0
DICTIONARY
  5
BD35
330
BCD0
100
AcDbDictionary
280
     1
281
     1
  3
ACAD_XREC_ROUNDTRIP
360
BD36
  0
DICTIONARY
  5
BD29
330
BCCA
100
AcDbDictionary
280
     1
281
     1
  3
ACAD_XREC_ROUNDTRIP
360
BD2A
  0
DICTIONARY
  5
BD41
330
BCD6
100
AcDbDictionary
280
     1
281
     1
  3
ACAD_XREC_ROUNDTRIP
360
BD42
  0
XRECORD
  5
BD52
102
{ACAD_REACTORS
330
BD51
102
}
330
BD51
100
AcDbXrecord
280
     1
102
DISPLAYNAME
  1
Imperial24
102
FLAGS
 90
        0
  0
XRECORD
  5
BD54
102
{ACAD_REACTORS
330
BD53
102
}
330
BD53
100
AcDbXrecord
280
     1
102
SHADEPLOT
 70
     0
102
SHADEPLOTRESLEVEL
 70
     2
102
SHADEPLOTCUSTOMDPI
 70
   300
  0
XRECORD
  5
BD56
102
{ACAD_REACTORS
330
BD55
102
}
330
BD55
100
AcDbXrecord
280
     1
102
SHADEPLOT
 70
     0
102
SHADEPLOTRESLEVEL
 70
     2
102
SHADEPLOTCUSTOMDPI
 70
   300
  0
XRECORD
  5
BD1B
102
{ACAD_REACTORS
330
BCB4
102
}
330
BCB4
100
AcDbXrecord
280
     1
102
MATERIAL
148
0.0
149
0.0
149
0.0
 93
        0
 94
      127
282
     0
 72
     0
 77
     0
171
     0
175
     0
179
     0
273
     0
  0
XRECORD
  5
BCB6
102
{ACAD_REACTORS
330
BCB4
102
}
330
BCB4
100
AcDbXrecord
280
     1
270
     1
271
     1
  0
XRECORD
  5
BCB5
102
{ACAD_REACTORS
330
BCB4
102
}
330
BCB4
100
AcDbXrecord
280
     1
270
     1
271
     1
  0
XRECORD
  5
BCB9
102
{ACAD_REACTORS
330
BCB4
102
}
330
BCB4
100
AcDbXrecord
280
     1
270
     1
271
     1
  0
XRECORD
  5
BCB8
102
{ACAD_REACTORS
330
BCB4
102
}
330
BCB4
100
AcDbXrecord
280
     1
270
     1
271
     1
  0
XRECORD
  5
BCBA
102
{ACAD_REACTORS
330
BCB4
102
}
330
BCB4
100
AcDbXrecord
280
     1
270
     1
271
     1
  0
XRECORD
  5
BCB7
102
{ACAD_REACTORS
330
BCB4
102
}
330
BCB4
100
AcDbXrecord
280
     1
270
     1
271
     1
  0
XRECORD
  5
BD1A
102
{ACAD_REACTORS
330
BCAC
102
}
330
BCAC
100
AcDbXrecord
280
     1
102
MATERIAL
148
0.0
149
0.0
149
0.0
 93
        0
 94
      127
282
     0
 72
     0
 77
     0
171
     0
175
     0
179
     0
273
     0
  0
XRECORD
  5
BCAE
102
{ACAD_REACTORS
330
BCAC
102
}
330
BCAC
100
AcDbXrecord
280
     1
270
     1
271
     1
  0
XRECORD
  5
BCAD
102
{ACAD_REACTORS
330
BCAC
102
}
330
BCAC
100
AcDbXrecord
280
     1
270
     1
271
     1
  0
XRECORD
  5
BCB1
102
{ACAD_REACTORS
330
BCAC
102
}
330
BCAC
100
AcDbXrecord
280
     1
270
     1
271
     1
  0
XRECORD
  5
BCB0
102
{ACAD_REACTORS
330
BCAC
102
}
330
BCAC
100
AcDbXrecord
280
     1
270
     1
271
     1
  0
XRECORD
  5
BCB2
102
{ACAD_REACTORS
330
BCAC
102
}
330
BCAC
100
AcDbXrecord
280
     1
270
     1
271
     1
  0
XRECORD
  5
BCAF
102
{ACAD_REACTORS
330
BCAC
102
}
330
BCAC
100
AcDbXrecord
280
     1
270
     1
271
     1
  0
XRECORD
  5
BD1C
102
{ACAD_REACTORS
330
BCBC
102
}
330
BCBC
100
AcDbXrecord
280
     1
102
MATERIAL
148
0.0
149
0.0
149
0.0
 93
        0
 94
      127
282
     0
 72
     0
 77
     0
171
     0
175
     0
179
     0
273
     0
  0
XRECORD
  5
BCBE
102
{ACAD_REACTORS
330
BCBC
102
}
330
BCBC
100
AcDbXrecord
280
     1
270
     1
271
     1
  0
XRECORD
  5
BCBD
102
{ACAD_REACTORS
330
BCBC
102
}
330
BCBC
100
AcDbXrecord
280
     1
270
     1
271
     1
  0
XRECORD
  5
BCC1
102
{ACAD_REACTORS
330
BCBC
102
}
330
BCBC
100
AcDbXrecord
280
     1
270
     1
271
     1
  0
XRECORD
  5
BCC0
102
{ACAD_REACTORS
330
BCBC
102
}
330
BCBC
100
AcDbXrecord
280
     1
270
     1
271
     1
  0
XRECORD
  5
BCC2
102
{ACAD_REACTORS
330
BCBC
102
}
330
BCBC
100
AcDbXrecord
280
     1
270
     1
271
     1
  0
XRECORD
  5
BCBF
102
{ACAD_REACTORS
330
BCBC
102
}
330
BCBC
100
AcDbXrecord
280
     1
270
     1
271
     1
  0
XRECORD
  5
BD50
102
{ACAD_REACTORS
330
BD4F
102
}
330
BD4F
100
AcDbXrecord
280
     1
102
DISPLAYNAME
  1
Imperial24
102
FLAGS
 90
        0
  0
CELLSTYLEMAP
  5
BD17
102
{ACAD_REACTORS
330
BD16
102
}
330
BD16
100
AcDbCellStyleMap
 90
        3
300
CELLSTYLE
  1
TABLEFORMAT_BEGIN
 90
        5
170
     1
 91
        0
 92
    32768
 62
   257
 93
        1
300
CONTENTFORMAT
  1
CONTENTFORMAT_BEGIN
 90
        0
 91
        0
 92
      512
 93
        0
300

 40
0.0
140
1.0
 94
        5
 62
     0
340
BA7C
144
0.25
309
CONTENTFORMAT_END
171
     0
 94
        0
309
TABLEFORMAT_END
  1
CELLSTYLE_BEGIN
 90
        1
 91
        1
300
_TITLE
309
CELLSTYLE_END
300
CELLSTYLE
  1
TABLEFORMAT_BEGIN
 90
        5
170
     1
 91
        0
 92
        0
 62
   257
 93
        1
300
CONTENTFORMAT
  1
CONTENTFORMAT_BEGIN
 90
        0
 91
        0
 92
      512
 93
        0
300

 40
0.0
140
1.0
 94
        5
 62
     0
340
BA7C
144
0.18
309
CONTENTFORMAT_END
171
     0
 94
        0
309
TABLEFORMAT_END
  1
CELLSTYLE_BEGIN
 90
        2
 91
        1
300
_HEADER
309
CELLSTYLE_END
300
CELLSTYLE
  1
TABLEFORMAT_BEGIN
 90
        5
170
     1
 91
        0
 92
        0
 62
   257
 93
        1
300
CONTENTFORMAT
  1
CONTENTFORMAT_BEGIN
 90
        0
 91
        0
 92
      512
 93
        0
300

 40
0.0
140
1.0
 94
        2
 62
     0
340
BA7C
144
0.18
309
CONTENTFORMAT_END
171
     0
 94
        0
309
TABLEFORMAT_END
  1
CELLSTYLE_BEGIN
 90
        3
 91
        2
300
_DATA
309
CELLSTYLE_END
  0
XRECORD
  5
BD4D
102
{ACAD_REACTORS
330
BD16
102
}
330
BD16
100
AcDbXrecord
280
     1
102
ACAD_ROUNDTRIP_PRE2007_TABLESTYLE
 90
      512
 91
        0
  1

 92
      512
 93
        0
  2

 94
      512
 95
        0
  3

  0
XRECORD
  5
BD28
102
{ACAD_REACTORS
330
BD27
102
}
330
BD27
100
AcDbXrecord
280
     1
102
RTVSPost2010Prop28
280
     1
102
RTVSPost2010PropOp28
 70
     1
102
RTVSPost2010Prop29
280
     1
102
RTVSPost2010PropOp29
 70
     1
102
RTVSPost2010Prop30
280
     0
102
RTVSPost2010PropOp30
 70
     1
102
RTVSPost2010Prop31
280
     0
102
RTVSPost2010PropOp31
 70
     1
102
RTVSPost2010Prop32
280
     0
102
RTVSPost2010PropOp32
 70
     1
102
RTVSPost2010Prop33
280
     0
102
RTVSPost2010PropOp33
 70
     1
102
RTVSPost2010Prop34
280
     0
102
RTVSPost2010PropOp34
 70
     1
102
RTVSPost2010Prop35
280
     0
102
RTVSPost2010PropOp35
 70
     1
102
RTVSPost2010Prop36
280
     0
102
RTVSPost2010PropOp36
 70
     1
102
RTVSPost2010Prop37
 90
       50
102
RTVSPost2010PropOp37
 70
     1
102
RTVSPost2010Prop38
140
0.0
102
RTVSPost2010PropOp38
 70
     1
102
RTVSPost2010Prop39
140
1.0
102
RTVSPost2010PropOp39
 70
     1
102
RTVSPost2010Prop40
 90
        0
102
RTVSPost2010PropOp40
 70
     1
102
RTVSPost2010Prop41ColorIndex
 90
       18
102
RTVSPost2010Prop41ColorRGB
 90
        0
102
RTVSPost2010PropOp41
 70
     1
102
RTVSPost2010Prop42
 90
       50
102
RTVSPost2010PropOp42
 70
     1
102
RTVSPost2010Prop43
 90
        3
102
RTVSPost2010PropOp43
 70
     1
102
RTVSPost2010Prop44ColorIndex
 90
        5
102
RTVSPost2010Prop44ColorRGB
 90
      255
102
RTVSPost2010PropOp44
 70
     1
102
RTVSPost2010Prop45
280
     0
102
RTVSPost2010PropOp45
 70
     1
102
RTVSPost2010Prop46
 90
       50
102
RTVSPost2010PropOp46
 70
     1
102
RTVSPost2010Prop47
 90
       50
102
RTVSPost2010PropOp47
 70
     1
102
RTVSPost2010Prop48
 90
       50
102
RTVSPost2010PropOp48
 70
     1
102
RTVSPost2010Prop49
280
     0
102
RTVSPost2010PropOp49
 70
     1
102
RTVSPost2010Prop50
 90
       50
102
RTVSPost2010PropOp50
 70
     1
102
RTVSPost2010Prop51ColorIndex
 90
      256
102
RTVSPost2010Prop51ColorRGB
 90
-16777216
102
RTVSPost2010PropOp51
 70
     0
102
RTVSPost2010Prop52
140
1.0
102
RTVSPost2010PropOp52
 70
     0
102
RTVSPost2010Prop53
 90
        2
102
RTVSPost2010PropOp53
 70
     1
102
RTVSPost2010Prop54
  1
strokes_ogs.tif
102
RTVSPost2010PropOp54
 70
     1
102
RTVSPost2010Prop55
280
     0
102
RTVSPost2010PropOp55
 70
     1
102
RTVSPost2010Prop56
140
1.0
102
RTVSPost2010PropOp56
 70
     1
102
RTVSPost2010Prop57
140
1.0
102
RTVSPost2010PropOp57
 70
     1
102
RTVSPropertyOp0
 70
     1
102
RTVSPropertyOp1
 70
     1
102
RTVSPropertyOp2
 70
     1
102
RTVSPropertyOp3
 70
     1
102
RTVSPropertyOp4
 70
     1
102
RTVSPropertyOp5
 70
     1
102
RTVSPropertyOp6
 70
     1
102
RTVSPropertyOp7
 70
     1
102
RTVSPropertyOp8
 70
     1
102
RTVSPropertyOp9
 70
     1
102
RTVSPropertyOp10
 70
     1
102
RTVSPropertyOp11
 70
     1
102
RTVSPropertyOp12
 70
     1
102
RTVSPropertyOp13
 70
     1
102
RTVSPropertyOp14
 70
     1
102
RTVSPropertyOp15
 70
     1
102
RTVSPropertyOp16
 70
     1
102
RTVSPropertyOp17
 70
     1
102
RTVSPropertyOp18
 70
     1
102
RTVSPropertyOp19
 70
     1
102
RTVSPropertyOp20
 70
     1
102
RTVSPropertyOp21
 70
     1
102
RTVSPropertyOp22
 70
     1
102
RTVSPropertyOp23
 70
     1
102
RTVSPropertyOp24
 70
     1
102
RTVSPropertyOp25
 70
     1
102
RTVSPropertyOp26
 70
     1
102
RTVSPropertyOp27
 70
     1
102
RTVSPropertyOp28
 70
     1
102
RTVSPropertyOp29
 70
     1
102
RTVSPropertyOp30
 70
     1
102
RTVSPropertyOp31
 70
     1
102
RTVSPropertyOp32
 70
     1
102
RTVSPropertyOp33
 70
     1
102
RTVSPropertyOp34
 70
     1
102
RTVSPropertyOp35
 70
     1
102
RTVSPropertyOp36
 70
     1
102
RTVSPropertyOp37
 70
     1
102
RTVSPropertyOp38
 70
     1
102
RTVSPropertyOp39
 70
     1
102
RTVSPropertyOp40
 70
     1
102
RTVSPropertyOp41
 70
     1
102
RTVSPropertyOp42
 70
     1
102
RTVSPropertyOp43
 70
     1
102
RTVSPropertyOp44
 70
     1
102
RTVSPropertyOp45
 70
     1
102
RTVSPropertyOp46
 70
     1
102
RTVSPropertyOp47
 70
     1
102
RTVSPropertyOp48
 70
     1
102
RTVSPropertyOp49
 70
     1
102
RTVSPropertyOp50
 70
     1
102
RTVSPropertyOp51
 70
     0
102
RTVSPropertyOp52
 70
     0
102
RTVSPropertyOp53
 70
     1
102
RTVSPropertyOp54
 70
     1
102
RTVSPropertyOp55
 70
     1
102
RTVSPropertyOp56
 70
     1
102
RTVSPropertyOp57
 70
     1
102
RTVSPropertyOp58
 70
     1
102
RTVSPropertyOp59
 70
     1
102
RTVSPropertyOp60
 70
     1
102
RTVSPropertyOp61
 70
     1
102
RTVSPropertyOp62
 70
     1
  0
XRECORD
  5
BD26
102
{ACAD_REACTORS
330
BD25
102
}
330
BD25
100
AcDbXrecord
280
     1
102
RTVSPost2010Prop28
280
     0
102
RTVSPost2010PropOp28
 70
     1
102
RTVSPost2010Prop29
280
     1
102
RTVSPost2010PropOp29
 70
     1
102
RTVSPost2010Prop30
280
     1
102
RTVSPost2010PropOp30
 70
     1
102
RTVSPost2010Prop31
280
     0
102
RTVSPost2010PropOp31
 70
     1
102
RTVSPost2010Prop32
280
     0
102
RTVSPost2010PropOp32
 70
     1
102
RTVSPost2010Prop33
280
     0
102
RTVSPost2010PropOp33
 70
     1
102
RTVSPost2010Prop34
280
     0
102
RTVSPost2010PropOp34
 70
     1
102
RTVSPost2010Prop35
280
     0
102
RTVSPost2010PropOp35
 70
     1
102
RTVSPost2010Prop36
280
     0
102
RTVSPost2010PropOp36
 70
     1
102
RTVSPost2010Prop37
 90
       50
102
RTVSPost2010PropOp37
 70
     1
102
RTVSPost2010Prop38
140
0.0
102
RTVSPost2010PropOp38
 70
     1
102
RTVSPost2010Prop39
140
1.0
102
RTVSPost2010PropOp39
 70
     1
102
RTVSPost2010Prop40
 90
        0
102
RTVSPost2010PropOp40
 70
     1
102
RTVSPost2010Prop41ColorIndex
 90
       18
102
RTVSPost2010Prop41ColorRGB
 90
        0
102
RTVSPost2010PropOp41
 70
     1
102
RTVSPost2010Prop42
 90
       50
102
RTVSPost2010PropOp42
 70
     1
102
RTVSPost2010Prop43
 90
        3
102
RTVSPost2010PropOp43
 70
     1
102
RTVSPost2010Prop44ColorIndex
 90
        5
102
RTVSPost2010Prop44ColorRGB
 90
      255
102
RTVSPost2010PropOp44
 70
     1
102
RTVSPost2010Prop45
280
     0
102
RTVSPost2010PropOp45
 70
     1
102
RTVSPost2010Prop46
 90
       50
102
RTVSPost2010PropOp46
 70
     1
102
RTVSPost2010Prop47
 90
       50
102
RTVSPost2010PropOp47
 70
     1
102
RTVSPost2010Prop48
 90
       50
102
RTVSPost2010PropOp48
 70
     1
102
RTVSPost2010Prop49
280
     0
102
RTVSPost2010PropOp49
 70
     1
102
RTVSPost2010Prop50
 90
       50
102
RTVSPost2010PropOp50
 70
     1
102
RTVSPost2010Prop51ColorIndex
 90
      256
102
RTVSPost2010Prop51ColorRGB
 90
-16777216
102
RTVSPost2010PropOp51
 70
     0
102
RTVSPost2010Prop52
140
1.0
102
RTVSPost2010PropOp52
 70
     0
102
RTVSPost2010Prop53
 90
        2
102
RTVSPost2010PropOp53
 70
     1
102
RTVSPost2010Prop54
  1
strokes_ogs.tif
102
RTVSPost2010PropOp54
 70
     1
102
RTVSPost2010Prop55
280
     0
102
RTVSPost2010PropOp55
 70
     1
102
RTVSPost2010Prop56
140
1.0
102
RTVSPost2010PropOp56
 70
     1
102
RTVSPost2010Prop57
140
1.0
102
RTVSPost2010PropOp57
 70
     1
102
RTVSPropertyOp0
 70
     1
102
RTVSPropertyOp1
 70
     1
102
RTVSPropertyOp2
 70
     1
102
RTVSPropertyOp3
 70
     1
102
RTVSPropertyOp4
 70
     1
102
RTVSPropertyOp5
 70
     1
102
RTVSPropertyOp6
 70
     1
102
RTVSPropertyOp7
 70
     1
102
RTVSPropertyOp8
 70
     1
102
RTVSPropertyOp9
 70
     1
102
RTVSPropertyOp10
 70
     1
102
RTVSPropertyOp11
 70
     1
102
RTVSPropertyOp12
 70
     1
102
RTVSPropertyOp13
 70
     1
102
RTVSPropertyOp14
 70
     1
102
RTVSPropertyOp15
 70
     1
102
RTVSPropertyOp16
 70
     1
102
RTVSPropertyOp17
 70
     1
102
RTVSPropertyOp18
 70
     1
102
RTVSPropertyOp19
 70
     1
102
RTVSPropertyOp20
 70
     1
102
RTVSPropertyOp21
 70
     1
102
RTVSPropertyOp22
 70
     1
102
RTVSPropertyOp23
 70
     1
102
RTVSPropertyOp24
 70
     1
102
RTVSPropertyOp25
 70
     1
102
RTVSPropertyOp26
 70
     1
102
RTVSPropertyOp27
 70
     1
102
RTVSPropertyOp28
 70
     1
102
RTVSPropertyOp29
 70
     1
102
RTVSPropertyOp30
 70
     1
102
RTVSPropertyOp31
 70
     1
102
RTVSPropertyOp32
 70
     1
102
RTVSPropertyOp33
 70
     1
102
RTVSPropertyOp34
 70
     1
102
RTVSPropertyOp35
 70
     1
102
RTVSPropertyOp36
 70
     1
102
RTVSPropertyOp37
 70
     1
102
RTVSPropertyOp38
 70
     1
102
RTVSPropertyOp39
 70
     1
102
RTVSPropertyOp40
 70
     1
102
RTVSPropertyOp41
 70
     1
102
RTVSPropertyOp42
 70
     1
102
RTVSPropertyOp43
 70
     1
102
RTVSPropertyOp44
 70
     1
102
RTVSPropertyOp45
 70
     1
102
RTVSPropertyOp46
 70
     1
102
RTVSPropertyOp47
 70
     1
102
RTVSPropertyOp48
 70
     1
102
RTVSPropertyOp49
 70
     1
102
RTVSPropertyOp50
 70
     1
102
RTVSPropertyOp51
 70
     0
102
RTVSPropertyOp52
 70
     0
102
RTVSPropertyOp53
 70
     1
102
RTVSPropertyOp54
 70
     1
102
RTVSPropertyOp55
 70
     1
102
RTVSPropertyOp56
 70
     1
102
RTVSPropertyOp57
 70
     1
102
RTVSPropertyOp58
 70
     1
102
RTVSPropertyOp59
 70
     1
102
RTVSPropertyOp60
 70
     1
102
RTVSPropertyOp61
 70
     1
102
RTVSPropertyOp62
 70
     1
  0
XRECORD
  5
BD34
102
{ACAD_REACTORS
330
BD33
102
}
330
BD33
100
AcDbXrecord
280
     1
102
RTVSPost2010Prop28
280
     0
102
RTVSPost2010PropOp28
 70
     1
102
RTVSPost2010Prop29
280
     1
102
RTVSPost2010PropOp29
 70
     1
102
RTVSPost2010Prop30
280
     1
102
RTVSPost2010PropOp30
 70
     1
102
RTVSPost2010Prop31
280
     0
102
RTVSPost2010PropOp31
 70
     1
102
RTVSPost2010Prop32
280
     0
102
RTVSPost2010PropOp32
 70
     1
102
RTVSPost2010Prop33
280
     0
102
RTVSPost2010PropOp33
 70
     1
102
RTVSPost2010Prop34
280
     0
102
RTVSPost2010PropOp34
 70
     1
102
RTVSPost2010Prop35
280
     0
102
RTVSPost2010PropOp35
 70
     1
102
RTVSPost2010Prop36
280
     0
102
RTVSPost2010PropOp36
 70
     1
102
RTVSPost2010Prop37
 90
       50
102
RTVSPost2010PropOp37
 70
     1
102
RTVSPost2010Prop38
140
0.0
102
RTVSPost2010PropOp38
 70
     1
102
RTVSPost2010Prop39
140
1.0
102
RTVSPost2010PropOp39
 70
     1
102
RTVSPost2010Prop40
 90
        0
102
RTVSPost2010PropOp40
 70
     1
102
RTVSPost2010Prop41ColorIndex
 90
       18
102
RTVSPost2010Prop41ColorRGB
 90
        0
102
RTVSPost2010PropOp41
 70
     1
102
RTVSPost2010Prop42
 90
       50
102
RTVSPost2010PropOp42
 70
     1
102
RTVSPost2010Prop43
 90
        3
102
RTVSPost2010PropOp43
 70
     1
102
RTVSPost2010Prop44ColorIndex
 90
        5
102
RTVSPost2010Prop44ColorRGB
 90
      255
102
RTVSPost2010PropOp44
 70
     1
102
RTVSPost2010Prop45
280
     0
102
RTVSPost2010PropOp45
 70
     1
102
RTVSPost2010Prop46
 90
       50
102
RTVSPost2010PropOp46
 70
     1
102
RTVSPost2010Prop47
 90
       50
102
RTVSPost2010PropOp47
 70
     1
102
RTVSPost2010Prop48
 90
       50
102
RTVSPost2010PropOp48
 70
     1
102
RTVSPost2010Prop49
280
     0
102
RTVSPost2010PropOp49
 70
     1
102
RTVSPost2010Prop50
 90
       50
102
RTVSPost2010PropOp50
 70
     1
102
RTVSPost2010Prop51ColorIndex
 90
      256
102
RTVSPost2010Prop51ColorRGB
 90
-16777216
102
RTVSPost2010PropOp51
 70
     0
102
RTVSPost2010Prop52
140
1.0
102
RTVSPost2010PropOp52
 70
     0
102
RTVSPost2010Prop53
 90
        2
102
RTVSPost2010PropOp53
 70
     1
102
RTVSPost2010Prop54
  1
strokes_ogs.tif
102
RTVSPost2010PropOp54
 70
     1
102
RTVSPost2010Prop55
280
     0
102
RTVSPost2010PropOp55
 70
     1
102
RTVSPost2010Prop56
140
1.0
102
RTVSPost2010PropOp56
 70
     1
102
RTVSPost2010Prop57
140
1.0
102
RTVSPost2010PropOp57
 70
     1
102
RTVSPropertyOp0
 70
     1
102
RTVSPropertyOp1
 70
     1
102
RTVSPropertyOp2
 70
     1
102
RTVSPropertyOp3
 70
     1
102
RTVSPropertyOp4
 70
     1
102
RTVSPropertyOp5
 70
     1
102
RTVSPropertyOp6
 70
     1
102
RTVSPropertyOp7
 70
     1
102
RTVSPropertyOp8
 70
     1
102
RTVSPropertyOp9
 70
     1
102
RTVSPropertyOp10
 70
     1
102
RTVSPropertyOp11
 70
     1
102
RTVSPropertyOp12
 70
     1
102
RTVSPropertyOp13
 70
     1
102
RTVSPropertyOp14
 70
     1
102
RTVSPropertyOp15
 70
     1
102
RTVSPropertyOp16
 70
     1
102
RTVSPropertyOp17
 70
     1
102
RTVSPropertyOp18
 70
     1
102
RTVSPropertyOp19
 70
     1
102
RTVSPropertyOp20
 70
     1
102
RTVSPropertyOp21
 70
     1
102
RTVSPropertyOp22
 70
     1
102
RTVSPropertyOp23
 70
     1
102
RTVSPropertyOp24
 70
     1
102
RTVSPropertyOp25
 70
     1
102
RTVSPropertyOp26
 70
     1
102
RTVSPropertyOp27
 70
     1
102
RTVSPropertyOp28
 70
     1
102
RTVSPropertyOp29
 70
     1
102
RTVSPropertyOp30
 70
     1
102
RTVSPropertyOp31
 70
     1
102
RTVSPropertyOp32
 70
     1
102
RTVSPropertyOp33
 70
     1
102
RTVSPropertyOp34
 70
     1
102
RTVSPropertyOp35
 70
     1
102
RTVSPropertyOp36
 70
     1
102
RTVSPropertyOp37
 70
     1
102
RTVSPropertyOp38
 70
     1
102
RTVSPropertyOp39
 70
     1
102
RTVSPropertyOp40
 70
     1
102
RTVSPropertyOp41
 70
     1
102
RTVSPropertyOp42
 70
     1
102
RTVSPropertyOp43
 70
     1
102
RTVSPropertyOp44
 70
     1
102
RTVSPropertyOp45
 70
     1
102
RTVSPropertyOp46
 70
     1
102
RTVSPropertyOp47
 70
     1
102
RTVSPropertyOp48
 70
     1
102
RTVSPropertyOp49
 70
     1
102
RTVSPropertyOp50
 70
     1
102
RTVSPropertyOp51
 70
     0
102
RTVSPropertyOp52
 70
     0
102
RTVSPropertyOp53
 70
     1
102
RTVSPropertyOp54
 70
     1
102
RTVSPropertyOp55
 70
     1
102
RTVSPropertyOp56
 70
     1
102
RTVSPropertyOp57
 70
     1
102
RTVSPropertyOp58
 70
     1
102
RTVSPropertyOp59
 70
     1
102
RTVSPropertyOp60
 70
     1
102
RTVSPropertyOp61
 70
     1
102
RTVSPropertyOp62
 70
     1
  0
XRECORD
  5
BD3C
102
{ACAD_REACTORS
330
BD3B
102
}
330
BD3B
100
AcDbXrecord
280
     1
102
RTVSPost2010Prop28
280
     0
102
RTVSPost2010PropOp28
 70
     1
102
RTVSPost2010Prop29
280
     1
102
RTVSPost2010PropOp29
 70
     1
102
RTVSPost2010Prop30
280
     1
102
RTVSPost2010PropOp30
 70
     1
102
RTVSPost2010Prop31
280
     0
102
RTVSPost2010PropOp31
 70
     1
102
RTVSPost2010Prop32
280
     0
102
RTVSPost2010PropOp32
 70
     1
102
RTVSPost2010Prop33
280
     0
102
RTVSPost2010PropOp33
 70
     1
102
RTVSPost2010Prop34
280
     0
102
RTVSPost2010PropOp34
 70
     1
102
RTVSPost2010Prop35
280
     0
102
RTVSPost2010PropOp35
 70
     1
102
RTVSPost2010Prop36
280
     0
102
RTVSPost2010PropOp36
 70
     1
102
RTVSPost2010Prop37
 90
       50
102
RTVSPost2010PropOp37
 70
     1
102
RTVSPost2010Prop38
140
0.0
102
RTVSPost2010PropOp38
 70
     1
102
RTVSPost2010Prop39
140
1.0
102
RTVSPost2010PropOp39
 70
     1
102
RTVSPost2010Prop40
 90
        0
102
RTVSPost2010PropOp40
 70
     1
102
RTVSPost2010Prop41ColorIndex
 90
       18
102
RTVSPost2010Prop41ColorRGB
 90
        0
102
RTVSPost2010PropOp41
 70
     1
102
RTVSPost2010Prop42
 90
       50
102
RTVSPost2010PropOp42
 70
     1
102
RTVSPost2010Prop43
 90
        3
102
RTVSPost2010PropOp43
 70
     1
102
RTVSPost2010Prop44ColorIndex
 90
        5
102
RTVSPost2010Prop44ColorRGB
 90
      255
102
RTVSPost2010PropOp44
 70
     1
102
RTVSPost2010Prop45
280
     0
102
RTVSPost2010PropOp45
 70
     1
102
RTVSPost2010Prop46
 90
       50
102
RTVSPost2010PropOp46
 70
     1
102
RTVSPost2010Prop47
 90
       50
102
RTVSPost2010PropOp47
 70
     1
102
RTVSPost2010Prop48
 90
       50
102
RTVSPost2010PropOp48
 70
     1
102
RTVSPost2010Prop49
280
     0
102
RTVSPost2010PropOp49
 70
     1
102
RTVSPost2010Prop50
 90
       50
102
RTVSPost2010PropOp50
 70
     1
102
RTVSPost2010Prop51ColorIndex
 90
      256
102
RTVSPost2010Prop51ColorRGB
 90
-16777216
102
RTVSPost2010PropOp51
 70
     0
102
RTVSPost2010Prop52
140
1.0
102
RTVSPost2010PropOp52
 70
     0
102
RTVSPost2010Prop53
 90
        2
102
RTVSPost2010PropOp53
 70
     1
102
RTVSPost2010Prop54
  1
strokes_ogs.tif
102
RTVSPost2010PropOp54
 70
     1
102
RTVSPost2010Prop55
280
     0
102
RTVSPost2010PropOp55
 70
     1
102
RTVSPost2010Prop56
140
1.0
102
RTVSPost2010PropOp56
 70
     1
102
RTVSPost2010Prop57
140
1.0
102
RTVSPost2010PropOp57
 70
     1
102
RTVSPropertyOp0
 70
     1
102
RTVSPropertyOp1
 70
     1
102
RTVSPropertyOp2
 70
     1
102
RTVSPropertyOp3
 70
     1
102
RTVSPropertyOp4
 70
     1
102
RTVSPropertyOp5
 70
     1
102
RTVSPropertyOp6
 70
     1
102
RTVSPropertyOp7
 70
     1
102
RTVSPropertyOp8
 70
     1
102
RTVSPropertyOp9
 70
     1
102
RTVSPropertyOp10
 70
     1
102
RTVSPropertyOp11
 70
     1
102
RTVSPropertyOp12
 70
     1
102
RTVSPropertyOp13
 70
     1
102
RTVSPropertyOp14
 70
     1
102
RTVSPropertyOp15
 70
     1
102
RTVSPropertyOp16
 70
     1
102
RTVSPropertyOp17
 70
     1
102
RTVSPropertyOp18
 70
     1
102
RTVSPropertyOp19
 70
     1
102
RTVSPropertyOp20
 70
     1
102
RTVSPropertyOp21
 70
     1
102
RTVSPropertyOp22
 70
     1
102
RTVSPropertyOp23
 70
     1
102
RTVSPropertyOp24
 70
     1
102
RTVSPropertyOp25
 70
     1
102
RTVSPropertyOp26
 70
     1
102
RTVSPropertyOp27
 70
     1
102
RTVSPropertyOp28
 70
     1
102
RTVSPropertyOp29
 70
     1
102
RTVSPropertyOp30
 70
     1
102
RTVSPropertyOp31
 70
     1
102
RTVSPropertyOp32
 70
     1
102
RTVSPropertyOp33
 70
     1
102
RTVSPropertyOp34
 70
     1
102
RTVSPropertyOp35
 70
     1
102
RTVSPropertyOp36
 70
     1
102
RTVSPropertyOp37
 70
     1
102
RTVSPropertyOp38
 70
     1
102
RTVSPropertyOp39
 70
     1
102
RTVSPropertyOp40
 70
     1
102
RTVSPropertyOp41
 70
     1
102
RTVSPropertyOp42
 70
     1
102
RTVSPropertyOp43
 70
     1
102
RTVSPropertyOp44
 70
     1
102
RTVSPropertyOp45
 70
     1
102
RTVSPropertyOp46
 70
     1
102
RTVSPropertyOp47
 70
     1
102
RTVSPropertyOp48
 70
     1
102
RTVSPropertyOp49
 70
     1
102
RTVSPropertyOp50
 70
     1
102
RTVSPropertyOp51
 70
     0
102
RTVSPropertyOp52
 70
     0
102
RTVSPropertyOp53
 70
     1
102
RTVSPropertyOp54
 70
     1
102
RTVSPropertyOp55
 70
     1
102
RTVSPropertyOp56
 70
     1
102
RTVSPropertyOp57
 70
     1
102
RTVSPropertyOp58
 70
     1
102
RTVSPropertyOp59
 70
     1
102
RTVSPropertyOp60
 70
     1
102
RTVSPropertyOp61
 70
     1
102
RTVSPropertyOp62
 70
     1
  0
XRECORD
  5
BD2E
102
{ACAD_REACTORS
330
BD2D
102
}
330
BD2D
100
AcDbXrecord
280
     1
102
RTVSPost2010Prop28
280
     0
102
RTVSPost2010PropOp28
 70
     1
102
RTVSPost2010Prop29
280
     1
102
RTVSPost2010PropOp29
 70
     1
102
RTVSPost2010Prop30
280
     1
102
RTVSPost2010PropOp30
 70
     1
102
RTVSPost2010Prop31
280
     0
102
RTVSPost2010PropOp31
 70
     1
102
RTVSPost2010Prop32
280
     0
102
RTVSPost2010PropOp32
 70
     1
102
RTVSPost2010Prop33
280
     0
102
RTVSPost2010PropOp33
 70
     1
102
RTVSPost2010Prop34
280
     0
102
RTVSPost2010PropOp34
 70
     1
102
RTVSPost2010Prop35
280
     0
102
RTVSPost2010PropOp35
 70
     1
102
RTVSPost2010Prop36
280
     0
102
RTVSPost2010PropOp36
 70
     1
102
RTVSPost2010Prop37
 90
       50
102
RTVSPost2010PropOp37
 70
     1
102
RTVSPost2010Prop38
140
0.0
102
RTVSPost2010PropOp38
 70
     1
102
RTVSPost2010Prop39
140
1.0
102
RTVSPost2010PropOp39
 70
     1
102
RTVSPost2010Prop40
 90
        0
102
RTVSPost2010PropOp40
 70
     1
102
RTVSPost2010Prop41ColorIndex
 90
       18
102
RTVSPost2010Prop41ColorRGB
 90
        0
102
RTVSPost2010PropOp41
 70
     1
102
RTVSPost2010Prop42
 90
       50
102
RTVSPost2010PropOp42
 70
     1
102
RTVSPost2010Prop43
 90
        3
102
RTVSPost2010PropOp43
 70
     1
102
RTVSPost2010Prop44ColorIndex
 90
        5
102
RTVSPost2010Prop44ColorRGB
 90
      255
102
RTVSPost2010PropOp44
 70
     1
102
RTVSPost2010Prop45
280
     0
102
RTVSPost2010PropOp45
 70
     1
102
RTVSPost2010Prop46
 90
       50
102
RTVSPost2010PropOp46
 70
     1
102
RTVSPost2010Prop47
 90
       50
102
RTVSPost2010PropOp47
 70
     1
102
RTVSPost2010Prop48
 90
       50
102
RTVSPost2010PropOp48
 70
     1
102
RTVSPost2010Prop49
280
     0
102
RTVSPost2010PropOp49
 70
     1
102
RTVSPost2010Prop50
 90
       50
102
RTVSPost2010PropOp50
 70
     1
102
RTVSPost2010Prop51ColorIndex
 90
      256
102
RTVSPost2010Prop51ColorRGB
 90
-16777216
102
RTVSPost2010PropOp51
 70
     0
102
RTVSPost2010Prop52
140
1.0
102
RTVSPost2010PropOp52
 70
     0
102
RTVSPost2010Prop53
 90
        2
102
RTVSPost2010PropOp53
 70
     1
102
RTVSPost2010Prop54
  1
strokes_ogs.tif
102
RTVSPost2010PropOp54
 70
     1
102
RTVSPost2010Prop55
280
     0
102
RTVSPost2010PropOp55
 70
     1
102
RTVSPost2010Prop56
140
1.0
102
RTVSPost2010PropOp56
 70
     1
102
RTVSPost2010Prop57
140
1.0
102
RTVSPost2010PropOp57
 70
     1
102
RTVSPropertyOp0
 70
     1
102
RTVSPropertyOp1
 70
     1
102
RTVSPropertyOp2
 70
     1
102
RTVSPropertyOp3
 70
     1
102
RTVSPropertyOp4
 70
     1
102
RTVSPropertyOp5
 70
     1
102
RTVSPropertyOp6
 70
     1
102
RTVSPropertyOp7
 70
     1
102
RTVSPropertyOp8
 70
     1
102
RTVSPropertyOp9
 70
     1
102
RTVSPropertyOp10
 70
     1
102
RTVSPropertyOp11
 70
     1
102
RTVSPropertyOp12
 70
     1
102
RTVSPropertyOp13
 70
     1
102
RTVSPropertyOp14
 70
     1
102
RTVSPropertyOp15
 70
     1
102
RTVSPropertyOp16
 70
     1
102
RTVSPropertyOp17
 70
     1
102
RTVSPropertyOp18
 70
     1
102
RTVSPropertyOp19
 70
     1
102
RTVSPropertyOp20
 70
     1
102
RTVSPropertyOp21
 70
     1
102
RTVSPropertyOp22
 70
     1
102
RTVSPropertyOp23
 70
     1
102
RTVSPropertyOp24
 70
     1
102
RTVSPropertyOp25
 70
     1
102
RTVSPropertyOp26
 70
     1
102
RTVSPropertyOp27
 70
     1
102
RTVSPropertyOp28
 70
     1
102
RTVSPropertyOp29
 70
     1
102
RTVSPropertyOp30
 70
     1
102
RTVSPropertyOp31
 70
     1
102
RTVSPropertyOp32
 70
     1
102
RTVSPropertyOp33
 70
     1
102
RTVSPropertyOp34
 70
     1
102
RTVSPropertyOp35
 70
     1
102
RTVSPropertyOp36
 70
     1
102
RTVSPropertyOp37
 70
     1
102
RTVSPropertyOp38
 70
     1
102
RTVSPropertyOp39
 70
     1
102
RTVSPropertyOp40
 70
     1
102
RTVSPropertyOp41
 70
     1
102
RTVSPropertyOp42
 70
     1
102
RTVSPropertyOp43
 70
     1
102
RTVSPropertyOp44
 70
     1
102
RTVSPropertyOp45
 70
     1
102
RTVSPropertyOp46
 70
     1
102
RTVSPropertyOp47
 70
     1
102
RTVSPropertyOp48
 70
     1
102
RTVSPropertyOp49
 70
     1
102
RTVSPropertyOp50
 70
     1
102
RTVSPropertyOp51
 70
     0
102
RTVSPropertyOp52
 70
     0
102
RTVSPropertyOp53
 70
     1
102
RTVSPropertyOp54
 70
     1
102
RTVSPropertyOp55
 70
     1
102
RTVSPropertyOp56
 70
     1
102
RTVSPropertyOp57
 70
     1
102
RTVSPropertyOp58
 70
     1
102
RTVSPropertyOp59
 70
     1
102
RTVSPropertyOp60
 70
     1
102
RTVSPropertyOp61
 70
     1
102
RTVSPropertyOp62
 70
     1
  0
XRECORD
  5
BD32
102
{ACAD_REACTORS
330
BD31
102
}
330
BD31
100
AcDbXrecord
280
     1
102
RTVSPost2010Prop28
280
     0
102
RTVSPost2010PropOp28
 70
     1
102
RTVSPost2010Prop29
280
     1
102
RTVSPost2010PropOp29
 70
     1
102
RTVSPost2010Prop30
280
     1
102
RTVSPost2010PropOp30
 70
     1
102
RTVSPost2010Prop31
280
     0
102
RTVSPost2010PropOp31
 70
     1
102
RTVSPost2010Prop32
280
     0
102
RTVSPost2010PropOp32
 70
     1
102
RTVSPost2010Prop33
280
     0
102
RTVSPost2010PropOp33
 70
     1
102
RTVSPost2010Prop34
280
     0
102
RTVSPost2010PropOp34
 70
     1
102
RTVSPost2010Prop35
280
     0
102
RTVSPost2010PropOp35
 70
     1
102
RTVSPost2010Prop36
280
     0
102
RTVSPost2010PropOp36
 70
     1
102
RTVSPost2010Prop37
 90
       50
102
RTVSPost2010PropOp37
 70
     1
102
RTVSPost2010Prop38
140
0.0
102
RTVSPost2010PropOp38
 70
     1
102
RTVSPost2010Prop39
140
1.0
102
RTVSPost2010PropOp39
 70
     1
102
RTVSPost2010Prop40
 90
        0
102
RTVSPost2010PropOp40
 70
     1
102
RTVSPost2010Prop41ColorIndex
 90
       18
102
RTVSPost2010Prop41ColorRGB
 90
        0
102
RTVSPost2010PropOp41
 70
     1
102
RTVSPost2010Prop42
 90
       50
102
RTVSPost2010PropOp42
 70
     1
102
RTVSPost2010Prop43
 90
        3
102
RTVSPost2010PropOp43
 70
     1
102
RTVSPost2010Prop44ColorIndex
 90
        5
102
RTVSPost2010Prop44ColorRGB
 90
      255
102
RTVSPost2010PropOp44
 70
     1
102
RTVSPost2010Prop45
280
     0
102
RTVSPost2010PropOp45
 70
     1
102
RTVSPost2010Prop46
 90
       50
102
RTVSPost2010PropOp46
 70
     1
102
RTVSPost2010Prop47
 90
       50
102
RTVSPost2010PropOp47
 70
     1
102
RTVSPost2010Prop48
 90
       50
102
RTVSPost2010PropOp48
 70
     1
102
RTVSPost2010Prop49
280
     0
102
RTVSPost2010PropOp49
 70
     1
102
RTVSPost2010Prop50
 90
       50
102
RTVSPost2010PropOp50
 70
     1
102
RTVSPost2010Prop51ColorIndex
 90
      256
102
RTVSPost2010Prop51ColorRGB
 90
-16777216
102
RTVSPost2010PropOp51
 70
     0
102
RTVSPost2010Prop52
140
1.0
102
RTVSPost2010PropOp52
 70
     0
102
RTVSPost2010Prop53
 90
        2
102
RTVSPost2010PropOp53
 70
     1
102
RTVSPost2010Prop54
  1
strokes_ogs.tif
102
RTVSPost2010PropOp54
 70
     1
102
RTVSPost2010Prop55
280
     0
102
RTVSPost2010PropOp55
 70
     1
102
RTVSPost2010Prop56
140
1.0
102
RTVSPost2010PropOp56
 70
     1
102
RTVSPost2010Prop57
140
1.0
102
RTVSPost2010PropOp57
 70
     1
102
RTVSPropertyOp0
 70
     1
102
RTVSPropertyOp1
 70
     1
102
RTVSPropertyOp2
 70
     1
102
RTVSPropertyOp3
 70
     1
102
RTVSPropertyOp4
 70
     1
102
RTVSPropertyOp5
 70
     1
102
RTVSPropertyOp6
 70
     1
102
RTVSPropertyOp7
 70
     1
102
RTVSPropertyOp8
 70
     1
102
RTVSPropertyOp9
 70
     1
102
RTVSPropertyOp10
 70
     1
102
RTVSPropertyOp11
 70
     1
102
RTVSPropertyOp12
 70
     1
102
RTVSPropertyOp13
 70
     1
102
RTVSPropertyOp14
 70
     1
102
RTVSPropertyOp15
 70
     1
102
RTVSPropertyOp16
 70
     1
102
RTVSPropertyOp17
 70
     1
102
RTVSPropertyOp18
 70
     1
102
RTVSPropertyOp19
 70
     1
102
RTVSPropertyOp20
 70
     1
102
RTVSPropertyOp21
 70
     1
102
RTVSPropertyOp22
 70
     1
102
RTVSPropertyOp23
 70
     1
102
RTVSPropertyOp24
 70
     1
102
RTVSPropertyOp25
 70
     1
102
RTVSPropertyOp26
 70
     1
102
RTVSPropertyOp27
 70
     1
102
RTVSPropertyOp28
 70
     1
102
RTVSPropertyOp29
 70
     1
102
RTVSPropertyOp30
 70
     1
102
RTVSPropertyOp31
 70
     1
102
RTVSPropertyOp32
 70
     1
102
RTVSPropertyOp33
 70
     1
102
RTVSPropertyOp34
 70
     1
102
RTVSPropertyOp35
 70
     1
102
RTVSPropertyOp36
 70
     1
102
RTVSPropertyOp37
 70
     1
102
RTVSPropertyOp38
 70
     1
102
RTVSPropertyOp39
 70
     1
102
RTVSPropertyOp40
 70
     1
102
RTVSPropertyOp41
 70
     1
102
RTVSPropertyOp42
 70
     1
102
RTVSPropertyOp43
 70
     1
102
RTVSPropertyOp44
 70
     1
102
RTVSPropertyOp45
 70
     1
102
RTVSPropertyOp46
 70
     1
102
RTVSPropertyOp47
 70
     1
102
RTVSPropertyOp48
 70
     1
102
RTVSPropertyOp49
 70
     1
102
RTVSPropertyOp50
 70
     1
102
RTVSPropertyOp51
 70
     0
102
RTVSPropertyOp52
 70
     0
102
RTVSPropertyOp53
 70
     1
102
RTVSPropertyOp54
 70
     1
102
RTVSPropertyOp55
 70
     1
102
RTVSPropertyOp56
 70
     1
102
RTVSPropertyOp57
 70
     1
102
RTVSPropertyOp58
 70
     1
102
RTVSPropertyOp59
 70
     1
102
RTVSPropertyOp60
 70
     1
102
RTVSPropertyOp61
 70
     1
102
RTVSPropertyOp62
 70
     1
  0
XRECORD
  5
BD4C
102
{ACAD_REACTORS
330
BD4B
102
}
330
BD4B
100
AcDbXrecord
280
     1
102
RTVSPost2010Prop28
280
     0
102
RTVSPost2010PropOp28
 70
     1
102
RTVSPost2010Prop29
280
     1
102
RTVSPost2010PropOp29
 70
     1
102
RTVSPost2010Prop30
280
     1
102
RTVSPost2010PropOp30
 70
     1
102
RTVSPost2010Prop31
280
     0
102
RTVSPost2010PropOp31
 70
     1
102
RTVSPost2010Prop32
280
     0
102
RTVSPost2010PropOp32
 70
     1
102
RTVSPost2010Prop33
280
     0
102
RTVSPost2010PropOp33
 70
     1
102
RTVSPost2010Prop34
280
     0
102
RTVSPost2010PropOp34
 70
     1
102
RTVSPost2010Prop35
280
     0
102
RTVSPost2010PropOp35
 70
     1
102
RTVSPost2010Prop36
280
     0
102
RTVSPost2010PropOp36
 70
     1
102
RTVSPost2010Prop37
 90
       50
102
RTVSPost2010PropOp37
 70
     0
102
RTVSPost2010Prop38
140
0.0
102
RTVSPost2010PropOp38
 70
     0
102
RTVSPost2010Prop39
140
1.0
102
RTVSPost2010PropOp39
 70
     0
102
RTVSPost2010Prop40
 90
        0
102
RTVSPost2010PropOp40
 70
     0
102
RTVSPost2010Prop41ColorIndex
 90
       18
102
RTVSPost2010Prop41ColorRGB
 90
        0
102
RTVSPost2010PropOp41
 70
     0
102
RTVSPost2010Prop42
 90
       50
102
RTVSPost2010PropOp42
 70
     0
102
RTVSPost2010Prop43
 90
        3
102
RTVSPost2010PropOp43
 70
     0
102
RTVSPost2010Prop44ColorIndex
 90
        5
102
RTVSPost2010Prop44ColorRGB
 90
      255
102
RTVSPost2010PropOp44
 70
     0
102
RTVSPost2010Prop45
280
     0
102
RTVSPost2010PropOp45
 70
     1
102
RTVSPost2010Prop46
 90
       50
102
RTVSPost2010PropOp46
 70
     0
102
RTVSPost2010Prop47
 90
       50
102
RTVSPost2010PropOp47
 70
     0
102
RTVSPost2010Prop48
 90
       50
102
RTVSPost2010PropOp48
 70
     0
102
RTVSPost2010Prop49
280
     0
102
RTVSPost2010PropOp49
 70
     1
102
RTVSPost2010Prop50
 90
       50
102
RTVSPost2010PropOp50
 70
     0
102
RTVSPost2010Prop51ColorIndex
 90
      256
102
RTVSPost2010Prop51ColorRGB
 90
-16777216
102
RTVSPost2010PropOp51
 70
     0
102
RTVSPost2010Prop52
140
1.0
102
RTVSPost2010PropOp52
 70
     0
102
RTVSPost2010Prop53
 90
        2
102
RTVSPost2010PropOp53
 70
     0
102
RTVSPost2010Prop54
  1
strokes_ogs.tif
102
RTVSPost2010PropOp54
 70
     0
102
RTVSPost2010Prop55
280
     0
102
RTVSPost2010PropOp55
 70
     1
102
RTVSPost2010Prop56
140
1.0
102
RTVSPost2010PropOp56
 70
     0
102
RTVSPost2010Prop57
140
1.0
102
RTVSPost2010PropOp57
 70
     0
102
RTVSPropertyOp0
 70
     0
102
RTVSPropertyOp1
 70
     0
102
RTVSPropertyOp2
 70
     0
102
RTVSPropertyOp3
 70
     0
102
RTVSPropertyOp4
 70
     0
102
RTVSPropertyOp5
 70
     0
102
RTVSPropertyOp6
 70
     0
102
RTVSPropertyOp7
 70
     0
102
RTVSPropertyOp8
 70
     0
102
RTVSPropertyOp9
 70
     0
102
RTVSPropertyOp10
 70
     0
102
RTVSPropertyOp11
 70
     0
102
RTVSPropertyOp12
 70
     0
102
RTVSPropertyOp13
 70
     0
102
RTVSPropertyOp14
 70
     2
102
RTVSPropertyOp15
 70
     0
102
RTVSPropertyOp16
 70
     0
102
RTVSPropertyOp17
 70
     0
102
RTVSPropertyOp18
 70
     0
102
RTVSPropertyOp19
 70
     0
102
RTVSPropertyOp20
 70
     0
102
RTVSPropertyOp21
 70
     0
102
RTVSPropertyOp22
 70
     0
102
RTVSPropertyOp23
 70
     0
102
RTVSPropertyOp24
 70
     0
102
RTVSPropertyOp25
 70
     0
102
RTVSPropertyOp26
 70
     0
102
RTVSPropertyOp27
 70
     0
102
RTVSPropertyOp28
 70
     1
102
RTVSPropertyOp29
 70
     1
102
RTVSPropertyOp30
 70
     1
102
RTVSPropertyOp31
 70
     1
102
RTVSPropertyOp32
 70
     1
102
RTVSPropertyOp33
 70
     1
102
RTVSPropertyOp34
 70
     1
102
RTVSPropertyOp35
 70
     1
102
RTVSPropertyOp36
 70
     1
102
RTVSPropertyOp37
 70
     0
102
RTVSPropertyOp38
 70
     0
102
RTVSPropertyOp39
 70
     0
102
RTVSPropertyOp40
 70
     0
102
RTVSPropertyOp41
 70
     0
102
RTVSPropertyOp42
 70
     0
102
RTVSPropertyOp43
 70
     0
102
RTVSPropertyOp44
 70
     0
102
RTVSPropertyOp45
 70
     1
102
RTVSPropertyOp46
 70
     0
102
RTVSPropertyOp47
 70
     0
102
RTVSPropertyOp48
 70
     0
102
RTVSPropertyOp49
 70
     1
102
RTVSPropertyOp50
 70
     0
102
RTVSPropertyOp51
 70
     0
102
RTVSPropertyOp52
 70
     0
102
RTVSPropertyOp53
 70
     0
102
RTVSPropertyOp54
 70
     0
102
RTVSPropertyOp55
 70
     1
102
RTVSPropertyOp56
 70
     0
102
RTVSPropertyOp57
 70
     0
102
RTVSPropertyOp58
 70
     0
102
RTVSPropertyOp59
 70
     0
102
RTVSPropertyOp60
 70
     0
102
RTVSPropertyOp61
 70
     0
102
RTVSPropertyOp62
 70
     0
  0
XRECORD
  5
BD3A
102
{ACAD_REACTORS
330
BD39
102
}
330
BD39
100
AcDbXrecord
280
     1
102
RTVSPost2010Prop28
280
     0
102
RTVSPost2010PropOp28
 70
     1
102
RTVSPost2010Prop29
280
     1
102
RTVSPost2010PropOp29
 70
     1
102
RTVSPost2010Prop30
280
     1
102
RTVSPost2010PropOp30
 70
     1
102
RTVSPost2010Prop31
280
     0
102
RTVSPost2010PropOp31
 70
     1
102
RTVSPost2010Prop32
280
     0
102
RTVSPost2010PropOp32
 70
     1
102
RTVSPost2010Prop33
280
     0
102
RTVSPost2010PropOp33
 70
     1
102
RTVSPost2010Prop34
280
     0
102
RTVSPost2010PropOp34
 70
     1
102
RTVSPost2010Prop35
280
     0
102
RTVSPost2010PropOp35
 70
     1
102
RTVSPost2010Prop36
280
     0
102
RTVSPost2010PropOp36
 70
     1
102
RTVSPost2010Prop37
 90
       50
102
RTVSPost2010PropOp37
 70
     1
102
RTVSPost2010Prop38
140
0.0
102
RTVSPost2010PropOp38
 70
     1
102
RTVSPost2010Prop39
140
1.0
102
RTVSPost2010PropOp39
 70
     1
102
RTVSPost2010Prop40
 90
        0
102
RTVSPost2010PropOp40
 70
     1
102
RTVSPost2010Prop41ColorIndex
 90
       18
102
RTVSPost2010Prop41ColorRGB
 90
        0
102
RTVSPost2010PropOp41
 70
     1
102
RTVSPost2010Prop42
 90
       50
102
RTVSPost2010PropOp42
 70
     1
102
RTVSPost2010Prop43
 90
        3
102
RTVSPost2010PropOp43
 70
     1
102
RTVSPost2010Prop44ColorIndex
 90
        5
102
RTVSPost2010Prop44ColorRGB
 90
      255
102
RTVSPost2010PropOp44
 70
     1
102
RTVSPost2010Prop45
280
     0
102
RTVSPost2010PropOp45
 70
     1
102
RTVSPost2010Prop46
 90
       50
102
RTVSPost2010PropOp46
 70
     1
102
RTVSPost2010Prop47
 90
       50
102
RTVSPost2010PropOp47
 70
     1
102
RTVSPost2010Prop48
 90
       50
102
RTVSPost2010PropOp48
 70
     1
102
RTVSPost2010Prop49
280
     0
102
RTVSPost2010PropOp49
 70
     1
102
RTVSPost2010Prop50
 90
       50
102
RTVSPost2010PropOp50
 70
     1
102
RTVSPost2010Prop51ColorIndex
 90
      256
102
RTVSPost2010Prop51ColorRGB
 90
-16777216
102
RTVSPost2010PropOp51
 70
     0
102
RTVSPost2010Prop52
140
1.0
102
RTVSPost2010PropOp52
 70
     0
102
RTVSPost2010Prop53
 90
        2
102
RTVSPost2010PropOp53
 70
     1
102
RTVSPost2010Prop54
  1
strokes_ogs.tif
102
RTVSPost2010PropOp54
 70
     1
102
RTVSPost2010Prop55
280
     0
102
RTVSPost2010PropOp55
 70
     1
102
RTVSPost2010Prop56
140
1.0
102
RTVSPost2010PropOp56
 70
     1
102
RTVSPost2010Prop57
140
1.0
102
RTVSPost2010PropOp57
 70
     1
102
RTVSPropertyOp0
 70
     1
102
RTVSPropertyOp1
 70
     1
102
RTVSPropertyOp2
 70
     1
102
RTVSPropertyOp3
 70
     1
102
RTVSPropertyOp4
 70
     1
102
RTVSPropertyOp5
 70
     1
102
RTVSPropertyOp6
 70
     1
102
RTVSPropertyOp7
 70
     1
102
RTVSPropertyOp8
 70
     1
102
RTVSPropertyOp9
 70
     1
102
RTVSPropertyOp10
 70
     1
102
RTVSPropertyOp11
 70
     1
102
RTVSPropertyOp12
 70
     1
102
RTVSPropertyOp13
 70
     1
102
RTVSPropertyOp14
 70
     1
102
RTVSPropertyOp15
 70
     1
102
RTVSPropertyOp16
 70
     1
102
RTVSPropertyOp17
 70
     1
102
RTVSPropertyOp18
 70
     1
102
RTVSPropertyOp19
 70
     1
102
RTVSPropertyOp20
 70
     1
102
RTVSPropertyOp21
 70
     1
102
RTVSPropertyOp22
 70
     1
102
RTVSPropertyOp23
 70
     1
102
RTVSPropertyOp24
 70
     1
102
RTVSPropertyOp25
 70
     1
102
RTVSPropertyOp26
 70
     1
102
RTVSPropertyOp27
 70
     1
102
RTVSPropertyOp28
 70
     1
102
RTVSPropertyOp29
 70
     1
102
RTVSPropertyOp30
 70
     1
102
RTVSPropertyOp31
 70
     1
102
RTVSPropertyOp32
 70
     1
102
RTVSPropertyOp33
 70
     1
102
RTVSPropertyOp34
 70
     1
102
RTVSPropertyOp35
 70
     1
102
RTVSPropertyOp36
 70
     1
102
RTVSPropertyOp37
 70
     1
102
RTVSPropertyOp38
 70
     1
102
RTVSPropertyOp39
 70
     1
102
RTVSPropertyOp40
 70
     1
102
RTVSPropertyOp41
 70
     1
102
RTVSPropertyOp42
 70
     1
102
RTVSPropertyOp43
 70
     1
102
RTVSPropertyOp44
 70
     1
102
RTVSPropertyOp45
 70
     1
102
RTVSPropertyOp46
 70
     1
102
RTVSPropertyOp47
 70
     1
102
RTVSPropertyOp48
 70
     1
102
RTVSPropertyOp49
 70
     1
102
RTVSPropertyOp50
 70
     1
102
RTVSPropertyOp51
 70
     0
102
RTVSPropertyOp52
 70
     0
102
RTVSPropertyOp53
 70
     1
102
RTVSPropertyOp54
 70
     1
102
RTVSPropertyOp55
 70
     1
102
RTVSPropertyOp56
 70
     1
102
RTVSPropertyOp57
 70
     1
102
RTVSPropertyOp58
 70
     1
102
RTVSPropertyOp59
 70
     1
102
RTVSPropertyOp60
 70
     1
102
RTVSPropertyOp61
 70
     1
102
RTVSPropertyOp62
 70
     1
  0
XRECORD
  5
BD1E
102
{ACAD_REACTORS
330
BD1D
102
}
330
BD1D
100
AcDbXrecord
280
     1
102
RTVSPost2010Prop28
280
     0
102
RTVSPost2010PropOp28
 70
     1
102
RTVSPost2010Prop29
280
     1
102
RTVSPost2010PropOp29
 70
     1
102
RTVSPost2010Prop30
280
     1
102
RTVSPost2010PropOp30
 70
     1
102
RTVSPost2010Prop31
280
     0
102
RTVSPost2010PropOp31
 70
     1
102
RTVSPost2010Prop32
280
     0
102
RTVSPost2010PropOp32
 70
     1
102
RTVSPost2010Prop33
280
     0
102
RTVSPost2010PropOp33
 70
     1
102
RTVSPost2010Prop34
280
     0
102
RTVSPost2010PropOp34
 70
     1
102
RTVSPost2010Prop35
280
     0
102
RTVSPost2010PropOp35
 70
     1
102
RTVSPost2010Prop36
280
     0
102
RTVSPost2010PropOp36
 70
     1
102
RTVSPost2010Prop37
 90
       50
102
RTVSPost2010PropOp37
 70
     1
102
RTVSPost2010Prop38
140
0.0
102
RTVSPost2010PropOp38
 70
     1
102
RTVSPost2010Prop39
140
1.0
102
RTVSPost2010PropOp39
 70
     1
102
RTVSPost2010Prop40
 90
        0
102
RTVSPost2010PropOp40
 70
     1
102
RTVSPost2010Prop41ColorIndex
 90
       18
102
RTVSPost2010Prop41ColorRGB
 90
        0
102
RTVSPost2010PropOp41
 70
     1
102
RTVSPost2010Prop42
 90
       50
102
RTVSPost2010PropOp42
 70
     1
102
RTVSPost2010Prop43
 90
        3
102
RTVSPost2010PropOp43
 70
     1
102
RTVSPost2010Prop44ColorIndex
 90
        5
102
RTVSPost2010Prop44ColorRGB
 90
      255
102
RTVSPost2010PropOp44
 70
     1
102
RTVSPost2010Prop45
280
     0
102
RTVSPost2010PropOp45
 70
     1
102
RTVSPost2010Prop46
 90
       50
102
RTVSPost2010PropOp46
 70
     1
102
RTVSPost2010Prop47
 90
       50
102
RTVSPost2010PropOp47
 70
     1
102
RTVSPost2010Prop48
 90
       50
102
RTVSPost2010PropOp48
 70
     1
102
RTVSPost2010Prop49
280
     0
102
RTVSPost2010PropOp49
 70
     1
102
RTVSPost2010Prop50
 90
       50
102
RTVSPost2010PropOp50
 70
     1
102
RTVSPost2010Prop51ColorIndex
 90
      256
102
RTVSPost2010Prop51ColorRGB
 90
-16777216
102
RTVSPost2010PropOp51
 70
     0
102
RTVSPost2010Prop52
140
1.0
102
RTVSPost2010PropOp52
 70
     0
102
RTVSPost2010Prop53
 90
        2
102
RTVSPost2010PropOp53
 70
     1
102
RTVSPost2010Prop54
  1
strokes_ogs.tif
102
RTVSPost2010PropOp54
 70
     1
102
RTVSPost2010Prop55
280
     0
102
RTVSPost2010PropOp55
 70
     1
102
RTVSPost2010Prop56
140
1.0
102
RTVSPost2010PropOp56
 70
     1
102
RTVSPost2010Prop57
140
1.0
102
RTVSPost2010PropOp57
 70
     1
102
RTVSPropertyOp0
 70
     1
102
RTVSPropertyOp1
 70
     1
102
RTVSPropertyOp2
 70
     1
102
RTVSPropertyOp3
 70
     1
102
RTVSPropertyOp4
 70
     1
102
RTVSPropertyOp5
 70
     1
102
RTVSPropertyOp6
 70
     1
102
RTVSPropertyOp7
 70
     1
102
RTVSPropertyOp8
 70
     1
102
RTVSPropertyOp9
 70
     1
102
RTVSPropertyOp10
 70
     1
102
RTVSPropertyOp11
 70
     1
102
RTVSPropertyOp12
 70
     1
102
RTVSPropertyOp13
 70
     1
102
RTVSPropertyOp14
 70
     1
102
RTVSPropertyOp15
 70
     1
102
RTVSPropertyOp16
 70
     1
102
RTVSPropertyOp17
 70
     1
102
RTVSPropertyOp18
 70
     1
102
RTVSPropertyOp19
 70
     1
102
RTVSPropertyOp20
 70
     1
102
RTVSPropertyOp21
 70
     1
102
RTVSPropertyOp22
 70
     1
102
RTVSPropertyOp23
 70
     1
102
RTVSPropertyOp24
 70
     1
102
RTVSPropertyOp25
 70
     1
102
RTVSPropertyOp26
 70
     1
102
RTVSPropertyOp27
 70
     1
102
RTVSPropertyOp28
 70
     1
102
RTVSPropertyOp29
 70
     1
102
RTVSPropertyOp30
 70
     1
102
RTVSPropertyOp31
 70
     1
102
RTVSPropertyOp32
 70
     1
102
RTVSPropertyOp33
 70
     1
102
RTVSPropertyOp34
 70
     1
102
RTVSPropertyOp35
 70
     1
102
RTVSPropertyOp36
 70
     1
102
RTVSPropertyOp37
 70
     1
102
RTVSPropertyOp38
 70
     1
102
RTVSPropertyOp39
 70
     1
102
RTVSPropertyOp40
 70
     1
102
RTVSPropertyOp41
 70
     1
102
RTVSPropertyOp42
 70
     1
102
RTVSPropertyOp43
 70
     1
102
RTVSPropertyOp44
 70
     1
102
RTVSPropertyOp45
 70
     1
102
RTVSPropertyOp46
 70
     1
102
RTVSPropertyOp47
 70
     1
102
RTVSPropertyOp48
 70
     1
102
RTVSPropertyOp49
 70
     1
102
RTVSPropertyOp50
 70
     1
102
RTVSPropertyOp51
 70
     0
102
RTVSPropertyOp52
 70
     0
102
RTVSPropertyOp53
 70
     1
102
RTVSPropertyOp54
 70
     1
102
RTVSPropertyOp55
 70
     1
102
RTVSPropertyOp56
 70
     1
102
RTVSPropertyOp57
 70
     1
102
RTVSPropertyOp58
 70
     1
102
RTVSPropertyOp59
 70
     1
102
RTVSPropertyOp60
 70
     1
102
RTVSPropertyOp61
 70
     1
102
RTVSPropertyOp62
 70
     1
  0
XRECORD
  5
BD20
102
{ACAD_REACTORS
330
BD1F
102
}
330
BD1F
100
AcDbXrecord
280
     1
102
RTVSPost2010Prop28
280
     0
102
RTVSPost2010PropOp28
 70
     1
102
RTVSPost2010Prop29
280
     1
102
RTVSPost2010PropOp29
 70
     1
102
RTVSPost2010Prop30
280
     1
102
RTVSPost2010PropOp30
 70
     1
102
RTVSPost2010Prop31
280
     0
102
RTVSPost2010PropOp31
 70
     1
102
RTVSPost2010Prop32
280
     0
102
RTVSPost2010PropOp32
 70
     1
102
RTVSPost2010Prop33
280
     0
102
RTVSPost2010PropOp33
 70
     1
102
RTVSPost2010Prop34
280
     0
102
RTVSPost2010PropOp34
 70
     1
102
RTVSPost2010Prop35
280
     0
102
RTVSPost2010PropOp35
 70
     1
102
RTVSPost2010Prop36
280
     0
102
RTVSPost2010PropOp36
 70
     1
102
RTVSPost2010Prop37
 90
       50
102
RTVSPost2010PropOp37
 70
     1
102
RTVSPost2010Prop38
140
0.0
102
RTVSPost2010PropOp38
 70
     1
102
RTVSPost2010Prop39
140
1.0
102
RTVSPost2010PropOp39
 70
     1
102
RTVSPost2010Prop40
 90
        0
102
RTVSPost2010PropOp40
 70
     1
102
RTVSPost2010Prop41ColorIndex
 90
       18
102
RTVSPost2010Prop41ColorRGB
 90
        0
102
RTVSPost2010PropOp41
 70
     1
102
RTVSPost2010Prop42
 90
       50
102
RTVSPost2010PropOp42
 70
     1
102
RTVSPost2010Prop43
 90
        3
102
RTVSPost2010PropOp43
 70
     1
102
RTVSPost2010Prop44ColorIndex
 90
        5
102
RTVSPost2010Prop44ColorRGB
 90
      255
102
RTVSPost2010PropOp44
 70
     1
102
RTVSPost2010Prop45
280
     0
102
RTVSPost2010PropOp45
 70
     1
102
RTVSPost2010Prop46
 90
       50
102
RTVSPost2010PropOp46
 70
     1
102
RTVSPost2010Prop47
 90
       50
102
RTVSPost2010PropOp47
 70
     1
102
RTVSPost2010Prop48
 90
       50
102
RTVSPost2010PropOp48
 70
     1
102
RTVSPost2010Prop49
280
     0
102
RTVSPost2010PropOp49
 70
     1
102
RTVSPost2010Prop50
 90
       50
102
RTVSPost2010PropOp50
 70
     1
102
RTVSPost2010Prop51ColorIndex
 90
      256
102
RTVSPost2010Prop51ColorRGB
 90
-16777216
102
RTVSPost2010PropOp51
 70
     0
102
RTVSPost2010Prop52
140
1.0
102
RTVSPost2010PropOp52
 70
     0
102
RTVSPost2010Prop53
 90
        2
102
RTVSPost2010PropOp53
 70
     1
102
RTVSPost2010Prop54
  1
strokes_ogs.tif
102
RTVSPost2010PropOp54
 70
     1
102
RTVSPost2010Prop55
280
     0
102
RTVSPost2010PropOp55
 70
     1
102
RTVSPost2010Prop56
140
1.0
102
RTVSPost2010PropOp56
 70
     1
102
RTVSPost2010Prop57
140
1.0
102
RTVSPost2010PropOp57
 70
     1
102
RTVSPropertyOp0
 70
     1
102
RTVSPropertyOp1
 70
     1
102
RTVSPropertyOp2
 70
     1
102
RTVSPropertyOp3
 70
     1
102
RTVSPropertyOp4
 70
     1
102
RTVSPropertyOp5
 70
     1
102
RTVSPropertyOp6
 70
     1
102
RTVSPropertyOp7
 70
     1
102
RTVSPropertyOp8
 70
     1
102
RTVSPropertyOp9
 70
     1
102
RTVSPropertyOp10
 70
     1
102
RTVSPropertyOp11
 70
     1
102
RTVSPropertyOp12
 70
     1
102
RTVSPropertyOp13
 70
     1
102
RTVSPropertyOp14
 70
     1
102
RTVSPropertyOp15
 70
     1
102
RTVSPropertyOp16
 70
     1
102
RTVSPropertyOp17
 70
     1
102
RTVSPropertyOp18
 70
     1
102
RTVSPropertyOp19
 70
     1
102
RTVSPropertyOp20
 70
     1
102
RTVSPropertyOp21
 70
     1
102
RTVSPropertyOp22
 70
     1
102
RTVSPropertyOp23
 70
     1
102
RTVSPropertyOp24
 70
     1
102
RTVSPropertyOp25
 70
     1
102
RTVSPropertyOp26
 70
     1
102
RTVSPropertyOp27
 70
     1
102
RTVSPropertyOp28
 70
     1
102
RTVSPropertyOp29
 70
     1
102
RTVSPropertyOp30
 70
     1
102
RTVSPropertyOp31
 70
     1
102
RTVSPropertyOp32
 70
     1
102
RTVSPropertyOp33
 70
     1
102
RTVSPropertyOp34
 70
     1
102
RTVSPropertyOp35
 70
     1
102
RTVSPropertyOp36
 70
     1
102
RTVSPropertyOp37
 70
     1
102
RTVSPropertyOp38
 70
     1
102
RTVSPropertyOp39
 70
     1
102
RTVSPropertyOp40
 70
     1
102
RTVSPropertyOp41
 70
     1
102
RTVSPropertyOp42
 70
     1
102
RTVSPropertyOp43
 70
     1
102
RTVSPropertyOp44
 70
     1
102
RTVSPropertyOp45
 70
     1
102
RTVSPropertyOp46
 70
     1
102
RTVSPropertyOp47
 70
     1
102
RTVSPropertyOp48
 70
     1
102
RTVSPropertyOp49
 70
     1
102
RTVSPropertyOp50
 70
     1
102
RTVSPropertyOp51
 70
     0
102
RTVSPropertyOp52
 70
     0
102
RTVSPropertyOp53
 70
     1
102
RTVSPropertyOp54
 70
     1
102
RTVSPropertyOp55
 70
     1
102
RTVSPropertyOp56
 70
     1
102
RTVSPropertyOp57
 70
     1
102
RTVSPropertyOp58
 70
     1
102
RTVSPropertyOp59
 70
     1
102
RTVSPropertyOp60
 70
     1
102
RTVSPropertyOp61
 70
     1
102
RTVSPropertyOp62
 70
     1
  0
XRECORD
  5
BD22
102
{ACAD_REACTORS
330
BD21
102
}
330
BD21
100
AcDbXrecord
280
     1
102
RTVSPost2010Prop28
280
     0
102
RTVSPost2010PropOp28
 70
     1
102
RTVSPost2010Prop29
280
     1
102
RTVSPost2010PropOp29
 70
     1
102
RTVSPost2010Prop30
280
     1
102
RTVSPost2010PropOp30
 70
     1
102
RTVSPost2010Prop31
280
     0
102
RTVSPost2010PropOp31
 70
     1
102
RTVSPost2010Prop32
280
     0
102
RTVSPost2010PropOp32
 70
     1
102
RTVSPost2010Prop33
280
     0
102
RTVSPost2010PropOp33
 70
     1
102
RTVSPost2010Prop34
280
     0
102
RTVSPost2010PropOp34
 70
     1
102
RTVSPost2010Prop35
280
     0
102
RTVSPost2010PropOp35
 70
     1
102
RTVSPost2010Prop36
280
     0
102
RTVSPost2010PropOp36
 70
     1
102
RTVSPost2010Prop37
 90
       50
102
RTVSPost2010PropOp37
 70
     1
102
RTVSPost2010Prop38
140
0.0
102
RTVSPost2010PropOp38
 70
     1
102
RTVSPost2010Prop39
140
1.0
102
RTVSPost2010PropOp39
 70
     1
102
RTVSPost2010Prop40
 90
        0
102
RTVSPost2010PropOp40
 70
     1
102
RTVSPost2010Prop41ColorIndex
 90
       18
102
RTVSPost2010Prop41ColorRGB
 90
        0
102
RTVSPost2010PropOp41
 70
     1
102
RTVSPost2010Prop42
 90
       50
102
RTVSPost2010PropOp42
 70
     1
102
RTVSPost2010Prop43
 90
        3
102
RTVSPost2010PropOp43
 70
     1
102
RTVSPost2010Prop44ColorIndex
 90
        5
102
RTVSPost2010Prop44ColorRGB
 90
      255
102
RTVSPost2010PropOp44
 70
     1
102
RTVSPost2010Prop45
280
     0
102
RTVSPost2010PropOp45
 70
     1
102
RTVSPost2010Prop46
 90
       50
102
RTVSPost2010PropOp46
 70
     1
102
RTVSPost2010Prop47
 90
       50
102
RTVSPost2010PropOp47
 70
     1
102
RTVSPost2010Prop48
 90
       50
102
RTVSPost2010PropOp48
 70
     1
102
RTVSPost2010Prop49
280
     0
102
RTVSPost2010PropOp49
 70
     1
102
RTVSPost2010Prop50
 90
       50
102
RTVSPost2010PropOp50
 70
     1
102
RTVSPost2010Prop51ColorIndex
 90
      256
102
RTVSPost2010Prop51ColorRGB
 90
-16777216
102
RTVSPost2010PropOp51
 70
     0
102
RTVSPost2010Prop52
140
1.0
102
RTVSPost2010PropOp52
 70
     0
102
RTVSPost2010Prop53
 90
        2
102
RTVSPost2010PropOp53
 70
     1
102
RTVSPost2010Prop54
  1
strokes_ogs.tif
102
RTVSPost2010PropOp54
 70
     1
102
RTVSPost2010Prop55
280
     0
102
RTVSPost2010PropOp55
 70
     1
102
RTVSPost2010Prop56
140
1.0
102
RTVSPost2010PropOp56
 70
     1
102
RTVSPost2010Prop57
140
1.0
102
RTVSPost2010PropOp57
 70
     1
102
RTVSPropertyOp0
 70
     1
102
RTVSPropertyOp1
 70
     1
102
RTVSPropertyOp2
 70
     1
102
RTVSPropertyOp3
 70
     1
102
RTVSPropertyOp4
 70
     1
102
RTVSPropertyOp5
 70
     1
102
RTVSPropertyOp6
 70
     1
102
RTVSPropertyOp7
 70
     1
102
RTVSPropertyOp8
 70
     1
102
RTVSPropertyOp9
 70
     1
102
RTVSPropertyOp10
 70
     1
102
RTVSPropertyOp11
 70
     1
102
RTVSPropertyOp12
 70
     1
102
RTVSPropertyOp13
 70
     1
102
RTVSPropertyOp14
 70
     1
102
RTVSPropertyOp15
 70
     1
102
RTVSPropertyOp16
 70
     1
102
RTVSPropertyOp17
 70
     1
102
RTVSPropertyOp18
 70
     1
102
RTVSPropertyOp19
 70
     1
102
RTVSPropertyOp20
 70
     1
102
RTVSPropertyOp21
 70
     1
102
RTVSPropertyOp22
 70
     1
102
RTVSPropertyOp23
 70
     1
102
RTVSPropertyOp24
 70
     1
102
RTVSPropertyOp25
 70
     1
102
RTVSPropertyOp26
 70
     1
102
RTVSPropertyOp27
 70
     1
102
RTVSPropertyOp28
 70
     1
102
RTVSPropertyOp29
 70
     1
102
RTVSPropertyOp30
 70
     1
102
RTVSPropertyOp31
 70
     1
102
RTVSPropertyOp32
 70
     1
102
RTVSPropertyOp33
 70
     1
102
RTVSPropertyOp34
 70
     1
102
RTVSPropertyOp35
 70
     1
102
RTVSPropertyOp36
 70
     1
102
RTVSPropertyOp37
 70
     1
102
RTVSPropertyOp38
 70
     1
102
RTVSPropertyOp39
 70
     1
102
RTVSPropertyOp40
 70
     1
102
RTVSPropertyOp41
 70
     1
102
RTVSPropertyOp42
 70
     1
102
RTVSPropertyOp43
 70
     1
102
RTVSPropertyOp44
 70
     1
102
RTVSPropertyOp45
 70
     1
102
RTVSPropertyOp46
 70
     1
102
RTVSPropertyOp47
 70
     1
102
RTVSPropertyOp48
 70
     1
102
RTVSPropertyOp49
 70
     1
102
RTVSPropertyOp50
 70
     1
102
RTVSPropertyOp51
 70
     0
102
RTVSPropertyOp52
 70
     0
102
RTVSPropertyOp53
 70
     1
102
RTVSPropertyOp54
 70
     1
102
RTVSPropertyOp55
 70
     1
102
RTVSPropertyOp56
 70
     1
102
RTVSPropertyOp57
 70
     1
102
RTVSPropertyOp58
 70
     1
102
RTVSPropertyOp59
 70
     1
102
RTVSPropertyOp60
 70
     1
102
RTVSPropertyOp61
 70
     1
102
RTVSPropertyOp62
 70
     1
  0
XRECORD
  5
BD24
102
{ACAD_REACTORS
330
BD23
102
}
330
BD23
100
AcDbXrecord
280
     1
102
RTVSPost2010Prop28
280
     0
102
RTVSPost2010PropOp28
 70
     1
102
RTVSPost2010Prop29
280
     1
102
RTVSPost2010PropOp29
 70
     1
102
RTVSPost2010Prop30
280
     1
102
RTVSPost2010PropOp30
 70
     1
102
RTVSPost2010Prop31
280
     0
102
RTVSPost2010PropOp31
 70
     1
102
RTVSPost2010Prop32
280
     0
102
RTVSPost2010PropOp32
 70
     1
102
RTVSPost2010Prop33
280
     0
102
RTVSPost2010PropOp33
 70
     1
102
RTVSPost2010Prop34
280
     0
102
RTVSPost2010PropOp34
 70
     1
102
RTVSPost2010Prop35
280
     0
102
RTVSPost2010PropOp35
 70
     1
102
RTVSPost2010Prop36
280
     0
102
RTVSPost2010PropOp36
 70
     1
102
RTVSPost2010Prop37
 90
       50
102
RTVSPost2010PropOp37
 70
     1
102
RTVSPost2010Prop38
140
0.0
102
RTVSPost2010PropOp38
 70
     1
102
RTVSPost2010Prop39
140
1.0
102
RTVSPost2010PropOp39
 70
     1
102
RTVSPost2010Prop40
 90
        0
102
RTVSPost2010PropOp40
 70
     1
102
RTVSPost2010Prop41ColorIndex
 90
       18
102
RTVSPost2010Prop41ColorRGB
 90
        0
102
RTVSPost2010PropOp41
 70
     1
102
RTVSPost2010Prop42
 90
       50
102
RTVSPost2010PropOp42
 70
     1
102
RTVSPost2010Prop43
 90
        3
102
RTVSPost2010PropOp43
 70
     1
102
RTVSPost2010Prop44ColorIndex
 90
        5
102
RTVSPost2010Prop44ColorRGB
 90
      255
102
RTVSPost2010PropOp44
 70
     1
102
RTVSPost2010Prop45
280
     0
102
RTVSPost2010PropOp45
 70
     1
102
RTVSPost2010Prop46
 90
       50
102
RTVSPost2010PropOp46
 70
     1
102
RTVSPost2010Prop47
 90
       50
102
RTVSPost2010PropOp47
 70
     1
102
RTVSPost2010Prop48
 90
       50
102
RTVSPost2010PropOp48
 70
     1
102
RTVSPost2010Prop49
280
     0
102
RTVSPost2010PropOp49
 70
     1
102
RTVSPost2010Prop50
 90
       50
102
RTVSPost2010PropOp50
 70
     1
102
RTVSPost2010Prop51ColorIndex
 90
      256
102
RTVSPost2010Prop51ColorRGB
 90
-16777216
102
RTVSPost2010PropOp51
 70
     0
102
RTVSPost2010Prop52
140
1.0
102
RTVSPost2010PropOp52
 70
     0
102
RTVSPost2010Prop53
 90
        2
102
RTVSPost2010PropOp53
 70
     1
102
RTVSPost2010Prop54
  1
strokes_ogs.tif
102
RTVSPost2010PropOp54
 70
     1
102
RTVSPost2010Prop55
280
     0
102
RTVSPost2010PropOp55
 70
     1
102
RTVSPost2010Prop56
140
1.0
102
RTVSPost2010PropOp56
 70
     1
102
RTVSPost2010Prop57
140
1.0
102
RTVSPost2010PropOp57
 70
     1
102
RTVSPropertyOp0
 70
     1
102
RTVSPropertyOp1
 70
     1
102
RTVSPropertyOp2
 70
     1
102
RTVSPropertyOp3
 70
     1
102
RTVSPropertyOp4
 70
     1
102
RTVSPropertyOp5
 70
     1
102
RTVSPropertyOp6
 70
     1
102
RTVSPropertyOp7
 70
     1
102
RTVSPropertyOp8
 70
     1
102
RTVSPropertyOp9
 70
     1
102
RTVSPropertyOp10
 70
     1
102
RTVSPropertyOp11
 70
     1
102
RTVSPropertyOp12
 70
     1
102
RTVSPropertyOp13
 70
     1
102
RTVSPropertyOp14
 70
     1
102
RTVSPropertyOp15
 70
     1
102
RTVSPropertyOp16
 70
     1
102
RTVSPropertyOp17
 70
     1
102
RTVSPropertyOp18
 70
     1
102
RTVSPropertyOp19
 70
     1
102
RTVSPropertyOp20
 70
     1
102
RTVSPropertyOp21
 70
     1
102
RTVSPropertyOp22
 70
     1
102
RTVSPropertyOp23
 70
     1
102
RTVSPropertyOp24
 70
     1
102
RTVSPropertyOp25
 70
     1
102
RTVSPropertyOp26
 70
     1
102
RTVSPropertyOp27
 70
     1
102
RTVSPropertyOp28
 70
     1
102
RTVSPropertyOp29
 70
     1
102
RTVSPropertyOp30
 70
     1
102
RTVSPropertyOp31
 70
     1
102
RTVSPropertyOp32
 70
     1
102
RTVSPropertyOp33
 70
     1
102
RTVSPropertyOp34
 70
     1
102
RTVSPropertyOp35
 70
     1
102
RTVSPropertyOp36
 70
     1
102
RTVSPropertyOp37
 70
     1
102
RTVSPropertyOp38
 70
     1
102
RTVSPropertyOp39
 70
     1
102
RTVSPropertyOp40
 70
     1
102
RTVSPropertyOp41
 70
     1
102
RTVSPropertyOp42
 70
     1
102
RTVSPropertyOp43
 70
     1
102
RTVSPropertyOp44
 70
     1
102
RTVSPropertyOp45
 70
     1
102
RTVSPropertyOp46
 70
     1
102
RTVSPropertyOp47
 70
     1
102
RTVSPropertyOp48
 70
     1
102
RTVSPropertyOp49
 70
     1
102
RTVSPropertyOp50
 70
     1
102
RTVSPropertyOp51
 70
     0
102
RTVSPropertyOp52
 70
     0
102
RTVSPropertyOp53
 70
     1
102
RTVSPropertyOp54
 70
     1
102
RTVSPropertyOp55
 70
     1
102
RTVSPropertyOp56
 70
     1
102
RTVSPropertyOp57
 70
     1
102
RTVSPropertyOp58
 70
     1
102
RTVSPropertyOp59
 70
     1
102
RTVSPropertyOp60
 70
     1
102
RTVSPropertyOp61
 70
     1
102
RTVSPropertyOp62
 70
     1
  0
XRECORD
  5
BD2C
102
{ACAD_REACTORS
330
BD2B
102
}
330
BD2B
100
AcDbXrecord
280
     1
102
RTVSPost2010Prop28
280
     0
102
RTVSPost2010PropOp28
 70
     1
102
RTVSPost2010Prop29
280
     1
102
RTVSPost2010PropOp29
 70
     1
102
RTVSPost2010Prop30
280
     1
102
RTVSPost2010PropOp30
 70
     1
102
RTVSPost2010Prop31
280
     0
102
RTVSPost2010PropOp31
 70
     1
102
RTVSPost2010Prop32
280
     0
102
RTVSPost2010PropOp32
 70
     1
102
RTVSPost2010Prop33
280
     0
102
RTVSPost2010PropOp33
 70
     1
102
RTVSPost2010Prop34
280
     0
102
RTVSPost2010PropOp34
 70
     1
102
RTVSPost2010Prop35
280
     0
102
RTVSPost2010PropOp35
 70
     1
102
RTVSPost2010Prop36
280
     0
102
RTVSPost2010PropOp36
 70
     1
102
RTVSPost2010Prop37
 90
       50
102
RTVSPost2010PropOp37
 70
     1
102
RTVSPost2010Prop38
140
0.0
102
RTVSPost2010PropOp38
 70
     1
102
RTVSPost2010Prop39
140
1.0
102
RTVSPost2010PropOp39
 70
     1
102
RTVSPost2010Prop40
 90
        0
102
RTVSPost2010PropOp40
 70
     1
102
RTVSPost2010Prop41ColorIndex
 90
       18
102
RTVSPost2010Prop41ColorRGB
 90
        0
102
RTVSPost2010PropOp41
 70
     1
102
RTVSPost2010Prop42
 90
       50
102
RTVSPost2010PropOp42
 70
     1
102
RTVSPost2010Prop43
 90
        3
102
RTVSPost2010PropOp43
 70
     1
102
RTVSPost2010Prop44ColorIndex
 90
        5
102
RTVSPost2010Prop44ColorRGB
 90
      255
102
RTVSPost2010PropOp44
 70
     1
102
RTVSPost2010Prop45
280
     0
102
RTVSPost2010PropOp45
 70
     1
102
RTVSPost2010Prop46
 90
       50
102
RTVSPost2010PropOp46
 70
     1
102
RTVSPost2010Prop47
 90
       50
102
RTVSPost2010PropOp47
 70
     1
102
RTVSPost2010Prop48
 90
       50
102
RTVSPost2010PropOp48
 70
     1
102
RTVSPost2010Prop49
280
     0
102
RTVSPost2010PropOp49
 70
     1
102
RTVSPost2010Prop50
 90
       50
102
RTVSPost2010PropOp50
 70
     1
102
RTVSPost2010Prop51ColorIndex
 90
      256
102
RTVSPost2010Prop51ColorRGB
 90
-16777216
102
RTVSPost2010PropOp51
 70
     0
102
RTVSPost2010Prop52
140
1.0
102
RTVSPost2010PropOp52
 70
     0
102
RTVSPost2010Prop53
 90
        2
102
RTVSPost2010PropOp53
 70
     1
102
RTVSPost2010Prop54
  1
strokes_ogs.tif
102
RTVSPost2010PropOp54
 70
     1
102
RTVSPost2010Prop55
280
     0
102
RTVSPost2010PropOp55
 70
     1
102
RTVSPost2010Prop56
140
1.0
102
RTVSPost2010PropOp56
 70
     1
102
RTVSPost2010Prop57
140
1.0
102
RTVSPost2010PropOp57
 70
     1
102
RTVSPropertyOp0
 70
     1
102
RTVSPropertyOp1
 70
     1
102
RTVSPropertyOp2
 70
     1
102
RTVSPropertyOp3
 70
     1
102
RTVSPropertyOp4
 70
     1
102
RTVSPropertyOp5
 70
     1
102
RTVSPropertyOp6
 70
     1
102
RTVSPropertyOp7
 70
     1
102
RTVSPropertyOp8
 70
     1
102
RTVSPropertyOp9
 70
     1
102
RTVSPropertyOp10
 70
     1
102
RTVSPropertyOp11
 70
     1
102
RTVSPropertyOp12
 70
     1
102
RTVSPropertyOp13
 70
     1
102
RTVSPropertyOp14
 70
     1
102
RTVSPropertyOp15
 70
     1
102
RTVSPropertyOp16
 70
     1
102
RTVSPropertyOp17
 70
     1
102
RTVSPropertyOp18
 70
     1
102
RTVSPropertyOp19
 70
     1
102
RTVSPropertyOp20
 70
     1
102
RTVSPropertyOp21
 70
     1
102
RTVSPropertyOp22
 70
     1
102
RTVSPropertyOp23
 70
     1
102
RTVSPropertyOp24
 70
     1
102
RTVSPropertyOp25
 70
     1
102
RTVSPropertyOp26
 70
     1
102
RTVSPropertyOp27
 70
     1
102
RTVSPropertyOp28
 70
     1
102
RTVSPropertyOp29
 70
     1
102
RTVSPropertyOp30
 70
     1
102
RTVSPropertyOp31
 70
     1
102
RTVSPropertyOp32
 70
     1
102
RTVSPropertyOp33
 70
     1
102
RTVSPropertyOp34
 70
     1
102
RTVSPropertyOp35
 70
     1
102
RTVSPropertyOp36
 70
     1
102
RTVSPropertyOp37
 70
     1
102
RTVSPropertyOp38
 70
     1
102
RTVSPropertyOp39
 70
     1
102
RTVSPropertyOp40
 70
     1
102
RTVSPropertyOp41
 70
     1
102
RTVSPropertyOp42
 70
     1
102
RTVSPropertyOp43
 70
     1
102
RTVSPropertyOp44
 70
     1
102
RTVSPropertyOp45
 70
     1
102
RTVSPropertyOp46
 70
     1
102
RTVSPropertyOp47
 70
     1
102
RTVSPropertyOp48
 70
     1
102
RTVSPropertyOp49
 70
     1
102
RTVSPropertyOp50
 70
     1
102
RTVSPropertyOp51
 70
     0
102
RTVSPropertyOp52
 70
     0
102
RTVSPropertyOp53
 70
     1
102
RTVSPropertyOp54
 70
     1
102
RTVSPropertyOp55
 70
     1
102
RTVSPropertyOp56
 70
     1
102
RTVSPropertyOp57
 70
     1
102
RTVSPropertyOp58
 70
     1
102
RTVSPropertyOp59
 70
     1
102
RTVSPropertyOp60
 70
     1
102
RTVSPropertyOp61
 70
     1
102
RTVSPropertyOp62
 70
     1
  0
XRECORD
  5
BD48
102
{ACAD_REACTORS
330
BD47
102
}
330
BD47
100
AcDbXrecord
280
     1
102
RTVSPost2010Prop28
280
     0
102
RTVSPost2010PropOp28
 70
     1
102
RTVSPost2010Prop29
280
     1
102
RTVSPost2010PropOp29
 70
     1
102
RTVSPost2010Prop30
280
     1
102
RTVSPost2010PropOp30
 70
     1
102
RTVSPost2010Prop31
280
     0
102
RTVSPost2010PropOp31
 70
     1
102
RTVSPost2010Prop32
280
     0
102
RTVSPost2010PropOp32
 70
     1
102
RTVSPost2010Prop33
280
     0
102
RTVSPost2010PropOp33
 70
     1
102
RTVSPost2010Prop34
280
     0
102
RTVSPost2010PropOp34
 70
     1
102
RTVSPost2010Prop35
280
     0
102
RTVSPost2010PropOp35
 70
     1
102
RTVSPost2010Prop36
280
     0
102
RTVSPost2010PropOp36
 70
     1
102
RTVSPost2010Prop37
 90
       50
102
RTVSPost2010PropOp37
 70
     0
102
RTVSPost2010Prop38
140
0.0
102
RTVSPost2010PropOp38
 70
     0
102
RTVSPost2010Prop39
140
1.0
102
RTVSPost2010PropOp39
 70
     0
102
RTVSPost2010Prop40
 90
        0
102
RTVSPost2010PropOp40
 70
     0
102
RTVSPost2010Prop41ColorIndex
 90
       18
102
RTVSPost2010Prop41ColorRGB
 90
        0
102
RTVSPost2010PropOp41
 70
     0
102
RTVSPost2010Prop42
 90
       50
102
RTVSPost2010PropOp42
 70
     0
102
RTVSPost2010Prop43
 90
        3
102
RTVSPost2010PropOp43
 70
     0
102
RTVSPost2010Prop44ColorIndex
 90
        5
102
RTVSPost2010Prop44ColorRGB
 90
      255
102
RTVSPost2010PropOp44
 70
     0
102
RTVSPost2010Prop45
280
     0
102
RTVSPost2010PropOp45
 70
     1
102
RTVSPost2010Prop46
 90
       50
102
RTVSPost2010PropOp46
 70
     0
102
RTVSPost2010Prop47
 90
       50
102
RTVSPost2010PropOp47
 70
     0
102
RTVSPost2010Prop48
 90
       50
102
RTVSPost2010PropOp48
 70
     0
102
RTVSPost2010Prop49
280
     0
102
RTVSPost2010PropOp49
 70
     1
102
RTVSPost2010Prop50
 90
       50
102
RTVSPost2010PropOp50
 70
     0
102
RTVSPost2010Prop51ColorIndex
 90
      256
102
RTVSPost2010Prop51ColorRGB
 90
-16777216
102
RTVSPost2010PropOp51
 70
     0
102
RTVSPost2010Prop52
140
1.0
102
RTVSPost2010PropOp52
 70
     0
102
RTVSPost2010Prop53
 90
        2
102
RTVSPost2010PropOp53
 70
     0
102
RTVSPost2010Prop54
  1
strokes_ogs.tif
102
RTVSPost2010PropOp54
 70
     0
102
RTVSPost2010Prop55
280
     0
102
RTVSPost2010PropOp55
 70
     1
102
RTVSPost2010Prop56
140
1.0
102
RTVSPost2010PropOp56
 70
     0
102
RTVSPost2010Prop57
140
1.0
102
RTVSPost2010PropOp57
 70
     0
102
RTVSPropertyOp0
 70
     0
102
RTVSPropertyOp1
 70
     0
102
RTVSPropertyOp2
 70
     0
102
RTVSPropertyOp3
 70
     0
102
RTVSPropertyOp4
 70
     0
102
RTVSPropertyOp5
 70
     0
102
RTVSPropertyOp6
 70
     0
102
RTVSPropertyOp7
 70
     0
102
RTVSPropertyOp8
 70
     0
102
RTVSPropertyOp9
 70
     0
102
RTVSPropertyOp10
 70
     0
102
RTVSPropertyOp11
 70
     0
102
RTVSPropertyOp12
 70
     0
102
RTVSPropertyOp13
 70
     0
102
RTVSPropertyOp14
 70
     2
102
RTVSPropertyOp15
 70
     0
102
RTVSPropertyOp16
 70
     0
102
RTVSPropertyOp17
 70
     0
102
RTVSPropertyOp18
 70
     0
102
RTVSPropertyOp19
 70
     0
102
RTVSPropertyOp20
 70
     0
102
RTVSPropertyOp21
 70
     0
102
RTVSPropertyOp22
 70
     0
102
RTVSPropertyOp23
 70
     0
102
RTVSPropertyOp24
 70
     0
102
RTVSPropertyOp25
 70
     0
102
RTVSPropertyOp26
 70
     0
102
RTVSPropertyOp27
 70
     0
102
RTVSPropertyOp28
 70
     1
102
RTVSPropertyOp29
 70
     1
102
RTVSPropertyOp30
 70
     1
102
RTVSPropertyOp31
 70
     1
102
RTVSPropertyOp32
 70
     1
102
RTVSPropertyOp33
 70
     1
102
RTVSPropertyOp34
 70
     1
102
RTVSPropertyOp35
 70
     1
102
RTVSPropertyOp36
 70
     1
102
RTVSPropertyOp37
 70
     0
102
RTVSPropertyOp38
 70
     0
102
RTVSPropertyOp39
 70
     0
102
RTVSPropertyOp40
 70
     0
102
RTVSPropertyOp41
 70
     0
102
RTVSPropertyOp42
 70
     0
102
RTVSPropertyOp43
 70
     0
102
RTVSPropertyOp44
 70
     0
102
RTVSPropertyOp45
 70
     1
102
RTVSPropertyOp46
 70
     0
102
RTVSPropertyOp47
 70
     0
102
RTVSPropertyOp48
 70
     0
102
RTVSPropertyOp49
 70
     1
102
RTVSPropertyOp50
 70
     0
102
RTVSPropertyOp51
 70
     0
102
RTVSPropertyOp52
 70
     0
102
RTVSPropertyOp53
 70
     0
102
RTVSPropertyOp54
 70
     0
102
RTVSPropertyOp55
 70
     1
102
RTVSPropertyOp56
 70
     0
102
RTVSPropertyOp57
 70
     0
102
RTVSPropertyOp58
 70
     0
102
RTVSPropertyOp59
 70
     0
102
RTVSPropertyOp60
 70
     0
102
RTVSPropertyOp61
 70
     0
102
RTVSPropertyOp62
 70
     0
  0
XRECORD
  5
BD38
102
{ACAD_REACTORS
330
BD37
102
}
330
BD37
100
AcDbXrecord
280
     1
102
RTVSPost2010Prop28
280
     0
102
RTVSPost2010PropOp28
 70
     1
102
RTVSPost2010Prop29
280
     1
102
RTVSPost2010PropOp29
 70
     1
102
RTVSPost2010Prop30
280
     1
102
RTVSPost2010PropOp30
 70
     1
102
RTVSPost2010Prop31
280
     0
102
RTVSPost2010PropOp31
 70
     1
102
RTVSPost2010Prop32
280
     0
102
RTVSPost2010PropOp32
 70
     1
102
RTVSPost2010Prop33
280
     0
102
RTVSPost2010PropOp33
 70
     1
102
RTVSPost2010Prop34
280
     0
102
RTVSPost2010PropOp34
 70
     1
102
RTVSPost2010Prop35
280
     0
102
RTVSPost2010PropOp35
 70
     1
102
RTVSPost2010Prop36
280
     0
102
RTVSPost2010PropOp36
 70
     1
102
RTVSPost2010Prop37
 90
       50
102
RTVSPost2010PropOp37
 70
     1
102
RTVSPost2010Prop38
140
0.0
102
RTVSPost2010PropOp38
 70
     1
102
RTVSPost2010Prop39
140
1.0
102
RTVSPost2010PropOp39
 70
     1
102
RTVSPost2010Prop40
 90
        0
102
RTVSPost2010PropOp40
 70
     1
102
RTVSPost2010Prop41ColorIndex
 90
       18
102
RTVSPost2010Prop41ColorRGB
 90
        0
102
RTVSPost2010PropOp41
 70
     1
102
RTVSPost2010Prop42
 90
       50
102
RTVSPost2010PropOp42
 70
     1
102
RTVSPost2010Prop43
 90
        3
102
RTVSPost2010PropOp43
 70
     1
102
RTVSPost2010Prop44ColorIndex
 90
        5
102
RTVSPost2010Prop44ColorRGB
 90
      255
102
RTVSPost2010PropOp44
 70
     1
102
RTVSPost2010Prop45
280
     0
102
RTVSPost2010PropOp45
 70
     1
102
RTVSPost2010Prop46
 90
       50
102
RTVSPost2010PropOp46
 70
     1
102
RTVSPost2010Prop47
 90
       50
102
RTVSPost2010PropOp47
 70
     1
102
RTVSPost2010Prop48
 90
       50
102
RTVSPost2010PropOp48
 70
     1
102
RTVSPost2010Prop49
280
     0
102
RTVSPost2010PropOp49
 70
     1
102
RTVSPost2010Prop50
 90
       50
102
RTVSPost2010PropOp50
 70
     1
102
RTVSPost2010Prop51ColorIndex
 90
      256
102
RTVSPost2010Prop51ColorRGB
 90
-16777216
102
RTVSPost2010PropOp51
 70
     0
102
RTVSPost2010Prop52
140
1.0
102
RTVSPost2010PropOp52
 70
     0
102
RTVSPost2010Prop53
 90
        2
102
RTVSPost2010PropOp53
 70
     1
102
RTVSPost2010Prop54
  1
strokes_ogs.tif
102
RTVSPost2010PropOp54
 70
     1
102
RTVSPost2010Prop55
280
     0
102
RTVSPost2010PropOp55
 70
     1
102
RTVSPost2010Prop56
140
1.0
102
RTVSPost2010PropOp56
 70
     1
102
RTVSPost2010Prop57
140
1.0
102
RTVSPost2010PropOp57
 70
     1
102
RTVSPropertyOp0
 70
     1
102
RTVSPropertyOp1
 70
     1
102
RTVSPropertyOp2
 70
     1
102
RTVSPropertyOp3
 70
     1
102
RTVSPropertyOp4
 70
     1
102
RTVSPropertyOp5
 70
     1
102
RTVSPropertyOp6
 70
     1
102
RTVSPropertyOp7
 70
     1
102
RTVSPropertyOp8
 70
     1
102
RTVSPropertyOp9
 70
     1
102
RTVSPropertyOp10
 70
     1
102
RTVSPropertyOp11
 70
     1
102
RTVSPropertyOp12
 70
     1
102
RTVSPropertyOp13
 70
     1
102
RTVSPropertyOp14
 70
     1
102
RTVSPropertyOp15
 70
     1
102
RTVSPropertyOp16
 70
     1
102
RTVSPropertyOp17
 70
     1
102
RTVSPropertyOp18
 70
     1
102
RTVSPropertyOp19
 70
     1
102
RTVSPropertyOp20
 70
     1
102
RTVSPropertyOp21
 70
     1
102
RTVSPropertyOp22
 70
     1
102
RTVSPropertyOp23
 70
     1
102
RTVSPropertyOp24
 70
     1
102
RTVSPropertyOp25
 70
     1
102
RTVSPropertyOp26
 70
     1
102
RTVSPropertyOp27
 70
     1
102
RTVSPropertyOp28
 70
     1
102
RTVSPropertyOp29
 70
     1
102
RTVSPropertyOp30
 70
     1
102
RTVSPropertyOp31
 70
     1
102
RTVSPropertyOp32
 70
     1
102
RTVSPropertyOp33
 70
     1
102
RTVSPropertyOp34
 70
     1
102
RTVSPropertyOp35
 70
     1
102
RTVSPropertyOp36
 70
     1
102
RTVSPropertyOp37
 70
     1
102
RTVSPropertyOp38
 70
     1
102
RTVSPropertyOp39
 70
     1
102
RTVSPropertyOp40
 70
     1
102
RTVSPropertyOp41
 70
     1
102
RTVSPropertyOp42
 70
     1
102
RTVSPropertyOp43
 70
     1
102
RTVSPropertyOp44
 70
     1
102
RTVSPropertyOp45
 70
     1
102
RTVSPropertyOp46
 70
     1
102
RTVSPropertyOp47
 70
     1
102
RTVSPropertyOp48
 70
     1
102
RTVSPropertyOp49
 70
     1
102
RTVSPropertyOp50
 70
     1
102
RTVSPropertyOp51
 70
     0
102
RTVSPropertyOp52
 70
     0
102
RTVSPropertyOp53
 70
     1
102
RTVSPropertyOp54
 70
     1
102
RTVSPropertyOp55
 70
     1
102
RTVSPropertyOp56
 70
     1
102
RTVSPropertyOp57
 70
     1
102
RTVSPropertyOp58
 70
     1
102
RTVSPropertyOp59
 70
     1
102
RTVSPropertyOp60
 70
     1
102
RTVSPropertyOp61
 70
     1
102
RTVSPropertyOp62
 70
     1
  0
XRECORD
  5
BD4A
102
{ACAD_REACTORS
330
BD49
102
}
330
BD49
100
AcDbXrecord
280
     1
102
RTVSPost2010Prop28
280
     0
102
RTVSPost2010PropOp28
 70
     1
102
RTVSPost2010Prop29
280
     1
102
RTVSPost2010PropOp29
 70
     1
102
RTVSPost2010Prop30
280
     1
102
RTVSPost2010PropOp30
 70
     1
102
RTVSPost2010Prop31
280
     0
102
RTVSPost2010PropOp31
 70
     1
102
RTVSPost2010Prop32
280
     0
102
RTVSPost2010PropOp32
 70
     1
102
RTVSPost2010Prop33
280
     0
102
RTVSPost2010PropOp33
 70
     1
102
RTVSPost2010Prop34
280
     0
102
RTVSPost2010PropOp34
 70
     1
102
RTVSPost2010Prop35
280
     0
102
RTVSPost2010PropOp35
 70
     1
102
RTVSPost2010Prop36
280
     0
102
RTVSPost2010PropOp36
 70
     1
102
RTVSPost2010Prop37
 90
       50
102
RTVSPost2010PropOp37
 70
     0
102
RTVSPost2010Prop38
140
0.0
102
RTVSPost2010PropOp38
 70
     0
102
RTVSPost2010Prop39
140
1.0
102
RTVSPost2010PropOp39
 70
     0
102
RTVSPost2010Prop40
 90
        0
102
RTVSPost2010PropOp40
 70
     0
102
RTVSPost2010Prop41ColorIndex
 90
       18
102
RTVSPost2010Prop41ColorRGB
 90
        0
102
RTVSPost2010PropOp41
 70
     0
102
RTVSPost2010Prop42
 90
       50
102
RTVSPost2010PropOp42
 70
     0
102
RTVSPost2010Prop43
 90
        3
102
RTVSPost2010PropOp43
 70
     0
102
RTVSPost2010Prop44ColorIndex
 90
        5
102
RTVSPost2010Prop44ColorRGB
 90
      255
102
RTVSPost2010PropOp44
 70
     0
102
RTVSPost2010Prop45
280
     0
102
RTVSPost2010PropOp45
 70
     1
102
RTVSPost2010Prop46
 90
       50
102
RTVSPost2010PropOp46
 70
     0
102
RTVSPost2010Prop47
 90
       50
102
RTVSPost2010PropOp47
 70
     0
102
RTVSPost2010Prop48
 90
       50
102
RTVSPost2010PropOp48
 70
     0
102
RTVSPost2010Prop49
280
     0
102
RTVSPost2010PropOp49
 70
     1
102
RTVSPost2010Prop50
 90
       50
102
RTVSPost2010PropOp50
 70
     0
102
RTVSPost2010Prop51ColorIndex
 90
      256
102
RTVSPost2010Prop51ColorRGB
 90
-16777216
102
RTVSPost2010PropOp51
 70
     0
102
RTVSPost2010Prop52
140
1.0
102
RTVSPost2010PropOp52
 70
     0
102
RTVSPost2010Prop53
 90
        2
102
RTVSPost2010PropOp53
 70
     0
102
RTVSPost2010Prop54
  1
strokes_ogs.tif
102
RTVSPost2010PropOp54
 70
     0
102
RTVSPost2010Prop55
280
     0
102
RTVSPost2010PropOp55
 70
     1
102
RTVSPost2010Prop56
140
1.0
102
RTVSPost2010PropOp56
 70
     0
102
RTVSPost2010Prop57
140
1.0
102
RTVSPost2010PropOp57
 70
     0
102
RTVSPropertyOp0
 70
     0
102
RTVSPropertyOp1
 70
     0
102
RTVSPropertyOp2
 70
     0
102
RTVSPropertyOp3
 70
     0
102
RTVSPropertyOp4
 70
     0
102
RTVSPropertyOp5
 70
     0
102
RTVSPropertyOp6
 70
     0
102
RTVSPropertyOp7
 70
     0
102
RTVSPropertyOp8
 70
     0
102
RTVSPropertyOp9
 70
     0
102
RTVSPropertyOp10
 70
     0
102
RTVSPropertyOp11
 70
     0
102
RTVSPropertyOp12
 70
     0
102
RTVSPropertyOp13
 70
     0
102
RTVSPropertyOp14
 70
     2
102
RTVSPropertyOp15
 70
     0
102
RTVSPropertyOp16
 70
     0
102
RTVSPropertyOp17
 70
     0
102
RTVSPropertyOp18
 70
     0
102
RTVSPropertyOp19
 70
     0
102
RTVSPropertyOp20
 70
     0
102
RTVSPropertyOp21
 70
     0
102
RTVSPropertyOp22
 70
     0
102
RTVSPropertyOp23
 70
     0
102
RTVSPropertyOp24
 70
     0
102
RTVSPropertyOp25
 70
     0
102
RTVSPropertyOp26
 70
     0
102
RTVSPropertyOp27
 70
     0
102
RTVSPropertyOp28
 70
     1
102
RTVSPropertyOp29
 70
     1
102
RTVSPropertyOp30
 70
     1
102
RTVSPropertyOp31
 70
     1
102
RTVSPropertyOp32
 70
     1
102
RTVSPropertyOp33
 70
     1
102
RTVSPropertyOp34
 70
     1
102
RTVSPropertyOp35
 70
     1
102
RTVSPropertyOp36
 70
     1
102
RTVSPropertyOp37
 70
     0
102
RTVSPropertyOp38
 70
     0
102
RTVSPropertyOp39
 70
     0
102
RTVSPropertyOp40
 70
     0
102
RTVSPropertyOp41
 70
     0
102
RTVSPropertyOp42
 70
     0
102
RTVSPropertyOp43
 70
     0
102
RTVSPropertyOp44
 70
     0
102
RTVSPropertyOp45
 70
     1
102
RTVSPropertyOp46
 70
     0
102
RTVSPropertyOp47
 70
     0
102
RTVSPropertyOp48
 70
     0
102
RTVSPropertyOp49
 70
     1
102
RTVSPropertyOp50
 70
     0
102
RTVSPropertyOp51
 70
     0
102
RTVSPropertyOp52
 70
     0
102
RTVSPropertyOp53
 70
     0
102
RTVSPropertyOp54
 70
     0
102
RTVSPropertyOp55
 70
     1
102
RTVSPropertyOp56
 70
     0
102
RTVSPropertyOp57
 70
     0
102
RTVSPropertyOp58
 70
     0
102
RTVSPropertyOp59
 70
     0
102
RTVSPropertyOp60
 70
     0
102
RTVSPropertyOp61
 70
     0
102
RTVSPropertyOp62
 70
     0
  0
XRECORD
  5
BD30
102
{ACAD_REACTORS
330
BD2F
102
}
330
BD2F
100
AcDbXrecord
280
     1
102
RTVSPost2010Prop28
280
     0
102
RTVSPost2010PropOp28
 70
     1
102
RTVSPost2010Prop29
280
     1
102
RTVSPost2010PropOp29
 70
     1
102
RTVSPost2010Prop30
280
     1
102
RTVSPost2010PropOp30
 70
     1
102
RTVSPost2010Prop31
280
     0
102
RTVSPost2010PropOp31
 70
     1
102
RTVSPost2010Prop32
280
     0
102
RTVSPost2010PropOp32
 70
     1
102
RTVSPost2010Prop33
280
     0
102
RTVSPost2010PropOp33
 70
     1
102
RTVSPost2010Prop34
280
     0
102
RTVSPost2010PropOp34
 70
     1
102
RTVSPost2010Prop35
280
     0
102
RTVSPost2010PropOp35
 70
     1
102
RTVSPost2010Prop36
280
     0
102
RTVSPost2010PropOp36
 70
     1
102
RTVSPost2010Prop37
 90
       50
102
RTVSPost2010PropOp37
 70
     1
102
RTVSPost2010Prop38
140
0.0
102
RTVSPost2010PropOp38
 70
     1
102
RTVSPost2010Prop39
140
1.0
102
RTVSPost2010PropOp39
 70
     1
102
RTVSPost2010Prop40
 90
        0
102
RTVSPost2010PropOp40
 70
     1
102
RTVSPost2010Prop41ColorIndex
 90
       18
102
RTVSPost2010Prop41ColorRGB
 90
        0
102
RTVSPost2010PropOp41
 70
     1
102
RTVSPost2010Prop42
 90
       50
102
RTVSPost2010PropOp42
 70
     1
102
RTVSPost2010Prop43
 90
        3
102
RTVSPost2010PropOp43
 70
     1
102
RTVSPost2010Prop44ColorIndex
 90
        5
102
RTVSPost2010Prop44ColorRGB
 90
      255
102
RTVSPost2010PropOp44
 70
     1
102
RTVSPost2010Prop45
280
     0
102
RTVSPost2010PropOp45
 70
     1
102
RTVSPost2010Prop46
 90
       50
102
RTVSPost2010PropOp46
 70
     1
102
RTVSPost2010Prop47
 90
       50
102
RTVSPost2010PropOp47
 70
     1
102
RTVSPost2010Prop48
 90
       50
102
RTVSPost2010PropOp48
 70
     1
102
RTVSPost2010Prop49
280
     0
102
RTVSPost2010PropOp49
 70
     1
102
RTVSPost2010Prop50
 90
       50
102
RTVSPost2010PropOp50
 70
     1
102
RTVSPost2010Prop51ColorIndex
 90
      256
102
RTVSPost2010Prop51ColorRGB
 90
-16777216
102
RTVSPost2010PropOp51
 70
     0
102
RTVSPost2010Prop52
140
1.0
102
RTVSPost2010PropOp52
 70
     0
102
RTVSPost2010Prop53
 90
        2
102
RTVSPost2010PropOp53
 70
     1
102
RTVSPost2010Prop54
  1
strokes_ogs.tif
102
RTVSPost2010PropOp54
 70
     1
102
RTVSPost2010Prop55
280
     0
102
RTVSPost2010PropOp55
 70
     1
102
RTVSPost2010Prop56
140
1.0
102
RTVSPost2010PropOp56
 70
     1
102
RTVSPost2010Prop57
140
1.0
102
RTVSPost2010PropOp57
 70
     1
102
RTVSPropertyOp0
 70
     1
102
RTVSPropertyOp1
 70
     1
102
RTVSPropertyOp2
 70
     1
102
RTVSPropertyOp3
 70
     1
102
RTVSPropertyOp4
 70
     1
102
RTVSPropertyOp5
 70
     1
102
RTVSPropertyOp6
 70
     1
102
RTVSPropertyOp7
 70
     1
102
RTVSPropertyOp8
 70
     1
102
RTVSPropertyOp9
 70
     1
102
RTVSPropertyOp10
 70
     1
102
RTVSPropertyOp11
 70
     1
102
RTVSPropertyOp12
 70
     1
102
RTVSPropertyOp13
 70
     1
102
RTVSPropertyOp14
 70
     1
102
RTVSPropertyOp15
 70
     1
102
RTVSPropertyOp16
 70
     1
102
RTVSPropertyOp17
 70
     1
102
RTVSPropertyOp18
 70
     1
102
RTVSPropertyOp19
 70
     1
102
RTVSPropertyOp20
 70
     1
102
RTVSPropertyOp21
 70
     1
102
RTVSPropertyOp22
 70
     1
102
RTVSPropertyOp23
 70
     1
102
RTVSPropertyOp24
 70
     1
102
RTVSPropertyOp25
 70
     1
102
RTVSPropertyOp26
 70
     1
102
RTVSPropertyOp27
 70
     1
102
RTVSPropertyOp28
 70
     1
102
RTVSPropertyOp29
 70
     1
102
RTVSPropertyOp30
 70
     1
102
RTVSPropertyOp31
 70
     1
102
RTVSPropertyOp32
 70
     1
102
RTVSPropertyOp33
 70
     1
102
RTVSPropertyOp34
 70
     1
102
RTVSPropertyOp35
 70
     1
102
RTVSPropertyOp36
 70
     1
102
RTVSPropertyOp37
 70
     1
102
RTVSPropertyOp38
 70
     1
102
RTVSPropertyOp39
 70
     1
102
RTVSPropertyOp40
 70
     1
102
RTVSPropertyOp41
 70
     1
102
RTVSPropertyOp42
 70
     1
102
RTVSPropertyOp43
 70
     1
102
RTVSPropertyOp44
 70
     1
102
RTVSPropertyOp45
 70
     1
102
RTVSPropertyOp46
 70
     1
102
RTVSPropertyOp47
 70
     1
102
RTVSPropertyOp48
 70
     1
102
RTVSPropertyOp49
 70
     1
102
RTVSPropertyOp50
 70
     1
102
RTVSPropertyOp51
 70
     0
102
RTVSPropertyOp52
 70
     0
102
RTVSPropertyOp53
 70
     1
102
RTVSPropertyOp54
 70
     1
102
RTVSPropertyOp55
 70
     1
102
RTVSPropertyOp56
 70
     1
102
RTVSPropertyOp57
 70
     1
102
RTVSPropertyOp58
 70
     1
102
RTVSPropertyOp59
 70
     1
102
RTVSPropertyOp60
 70
     1
102
RTVSPropertyOp61
 70
     1
102
RTVSPropertyOp62
 70
     1
  0
XRECORD
  5
BD46
102
{ACAD_REACTORS
330
BD45
102
}
330
BD45
100
AcDbXrecord
280
     1
102
RTVSPost2010Prop28
280
     0
102
RTVSPost2010PropOp28
 70
     1
102
RTVSPost2010Prop29
280
     1
102
RTVSPost2010PropOp29
 70
     1
102
RTVSPost2010Prop30
280
     1
102
RTVSPost2010PropOp30
 70
     1
102
RTVSPost2010Prop31
280
     0
102
RTVSPost2010PropOp31
 70
     1
102
RTVSPost2010Prop32
280
     0
102
RTVSPost2010PropOp32
 70
     1
102
RTVSPost2010Prop33
280
     0
102
RTVSPost2010PropOp33
 70
     1
102
RTVSPost2010Prop34
280
     0
102
RTVSPost2010PropOp34
 70
     1
102
RTVSPost2010Prop35
280
     0
102
RTVSPost2010PropOp35
 70
     1
102
RTVSPost2010Prop36
280
     0
102
RTVSPost2010PropOp36
 70
     1
102
RTVSPost2010Prop37
 90
       50
102
RTVSPost2010PropOp37
 70
     1
102
RTVSPost2010Prop38
140
0.0
102
RTVSPost2010PropOp38
 70
     1
102
RTVSPost2010Prop39
140
1.0
102
RTVSPost2010PropOp39
 70
     1
102
RTVSPost2010Prop40
 90
        0
102
RTVSPost2010PropOp40
 70
     1
102
RTVSPost2010Prop41ColorIndex
 90
       18
102
RTVSPost2010Prop41ColorRGB
 90
        0
102
RTVSPost2010PropOp41
 70
     1
102
RTVSPost2010Prop42
 90
       50
102
RTVSPost2010PropOp42
 70
     1
102
RTVSPost2010Prop43
 90
        3
102
RTVSPost2010PropOp43
 70
     1
102
RTVSPost2010Prop44ColorIndex
 90
        5
102
RTVSPost2010Prop44ColorRGB
 90
      255
102
RTVSPost2010PropOp44
 70
     1
102
RTVSPost2010Prop45
280
     0
102
RTVSPost2010PropOp45
 70
     1
102
RTVSPost2010Prop46
 90
       50
102
RTVSPost2010PropOp46
 70
     1
102
RTVSPost2010Prop47
 90
       50
102
RTVSPost2010PropOp47
 70
     1
102
RTVSPost2010Prop48
 90
       50
102
RTVSPost2010PropOp48
 70
     1
102
RTVSPost2010Prop49
280
     0
102
RTVSPost2010PropOp49
 70
     1
102
RTVSPost2010Prop50
 90
       50
102
RTVSPost2010PropOp50
 70
     1
102
RTVSPost2010Prop51ColorIndex
 90
      256
102
RTVSPost2010Prop51ColorRGB
 90
-16777216
102
RTVSPost2010PropOp51
 70
     0
102
RTVSPost2010Prop52
140
1.0
102
RTVSPost2010PropOp52
 70
     0
102
RTVSPost2010Prop53
 90
        2
102
RTVSPost2010PropOp53
 70
     1
102
RTVSPost2010Prop54
  1
strokes_ogs.tif
102
RTVSPost2010PropOp54
 70
     1
102
RTVSPost2010Prop55
280
     0
102
RTVSPost2010PropOp55
 70
     1
102
RTVSPost2010Prop56
140
1.0
102
RTVSPost2010PropOp56
 70
     1
102
RTVSPost2010Prop57
140
1.0
102
RTVSPost2010PropOp57
 70
     1
102
RTVSPropertyOp0
 70
     1
102
RTVSPropertyOp1
 70
     1
102
RTVSPropertyOp2
 70
     1
102
RTVSPropertyOp3
 70
     1
102
RTVSPropertyOp4
 70
     1
102
RTVSPropertyOp5
 70
     1
102
RTVSPropertyOp6
 70
     1
102
RTVSPropertyOp7
 70
     1
102
RTVSPropertyOp8
 70
     1
102
RTVSPropertyOp9
 70
     1
102
RTVSPropertyOp10
 70
     1
102
RTVSPropertyOp11
 70
     1
102
RTVSPropertyOp12
 70
     1
102
RTVSPropertyOp13
 70
     1
102
RTVSPropertyOp14
 70
     1
102
RTVSPropertyOp15
 70
     1
102
RTVSPropertyOp16
 70
     1
102
RTVSPropertyOp17
 70
     1
102
RTVSPropertyOp18
 70
     1
102
RTVSPropertyOp19
 70
     1
102
RTVSPropertyOp20
 70
     1
102
RTVSPropertyOp21
 70
     1
102
RTVSPropertyOp22
 70
     1
102
RTVSPropertyOp23
 70
     1
102
RTVSPropertyOp24
 70
     1
102
RTVSPropertyOp25
 70
     1
102
RTVSPropertyOp26
 70
     1
102
RTVSPropertyOp27
 70
     1
102
RTVSPropertyOp28
 70
     1
102
RTVSPropertyOp29
 70
     1
102
RTVSPropertyOp30
 70
     1
102
RTVSPropertyOp31
 70
     1
102
RTVSPropertyOp32
 70
     1
102
RTVSPropertyOp33
 70
     1
102
RTVSPropertyOp34
 70
     1
102
RTVSPropertyOp35
 70
     1
102
RTVSPropertyOp36
 70
     1
102
RTVSPropertyOp37
 70
     1
102
RTVSPropertyOp38
 70
     1
102
RTVSPropertyOp39
 70
     1
102
RTVSPropertyOp40
 70
     1
102
RTVSPropertyOp41
 70
     1
102
RTVSPropertyOp42
 70
     1
102
RTVSPropertyOp43
 70
     1
102
RTVSPropertyOp44
 70
     1
102
RTVSPropertyOp45
 70
     1
102
RTVSPropertyOp46
 70
     1
102
RTVSPropertyOp47
 70
     1
102
RTVSPropertyOp48
 70
     1
102
RTVSPropertyOp49
 70
     1
102
RTVSPropertyOp50
 70
     1
102
RTVSPropertyOp51
 70
     0
102
RTVSPropertyOp52
 70
     0
102
RTVSPropertyOp53
 70
     1
102
RTVSPropertyOp54
 70
     1
102
RTVSPropertyOp55
 70
     1
102
RTVSPropertyOp56
 70
     1
102
RTVSPropertyOp57
 70
     1
102
RTVSPropertyOp58
 70
     1
102
RTVSPropertyOp59
 70
     1
102
RTVSPropertyOp60
 70
     1
102
RTVSPropertyOp61
 70
     1
102
RTVSPropertyOp62
 70
     1
  0
XRECORD
  5
BD44
102
{ACAD_REACTORS
330
BD43
102
}
330
BD43
100
AcDbXrecord
280
     1
102
RTVSPost2010Prop28
280
     0
102
RTVSPost2010PropOp28
 70
     1
102
RTVSPost2010Prop29
280
     1
102
RTVSPost2010PropOp29
 70
     1
102
RTVSPost2010Prop30
280
     1
102
RTVSPost2010PropOp30
 70
     1
102
RTVSPost2010Prop31
280
     0
102
RTVSPost2010PropOp31
 70
     1
102
RTVSPost2010Prop32
280
     0
102
RTVSPost2010PropOp32
 70
     1
102
RTVSPost2010Prop33
280
     0
102
RTVSPost2010PropOp33
 70
     1
102
RTVSPost2010Prop34
280
     0
102
RTVSPost2010PropOp34
 70
     1
102
RTVSPost2010Prop35
280
     0
102
RTVSPost2010PropOp35
 70
     1
102
RTVSPost2010Prop36
280
     0
102
RTVSPost2010PropOp36
 70
     1
102
RTVSPost2010Prop37
 90
       50
102
RTVSPost2010PropOp37
 70
     1
102
RTVSPost2010Prop38
140
0.0
102
RTVSPost2010PropOp38
 70
     1
102
RTVSPost2010Prop39
140
1.0
102
RTVSPost2010PropOp39
 70
     1
102
RTVSPost2010Prop40
 90
        0
102
RTVSPost2010PropOp40
 70
     1
102
RTVSPost2010Prop41ColorIndex
 90
       18
102
RTVSPost2010Prop41ColorRGB
 90
        0
102
RTVSPost2010PropOp41
 70
     1
102
RTVSPost2010Prop42
 90
       50
102
RTVSPost2010PropOp42
 70
     1
102
RTVSPost2010Prop43
 90
        3
102
RTVSPost2010PropOp43
 70
     1
102
RTVSPost2010Prop44ColorIndex
 90
        5
102
RTVSPost2010Prop44ColorRGB
 90
      255
102
RTVSPost2010PropOp44
 70
     1
102
RTVSPost2010Prop45
280
     0
102
RTVSPost2010PropOp45
 70
     1
102
RTVSPost2010Prop46
 90
       50
102
RTVSPost2010PropOp46
 70
     1
102
RTVSPost2010Prop47
 90
       50
102
RTVSPost2010PropOp47
 70
     1
102
RTVSPost2010Prop48
 90
       50
102
RTVSPost2010PropOp48
 70
     1
102
RTVSPost2010Prop49
280
     0
102
RTVSPost2010PropOp49
 70
     1
102
RTVSPost2010Prop50
 90
       50
102
RTVSPost2010PropOp50
 70
     1
102
RTVSPost2010Prop51ColorIndex
 90
      256
102
RTVSPost2010Prop51ColorRGB
 90
-16777216
102
RTVSPost2010PropOp51
 70
     0
102
RTVSPost2010Prop52
140
1.0
102
RTVSPost2010PropOp52
 70
     0
102
RTVSPost2010Prop53
 90
        2
102
RTVSPost2010PropOp53
 70
     1
102
RTVSPost2010Prop54
  1
strokes_ogs.tif
102
RTVSPost2010PropOp54
 70
     1
102
RTVSPost2010Prop55
280
     0
102
RTVSPost2010PropOp55
 70
     1
102
RTVSPost2010Prop56
140
1.0
102
RTVSPost2010PropOp56
 70
     1
102
RTVSPost2010Prop57
140
1.0
102
RTVSPost2010PropOp57
 70
     1
102
RTVSPropertyOp0
 70
     1
102
RTVSPropertyOp1
 70
     1
102
RTVSPropertyOp2
 70
     1
102
RTVSPropertyOp3
 70
     1
102
RTVSPropertyOp4
 70
     1
102
RTVSPropertyOp5
 70
     1
102
RTVSPropertyOp6
 70
     1
102
RTVSPropertyOp7
 70
     1
102
RTVSPropertyOp8
 70
     1
102
RTVSPropertyOp9
 70
     1
102
RTVSPropertyOp10
 70
     1
102
RTVSPropertyOp11
 70
     1
102
RTVSPropertyOp12
 70
     1
102
RTVSPropertyOp13
 70
     1
102
RTVSPropertyOp14
 70
     1
102
RTVSPropertyOp15
 70
     1
102
RTVSPropertyOp16
 70
     1
102
RTVSPropertyOp17
 70
     1
102
RTVSPropertyOp18
 70
     1
102
RTVSPropertyOp19
 70
     1
102
RTVSPropertyOp20
 70
     1
102
RTVSPropertyOp21
 70
     1
102
RTVSPropertyOp22
 70
     1
102
RTVSPropertyOp23
 70
     1
102
RTVSPropertyOp24
 70
     1
102
RTVSPropertyOp25
 70
     1
102
RTVSPropertyOp26
 70
     1
102
RTVSPropertyOp27
 70
     1
102
RTVSPropertyOp28
 70
     1
102
RTVSPropertyOp29
 70
     1
102
RTVSPropertyOp30
 70
     1
102
RTVSPropertyOp31
 70
     1
102
RTVSPropertyOp32
 70
     1
102
RTVSPropertyOp33
 70
     1
102
RTVSPropertyOp34
 70
     1
102
RTVSPropertyOp35
 70
     1
102
RTVSPropertyOp36
 70
     1
102
RTVSPropertyOp37
 70
     1
102
RTVSPropertyOp38
 70
     1
102
RTVSPropertyOp39
 70
     1
102
RTVSPropertyOp40
 70
     1
102
RTVSPropertyOp41
 70
     1
102
RTVSPropertyOp42
 70
     1
102
RTVSPropertyOp43
 70
     1
102
RTVSPropertyOp44
 70
     1
102
RTVSPropertyOp45
 70
     1
102
RTVSPropertyOp46
 70
     1
102
RTVSPropertyOp47
 70
     1
102
RTVSPropertyOp48
 70
     1
102
RTVSPropertyOp49
 70
     1
102
RTVSPropertyOp50
 70
     1
102
RTVSPropertyOp51
 70
     0
102
RTVSPropertyOp52
 70
     0
102
RTVSPropertyOp53
 70
     1
102
RTVSPropertyOp54
 70
     1
102
RTVSPropertyOp55
 70
     1
102
RTVSPropertyOp56
 70
     1
102
RTVSPropertyOp57
 70
     1
102
RTVSPropertyOp58
 70
     1
102
RTVSPropertyOp59
 70
     1
102
RTVSPropertyOp60
 70
     1
102
RTVSPropertyOp61
 70
     1
102
RTVSPropertyOp62
 70
     1
  0
XRECORD
  5
BD3E
102
{ACAD_REACTORS
330
BD3D
102
}
330
BD3D
100
AcDbXrecord
280
     1
102
RTVSPost2010Prop28
280
     0
102
RTVSPost2010PropOp28
 70
     1
102
RTVSPost2010Prop29
280
     1
102
RTVSPost2010PropOp29
 70
     1
102
RTVSPost2010Prop30
280
     1
102
RTVSPost2010PropOp30
 70
     1
102
RTVSPost2010Prop31
280
     0
102
RTVSPost2010PropOp31
 70
     1
102
RTVSPost2010Prop32
280
     0
102
RTVSPost2010PropOp32
 70
     1
102
RTVSPost2010Prop33
280
     0
102
RTVSPost2010PropOp33
 70
     1
102
RTVSPost2010Prop34
280
     0
102
RTVSPost2010PropOp34
 70
     1
102
RTVSPost2010Prop35
280
     0
102
RTVSPost2010PropOp35
 70
     1
102
RTVSPost2010Prop36
280
     0
102
RTVSPost2010PropOp36
 70
     1
102
RTVSPost2010Prop37
 90
       50
102
RTVSPost2010PropOp37
 70
     1
102
RTVSPost2010Prop38
140
0.0
102
RTVSPost2010PropOp38
 70
     1
102
RTVSPost2010Prop39
140
1.0
102
RTVSPost2010PropOp39
 70
     1
102
RTVSPost2010Prop40
 90
        0
102
RTVSPost2010PropOp40
 70
     1
102
RTVSPost2010Prop41ColorIndex
 90
       18
102
RTVSPost2010Prop41ColorRGB
 90
        0
102
RTVSPost2010PropOp41
 70
     1
102
RTVSPost2010Prop42
 90
       50
102
RTVSPost2010PropOp42
 70
     1
102
RTVSPost2010Prop43
 90
        3
102
RTVSPost2010PropOp43
 70
     1
102
RTVSPost2010Prop44ColorIndex
 90
        5
102
RTVSPost2010Prop44ColorRGB
 90
      255
102
RTVSPost2010PropOp44
 70
     1
102
RTVSPost2010Prop45
280
     0
102
RTVSPost2010PropOp45
 70
     1
102
RTVSPost2010Prop46
 90
       50
102
RTVSPost2010PropOp46
 70
     1
102
RTVSPost2010Prop47
 90
       50
102
RTVSPost2010PropOp47
 70
     1
102
RTVSPost2010Prop48
 90
       50
102
RTVSPost2010PropOp48
 70
     1
102
RTVSPost2010Prop49
280
     0
102
RTVSPost2010PropOp49
 70
     1
102
RTVSPost2010Prop50
 90
       50
102
RTVSPost2010PropOp50
 70
     1
102
RTVSPost2010Prop51ColorIndex
 90
      256
102
RTVSPost2010Prop51ColorRGB
 90
-16777216
102
RTVSPost2010PropOp51
 70
     0
102
RTVSPost2010Prop52
140
1.0
102
RTVSPost2010PropOp52
 70
     0
102
RTVSPost2010Prop53
 90
        2
102
RTVSPost2010PropOp53
 70
     1
102
RTVSPost2010Prop54
  1
strokes_ogs.tif
102
RTVSPost2010PropOp54
 70
     1
102
RTVSPost2010Prop55
280
     0
102
RTVSPost2010PropOp55
 70
     1
102
RTVSPost2010Prop56
140
1.0
102
RTVSPost2010PropOp56
 70
     1
102
RTVSPost2010Prop57
140
1.0
102
RTVSPost2010PropOp57
 70
     1
102
RTVSPropertyOp0
 70
     1
102
RTVSPropertyOp1
 70
     1
102
RTVSPropertyOp2
 70
     1
102
RTVSPropertyOp3
 70
     1
102
RTVSPropertyOp4
 70
     1
102
RTVSPropertyOp5
 70
     1
102
RTVSPropertyOp6
 70
     1
102
RTVSPropertyOp7
 70
     1
102
RTVSPropertyOp8
 70
     1
102
RTVSPropertyOp9
 70
     1
102
RTVSPropertyOp10
 70
     1
102
RTVSPropertyOp11
 70
     1
102
RTVSPropertyOp12
 70
     1
102
RTVSPropertyOp13
 70
     1
102
RTVSPropertyOp14
 70
     1
102
RTVSPropertyOp15
 70
     1
102
RTVSPropertyOp16
 70
     1
102
RTVSPropertyOp17
 70
     1
102
RTVSPropertyOp18
 70
     1
102
RTVSPropertyOp19
 70
     1
102
RTVSPropertyOp20
 70
     1
102
RTVSPropertyOp21
 70
     1
102
RTVSPropertyOp22
 70
     1
102
RTVSPropertyOp23
 70
     1
102
RTVSPropertyOp24
 70
     1
102
RTVSPropertyOp25
 70
     1
102
RTVSPropertyOp26
 70
     1
102
RTVSPropertyOp27
 70
     1
102
RTVSPropertyOp28
 70
     1
102
RTVSPropertyOp29
 70
     1
102
RTVSPropertyOp30
 70
     1
102
RTVSPropertyOp31
 70
     1
102
RTVSPropertyOp32
 70
     1
102
RTVSPropertyOp33
 70
     1
102
RTVSPropertyOp34
 70
     1
102
RTVSPropertyOp35
 70
     1
102
RTVSPropertyOp36
 70
     1
102
RTVSPropertyOp37
 70
     1
102
RTVSPropertyOp38
 70
     1
102
RTVSPropertyOp39
 70
     1
102
RTVSPropertyOp40
 70
     1
102
RTVSPropertyOp41
 70
     1
102
RTVSPropertyOp42
 70
     1
102
RTVSPropertyOp43
 70
     1
102
RTVSPropertyOp44
 70
     1
102
RTVSPropertyOp45
 70
     1
102
RTVSPropertyOp46
 70
     1
102
RTVSPropertyOp47
 70
     1
102
RTVSPropertyOp48
 70
     1
102
RTVSPropertyOp49
 70
     1
102
RTVSPropertyOp50
 70
     1
102
RTVSPropertyOp51
 70
     0
102
RTVSPropertyOp52
 70
     0
102
RTVSPropertyOp53
 70
     1
102
RTVSPropertyOp54
 70
     1
102
RTVSPropertyOp55
 70
     1
102
RTVSPropertyOp56
 70
     1
102
RTVSPropertyOp57
 70
     1
102
RTVSPropertyOp58
 70
     1
102
RTVSPropertyOp59
 70
     1
102
RTVSPropertyOp60
 70
     1
102
RTVSPropertyOp61
 70
     1
102
RTVSPropertyOp62
 70
     1
  0
XRECORD
  5
BD40
102
{ACAD_REACTORS
330
BD3F
102
}
330
BD3F
100
AcDbXrecord
280
     1
102
RTVSPost2010Prop28
280
     0
102
RTVSPost2010PropOp28
 70
     1
102
RTVSPost2010Prop29
280
     1
102
RTVSPost2010PropOp29
 70
     1
102
RTVSPost2010Prop30
280
     1
102
RTVSPost2010PropOp30
 70
     1
102
RTVSPost2010Prop31
280
     0
102
RTVSPost2010PropOp31
 70
     1
102
RTVSPost2010Prop32
280
     0
102
RTVSPost2010PropOp32
 70
     1
102
RTVSPost2010Prop33
280
     0
102
RTVSPost2010PropOp33
 70
     1
102
RTVSPost2010Prop34
280
     0
102
RTVSPost2010PropOp34
 70
     1
102
RTVSPost2010Prop35
280
     0
102
RTVSPost2010PropOp35
 70
     1
102
RTVSPost2010Prop36
280
     0
102
RTVSPost2010PropOp36
 70
     1
102
RTVSPost2010Prop37
 90
       50
102
RTVSPost2010PropOp37
 70
     1
102
RTVSPost2010Prop38
140
0.0
102
RTVSPost2010PropOp38
 70
     1
102
RTVSPost2010Prop39
140
1.0
102
RTVSPost2010PropOp39
 70
     1
102
RTVSPost2010Prop40
 90
        0
102
RTVSPost2010PropOp40
 70
     1
102
RTVSPost2010Prop41ColorIndex
 90
       18
102
RTVSPost2010Prop41ColorRGB
 90
        0
102
RTVSPost2010PropOp41
 70
     1
102
RTVSPost2010Prop42
 90
       50
102
RTVSPost2010PropOp42
 70
     1
102
RTVSPost2010Prop43
 90
        3
102
RTVSPost2010PropOp43
 70
     1
102
RTVSPost2010Prop44ColorIndex
 90
        5
102
RTVSPost2010Prop44ColorRGB
 90
      255
102
RTVSPost2010PropOp44
 70
     1
102
RTVSPost2010Prop45
280
     0
102
RTVSPost2010PropOp45
 70
     1
102
RTVSPost2010Prop46
 90
       50
102
RTVSPost2010PropOp46
 70
     1
102
RTVSPost2010Prop47
 90
       50
102
RTVSPost2010PropOp47
 70
     1
102
RTVSPost2010Prop48
 90
       50
102
RTVSPost2010PropOp48
 70
     1
102
RTVSPost2010Prop49
280
     0
102
RTVSPost2010PropOp49
 70
     1
102
RTVSPost2010Prop50
 90
       50
102
RTVSPost2010PropOp50
 70
     1
102
RTVSPost2010Prop51ColorIndex
 90
      256
102
RTVSPost2010Prop51ColorRGB
 90
-16777216
102
RTVSPost2010PropOp51
 70
     0
102
RTVSPost2010Prop52
140
1.0
102
RTVSPost2010PropOp52
 70
     0
102
RTVSPost2010Prop53
 90
        2
102
RTVSPost2010PropOp53
 70
     1
102
RTVSPost2010Prop54
  1
strokes_ogs.tif
102
RTVSPost2010PropOp54
 70
     1
102
RTVSPost2010Prop55
280
     0
102
RTVSPost2010PropOp55
 70
     1
102
RTVSPost2010Prop56
140
1.0
102
RTVSPost2010PropOp56
 70
     1
102
RTVSPost2010Prop57
140
1.0
102
RTVSPost2010PropOp57
 70
     1
102
RTVSPropertyOp0
 70
     1
102
RTVSPropertyOp1
 70
     1
102
RTVSPropertyOp2
 70
     1
102
RTVSPropertyOp3
 70
     1
102
RTVSPropertyOp4
 70
     1
102
RTVSPropertyOp5
 70
     1
102
RTVSPropertyOp6
 70
     1
102
RTVSPropertyOp7
 70
     1
102
RTVSPropertyOp8
 70
     1
102
RTVSPropertyOp9
 70
     1
102
RTVSPropertyOp10
 70
     1
102
RTVSPropertyOp11
 70
     1
102
RTVSPropertyOp12
 70
     1
102
RTVSPropertyOp13
 70
     1
102
RTVSPropertyOp14
 70
     1
102
RTVSPropertyOp15
 70
     1
102
RTVSPropertyOp16
 70
     1
102
RTVSPropertyOp17
 70
     1
102
RTVSPropertyOp18
 70
     1
102
RTVSPropertyOp19
 70
     1
102
RTVSPropertyOp20
 70
     1
102
RTVSPropertyOp21
 70
     1
102
RTVSPropertyOp22
 70
     1
102
RTVSPropertyOp23
 70
     1
102
RTVSPropertyOp24
 70
     1
102
RTVSPropertyOp25
 70
     1
102
RTVSPropertyOp26
 70
     1
102
RTVSPropertyOp27
 70
     1
102
RTVSPropertyOp28
 70
     1
102
RTVSPropertyOp29
 70
     1
102
RTVSPropertyOp30
 70
     1
102
RTVSPropertyOp31
 70
     1
102
RTVSPropertyOp32
 70
     1
102
RTVSPropertyOp33
 70
     1
102
RTVSPropertyOp34
 70
     1
102
RTVSPropertyOp35
 70
     1
102
RTVSPropertyOp36
 70
     1
102
RTVSPropertyOp37
 70
     1
102
RTVSPropertyOp38
 70
     1
102
RTVSPropertyOp39
 70
     1
102
RTVSPropertyOp40
 70
     1
102
RTVSPropertyOp41
 70
     1
102
RTVSPropertyOp42
 70
     1
102
RTVSPropertyOp43
 70
     1
102
RTVSPropertyOp44
 70
     1
102
RTVSPropertyOp45
 70
     1
102
RTVSPropertyOp46
 70
     1
102
RTVSPropertyOp47
 70
     1
102
RTVSPropertyOp48
 70
     1
102
RTVSPropertyOp49
 70
     1
102
RTVSPropertyOp50
 70
     1
102
RTVSPropertyOp51
 70
     0
102
RTVSPropertyOp52
 70
     0
102
RTVSPropertyOp53
 70
     1
102
RTVSPropertyOp54
 70
     1
102
RTVSPropertyOp55
 70
     1
102
RTVSPropertyOp56
 70
     1
102
RTVSPropertyOp57
 70
     1
102
RTVSPropertyOp58
 70
     1
102
RTVSPropertyOp59
 70
     1
102
RTVSPropertyOp60
 70
     1
102
RTVSPropertyOp61
 70
     1
102
RTVSPropertyOp62
 70
     1
  0
XRECORD
  5
BD36
102
{ACAD_REACTORS
330
BD35
102
}
330
BD35
100
AcDbXrecord
280
     1
102
RTVSPost2010Prop28
280
     0
102
RTVSPost2010PropOp28
 70
     1
102
RTVSPost2010Prop29
280
     1
102
RTVSPost2010PropOp29
 70
     1
102
RTVSPost2010Prop30
280
     1
102
RTVSPost2010PropOp30
 70
     1
102
RTVSPost2010Prop31
280
     0
102
RTVSPost2010PropOp31
 70
     1
102
RTVSPost2010Prop32
280
     0
102
RTVSPost2010PropOp32
 70
     1
102
RTVSPost2010Prop33
280
     0
102
RTVSPost2010PropOp33
 70
     1
102
RTVSPost2010Prop34
280
     0
102
RTVSPost2010PropOp34
 70
     1
102
RTVSPost2010Prop35
280
     0
102
RTVSPost2010PropOp35
 70
     1
102
RTVSPost2010Prop36
280
     0
102
RTVSPost2010PropOp36
 70
     1
102
RTVSPost2010Prop37
 90
       50
102
RTVSPost2010PropOp37
 70
     1
102
RTVSPost2010Prop38
140
0.0
102
RTVSPost2010PropOp38
 70
     1
102
RTVSPost2010Prop39
140
1.0
102
RTVSPost2010PropOp39
 70
     1
102
RTVSPost2010Prop40
 90
        0
102
RTVSPost2010PropOp40
 70
     1
102
RTVSPost2010Prop41ColorIndex
 90
       18
102
RTVSPost2010Prop41ColorRGB
 90
        0
102
RTVSPost2010PropOp41
 70
     1
102
RTVSPost2010Prop42
 90
       50
102
RTVSPost2010PropOp42
 70
     1
102
RTVSPost2010Prop43
 90
        3
102
RTVSPost2010PropOp43
 70
     1
102
RTVSPost2010Prop44ColorIndex
 90
        5
102
RTVSPost2010Prop44ColorRGB
 90
      255
102
RTVSPost2010PropOp44
 70
     1
102
RTVSPost2010Prop45
280
     0
102
RTVSPost2010PropOp45
 70
     1
102
RTVSPost2010Prop46
 90
       50
102
RTVSPost2010PropOp46
 70
     1
102
RTVSPost2010Prop47
 90
       50
102
RTVSPost2010PropOp47
 70
     1
102
RTVSPost2010Prop48
 90
       50
102
RTVSPost2010PropOp48
 70
     1
102
RTVSPost2010Prop49
280
     0
102
RTVSPost2010PropOp49
 70
     1
102
RTVSPost2010Prop50
 90
       50
102
RTVSPost2010PropOp50
 70
     1
102
RTVSPost2010Prop51ColorIndex
 90
      256
102
RTVSPost2010Prop51ColorRGB
 90
-16777216
102
RTVSPost2010PropOp51
 70
     0
102
RTVSPost2010Prop52
140
1.0
102
RTVSPost2010PropOp52
 70
     0
102
RTVSPost2010Prop53
 90
        2
102
RTVSPost2010PropOp53
 70
     1
102
RTVSPost2010Prop54
  1
strokes_ogs.tif
102
RTVSPost2010PropOp54
 70
     1
102
RTVSPost2010Prop55
280
     0
102
RTVSPost2010PropOp55
 70
     1
102
RTVSPost2010Prop56
140
1.0
102
RTVSPost2010PropOp56
 70
     1
102
RTVSPost2010Prop57
140
1.0
102
RTVSPost2010PropOp57
 70
     1
102
RTVSPropertyOp0
 70
     1
102
RTVSPropertyOp1
 70
     1
102
RTVSPropertyOp2
 70
     1
102
RTVSPropertyOp3
 70
     1
102
RTVSPropertyOp4
 70
     1
102
RTVSPropertyOp5
 70
     1
102
RTVSPropertyOp6
 70
     1
102
RTVSPropertyOp7
 70
     1
102
RTVSPropertyOp8
 70
     1
102
RTVSPropertyOp9
 70
     1
102
RTVSPropertyOp10
 70
     1
102
RTVSPropertyOp11
 70
     1
102
RTVSPropertyOp12
 70
     1
102
RTVSPropertyOp13
 70
     1
102
RTVSPropertyOp14
 70
     1
102
RTVSPropertyOp15
 70
     1
102
RTVSPropertyOp16
 70
     1
102
RTVSPropertyOp17
 70
     1
102
RTVSPropertyOp18
 70
     1
102
RTVSPropertyOp19
 70
     1
102
RTVSPropertyOp20
 70
     1
102
RTVSPropertyOp21
 70
     1
102
RTVSPropertyOp22
 70
     1
102
RTVSPropertyOp23
 70
     1
102
RTVSPropertyOp24
 70
     1
102
RTVSPropertyOp25
 70
     1
102
RTVSPropertyOp26
 70
     1
102
RTVSPropertyOp27
 70
     1
102
RTVSPropertyOp28
 70
     1
102
RTVSPropertyOp29
 70
     1
102
RTVSPropertyOp30
 70
     1
102
RTVSPropertyOp31
 70
     1
102
RTVSPropertyOp32
 70
     1
102
RTVSPropertyOp33
 70
     1
102
RTVSPropertyOp34
 70
     1
102
RTVSPropertyOp35
 70
     1
102
RTVSPropertyOp36
 70
     1
102
RTVSPropertyOp37
 70
     1
102
RTVSPropertyOp38
 70
     1
102
RTVSPropertyOp39
 70
     1
102
RTVSPropertyOp40
 70
     1
102
RTVSPropertyOp41
 70
     1
102
RTVSPropertyOp42
 70
     1
102
RTVSPropertyOp43
 70
     1
102
RTVSPropertyOp44
 70
     1
102
RTVSPropertyOp45
 70
     1
102
RTVSPropertyOp46
 70
     1
102
RTVSPropertyOp47
 70
     1
102
RTVSPropertyOp48
 70
     1
102
RTVSPropertyOp49
 70
     1
102
RTVSPropertyOp50
 70
     1
102
RTVSPropertyOp51
 70
     0
102
RTVSPropertyOp52
 70
     0
102
RTVSPropertyOp53
 70
     1
102
RTVSPropertyOp54
 70
     1
102
RTVSPropertyOp55
 70
     1
102
RTVSPropertyOp56
 70
     1
102
RTVSPropertyOp57
 70
     1
102
RTVSPropertyOp58
 70
     1
102
RTVSPropertyOp59
 70
     1
102
RTVSPropertyOp60
 70
     1
102
RTVSPropertyOp61
 70
     1
102
RTVSPropertyOp62
 70
     1
  0
XRECORD
  5
BD2A
102
{ACAD_REACTORS
330
BD29
102
}
330
BD29
100
AcDbXrecord
280
     1
102
RTVSPost2010Prop28
280
     0
102
RTVSPost2010PropOp28
 70
     1
102
RTVSPost2010Prop29
280
     1
102
RTVSPost2010PropOp29
 70
     1
102
RTVSPost2010Prop30
280
     1
102
RTVSPost2010PropOp30
 70
     1
102
RTVSPost2010Prop31
280
     0
102
RTVSPost2010PropOp31
 70
     1
102
RTVSPost2010Prop32
280
     0
102
RTVSPost2010PropOp32
 70
     1
102
RTVSPost2010Prop33
280
     0
102
RTVSPost2010PropOp33
 70
     1
102
RTVSPost2010Prop34
280
     0
102
RTVSPost2010PropOp34
 70
     1
102
RTVSPost2010Prop35
280
     0
102
RTVSPost2010PropOp35
 70
     1
102
RTVSPost2010Prop36
280
     0
102
RTVSPost2010PropOp36
 70
     1
102
RTVSPost2010Prop37
 90
       50
102
RTVSPost2010PropOp37
 70
     1
102
RTVSPost2010Prop38
140
0.0
102
RTVSPost2010PropOp38
 70
     1
102
RTVSPost2010Prop39
140
1.0
102
RTVSPost2010PropOp39
 70
     1
102
RTVSPost2010Prop40
 90
        0
102
RTVSPost2010PropOp40
 70
     1
102
RTVSPost2010Prop41ColorIndex
 90
       18
102
RTVSPost2010Prop41ColorRGB
 90
        0
102
RTVSPost2010PropOp41
 70
     1
102
RTVSPost2010Prop42
 90
       50
102
RTVSPost2010PropOp42
 70
     1
102
RTVSPost2010Prop43
 90
        3
102
RTVSPost2010PropOp43
 70
     1
102
RTVSPost2010Prop44ColorIndex
 90
        5
102
RTVSPost2010Prop44ColorRGB
 90
      255
102
RTVSPost2010PropOp44
 70
     1
102
RTVSPost2010Prop45
280
     0
102
RTVSPost2010PropOp45
 70
     1
102
RTVSPost2010Prop46
 90
       50
102
RTVSPost2010PropOp46
 70
     1
102
RTVSPost2010Prop47
 90
       50
102
RTVSPost2010PropOp47
 70
     1
102
RTVSPost2010Prop48
 90
       50
102
RTVSPost2010PropOp48
 70
     1
102
RTVSPost2010Prop49
280
     0
102
RTVSPost2010PropOp49
 70
     1
102
RTVSPost2010Prop50
 90
       50
102
RTVSPost2010PropOp50
 70
     1
102
RTVSPost2010Prop51ColorIndex
 90
      256
102
RTVSPost2010Prop51ColorRGB
 90
-16777216
102
RTVSPost2010PropOp51
 70
     0
102
RTVSPost2010Prop52
140
1.0
102
RTVSPost2010PropOp52
 70
     0
102
RTVSPost2010Prop53
 90
        2
102
RTVSPost2010PropOp53
 70
     1
102
RTVSPost2010Prop54
  1
strokes_ogs.tif
102
RTVSPost2010PropOp54
 70
     1
102
RTVSPost2010Prop55
280
     0
102
RTVSPost2010PropOp55
 70
     1
102
RTVSPost2010Prop56
140
1.0
102
RTVSPost2010PropOp56
 70
     1
102
RTVSPost2010Prop57
140
1.0
102
RTVSPost2010PropOp57
 70
     1
102
RTVSPropertyOp0
 70
     1
102
RTVSPropertyOp1
 70
     1
102
RTVSPropertyOp2
 70
     1
102
RTVSPropertyOp3
 70
     1
102
RTVSPropertyOp4
 70
     1
102
RTVSPropertyOp5
 70
     1
102
RTVSPropertyOp6
 70
     1
102
RTVSPropertyOp7
 70
     1
102
RTVSPropertyOp8
 70
     1
102
RTVSPropertyOp9
 70
     1
102
RTVSPropertyOp10
 70
     1
102
RTVSPropertyOp11
 70
     1
102
RTVSPropertyOp12
 70
     1
102
RTVSPropertyOp13
 70
     1
102
RTVSPropertyOp14
 70
     1
102
RTVSPropertyOp15
 70
     1
102
RTVSPropertyOp16
 70
     1
102
RTVSPropertyOp17
 70
     1
102
RTVSPropertyOp18
 70
     1
102
RTVSPropertyOp19
 70
     1
102
RTVSPropertyOp20
 70
     1
102
RTVSPropertyOp21
 70
     1
102
RTVSPropertyOp22
 70
     1
102
RTVSPropertyOp23
 70
     1
102
RTVSPropertyOp24
 70
     1
102
RTVSPropertyOp25
 70
     1
102
RTVSPropertyOp26
 70
     1
102
RTVSPropertyOp27
 70
     1
102
RTVSPropertyOp28
 70
     1
102
RTVSPropertyOp29
 70
     1
102
RTVSPropertyOp30
 70
     1
102
RTVSPropertyOp31
 70
     1
102
RTVSPropertyOp32
 70
     1
102
RTVSPropertyOp33
 70
     1
102
RTVSPropertyOp34
 70
     1
102
RTVSPropertyOp35
 70
     1
102
RTVSPropertyOp36
 70
     1
102
RTVSPropertyOp37
 70
     1
102
RTVSPropertyOp38
 70
     1
102
RTVSPropertyOp39
 70
     1
102
RTVSPropertyOp40
 70
     1
102
RTVSPropertyOp41
 70
     1
102
RTVSPropertyOp42
 70
     1
102
RTVSPropertyOp43
 70
     1
102
RTVSPropertyOp44
 70
     1
102
RTVSPropertyOp45
 70
     1
102
RTVSPropertyOp46
 70
     1
102
RTVSPropertyOp47
 70
     1
102
RTVSPropertyOp48
 70
     1
102
RTVSPropertyOp49
 70
     1
102
RTVSPropertyOp50
 70
     1
102
RTVSPropertyOp51
 70
     0
102
RTVSPropertyOp52
 70
     0
102
RTVSPropertyOp53
 70
     1
102
RTVSPropertyOp54
 70
     1
102
RTVSPropertyOp55
 70
     1
102
RTVSPropertyOp56
 70
     1
102
RTVSPropertyOp57
 70
     1
102
RTVSPropertyOp58
 70
     1
102
RTVSPropertyOp59
 70
     1
102
RTVSPropertyOp60
 70
     1
102
RTVSPropertyOp61
 70
     1
102
RTVSPropertyOp62
 70
     1
  0
XRECORD
  5
BD42
102
{ACAD_REACTORS
330
BD41
102
}
330
BD41
100
AcDbXrecord
280
     1
102
RTVSPost2010Prop28
280
     0
102
RTVSPost2010PropOp28
 70
     1
102
RTVSPost2010Prop29
280
     1
102
RTVSPost2010PropOp29
 70
     1
102
RTVSPost2010Prop30
280
     1
102
RTVSPost2010PropOp30
 70
     1
102
RTVSPost2010Prop31
280
     0
102
RTVSPost2010PropOp31
 70
     1
102
RTVSPost2010Prop32
280
     0
102
RTVSPost2010PropOp32
 70
     1
102
RTVSPost2010Prop33
280
     0
102
RTVSPost2010PropOp33
 70
     1
102
RTVSPost2010Prop34
280
     0
102
RTVSPost2010PropOp34
 70
     1
102
RTVSPost2010Prop35
280
     0
102
RTVSPost2010PropOp35
 70
     1
102
RTVSPost2010Prop36
280
     0
102
RTVSPost2010PropOp36
 70
     1
102
RTVSPost2010Prop37
 90
       50
102
RTVSPost2010PropOp37
 70
     1
102
RTVSPost2010Prop38
140
0.0
102
RTVSPost2010PropOp38
 70
     1
102
RTVSPost2010Prop39
140
1.0
102
RTVSPost2010PropOp39
 70
     1
102
RTVSPost2010Prop40
 90
        0
102
RTVSPost2010PropOp40
 70
     1
102
RTVSPost2010Prop41ColorIndex
 90
       18
102
RTVSPost2010Prop41ColorRGB
 90
        0
102
RTVSPost2010PropOp41
 70
     1
102
RTVSPost2010Prop42
 90
       50
102
RTVSPost2010PropOp42
 70
     1
102
RTVSPost2010Prop43
 90
        3
102
RTVSPost2010PropOp43
 70
     1
102
RTVSPost2010Prop44ColorIndex
 90
        5
102
RTVSPost2010Prop44ColorRGB
 90
      255
102
RTVSPost2010PropOp44
 70
     1
102
RTVSPost2010Prop45
280
     0
102
RTVSPost2010PropOp45
 70
     1
102
RTVSPost2010Prop46
 90
       50
102
RTVSPost2010PropOp46
 70
     1
102
RTVSPost2010Prop47
 90
       50
102
RTVSPost2010PropOp47
 70
     1
102
RTVSPost2010Prop48
 90
       50
102
RTVSPost2010PropOp48
 70
     1
102
RTVSPost2010Prop49
280
     0
102
RTVSPost2010PropOp49
 70
     1
102
RTVSPost2010Prop50
 90
       50
102
RTVSPost2010PropOp50
 70
     1
102
RTVSPost2010Prop51ColorIndex
 90
      256
102
RTVSPost2010Prop51ColorRGB
 90
-16777216
102
RTVSPost2010PropOp51
 70
     0
102
RTVSPost2010Prop52
140
1.0
102
RTVSPost2010PropOp52
 70
     0
102
RTVSPost2010Prop53
 90
        2
102
RTVSPost2010PropOp53
 70
     1
102
RTVSPost2010Prop54
  1
strokes_ogs.tif
102
RTVSPost2010PropOp54
 70
     1
102
RTVSPost2010Prop55
280
     0
102
RTVSPost2010PropOp55
 70
     1
102
RTVSPost2010Prop56
140
1.0
102
RTVSPost2010PropOp56
 70
     1
102
RTVSPost2010Prop57
140
1.0
102
RTVSPost2010PropOp57
 70
     1
102
RTVSPropertyOp0
 70
     1
102
RTVSPropertyOp1
 70
     1
102
RTVSPropertyOp2
 70
     1
102
RTVSPropertyOp3
 70
     1
102
RTVSPropertyOp4
 70
     1
102
RTVSPropertyOp5
 70
     1
102
RTVSPropertyOp6
 70
     1
102
RTVSPropertyOp7
 70
     1
102
RTVSPropertyOp8
 70
     1
102
RTVSPropertyOp9
 70
     1
102
RTVSPropertyOp10
 70
     1
102
RTVSPropertyOp11
 70
     1
102
RTVSPropertyOp12
 70
     1
102
RTVSPropertyOp13
 70
     1
102
RTVSPropertyOp14
 70
     1
102
RTVSPropertyOp15
 70
     1
102
RTVSPropertyOp16
 70
     1
102
RTVSPropertyOp17
 70
     1
102
RTVSPropertyOp18
 70
     1
102
RTVSPropertyOp19
 70
     1
102
RTVSPropertyOp20
 70
     1
102
RTVSPropertyOp21
 70
     1
102
RTVSPropertyOp22
 70
     1
102
RTVSPropertyOp23
 70
     1
102
RTVSPropertyOp24
 70
     1
102
RTVSPropertyOp25
 70
     1
102
RTVSPropertyOp26
 70
     1
102
RTVSPropertyOp27
 70
     1
102
RTVSPropertyOp28
 70
     1
102
RTVSPropertyOp29
 70
     1
102
RTVSPropertyOp30
 70
     1
102
RTVSPropertyOp31
 70
     1
102
RTVSPropertyOp32
 70
     1
102
RTVSPropertyOp33
 70
     1
102
RTVSPropertyOp34
 70
     1
102
RTVSPropertyOp35
 70
     1
102
RTVSPropertyOp36
 70
     1
102
RTVSPropertyOp37
 70
     1
102
RTVSPropertyOp38
 70
     1
102
RTVSPropertyOp39
 70
     1
102
RTVSPropertyOp40
 70
     1
102
RTVSPropertyOp41
 70
     1
102
RTVSPropertyOp42
 70
     1
102
RTVSPropertyOp43
 70
     1
102
RTVSPropertyOp44
 70
     1
102
RTVSPropertyOp45
 70
     1
102
RTVSPropertyOp46
 70
     1
102
RTVSPropertyOp47
 70
     1
102
RTVSPropertyOp48
 70
     1
102
RTVSPropertyOp49
 70
     1
102
RTVSPropertyOp50
 70
     1
102
RTVSPropertyOp51
 70
     0
102
RTVSPropertyOp52
 70
     0
102
RTVSPropertyOp53
 70
     1
102
RTVSPropertyOp54
 70
     1
102
RTVSPropertyOp55
 70
     1
102
RTVSPropertyOp56
 70
     1
102
RTVSPropertyOp57
 70
     1
102
RTVSPropertyOp58
 70
     1
102
RTVSPropertyOp59
 70
     1
102
RTVSPropertyOp60
 70
     1
102
RTVSPropertyOp61
 70
     1
102
RTVSPropertyOp62
 70
     1
  0
ENDSEC
  0
EOF
