  0
SECTION
  2
HEADER
  9
$ACADVER
  1
AC1015
  9
$ACADMAINTVER
 70
    20
  9
$DWGCODEPAGE
  3
ANSI_932
  9
$INSBASE
 10
0.0
 20
0.0
 30
0.0
  9
$EXTMIN
 10
10.0
 20
9.999999999999998
 30
0.0
  9
$EXTMAX
 10
285.950477
 20
266.9601999999998
 30
0.0
  9
$LIMMIN
 10
0.0
 20
0.0
  9
$LIMMAX
 10
495.0
 20
341.25
  9
$ORTHOMODE
 70
     1
  9
$REGENMODE
 70
     1
  9
$FILLMODE
 70
     1
  9
$QTEXTMODE
 70
     0
  9
$MIRRTEXT
 70
     1
  9
$LTSCALE
 40
20.0
  9
$ATTMODE
 70
     1
  9
$TEXTSIZE
 40
5.0
  9
$TRACEWID
 40
1.0
  9
$TEXTSTYLE
  7
STANDARD
  9
$CLAYER
  8
0
  9
$CELTYPE
  6
BYLAYER
  9
$CECOLOR
 62
   256
  9
$CELTSCALE
 40
1.0
  9
$DISPSILH
 70
     0
  9
$DIMSCALE
 40
1.0
  9
$DIMASZ
 40
2.5
  9
$DIMEXO
 40
1.0
  9
$DIMDLI
 40
10.0
  9
$DIMRND
 40
0.0
  9
$DIMDLE
 40
0.0
  9
$DIMEXE
 40
1.0
  9
$DIMTP
 40
0.0
  9
$DIMTM
 40
0.0
  9
$DIMTXT
 40
3.2
  9
$DIMCEN
 40
0.0
  9
$DIMTSZ
 40
0.0
  9
$DIMTOL
 70
     0
  9
$DIMLIM
 70
     0
  9
$DIMTIH
 70
     0
  9
$DIMTOH
 70
     0
  9
$DIMSE1
 70
     0
  9
$DIMSE2
 70
     0
  9
$DIMTAD
 70
     3
  9
$DIMZIN
 70
     8
  9
$DIMBLK
  1

  9
$DIMASO
 70
     1
  9
$DIMSHO
 70
     1
  9
$DIMPOST
  1

  9
$DIMAPOST
  1

  9
$DIMALT
 70
     0
  9
$DIMALTD
 70
     2
  9
$DIMALTF
 40
25.4
  9
$DIMLFAC
 40
1.0
  9
$DIMTOFL
 70
     1
  9
$DIMTVP
 40
0.0
  9
$DIMTIX
 70
     0
  9
$DIMSOXD
 70
     0
  9
$DIMSAH
 70
     1
  9
$DIMBLK1
  1

  9
$DIMBLK2
  1

  9
$DIMSTYLE
  2
STANDARD
  9
$DIMCLRD
 70
     0
  9
$DIMCLRE
 70
     0
  9
$DIMCLRT
 70
     0
  9
$DIMTFAC
 40
1.0
  9
$DIMGAP
 40
1.0
  9
$DIMJUST
 70
     0
  9
$DIMSD1
 70
     0
  9
$DIMSD2
 70
     0
  9
$DIMTOLJ
 70
     1
  9
$DIMTZIN
 70
     0
  9
$DIMALTZ
 70
     0
  9
$DIMALTTZ
 70
     0
  9
$DIMUPT
 70
     0
  9
$DIMDEC
 70
     4
  9
$DIMTDEC
 70
     4
  9
$DIMALTU
 70
     2
  9
$DIMALTTD
 70
     2
  9
$DIMTXSTY
  7
STANDARD
  9
$DIMAUNIT
 70
     0
  9
$DIMADEC
 70
     0
  9
$DIMALTRND
 40
0.0
  9
$DIMAZIN
 70
     0
  9
$DIMDSEP
 70
    46
  9
$DIMATFIT
 70
     3
  9
$DIMFRAC
 70
     0
  9
$DIMLDRBLK
  1

  9
$DIMLUNIT
 70
     2
  9
$DIMLWD
 70
    -2
  9
$DIMLWE
 70
    -2
  9
$DIMTMOVE
 70
     0
  9
$LUNITS
 70
     2
  9
$LUPREC
 70
     4
  9
$SKETCHINC
 40
1.0
  9
$FILLETRAD
 40
1.0
  9
$AUNITS
 70
     0
  9
$AUPREC
 70
     2
  9
$MENU
  1
.
  9
$ELEVATION
 40
0.0
  9
$PELEVATION
 40
0.0
  9
$THICKNESS
 40
0.0
  9
$LIMCHECK
 70
     0
  9
$CHAMFERA
 40
10.0
  9
$CHAMFERB
 40
10.0
  9
$CHAMFERC
 40
0.0
  9
$CHAMFERD
 40
0.0
  9
$SKPOLY
 70
     0
  9
$TDCREATE
 40
2451296.795513079
  9
$TDUCREATE
 40
2451296.420513079
  9
$TDUPDATE
 40
2457192.658319711
  9
$TDUUPDATE
 40
2457192.283319711
  9
$TDINDWG
 40
0.0000113657
  9
$TDUSRTIMER
 40
0.0000110532
  9
$USRTIMER
 70
     1
  9
$ANGBASE
 50
0.0
  9
$ANGDIR
 70
     0
  9
$PDMODE
 70
     0
  9
$PDSIZE
 40
0.0
  9
$PLINEWID
 40
0.0
  9
$SPLFRAME
 70
     0
  9
$SPLINETYPE
 70
     6
  9
$SPLINESEGS
 70
     8
  9
$HANDSEED
  5
C0DB
  9
$SURFTAB1
 70
     6
  9
$SURFTAB2
 70
     6
  9
$SURFTYPE
 70
     6
  9
$SURFU
 70
     6
  9
$SURFV
 70
     6
  9
$UCSBASE
  2

  9
$UCSNAME
  2

  9
$UCSORG
 10
0.0
 20
0.0
 30
0.0
  9
$UCSXDIR
 10
1.0
 20
0.0
 30
0.0
  9
$UCSYDIR
 10
0.0
 20
1.0
 30
0.0
  9
$UCSORTHOREF
  2

  9
$UCSORTHOVIEW
 70
     0
  9
$UCSORGTOP
 10
0.0
 20
0.0
 30
0.0
  9
$UCSORGBOTTOM
 10
0.0
 20
0.0
 30
0.0
  9
$UCSORGLEFT
 10
0.0
 20
0.0
 30
0.0
  9
$UCSORGRIGHT
 10
0.0
 20
0.0
 30
0.0
  9
$UCSORGFRONT
 10
0.0
 20
0.0
 30
0.0
  9
$UCSORGBACK
 10
0.0
 20
0.0
 30
0.0
  9
$PUCSBASE
  2

  9
$PUCSNAME
  2

  9
$PUCSORG
 10
0.0
 20
0.0
 30
0.0
  9
$PUCSXDIR
 10
1.0
 20
0.0
 30
0.0
  9
$PUCSYDIR
 10
0.0
 20
1.0
 30
0.0
  9
$PUCSORTHOREF
  2

  9
$PUCSORTHOVIEW
 70
     0
  9
$PUCSORGTOP
 10
0.0
 20
0.0
 30
0.0
  9
$PUCSORGBOTTOM
 10
0.0
 20
0.0
 30
0.0
  9
$PUCSORGLEFT
 10
0.0
 20
0.0
 30
0.0
  9
$PUCSORGRIGHT
 10
0.0
 20
0.0
 30
0.0
  9
$PUCSORGFRONT
 10
0.0
 20
0.0
 30
0.0
  9
$PUCSORGBACK
 10
0.0
 20
0.0
 30
0.0
  9
$USERI1
 70
     0
  9
$USERI2
 70
     0
  9
$USERI3
 70
     0
  9
$USERI4
 70
     0
  9
$USERI5
 70
     0
  9
$USERR1
 40
0.0
  9
$USERR2
 40
0.0
  9
$USERR3
 40
0.0
  9
$USERR4
 40
0.0
  9
$USERR5
 40
0.0
  9
$WORLDVIEW
 70
     1
  9
$SHADEDGE
 70
     3
  9
$SHADEDIF
 70
    70
  9
$TILEMODE
 70
     1
  9
$MAXACTVP
 70
    16
  9
$PINSBASE
 10
0.0
 20
0.0
 30
0.0
  9
$PLIMCHECK
 70
     0
  9
$PEXTMIN
 10
1.000000000000000E+20
 20
1.000000000000000E+20
 30
1.000000000000000E+20
  9
$PEXTMAX
 10
-1.000000000000000E+20
 20
-1.000000000000000E+20
 30
-1.000000000000000E+20
  9
$PLIMMIN
 10
0.0
 20
0.0
  9
$PLIMMAX
 10
420.0
 20
297.0
  9
$UNITMODE
 70
     0
  9
$VISRETAIN
 70
     0
  9
$PLINEGEN
 70
     0
  9
$PSLTSCALE
 70
     0
  9
$TREEDEPTH
 70
  3020
  9
$CMLSTYLE
  2
STANDARD
  9
$CMLJUST
 70
     0
  9
$CMLSCALE
 40
1.0
  9
$PROXYGRAPHICS
 70
     1
  9
$MEASUREMENT
 70
     0
  9
$CELWEIGHT
370
    -1
  9
$ENDCAPS
280
     0
  9
$JOINSTYLE
280
     0
  9
$LWDISPLAY
290
     0
  9
$INSUNITS
 70
     0
  9
$HYPERLINKBASE
  1

  9
$STYLESHEET
  1

  9
$XEDIT
290
     1
  9
$CEPSNTYPE
380
     0
  9
$PSTYLEMODE
290
     1
  9
$FINGERPRINTGUID
  2
{D82385CA-4FD5-418C-8681-F50E32D377B6}
  9
$VERSIONGUID
  2
{AFCC5C42-7414-41E4-A610-DF66BB7FBFB9}
  9
$EXTNAMES
290
     1
  9
$PSVPSCALE
 40
0.0
  9
$OLESTARTUP
290
     0
  0
ENDSEC
  0
SECTION
  2
CLASSES
  0
CLASS
  1
ACDBDICTIONARYWDFLT
  2
AcDbDictionaryWithDefault
  3
ObjectDBX Classes
 90
        0
280
     0
281
     0
  0
CLASS
  1
ACDBPLACEHOLDER
  2
AcDbPlaceHolder
  3
ObjectDBX Classes
 90
        0
280
     0
281
     0
  0
CLASS
  1
LAYOUT
  2
AcDbLayout
  3
ObjectDBX Classes
 90
        0
280
     0
281
     0
  0
CLASS
  1
DICTIONARYVAR
  2
AcDbDictionaryVar
  3
ObjectDBX Classes
 90
        0
280
     0
281
     0
  0
CLASS
  1
MATERIAL
  2
AcDbMaterial
  3
ObjectDBX Classes
 90
     1153
280
     0
281
     0
  0
CLASS
  1
VISUALSTYLE
  2
AcDbVisualStyle
  3
ObjectDBX Classes
 90
     4095
280
     0
281
     0
  0
CLASS
  1
TABLESTYLE
  2
AcDbTableStyle
  3
ObjectDBX Classes
 90
     4095
280
     0
281
     0
  0
CLASS
  1
SCALE
  2
AcDbScale
  3
ObjectDBX Classes
 90
     1153
280
     0
281
     0
  0
CLASS
  1
MLEADERSTYLE
  2
AcDbMLeaderStyle
  3
ACDB_MLEADERSTYLE_CLASS
 90
     4095
280
     0
281
     0
  0
CLASS
  1
ACDBSECTIONVIEWSTYLE
  2
AcDbSectionViewStyle
  3
ObjectDBX Classes
 90
     1025
280
     0
281
     0
  0
CLASS
  1
ACDBDETAILVIEWSTYLE
  2
AcDbDetailViewStyle
  3
ObjectDBX Classes
 90
     1025
280
     0
281
     0
  0
CLASS
  1
CELLSTYLEMAP
  2
AcDbCellStyleMap
  3
ObjectDBX Classes
 90
     1152
280
     0
281
     0
  0
ENDSEC
  0
SECTION
  2
TABLES
  0
TABLE
  2
VPORT
  5
BE1B
330
0
100
AcDbSymbolTable
 70
     1
  0
VPORT
  5
C024
330
BE1B
100
AcDbSymbolTableRecord
100
AcDbViewportTableRecord
  2
*ACTIVE
 70
     0
 10
0.0
 20
0.0
 11
1.0
 21
1.0
 12
225.826907734289
 22
138.484411996742
 13
0.0
 23
0.0
 14
10.0
 24
10.0
 15
10.0
 25
10.0
 16
0.0
 26
0.0
 36
1.0
 17
0.0
 27
0.0
 37
0.0
 40
259.8688676444602
 41
1.899603698811096
 42
50.0
 43
0.0
 44
0.0
 50
0.0
 51
0.0
 71
     0
 72
   100
 73
     1
 74
     0
 75
     0
 76
     0
 77
     0
 78
     0
281
     0
 65
     1
110
0.0
120
0.0
130
0.0
111
1.0
121
0.0
131
0.0
112
0.0
122
1.0
132
0.0
 79
     0
146
0.0
1001
ACAD_NAV_VCDISPLAY
1070
     3
  0
ENDTAB
  0
TABLE
  2
LTYPE
  5
BE18
330
0
100
AcDbSymbolTable
 70
     4
  0
LTYPE
  5
BE26
330
BE18
100
AcDbSymbolTableRecord
100
AcDbLinetypeTableRecord
  2
BYBLOCK
 70
     0
  3

 72
    65
 73
     0
 40
0.0
  0
LTYPE
  5
BE27
330
BE18
100
AcDbSymbolTableRecord
100
AcDbLinetypeTableRecord
  2
BYLAYER
 70
     0
  3

 72
    65
 73
     0
 40
0.0
  0
LTYPE
  5
BE28
330
BE18
100
AcDbSymbolTableRecord
100
AcDbLinetypeTableRecord
  2
CONTINUOUS
 70
     0
  3
Solid line
 72
    65
 73
     0
 40
0.0
  0
LTYPE
  5
BE36
330
BE18
100
AcDbSymbolTableRecord
100
AcDbLinetypeTableRecord
  2
DASHED
 70
     0
  3
__ __ __ __ __ __ __ __ __ __ __ __ __ __ __ __
 72
    65
 73
     2
 40
0.75
 49
0.5
 74
     0
 49
-0.25
 74
     0
  0
LTYPE
  5
BE37
330
BE18
100
AcDbSymbolTableRecord
100
AcDbLinetypeTableRecord
  2
CENTER
 70
     0
  3
____ _ ____ _ ____ _ ____ _ ____ _ ____ _ ____ 
 72
    65
 73
     4
 40
2.0
 49
1.25
 74
     0
 49
-0.25
 74
     0
 49
0.25
 74
     0
 49
-0.25
 74
     0
  0
LTYPE
  5
BE38
330
BE18
100
AcDbSymbolTableRecord
100
AcDbLinetypeTableRecord
  2
PHANTOM
 70
     0
  3
______  __  __  ______  __  __  ______  __  __ 
 72
    65
 73
     6
 40
2.5
 49
1.25
 74
     0
 49
-0.25
 74
     0
 49
0.25
 74
     0
 49
-0.25
 74
     0
 49
0.25
 74
     0
 49
-0.25
 74
     0
  0
ENDTAB
  0
TABLE
  2
LAYER
  5
BE15
330
0
100
AcDbSymbolTable
 70
     8
  0
LAYER
  5
BE23
102
{ACAD_XDICTIONARY
360
C07F
102
}
330
BE15
100
AcDbSymbolTableRecord
100
AcDbLayerTableRecord
  2
0
 70
     0
 62
     7
  6
CONTINUOUS
370
    -3
390
C02D
  0
LAYER
  5
BE39
102
{ACAD_XDICTIONARY
360
C081
102
}
330
BE15
100
AcDbSymbolTableRecord
100
AcDbLayerTableRecord
  2
4
 70
     0
 62
     1
  6
CENTER
370
    -3
390
C02D
  0
LAYER
  5
BE3A
102
{ACAD_XDICTIONARY
360
C083
102
}
330
BE15
100
AcDbSymbolTableRecord
100
AcDbLayerTableRecord
  2
5
 70
     0
 62
     6
  6
PHANTOM
370
    -3
390
C02D
  0
LAYER
  5
BE3B
102
{ACAD_XDICTIONARY
360
C085
102
}
330
BE15
100
AcDbSymbolTableRecord
100
AcDbLayerTableRecord
  2
1
 70
     0
 62
     7
  6
CONTINUOUS
370
    -3
390
C02D
  0
LAYER
  5
BE3C
102
{ACAD_XDICTIONARY
360
C087
102
}
330
BE15
100
AcDbSymbolTableRecord
100
AcDbLayerTableRecord
  2
2
 70
     0
 62
     4
  6
CONTINUOUS
370
    -3
390
C02D
  0
LAYER
  5
BE3D
102
{ACAD_XDICTIONARY
360
C089
102
}
330
BE15
100
AcDbSymbolTableRecord
100
AcDbLayerTableRecord
  2
3
 70
     0
 62
     2
  6
DASHED
370
    -3
390
C02D
  0
LAYER
  5
BE3E
102
{ACAD_XDICTIONARY
360
C08B
102
}
330
BE15
100
AcDbSymbolTableRecord
100
AcDbLayerTableRecord
  2
6
 70
     0
 62
     5
  6
CONTINUOUS
370
    -3
390
C02D
  0
LAYER
  5
BE3F
102
{ACAD_XDICTIONARY
360
C08D
102
}
330
BE15
100
AcDbSymbolTableRecord
100
AcDbLayerTableRecord
  2
7
 70
     0
 62
     3
  6
CONTINUOUS
370
    -3
390
C02D
  0
ENDTAB
  0
TABLE
  2
STYLE
  5
BE16
330
0
100
AcDbSymbolTable
 70
     1
  0
STYLE
  5
BE24
330
BE16
100
AcDbSymbolTableRecord
100
AcDbTextStyleTableRecord
  2
STANDARD
 70
     0
 40
0.0
 41
1.0
 50
0.0
 71
     0
 42
5.0
  3
txt
  4

  0
ENDTAB
  0
TABLE
  2
VIEW
  5
BE19
330
0
100
AcDbSymbolTable
 70
     0
  0
ENDTAB
  0
TABLE
  2
UCS
  5
BE1A
330
0
100
AcDbSymbolTable
 70
     0
  0
ENDTAB
  0
TABLE
  2
APPID
  5
BE1C
330
0
100
AcDbSymbolTable
 70
     3
  0
APPID
  5
BE25
330
BE1C
100
AcDbSymbolTableRecord
100
AcDbRegAppTableRecord
  2
ACAD
 70
     0
  0
APPID
  5
C099
330
BE1C
100
AcDbSymbolTableRecord
100
AcDbRegAppTableRecord
  2
ACAD_NAV_VCDISPLAY
 70
     0
  0
APPID
  5
C0D2
330
BE1C
100
AcDbSymbolTableRecord
100
AcDbRegAppTableRecord
  2
ACAD_MLEADERVER
 70
     0
  0
ENDTAB
  0
TABLE
  2
DIMSTYLE
  5
BE1D
330
0
100
AcDbSymbolTable
 70
     1
100
AcDbDimStyleTable
 71
     0
  0
DIMSTYLE
105
BE41
330
BE1D
100
AcDbSymbolTableRecord
100
AcDbDimStyleTableRecord
  2
STANDARD
 70
     0
 41
2.5
 42
1.0
 43
10.0
 44
1.0
 73
     0
 74
     0
 77
     3
 78
     8
140
3.2
141
0.0
147
1.0
172
     1
173
     1
284
     8
285
     8
286
     8
340
BE24
  0
ENDTAB
  0
TABLE
  2
BLOCK_RECORD
  5
BE14
330
0
100
AcDbSymbolTable
 70
     0
  0
BLOCK_RECORD
  5
BE31
102
{ACAD_XDICTIONARY
360
C027
102
}
330
BE14
100
AcDbSymbolTableRecord
100
AcDbBlockTableRecord
  2
*MODEL_SPACE
340
C07B
  0
BLOCK_RECORD
  5
BE2D
102
{ACAD_XDICTIONARY
360
C025
102
}
330
BE14
100
AcDbSymbolTableRecord
100
AcDbBlockTableRecord
  2
*PAPER_SPACE
340
C07C
  0
ENDTAB
  0
ENDSEC
  0
SECTION
  2
BLOCKS
  0
BLOCK
  5
BE32
330
BE31
100
AcDbEntity
  8
0
100
AcDbBlockBegin
  2
*MODEL_SPACE
 70
     0
 10
0.0
 20
0.0
 30
0.0
  3
*MODEL_SPACE
  1

  0
ENDBLK
  5
BE33
330
BE31
100
AcDbEntity
  8
0
100
AcDbBlockEnd
  0
BLOCK
  5
BE2E
330
BE2D
100
AcDbEntity
 67
     1
  8
0
100
AcDbBlockBegin
  2
*PAPER_SPACE
 70
     0
 10
0.0
 20
0.0
 30
0.0
  3
*PAPER_SPACE
  1

  0
ENDBLK
  5
BE2F
330
BE2D
100
AcDbEntity
 67
     1
  8
0
100
AcDbBlockEnd
  0
ENDSEC
  0
SECTION
  2
ENTITIES
  0
TEXT
  5
BE49
330
BE31
100
AcDbEntity
  8
7
  6
Continuous
100
AcDbText
 10
10.0
 20
18.0
 30
0.0
 40
3.0
  1
TYPE No.TM-144SUS-100
100
AcDbText
  0
TEXT
  5
BE4A
330
BE31
100
AcDbEntity
  8
7
  6
Continuous
100
AcDbText
 10
10.0
 20
26.0
 30
0.0
 40
3.0
  1
CODE No.5720
100
AcDbText
  0
TEXT
  5
BE4B
330
BE31
100
AcDbEntity
  8
1
  6
Continuous
100
AcDbText
 10
10.0
 20
10.0
 30
0.0
 40
1.399999999999999
  1
LAYER
100
AcDbText
  0
TEXT
  5
BE4C
330
BE31
100
AcDbEntity
  8
1
  6
Continuous
100
AcDbText
 10
17.97951099999998
 20
10.04873699999998
 30
0.0
 40
1.399999999999999
  1
1
100
AcDbText
  0
TEXT
  5
BE4D
330
BE31
100
AcDbEntity
  8
7
  6
Continuous
100
AcDbText
 10
29.97951099999999
 20
10.04873699999998
 30
0.0
 40
1.399999999999999
  1
7
100
AcDbText
  0
TEXT
  5
BE4E
330
BE31
100
AcDbEntity
  8
4
  6
CENTER
100
AcDbText
 10
23.97951099999999
 20
10.04873699999998
 30
0.0
 40
1.399999999999999
  1
4
100
AcDbText
  0
TEXT
  5
BE4F
330
BE31
100
AcDbEntity
  8
3
  6
DASHED
100
AcDbText
 10
21.979511
 20
10.04873699999998
 30
0.0
 40
1.399999999999999
  1
3
100
AcDbText
  0
TEXT
  5
BE50
330
BE31
100
AcDbEntity
  8
2
  6
Continuous
100
AcDbText
 10
19.97951099999999
 20
10.04873699999998
 30
0.0
 40
1.399999999999999
  1
2
100
AcDbText
  0
TEXT
  5
BE51
330
BE31
100
AcDbEntity
  8
6
  6
Continuous
100
AcDbText
 10
27.979511
 20
10.04873699999998
 30
0.0
 40
1.399999999999999
  1
6
100
AcDbText
  0
TEXT
  5
BE52
330
BE31
100
AcDbEntity
  8
5
  6
PHANTOM
100
AcDbText
 10
25.97951099999999
 20
10.04873699999998
 30
0.0
 40
1.399999999999999
  1
5
100
AcDbText
  0
LINE
  5
BE53
330
BE31
100
AcDbEntity
  8
1
  6
Continuous
100
AcDbLine
 10
145.6002389999999
 20
195.4598
 30
0.0
 11
156.6002389999999
 21
195.4598
 31
0.0
  0
LINE
  5
BE54
330
BE31
100
AcDbEntity
  8
1
  6
Continuous
100
AcDbLine
 10
168.3502389999999
 20
196.4362999999999
 30
0.0
 11
168.3502389999999
 21
200.4097999999999
 31
0.0
  0
LINE
  5
BE55
330
BE31
100
AcDbEntity
  8
1
  6
Continuous
100
AcDbLine
 10
160.3502389999999
 20
196.7098
 30
0.0
 11
160.3502389999999
 21
205.9598
 31
0.0
  0
LINE
  5
BE56
330
BE31
100
AcDbEntity
  8
1
  6
Continuous
100
AcDbLine
 10
141.850239
 20
198.4598
 30
0.0
 11
141.850239
 21
205.9598
 31
0.0
  0
LINE
  5
BE57
330
BE31
100
AcDbEntity
  8
4
  6
CENTER
100
AcDbLine
 10
151.1002389999999
 20
86.49978
 30
0.0
 11
151.1002389999999
 21
210.4598
 31
0.0
  0
LINE
  5
BE58
330
BE31
100
AcDbEntity
  8
1
  6
Continuous
100
AcDbLine
 10
143.3502389999999
 20
207.4597999999999
 30
0.0
 11
158.8502389999999
 21
207.4597999999999
 31
0.0
  0
LINE
  5
BE59
330
BE31
100
AcDbEntity
  8
1
  6
Continuous
100
AcDbLine
 10
145.3002389999998
 20
247.4601999999999
 30
0.0
 11
156.900239
 21
247.4601999999999
 31
0.0
  0
LINE
  5
BE5A
330
BE31
100
AcDbEntity
  8
1
  6
Continuous
100
AcDbLine
 10
145.3002389999998
 20
262.9601999999998
 30
0.0
 11
156.900239
 21
262.9601999999998
 31
0.0
  0
LINE
  5
BE5B
330
BE31
100
AcDbEntity
  8
4
  6
CENTER
100
AcDbLine
 10
90.5
 20
255.2102
 30
0.0
 11
211.700477
 21
255.2102
 31
0.0
  0
LINE
  5
BE5C
330
BE31
100
AcDbEntity
  8
4
  6
CENTER
100
AcDbLine
 10
269.4504769999999
 20
86.49978
 30
0.0
 11
269.4504769999999
 21
210.459838
 31
0.0
  0
LINE
  5
BE5D
330
BE31
100
AcDbEntity
  8
1
  6
Continuous
100
AcDbLine
 10
160.3502389999999
 20
250.4601999999999
 30
0.0
 11
160.3502389999999
 21
259.9601999999998
 31
0.0
  0
LINE
  5
BE5E
330
BE31
100
AcDbEntity
  8
4
  6
CENTER
100
AcDbLine
 10
151.1002389999999
 20
243.4601999999999
 30
0.0
 11
151.1002389999999
 21
266.9601999999998
 31
0.0
  0
LINE
  5
BE5F
330
BE31
100
AcDbEntity
  8
1
  6
Continuous
100
AcDbLine
 10
141.850239
 20
250.4601999999999
 30
0.0
 11
141.850239
 21
259.9601999999998
 31
0.0
  0
LINE
  5
BE60
330
BE31
100
AcDbEntity
  8
1
  6
Continuous
100
AcDbLine
 10
141.829405
 20
198.4598
 30
0.0
 11
145.3002389999998
 21
198.4598
 31
0.0
  0
ARC
  5
BE61
330
BE31
100
AcDbEntity
  8
1
  6
Continuous
100
AcDbCircle
 10
143.3502389999999
 20
205.9598
 30
0.0
 40
1.5
100
AcDbArc
 50
90.0
 51
180.0
  0
ARC
  5
BE62
330
BE31
100
AcDbEntity
  8
1
  6
Continuous
100
AcDbCircle
 10
158.8502389999999
 20
205.9598
 30
0.0
 40
1.5
100
AcDbArc
 50
0.0
 51
90.0
  0
LINE
  5
BE63
330
BE31
100
AcDbEntity
  8
1
  6
Continuous
100
AcDbLine
 10
156.900239
 20
198.4598
 30
0.0
 11
160.3502389999999
 21
198.4598
 31
0.0
  0
LINE
  5
BE64
330
BE31
100
AcDbEntity
  8
4
  6
CENTER
100
AcDbLine
 10
134.8502389999999
 20
201.2097999999999
 30
0.0
 11
171.3502389999999
 21
201.2097999999999
 31
0.0
  0
LINE
  5
BE65
330
BE31
100
AcDbEntity
  8
1
  6
Continuous
100
AcDbLine
 10
165.3502389999998
 20
202.0097999999999
 30
0.0
 11
168.3502389999999
 21
202.0097999999999
 31
0.0
  0
LINE
  5
BE66
330
BE31
100
AcDbEntity
  8
1
  6
Continuous
100
AcDbLine
 10
165.3502389999998
 20
200.4097999999999
 30
0.0
 11
168.3502389999999
 21
200.4097999999999
 31
0.0
  0
LINE
  5
BE67
330
BE31
100
AcDbEntity
  8
1
  6
Continuous
100
AcDbLine
 10
165.3502389999998
 20
200.4097999999999
 30
0.0
 11
165.3502389999998
 21
202.0097999999999
 31
0.0
  0
LINE
  5
BE68
330
BE31
100
AcDbEntity
  8
1
  6
Continuous
100
AcDbLine
 10
168.3502389999999
 20
202.0097999999999
 30
0.0
 11
168.3502389999999
 21
205.9833
 31
0.0
  0
LINE
  5
BE69
330
BE31
100
AcDbEntity
  8
4
  6
CENTER
100
AcDbLine
 10
258.7004769999999
 20
201.2098379999999
 30
0.0
 11
280.2004769999999
 21
201.2098379999999
 31
0.0
  0
LINE
  5
BE6A
330
BE31
100
AcDbEntity
  8
1
  6
Continuous
100
AcDbLine
 10
264.4504769999999
 20
202.0098379999998
 30
0.0
 11
274.4504769999999
 21
202.0098379999998
 31
0.0
  0
LINE
  5
BE6B
330
BE31
100
AcDbEntity
  8
1
  6
Continuous
100
AcDbLine
 10
264.4504769999999
 20
200.4098379999998
 30
0.0
 11
274.4504769999999
 21
200.4098379999998
 31
0.0
  0
LINE
  5
BE6C
330
BE31
100
AcDbEntity
  8
1
  6
Continuous
100
AcDbLine
 10
275.7004769999999
 20
198.4598379999999
 30
0.0
 11
275.7004769999999
 21
202.591526
 31
0.0
  0
LINE
  5
BE6D
330
BE31
100
AcDbEntity
  8
1
  6
Continuous
100
AcDbLine
 10
263.2004769999999
 20
198.4598379999999
 30
0.0
 11
263.2004769999999
 21
202.591526
 31
0.0
  0
LINE
  5
BE6E
330
BE31
100
AcDbEntity
  8
1
  6
Continuous
100
AcDbLine
 10
262.783054
 20
198.4598379999999
 30
0.0
 11
264.5527729999999
 21
198.4598379999999
 31
0.0
  0
LINE
  5
BE6F
330
BE31
100
AcDbEntity
  8
1
  6
Continuous
100
AcDbLine
 10
274.348181
 20
198.4598379999999
 30
0.0
 11
276.1179
 21
198.4598379999999
 31
0.0
  0
ARC
  5
BE70
330
BE31
100
AcDbEntity
  8
1
  6
Continuous
100
AcDbCircle
 10
263.2004769999999
 20
196.9598379999999
 30
0.0
 40
1.5
100
AcDbArc
 50
180.0
 51
260.405932
  0
ARC
  5
BE71
330
BE31
100
AcDbEntity
  8
1
  6
Continuous
100
AcDbCircle
 10
275.7004769999999
 20
196.9598379999999
 30
0.0
 40
1.5
100
AcDbArc
 50
279.594068
 51
0.0
  0
LINE
  5
BE72
330
BE31
100
AcDbEntity
  8
1
  6
Continuous
100
AcDbLine
 10
143.3502389999999
 20
261.4602
 30
0.0
 11
144.1002389999999
 21
261.4602
 31
0.0
  0
LINE
  5
BE73
330
BE31
100
AcDbEntity
  8
1
  6
Continuous
100
AcDbLine
 10
143.3502389999999
 20
248.9602
 30
0.0
 11
144.1002389999999
 21
248.9602
 31
0.0
  0
LINE
  5
BE74
330
BE31
100
AcDbEntity
  8
1
  6
Continuous
100
AcDbLine
 10
158.1002389999999
 20
261.4602
 30
0.0
 11
158.8502389999999
 21
261.4602
 31
0.0
  0
LINE
  5
BE75
330
BE31
100
AcDbEntity
  8
1
  6
Continuous
100
AcDbLine
 10
158.1002389999999
 20
248.9602
 30
0.0
 11
158.8502389999999
 21
248.9602
 31
0.0
  0
LINE
  5
BE76
330
BE31
100
AcDbEntity
  8
1
  6
Continuous
100
AcDbLine
 10
276.362781
 20
196.378354
 30
0.0
 11
275.9504769999999
 21
196.3598
 31
0.0
  0
LINE
  5
BE77
330
BE31
100
AcDbEntity
  8
1
  6
Continuous
100
AcDbLine
 10
262.538174
 20
196.378354
 30
0.0
 11
262.950477
 21
196.3598
 31
0.0
  0
ARC
  5
BE78
330
BE31
100
AcDbEntity
  8
1
  6
Continuous
100
AcDbCircle
 10
158.8502389999999
 20
259.9601999999998
 30
0.0
 40
1.5
100
AcDbArc
 50
0.0
 51
90.0
  0
ARC
  5
BE79
330
BE31
100
AcDbEntity
  8
1
  6
Continuous
100
AcDbCircle
 10
143.3502389999999
 20
259.9601999999998
 30
0.0
 40
1.5
100
AcDbArc
 50
90.0
 51
180.0
  0
ARC
  5
BE7A
330
BE31
100
AcDbEntity
  8
1
  6
Continuous
100
AcDbCircle
 10
143.3502389999999
 20
250.4601999999999
 30
0.0
 40
1.5
100
AcDbArc
 50
180.0
 51
270.0
  0
ARC
  5
BE7B
330
BE31
100
AcDbEntity
  8
1
  6
Continuous
100
AcDbCircle
 10
158.8502389999999
 20
250.4601999999999
 30
0.0
 40
1.5
100
AcDbArc
 50
270.0
 51
0.0
  0
ARC
  5
BE7C
330
BE31
100
AcDbEntity
  8
1
  6
Continuous
100
AcDbCircle
 10
141.850239
 20
255.2102
 30
0.0
 40
3.0
100
AcDbArc
 50
90.0
 51
270.0
  0
ARC
  5
BE7D
330
BE31
100
AcDbEntity
  8
1
  6
Continuous
100
AcDbCircle
 10
141.839822
 20
201.4597999999999
 30
0.0
 40
3.000017999999998
100
AcDbArc
 50
89.80105700000001
 51
270.1989429999999
  0
LINE
  5
BE7E
330
BE31
100
AcDbEntity
  8
1
  6
Continuous
100
AcDbLine
 10
156.6002389999999
 20
195.4598
 30
0.0
 11
156.900239
 21
198.4598
 31
0.0
  0
LINE
  5
BE7F
330
BE31
100
AcDbEntity
  8
1
  6
Continuous
100
AcDbLine
 10
145.3002389999998
 20
198.4598
 30
0.0
 11
145.6002389999999
 21
195.4598
 31
0.0
  0
ARC
  5
BE80
330
BE31
100
AcDbEntity
  8
1
  6
Continuous
100
AcDbCircle
 10
151.1002389999999
 20
194.353133
 30
0.0
 40
7.106666999999997
100
AcDbArc
 50
35.30024799999999
 51
144.6997519999999
  0
LINE
  5
BE81
330
BE31
100
AcDbEntity
  8
1
  6
Continuous
100
AcDbLine
 10
162.3502389999998
 20
195.9597999999998
 30
0.0
 11
162.3502389999998
 21
206.4598
 31
0.0
  0
ARC
  5
BE82
330
BE31
100
AcDbEntity
  8
1
  6
Continuous
100
AcDbCircle
 10
167.3502389999999
 20
205.9833
 30
0.0
 40
1.0
100
AcDbArc
 50
0.0
 51
28.45706
  0
ARC
  5
BE83
330
BE31
100
AcDbEntity
  8
1
  6
Continuous
100
AcDbCircle
 10
167.3502389999999
 20
196.4362999999999
 30
0.0
 40
1.0
100
AcDbArc
 50
331.5429399999998
 51
0.0
  0
LINE
  5
BE84
330
BE31
100
AcDbEntity
  8
1
  6
Continuous
100
AcDbLine
 10
164.323584
 20
203.4597999999999
 30
0.0
 11
166.5502389999998
 21
203.4597999999999
 31
0.0
  0
LINE
  5
BE85
330
BE31
100
AcDbEntity
  8
1
  6
Continuous
100
AcDbLine
 10
164.323584
 20
198.9597999999998
 30
0.0
 11
166.5502389999998
 21
198.9597999999998
 31
0.0
  0
ARC
  5
BE86
330
BE31
100
AcDbEntity
  8
1
  6
Continuous
100
AcDbCircle
 10
165.436911
 20
204.8601679999999
 30
0.0
 40
6.004484999999997
100
AcDbArc
 50
239.065273
 51
259.3146159999998
  0
ARC
  5
BE87
330
BE31
100
AcDbEntity
  8
1
  6
Continuous
100
AcDbCircle
 10
165.436911
 20
197.5594319999999
 30
0.0
 40
6.004484999999997
100
AcDbArc
 50
60.974955
 51
79.314616
  0
ARC
  5
BE88
330
BE31
100
AcDbEntity
  8
1
  6
Continuous
100
AcDbCircle
 10
165.436911
 20
197.5594319999999
 30
0.0
 40
6.004484999999997
100
AcDbArc
 50
100.6853839999999
 51
120.934727
  0
ARC
  5
BE89
330
BE31
100
AcDbEntity
  8
1
  6
Continuous
100
AcDbCircle
 10
165.436911
 20
204.8601679999999
 30
0.0
 40
6.004484999999997
100
AcDbArc
 50
280.685384
 51
299.0250449999999
  0
LINE
  5
BE8A
330
BE31
100
AcDbEntity
  8
1
  6
Continuous
100
AcDbLine
 10
164.323584
 20
204.7598
 30
0.0
 11
166.5502389999998
 21
204.7598
 31
0.0
  0
LINE
  5
BE8B
330
BE31
100
AcDbEntity
  8
1
  6
Continuous
100
AcDbLine
 10
164.323584
 20
197.6597999999999
 30
0.0
 11
166.5502389999998
 21
197.6597999999999
 31
0.0
  0
ARC
  5
BE8C
330
BE31
100
AcDbEntity
  8
1
  6
Continuous
100
AcDbCircle
 10
165.436911
 20
210.660168
 30
0.0
 40
6.004484999999997
100
AcDbArc
 50
239.065273
 51
259.3146159999998
  0
ARC
  5
BE8D
330
BE31
100
AcDbEntity
  8
1
  6
Continuous
100
AcDbCircle
 10
165.436911
 20
191.759432
 30
0.0
 40
6.004484999999997
100
AcDbArc
 50
60.974955
 51
79.314616
  0
ARC
  5
BE8E
330
BE31
100
AcDbEntity
  8
1
  6
Continuous
100
AcDbCircle
 10
165.436911
 20
191.759432
 30
0.0
 40
6.004484999999997
100
AcDbArc
 50
100.6853839999999
 51
120.934727
  0
ARC
  5
BE8F
330
BE31
100
AcDbEntity
  8
1
  6
Continuous
100
AcDbCircle
 10
165.436911
 20
210.660168
 30
0.0
 40
6.004484999999997
100
AcDbArc
 50
280.685384
 51
299.0250449999999
  0
LINE
  5
BE90
330
BE31
100
AcDbEntity
  8
1
  6
Continuous
100
AcDbLine
 10
160.3502389999999
 20
205.7097999999998
 30
0.0
 11
162.3502389999998
 21
205.7097999999998
 31
0.0
  0
LINE
  5
BE91
330
BE31
100
AcDbEntity
  8
1
  6
Continuous
100
AcDbLine
 10
160.3502389999999
 20
196.7098
 30
0.0
 11
162.3502389999998
 21
196.7098
 31
0.0
  0
ARC
  5
BE92
330
BE31
100
AcDbEntity
  8
1
  6
Continuous
100
AcDbCircle
 10
165.289826
 20
202.433993
 30
0.0
 40
7.110299
100
AcDbArc
 50
245.5797249999998
 51
254.238518
  0
ARC
  5
BE93
330
BE31
100
AcDbEntity
  8
1
  6
Continuous
100
AcDbCircle
 10
165.289826
 20
199.9856069999999
 30
0.0
 40
7.110299
100
AcDbArc
 50
65.57972499999999
 51
74.24076499999998
  0
ARC
  5
BE94
330
BE31
100
AcDbEntity
  8
1
  6
Continuous
100
AcDbCircle
 10
165.289826
 20
199.9856069999999
 30
0.0
 40
7.110299
100
AcDbArc
 50
105.7592349999999
 51
114.420275
  0
ARC
  5
BE95
330
BE31
100
AcDbEntity
  8
1
  6
Continuous
100
AcDbCircle
 10
165.289826
 20
202.433993
 30
0.0
 40
7.110299
100
AcDbArc
 50
285.761482
 51
294.420275
  0
LINE
  5
BE96
330
BE31
100
AcDbEntity
  8
1
  6
Continuous
100
AcDbLine
 10
160.3502389999999
 20
259.7102
 30
0.0
 11
162.3502389999998
 21
259.7102
 31
0.0
  0
LINE
  5
BE97
330
BE31
100
AcDbEntity
  8
1
  6
Continuous
100
AcDbLine
 10
160.3502389999999
 20
250.7101999999999
 30
0.0
 11
162.3502389999998
 21
250.7101999999999
 31
0.0
  0
LINE
  5
BE98
330
BE31
100
AcDbEntity
  8
1
  6
Continuous
100
AcDbLine
 10
162.3502389999998
 20
250.2101999999999
 30
0.0
 11
162.3502389999998
 21
260.2101999999998
 31
0.0
  0
LINE
  5
BE99
330
BE31
100
AcDbEntity
  8
1
  6
Continuous
100
AcDbLine
 10
162.3502389999998
 20
260.2101999999998
 30
0.0
 11
167.3502389999999
 21
260.2101999999998
 31
0.0
  0
LINE
  5
BE9A
330
BE31
100
AcDbEntity
  8
1
  6
Continuous
100
AcDbLine
 10
162.3502389999998
 20
250.2101999999999
 30
0.0
 11
167.3502389999999
 21
250.2101999999999
 31
0.0
  0
LINE
  5
BE9B
330
BE31
100
AcDbEntity
  8
1
  6
Continuous
100
AcDbLine
 10
168.3502389999999
 20
251.2102
 30
0.0
 11
168.3502389999999
 21
259.2102
 31
0.0
  0
LINE
  5
BE9C
330
BE31
100
AcDbEntity
  8
1
  6
Continuous
100
AcDbLine
 10
164.589369
 20
255.7101999999999
 30
0.0
 11
166.5502389999998
 21
255.7101999999999
 31
0.0
  0
LINE
  5
BE9D
330
BE31
100
AcDbEntity
  8
1
  6
Continuous
100
AcDbLine
 10
164.589369
 20
254.7101999999999
 30
0.0
 11
166.5502389999998
 21
254.7101999999999
 31
0.0
  0
ARC
  5
BE9E
330
BE31
100
AcDbEntity
  8
1
  6
Continuous
100
AcDbCircle
 10
165.569804
 20
259.594983
 30
0.0
 40
4.006592999999998
100
AcDbArc
 50
216.5279299999999
 51
255.8355779999999
  0
ARC
  5
BE9F
330
BE31
100
AcDbEntity
  8
1
  6
Continuous
100
AcDbCircle
 10
165.569804
 20
250.8254169999999
 30
0.0
 40
4.006592999999998
100
AcDbArc
 50
46.05521399999997
 51
75.835578
  0
ARC
  5
BEA0
330
BE31
100
AcDbEntity
  8
1
  6
Continuous
100
AcDbCircle
 10
165.569804
 20
259.594983
 30
0.0
 40
4.006592999999998
100
AcDbArc
 50
284.164422
 51
313.9447859999999
  0
ARC
  5
BEA1
330
BE31
100
AcDbEntity
  8
1
  6
Continuous
100
AcDbCircle
 10
165.569804
 20
250.8254169999999
 30
0.0
 40
4.006592999999998
100
AcDbArc
 50
104.164422
 51
143.4720699999998
  0
ARC
  5
BEA2
330
BE31
100
AcDbEntity
  8
1
  6
Continuous
100
AcDbCircle
 10
167.3502389999999
 20
259.2102
 30
0.0
 40
1.0
100
AcDbArc
 50
0.0
 51
90.0
  0
ARC
  5
BEA3
330
BE31
100
AcDbEntity
  8
1
  6
Continuous
100
AcDbCircle
 10
167.3502389999999
 20
251.2102
 30
0.0
 40
1.0
100
AcDbArc
 50
270.0
 51
0.0
  0
ARC
  5
BEA4
330
BE31
100
AcDbEntity
  8
1
  6
Continuous
100
AcDbCircle
 10
165.714562
 20
254.4000419999999
 30
0.0
 40
5.869947999999999
100
AcDbArc
 50
64.77410899999999
 51
81.81526300000001
  0
ARC
  5
BEA5
330
BE31
100
AcDbEntity
  8
1
  6
Continuous
100
AcDbCircle
 10
165.714562
 20
256.020358
 30
0.0
 40
5.869947999999999
100
AcDbArc
 50
235.030267
 51
261.815263
  0
ARC
  5
BEA6
330
BE31
100
AcDbEntity
  8
1
  6
Continuous
100
AcDbCircle
 10
165.714562
 20
254.4000419999999
 30
0.0
 40
5.869947999999999
100
AcDbArc
 50
98.184737
 51
124.969733
  0
ARC
  5
BEA7
330
BE31
100
AcDbEntity
  8
1
  6
Continuous
100
AcDbCircle
 10
165.714562
 20
256.020358
 30
0.0
 40
5.869947999999999
100
AcDbArc
 50
278.1847369999999
 51
295.225891
  0
ARC
  5
BEA8
330
BE31
100
AcDbEntity
  8
1
  6
Continuous
100
AcDbCircle
 10
269.4504769999999
 20
201.2098379999999
 30
0.0
 40
4.5
100
AcDbArc
 50
190.240348
 51
349.759652
  0
ARC
  5
BEA9
330
BE31
100
AcDbEntity
  8
1
  6
Continuous
100
AcDbCircle
 10
269.4504769999999
 20
201.2098379999999
 30
0.0
 40
4.5
100
AcDbArc
 50
10.24034799999999
 51
169.7596519999999
  0
LINE
  5
BEAA
330
BE31
100
AcDbEntity
  8
1
  6
Continuous
100
AcDbLine
 10
277.2004769999999
 20
196.9598379999999
 30
0.0
 11
276.591627
 21
202.135062
 31
0.0
  0
LINE
  5
BEAB
330
BE31
100
AcDbEntity
  8
1
  6
Continuous
100
AcDbLine
 10
261.7004769999999
 20
196.9598379999999
 30
0.0
 11
262.309327
 21
202.135062
 31
0.0
  0
LINE
  5
BEAC
330
BE31
100
AcDbEntity
  8
1
  6
Continuous
100
AcDbLine
 10
262.538174
 20
196.378354
 30
0.0
 11
262.783054
 21
198.4598379999999
 31
0.0
  0
LINE
  5
BEAD
330
BE31
100
AcDbEntity
  8
1
  6
Continuous
100
AcDbLine
 10
276.362781
 20
196.378354
 30
0.0
 11
276.1179
 21
198.4598379999999
 31
0.0
  0
LINE
  5
BEAE
330
BE31
100
AcDbEntity
  8
1
  6
Continuous
100
AcDbLine
 10
167.220952
 20
206.8286399999998
 30
0.0
 11
163.3587
 21
206.8286399999998
 31
0.0
  0
LINE
  5
BEAF
330
BE31
100
AcDbEntity
  8
1
  6
Continuous
100
AcDbLine
 10
167.2212199999998
 20
195.591036
 30
0.0
 11
163.3584319999999
 21
195.591036
 31
0.0
  0
ARC
  5
BEB0
330
BE31
100
AcDbEntity
  8
1
  6
Continuous
100
AcDbCircle
 10
269.4504769999999
 20
201.0137169999999
 30
0.0
 40
6.446082999999998
100
AcDbArc
 50
14.168254
 51
165.831746
  0
ARC
  5
BEB1
330
BE31
100
AcDbEntity
  8
1
  6
Continuous
100
AcDbCircle
 10
263.7990529999999
 20
201.9598
 30
0.0
 40
1.5
100
AcDbArc
 50
102.599855
 51
173.2901629999998
  0
ARC
  5
BEB2
330
BE31
100
AcDbEntity
  8
1
  6
Continuous
100
AcDbCircle
 10
275.101902
 20
201.9598
 30
0.0
 40
1.5
100
AcDbArc
 50
6.709836999999998
 51
77.40014499999998
  0
LINE
  5
BEB3
330
BE31
100
AcDbEntity
  8
1
  6
Continuous
100
AcDbLine
 10
275.9504769999999
 20
96.49978
 30
0.0
 11
275.9504769999999
 21
197.7002569999999
 31
0.0
  0
LINE
  5
BEB4
330
BE31
100
AcDbEntity
  8
1
  6
Continuous
100
AcDbLine
 10
262.950477
 20
96.49978
 30
0.0
 11
262.950477
 21
197.7002569999999
 31
0.0
  0
LINE
  5
BEB5
330
BE31
100
AcDbEntity
  8
1
  6
Continuous
100
AcDbLine
 10
100.5
 20
261.7102
 30
0.0
 11
144.3002389999998
 21
261.7102
 31
0.0
  0
LINE
  5
BEB6
330
BE31
100
AcDbEntity
  8
1
  6
Continuous
100
AcDbLine
 10
100.5
 20
248.7101999999999
 30
0.0
 11
144.3002389999998
 21
248.7101999999999
 31
0.0
  0
LINE
  5
BEB7
330
BE31
100
AcDbEntity
  8
1
  6
Continuous
100
AcDbLine
 10
157.900239
 20
261.7102
 30
0.0
 11
201.700477
 21
261.7102
 31
0.0
  0
LINE
  5
BEB8
330
BE31
100
AcDbEntity
  8
1
  6
Continuous
100
AcDbLine
 10
157.900239
 20
248.7101999999999
 30
0.0
 11
201.700477
 21
248.7101999999999
 31
0.0
  0
LINE
  5
BEB9
330
BE31
100
AcDbEntity
  8
4
  6
CENTER
100
AcDbLine
 10
22.0
 20
201.2098379999999
 30
0.0
 11
43.5
 21
201.2098379999999
 31
0.0
  0
LINE
  5
BEBA
330
BE31
100
AcDbEntity
  8
4
  6
CENTER
100
AcDbLine
 10
32.75
 20
86.49978
 30
0.0
 11
32.75
 21
210.459838
 31
0.0
  0
ARC
  5
BEBB
330
BE31
100
AcDbEntity
  8
1
  6
Continuous
100
AcDbCircle
 10
32.75
 20
201.0137169999999
 30
0.0
 40
6.446082999999998
100
AcDbArc
 50
14.168254
 51
165.831746
  0
LINE
  5
BEBC
330
BE31
100
AcDbEntity
  8
1
  6
Continuous
100
AcDbLine
 10
39.25
 20
96.49978
 30
0.0
 11
39.25
 21
197.7002569999999
 31
0.0
  0
LINE
  5
BEBD
330
BE31
100
AcDbEntity
  8
1
  6
Continuous
100
AcDbLine
 10
26.25
 20
96.49978
 30
0.0
 11
26.25
 21
197.7002569999999
 31
0.0
  0
ARC
  5
BEBE
330
BE31
100
AcDbEntity
  8
1
  6
Continuous
100
AcDbCircle
 10
26.5
 20
196.9598379999999
 30
0.0
 40
1.5
100
AcDbArc
 50
180.0
 51
260.405932
  0
LINE
  5
BEBF
330
BE31
100
AcDbEntity
  8
1
  6
Continuous
100
AcDbLine
 10
25.0
 20
196.9598379999999
 30
0.0
 11
25.60885
 21
202.135062
 31
0.0
  0
ARC
  5
BEC0
330
BE31
100
AcDbEntity
  8
1
  6
Continuous
100
AcDbCircle
 10
27.098576
 20
201.9598
 30
0.0
 40
1.5
100
AcDbArc
 50
102.599855
 51
173.2901629999998
  0
LINE
  5
BEC1
330
BE31
100
AcDbEntity
  8
1
  6
Continuous
100
AcDbLine
 10
39.0
 20
198.4598379999999
 30
0.0
 11
39.0
 21
202.591526
 31
0.0
  0
LINE
  5
BEC2
330
BE31
100
AcDbEntity
  8
1
  6
Continuous
100
AcDbLine
 10
37.68761400000001
 20
198.4598379999999
 30
0.0
 11
39.41742299999999
 21
198.4598379999999
 31
0.0
  0
ARC
  5
BEC3
330
BE31
100
AcDbEntity
  8
1
  6
Continuous
100
AcDbCircle
 10
39.0
 20
196.9598379999999
 30
0.0
 40
1.5
100
AcDbArc
 50
279.594068
 51
0.0
  0
LINE
  5
BEC4
330
BE31
100
AcDbEntity
  8
1
  6
Continuous
100
AcDbLine
 10
39.662304
 20
196.378354
 30
0.0
 11
39.25
 21
196.3598
 31
0.0
  0
LINE
  5
BEC5
330
BE31
100
AcDbEntity
  8
1
  6
Continuous
100
AcDbLine
 10
40.49999999999999
 20
196.9598379999999
 30
0.0
 11
39.89115
 21
202.135062
 31
0.0
  0
LINE
  5
BEC6
330
BE31
100
AcDbEntity
  8
1
  6
Continuous
100
AcDbLine
 10
39.662304
 20
196.378354
 30
0.0
 11
39.41742299999999
 21
198.4598379999999
 31
0.0
  0
ARC
  5
BEC7
330
BE31
100
AcDbEntity
  8
1
  6
Continuous
100
AcDbCircle
 10
38.40142399999999
 20
201.9598
 30
0.0
 40
1.5
100
AcDbArc
 50
6.709836999999998
 51
77.40014499999998
  0
LINE
  5
BEC8
330
BE31
100
AcDbEntity
  8
1
  6
Continuous
100
AcDbLine
 10
26.5
 20
198.4598379999999
 30
0.0
 11
26.5
 21
202.591526
 31
0.0
  0
LINE
  5
BEC9
330
BE31
100
AcDbEntity
  8
1
  6
Continuous
100
AcDbLine
 10
25.837696
 20
196.378354
 30
0.0
 11
26.25
 21
196.3598
 31
0.0
  0
LINE
  5
BECA
330
BE31
100
AcDbEntity
  8
1
  6
Continuous
100
AcDbLine
 10
25.837696
 20
196.378354
 30
0.0
 11
26.082577
 21
198.4598379999999
 31
0.0
  0
LINE
  5
BECB
330
BE31
100
AcDbEntity
  8
1
  6
Continuous
100
AcDbLine
 10
26.082577
 20
198.4598379999999
 30
0.0
 11
27.812386
 21
198.4598379999999
 31
0.0
  0
CIRCLE
  5
BECC
330
BE31
100
AcDbEntity
  8
1
  6
Continuous
100
AcDbCircle
 10
32.75
 20
201.4597999999999
 30
0.0
 40
3.0
  0
LINE
  5
BECD
330
BE31
100
AcDbEntity
  8
1
  6
Continuous
100
AcDbLine
 10
29.76504099999999
 20
201.7598379999999
 30
0.0
 11
28.74612899999998
 21
199.1018919999999
 31
0.0
  0
LINE
  5
BECE
330
BE31
100
AcDbEntity
  8
1
  6
Continuous
100
AcDbLine
 10
35.73495900000001
 20
201.7598379999999
 30
0.0
 11
36.753871
 21
199.1018919999999
 31
0.0
  0
ARC
  5
BECF
330
BE31
100
AcDbEntity
  8
1
  6
Continuous
100
AcDbCircle
 10
37.68761400000001
 20
199.459838
 30
0.0
 40
1.0
100
AcDbArc
 50
200.9741219999999
 51
270.0
  0
ARC
  5
BED0
330
BE31
100
AcDbEntity
  8
1
  6
Continuous
100
AcDbCircle
 10
27.812386
 20
199.459838
 30
0.0
 40
1.0
100
AcDbArc
 50
270.0
 51
339.0258779999999
  0
LINE
  5
BED1
330
BE31
100
AcDbEntity
  8
4
  6
CENTER
100
AcDbLine
 10
151.1002389999999
 20
37.0
 30
0.0
 11
151.1002389999999
 21
60.5
 31
0.0
  0
LINE
  5
BED2
330
BE31
100
AcDbEntity
  8
1
  6
Continuous
100
AcDbLine
 10
100.5
 20
42.25
 30
0.0
 11
201.700477
 21
42.25
 31
0.0
  0
LINE
  5
BED3
330
BE31
100
AcDbEntity
  8
1
  6
Continuous
100
AcDbLine
 10
145.3002389999998
 20
41.0
 30
0.0
 11
156.900239
 21
41.0
 31
0.0
  0
LINE
  5
BED4
330
BE31
100
AcDbEntity
  8
1
  6
Continuous
100
AcDbLine
 10
100.5
 20
55.25
 30
0.0
 11
201.700477
 21
55.25
 31
0.0
  0
LINE
  5
BED5
330
BE31
100
AcDbEntity
  8
4
  6
CENTER
100
AcDbLine
 10
90.5
 20
48.75
 30
0.0
 11
211.700477
 21
48.75
 31
0.0
  0
LINE
  5
BED6
330
BE31
100
AcDbEntity
  8
1
  6
Continuous
100
AcDbLine
 10
145.3002389999998
 20
56.5
 30
0.0
 11
156.900239
 21
56.5
 31
0.0
  0
LINE
  5
BED7
330
BE31
100
AcDbEntity
  8
1
  6
Continuous
100
AcDbLine
 10
32.891584
 20
174.906009
 30
0.0
 11
35.6
 21
174.906009
 31
0.0
  0
ARC
  5
BED8
330
BE31
100
AcDbEntity
  8
1
  6
Continuous
100
AcDbCircle
 10
35.6
 20
175.206009
 30
0.0
 40
0.3
100
AcDbArc
 50
270.0
 51
90.0
  0
ARC
  5
BED9
330
BE31
100
AcDbEntity
  8
1
  6
Continuous
100
AcDbCircle
 10
29.9
 20
175.8060089999999
 30
0.0
 40
0.3
100
AcDbArc
 50
90.0
 51
270.0
  0
LINE
  5
BEDA
330
BE31
100
AcDbEntity
  8
1
  6
Continuous
100
AcDbLine
 10
29.9
 20
175.506009
 30
0.0
 11
32.891584
 21
174.906009
 31
0.0
  0
LINE
  5
BEDB
330
BE31
100
AcDbEntity
  8
1
  6
Continuous
100
AcDbLine
 10
35.6
 20
175.506009
 30
0.0
 11
29.9
 21
176.1060089999998
 31
0.0
  0
LINE
  5
BEDC
330
BE31
100
AcDbEntity
  8
1
  6
Continuous
100
AcDbLine
 10
35.6
 20
177.906009
 30
0.0
 11
29.9
 21
178.5060089999998
 31
0.0
  0
ARC
  5
BEDD
330
BE31
100
AcDbEntity
  8
1
  6
Continuous
100
AcDbCircle
 10
35.6
 20
177.606009
 30
0.0
 40
0.3
100
AcDbArc
 50
270.0
 51
90.0
  0
LINE
  5
BEDE
330
BE31
100
AcDbEntity
  8
1
  6
Continuous
100
AcDbLine
 10
32.891584
 20
177.3060089999999
 30
0.0
 11
35.6
 21
177.3060089999999
 31
0.0
  0
LINE
  5
BEDF
330
BE31
100
AcDbEntity
  8
1
  6
Continuous
100
AcDbLine
 10
29.9
 20
177.906009
 30
0.0
 11
32.891584
 21
177.3060089999999
 31
0.0
  0
ARC
  5
BEE0
330
BE31
100
AcDbEntity
  8
1
  6
Continuous
100
AcDbCircle
 10
29.9
 20
178.2060089999999
 30
0.0
 40
0.3
100
AcDbArc
 50
90.0
 51
270.0
  0
LINE
  5
BEE1
330
BE31
100
AcDbEntity
  8
1
  6
Continuous
100
AcDbLine
 10
32.891584
 20
179.7060089999999
 30
0.0
 11
35.6
 21
179.7060089999999
 31
0.0
  0
ARC
  5
BEE2
330
BE31
100
AcDbEntity
  8
1
  6
Continuous
100
AcDbCircle
 10
35.6
 20
180.006009
 30
0.0
 40
0.3
100
AcDbArc
 50
270.0
 51
90.0
  0
LINE
  5
BEE3
330
BE31
100
AcDbEntity
  8
1
  6
Continuous
100
AcDbLine
 10
35.6
 20
180.3060089999999
 30
0.0
 11
29.9
 21
180.906009
 31
0.0
  0
LINE
  5
BEE4
330
BE31
100
AcDbEntity
  8
1
  6
Continuous
100
AcDbLine
 10
29.9
 20
180.3060089999999
 30
0.0
 11
32.891584
 21
179.7060089999999
 31
0.0
  0
ARC
  5
BEE5
330
BE31
100
AcDbEntity
  8
1
  6
Continuous
100
AcDbCircle
 10
29.9
 20
180.606009
 30
0.0
 40
0.3
100
AcDbArc
 50
90.0
 51
270.0
  0
LINE
  5
BEE6
330
BE31
100
AcDbEntity
  8
1
  6
Continuous
100
AcDbLine
 10
35.6
 20
182.356148
 30
0.0
 11
29.9
 21
182.9561479999999
 31
0.0
  0
ARC
  5
BEE7
330
BE31
100
AcDbEntity
  8
1
  6
Continuous
100
AcDbCircle
 10
35.6
 20
182.056148
 30
0.0
 40
0.3
100
AcDbArc
 50
270.0
 51
90.0
  0
LINE
  5
BEE8
330
BE31
100
AcDbEntity
  8
1
  6
Continuous
100
AcDbLine
 10
32.891584
 20
181.7561479999999
 30
0.0
 11
35.6
 21
181.7561479999999
 31
0.0
  0
ARC
  5
BEE9
330
BE31
100
AcDbEntity
  8
1
  6
Continuous
100
AcDbCircle
 10
29.9
 20
182.656148
 30
0.0
 40
0.3
100
AcDbArc
 50
90.0
 51
270.0
  0
LINE
  5
BEEA
330
BE31
100
AcDbEntity
  8
1
  6
Continuous
100
AcDbLine
 10
29.9
 20
182.356148
 30
0.0
 11
32.891584
 21
181.7561479999999
 31
0.0
  0
LINE
  5
BEEB
330
BE31
100
AcDbEntity
  8
1
  6
Continuous
100
AcDbLine
 10
32.891584
 20
184.156148
 30
0.0
 11
35.6
 21
184.156148
 31
0.0
  0
ARC
  5
BEEC
330
BE31
100
AcDbEntity
  8
1
  6
Continuous
100
AcDbCircle
 10
35.6
 20
184.4561479999999
 30
0.0
 40
0.3
100
AcDbArc
 50
270.0
 51
90.0
  0
LINE
  5
BEED
330
BE31
100
AcDbEntity
  8
1
  6
Continuous
100
AcDbLine
 10
35.6
 20
184.7561479999999
 30
0.0
 11
29.9
 21
185.3561479999999
 31
0.0
  0
LINE
  5
BEEE
330
BE31
100
AcDbEntity
  8
1
  6
Continuous
100
AcDbLine
 10
29.9
 20
184.7561479999999
 30
0.0
 11
32.891584
 21
184.156148
 31
0.0
  0
ARC
  5
BEEF
330
BE31
100
AcDbEntity
  8
1
  6
Continuous
100
AcDbCircle
 10
29.9
 20
185.056148
 30
0.0
 40
0.3
100
AcDbArc
 50
90.0
 51
270.0
  0
LINE
  5
BEF0
330
BE31
100
AcDbEntity
  8
1
  6
Continuous
100
AcDbLine
 10
35.6
 20
186.7063249999999
 30
0.0
 11
29.9
 21
187.3063249999999
 31
0.0
  0
ARC
  5
BEF1
330
BE31
100
AcDbEntity
  8
1
  6
Continuous
100
AcDbCircle
 10
35.6
 20
186.406325
 30
0.0
 40
0.3
100
AcDbArc
 50
270.0
 51
90.0
  0
LINE
  5
BEF2
330
BE31
100
AcDbEntity
  8
1
  6
Continuous
100
AcDbLine
 10
32.891584
 20
186.1063249999999
 30
0.0
 11
35.6
 21
186.1063249999999
 31
0.0
  0
LINE
  5
BEF3
330
BE31
100
AcDbEntity
  8
1
  6
Continuous
100
AcDbLine
 10
29.9
 20
186.7063249999999
 30
0.0
 11
32.891584
 21
186.1063249999999
 31
0.0
  0
ARC
  5
BEF4
330
BE31
100
AcDbEntity
  8
1
  6
Continuous
100
AcDbCircle
 10
29.9
 20
187.006325
 30
0.0
 40
0.3
100
AcDbArc
 50
90.0
 51
270.0
  0
LINE
  5
BEF5
330
BE31
100
AcDbEntity
  8
1
  6
Continuous
100
AcDbLine
 10
35.6
 20
188.6065219999999
 30
0.0
 11
29.9
 21
189.206522
 31
0.0
  0
ARC
  5
BEF6
330
BE31
100
AcDbEntity
  8
1
  6
Continuous
100
AcDbCircle
 10
35.6
 20
188.3065219999998
 30
0.0
 40
0.3
100
AcDbArc
 50
270.0
 51
90.0
  0
LINE
  5
BEF7
330
BE31
100
AcDbEntity
  8
1
  6
Continuous
100
AcDbLine
 10
32.891584
 20
188.0065219999999
 30
0.0
 11
35.6
 21
188.0065219999999
 31
0.0
  0
LINE
  5
BEF8
330
BE31
100
AcDbEntity
  8
1
  6
Continuous
100
AcDbLine
 10
29.9
 20
188.6065219999999
 30
0.0
 11
32.891584
 21
188.0065219999999
 31
0.0
  0
ARC
  5
BEF9
330
BE31
100
AcDbEntity
  8
1
  6
Continuous
100
AcDbCircle
 10
29.9
 20
188.9065219999999
 30
0.0
 40
0.3
100
AcDbArc
 50
90.0
 51
270.0
  0
ARC
  5
BEFA
330
BE31
100
AcDbEntity
  8
1
  6
Continuous
100
AcDbCircle
 10
35.6
 20
192.8566229999999
 30
0.0
 40
0.3
100
AcDbArc
 50
318.189685
 51
90.0
  0
LINE
  5
BEFB
330
BE31
100
AcDbEntity
  8
1
  6
Continuous
100
AcDbLine
 10
35.6
 20
193.1566229999999
 30
0.0
 11
29.9
 21
193.756623
 31
0.0
  0
ARC
  5
BEFC
330
BE31
100
AcDbEntity
  8
1
  6
Continuous
100
AcDbCircle
 10
29.9
 20
193.456623
 30
0.0
 40
0.3
100
AcDbArc
 50
90.0
 51
208.985474
  0
LINE
  5
BEFD
330
BE31
100
AcDbEntity
  8
1
  6
Continuous
100
AcDbLine
 10
35.6
 20
195.806522
 30
0.0
 11
29.9
 21
196.4065219999999
 31
0.0
  0
ARC
  5
BEFE
330
BE31
100
AcDbEntity
  8
1
  6
Continuous
100
AcDbCircle
 10
35.6
 20
195.506522
 30
0.0
 40
0.3
100
AcDbArc
 50
340.528779
 51
90.0
  0
ARC
  5
BEFF
330
BE31
100
AcDbEntity
  8
1
  6
Continuous
100
AcDbCircle
 10
29.9
 20
196.1065219999999
 30
0.0
 40
0.3
100
AcDbArc
 50
90.0
 51
186.947931
  0
LINE
  5
BF00
330
BE31
100
AcDbEntity
  8
1
  6
Continuous
100
AcDbLine
 10
145.468016
 20
196.7820269999999
 30
0.0
 11
140.4378069999999
 21
193.7235599999999
 31
0.0
  0
LINE
  5
BF01
330
BE31
100
AcDbEntity
  8
1
  6
Continuous
100
AcDbLine
 10
145.5342109999999
 20
196.120073
 30
0.0
 11
140.7495219999999
 21
193.210887
 31
0.0
  0
LINE
  5
BF02
330
BE31
100
AcDbEntity
  8
1
  6
Continuous
100
AcDbLine
 10
140.4378069999999
 20
193.7235599999999
 30
0.0
 11
140.7495219999999
 21
193.210887
 31
0.0
  0
LINE
  5
BF03
330
BE31
100
AcDbEntity
  8
1
  6
Continuous
100
AcDbLine
 10
141.7194889999999
 20
194.5028479999998
 30
0.0
 11
142.0312039999998
 21
193.9901749999999
 31
0.0
  0
LINE
  5
BF04
330
BE31
100
AcDbEntity
  8
1
  6
Continuous
100
AcDbLine
 10
35.6
 20
173.1060089999998
 30
0.0
 11
29.9
 21
173.7060089999999
 31
0.0
  0
LINE
  5
BF05
330
BE31
100
AcDbEntity
  8
1
  6
Continuous
100
AcDbLine
 10
32.891584
 20
172.506009
 30
0.0
 11
35.6
 21
172.506009
 31
0.0
  0
ARC
  5
BF06
330
BE31
100
AcDbEntity
  8
1
  6
Continuous
100
AcDbCircle
 10
35.6
 20
172.8060089999999
 30
0.0
 40
0.3
100
AcDbArc
 50
270.0
 51
90.0
  0
LINE
  5
BF07
330
BE31
100
AcDbEntity
  8
1
  6
Continuous
100
AcDbLine
 10
29.9
 20
173.1060089999998
 30
0.0
 11
32.891584
 21
172.506009
 31
0.0
  0
ARC
  5
BF08
330
BE31
100
AcDbEntity
  8
1
  6
Continuous
100
AcDbCircle
 10
29.9
 20
173.406009
 30
0.0
 40
0.3
100
AcDbArc
 50
90.0
 51
270.0
  0
ARC
  5
BF09
330
BE31
100
AcDbEntity
  8
1
  6
Continuous
100
AcDbCircle
 10
35.6
 20
170.406009
 30
0.0
 40
0.3
100
AcDbArc
 50
270.0
 51
90.0
  0
LINE
  5
BF0A
330
BE31
100
AcDbEntity
  8
1
  6
Continuous
100
AcDbLine
 10
32.891584
 20
170.106009
 30
0.0
 11
35.6
 21
170.106009
 31
0.0
  0
LINE
  5
BF0B
330
BE31
100
AcDbEntity
  8
1
  6
Continuous
100
AcDbLine
 10
35.6
 20
170.7060089999998
 30
0.0
 11
29.9
 21
171.3060089999999
 31
0.0
  0
LINE
  5
BF0C
330
BE31
100
AcDbEntity
  8
1
  6
Continuous
100
AcDbLine
 10
29.9
 20
170.7060089999998
 30
0.0
 11
32.891584
 21
170.106009
 31
0.0
  0
ARC
  5
BF0D
330
BE31
100
AcDbEntity
  8
1
  6
Continuous
100
AcDbCircle
 10
29.9
 20
171.0060089999998
 30
0.0
 40
0.3
100
AcDbArc
 50
90.0
 51
270.0
  0
LINE
  5
BF0E
330
BE31
100
AcDbEntity
  8
1
  6
Continuous
100
AcDbLine
 10
35.6
 20
168.3060089999999
 30
0.0
 11
29.9
 21
168.906009
 31
0.0
  0
LINE
  5
BF0F
330
BE31
100
AcDbEntity
  8
1
  6
Continuous
100
AcDbLine
 10
32.891584
 20
167.7060089999999
 30
0.0
 11
35.6
 21
167.7060089999999
 31
0.0
  0
ARC
  5
BF10
330
BE31
100
AcDbEntity
  8
1
  6
Continuous
100
AcDbCircle
 10
35.6
 20
168.006009
 30
0.0
 40
0.3
100
AcDbArc
 50
270.0
 51
90.0
  0
LINE
  5
BF11
330
BE31
100
AcDbEntity
  8
1
  6
Continuous
100
AcDbLine
 10
29.9
 20
168.3060089999999
 30
0.0
 11
32.891584
 21
167.7060089999999
 31
0.0
  0
ARC
  5
BF12
330
BE31
100
AcDbEntity
  8
1
  6
Continuous
100
AcDbCircle
 10
29.9
 20
168.6060089999998
 30
0.0
 40
0.3
100
AcDbArc
 50
90.0
 51
270.0
  0
LINE
  5
BF13
330
BE31
100
AcDbEntity
  8
1
  6
Continuous
100
AcDbLine
 10
135.9659139999999
 20
258.0602
 30
0.0
 11
135.9659139999999
 21
255.2102
 31
0.0
  0
ARC
  5
BF14
330
BE31
100
AcDbEntity
  8
1
  6
Continuous
100
AcDbCircle
 10
135.6659139999998
 20
258.0602
 30
0.0
 40
0.3
100
AcDbArc
 50
0.0
 51
180.0
  0
ARC
  5
BF15
330
BE31
100
AcDbEntity
  8
1
  6
Continuous
100
AcDbCircle
 10
135.0659139999999
 20
252.3601999999999
 30
0.0
 40
0.3
100
AcDbArc
 50
180.0
 51
0.0
  0
LINE
  5
BF16
330
BE31
100
AcDbEntity
  8
1
  6
Continuous
100
AcDbLine
 10
135.9659139999999
 20
255.2102
 30
0.0
 11
135.3659139999997
 21
252.3601999999999
 31
0.0
  0
LINE
  5
BF17
330
BE31
100
AcDbEntity
  8
1
  6
Continuous
100
AcDbLine
 10
135.3659139999997
 20
258.0602
 30
0.0
 11
134.7659139999999
 21
252.3601999999999
 31
0.0
  0
LINE
  5
BF18
330
BE31
100
AcDbEntity
  8
1
  6
Continuous
100
AcDbLine
 10
137.7659139999998
 20
258.0602
 30
0.0
 11
137.1659139999999
 21
252.3601999999999
 31
0.0
  0
LINE
  5
BF19
330
BE31
100
AcDbEntity
  8
1
  6
Continuous
100
AcDbLine
 10
138.365914
 20
258.0602
 30
0.0
 11
138.365914
 21
255.2102
 31
0.0
  0
LINE
  5
BF1A
330
BE31
100
AcDbEntity
  8
1
  6
Continuous
100
AcDbLine
 10
138.365914
 20
255.2102
 30
0.0
 11
137.7659139999998
 21
252.3601999999999
 31
0.0
  0
ARC
  5
BF1B
330
BE31
100
AcDbEntity
  8
1
  6
Continuous
100
AcDbCircle
 10
137.465914
 20
252.3601999999999
 30
0.0
 40
0.3
100
AcDbArc
 50
180.0
 51
0.0
  0
ARC
  5
BF1C
330
BE31
100
AcDbEntity
  8
1
  6
Continuous
100
AcDbCircle
 10
138.0659139999999
 20
258.0602
 30
0.0
 40
0.3
100
AcDbArc
 50
0.0
 51
180.0
  0
ARC
  5
BF1D
330
BE31
100
AcDbEntity
  8
1
  6
Continuous
100
AcDbCircle
 10
139.865914
 20
252.3601999999999
 30
0.0
 40
0.3
100
AcDbArc
 50
180.0
 51
0.0
  0
LINE
  5
BF1E
330
BE31
100
AcDbEntity
  8
1
  6
Continuous
100
AcDbLine
 10
140.2338489999999
 20
252.6828919999999
 30
0.0
 11
140.1659139999999
 21
252.3601999999999
 31
0.0
  0
LINE
  5
BF1F
330
BE31
100
AcDbEntity
  8
1
  6
Continuous
100
AcDbLine
 10
140.1659139999999
 20
258.0602
 30
0.0
 11
140.1242019999999
 21
257.663931
 31
0.0
  0
LINE
  5
BF20
330
BE31
100
AcDbEntity
  8
1
  6
Continuous
100
AcDbLine
 10
140.7659139999998
 20
258.0602
 30
0.0
 11
140.7659139999998
 21
258.007384
 31
0.0
  0
ARC
  5
BF21
330
BE31
100
AcDbEntity
  8
1
  6
Continuous
100
AcDbCircle
 10
140.4659139999999
 20
258.0602
 30
0.0
 40
0.3
100
AcDbArc
 50
0.0
 51
180.0
  0
LINE
  5
BF22
330
BE31
100
AcDbEntity
  8
1
  6
Continuous
100
AcDbLine
 10
139.651119
 20
253.169643
 30
0.0
 11
139.565914
 21
252.3601999999999
 31
0.0
  0
LINE
  5
BF23
330
BE31
100
AcDbEntity
  8
1
  6
Continuous
100
AcDbLine
 10
35.6
 20
165.906009
 30
0.0
 11
29.9
 21
166.506009
 31
0.0
  0
LINE
  5
BF24
330
BE31
100
AcDbEntity
  8
1
  6
Continuous
100
AcDbLine
 10
29.9
 20
165.906009
 30
0.0
 11
32.891584
 21
165.3060089999999
 31
0.0
  0
LINE
  5
BF25
330
BE31
100
AcDbEntity
  8
1
  6
Continuous
100
AcDbLine
 10
32.891584
 20
165.3060089999999
 30
0.0
 11
35.6
 21
165.3060089999999
 31
0.0
  0
ARC
  5
BF26
330
BE31
100
AcDbEntity
  8
1
  6
Continuous
100
AcDbCircle
 10
35.6
 20
165.6060089999998
 30
0.0
 40
0.3
100
AcDbArc
 50
270.0
 51
90.0
  0
ARC
  5
BF27
330
BE31
100
AcDbEntity
  8
1
  6
Continuous
100
AcDbCircle
 10
29.9
 20
166.2060089999999
 30
0.0
 40
0.3
100
AcDbArc
 50
90.0
 51
270.0
  0
ARC
  5
BF28
330
BE31
100
AcDbEntity
  8
1
  6
Continuous
100
AcDbCircle
 10
35.6
 20
163.2060089999999
 30
0.0
 40
0.3
100
AcDbArc
 50
270.0
 51
90.0
  0
LINE
  5
BF29
330
BE31
100
AcDbEntity
  8
1
  6
Continuous
100
AcDbLine
 10
32.891584
 20
162.906009
 30
0.0
 11
35.6
 21
162.906009
 31
0.0
  0
LINE
  5
BF2A
330
BE31
100
AcDbEntity
  8
1
  6
Continuous
100
AcDbLine
 10
35.6
 20
163.506009
 30
0.0
 11
29.9
 21
164.106009
 31
0.0
  0
LINE
  5
BF2B
330
BE31
100
AcDbEntity
  8
1
  6
Continuous
100
AcDbLine
 10
29.9
 20
163.506009
 30
0.0
 11
32.891584
 21
162.906009
 31
0.0
  0
ARC
  5
BF2C
330
BE31
100
AcDbEntity
  8
1
  6
Continuous
100
AcDbCircle
 10
29.9
 20
163.8060089999999
 30
0.0
 40
0.3
100
AcDbArc
 50
90.0
 51
270.0
  0
LINE
  5
BF2D
330
BE31
100
AcDbEntity
  8
1
  6
Continuous
100
AcDbLine
 10
35.6
 20
161.106009
 30
0.0
 11
29.9
 21
161.706009
 31
0.0
  0
LINE
  5
BF2E
330
BE31
100
AcDbEntity
  8
1
  6
Continuous
100
AcDbLine
 10
32.891584
 20
160.506009
 30
0.0
 11
35.6
 21
160.506009
 31
0.0
  0
ARC
  5
BF2F
330
BE31
100
AcDbEntity
  8
1
  6
Continuous
100
AcDbCircle
 10
35.6
 20
160.8060089999999
 30
0.0
 40
0.3
100
AcDbArc
 50
270.0
 51
90.0
  0
LINE
  5
BF30
330
BE31
100
AcDbEntity
  8
1
  6
Continuous
100
AcDbLine
 10
29.9
 20
161.106009
 30
0.0
 11
32.891584
 21
160.506009
 31
0.0
  0
ARC
  5
BF31
330
BE31
100
AcDbEntity
  8
1
  6
Continuous
100
AcDbCircle
 10
29.9
 20
161.406009
 30
0.0
 40
0.3
100
AcDbArc
 50
90.0
 51
270.0
  0
LINE
  5
BF32
330
BE31
100
AcDbEntity
  8
1
  6
Continuous
100
AcDbLine
 10
133.5659139999999
 20
258.0602
 30
0.0
 11
133.5659139999999
 21
255.2102
 31
0.0
  0
LINE
  5
BF33
330
BE31
100
AcDbEntity
  8
1
  6
Continuous
100
AcDbLine
 10
132.9659139999999
 20
258.0602
 30
0.0
 11
132.3659139999997
 21
252.3601999999999
 31
0.0
  0
ARC
  5
BF34
330
BE31
100
AcDbEntity
  8
1
  6
Continuous
100
AcDbCircle
 10
133.2659139999998
 20
258.0602
 30
0.0
 40
0.3
100
AcDbArc
 50
0.0
 51
180.0
  0
LINE
  5
BF35
330
BE31
100
AcDbEntity
  8
1
  6
Continuous
100
AcDbLine
 10
133.5659139999999
 20
255.2102
 30
0.0
 11
132.9659139999999
 21
252.3601999999999
 31
0.0
  0
ARC
  5
BF36
330
BE31
100
AcDbEntity
  8
1
  6
Continuous
100
AcDbCircle
 10
132.6659139999998
 20
252.3601999999999
 30
0.0
 40
0.3
100
AcDbArc
 50
180.0
 51
0.0
  0
LINE
  5
BF37
330
BE31
100
AcDbEntity
  8
1
  6
Continuous
100
AcDbLine
 10
130.5659139999999
 20
258.0602
 30
0.0
 11
129.9659139999999
 21
252.3601999999999
 31
0.0
  0
ARC
  5
BF38
330
BE31
100
AcDbEntity
  8
1
  6
Continuous
100
AcDbCircle
 10
130.865914
 20
258.0602
 30
0.0
 40
0.3
100
AcDbArc
 50
0.0
 51
180.0
  0
LINE
  5
BF39
330
BE31
100
AcDbEntity
  8
1
  6
Continuous
100
AcDbLine
 10
131.1659139999999
 20
258.0602
 30
0.0
 11
131.1659139999999
 21
255.2102
 31
0.0
  0
LINE
  5
BF3A
330
BE31
100
AcDbEntity
  8
1
  6
Continuous
100
AcDbLine
 10
131.1659139999999
 20
255.2102
 30
0.0
 11
130.5659139999999
 21
252.3601999999999
 31
0.0
  0
ARC
  5
BF3B
330
BE31
100
AcDbEntity
  8
1
  6
Continuous
100
AcDbCircle
 10
130.2659139999998
 20
252.3601999999999
 30
0.0
 40
0.3
100
AcDbArc
 50
180.0
 51
0.0
  0
LINE
  5
BF3C
330
BE31
100
AcDbEntity
  8
1
  6
Continuous
100
AcDbLine
 10
128.1659139999999
 20
258.0602
 30
0.0
 11
127.5659139999999
 21
252.3601999999999
 31
0.0
  0
LINE
  5
BF3D
330
BE31
100
AcDbEntity
  8
1
  6
Continuous
100
AcDbLine
 10
128.7659139999999
 20
258.0602
 30
0.0
 11
128.7659139999999
 21
255.2102
 31
0.0
  0
ARC
  5
BF3E
330
BE31
100
AcDbEntity
  8
1
  6
Continuous
100
AcDbCircle
 10
128.465914
 20
258.0602
 30
0.0
 40
0.3
100
AcDbArc
 50
0.0
 51
180.0
  0
LINE
  5
BF3F
330
BE31
100
AcDbEntity
  8
1
  6
Continuous
100
AcDbLine
 10
128.7659139999999
 20
255.2102
 30
0.0
 11
128.1659139999999
 21
252.3601999999999
 31
0.0
  0
ARC
  5
BF40
330
BE31
100
AcDbEntity
  8
1
  6
Continuous
100
AcDbCircle
 10
127.865914
 20
252.3601999999999
 30
0.0
 40
0.3
100
AcDbArc
 50
180.0
 51
0.0
  0
ARC
  5
BF41
330
BE31
100
AcDbEntity
  8
1
  6
Continuous
100
AcDbCircle
 10
35.6
 20
158.406009
 30
0.0
 40
0.3
100
AcDbArc
 50
270.0
 51
90.0
  0
LINE
  5
BF42
330
BE31
100
AcDbEntity
  8
1
  6
Continuous
100
AcDbLine
 10
32.891584
 20
158.106009
 30
0.0
 11
35.6
 21
158.106009
 31
0.0
  0
LINE
  5
BF43
330
BE31
100
AcDbEntity
  8
1
  6
Continuous
100
AcDbLine
 10
35.6
 20
158.706009
 30
0.0
 11
29.9
 21
159.3060089999999
 31
0.0
  0
LINE
  5
BF44
330
BE31
100
AcDbEntity
  8
1
  6
Continuous
100
AcDbLine
 10
29.9
 20
158.706009
 30
0.0
 11
32.891584
 21
158.106009
 31
0.0
  0
ARC
  5
BF45
330
BE31
100
AcDbEntity
  8
1
  6
Continuous
100
AcDbCircle
 10
29.9
 20
159.006009
 30
0.0
 40
0.3
100
AcDbArc
 50
90.0
 51
270.0
  0
LINE
  5
BF46
330
BE31
100
AcDbEntity
  8
1
  6
Continuous
100
AcDbLine
 10
35.6
 20
156.306009
 30
0.0
 11
29.9
 21
156.906009
 31
0.0
  0
LINE
  5
BF47
330
BE31
100
AcDbEntity
  8
1
  6
Continuous
100
AcDbLine
 10
32.891584
 20
155.706009
 30
0.0
 11
35.6
 21
155.706009
 31
0.0
  0
ARC
  5
BF48
330
BE31
100
AcDbEntity
  8
1
  6
Continuous
100
AcDbCircle
 10
35.6
 20
156.006009
 30
0.0
 40
0.3
100
AcDbArc
 50
270.0
 51
90.0
  0
LINE
  5
BF49
330
BE31
100
AcDbEntity
  8
1
  6
Continuous
100
AcDbLine
 10
29.9
 20
156.306009
 30
0.0
 11
32.891584
 21
155.706009
 31
0.0
  0
ARC
  5
BF4A
330
BE31
100
AcDbEntity
  8
1
  6
Continuous
100
AcDbCircle
 10
29.9
 20
156.606009
 30
0.0
 40
0.3
100
AcDbArc
 50
90.0
 51
270.0
  0
ARC
  5
BF4B
330
BE31
100
AcDbEntity
  8
1
  6
Continuous
100
AcDbCircle
 10
35.6
 20
153.606009
 30
0.0
 40
0.3
100
AcDbArc
 50
270.0
 51
90.0
  0
LINE
  5
BF4C
330
BE31
100
AcDbEntity
  8
1
  6
Continuous
100
AcDbLine
 10
32.891584
 20
153.306009
 30
0.0
 11
35.6
 21
153.306009
 31
0.0
  0
LINE
  5
BF4D
330
BE31
100
AcDbEntity
  8
1
  6
Continuous
100
AcDbLine
 10
35.6
 20
153.906009
 30
0.0
 11
29.9
 21
154.5060089999998
 31
0.0
  0
LINE
  5
BF4E
330
BE31
100
AcDbEntity
  8
1
  6
Continuous
100
AcDbLine
 10
29.9
 20
153.906009
 30
0.0
 11
32.891584
 21
153.306009
 31
0.0
  0
ARC
  5
BF4F
330
BE31
100
AcDbEntity
  8
1
  6
Continuous
100
AcDbCircle
 10
29.9
 20
154.2060089999999
 30
0.0
 40
0.3
100
AcDbArc
 50
90.0
 51
270.0
  0
LINE
  5
BF50
330
BE31
100
AcDbEntity
  8
1
  6
Continuous
100
AcDbLine
 10
156.900239
 20
56.5
 30
0.0
 11
156.900239
 21
55.25
 31
0.0
  0
LINE
  5
BF51
330
BE31
100
AcDbEntity
  8
1
  6
Continuous
100
AcDbLine
 10
145.3002389999998
 20
56.5
 30
0.0
 11
145.3002389999998
 21
55.25
 31
0.0
  0
LINE
  5
BF52
330
BE31
100
AcDbEntity
  8
1
  6
Continuous
100
AcDbLine
 10
156.900239
 20
42.25
 30
0.0
 11
156.900239
 21
41.0
 31
0.0
  0
LINE
  5
BF53
330
BE31
100
AcDbEntity
  8
1
  6
Continuous
100
AcDbLine
 10
145.3002389999998
 20
42.25
 30
0.0
 11
145.3002389999998
 21
41.0
 31
0.0
  0
ARC
  5
BF54
330
BE31
100
AcDbEntity
  8
1
  6
Continuous
100
AcDbCircle
 10
35.6
 20
151.206009
 30
0.0
 40
0.3
100
AcDbArc
 50
270.0
 51
90.0
  0
LINE
  5
BF55
330
BE31
100
AcDbEntity
  8
1
  6
Continuous
100
AcDbLine
 10
32.891584
 20
150.906009
 30
0.0
 11
35.6
 21
150.906009
 31
0.0
  0
LINE
  5
BF56
330
BE31
100
AcDbEntity
  8
1
  6
Continuous
100
AcDbLine
 10
35.6
 20
151.506009
 30
0.0
 11
29.9
 21
152.1060089999998
 31
0.0
  0
LINE
  5
BF57
330
BE31
100
AcDbEntity
  8
1
  6
Continuous
100
AcDbLine
 10
29.9
 20
151.506009
 30
0.0
 11
32.891584
 21
150.906009
 31
0.0
  0
ARC
  5
BF58
330
BE31
100
AcDbEntity
  8
1
  6
Continuous
100
AcDbCircle
 10
29.9
 20
151.8060089999999
 30
0.0
 40
0.3
100
AcDbArc
 50
90.0
 51
270.0
  0
LINE
  5
BF59
330
BE31
100
AcDbEntity
  8
1
  6
Continuous
100
AcDbLine
 10
126.3659139999999
 20
258.0602
 30
0.0
 11
126.3659139999999
 21
255.2102
 31
0.0
  0
ARC
  5
BF5A
330
BE31
100
AcDbEntity
  8
1
  6
Continuous
100
AcDbCircle
 10
126.065914
 20
258.0602
 30
0.0
 40
0.3
100
AcDbArc
 50
0.0
 51
180.0
  0
LINE
  5
BF5B
330
BE31
100
AcDbEntity
  8
1
  6
Continuous
100
AcDbLine
 10
125.7659139999999
 20
258.0602
 30
0.0
 11
125.1659139999999
 21
252.3601999999999
 31
0.0
  0
LINE
  5
BF5C
330
BE31
100
AcDbEntity
  8
1
  6
Continuous
100
AcDbLine
 10
126.3659139999999
 20
255.2102
 30
0.0
 11
125.7659139999999
 21
252.3601999999999
 31
0.0
  0
ARC
  5
BF5D
330
BE31
100
AcDbEntity
  8
1
  6
Continuous
100
AcDbCircle
 10
125.4659139999999
 20
252.3601999999999
 30
0.0
 40
0.3
100
AcDbArc
 50
180.0
 51
0.0
  0
ARC
  5
BF5E
330
BE31
100
AcDbEntity
  8
1
  6
Continuous
100
AcDbCircle
 10
123.6659139999999
 20
258.0602
 30
0.0
 40
0.3
100
AcDbArc
 50
0.0
 51
180.0
  0
LINE
  5
BF5F
330
BE31
100
AcDbEntity
  8
1
  6
Continuous
100
AcDbLine
 10
123.9659139999998
 20
258.0602
 30
0.0
 11
123.9659139999998
 21
255.2102
 31
0.0
  0
LINE
  5
BF60
330
BE31
100
AcDbEntity
  8
1
  6
Continuous
100
AcDbLine
 10
123.3659139999998
 20
258.0602
 30
0.0
 11
122.7659139999999
 21
252.3601999999999
 31
0.0
  0
LINE
  5
BF61
330
BE31
100
AcDbEntity
  8
1
  6
Continuous
100
AcDbLine
 10
123.9659139999998
 20
255.2102
 30
0.0
 11
123.3659139999998
 21
252.3601999999999
 31
0.0
  0
ARC
  5
BF62
330
BE31
100
AcDbEntity
  8
1
  6
Continuous
100
AcDbCircle
 10
123.0659139999999
 20
252.3601999999999
 30
0.0
 40
0.3
100
AcDbArc
 50
180.0
 51
0.0
  0
LINE
  5
BF63
330
BE31
100
AcDbEntity
  8
1
  6
Continuous
100
AcDbLine
 10
120.9659139999998
 20
258.0602
 30
0.0
 11
120.3659139999998
 21
252.3601999999999
 31
0.0
  0
LINE
  5
BF64
330
BE31
100
AcDbEntity
  8
1
  6
Continuous
100
AcDbLine
 10
121.5659139999999
 20
258.0602
 30
0.0
 11
121.5659139999999
 21
255.2102
 31
0.0
  0
ARC
  5
BF65
330
BE31
100
AcDbEntity
  8
1
  6
Continuous
100
AcDbCircle
 10
121.2659139999999
 20
258.0602
 30
0.0
 40
0.3
100
AcDbArc
 50
0.0
 51
180.0
  0
LINE
  5
BF66
330
BE31
100
AcDbEntity
  8
1
  6
Continuous
100
AcDbLine
 10
121.5659139999999
 20
255.2102
 30
0.0
 11
120.9659139999998
 21
252.3601999999999
 31
0.0
  0
ARC
  5
BF67
330
BE31
100
AcDbEntity
  8
1
  6
Continuous
100
AcDbCircle
 10
120.6659139999999
 20
252.3601999999999
 30
0.0
 40
0.3
100
AcDbArc
 50
180.0
 51
0.0
  0
LINE
  5
BF68
330
BE31
100
AcDbEntity
  8
1
  6
Continuous
100
AcDbLine
 10
118.565914
 20
258.0602
 30
0.0
 11
117.9659139999998
 21
252.3601999999999
 31
0.0
  0
LINE
  5
BF69
330
BE31
100
AcDbEntity
  8
1
  6
Continuous
100
AcDbLine
 10
119.1659139999998
 20
258.0602
 30
0.0
 11
119.1659139999998
 21
255.2102
 31
0.0
  0
ARC
  5
BF6A
330
BE31
100
AcDbEntity
  8
1
  6
Continuous
100
AcDbCircle
 10
118.8659139999999
 20
258.0602
 30
0.0
 40
0.3
100
AcDbArc
 50
0.0
 51
180.0
  0
LINE
  5
BF6B
330
BE31
100
AcDbEntity
  8
1
  6
Continuous
100
AcDbLine
 10
119.1659139999998
 20
255.2102
 30
0.0
 11
118.565914
 21
252.3601999999999
 31
0.0
  0
ARC
  5
BF6C
330
BE31
100
AcDbEntity
  8
1
  6
Continuous
100
AcDbCircle
 10
118.2659139999999
 20
252.3601999999999
 30
0.0
 40
0.3
100
AcDbArc
 50
180.0
 51
0.0
  0
LINE
  5
BF6D
330
BE31
100
AcDbEntity
  8
1
  6
Continuous
100
AcDbLine
 10
116.765914
 20
258.0602
 30
0.0
 11
116.765914
 21
255.2102
 31
0.0
  0
ARC
  5
BF6E
330
BE31
100
AcDbEntity
  8
1
  6
Continuous
100
AcDbCircle
 10
116.4659139999999
 20
258.0602
 30
0.0
 40
0.3
100
AcDbArc
 50
0.0
 51
180.0
  0
LINE
  5
BF6F
330
BE31
100
AcDbEntity
  8
1
  6
Continuous
100
AcDbLine
 10
116.1659139999999
 20
258.0602
 30
0.0
 11
115.565914
 21
252.3601999999999
 31
0.0
  0
LINE
  5
BF70
330
BE31
100
AcDbEntity
  8
1
  6
Continuous
100
AcDbLine
 10
116.765914
 20
255.2102
 30
0.0
 11
116.1659139999999
 21
252.3601999999999
 31
0.0
  0
ARC
  5
BF71
330
BE31
100
AcDbEntity
  8
1
  6
Continuous
100
AcDbCircle
 10
115.8659139999999
 20
252.3601999999999
 30
0.0
 40
0.3
100
AcDbArc
 50
180.0
 51
0.0
  0
LINE
  5
BF72
330
BE31
100
AcDbEntity
  8
1
  6
Continuous
100
AcDbLine
 10
113.765914
 20
258.0602
 30
0.0
 11
113.1659139999999
 21
252.3601999999999
 31
0.0
  0
ARC
  5
BF73
330
BE31
100
AcDbEntity
  8
1
  6
Continuous
100
AcDbCircle
 10
114.0659139999999
 20
258.0602
 30
0.0
 40
0.3
100
AcDbArc
 50
0.0
 51
180.0
  0
LINE
  5
BF74
330
BE31
100
AcDbEntity
  8
1
  6
Continuous
100
AcDbLine
 10
114.365914
 20
258.0602
 30
0.0
 11
114.365914
 21
255.2102
 31
0.0
  0
LINE
  5
BF75
330
BE31
100
AcDbEntity
  8
1
  6
Continuous
100
AcDbLine
 10
114.365914
 20
255.2102
 30
0.0
 11
113.765914
 21
252.3601999999999
 31
0.0
  0
ARC
  5
BF76
330
BE31
100
AcDbEntity
  8
1
  6
Continuous
100
AcDbCircle
 10
113.4659139999999
 20
252.3601999999999
 30
0.0
 40
0.3
100
AcDbArc
 50
180.0
 51
0.0
  0
LINE
  5
BF77
330
BE31
100
AcDbEntity
  8
1
  6
Continuous
100
AcDbLine
 10
111.3659139999999
 20
258.0602
 30
0.0
 11
110.7659139999999
 21
252.3601999999999
 31
0.0
  0
ARC
  5
BF78
330
BE31
100
AcDbEntity
  8
1
  6
Continuous
100
AcDbCircle
 10
111.6659139999998
 20
258.0602
 30
0.0
 40
0.3
100
AcDbArc
 50
0.0
 51
180.0
  0
LINE
  5
BF79
330
BE31
100
AcDbEntity
  8
1
  6
Continuous
100
AcDbLine
 10
111.9659139999999
 20
258.0602
 30
0.0
 11
111.9659139999999
 21
255.2102
 31
0.0
  0
LINE
  5
BF7A
330
BE31
100
AcDbEntity
  8
1
  6
Continuous
100
AcDbLine
 10
111.9659139999999
 20
255.2102
 30
0.0
 11
111.3659139999999
 21
252.3601999999999
 31
0.0
  0
ARC
  5
BF7B
330
BE31
100
AcDbEntity
  8
1
  6
Continuous
100
AcDbCircle
 10
111.0659139999999
 20
252.3601999999999
 30
0.0
 40
0.3
100
AcDbArc
 50
180.0
 51
0.0
  0
ARC
  5
BF7C
330
BE31
100
AcDbEntity
  8
1
  6
Continuous
100
AcDbCircle
 10
106.265914
 20
252.3601999999999
 30
0.0
 40
0.3
100
AcDbArc
 50
180.0
 51
0.0
  0
LINE
  5
BF7D
330
BE31
100
AcDbEntity
  8
1
  6
Continuous
100
AcDbLine
 10
107.1659139999999
 20
255.2102
 30
0.0
 11
106.5659139999999
 21
252.3601999999999
 31
0.0
  0
LINE
  5
BF7E
330
BE31
100
AcDbEntity
  8
1
  6
Continuous
100
AcDbLine
 10
106.5659139999999
 20
258.0602
 30
0.0
 11
105.9659139999999
 21
252.3601999999999
 31
0.0
  0
LINE
  5
BF7F
330
BE31
100
AcDbEntity
  8
1
  6
Continuous
100
AcDbLine
 10
107.1659139999999
 20
258.0602
 30
0.0
 11
107.1659139999999
 21
255.2102
 31
0.0
  0
ARC
  5
BF80
330
BE31
100
AcDbEntity
  8
1
  6
Continuous
100
AcDbCircle
 10
106.8659139999999
 20
258.0602
 30
0.0
 40
0.3
100
AcDbArc
 50
0.0
 51
180.0
  0
ARC
  5
BF81
330
BE31
100
AcDbEntity
  8
1
  6
Continuous
100
AcDbCircle
 10
108.6659139999998
 20
252.3601999999999
 30
0.0
 40
0.3
100
AcDbArc
 50
180.0
 51
0.0
  0
LINE
  5
BF82
330
BE31
100
AcDbEntity
  8
1
  6
Continuous
100
AcDbLine
 10
109.5659139999999
 20
255.2102
 30
0.0
 11
108.9659139999999
 21
252.3601999999999
 31
0.0
  0
LINE
  5
BF83
330
BE31
100
AcDbEntity
  8
1
  6
Continuous
100
AcDbLine
 10
108.9659139999999
 20
258.0602
 30
0.0
 11
108.3659139999999
 21
252.3601999999999
 31
0.0
  0
LINE
  5
BF84
330
BE31
100
AcDbEntity
  8
1
  6
Continuous
100
AcDbLine
 10
109.5659139999999
 20
258.0602
 30
0.0
 11
109.5659139999999
 21
255.2102
 31
0.0
  0
ARC
  5
BF85
330
BE31
100
AcDbEntity
  8
1
  6
Continuous
100
AcDbCircle
 10
109.265914
 20
258.0602
 30
0.0
 40
0.3
100
AcDbArc
 50
0.0
 51
180.0
  0
LINE
  5
BF86
330
BE31
100
AcDbEntity
  8
1
  6
Continuous
100
AcDbLine
 10
104.1659139999999
 20
258.0602
 30
0.0
 11
103.565914
 21
252.3601999999999
 31
0.0
  0
LINE
  5
BF87
330
BE31
100
AcDbEntity
  8
1
  6
Continuous
100
AcDbLine
 10
104.7659139999999
 20
255.2102
 30
0.0
 11
104.1659139999999
 21
252.3601999999999
 31
0.0
  0
ARC
  5
BF88
330
BE31
100
AcDbEntity
  8
1
  6
Continuous
100
AcDbCircle
 10
103.865914
 20
252.3601999999999
 30
0.0
 40
0.3
100
AcDbArc
 50
180.0
 51
0.0
  0
LINE
  5
BF89
330
BE31
100
AcDbEntity
  8
1
  6
Continuous
100
AcDbLine
 10
104.7659139999999
 20
258.0602
 30
0.0
 11
104.7659139999999
 21
255.2102
 31
0.0
  0
ARC
  5
BF8A
330
BE31
100
AcDbEntity
  8
1
  6
Continuous
100
AcDbCircle
 10
104.465914
 20
258.0602
 30
0.0
 40
0.3
100
AcDbArc
 50
0.0
 51
180.0
  0
ARC
  5
BF8B
330
BE31
100
AcDbEntity
  8
5
  6
PHANTOM
100
AcDbCircle
 10
151.1002389999999
 20
151.111018
 30
0.0
 40
46.000239
100
AcDbArc
 50
97.030793
 51
54.10416200000002
  0
ARC
  5
BF8C
330
BE31
100
AcDbEntity
  8
1
  6
Continuous
100
AcDbCircle
 10
151.1002389999999
 20
147.100018
 30
0.0
 40
50.000239
100
AcDbArc
 50
96.46774800000001
 51
57.43098199999999
  0
ARC
  5
BF8D
330
BE31
100
AcDbEntity
  8
5
  6
PHANTOM
100
AcDbCircle
 10
151.1002389999999
 20
151.111018
 30
0.0
 40
46.600239
100
AcDbArc
 50
97.01379200000005
 51
54.132779
  0
ARC
  5
BF8E
330
BE31
100
AcDbEntity
  8
5
  6
PHANTOM
100
AcDbCircle
 10
151.1002389999999
 20
151.111018
 30
0.0
 40
47.200239
100
AcDbArc
 50
23.9541
 51
54.160665
  0
ARC
  5
BF8F
330
BE31
100
AcDbEntity
  8
1
  6
Continuous
100
AcDbCircle
 10
151.1002389999999
 20
147.100018
 30
0.0
 40
50.600239
100
AcDbArc
 50
96.45877
 51
57.46641100000001
  0
LINE
  5
BF90
330
BE31
100
AcDbEntity
  8
4
  6
CENTER
100
AcDbLine
 10
16.25
 20
147.100018
 30
0.0
 11
49.25
 21
147.100018
 31
0.0
  0
LINE
  5
BF91
330
BE31
100
AcDbEntity
  8
1
  6
Continuous
100
AcDbLine
 10
275.9504769999999
 20
96.49978
 30
0.0
 11
262.950477
 21
96.49978
 31
0.0
  0
LINE
  5
BF92
330
BE31
100
AcDbEntity
  8
4
  6
CENTER
100
AcDbLine
 10
90.5
 20
147.100018
 30
0.0
 11
211.700477
 21
147.100018
 31
0.0
  0
LINE
  5
BF93
330
BE31
100
AcDbEntity
  8
4
  6
CENTER
100
AcDbLine
 10
252.9504769999999
 20
147.100018
 30
0.0
 11
285.950477
 21
147.100018
 31
0.0
  0
LINE
  5
BF94
330
BE31
100
AcDbEntity
  8
1
  6
Continuous
100
AcDbLine
 10
39.25
 20
96.49978
 30
0.0
 11
26.25
 21
96.49978
 31
0.0
  0
LINE
  5
BF95
330
BE31
100
AcDbEntity
  8
1
  6
Continuous
100
AcDbLine
 10
177.6233389999999
 20
248.7101999999999
 30
0.0
 11
178.4958709999999
 21
250.3821049999999
 31
0.0
  0
LINE
  5
BF96
330
BE31
100
AcDbEntity
  8
1
  6
Continuous
100
AcDbLine
 10
178.583476
 20
251.0707159999999
 30
0.0
 11
177.6233389999999
 21
255.2102
 31
0.0
  0
LINE
  5
BF97
330
BE31
100
AcDbEntity
  8
1
  6
Continuous
100
AcDbLine
 10
177.6233389999999
 20
255.2102
 30
0.0
 11
178.583476
 21
259.3496839999999
 31
0.0
  0
LINE
  5
BF98
330
BE31
100
AcDbEntity
  8
1
  6
Continuous
100
AcDbLine
 10
178.4958709999999
 20
260.038295
 30
0.0
 11
177.6233389999999
 21
261.7102
 31
0.0
  0
ARC
  5
BF99
330
BE31
100
AcDbEntity
  8
1
  6
Continuous
100
AcDbCircle
 10
177.609337
 20
259.575631
 30
0.0
 40
1.0
100
AcDbArc
 50
346.941375
 51
27.559105
  0
ARC
  5
BF9A
330
BE31
100
AcDbEntity
  8
1
  6
Continuous
100
AcDbCircle
 10
177.609337
 20
250.844769
 30
0.0
 40
1.0
100
AcDbArc
 50
332.440895
 51
13.05862499999999
  0
LINE
  5
BF9B
330
BE31
100
AcDbEntity
  8
5
  6
PHANTOM
100
AcDbLine
 10
194.2351679999999
 20
170.274536
 30
0.0
 11
193.686846
 21
170.030933
 31
0.0
  0
LINE
  5
BF9C
330
BE31
100
AcDbEntity
  8
1
  6
Continuous
100
AcDbLine
 10
178.609337
 20
190.282352
 30
0.0
 11
178.285269
 21
189.773648
 31
0.0
  0
LINE
  5
BF9D
330
BE31
100
AcDbEntity
  8
1
  6
Continuous
100
AcDbLine
 10
32.911443
 20
195.406522
 30
0.0
 11
35.882843
 21
195.406522
 31
0.0
  0
LINE
  5
BF9E
330
BE31
100
AcDbEntity
  8
1
  6
Continuous
100
AcDbLine
 10
29.60220299999999
 20
196.070232
 30
0.0
 11
32.911443
 21
195.406522
 31
0.0
  0
ARC
  5
BF9F
330
BE31
100
AcDbEntity
  8
1
  6
Continuous
100
AcDbCircle
 10
35.6
 20
196.4811369999999
 30
0.0
 40
0.3
100
AcDbArc
 50
340.528779
 51
90.0
  0
LINE
  5
BFA0
330
BE31
100
AcDbEntity
  8
1
  6
Continuous
100
AcDbLine
 10
32.911443
 20
196.381137
 30
0.0
 11
35.882843
 21
196.381137
 31
0.0
  0
LINE
  5
BFA1
330
BE31
100
AcDbEntity
  8
1
  6
Continuous
100
AcDbLine
 10
35.6
 20
196.7811369999998
 30
0.0
 11
29.9
 21
197.381137
 31
0.0
  0
ARC
  5
BFA2
330
BE31
100
AcDbEntity
  8
1
  6
Continuous
100
AcDbCircle
 10
29.9
 20
197.081137
 30
0.0
 40
0.3
100
AcDbArc
 50
90.0
 51
186.947931
  0
LINE
  5
BFA3
330
BE31
100
AcDbEntity
  8
1
  6
Continuous
100
AcDbLine
 10
29.60220299999999
 20
197.044847
 30
0.0
 11
32.911443
 21
196.381137
 31
0.0
  0
ARC
  5
BFA4
330
BE31
100
AcDbEntity
  8
1
  6
Continuous
100
AcDbCircle
 10
35.6
 20
194.282005
 30
0.0
 40
0.3
100
AcDbArc
 50
340.528779
 51
90.0
  0
LINE
  5
BFA5
330
BE31
100
AcDbEntity
  8
1
  6
Continuous
100
AcDbLine
 10
32.911443
 20
194.182005
 30
0.0
 11
35.882843
 21
194.182005
 31
0.0
  0
LINE
  5
BFA6
330
BE31
100
AcDbEntity
  8
1
  6
Continuous
100
AcDbLine
 10
35.6
 20
194.582005
 30
0.0
 11
29.9
 21
195.182005
 31
0.0
  0
LINE
  5
BFA7
330
BE31
100
AcDbEntity
  8
1
  6
Continuous
100
AcDbLine
 10
29.60220299999999
 20
194.8457149999999
 30
0.0
 11
32.911443
 21
194.182005
 31
0.0
  0
ARC
  5
BFA8
330
BE31
100
AcDbEntity
  8
1
  6
Continuous
100
AcDbCircle
 10
29.9
 20
194.8820049999999
 30
0.0
 40
0.3
100
AcDbArc
 50
90.0
 51
186.947931
  0
LINE
  5
BFA9
330
BE31
100
AcDbEntity
  8
1
  6
Continuous
100
AcDbLine
 10
32.901514
 20
192.6566229999999
 30
0.0
 11
35.82360700000001
 21
192.6566229999999
 31
0.0
  0
LINE
  5
BFAA
330
BE31
100
AcDbEntity
  8
1
  6
Continuous
100
AcDbLine
 10
29.637577
 20
193.3112459999999
 30
0.0
 11
32.901514
 21
192.6566229999999
 31
0.0
  0
ARC
  5
BFAB
330
BE31
100
AcDbEntity
  8
1
  6
Continuous
100
AcDbCircle
 10
35.6
 20
191.432185
 30
0.0
 40
0.3
100
AcDbArc
 50
318.189685
 51
90.0
  0
LINE
  5
BFAC
330
BE31
100
AcDbEntity
  8
1
  6
Continuous
100
AcDbLine
 10
32.901514
 20
191.2321849999999
 30
0.0
 11
35.82360700000001
 21
191.2321849999999
 31
0.0
  0
LINE
  5
BFAD
330
BE31
100
AcDbEntity
  8
1
  6
Continuous
100
AcDbLine
 10
35.6
 20
191.732185
 30
0.0
 11
29.9
 21
192.332185
 31
0.0
  0
ARC
  5
BFAE
330
BE31
100
AcDbEntity
  8
1
  6
Continuous
100
AcDbCircle
 10
29.9
 20
192.032185
 30
0.0
 40
0.3
100
AcDbArc
 50
90.0
 51
208.985474
  0
LINE
  5
BFAF
330
BE31
100
AcDbEntity
  8
1
  6
Continuous
100
AcDbLine
 10
29.637577
 20
191.886809
 30
0.0
 11
32.901514
 21
191.2321849999999
 31
0.0
  0
LINE
  5
BFB0
330
BE31
100
AcDbEntity
  8
1
  6
Continuous
100
AcDbLine
 10
35.6
 20
190.2058909999998
 30
0.0
 11
29.9
 21
190.805891
 31
0.0
  0
LINE
  5
BFB1
330
BE31
100
AcDbEntity
  8
1
  6
Continuous
100
AcDbLine
 10
32.891584
 20
189.6058909999999
 30
0.0
 11
35.6
 21
189.6058909999999
 31
0.0
  0
ARC
  5
BFB2
330
BE31
100
AcDbEntity
  8
1
  6
Continuous
100
AcDbCircle
 10
35.6
 20
189.9058909999999
 30
0.0
 40
0.3
100
AcDbArc
 50
270.0
 51
90.0
  0
ARC
  5
BFB3
330
BE31
100
AcDbEntity
  8
1
  6
Continuous
100
AcDbCircle
 10
29.9
 20
190.5058909999999
 30
0.0
 40
0.3
100
AcDbArc
 50
90.0
 51
270.0
  0
LINE
  5
BFB4
330
BE31
100
AcDbEntity
  8
1
  6
Continuous
100
AcDbLine
 10
29.9
 20
190.2058909999998
 30
0.0
 11
32.891584
 21
189.6058909999999
 31
0.0
  0
LINE
  5
BFB5
330
BE31
100
AcDbEntity
  8
1
  6
Continuous
100
AcDbLine
 10
262.950477
 20
191.4823519999999
 30
0.0
 11
264.587419
 21
190.500187
 31
0.0
  0
LINE
  5
BFB6
330
BE31
100
AcDbEntity
  8
1
  6
Continuous
100
AcDbLine
 10
265.3595769999999
 20
190.391445
 30
0.0
 11
269.1928149999998
 21
191.4136419999999
 31
0.0
  0
LINE
  5
BFB7
330
BE31
100
AcDbEntity
  8
1
  6
Continuous
100
AcDbLine
 10
269.70814
 20
191.4136419999999
 30
0.0
 11
273.541378
 21
190.391445
 31
0.0
  0
LINE
  5
BFB8
330
BE31
100
AcDbEntity
  8
1
  6
Continuous
100
AcDbLine
 10
274.313536
 20
190.500187
 30
0.0
 11
275.9504769999999
 21
191.4823519999999
 31
0.0
  0
LINE
  5
BFB9
330
BE31
100
AcDbEntity
  8
1
  6
Continuous
100
AcDbLine
 10
275.9504769999999
 20
190.976311
 30
0.0
 11
274.313536
 21
189.9941469999999
 31
0.0
  0
LINE
  5
BFBA
330
BE31
100
AcDbEntity
  8
1
  6
Continuous
100
AcDbLine
 10
273.541378
 20
189.8854049999999
 30
0.0
 11
269.70814
 21
190.9076009999998
 31
0.0
  0
LINE
  5
BFBB
330
BE31
100
AcDbEntity
  8
1
  6
Continuous
100
AcDbLine
 10
269.1928149999998
 20
190.9076009999998
 30
0.0
 11
265.3595769999999
 21
189.8854049999999
 31
0.0
  0
LINE
  5
BFBC
330
BE31
100
AcDbEntity
  8
1
  6
Continuous
100
AcDbLine
 10
264.587419
 20
189.9941469999999
 30
0.0
 11
262.950477
 21
190.976311
 31
0.0
  0
ARC
  5
BFBD
330
BE31
100
AcDbEntity
  8
1
  6
Continuous
100
AcDbCircle
 10
273.79904
 20
190.85164
 30
0.0
 40
1.0
100
AcDbArc
 50
255.0685829999999
 51
300.9637569999998
  0
ARC
  5
BFBE
330
BE31
100
AcDbEntity
  8
1
  6
Continuous
100
AcDbCircle
 10
265.101914
 20
190.85164
 30
0.0
 40
1.0
100
AcDbArc
 50
239.036243
 51
284.9314169999999
  0
ARC
  5
BFBF
330
BE31
100
AcDbEntity
  8
1
  6
Continuous
100
AcDbCircle
 10
265.101914
 20
191.3576799999999
 30
0.0
 40
1.0
100
AcDbArc
 50
239.036243
 51
284.9314169999999
  0
ARC
  5
BFC0
330
BE31
100
AcDbEntity
  8
1
  6
Continuous
100
AcDbCircle
 10
273.79904
 20
191.3576799999999
 30
0.0
 40
1.0
100
AcDbArc
 50
255.0685829999999
 51
300.9637569999998
  0
ARC
  5
BFC1
330
BE31
100
AcDbEntity
  8
1
  6
Continuous
100
AcDbCircle
 10
269.4504769999999
 20
189.9413669999999
 30
0.0
 40
1.0
100
AcDbArc
 50
75.06858299999997
 51
104.9314169999999
  0
ARC
  5
BFC2
330
BE31
100
AcDbEntity
  8
1
  6
Continuous
100
AcDbCircle
 10
269.4504769999999
 20
190.447407
 30
0.0
 40
1.0
100
AcDbArc
 50
75.06858299999997
 51
104.9314169999999
  0
ARC
  5
BFC3
330
BE31
100
AcDbEntity
  8
1
  6
Continuous
100
AcDbCircle
 10
266.5675109999999
 20
195.6755159999999
 30
0.0
 40
0.3
100
AcDbArc
 50
90.0
 51
270.0
  0
LINE
  5
BFC4
330
BE31
100
AcDbEntity
  8
1
  6
Continuous
100
AcDbLine
 10
272.267511
 20
195.375516
 30
0.0
 11
270.098587
 21
195.810522
 31
0.0
  0
LINE
  5
BFC5
330
BE31
100
AcDbEntity
  8
1
  6
Continuous
100
AcDbLine
 10
269.1269879999999
 20
194.376148
 30
0.0
 11
266.5675109999999
 21
194.376148
 31
0.0
  0
LINE
  5
BFC6
330
BE31
100
AcDbEntity
  8
1
  6
Continuous
100
AcDbLine
 10
266.5675109999999
 20
193.7761479999998
 30
0.0
 11
272.267511
 21
193.176148
 31
0.0
  0
LINE
  5
BFC7
330
BE31
100
AcDbEntity
  8
1
  6
Continuous
100
AcDbLine
 10
266.5675109999999
 20
192.249854
 30
0.0
 11
272.267511
 21
191.649854
 31
0.0
  0
LINE
  5
BFC8
330
BE31
100
AcDbEntity
  8
1
  6
Continuous
100
AcDbLine
 10
269.1269879999999
 20
192.749854
 30
0.0
 11
266.343904
 21
192.749854
 31
0.0
  0
LINE
  5
BFC9
330
BE31
100
AcDbEntity
  8
1
  6
Continuous
100
AcDbLine
 10
266.5675109999999
 20
195.375516
 30
0.0
 11
272.267511
 21
194.7755159999999
 31
0.0
  0
ARC
  5
BFCA
330
BE31
100
AcDbEntity
  8
1
  6
Continuous
100
AcDbCircle
 10
266.5675109999999
 20
194.0761479999999
 30
0.0
 40
0.3
100
AcDbArc
 50
90.0
 51
270.0
  0
ARC
  5
BFCB
330
BE31
100
AcDbEntity
  8
1
  6
Continuous
100
AcDbCircle
 10
266.5675109999999
 20
192.549854
 30
0.0
 40
0.3
100
AcDbArc
 50
138.1896849999999
 51
270.0
  0
LINE
  5
BFCC
330
BE31
100
AcDbEntity
  8
1
  6
Continuous
100
AcDbLine
 10
269.421958
 20
194.3468599999999
 30
0.0
 11
269.1269879999999
 21
194.376148
 31
0.0
  0
LINE
  5
BFCD
330
BE31
100
AcDbEntity
  8
1
  6
Continuous
100
AcDbLine
 10
269.4175109999998
 20
192.7194659999999
 30
0.0
 11
269.1269879999999
 21
192.749854
 31
0.0
  0
LINE
  5
BFCE
330
BE31
100
AcDbEntity
  8
1
  6
Continuous
100
AcDbLine
 10
272.267511
 20
193.7761479999998
 30
0.0
 11
269.421958
 21
194.3468599999999
 31
0.0
  0
ARC
  5
BFCF
330
BE31
100
AcDbEntity
  8
1
  6
Continuous
100
AcDbCircle
 10
272.267511
 20
193.4761479999998
 30
0.0
 40
0.3
100
AcDbArc
 50
270.0
 51
90.0
  0
LINE
  5
BFD0
330
BE31
100
AcDbEntity
  8
1
  6
Continuous
100
AcDbLine
 10
272.5299339999998
 20
192.0952299999999
 30
0.0
 11
269.402293
 21
192.7225179999999
 31
0.0
  0
ARC
  5
BFD1
330
BE31
100
AcDbEntity
  8
1
  6
Continuous
100
AcDbCircle
 10
272.267511
 20
191.949854
 30
0.0
 40
0.3
100
AcDbArc
 50
270.0
 51
28.98547399999999
  0
ARC
  5
BFD2
330
BE31
100
AcDbEntity
  8
1
  6
Continuous
100
AcDbCircle
 10
272.267511
 20
195.0755159999999
 30
0.0
 40
0.3
100
AcDbArc
 50
270.0
 51
90.0
  0
LINE
  5
BFD3
330
BE31
100
AcDbEntity
  8
1
  6
Continuous
100
AcDbLine
 10
268.516588
 20
195.975516
 30
0.0
 11
266.5675109999999
 21
195.975516
 31
0.0
  0
LINE
  5
BFD4
330
BE31
100
AcDbEntity
  8
1
  6
Continuous
100
AcDbLine
 10
266.838493
 20
196.723476
 30
0.0
 11
267.306392
 21
196.674223
 31
0.0
  0
ARC
  5
BFD5
330
BE31
100
AcDbEntity
  8
1
  6
Continuous
100
AcDbCircle
 10
272.538493
 20
196.423476
 30
0.0
 40
0.3
100
AcDbArc
 50
270.0
 51
6.947930999999997
  0
LINE
  5
BFD6
330
BE31
100
AcDbEntity
  8
1
  6
Continuous
100
AcDbLine
 10
272.8362899999999
 20
196.459766
 30
0.0
 11
271.639023
 21
196.699893
 31
0.0
  0
ARC
  5
BFD7
330
BE31
100
AcDbEntity
  8
1
  6
Continuous
100
AcDbCircle
 10
266.838493
 20
197.0234759999999
 30
0.0
 40
0.3
100
AcDbArc
 50
160.528779
 51
270.0
  0
LINE
  5
BFD8
330
BE31
100
AcDbEntity
  8
1
  6
Continuous
100
AcDbLine
 10
270.9332999999999
 20
196.2924429999999
 30
0.0
 11
272.538493
 21
196.123476
 31
0.0
  0
LINE
  5
BFD9
330
BE31
100
AcDbEntity
  8
1
  6
Continuous
100
AcDbLine
 10
173.257035
 20
258.0602
 30
0.0
 11
172.657035
 21
252.3601999999999
 31
0.0
  0
LINE
  5
BFDA
330
BE31
100
AcDbEntity
  8
1
  6
Continuous
100
AcDbLine
 10
175.657035
 20
258.0602
 30
0.0
 11
175.057035
 21
252.3601999999999
 31
0.0
  0
ARC
  5
BFDB
330
BE31
100
AcDbEntity
  8
1
  6
Continuous
100
AcDbCircle
 10
173.557035
 20
258.0602
 30
0.0
 40
0.3
100
AcDbArc
 50
0.0
 51
180.0
  0
LINE
  5
BFDC
330
BE31
100
AcDbEntity
  8
1
  6
Continuous
100
AcDbLine
 10
173.8570349999999
 20
258.0602
 30
0.0
 11
173.8570349999999
 21
255.2102
 31
0.0
  0
ARC
  5
BFDD
330
BE31
100
AcDbEntity
  8
1
  6
Continuous
100
AcDbCircle
 10
175.9570349999999
 20
258.0602
 30
0.0
 40
0.3
100
AcDbArc
 50
0.0
 51
180.0
  0
LINE
  5
BFDE
330
BE31
100
AcDbEntity
  8
1
  6
Continuous
100
AcDbLine
 10
176.257035
 20
258.0602
 30
0.0
 11
176.257035
 21
255.2102
 31
0.0
  0
LINE
  5
BFDF
330
BE31
100
AcDbEntity
  8
1
  6
Continuous
100
AcDbLine
 10
173.8570349999999
 20
255.2102
 30
0.0
 11
173.257035
 21
252.3601999999999
 31
0.0
  0
LINE
  5
BFE0
330
BE31
100
AcDbEntity
  8
1
  6
Continuous
100
AcDbLine
 10
176.257035
 20
255.2102
 30
0.0
 11
175.657035
 21
252.3601999999999
 31
0.0
  0
ARC
  5
BFE1
330
BE31
100
AcDbEntity
  8
1
  6
Continuous
100
AcDbCircle
 10
172.9570349999999
 20
252.3601999999999
 30
0.0
 40
0.3
100
AcDbArc
 50
180.0
 51
0.0
  0
ARC
  5
BFE2
330
BE31
100
AcDbEntity
  8
1
  6
Continuous
100
AcDbCircle
 10
175.3570349999999
 20
252.3601999999999
 30
0.0
 40
0.3
100
AcDbArc
 50
180.0
 51
0.0
  0
LINE
  5
BFE3
330
BE31
100
AcDbEntity
  8
1
  6
Continuous
100
AcDbLine
 10
145.6002389999999
 20
56.5
 30
0.0
 11
145.6002389999999
 21
55.25
 31
0.0
  0
LINE
  5
BFE4
330
BE31
100
AcDbEntity
  8
1
  6
Continuous
100
AcDbLine
 10
156.6002389999999
 20
56.5
 30
0.0
 11
156.6002389999999
 21
55.25
 31
0.0
  0
LINE
  5
BFE5
330
BE31
100
AcDbEntity
  8
1
  6
Continuous
100
AcDbLine
 10
145.6002389999999
 20
42.25
 30
0.0
 11
145.6002389999999
 21
41.0
 31
0.0
  0
LINE
  5
BFE6
330
BE31
100
AcDbEntity
  8
1
  6
Continuous
100
AcDbLine
 10
156.6002389999999
 20
42.25
 30
0.0
 11
156.6002389999999
 21
41.0
 31
0.0
  0
LINE
  5
BFE7
330
BE31
100
AcDbEntity
  8
1
  6
Continuous
100
AcDbLine
 10
145.3002389999998
 20
56.5
 30
0.0
 11
144.3002389999998
 21
55.25
 31
0.0
  0
LINE
  5
BFE8
330
BE31
100
AcDbEntity
  8
1
  6
Continuous
100
AcDbLine
 10
156.900239
 20
56.5
 30
0.0
 11
157.900239
 21
55.25
 31
0.0
  0
LINE
  5
BFE9
330
BE31
100
AcDbEntity
  8
1
  6
Continuous
100
AcDbLine
 10
157.900239
 20
42.25
 30
0.0
 11
156.900239
 21
41.0
 31
0.0
  0
LINE
  5
BFEA
330
BE31
100
AcDbEntity
  8
1
  6
Continuous
100
AcDbLine
 10
144.3002389999998
 20
42.25
 30
0.0
 11
145.3002389999998
 21
41.0
 31
0.0
  0
ARC
  5
BFEB
330
BE31
100
AcDbEntity
  8
1
  6
Continuous
100
AcDbCircle
 10
151.1002389999999
 20
196.0598
 30
0.0
 40
7.4
100
AcDbArc
 50
18.924644
 51
161.075356
  0
LINE
  5
BFEC
330
BE31
100
AcDbEntity
  8
1
  6
Continuous
100
AcDbLine
 10
145.3002389999998
 20
262.9601999999998
 30
0.0
 11
144.1002389999999
 21
261.4602
 31
0.0
  0
LINE
  5
BFED
330
BE31
100
AcDbEntity
  8
1
  6
Continuous
100
AcDbLine
 10
156.900239
 20
262.9601999999998
 30
0.0
 11
158.1002389999999
 21
261.4602
 31
0.0
  0
LINE
  5
BFEE
330
BE31
100
AcDbEntity
  8
1
  6
Continuous
100
AcDbLine
 10
158.1002389999999
 20
248.9602
 30
0.0
 11
156.900239
 21
247.4601999999999
 31
0.0
  0
LINE
  5
BFEF
330
BE31
100
AcDbEntity
  8
1
  6
Continuous
100
AcDbLine
 10
144.1002389999999
 20
248.9602
 30
0.0
 11
145.3002389999998
 21
247.4601999999999
 31
0.0
  0
ARC
  5
BFF0
330
BE31
100
AcDbEntity
  8
1
  6
Continuous
100
AcDbCircle
 10
151.1002389999999
 20
285.4601999999998
 30
0.0
 40
25.0
100
AcDbArc
 50
253.7397949999999
 51
286.2602049999999
  0
ARC
  5
BFF1
330
BE31
100
AcDbEntity
  8
1
  6
Continuous
100
AcDbCircle
 10
151.1002389999999
 20
224.9601999999999
 30
0.0
 40
25.0
100
AcDbArc
 50
73.739795
 51
106.2602049999999
  0
ARC
  5
BFF2
330
BE31
100
AcDbEntity
  8
1
  6
Continuous
100
AcDbCircle
 10
127.2157379999999
 20
116.9368159999998
 30
0.0
 40
86.288342
100
AcDbArc
 50
65.23739499999999
 51
69.912506
  0
ARC
  5
BFF3
330
BE31
100
AcDbEntity
  8
1
  6
Continuous
100
AcDbCircle
 10
154.195551
 20
141.668017
 30
0.0
 40
54.40024399999999
100
AcDbArc
 50
63.33451100000001
 51
80.30318699999998
  0
ARC
  5
BFF4
330
BE31
100
AcDbEntity
  8
1
  6
Continuous
100
AcDbCircle
 10
127.2157379999999
 20
116.9368159999998
 30
0.0
 40
85.68834200000003
100
AcDbArc
 50
65.27233000000001
 51
69.809646
  0
ARC
  5
BFF5
330
BE31
100
AcDbEntity
  8
1
  6
Continuous
100
AcDbCircle
 10
154.195551
 20
141.668017
 30
0.0
 40
53.80024399999999
100
AcDbArc
 50
63.36707399999998
 51
80.247849
  0
ARC
  5
BFF6
330
BE31
100
AcDbEntity
  8
1
  6
Continuous
100
AcDbCircle
 10
127.2157379999999
 20
116.9368159999998
 30
0.0
 40
85.08834199999999
100
AcDbArc
 50
65.27233000000001
 51
69.705287
  0
ARC
  5
BFF7
330
BE31
100
AcDbEntity
  8
1
  6
Continuous
100
AcDbCircle
 10
154.195551
 20
141.668017
 30
0.0
 40
53.200244
100
AcDbArc
 50
63.400384
 51
80.247849
  0
ARC
  5
BFF8
330
BE31
100
AcDbEntity
  8
1
  6
Continuous
100
AcDbCircle
 10
163.4779729999999
 20
195.6763809999999
 30
0.0
 40
1.0
100
AcDbArc
 50
245.2723299999998
 51
260.2478489999999
  0
ARC
  5
BFF9
330
BE31
100
AcDbEntity
  8
1
  6
Continuous
100
AcDbCircle
 10
163.4779729999999
 20
195.6763809999999
 30
0.0
 40
1.6
100
AcDbArc
 50
245.2723299999998
 51
260.2478489999999
  0
ARC
  5
BFFA
330
BE31
100
AcDbEntity
  8
5
  6
PHANTOM
100
AcDbCircle
 10
127.217979
 20
116.959221
 30
0.0
 40
85.08834199999999
100
AcDbArc
 50
65.40253299999999
 51
69.705287
  0
ARC
  5
BFFB
330
BE31
100
AcDbEntity
  8
5
  6
PHANTOM
100
AcDbCircle
 10
127.216021
 20
116.9396459999999
 30
0.0
 40
85.68834200000003
100
AcDbArc
 50
65.457038
 51
69.809646
  0
ARC
  5
BFFC
330
BE31
100
AcDbEntity
  8
5
  6
PHANTOM
100
AcDbCircle
 10
127.214092
 20
116.920356
 30
0.0
 40
86.288342
100
AcDbArc
 50
65.478415
 51
69.912506
  0
ARC
  5
BFFD
330
BE31
100
AcDbEntity
  8
5
  6
PHANTOM
100
AcDbCircle
 10
154.4656249999999
 20
149.783346
 30
0.0
 40
45.238554
100
AcDbArc
 50
58.54737899999999
 51
79.12665200000002
  0
ARC
  5
BFFE
330
BE31
100
AcDbEntity
  8
5
  6
PHANTOM
100
AcDbCircle
 10
154.4656249999999
 20
149.783346
 30
0.0
 40
45.838554
100
AcDbArc
 50
58.51828399999998
 51
79.22249599999998
  0
ARC
  5
BFFF
330
BE31
100
AcDbEntity
  8
5
  6
PHANTOM
100
AcDbCircle
 10
154.4656249999999
 20
149.783346
 30
0.0
 40
46.43855399999998
100
AcDbArc
 50
58.48993799999998
 51
79.37639699999998
  0
ARC
  5
C000
330
BE31
100
AcDbEntity
  8
5
  6
PHANTOM
100
AcDbCircle
 10
163.301186
 20
195.780987
 30
0.0
 40
1.6
100
AcDbArc
 50
245.4025329999999
 51
259.126652
  0
ARC
  5
C001
330
BE31
100
AcDbEntity
  8
5
  6
PHANTOM
100
AcDbCircle
 10
163.22423
 20
195.795702
 30
0.0
 40
1.0
100
AcDbArc
 50
245.4570379999999
 51
259.2224959999999
  0
LINE
  5
C002
330
BE31
100
AcDbEntity
  8
1
  6
Continuous
100
AcDbLine
 10
275.9504769999999
 20
197.7002569999999
 30
0.0
 11
273.3717049999999
 21
197.7002569999999
 31
0.0
  0
LINE
  5
C003
330
BE31
100
AcDbEntity
  8
1
  6
Continuous
100
AcDbLine
 10
265.5292499999998
 20
197.7002569999999
 30
0.0
 11
262.950477
 21
197.7002569999999
 31
0.0
  0
LINE
  5
C004
330
BE31
100
AcDbEntity
  8
1
  6
Continuous
100
AcDbLine
 10
39.25
 20
197.7002569999999
 30
0.0
 11
26.25
 21
197.7002569999999
 31
0.0
  0
LINE
  5
C005
330
BE31
100
AcDbEntity
  8
1
  6
Continuous
100
AcDbLine
 10
201.700477
 20
42.25
 30
0.0
 11
201.700477
 21
55.25
 31
0.0
  0
LINE
  5
C006
330
BE31
100
AcDbEntity
  8
1
  6
Continuous
100
AcDbLine
 10
100.5
 20
55.25
 30
0.0
 11
100.5
 21
42.25
 31
0.0
  0
LINE
  5
C007
330
BE31
100
AcDbEntity
  8
1
  6
Continuous
100
AcDbLine
 10
201.700477
 20
261.7102
 30
0.0
 11
201.700477
 21
248.7101999999999
 31
0.0
  0
LINE
  5
C008
330
BE31
100
AcDbEntity
  8
1
  6
Continuous
100
AcDbLine
 10
100.5
 20
248.7101999999999
 30
0.0
 11
100.5
 21
261.7102
 31
0.0
  0
LINE
  5
C009
330
BE31
100
AcDbEntity
  8
1
  6
Continuous
100
AcDbLine
 10
170.857035
 20
258.0602
 30
0.0
 11
170.257035
 21
252.3601999999999
 31
0.0
  0
LINE
  5
C00A
330
BE31
100
AcDbEntity
  8
1
  6
Continuous
100
AcDbLine
 10
171.4570349999999
 20
255.2102
 30
0.0
 11
170.857035
 21
252.3601999999999
 31
0.0
  0
ARC
  5
C00B
330
BE31
100
AcDbEntity
  8
1
  6
Continuous
100
AcDbCircle
 10
170.557035
 20
252.3601999999999
 30
0.0
 40
0.3
100
AcDbArc
 50
180.0
 51
0.0
  0
ARC
  5
C00C
330
BE31
100
AcDbEntity
  8
1
  6
Continuous
100
AcDbCircle
 10
171.157035
 20
258.0602
 30
0.0
 40
0.3
100
AcDbArc
 50
0.0
 51
180.0
  0
LINE
  5
C00D
330
BE31
100
AcDbEntity
  8
1
  6
Continuous
100
AcDbLine
 10
171.4570349999999
 20
258.0602
 30
0.0
 11
171.4570349999999
 21
255.2102
 31
0.0
  0
LINE
  5
C00E
330
BE31
100
AcDbEntity
  8
1
  6
Continuous
100
AcDbLine
 10
168.4570349999999
 20
258.0602
 30
0.0
 11
168.3502389999999
 21
257.045637
 31
0.0
  0
LINE
  5
C00F
330
BE31
100
AcDbEntity
  8
1
  6
Continuous
100
AcDbLine
 10
169.057035
 20
255.2102
 30
0.0
 11
168.4570349999999
 21
252.3601999999999
 31
0.0
  0
ARC
  5
C010
330
BE31
100
AcDbEntity
  8
1
  6
Continuous
100
AcDbCircle
 10
168.157035
 20
252.3601999999999
 30
0.0
 40
0.3
100
AcDbArc
 50
310.091706
 51
0.0
  0
LINE
  5
C011
330
BE31
100
AcDbEntity
  8
1
  6
Continuous
100
AcDbLine
 10
169.057035
 20
258.0602
 30
0.0
 11
169.057035
 21
255.2102
 31
0.0
  0
ARC
  5
C012
330
BE31
100
AcDbEntity
  8
1
  6
Continuous
100
AcDbCircle
 10
168.757035
 20
258.0602
 30
0.0
 40
0.3
100
AcDbArc
 50
0.0
 51
180.0
  0
LINE
  5
C013
330
BE31
100
AcDbEntity
  8
1
  6
Continuous
100
AcDbLine
 10
264.9504769999999
 20
198.034411
 30
0.0
 11
268.9504769999999
 21
195.7250099999999
 31
0.0
  0
ARC
  5
C014
330
BE31
100
AcDbEntity
  8
1
  6
Continuous
100
AcDbCircle
 10
269.4504769999999
 20
196.591036
 30
0.0
 40
1.0
100
AcDbArc
 50
239.9999999999999
 51
300.0
  0
LINE
  5
C015
330
BE31
100
AcDbEntity
  8
1
  6
Continuous
100
AcDbLine
 10
269.9504769999999
 20
195.7250099999999
 30
0.0
 11
273.9504769999999
 21
198.034411
 31
0.0
  0
ARC
  5
C016
330
BE31
100
AcDbEntity
  8
1
  6
Continuous
100
AcDbCircle
 10
273.450477
 20
198.900437
 30
0.0
 40
1.0
100
AcDbArc
 50
300.0
 51
0.0
  0
LINE
  5
C017
330
BE31
100
AcDbEntity
  8
1
  6
Continuous
100
AcDbLine
 10
274.4504769999999
 20
198.900437
 30
0.0
 11
274.4504769999999
 21
203.519239
 31
0.0
  0
ARC
  5
C018
330
BE31
100
AcDbEntity
  8
1
  6
Continuous
100
AcDbCircle
 10
273.450477
 20
203.519239
 30
0.0
 40
1.0
100
AcDbArc
 50
0.0
 51
60.0
  0
LINE
  5
C019
330
BE31
100
AcDbEntity
  8
1
  6
Continuous
100
AcDbLine
 10
273.9504769999999
 20
204.3852639999998
 30
0.0
 11
269.9504769999999
 21
206.6946649999999
 31
0.0
  0
ARC
  5
C01A
330
BE31
100
AcDbEntity
  8
1
  6
Continuous
100
AcDbCircle
 10
269.4504769999999
 20
205.8286399999999
 30
0.0
 40
1.0
100
AcDbArc
 50
60.0
 51
119.9999999999999
  0
LINE
  5
C01B
330
BE31
100
AcDbEntity
  8
1
  6
Continuous
100
AcDbLine
 10
268.9504769999999
 20
206.6946649999999
 30
0.0
 11
264.9504769999999
 21
204.3852639999998
 31
0.0
  0
ARC
  5
C01C
330
BE31
100
AcDbEntity
  8
1
  6
Continuous
100
AcDbCircle
 10
265.4504769999999
 20
203.519239
 30
0.0
 40
1.0
100
AcDbArc
 50
119.9999999999999
 51
180.0
  0
LINE
  5
C01D
330
BE31
100
AcDbEntity
  8
1
  6
Continuous
100
AcDbLine
 10
264.4504769999999
 20
203.519239
 30
0.0
 11
264.4504769999999
 21
198.900437
 31
0.0
  0
ARC
  5
C01E
330
BE31
100
AcDbEntity
  8
1
  6
Continuous
100
AcDbCircle
 10
265.4504769999999
 20
198.900437
 30
0.0
 40
1.0
100
AcDbArc
 50
180.0
 51
239.9999999999999
  0
ENDSEC
  0
SECTION
  2
OBJECTS
  0
DICTIONARY
  5
BE1F
330
0
100
AcDbDictionary
281
     1
  3
ACAD_CIP_PREVIOUS_PRODUCT_INFO
350
C07E
  3
ACAD_COLOR
350
C060
  3
ACAD_DETAILVIEWSTYLE
350
C079
  3
ACAD_GROUP
350
BE20
  3
ACAD_LAYOUT
350
BE2C
  3
ACAD_MATERIAL
350
C02E
  3
ACAD_MLEADERSTYLE
350
C075
  3
ACAD_MLINESTYLE
350
BE29
  3
ACAD_PLOTSETTINGS
350
BE2B
  3
ACAD_PLOTSTYLENAME
350
C02C
  3
ACAD_SCALELIST
350
C063
  3
ACAD_SECTIONVIEWSTYLE
350
C077
  3
ACAD_TABLESTYLE
350
C061
  3
ACAD_VISUALSTYLE
350
C047
  3
ACDB_RECOMPOSE_DATA
350
C09C
  3
AcDbVariableDictionary
350
C08F
  3
DWGPROPS
350
C09D
  0
DICTIONARY
  5
C07F
330
BE23
100
AcDbDictionary
280
     1
281
     1
  3
ADSK_XREC_LAYER_RECONCILED
360
C080
  0
DICTIONARY
  5
C081
330
BE39
100
AcDbDictionary
280
     1
281
     1
  3
ADSK_XREC_LAYER_RECONCILED
360
C082
  0
DICTIONARY
  5
C083
330
BE3A
100
AcDbDictionary
280
     1
281
     1
  3
ADSK_XREC_LAYER_RECONCILED
360
C084
  0
DICTIONARY
  5
C085
330
BE3B
100
AcDbDictionary
280
     1
281
     1
  3
ADSK_XREC_LAYER_RECONCILED
360
C086
  0
DICTIONARY
  5
C087
330
BE3C
100
AcDbDictionary
280
     1
281
     1
  3
ADSK_XREC_LAYER_RECONCILED
360
C088
  0
DICTIONARY
  5
C089
330
BE3D
100
AcDbDictionary
280
     1
281
     1
  3
ADSK_XREC_LAYER_RECONCILED
360
C08A
  0
DICTIONARY
  5
C08B
330
BE3E
100
AcDbDictionary
280
     1
281
     1
  3
ADSK_XREC_LAYER_RECONCILED
360
C08C
  0
DICTIONARY
  5
C08D
330
BE3F
100
AcDbDictionary
280
     1
281
     1
  3
ADSK_XREC_LAYER_RECONCILED
360
C08E
  0
DICTIONARY
  5
C027
330
BE31
100
AcDbDictionary
281
     1
  3
ACAD_LAYOUTSELFREF
350
C028
  0
DICTIONARY
  5
C025
330
BE2D
100
AcDbDictionary
281
     1
  3
ACAD_LAYOUTSELFREF
350
C026
  0
XRECORD
  5
C07E
102
{ACAD_REACTORS
330
BE1F
102
}
330
BE1F
100
AcDbXrecord
280
     1
300
ACDLT
300
2014
300
ACDLT_F_S
  0
DICTIONARY
  5
C060
102
{ACAD_REACTORS
330
BE1F
102
}
330
BE1F
100
AcDbDictionary
281
     1
  0
DICTIONARY
  5
C079
102
{ACAD_REACTORS
330
BE1F
102
}
330
BE1F
100
AcDbDictionary
281
     1
  3
Imperial24
350
C07A
  0
DICTIONARY
  5
BE20
102
{ACAD_REACTORS
330
BE1F
102
}
330
BE1F
100
AcDbDictionary
281
     1
  0
DICTIONARY
  5
BE2C
102
{ACAD_REACTORS
330
BE1F
102
}
330
BE1F
100
AcDbDictionary
281
     1
  3
Model
350
C07B
  3
レイアウト1
350
C07C
  0
DICTIONARY
  5
C02E
102
{ACAD_REACTORS
330
BE1F
102
}
330
BE1F
100
AcDbDictionary
281
     1
  3
ByBlock
350
C037
  3
ByLayer
350
C02F
  3
Global
350
C03F
  0
DICTIONARY
  5
C075
102
{ACAD_REACTORS
330
BE1F
102
}
330
BE1F
100
AcDbDictionary
281
     1
  3
Standard
350
C076
  0
DICTIONARY
  5
BE29
102
{ACAD_REACTORS
330
BE1F
102
}
330
BE1F
100
AcDbDictionary
281
     1
  3
STANDARD
350
BE2A
  0
DICTIONARY
  5
BE2B
102
{ACAD_REACTORS
330
BE1F
102
}
330
BE1F
100
AcDbDictionary
281
     1
  0
ACDBDICTIONARYWDFLT
  5
C02C
102
{ACAD_REACTORS
330
BE1F
102
}
330
BE1F
100
AcDbDictionary
281
     1
  3
Normal
350
C02D
100
AcDbDictionaryWithDefault
340
C02D
  0
DICTIONARY
  5
C063
102
{ACAD_REACTORS
330
BE1F
102
}
330
BE1F
100
AcDbDictionary
281
     1
  3
A0
350
C064
  3
A1
350
C065
  3
A2
350
C066
  3
A3
350
C067
  3
A4
350
C068
  3
A5
350
C069
  3
A6
350
C06A
  3
A7
350
C06B
  3
A8
350
C06C
  3
A9
350
C06D
  3
B0
350
C06E
  3
B1
350
C06F
  3
B2
350
C070
  3
B3
350
C071
  3
B4
350
C072
  3
B5
350
C073
  3
B6
350
C074
  0
DICTIONARY
  5
C077
102
{ACAD_REACTORS
330
BE1F
102
}
330
BE1F
100
AcDbDictionary
281
     1
  3
Imperial24
350
C078
  0
DICTIONARY
  5
C061
102
{ACAD_REACTORS
330
BE1F
102
}
330
BE1F
100
AcDbDictionary
281
     1
  3
Standard
350
C062
  0
DICTIONARY
  5
C047
102
{ACAD_REACTORS
330
BE1F
102
}
330
BE1F
100
AcDbDictionary
281
     1
  3
2dWireframe
350
C04D
  3
Basic
350
C04C
  3
Brighten
350
C053
  3
ColorChange
350
C057
  3
Conceptual
350
C050
  3
Dim
350
C052
  3
EdgeColorOff
350
C05F
  3
Facepattern
350
C056
  3
Flat
350
C048
  3
FlatWithEdges
350
C049
  3
Gouraud
350
C04A
  3
GouraudWithEdges
350
C04B
  3
Hidden
350
C04F
  3
JitterOff
350
C05D
  3
Linepattern
350
C055
  3
OverhangOff
350
C05E
  3
Realistic
350
C051
  3
Shaded
350
C05C
  3
Shaded with edges
350
C05B
  3
Shades of Gray
350
C058
  3
Sketchy
350
C059
  3
Thicken
350
C054
  3
Wireframe
350
C04E
  3
X-Ray
350
C05A
  0
XRECORD
  5
C09C
102
{ACAD_REACTORS
330
BE1F
102
}
330
BE1F
100
AcDbXrecord
280
     1
 90
        1
330
C062
  0
DICTIONARY
  5
C08F
102
{ACAD_REACTORS
330
BE1F
102
}
330
BE1F
100
AcDbDictionary
281
     1
  3
CANNOSCALE
350
C094
  3
CMLEADERSTYLE
350
C091
  3
CTABLESTYLE
350
C090
  3
CVIEWDETAILSTYLE
350
C092
  3
CVIEWSECTIONSTYLE
350
C093
  3
DIMASSOC
350
C097
  3
INDEXCTL
350
C096
  3
SORTENTS
350
C095
  3
XCLIPFRAME
350
C098
  0
XRECORD
  5
C09D
102
{ACAD_REACTORS
330
BE1F
102
}
330
BE1F
100
AcDbXrecord
280
     1
  1
DWGPROPS COOKIE
  2

  3

  4

  6

  7

  8
Yoshitsune
  9

300
=
301
=
302
=
303
=
304
=
305
=
306
=
307
=
308
=
309
=
 40
0.0000106944444444
 41
2451296.795513079
 42
2457192.658319711
  1

 90
        0
  0
XRECORD
  5
C080
102
{ACAD_REACTORS
330
C07F
102
}
330
C07F
100
AcDbXrecord
280
     1
290
     1
  0
XRECORD
  5
C082
102
{ACAD_REACTORS
330
C081
102
}
330
C081
100
AcDbXrecord
280
     1
290
     1
  0
XRECORD
  5
C084
102
{ACAD_REACTORS
330
C083
102
}
330
C083
100
AcDbXrecord
280
     1
290
     1
  0
XRECORD
  5
C086
102
{ACAD_REACTORS
330
C085
102
}
330
C085
100
AcDbXrecord
280
     1
290
     1
  0
XRECORD
  5
C088
102
{ACAD_REACTORS
330
C087
102
}
330
C087
100
AcDbXrecord
280
     1
290
     1
  0
XRECORD
  5
C08A
102
{ACAD_REACTORS
330
C089
102
}
330
C089
100
AcDbXrecord
280
     1
290
     1
  0
XRECORD
  5
C08C
102
{ACAD_REACTORS
330
C08B
102
}
330
C08B
100
AcDbXrecord
280
     1
290
     1
  0
XRECORD
  5
C08E
102
{ACAD_REACTORS
330
C08D
102
}
330
C08D
100
AcDbXrecord
280
     1
290
     1
  0
XRECORD
  5
C028
102
{ACAD_REACTORS
330
C027
102
}
330
C027
100
AcDbXrecord
280
     1
340
BE31
  0
XRECORD
  5
C026
102
{ACAD_REACTORS
330
C025
102
}
330
C025
100
AcDbXrecord
280
     1
340
BE2D
  0
ACDBDETAILVIEWSTYLE
  5
C07A
102
{ACAD_XDICTIONARY
360
C0D5
102
}
102
{ACAD_REACTORS
330
C079
102
}
330
C079
100
AcDbModelDocViewStyle
 70
     0
  3
Imperial24
290
     0
100
AcDbDetailViewStyle
 70
     0
 71
     0
 90
        3
 71
     1
340
BE24
 40
0.24
340
0
 40
0.24
300

 40
0.36
280
     3
 71
     2
340
BE28
 90
       25
 71
     3
340
BE24
 40
0.24
 90
        1
 40
0.75
 90
        1
300
%<\AcVar ViewType \f "%tc1">% %<\AcVar ViewDetailId>%\PSCALE %<\AcVar ViewScale \f "%sn">%
 71
     4
340
BE28
 90
       25
340
BE28
 90
       25
280
     0
  0
LAYOUT
  5
C07B
102
{ACAD_XDICTIONARY
360
C0D7
102
}
102
{ACAD_REACTORS
330
BE2C
102
}
330
BE2C
100
AcDbPlotSettings
  1

  2
Canon LBP9100C
  4

  6

 40
0.0
 41
0.0
 42
0.0
 43
0.0
 44
0.0
 45
0.0
 46
0.0
 47
0.0
 48
0.0
 49
0.0
140
0.0
141
0.0
142
1.0
143
1.0
 70
  1712
 72
     0
 73
     0
 74
     0
  7

 75
     0
147
1.0
148
0.0
149
0.0
100
AcDbLayout
  1
Model
 70
     1
 71
     0
 10
0.0
 20
0.0
 11
12.0
 21
9.0
 12
0.0
 22
0.0
 32
0.0
 14
0.0
 24
0.0
 34
0.0
 15
0.0
 25
0.0
 35
0.0
146
0.0
 13
0.0
 23
0.0
 33
0.0
 16
1.0
 26
0.0
 36
0.0
 17
0.0
 27
1.0
 37
0.0
 76
     0
330
BE31
331
C024
  0
LAYOUT
  5
C07C
102
{ACAD_XDICTIONARY
360
C0D9
102
}
102
{ACAD_REACTORS
330
BE2C
102
}
330
BE2C
100
AcDbPlotSettings
  1

  2
Canon LBP9100C
  4

  6

 40
0.0
 41
0.0
 42
0.0
 43
0.0
 44
0.0
 45
0.0
 46
0.0
 47
0.0
 48
0.0
 49
0.0
140
0.0
141
0.0
142
1.0
143
1.0
 70
   688
 72
     0
 73
     0
 74
     5
  7

 75
    16
147
1.0
148
0.0
149
0.0
100
AcDbLayout
  1
レイアウト1
 70
     0
 71
     1
 10
0.0
 20
0.0
 11
420.0
 21
297.0
 12
0.0
 22
0.0
 32
0.0
 14
1.000000000000000E+20
 24
1.000000000000000E+20
 34
1.000000000000000E+20
 15
-1.000000000000000E+20
 25
-1.000000000000000E+20
 35
-1.000000000000000E+20
146
0.0
 13
0.0
 23
0.0
 33
0.0
 16
1.0
 26
0.0
 36
0.0
 17
0.0
 27
1.0
 37
0.0
 76
     0
330
BE2D
  0
MATERIAL
  5
C037
102
{ACAD_XDICTIONARY
360
C038
102
}
102
{ACAD_REACTORS
330
C02E
102
}
330
C02E
100
AcDbMaterial
  1
ByBlock
 72
     0
 43
0.0208333333333333
 43
0.0
 43
0.0
 43
0.0
 43
0.0
 43
0.0208333333333333
 43
0.0
 43
0.0
 43
0.0
 43
0.0
 43
1.0
 43
0.0
 43
0.0
 43
0.0
 43
0.0
 43
1.0
 77
     0
 47
0.0208333333333333
 47
0.0
 47
0.0
 47
0.0
 47
0.0
 47
0.0208333333333333
 47
0.0
 47
0.0
 47
0.0
 47
0.0
 47
1.0
 47
0.0
 47
0.0
 47
0.0
 47
0.0
 47
1.0
171
     0
 49
0.0208333333333333
 49
0.0
 49
0.0
 49
0.0
 49
0.0
 49
0.0208333333333333
 49
0.0
 49
0.0
 49
0.0
 49
0.0
 49
1.0
 49
0.0
 49
0.0
 49
0.0
 49
0.0
 49
1.0
175
     0
142
0.0208333333333333
142
0.0
142
0.0
142
0.0
142
0.0
142
0.0208333333333333
142
0.0
142
0.0
142
0.0
142
0.0
142
1.0
142
0.0
142
0.0
142
0.0
142
0.0
142
1.0
179
     0
144
0.0208333333333333
144
0.0
144
0.0
144
0.0
144
0.0
144
0.0208333333333333
144
0.0
144
0.0
144
0.0
144
0.0
144
1.0
144
0.0
144
0.0
144
0.0
144
0.0
144
1.0
147
0.0208333333333333
147
0.0
147
0.0
147
0.0
147
0.0
147
0.0208333333333333
147
0.0
147
0.0
147
0.0
147
0.0
147
1.0
147
0.0
147
0.0
147
0.0
147
0.0
147
1.0
  0
MATERIAL
  5
C02F
102
{ACAD_XDICTIONARY
360
C030
102
}
102
{ACAD_REACTORS
330
C02E
102
}
330
C02E
100
AcDbMaterial
  1
ByLayer
 72
     0
 43
0.0208333333333333
 43
0.0
 43
0.0
 43
0.0
 43
0.0
 43
0.0208333333333333
 43
0.0
 43
0.0
 43
0.0
 43
0.0
 43
1.0
 43
0.0
 43
0.0
 43
0.0
 43
0.0
 43
1.0
 77
     0
 47
0.0208333333333333
 47
0.0
 47
0.0
 47
0.0
 47
0.0
 47
0.0208333333333333
 47
0.0
 47
0.0
 47
0.0
 47
0.0
 47
1.0
 47
0.0
 47
0.0
 47
0.0
 47
0.0
 47
1.0
171
     0
 49
0.0208333333333333
 49
0.0
 49
0.0
 49
0.0
 49
0.0
 49
0.0208333333333333
 49
0.0
 49
0.0
 49
0.0
 49
0.0
 49
1.0
 49
0.0
 49
0.0
 49
0.0
 49
0.0
 49
1.0
175
     0
142
0.0208333333333333
142
0.0
142
0.0
142
0.0
142
0.0
142
0.0208333333333333
142
0.0
142
0.0
142
0.0
142
0.0
142
1.0
142
0.0
142
0.0
142
0.0
142
0.0
142
1.0
179
     0
144
0.0208333333333333
144
0.0
144
0.0
144
0.0
144
0.0
144
0.0208333333333333
144
0.0
144
0.0
144
0.0
144
0.0
144
1.0
144
0.0
144
0.0
144
0.0
144
0.0
144
1.0
147
0.0208333333333333
147
0.0
147
0.0
147
0.0
147
0.0
147
0.0208333333333333
147
0.0
147
0.0
147
0.0
147
0.0
147
1.0
147
0.0
147
0.0
147
0.0
147
0.0
147
1.0
  0
MATERIAL
  5
C03F
102
{ACAD_XDICTIONARY
360
C040
102
}
102
{ACAD_REACTORS
330
C02E
102
}
330
C02E
100
AcDbMaterial
  1
Global
 72
     0
 43
0.0208333333333333
 43
0.0
 43
0.0
 43
0.0
 43
0.0
 43
0.0208333333333333
 43
0.0
 43
0.0
 43
0.0
 43
0.0
 43
1.0
 43
0.0
 43
0.0
 43
0.0
 43
0.0
 43
1.0
 77
     0
 47
0.0208333333333333
 47
0.0
 47
0.0
 47
0.0
 47
0.0
 47
0.0208333333333333
 47
0.0
 47
0.0
 47
0.0
 47
0.0
 47
1.0
 47
0.0
 47
0.0
 47
0.0
 47
0.0
 47
1.0
171
     0
 49
0.0208333333333333
 49
0.0
 49
0.0
 49
0.0
 49
0.0
 49
0.0208333333333333
 49
0.0
 49
0.0
 49
0.0
 49
0.0
 49
1.0
 49
0.0
 49
0.0
 49
0.0
 49
0.0
 49
1.0
175
     0
142
0.0208333333333333
142
0.0
142
0.0
142
0.0
142
0.0
142
0.0208333333333333
142
0.0
142
0.0
142
0.0
142
0.0
142
1.0
142
0.0
142
0.0
142
0.0
142
0.0
142
1.0
179
     0
144
0.0208333333333333
144
0.0
144
0.0
144
0.0
144
0.0
144
0.0208333333333333
144
0.0
144
0.0
144
0.0
144
0.0
144
1.0
144
0.0
144
0.0
144
0.0
144
0.0
144
1.0
147
0.0208333333333333
147
0.0
147
0.0
147
0.0
147
0.0
147
0.0208333333333333
147
0.0
147
0.0
147
0.0
147
0.0
147
1.0
147
0.0
147
0.0
147
0.0
147
0.0
147
1.0
  0
MLEADERSTYLE
  5
C076
102
{ACAD_REACTORS
330
C075
102
}
330
C075
100
AcDbMLeaderStyle
170
     2
171
     1
172
     0
 90
        2
 40
0.0
 41
0.0
173
     1
 91
-1056964608
340
BE26
 92
       -2
290
     1
 42
0.09
291
     1
 43
0.36
  3
Standard
 44
0.18
300

342
BE24
174
     1
178
     6
175
     1
176
     0
 93
-1056964608
 45
0.18
292
     0
297
     0
 46
0.18
 94
-1056964608
 47
1.0
 49
1.0
140
1.0
293
     1
141
0.0
294
     1
177
     0
142
1.0
295
     0
296
     0
143
0.125
1001
ACAD_MLEADERVER
1070
     2
  0
MLINESTYLE
  5
BE2A
102
{ACAD_REACTORS
330
BE29
102
}
330
BE29
100
AcDbMlineStyle
  2
STANDARD
 70
     0
  3

 62
   256
 51
90.0
 52
90.0
 71
     2
 49
0.5
 62
   256
  6
BYLAYER
 49
-0.5
 62
   256
  6
BYLAYER
  0
ACDBPLACEHOLDER
  5
C02D
102
{ACAD_REACTORS
330
C02C
102
}
330
C02C
  0
SCALE
  5
C064
102
{ACAD_REACTORS
330
C063
102
}
330
C063
100
AcDbScale
 70
     0
300
1:1
140
1.0
141
1.0
290
     1
  0
SCALE
  5
C065
102
{ACAD_REACTORS
330
C063
102
}
330
C063
100
AcDbScale
 70
     0
300
1/128" = 1'-0"
140
0.0078125
141
12.0
290
     0
  0
SCALE
  5
C066
102
{ACAD_REACTORS
330
C063
102
}
330
C063
100
AcDbScale
 70
     0
300
1/64" = 1'-0"
140
0.015625
141
12.0
290
     0
  0
SCALE
  5
C067
102
{ACAD_REACTORS
330
C063
102
}
330
C063
100
AcDbScale
 70
     0
300
1/32" = 1'-0"
140
0.03125
141
12.0
290
     0
  0
SCALE
  5
C068
102
{ACAD_REACTORS
330
C063
102
}
330
C063
100
AcDbScale
 70
     0
300
1/16" = 1'-0"
140
0.0625
141
12.0
290
     0
  0
SCALE
  5
C069
102
{ACAD_REACTORS
330
C063
102
}
330
C063
100
AcDbScale
 70
     0
300
3/32" = 1'-0"
140
0.09375
141
12.0
290
     0
  0
SCALE
  5
C06A
102
{ACAD_REACTORS
330
C063
102
}
330
C063
100
AcDbScale
 70
     0
300
1/8" = 1'-0"
140
0.125
141
12.0
290
     0
  0
SCALE
  5
C06B
102
{ACAD_REACTORS
330
C063
102
}
330
C063
100
AcDbScale
 70
     0
300
3/16" = 1'-0"
140
0.1875
141
12.0
290
     0
  0
SCALE
  5
C06C
102
{ACAD_REACTORS
330
C063
102
}
330
C063
100
AcDbScale
 70
     0
300
1/4" = 1'-0"
140
0.25
141
12.0
290
     0
  0
SCALE
  5
C06D
102
{ACAD_REACTORS
330
C063
102
}
330
C063
100
AcDbScale
 70
     0
300
3/8" = 1'-0"
140
0.375
141
12.0
290
     0
  0
SCALE
  5
C06E
102
{ACAD_REACTORS
330
C063
102
}
330
C063
100
AcDbScale
 70
     0
300
1/2" = 1'-0"
140
0.5
141
12.0
290
     0
  0
SCALE
  5
C06F
102
{ACAD_REACTORS
330
C063
102
}
330
C063
100
AcDbScale
 70
     0
300
3/4" = 1'-0"
140
0.75
141
12.0
290
     0
  0
SCALE
  5
C070
102
{ACAD_REACTORS
330
C063
102
}
330
C063
100
AcDbScale
 70
     0
300
1" = 1'-0"
140
1.0
141
12.0
290
     0
  0
SCALE
  5
C071
102
{ACAD_REACTORS
330
C063
102
}
330
C063
100
AcDbScale
 70
     0
300
1-1/2" = 1'-0"
140
1.5
141
12.0
290
     0
  0
SCALE
  5
C072
102
{ACAD_REACTORS
330
C063
102
}
330
C063
100
AcDbScale
 70
     0
300
3" = 1'-0"
140
3.0
141
12.0
290
     0
  0
SCALE
  5
C073
102
{ACAD_REACTORS
330
C063
102
}
330
C063
100
AcDbScale
 70
     0
300
6" = 1'-0"
140
6.0
141
12.0
290
     0
  0
SCALE
  5
C074
102
{ACAD_REACTORS
330
C063
102
}
330
C063
100
AcDbScale
 70
     0
300
1'-0" = 1'-0"
140
12.0
141
12.0
290
     0
  0
ACDBSECTIONVIEWSTYLE
  5
C078
102
{ACAD_XDICTIONARY
360
C0D3
102
}
102
{ACAD_REACTORS
330
C077
102
}
330
C077
100
AcDbModelDocViewStyle
 70
     0
  3
Imperial24
290
     0
100
AcDbSectionViewStyle
 70
     0
 71
     0
 90
       78
 71
     1
340
BE24
 40
0.24
340
0
340
0
 40
0.24
300
I, O, Q, S, X, Z
 40
0.48
 90
        3
 40
0.18
 90
        1
 71
     2
340
BE28
 90
       25
340
BE28
 90
       50
 40
0.24
 40
0.0
 40
0.24
 71
     3
340
BE24
 40
0.24
 90
        1
 40
0.75
 90
        1
300
%<\AcVar ViewType \f "%tc1">% %<\AcVar ViewSectionStartId>%-%<\AcVar ViewSectionEndId>%\PSCALE %<\AcVar ViewScale \f "%sn">%
 71
     4
300
ANSI31
 40
1.0
 90
        0
290
     0
290
     0
 90
        6
 40
0.0
 40
1.570796326794896
 40
0.2617993877991494
 40
1.308996938995747
 40
-0.2617993877991494
 40
1.832595714594046
  0
TABLESTYLE
  5
C062
102
{ACAD_XDICTIONARY
360
C09A
102
}
102
{ACAD_REACTORS
330
C061
102
}
330
C061
100
AcDbTableStyle
  3
Standard
 70
     0
 71
     0
 40
0.06
 41
0.06
280
     0
281
     0
  7
STANDARD
140
0.18
170
     2
 62
     0
 63
     7
283
     0
274
    -2
284
     1
 64
     0
275
    -2
285
     1
 65
     0
276
    -2
286
     1
 66
     0
277
    -2
287
     1
 67
     0
278
    -2
288
     1
 68
     0
279
    -2
289
     1
 69
     0
  7
STANDARD
140
0.25
170
     5
 62
     0
 63
     7
283
     0
274
    -2
284
     1
 64
     0
275
    -2
285
     1
 65
     0
276
    -2
286
     1
 66
     0
277
    -2
287
     1
 67
     0
278
    -2
288
     1
 68
     0
279
    -2
289
     1
 69
     0
  7
STANDARD
140
0.18
170
     5
 62
     0
 63
     7
283
     0
274
    -2
284
     1
 64
     0
275
    -2
285
     1
 65
     0
276
    -2
286
     1
 66
     0
277
    -2
287
     1
 67
     0
278
    -2
288
     1
 68
     0
279
    -2
289
     1
 69
     0
  0
VISUALSTYLE
  5
C04D
102
{ACAD_XDICTIONARY
360
C0AB
102
}
102
{ACAD_REACTORS
330
C047
102
}
330
C047
100
AcDbVisualStyle
  2
2dWireframe
 70
     4
 71
     0
 72
     2
 73
     0
 90
        0
 40
-0.6
 41
-30.0
 62
     5
 63
     7
 74
     1
 91
        4
 64
     7
 65
   257
 75
     1
175
     1
 42
1.0
 92
        0
 66
   257
 43
1.0
 76
     1
 77
     6
 78
     2
 67
     7
 79
     5
170
     0
171
     0
290
     0
174
     0
 93
        1
 44
0.0
173
     0
291
     0
 45
0.0
1001
ACAD
1000
AcDbSavedByObjectVersion
1070
     0
  0
VISUALSTYLE
  5
C04C
102
{ACAD_XDICTIONARY
360
C0A9
102
}
102
{ACAD_REACTORS
330
C047
102
}
330
C047
100
AcDbVisualStyle
  2
Basic
 70
     7
 71
     1
 72
     0
 73
     1
 90
        0
 40
-0.6
 41
-30.0
 62
     5
 63
     7
 74
     0
 91
        4
 64
     7
 65
   257
 75
     1
175
     1
 42
1.0
 92
        8
 66
     7
 43
1.0
 76
     1
 77
     6
 78
     2
 67
     7
 79
     5
170
     0
171
     0
290
     0
174
     0
 93
        1
 44
0.0
173
     0
291
     1
 45
0.0
1001
ACAD
1000
AcDbSavedByObjectVersion
1070
     0
  0
VISUALSTYLE
  5
C053
102
{ACAD_XDICTIONARY
360
C0B7
102
}
102
{ACAD_REACTORS
330
C047
102
}
330
C047
100
AcDbVisualStyle
  2
Brighten
 70
    12
 71
     2
 72
     2
 73
     0
 90
        0
 40
-0.6
 41
-30.0
 62
     5
 63
     7
 74
     1
 91
        4
 64
     7
 65
   257
 75
     1
175
     1
 42
1.0
 92
        8
 66
     7
 43
1.0
 76
     1
 77
     6
 78
     2
 67
     7
 79
     5
170
     0
171
     0
290
     0
174
     0
 93
        1
 44
50.0
173
     0
291
     1
 45
0.0
1001
ACAD
1000
AcDbSavedByObjectVersion
1070
     0
  0
VISUALSTYLE
  5
C057
102
{ACAD_XDICTIONARY
360
C0BF
102
}
102
{ACAD_REACTORS
330
C047
102
}
330
C047
100
AcDbVisualStyle
  2
ColorChange
 70
    16
 71
     2
 72
     2
 73
     3
 90
        0
 40
-0.6
 41
-30.0
 62
     5
 63
     8
 74
     1
 91
        4
 64
     7
 65
   257
 75
     1
175
     1
 42
1.0
 92
        8
 66
     8
 43
1.0
 76
     1
 77
     6
 78
     2
 67
     7
 79
     5
170
     0
171
     0
290
     0
174
     0
 93
        1
 44
0.0
173
     0
291
     1
 45
0.0
1001
ACAD
1000
AcDbSavedByObjectVersion
1070
     0
  0
VISUALSTYLE
  5
C050
102
{ACAD_XDICTIONARY
360
C0B1
102
}
102
{ACAD_REACTORS
330
C047
102
}
330
C047
100
AcDbVisualStyle
  2
Conceptual
 70
     9
 71
     3
 72
     2
 73
     0
 90
        0
 40
-0.6
 41
-30.0
 62
     5
 63
     7
 74
     2
 91
        2
 64
     7
 65
   257
 75
     1
175
     1
 42
179.0
 92
        8
 66
     7
 43
1.0
 76
     1
 77
     6
 78
     2
 67
     7
 79
     3
170
     0
171
     0
290
     0
174
     0
 93
        1
 44
0.0
173
     0
291
     0
 45
0.0
1001
ACAD
1000
AcDbSavedByObjectVersion
1070
     0
  0
VISUALSTYLE
  5
C052
102
{ACAD_XDICTIONARY
360
C0B5
102
}
102
{ACAD_REACTORS
330
C047
102
}
330
C047
100
AcDbVisualStyle
  2
Dim
 70
    11
 71
     2
 72
     2
 73
     0
 90
        0
 40
-0.6
 41
-30.0
 62
     5
 63
     7
 74
     1
 91
        4
 64
     7
 65
   257
 75
     1
175
     1
 42
1.0
 92
        8
 66
     7
 43
1.0
 76
     1
 77
     6
 78
     2
 67
     7
 79
     5
170
     0
171
     0
290
     0
174
     0
 93
        1
 44
-50.0
173
     0
291
     1
 45
0.0
1001
ACAD
1000
AcDbSavedByObjectVersion
1070
     0
  0
VISUALSTYLE
  5
C05F
102
{ACAD_XDICTIONARY
360
C0CF
102
}
102
{ACAD_REACTORS
330
C047
102
}
330
C047
100
AcDbVisualStyle
  2
EdgeColorOff
 70
    22
 71
     2
 72
     2
 73
     0
 90
        0
 40
-0.6
 41
-30.0
 62
     5
 63
     7
 74
     1
 91
        4
 64
     7
 65
   257
 75
     1
175
     1
 42
1.0
 92
        8
 66
     7
 43
1.0
 76
     1
 77
     6
 78
     2
 67
     7
 79
     5
170
     0
171
     0
290
     0
174
     0
 93
        1
 44
0.0
173
     0
291
     1
 45
0.0
1001
ACAD
1000
AcDbSavedByObjectVersion
1070
     0
  0
VISUALSTYLE
  5
C056
102
{ACAD_XDICTIONARY
360
C0BD
102
}
102
{ACAD_REACTORS
330
C047
102
}
330
C047
100
AcDbVisualStyle
  2
Facepattern
 70
    15
 71
     2
 72
     2
 73
     0
 90
        0
 40
-0.6
 41
-30.0
 62
     5
 63
     7
 74
     1
 91
        4
 64
     7
 65
   257
 75
     1
175
     1
 42
1.0
 92
        8
 66
     7
 43
1.0
 76
     1
 77
     6
 78
     2
 67
     7
 79
     5
170
     0
171
     0
290
     0
174
     0
 93
        1
 44
0.0
173
     0
291
     1
 45
0.0
1001
ACAD
1000
AcDbSavedByObjectVersion
1070
     0
  0
VISUALSTYLE
  5
C048
102
{ACAD_XDICTIONARY
360
C0A1
102
}
102
{ACAD_REACTORS
330
C047
102
}
330
C047
100
AcDbVisualStyle
  2
Flat
 70
     0
 71
     2
 72
     1
 73
     1
 90
        2
 40
-0.6
 41
30.0
 62
     5
 63
     7
 74
     0
 91
        0
 64
     7
 65
   257
 75
     1
175
     1
 42
1.0
 92
        8
 66
     7
 43
1.0
 76
     1
 77
     6
 78
     2
 67
     7
 79
     5
170
     0
171
     0
290
     0
174
     0
 93
       13
 44
0.0
173
     0
291
     1
 45
0.0
1001
ACAD
1000
AcDbSavedByObjectVersion
1070
     0
  0
VISUALSTYLE
  5
C049
102
{ACAD_XDICTIONARY
360
C0A3
102
}
102
{ACAD_REACTORS
330
C047
102
}
330
C047
100
AcDbVisualStyle
  2
FlatWithEdges
 70
     1
 71
     2
 72
     1
 73
     1
 90
        2
 40
-0.6
 41
30.0
 62
     5
 63
     7
 74
     1
 91
        0
 64
     7
 65
   257
 75
     1
175
     1
 42
1.0
 92
        0
 66
   257
 43
1.0
 76
     1
 77
     6
 78
     2
 67
     7
 79
     5
170
     0
171
     0
290
     0
174
     0
 93
       13
 44
0.0
173
     0
291
     1
 45
0.0
1001
ACAD
1000
AcDbSavedByObjectVersion
1070
     0
  0
VISUALSTYLE
  5
C04A
102
{ACAD_XDICTIONARY
360
C0A5
102
}
102
{ACAD_REACTORS
330
C047
102
}
330
C047
100
AcDbVisualStyle
  2
Gouraud
 70
     2
 71
     2
 72
     2
 73
     1
 90
        2
 40
-0.6
 41
30.0
 62
     5
 63
     7
 74
     0
 91
        0
 64
     7
 65
   257
 75
     1
175
     1
 42
1.0
 92
        0
 66
     7
 43
1.0
 76
     1
 77
     6
 78
     2
 67
     7
 79
     5
170
     0
171
     0
290
     0
174
     0
 93
       13
 44
0.0
173
     0
291
     1
 45
0.0
1001
ACAD
1000
AcDbSavedByObjectVersion
1070
     0
  0
VISUALSTYLE
  5
C04B
102
{ACAD_XDICTIONARY
360
C0A7
102
}
102
{ACAD_REACTORS
330
C047
102
}
330
C047
100
AcDbVisualStyle
  2
GouraudWithEdges
 70
     3
 71
     2
 72
     2
 73
     1
 90
        2
 40
-0.6
 41
30.0
 62
     5
 63
     7
 74
     1
 91
        0
 64
     7
 65
   257
 75
     1
175
     1
 42
1.0
 92
        0
 66
   257
 43
1.0
 76
     1
 77
     6
 78
     2
 67
     7
 79
     5
170
     0
171
     0
290
     0
174
     0
 93
       13
 44
0.0
173
     0
291
     1
 45
0.0
1001
ACAD
1000
AcDbSavedByObjectVersion
1070
     0
  0
VISUALSTYLE
  5
C04F
102
{ACAD_XDICTIONARY
360
C0AF
102
}
102
{ACAD_REACTORS
330
C047
102
}
330
C047
100
AcDbVisualStyle
  2
Hidden
 70
     6
 71
     1
 72
     2
 73
     2
 90
        0
 40
-0.6
 41
-30.0
 62
     5
 63
     7
 74
     2
 91
        2
 64
     7
 65
   257
 75
     2
175
     1
 42
40.0
 92
        0
 66
   257
 43
1.0
 76
     1
 77
     6
 78
     2
 67
     7
 79
     3
170
     0
171
     0
290
     0
174
     0
 93
        1
 44
0.0
173
     0
291
     0
 45
0.0
1001
ACAD
1000
AcDbSavedByObjectVersion
1070
     0
  0
VISUALSTYLE
  5
C05D
102
{ACAD_XDICTIONARY
360
C0CB
102
}
102
{ACAD_REACTORS
330
C047
102
}
330
C047
100
AcDbVisualStyle
  2
JitterOff
 70
    20
 71
     2
 72
     2
 73
     0
 90
        0
 40
-0.6
 41
-30.0
 62
     5
 63
     7
 74
     1
 91
        4
 64
     7
 65
   257
 75
     1
175
     1
 42
1.0
 92
       10
 66
     7
 43
1.0
 76
     1
 77
     6
 78
     2
 67
     7
 79
     5
170
     0
171
     0
290
     0
174
     0
 93
        1
 44
0.0
173
     0
291
     1
 45
0.0
1001
ACAD
1000
AcDbSavedByObjectVersion
1070
     0
  0
VISUALSTYLE
  5
C055
102
{ACAD_XDICTIONARY
360
C0BB
102
}
102
{ACAD_REACTORS
330
C047
102
}
330
C047
100
AcDbVisualStyle
  2
Linepattern
 70
    14
 71
     2
 72
     2
 73
     0
 90
        0
 40
-0.6
 41
-30.0
 62
     5
 63
     7
 74
     1
 91
        4
 64
     7
 65
   257
 75
     7
175
     7
 42
1.0
 92
        8
 66
     7
 43
1.0
 76
     1
 77
     6
 78
     2
 67
     7
 79
     5
170
     0
171
     0
290
     0
174
     0
 93
        1
 44
0.0
173
     0
291
     1
 45
0.0
1001
ACAD
1000
AcDbSavedByObjectVersion
1070
     0
  0
VISUALSTYLE
  5
C05E
102
{ACAD_XDICTIONARY
360
C0CD
102
}
102
{ACAD_REACTORS
330
C047
102
}
330
C047
100
AcDbVisualStyle
  2
OverhangOff
 70
    21
 71
     2
 72
     2
 73
     0
 90
        0
 40
-0.6
 41
-30.0
 62
     5
 63
     7
 74
     1
 91
        4
 64
     7
 65
   257
 75
     1
175
     1
 42
1.0
 92
        9
 66
     7
 43
1.0
 76
     1
 77
     6
 78
     2
 67
     7
 79
     5
170
     0
171
     0
290
     0
174
     0
 93
        1
 44
0.0
173
     0
291
     1
 45
0.0
1001
ACAD
1000
AcDbSavedByObjectVersion
1070
     0
  0
VISUALSTYLE
  5
C051
102
{ACAD_XDICTIONARY
360
C0B3
102
}
102
{ACAD_REACTORS
330
C047
102
}
330
C047
100
AcDbVisualStyle
  2
Realistic
 70
     8
 71
     2
 72
     3
 73
     0
 90
        2
 40
-0.6
 41
30.0
 62
     5
 63
     7
 74
     0
 91
        0
 64
     7
 65
   257
 75
     1
175
     1
 42
1.0
 92
        8
 66
   257
 43
1.0
 76
     1
 77
     6
 78
     2
 67
     7
 79
     3
170
     0
171
     0
290
     0
174
     0
 93
       13
 44
0.0
173
     0
291
     0
 45
0.0
1001
ACAD
1000
AcDbSavedByObjectVersion
1070
     0
  0
VISUALSTYLE
  5
C05C
102
{ACAD_XDICTIONARY
360
C0C9
102
}
102
{ACAD_REACTORS
330
C047
102
}
330
C047
100
AcDbVisualStyle
  2
Shaded
 70
    27
 71
     2
 72
     2
 73
     1
 90
        2
 40
-0.6
 41
30.0
 62
     5
 63
     7
 74
     0
 91
        4
 64
     7
 65
   257
 75
     1
175
     1
 42
1.0
 92
        8
 66
   257
 43
1.0
 76
     1
 77
     6
 78
     2
 67
     8
 79
     3
170
     0
171
     0
290
     0
174
     0
 93
        5
 44
0.0
173
     0
291
     0
 45
0.0
1001
ACAD
1000
AcDbSavedByObjectVersion
1070
     0
  0
VISUALSTYLE
  5
C05B
102
{ACAD_XDICTIONARY
360
C0C7
102
}
102
{ACAD_REACTORS
330
C047
102
}
330
C047
100
AcDbVisualStyle
  2
Shaded with edges
 70
    26
 71
     2
 72
     2
 73
     1
 90
        2
 40
-0.6
 41
30.0
 62
     5
 63
     7
 74
     1
 91
       10
 64
     7
 65
   257
 75
     2
175
     1
 42
1.0
 92
        8
 66
   257
 43
1.0
 76
     1
 77
     6
 78
     2
 67
     7
 79
     3
170
     0
171
     0
290
     0
174
     0
 93
        5
 44
0.0
173
     0
291
     0
 45
0.0
1001
ACAD
1000
AcDbSavedByObjectVersion
1070
     0
  0
VISUALSTYLE
  5
C058
102
{ACAD_XDICTIONARY
360
C0C1
102
}
102
{ACAD_REACTORS
330
C047
102
}
330
C047
100
AcDbVisualStyle
  2
Shades of Gray
 70
    23
 71
     2
 72
     2
 73
     3
 90
        0
 40
-0.6
 41
-30.0
 62
     5
 63
     7
 74
     2
 91
        2
 64
     7
 65
     7
 75
     1
175
     1
 42
40.0
 92
        8
 66
     7
 43
1.0
 76
     1
 77
     6
 78
     2
 67
     7
 79
     3
170
     0
171
     0
290
     0
174
     0
 93
        1
 44
0.0
173
     0
291
     0
 45
0.0
1001
ACAD
1000
AcDbSavedByObjectVersion
1070
     0
  0
VISUALSTYLE
  5
C059
102
{ACAD_XDICTIONARY
360
C0C3
102
}
102
{ACAD_REACTORS
330
C047
102
}
330
C047
100
AcDbVisualStyle
  2
Sketchy
 70
    24
 71
     1
 72
     2
 73
     2
 90
        0
 40
-0.6
 41
-30.0
 62
     5
 63
     7
 74
     2
 91
        2
 64
     7
 65
     7
 75
     1
175
     1
 42
40.0
 92
       11
 66
     7
 43
1.0
 76
     1
 77
     6
 78
     2
 67
     7
 79
     6
170
     0
171
     0
290
     0
174
     0
 93
        1
 44
0.0
173
     0
291
     0
 45
0.0
1001
ACAD
1000
AcDbSavedByObjectVersion
1070
     0
  0
VISUALSTYLE
  5
C054
102
{ACAD_XDICTIONARY
360
C0B9
102
}
102
{ACAD_REACTORS
330
C047
102
}
330
C047
100
AcDbVisualStyle
  2
Thicken
 70
    13
 71
     2
 72
     2
 73
     0
 90
        0
 40
-0.6
 41
-30.0
 62
     5
 63
     7
 74
     1
 91
        4
 64
     7
 65
   257
 75
     1
175
     1
 42
1.0
 92
       12
 66
     7
 43
1.0
 76
     1
 77
     6
 78
     2
 67
     7
 79
     5
170
     0
171
     0
290
     0
174
     0
 93
        1
 44
0.0
173
     0
291
     1
 45
0.0
1001
ACAD
1000
AcDbSavedByObjectVersion
1070
     0
  0
VISUALSTYLE
  5
C04E
102
{ACAD_XDICTIONARY
360
C0AD
102
}
102
{ACAD_REACTORS
330
C047
102
}
330
C047
100
AcDbVisualStyle
  2
Wireframe
 70
     5
 71
     0
 72
     2
 73
     0
 90
        0
 40
-0.6
 41
-30.0
 62
     5
 63
     7
 74
     1
 91
        4
 64
     7
 65
   257
 75
     1
175
     1
 42
1.0
 92
        0
 66
   257
 43
1.0
 76
     1
 77
     6
 78
     2
 67
     7
 79
     3
170
     0
171
     0
290
     0
174
     0
 93
        1
 44
0.0
173
     0
291
     0
 45
0.0
1001
ACAD
1000
AcDbSavedByObjectVersion
1070
     0
  0
VISUALSTYLE
  5
C05A
102
{ACAD_XDICTIONARY
360
C0C5
102
}
102
{ACAD_REACTORS
330
C047
102
}
330
C047
100
AcDbVisualStyle
  2
X-Ray
 70
    25
 71
     2
 72
     2
 73
     1
 90
        1
 40
0.5
 41
-30.0
 62
     5
 63
     7
 74
     1
 91
        0
 64
     7
 65
   257
 75
     1
175
     1
 42
1.0
 92
        8
 66
     7
 43
1.0
 76
     1
 77
     6
 78
     2
 67
     7
 79
     3
170
     0
171
     0
290
     0
174
     0
 93
       13
 44
0.0
173
     0
291
     0
 45
0.0
1001
ACAD
1000
AcDbSavedByObjectVersion
1070
     0
  0
DICTIONARYVAR
  5
C094
102
{ACAD_REACTORS
330
C08F
102
}
330
C08F
100
DictionaryVariables
280
     0
  1
1:1
  0
DICTIONARYVAR
  5
C091
102
{ACAD_REACTORS
330
C08F
102
}
330
C08F
100
DictionaryVariables
280
     0
  1
STANDARD
  0
DICTIONARYVAR
  5
C090
102
{ACAD_REACTORS
330
C08F
102
}
330
C08F
100
DictionaryVariables
280
     0
  1
STANDARD
  0
DICTIONARYVAR
  5
C092
102
{ACAD_REACTORS
330
C08F
102
}
330
C08F
100
DictionaryVariables
280
     0
  1
Imperial24
  0
DICTIONARYVAR
  5
C093
102
{ACAD_REACTORS
330
C08F
102
}
330
C08F
100
DictionaryVariables
280
     0
  1
Imperial24
  0
DICTIONARYVAR
  5
C097
102
{ACAD_REACTORS
330
C08F
102
}
330
C08F
100
DictionaryVariables
280
     0
  1
1
  0
DICTIONARYVAR
  5
C096
102
{ACAD_REACTORS
330
C08F
102
}
330
C08F
100
DictionaryVariables
280
     0
  1
0
  0
DICTIONARYVAR
  5
C095
102
{ACAD_REACTORS
330
C08F
102
}
330
C08F
100
DictionaryVariables
280
     0
  1
127
  0
DICTIONARYVAR
  5
C098
102
{ACAD_REACTORS
330
C08F
102
}
330
C08F
100
DictionaryVariables
280
     0
  1
2
  0
DICTIONARY
  5
C0D5
330
C07A
100
AcDbDictionary
280
     1
281
     1
  3
ACAD_XREC_ROUNDTRIP
360
C0D6
  0
DICTIONARY
  5
C0D7
330
C07B
100
AcDbDictionary
280
     1
281
     1
  3
ACAD_XREC_ROUNDTRIP
360
C0D8
  0
DICTIONARY
  5
C0D9
330
C07C
100
AcDbDictionary
280
     1
281
     1
  3
ACAD_XREC_ROUNDTRIP
360
C0DA
  0
DICTIONARY
  5
C038
330
C037
100
AcDbDictionary
280
     1
281
     1
  3
ACAD_XREC_ROUNDTRIP
360
C09F
  3
BUMPTILE
360
C03A
  3
DIFFUSETILE
360
C039
  3
OPACITYTILE
360
C03D
  3
REFLECTIONTILE
360
C03C
  3
REFRACTIONTILE
360
C03E
  3
SPECULARTILE
360
C03B
  0
DICTIONARY
  5
C030
330
C02F
100
AcDbDictionary
280
     1
281
     1
  3
ACAD_XREC_ROUNDTRIP
360
C09E
  3
BUMPTILE
360
C032
  3
DIFFUSETILE
360
C031
  3
OPACITYTILE
360
C035
  3
REFLECTIONTILE
360
C034
  3
REFRACTIONTILE
360
C036
  3
SPECULARTILE
360
C033
  0
DICTIONARY
  5
C040
330
C03F
100
AcDbDictionary
280
     1
281
     1
  3
ACAD_XREC_ROUNDTRIP
360
C0A0
  3
BUMPTILE
360
C042
  3
DIFFUSETILE
360
C041
  3
OPACITYTILE
360
C045
  3
REFLECTIONTILE
360
C044
  3
REFRACTIONTILE
360
C046
  3
SPECULARTILE
360
C043
  0
DICTIONARY
  5
C0D3
330
C078
100
AcDbDictionary
280
     1
281
     1
  3
ACAD_XREC_ROUNDTRIP
360
C0D4
  0
DICTIONARY
  5
C09A
330
C062
100
AcDbDictionary
280
     1
281
     1
  3
ACAD_ROUNDTRIP_2008_TABLESTYLE_CELLSTYLEMAP
360
C09B
  3
ACAD_XREC_ROUNDTRIP
360
C0D1
  0
DICTIONARY
  5
C0AB
330
C04D
100
AcDbDictionary
280
     1
281
     1
  3
ACAD_XREC_ROUNDTRIP
360
C0AC
  0
DICTIONARY
  5
C0A9
330
C04C
100
AcDbDictionary
280
     1
281
     1
  3
ACAD_XREC_ROUNDTRIP
360
C0AA
  0
DICTIONARY
  5
C0B7
330
C053
100
AcDbDictionary
280
     1
281
     1
  3
ACAD_XREC_ROUNDTRIP
360
C0B8
  0
DICTIONARY
  5
C0BF
330
C057
100
AcDbDictionary
280
     1
281
     1
  3
ACAD_XREC_ROUNDTRIP
360
C0C0
  0
DICTIONARY
  5
C0B1
330
C050
100
AcDbDictionary
280
     1
281
     1
  3
ACAD_XREC_ROUNDTRIP
360
C0B2
  0
DICTIONARY
  5
C0B5
330
C052
100
AcDbDictionary
280
     1
281
     1
  3
ACAD_XREC_ROUNDTRIP
360
C0B6
  0
DICTIONARY
  5
C0CF
330
C05F
100
AcDbDictionary
280
     1
281
     1
  3
ACAD_XREC_ROUNDTRIP
360
C0D0
  0
DICTIONARY
  5
C0BD
330
C056
100
AcDbDictionary
280
     1
281
     1
  3
ACAD_XREC_ROUNDTRIP
360
C0BE
  0
DICTIONARY
  5
C0A1
330
C048
100
AcDbDictionary
280
     1
281
     1
  3
ACAD_XREC_ROUNDTRIP
360
C0A2
  0
DICTIONARY
  5
C0A3
330
C049
100
AcDbDictionary
280
     1
281
     1
  3
ACAD_XREC_ROUNDTRIP
360
C0A4
  0
DICTIONARY
  5
C0A5
330
C04A
100
AcDbDictionary
280
     1
281
     1
  3
ACAD_XREC_ROUNDTRIP
360
C0A6
  0
DICTIONARY
  5
C0A7
330
C04B
100
AcDbDictionary
280
     1
281
     1
  3
ACAD_XREC_ROUNDTRIP
360
C0A8
  0
DICTIONARY
  5
C0AF
330
C04F
100
AcDbDictionary
280
     1
281
     1
  3
ACAD_XREC_ROUNDTRIP
360
C0B0
  0
DICTIONARY
  5
C0CB
330
C05D
100
AcDbDictionary
280
     1
281
     1
  3
ACAD_XREC_ROUNDTRIP
360
C0CC
  0
DICTIONARY
  5
C0BB
330
C055
100
AcDbDictionary
280
     1
281
     1
  3
ACAD_XREC_ROUNDTRIP
360
C0BC
  0
DICTIONARY
  5
C0CD
330
C05E
100
AcDbDictionary
280
     1
281
     1
  3
ACAD_XREC_ROUNDTRIP
360
C0CE
  0
DICTIONARY
  5
C0B3
330
C051
100
AcDbDictionary
280
     1
281
     1
  3
ACAD_XREC_ROUNDTRIP
360
C0B4
  0
DICTIONARY
  5
C0C9
330
C05C
100
AcDbDictionary
280
     1
281
     1
  3
ACAD_XREC_ROUNDTRIP
360
C0CA
  0
DICTIONARY
  5
C0C7
330
C05B
100
AcDbDictionary
280
     1
281
     1
  3
ACAD_XREC_ROUNDTRIP
360
C0C8
  0
DICTIONARY
  5
C0C1
330
C058
100
AcDbDictionary
280
     1
281
     1
  3
ACAD_XREC_ROUNDTRIP
360
C0C2
  0
DICTIONARY
  5
C0C3
330
C059
100
AcDbDictionary
280
     1
281
     1
  3
ACAD_XREC_ROUNDTRIP
360
C0C4
  0
DICTIONARY
  5
C0B9
330
C054
100
AcDbDictionary
280
     1
281
     1
  3
ACAD_XREC_ROUNDTRIP
360
C0BA
  0
DICTIONARY
  5
C0AD
330
C04E
100
AcDbDictionary
280
     1
281
     1
  3
ACAD_XREC_ROUNDTRIP
360
C0AE
  0
DICTIONARY
  5
C0C5
330
C05A
100
AcDbDictionary
280
     1
281
     1
  3
ACAD_XREC_ROUNDTRIP
360
C0C6
  0
XRECORD
  5
C0D6
102
{ACAD_REACTORS
330
C0D5
102
}
330
C0D5
100
AcDbXrecord
280
     1
102
DISPLAYNAME
  1
Imperial24
102
FLAGS
 90
        0
  0
XRECORD
  5
C0D8
102
{ACAD_REACTORS
330
C0D7
102
}
330
C0D7
100
AcDbXrecord
280
     1
102
SHADEPLOT
 70
     0
102
SHADEPLOTRESLEVEL
 70
     2
102
SHADEPLOTCUSTOMDPI
 70
   300
  0
XRECORD
  5
C0DA
102
{ACAD_REACTORS
330
C0D9
102
}
330
C0D9
100
AcDbXrecord
280
     1
102
SHADEPLOT
 70
     0
102
SHADEPLOTRESLEVEL
 70
     2
102
SHADEPLOTCUSTOMDPI
 70
   300
  0
XRECORD
  5
C09F
102
{ACAD_REACTORS
330
C038
102
}
330
C038
100
AcDbXrecord
280
     1
102
MATERIAL
148
0.0
149
0.0
149
0.0
 93
        0
 94
      127
282
     0
 72
     0
 77
     0
171
     0
175
     0
179
     0
273
     0
  0
XRECORD
  5
C03A
102
{ACAD_REACTORS
330
C038
102
}
330
C038
100
AcDbXrecord
280
     1
270
     1
271
     1
  0
XRECORD
  5
C039
102
{ACAD_REACTORS
330
C038
102
}
330
C038
100
AcDbXrecord
280
     1
270
     1
271
     1
  0
XRECORD
  5
C03D
102
{ACAD_REACTORS
330
C038
102
}
330
C038
100
AcDbXrecord
280
     1
270
     1
271
     1
  0
XRECORD
  5
C03C
102
{ACAD_REACTORS
330
C038
102
}
330
C038
100
AcDbXrecord
280
     1
270
     1
271
     1
  0
XRECORD
  5
C03E
102
{ACAD_REACTORS
330
C038
102
}
330
C038
100
AcDbXrecord
280
     1
270
     1
271
     1
  0
XRECORD
  5
C03B
102
{ACAD_REACTORS
330
C038
102
}
330
C038
100
AcDbXrecord
280
     1
270
     1
271
     1
  0
XRECORD
  5
C09E
102
{ACAD_REACTORS
330
C030
102
}
330
C030
100
AcDbXrecord
280
     1
102
MATERIAL
148
0.0
149
0.0
149
0.0
 93
        0
 94
      127
282
     0
 72
     0
 77
     0
171
     0
175
     0
179
     0
273
     0
  0
XRECORD
  5
C032
102
{ACAD_REACTORS
330
C030
102
}
330
C030
100
AcDbXrecord
280
     1
270
     1
271
     1
  0
XRECORD
  5
C031
102
{ACAD_REACTORS
330
C030
102
}
330
C030
100
AcDbXrecord
280
     1
270
     1
271
     1
  0
XRECORD
  5
C035
102
{ACAD_REACTORS
330
C030
102
}
330
C030
100
AcDbXrecord
280
     1
270
     1
271
     1
  0
XRECORD
  5
C034
102
{ACAD_REACTORS
330
C030
102
}
330
C030
100
AcDbXrecord
280
     1
270
     1
271
     1
  0
XRECORD
  5
C036
102
{ACAD_REACTORS
330
C030
102
}
330
C030
100
AcDbXrecord
280
     1
270
     1
271
     1
  0
XRECORD
  5
C033
102
{ACAD_REACTORS
330
C030
102
}
330
C030
100
AcDbXrecord
280
     1
270
     1
271
     1
  0
XRECORD
  5
C0A0
102
{ACAD_REACTORS
330
C040
102
}
330
C040
100
AcDbXrecord
280
     1
102
MATERIAL
148
0.0
149
0.0
149
0.0
 93
        0
 94
      127
282
     0
 72
     0
 77
     0
171
     0
175
     0
179
     0
273
     0
  0
XRECORD
  5
C042
102
{ACAD_REACTORS
330
C040
102
}
330
C040
100
AcDbXrecord
280
     1
270
     1
271
     1
  0
XRECORD
  5
C041
102
{ACAD_REACTORS
330
C040
102
}
330
C040
100
AcDbXrecord
280
     1
270
     1
271
     1
  0
XRECORD
  5
C045
102
{ACAD_REACTORS
330
C040
102
}
330
C040
100
AcDbXrecord
280
     1
270
     1
271
     1
  0
XRECORD
  5
C044
102
{ACAD_REACTORS
330
C040
102
}
330
C040
100
AcDbXrecord
280
     1
270
     1
271
     1
  0
XRECORD
  5
C046
102
{ACAD_REACTORS
330
C040
102
}
330
C040
100
AcDbXrecord
280
     1
270
     1
271
     1
  0
XRECORD
  5
C043
102
{ACAD_REACTORS
330
C040
102
}
330
C040
100
AcDbXrecord
280
     1
270
     1
271
     1
  0
XRECORD
  5
C0D4
102
{ACAD_REACTORS
330
C0D3
102
}
330
C0D3
100
AcDbXrecord
280
     1
102
DISPLAYNAME
  1
Imperial24
102
FLAGS
 90
        0
  0
CELLSTYLEMAP
  5
C09B
102
{ACAD_REACTORS
330
C09A
102
}
330
C09A
100
AcDbCellStyleMap
 90
        3
300
CELLSTYLE
  1
TABLEFORMAT_BEGIN
 90
        5
170
     1
 91
        0
 92
    32768
 62
   257
 93
        1
300
CONTENTFORMAT
  1
CONTENTFORMAT_BEGIN
 90
        0
 91
        0
 92
      512
 93
        0
300

 40
0.0
140
1.0
 94
        5
 62
     0
340
BE24
144
0.25
309
CONTENTFORMAT_END
171
     0
 94
        0
309
TABLEFORMAT_END
  1
CELLSTYLE_BEGIN
 90
        1
 91
        1
300
_TITLE
309
CELLSTYLE_END
300
CELLSTYLE
  1
TABLEFORMAT_BEGIN
 90
        5
170
     1
 91
        0
 92
        0
 62
   257
 93
        1
300
CONTENTFORMAT
  1
CONTENTFORMAT_BEGIN
 90
        0
 91
        0
 92
      512
 93
        0
300

 40
0.0
140
1.0
 94
        5
 62
     0
340
BE24
144
0.18
309
CONTENTFORMAT_END
171
     0
 94
        0
309
TABLEFORMAT_END
  1
CELLSTYLE_BEGIN
 90
        2
 91
        1
300
_HEADER
309
CELLSTYLE_END
300
CELLSTYLE
  1
TABLEFORMAT_BEGIN
 90
        5
170
     1
 91
        0
 92
        0
 62
   257
 93
        1
300
CONTENTFORMAT
  1
CONTENTFORMAT_BEGIN
 90
        0
 91
        0
 92
      512
 93
        0
300

 40
0.0
140
1.0
 94
        2
 62
     0
340
BE24
144
0.18
309
CONTENTFORMAT_END
171
     0
 94
        0
309
TABLEFORMAT_END
  1
CELLSTYLE_BEGIN
 90
        3
 91
        2
300
_DATA
309
CELLSTYLE_END
  0
XRECORD
  5
C0D1
102
{ACAD_REACTORS
330
C09A
102
}
330
C09A
100
AcDbXrecord
280
     1
102
ACAD_ROUNDTRIP_PRE2007_TABLESTYLE
 90
      512
 91
        0
  1

 92
      512
 93
        0
  2

 94
      512
 95
        0
  3

  0
XRECORD
  5
C0AC
102
{ACAD_REACTORS
330
C0AB
102
}
330
C0AB
100
AcDbXrecord
280
     1
102
RTVSPost2010Prop28
280
     1
102
RTVSPost2010PropOp28
 70
     1
102
RTVSPost2010Prop29
280
     1
102
RTVSPost2010PropOp29
 70
     1
102
RTVSPost2010Prop30
280
     0
102
RTVSPost2010PropOp30
 70
     1
102
RTVSPost2010Prop31
280
     0
102
RTVSPost2010PropOp31
 70
     1
102
RTVSPost2010Prop32
280
     0
102
RTVSPost2010PropOp32
 70
     1
102
RTVSPost2010Prop33
280
     0
102
RTVSPost2010PropOp33
 70
     1
102
RTVSPost2010Prop34
280
     0
102
RTVSPost2010PropOp34
 70
     1
102
RTVSPost2010Prop35
280
     0
102
RTVSPost2010PropOp35
 70
     1
102
RTVSPost2010Prop36
280
     0
102
RTVSPost2010PropOp36
 70
     1
102
RTVSPost2010Prop37
 90
       50
102
RTVSPost2010PropOp37
 70
     1
102
RTVSPost2010Prop38
140
0.0
102
RTVSPost2010PropOp38
 70
     1
102
RTVSPost2010Prop39
140
1.0
102
RTVSPost2010PropOp39
 70
     1
102
RTVSPost2010Prop40
 90
        0
102
RTVSPost2010PropOp40
 70
     1
102
RTVSPost2010Prop41ColorIndex
 90
       18
102
RTVSPost2010Prop41ColorRGB
 90
        0
102
RTVSPost2010PropOp41
 70
     1
102
RTVSPost2010Prop42
 90
       50
102
RTVSPost2010PropOp42
 70
     1
102
RTVSPost2010Prop43
 90
        3
102
RTVSPost2010PropOp43
 70
     1
102
RTVSPost2010Prop44ColorIndex
 90
        5
102
RTVSPost2010Prop44ColorRGB
 90
      255
102
RTVSPost2010PropOp44
 70
     1
102
RTVSPost2010Prop45
280
     0
102
RTVSPost2010PropOp45
 70
     1
102
RTVSPost2010Prop46
 90
       50
102
RTVSPost2010PropOp46
 70
     1
102
RTVSPost2010Prop47
 90
       50
102
RTVSPost2010PropOp47
 70
     1
102
RTVSPost2010Prop48
 90
       50
102
RTVSPost2010PropOp48
 70
     1
102
RTVSPost2010Prop49
280
     0
102
RTVSPost2010PropOp49
 70
     1
102
RTVSPost2010Prop50
 90
       50
102
RTVSPost2010PropOp50
 70
     1
102
RTVSPost2010Prop51ColorIndex
 90
      256
102
RTVSPost2010Prop51ColorRGB
 90
-16777216
102
RTVSPost2010PropOp51
 70
     0
102
RTVSPost2010Prop52
140
1.0
102
RTVSPost2010PropOp52
 70
     0
102
RTVSPost2010Prop53
 90
        2
102
RTVSPost2010PropOp53
 70
     1
102
RTVSPost2010Prop54
  1
strokes_ogs.tif
102
RTVSPost2010PropOp54
 70
     1
102
RTVSPost2010Prop55
280
     0
102
RTVSPost2010PropOp55
 70
     1
102
RTVSPost2010Prop56
140
1.0
102
RTVSPost2010PropOp56
 70
     1
102
RTVSPost2010Prop57
140
1.0
102
RTVSPost2010PropOp57
 70
     1
102
RTVSPropertyOp0
 70
     1
102
RTVSPropertyOp1
 70
     1
102
RTVSPropertyOp2
 70
     1
102
RTVSPropertyOp3
 70
     1
102
RTVSPropertyOp4
 70
     1
102
RTVSPropertyOp5
 70
     1
102
RTVSPropertyOp6
 70
     1
102
RTVSPropertyOp7
 70
     1
102
RTVSPropertyOp8
 70
     1
102
RTVSPropertyOp9
 70
     1
102
RTVSPropertyOp10
 70
     1
102
RTVSPropertyOp11
 70
     1
102
RTVSPropertyOp12
 70
     1
102
RTVSPropertyOp13
 70
     1
102
RTVSPropertyOp14
 70
     1
102
RTVSPropertyOp15
 70
     1
102
RTVSPropertyOp16
 70
     1
102
RTVSPropertyOp17
 70
     1
102
RTVSPropertyOp18
 70
     1
102
RTVSPropertyOp19
 70
     1
102
RTVSPropertyOp20
 70
     1
102
RTVSPropertyOp21
 70
     1
102
RTVSPropertyOp22
 70
     1
102
RTVSPropertyOp23
 70
     1
102
RTVSPropertyOp24
 70
     1
102
RTVSPropertyOp25
 70
     1
102
RTVSPropertyOp26
 70
     1
102
RTVSPropertyOp27
 70
     1
102
RTVSPropertyOp28
 70
     1
102
RTVSPropertyOp29
 70
     1
102
RTVSPropertyOp30
 70
     1
102
RTVSPropertyOp31
 70
     1
102
RTVSPropertyOp32
 70
     1
102
RTVSPropertyOp33
 70
     1
102
RTVSPropertyOp34
 70
     1
102
RTVSPropertyOp35
 70
     1
102
RTVSPropertyOp36
 70
     1
102
RTVSPropertyOp37
 70
     1
102
RTVSPropertyOp38
 70
     1
102
RTVSPropertyOp39
 70
     1
102
RTVSPropertyOp40
 70
     1
102
RTVSPropertyOp41
 70
     1
102
RTVSPropertyOp42
 70
     1
102
RTVSPropertyOp43
 70
     1
102
RTVSPropertyOp44
 70
     1
102
RTVSPropertyOp45
 70
     1
102
RTVSPropertyOp46
 70
     1
102
RTVSPropertyOp47
 70
     1
102
RTVSPropertyOp48
 70
     1
102
RTVSPropertyOp49
 70
     1
102
RTVSPropertyOp50
 70
     1
102
RTVSPropertyOp51
 70
     0
102
RTVSPropertyOp52
 70
     0
102
RTVSPropertyOp53
 70
     1
102
RTVSPropertyOp54
 70
     1
102
RTVSPropertyOp55
 70
     1
102
RTVSPropertyOp56
 70
     1
102
RTVSPropertyOp57
 70
     1
102
RTVSPropertyOp58
 70
     1
102
RTVSPropertyOp59
 70
     1
102
RTVSPropertyOp60
 70
     1
102
RTVSPropertyOp61
 70
     1
102
RTVSPropertyOp62
 70
     1
  0
XRECORD
  5
C0AA
102
{ACAD_REACTORS
330
C0A9
102
}
330
C0A9
100
AcDbXrecord
280
     1
102
RTVSPost2010Prop28
280
     0
102
RTVSPost2010PropOp28
 70
     1
102
RTVSPost2010Prop29
280
     1
102
RTVSPost2010PropOp29
 70
     1
102
RTVSPost2010Prop30
280
     1
102
RTVSPost2010PropOp30
 70
     1
102
RTVSPost2010Prop31
280
     0
102
RTVSPost2010PropOp31
 70
     1
102
RTVSPost2010Prop32
280
     0
102
RTVSPost2010PropOp32
 70
     1
102
RTVSPost2010Prop33
280
     0
102
RTVSPost2010PropOp33
 70
     1
102
RTVSPost2010Prop34
280
     0
102
RTVSPost2010PropOp34
 70
     1
102
RTVSPost2010Prop35
280
     0
102
RTVSPost2010PropOp35
 70
     1
102
RTVSPost2010Prop36
280
     0
102
RTVSPost2010PropOp36
 70
     1
102
RTVSPost2010Prop37
 90
       50
102
RTVSPost2010PropOp37
 70
     1
102
RTVSPost2010Prop38
140
0.0
102
RTVSPost2010PropOp38
 70
     1
102
RTVSPost2010Prop39
140
1.0
102
RTVSPost2010PropOp39
 70
     1
102
RTVSPost2010Prop40
 90
        0
102
RTVSPost2010PropOp40
 70
     1
102
RTVSPost2010Prop41ColorIndex
 90
       18
102
RTVSPost2010Prop41ColorRGB
 90
        0
102
RTVSPost2010PropOp41
 70
     1
102
RTVSPost2010Prop42
 90
       50
102
RTVSPost2010PropOp42
 70
     1
102
RTVSPost2010Prop43
 90
        3
102
RTVSPost2010PropOp43
 70
     1
102
RTVSPost2010Prop44ColorIndex
 90
        5
102
RTVSPost2010Prop44ColorRGB
 90
      255
102
RTVSPost2010PropOp44
 70
     1
102
RTVSPost2010Prop45
280
     0
102
RTVSPost2010PropOp45
 70
     1
102
RTVSPost2010Prop46
 90
       50
102
RTVSPost2010PropOp46
 70
     1
102
RTVSPost2010Prop47
 90
       50
102
RTVSPost2010PropOp47
 70
     1
102
RTVSPost2010Prop48
 90
       50
102
RTVSPost2010PropOp48
 70
     1
102
RTVSPost2010Prop49
280
     0
102
RTVSPost2010PropOp49
 70
     1
102
RTVSPost2010Prop50
 90
       50
102
RTVSPost2010PropOp50
 70
     1
102
RTVSPost2010Prop51ColorIndex
 90
      256
102
RTVSPost2010Prop51ColorRGB
 90
-16777216
102
RTVSPost2010PropOp51
 70
     0
102
RTVSPost2010Prop52
140
1.0
102
RTVSPost2010PropOp52
 70
     0
102
RTVSPost2010Prop53
 90
        2
102
RTVSPost2010PropOp53
 70
     1
102
RTVSPost2010Prop54
  1
strokes_ogs.tif
102
RTVSPost2010PropOp54
 70
     1
102
RTVSPost2010Prop55
280
     0
102
RTVSPost2010PropOp55
 70
     1
102
RTVSPost2010Prop56
140
1.0
102
RTVSPost2010PropOp56
 70
     1
102
RTVSPost2010Prop57
140
1.0
102
RTVSPost2010PropOp57
 70
     1
102
RTVSPropertyOp0
 70
     1
102
RTVSPropertyOp1
 70
     1
102
RTVSPropertyOp2
 70
     1
102
RTVSPropertyOp3
 70
     1
102
RTVSPropertyOp4
 70
     1
102
RTVSPropertyOp5
 70
     1
102
RTVSPropertyOp6
 70
     1
102
RTVSPropertyOp7
 70
     1
102
RTVSPropertyOp8
 70
     1
102
RTVSPropertyOp9
 70
     1
102
RTVSPropertyOp10
 70
     1
102
RTVSPropertyOp11
 70
     1
102
RTVSPropertyOp12
 70
     1
102
RTVSPropertyOp13
 70
     1
102
RTVSPropertyOp14
 70
     1
102
RTVSPropertyOp15
 70
     1
102
RTVSPropertyOp16
 70
     1
102
RTVSPropertyOp17
 70
     1
102
RTVSPropertyOp18
 70
     1
102
RTVSPropertyOp19
 70
     1
102
RTVSPropertyOp20
 70
     1
102
RTVSPropertyOp21
 70
     1
102
RTVSPropertyOp22
 70
     1
102
RTVSPropertyOp23
 70
     1
102
RTVSPropertyOp24
 70
     1
102
RTVSPropertyOp25
 70
     1
102
RTVSPropertyOp26
 70
     1
102
RTVSPropertyOp27
 70
     1
102
RTVSPropertyOp28
 70
     1
102
RTVSPropertyOp29
 70
     1
102
RTVSPropertyOp30
 70
     1
102
RTVSPropertyOp31
 70
     1
102
RTVSPropertyOp32
 70
     1
102
RTVSPropertyOp33
 70
     1
102
RTVSPropertyOp34
 70
     1
102
RTVSPropertyOp35
 70
     1
102
RTVSPropertyOp36
 70
     1
102
RTVSPropertyOp37
 70
     1
102
RTVSPropertyOp38
 70
     1
102
RTVSPropertyOp39
 70
     1
102
RTVSPropertyOp40
 70
     1
102
RTVSPropertyOp41
 70
     1
102
RTVSPropertyOp42
 70
     1
102
RTVSPropertyOp43
 70
     1
102
RTVSPropertyOp44
 70
     1
102
RTVSPropertyOp45
 70
     1
102
RTVSPropertyOp46
 70
     1
102
RTVSPropertyOp47
 70
     1
102
RTVSPropertyOp48
 70
     1
102
RTVSPropertyOp49
 70
     1
102
RTVSPropertyOp50
 70
     1
102
RTVSPropertyOp51
 70
     0
102
RTVSPropertyOp52
 70
     0
102
RTVSPropertyOp53
 70
     1
102
RTVSPropertyOp54
 70
     1
102
RTVSPropertyOp55
 70
     1
102
RTVSPropertyOp56
 70
     1
102
RTVSPropertyOp57
 70
     1
102
RTVSPropertyOp58
 70
     1
102
RTVSPropertyOp59
 70
     1
102
RTVSPropertyOp60
 70
     1
102
RTVSPropertyOp61
 70
     1
102
RTVSPropertyOp62
 70
     1
  0
XRECORD
  5
C0B8
102
{ACAD_REACTORS
330
C0B7
102
}
330
C0B7
100
AcDbXrecord
280
     1
102
RTVSPost2010Prop28
280
     0
102
RTVSPost2010PropOp28
 70
     1
102
RTVSPost2010Prop29
280
     1
102
RTVSPost2010PropOp29
 70
     1
102
RTVSPost2010Prop30
280
     1
102
RTVSPost2010PropOp30
 70
     1
102
RTVSPost2010Prop31
280
     0
102
RTVSPost2010PropOp31
 70
     1
102
RTVSPost2010Prop32
280
     0
102
RTVSPost2010PropOp32
 70
     1
102
RTVSPost2010Prop33
280
     0
102
RTVSPost2010PropOp33
 70
     1
102
RTVSPost2010Prop34
280
     0
102
RTVSPost2010PropOp34
 70
     1
102
RTVSPost2010Prop35
280
     0
102
RTVSPost2010PropOp35
 70
     1
102
RTVSPost2010Prop36
280
     0
102
RTVSPost2010PropOp36
 70
     1
102
RTVSPost2010Prop37
 90
       50
102
RTVSPost2010PropOp37
 70
     1
102
RTVSPost2010Prop38
140
0.0
102
RTVSPost2010PropOp38
 70
     1
102
RTVSPost2010Prop39
140
1.0
102
RTVSPost2010PropOp39
 70
     1
102
RTVSPost2010Prop40
 90
        0
102
RTVSPost2010PropOp40
 70
     1
102
RTVSPost2010Prop41ColorIndex
 90
       18
102
RTVSPost2010Prop41ColorRGB
 90
        0
102
RTVSPost2010PropOp41
 70
     1
102
RTVSPost2010Prop42
 90
       50
102
RTVSPost2010PropOp42
 70
     1
102
RTVSPost2010Prop43
 90
        3
102
RTVSPost2010PropOp43
 70
     1
102
RTVSPost2010Prop44ColorIndex
 90
        5
102
RTVSPost2010Prop44ColorRGB
 90
      255
102
RTVSPost2010PropOp44
 70
     1
102
RTVSPost2010Prop45
280
     0
102
RTVSPost2010PropOp45
 70
     1
102
RTVSPost2010Prop46
 90
       50
102
RTVSPost2010PropOp46
 70
     1
102
RTVSPost2010Prop47
 90
       50
102
RTVSPost2010PropOp47
 70
     1
102
RTVSPost2010Prop48
 90
       50
102
RTVSPost2010PropOp48
 70
     1
102
RTVSPost2010Prop49
280
     0
102
RTVSPost2010PropOp49
 70
     1
102
RTVSPost2010Prop50
 90
       50
102
RTVSPost2010PropOp50
 70
     1
102
RTVSPost2010Prop51ColorIndex
 90
      256
102
RTVSPost2010Prop51ColorRGB
 90
-16777216
102
RTVSPost2010PropOp51
 70
     0
102
RTVSPost2010Prop52
140
1.0
102
RTVSPost2010PropOp52
 70
     0
102
RTVSPost2010Prop53
 90
        2
102
RTVSPost2010PropOp53
 70
     1
102
RTVSPost2010Prop54
  1
strokes_ogs.tif
102
RTVSPost2010PropOp54
 70
     1
102
RTVSPost2010Prop55
280
     0
102
RTVSPost2010PropOp55
 70
     1
102
RTVSPost2010Prop56
140
1.0
102
RTVSPost2010PropOp56
 70
     1
102
RTVSPost2010Prop57
140
1.0
102
RTVSPost2010PropOp57
 70
     1
102
RTVSPropertyOp0
 70
     1
102
RTVSPropertyOp1
 70
     1
102
RTVSPropertyOp2
 70
     1
102
RTVSPropertyOp3
 70
     1
102
RTVSPropertyOp4
 70
     1
102
RTVSPropertyOp5
 70
     1
102
RTVSPropertyOp6
 70
     1
102
RTVSPropertyOp7
 70
     1
102
RTVSPropertyOp8
 70
     1
102
RTVSPropertyOp9
 70
     1
102
RTVSPropertyOp10
 70
     1
102
RTVSPropertyOp11
 70
     1
102
RTVSPropertyOp12
 70
     1
102
RTVSPropertyOp13
 70
     1
102
RTVSPropertyOp14
 70
     1
102
RTVSPropertyOp15
 70
     1
102
RTVSPropertyOp16
 70
     1
102
RTVSPropertyOp17
 70
     1
102
RTVSPropertyOp18
 70
     1
102
RTVSPropertyOp19
 70
     1
102
RTVSPropertyOp20
 70
     1
102
RTVSPropertyOp21
 70
     1
102
RTVSPropertyOp22
 70
     1
102
RTVSPropertyOp23
 70
     1
102
RTVSPropertyOp24
 70
     1
102
RTVSPropertyOp25
 70
     1
102
RTVSPropertyOp26
 70
     1
102
RTVSPropertyOp27
 70
     1
102
RTVSPropertyOp28
 70
     1
102
RTVSPropertyOp29
 70
     1
102
RTVSPropertyOp30
 70
     1
102
RTVSPropertyOp31
 70
     1
102
RTVSPropertyOp32
 70
     1
102
RTVSPropertyOp33
 70
     1
102
RTVSPropertyOp34
 70
     1
102
RTVSPropertyOp35
 70
     1
102
RTVSPropertyOp36
 70
     1
102
RTVSPropertyOp37
 70
     1
102
RTVSPropertyOp38
 70
     1
102
RTVSPropertyOp39
 70
     1
102
RTVSPropertyOp40
 70
     1
102
RTVSPropertyOp41
 70
     1
102
RTVSPropertyOp42
 70
     1
102
RTVSPropertyOp43
 70
     1
102
RTVSPropertyOp44
 70
     1
102
RTVSPropertyOp45
 70
     1
102
RTVSPropertyOp46
 70
     1
102
RTVSPropertyOp47
 70
     1
102
RTVSPropertyOp48
 70
     1
102
RTVSPropertyOp49
 70
     1
102
RTVSPropertyOp50
 70
     1
102
RTVSPropertyOp51
 70
     0
102
RTVSPropertyOp52
 70
     0
102
RTVSPropertyOp53
 70
     1
102
RTVSPropertyOp54
 70
     1
102
RTVSPropertyOp55
 70
     1
102
RTVSPropertyOp56
 70
     1
102
RTVSPropertyOp57
 70
     1
102
RTVSPropertyOp58
 70
     1
102
RTVSPropertyOp59
 70
     1
102
RTVSPropertyOp60
 70
     1
102
RTVSPropertyOp61
 70
     1
102
RTVSPropertyOp62
 70
     1
  0
XRECORD
  5
C0C0
102
{ACAD_REACTORS
330
C0BF
102
}
330
C0BF
100
AcDbXrecord
280
     1
102
RTVSPost2010Prop28
280
     0
102
RTVSPost2010PropOp28
 70
     1
102
RTVSPost2010Prop29
280
     1
102
RTVSPost2010PropOp29
 70
     1
102
RTVSPost2010Prop30
280
     1
102
RTVSPost2010PropOp30
 70
     1
102
RTVSPost2010Prop31
280
     0
102
RTVSPost2010PropOp31
 70
     1
102
RTVSPost2010Prop32
280
     0
102
RTVSPost2010PropOp32
 70
     1
102
RTVSPost2010Prop33
280
     0
102
RTVSPost2010PropOp33
 70
     1
102
RTVSPost2010Prop34
280
     0
102
RTVSPost2010PropOp34
 70
     1
102
RTVSPost2010Prop35
280
     0
102
RTVSPost2010PropOp35
 70
     1
102
RTVSPost2010Prop36
280
     0
102
RTVSPost2010PropOp36
 70
     1
102
RTVSPost2010Prop37
 90
       50
102
RTVSPost2010PropOp37
 70
     1
102
RTVSPost2010Prop38
140
0.0
102
RTVSPost2010PropOp38
 70
     1
102
RTVSPost2010Prop39
140
1.0
102
RTVSPost2010PropOp39
 70
     1
102
RTVSPost2010Prop40
 90
        0
102
RTVSPost2010PropOp40
 70
     1
102
RTVSPost2010Prop41ColorIndex
 90
       18
102
RTVSPost2010Prop41ColorRGB
 90
        0
102
RTVSPost2010PropOp41
 70
     1
102
RTVSPost2010Prop42
 90
       50
102
RTVSPost2010PropOp42
 70
     1
102
RTVSPost2010Prop43
 90
        3
102
RTVSPost2010PropOp43
 70
     1
102
RTVSPost2010Prop44ColorIndex
 90
        5
102
RTVSPost2010Prop44ColorRGB
 90
      255
102
RTVSPost2010PropOp44
 70
     1
102
RTVSPost2010Prop45
280
     0
102
RTVSPost2010PropOp45
 70
     1
102
RTVSPost2010Prop46
 90
       50
102
RTVSPost2010PropOp46
 70
     1
102
RTVSPost2010Prop47
 90
       50
102
RTVSPost2010PropOp47
 70
     1
102
RTVSPost2010Prop48
 90
       50
102
RTVSPost2010PropOp48
 70
     1
102
RTVSPost2010Prop49
280
     0
102
RTVSPost2010PropOp49
 70
     1
102
RTVSPost2010Prop50
 90
       50
102
RTVSPost2010PropOp50
 70
     1
102
RTVSPost2010Prop51ColorIndex
 90
      256
102
RTVSPost2010Prop51ColorRGB
 90
-16777216
102
RTVSPost2010PropOp51
 70
     0
102
RTVSPost2010Prop52
140
1.0
102
RTVSPost2010PropOp52
 70
     0
102
RTVSPost2010Prop53
 90
        2
102
RTVSPost2010PropOp53
 70
     1
102
RTVSPost2010Prop54
  1
strokes_ogs.tif
102
RTVSPost2010PropOp54
 70
     1
102
RTVSPost2010Prop55
280
     0
102
RTVSPost2010PropOp55
 70
     1
102
RTVSPost2010Prop56
140
1.0
102
RTVSPost2010PropOp56
 70
     1
102
RTVSPost2010Prop57
140
1.0
102
RTVSPost2010PropOp57
 70
     1
102
RTVSPropertyOp0
 70
     1
102
RTVSPropertyOp1
 70
     1
102
RTVSPropertyOp2
 70
     1
102
RTVSPropertyOp3
 70
     1
102
RTVSPropertyOp4
 70
     1
102
RTVSPropertyOp5
 70
     1
102
RTVSPropertyOp6
 70
     1
102
RTVSPropertyOp7
 70
     1
102
RTVSPropertyOp8
 70
     1
102
RTVSPropertyOp9
 70
     1
102
RTVSPropertyOp10
 70
     1
102
RTVSPropertyOp11
 70
     1
102
RTVSPropertyOp12
 70
     1
102
RTVSPropertyOp13
 70
     1
102
RTVSPropertyOp14
 70
     1
102
RTVSPropertyOp15
 70
     1
102
RTVSPropertyOp16
 70
     1
102
RTVSPropertyOp17
 70
     1
102
RTVSPropertyOp18
 70
     1
102
RTVSPropertyOp19
 70
     1
102
RTVSPropertyOp20
 70
     1
102
RTVSPropertyOp21
 70
     1
102
RTVSPropertyOp22
 70
     1
102
RTVSPropertyOp23
 70
     1
102
RTVSPropertyOp24
 70
     1
102
RTVSPropertyOp25
 70
     1
102
RTVSPropertyOp26
 70
     1
102
RTVSPropertyOp27
 70
     1
102
RTVSPropertyOp28
 70
     1
102
RTVSPropertyOp29
 70
     1
102
RTVSPropertyOp30
 70
     1
102
RTVSPropertyOp31
 70
     1
102
RTVSPropertyOp32
 70
     1
102
RTVSPropertyOp33
 70
     1
102
RTVSPropertyOp34
 70
     1
102
RTVSPropertyOp35
 70
     1
102
RTVSPropertyOp36
 70
     1
102
RTVSPropertyOp37
 70
     1
102
RTVSPropertyOp38
 70
     1
102
RTVSPropertyOp39
 70
     1
102
RTVSPropertyOp40
 70
     1
102
RTVSPropertyOp41
 70
     1
102
RTVSPropertyOp42
 70
     1
102
RTVSPropertyOp43
 70
     1
102
RTVSPropertyOp44
 70
     1
102
RTVSPropertyOp45
 70
     1
102
RTVSPropertyOp46
 70
     1
102
RTVSPropertyOp47
 70
     1
102
RTVSPropertyOp48
 70
     1
102
RTVSPropertyOp49
 70
     1
102
RTVSPropertyOp50
 70
     1
102
RTVSPropertyOp51
 70
     0
102
RTVSPropertyOp52
 70
     0
102
RTVSPropertyOp53
 70
     1
102
RTVSPropertyOp54
 70
     1
102
RTVSPropertyOp55
 70
     1
102
RTVSPropertyOp56
 70
     1
102
RTVSPropertyOp57
 70
     1
102
RTVSPropertyOp58
 70
     1
102
RTVSPropertyOp59
 70
     1
102
RTVSPropertyOp60
 70
     1
102
RTVSPropertyOp61
 70
     1
102
RTVSPropertyOp62
 70
     1
  0
XRECORD
  5
C0B2
102
{ACAD_REACTORS
330
C0B1
102
}
330
C0B1
100
AcDbXrecord
280
     1
102
RTVSPost2010Prop28
280
     0
102
RTVSPost2010PropOp28
 70
     1
102
RTVSPost2010Prop29
280
     1
102
RTVSPost2010PropOp29
 70
     1
102
RTVSPost2010Prop30
280
     1
102
RTVSPost2010PropOp30
 70
     1
102
RTVSPost2010Prop31
280
     0
102
RTVSPost2010PropOp31
 70
     1
102
RTVSPost2010Prop32
280
     0
102
RTVSPost2010PropOp32
 70
     1
102
RTVSPost2010Prop33
280
     0
102
RTVSPost2010PropOp33
 70
     1
102
RTVSPost2010Prop34
280
     0
102
RTVSPost2010PropOp34
 70
     1
102
RTVSPost2010Prop35
280
     0
102
RTVSPost2010PropOp35
 70
     1
102
RTVSPost2010Prop36
280
     0
102
RTVSPost2010PropOp36
 70
     1
102
RTVSPost2010Prop37
 90
       50
102
RTVSPost2010PropOp37
 70
     1
102
RTVSPost2010Prop38
140
0.0
102
RTVSPost2010PropOp38
 70
     1
102
RTVSPost2010Prop39
140
1.0
102
RTVSPost2010PropOp39
 70
     1
102
RTVSPost2010Prop40
 90
        0
102
RTVSPost2010PropOp40
 70
     1
102
RTVSPost2010Prop41ColorIndex
 90
       18
102
RTVSPost2010Prop41ColorRGB
 90
        0
102
RTVSPost2010PropOp41
 70
     1
102
RTVSPost2010Prop42
 90
       50
102
RTVSPost2010PropOp42
 70
     1
102
RTVSPost2010Prop43
 90
        3
102
RTVSPost2010PropOp43
 70
     1
102
RTVSPost2010Prop44ColorIndex
 90
        5
102
RTVSPost2010Prop44ColorRGB
 90
      255
102
RTVSPost2010PropOp44
 70
     1
102
RTVSPost2010Prop45
280
     0
102
RTVSPost2010PropOp45
 70
     1
102
RTVSPost2010Prop46
 90
       50
102
RTVSPost2010PropOp46
 70
     1
102
RTVSPost2010Prop47
 90
       50
102
RTVSPost2010PropOp47
 70
     1
102
RTVSPost2010Prop48
 90
       50
102
RTVSPost2010PropOp48
 70
     1
102
RTVSPost2010Prop49
280
     0
102
RTVSPost2010PropOp49
 70
     1
102
RTVSPost2010Prop50
 90
       50
102
RTVSPost2010PropOp50
 70
     1
102
RTVSPost2010Prop51ColorIndex
 90
      256
102
RTVSPost2010Prop51ColorRGB
 90
-16777216
102
RTVSPost2010PropOp51
 70
     0
102
RTVSPost2010Prop52
140
1.0
102
RTVSPost2010PropOp52
 70
     0
102
RTVSPost2010Prop53
 90
        2
102
RTVSPost2010PropOp53
 70
     1
102
RTVSPost2010Prop54
  1
strokes_ogs.tif
102
RTVSPost2010PropOp54
 70
     1
102
RTVSPost2010Prop55
280
     0
102
RTVSPost2010PropOp55
 70
     1
102
RTVSPost2010Prop56
140
1.0
102
RTVSPost2010PropOp56
 70
     1
102
RTVSPost2010Prop57
140
1.0
102
RTVSPost2010PropOp57
 70
     1
102
RTVSPropertyOp0
 70
     1
102
RTVSPropertyOp1
 70
     1
102
RTVSPropertyOp2
 70
     1
102
RTVSPropertyOp3
 70
     1
102
RTVSPropertyOp4
 70
     1
102
RTVSPropertyOp5
 70
     1
102
RTVSPropertyOp6
 70
     1
102
RTVSPropertyOp7
 70
     1
102
RTVSPropertyOp8
 70
     1
102
RTVSPropertyOp9
 70
     1
102
RTVSPropertyOp10
 70
     1
102
RTVSPropertyOp11
 70
     1
102
RTVSPropertyOp12
 70
     1
102
RTVSPropertyOp13
 70
     1
102
RTVSPropertyOp14
 70
     1
102
RTVSPropertyOp15
 70
     1
102
RTVSPropertyOp16
 70
     1
102
RTVSPropertyOp17
 70
     1
102
RTVSPropertyOp18
 70
     1
102
RTVSPropertyOp19
 70
     1
102
RTVSPropertyOp20
 70
     1
102
RTVSPropertyOp21
 70
     1
102
RTVSPropertyOp22
 70
     1
102
RTVSPropertyOp23
 70
     1
102
RTVSPropertyOp24
 70
     1
102
RTVSPropertyOp25
 70
     1
102
RTVSPropertyOp26
 70
     1
102
RTVSPropertyOp27
 70
     1
102
RTVSPropertyOp28
 70
     1
102
RTVSPropertyOp29
 70
     1
102
RTVSPropertyOp30
 70
     1
102
RTVSPropertyOp31
 70
     1
102
RTVSPropertyOp32
 70
     1
102
RTVSPropertyOp33
 70
     1
102
RTVSPropertyOp34
 70
     1
102
RTVSPropertyOp35
 70
     1
102
RTVSPropertyOp36
 70
     1
102
RTVSPropertyOp37
 70
     1
102
RTVSPropertyOp38
 70
     1
102
RTVSPropertyOp39
 70
     1
102
RTVSPropertyOp40
 70
     1
102
RTVSPropertyOp41
 70
     1
102
RTVSPropertyOp42
 70
     1
102
RTVSPropertyOp43
 70
     1
102
RTVSPropertyOp44
 70
     1
102
RTVSPropertyOp45
 70
     1
102
RTVSPropertyOp46
 70
     1
102
RTVSPropertyOp47
 70
     1
102
RTVSPropertyOp48
 70
     1
102
RTVSPropertyOp49
 70
     1
102
RTVSPropertyOp50
 70
     1
102
RTVSPropertyOp51
 70
     0
102
RTVSPropertyOp52
 70
     0
102
RTVSPropertyOp53
 70
     1
102
RTVSPropertyOp54
 70
     1
102
RTVSPropertyOp55
 70
     1
102
RTVSPropertyOp56
 70
     1
102
RTVSPropertyOp57
 70
     1
102
RTVSPropertyOp58
 70
     1
102
RTVSPropertyOp59
 70
     1
102
RTVSPropertyOp60
 70
     1
102
RTVSPropertyOp61
 70
     1
102
RTVSPropertyOp62
 70
     1
  0
XRECORD
  5
C0B6
102
{ACAD_REACTORS
330
C0B5
102
}
330
C0B5
100
AcDbXrecord
280
     1
102
RTVSPost2010Prop28
280
     0
102
RTVSPost2010PropOp28
 70
     1
102
RTVSPost2010Prop29
280
     1
102
RTVSPost2010PropOp29
 70
     1
102
RTVSPost2010Prop30
280
     1
102
RTVSPost2010PropOp30
 70
     1
102
RTVSPost2010Prop31
280
     0
102
RTVSPost2010PropOp31
 70
     1
102
RTVSPost2010Prop32
280
     0
102
RTVSPost2010PropOp32
 70
     1
102
RTVSPost2010Prop33
280
     0
102
RTVSPost2010PropOp33
 70
     1
102
RTVSPost2010Prop34
280
     0
102
RTVSPost2010PropOp34
 70
     1
102
RTVSPost2010Prop35
280
     0
102
RTVSPost2010PropOp35
 70
     1
102
RTVSPost2010Prop36
280
     0
102
RTVSPost2010PropOp36
 70
     1
102
RTVSPost2010Prop37
 90
       50
102
RTVSPost2010PropOp37
 70
     1
102
RTVSPost2010Prop38
140
0.0
102
RTVSPost2010PropOp38
 70
     1
102
RTVSPost2010Prop39
140
1.0
102
RTVSPost2010PropOp39
 70
     1
102
RTVSPost2010Prop40
 90
        0
102
RTVSPost2010PropOp40
 70
     1
102
RTVSPost2010Prop41ColorIndex
 90
       18
102
RTVSPost2010Prop41ColorRGB
 90
        0
102
RTVSPost2010PropOp41
 70
     1
102
RTVSPost2010Prop42
 90
       50
102
RTVSPost2010PropOp42
 70
     1
102
RTVSPost2010Prop43
 90
        3
102
RTVSPost2010PropOp43
 70
     1
102
RTVSPost2010Prop44ColorIndex
 90
        5
102
RTVSPost2010Prop44ColorRGB
 90
      255
102
RTVSPost2010PropOp44
 70
     1
102
RTVSPost2010Prop45
280
     0
102
RTVSPost2010PropOp45
 70
     1
102
RTVSPost2010Prop46
 90
       50
102
RTVSPost2010PropOp46
 70
     1
102
RTVSPost2010Prop47
 90
       50
102
RTVSPost2010PropOp47
 70
     1
102
RTVSPost2010Prop48
 90
       50
102
RTVSPost2010PropOp48
 70
     1
102
RTVSPost2010Prop49
280
     0
102
RTVSPost2010PropOp49
 70
     1
102
RTVSPost2010Prop50
 90
       50
102
RTVSPost2010PropOp50
 70
     1
102
RTVSPost2010Prop51ColorIndex
 90
      256
102
RTVSPost2010Prop51ColorRGB
 90
-16777216
102
RTVSPost2010PropOp51
 70
     0
102
RTVSPost2010Prop52
140
1.0
102
RTVSPost2010PropOp52
 70
     0
102
RTVSPost2010Prop53
 90
        2
102
RTVSPost2010PropOp53
 70
     1
102
RTVSPost2010Prop54
  1
strokes_ogs.tif
102
RTVSPost2010PropOp54
 70
     1
102
RTVSPost2010Prop55
280
     0
102
RTVSPost2010PropOp55
 70
     1
102
RTVSPost2010Prop56
140
1.0
102
RTVSPost2010PropOp56
 70
     1
102
RTVSPost2010Prop57
140
1.0
102
RTVSPost2010PropOp57
 70
     1
102
RTVSPropertyOp0
 70
     1
102
RTVSPropertyOp1
 70
     1
102
RTVSPropertyOp2
 70
     1
102
RTVSPropertyOp3
 70
     1
102
RTVSPropertyOp4
 70
     1
102
RTVSPropertyOp5
 70
     1
102
RTVSPropertyOp6
 70
     1
102
RTVSPropertyOp7
 70
     1
102
RTVSPropertyOp8
 70
     1
102
RTVSPropertyOp9
 70
     1
102
RTVSPropertyOp10
 70
     1
102
RTVSPropertyOp11
 70
     1
102
RTVSPropertyOp12
 70
     1
102
RTVSPropertyOp13
 70
     1
102
RTVSPropertyOp14
 70
     1
102
RTVSPropertyOp15
 70
     1
102
RTVSPropertyOp16
 70
     1
102
RTVSPropertyOp17
 70
     1
102
RTVSPropertyOp18
 70
     1
102
RTVSPropertyOp19
 70
     1
102
RTVSPropertyOp20
 70
     1
102
RTVSPropertyOp21
 70
     1
102
RTVSPropertyOp22
 70
     1
102
RTVSPropertyOp23
 70
     1
102
RTVSPropertyOp24
 70
     1
102
RTVSPropertyOp25
 70
     1
102
RTVSPropertyOp26
 70
     1
102
RTVSPropertyOp27
 70
     1
102
RTVSPropertyOp28
 70
     1
102
RTVSPropertyOp29
 70
     1
102
RTVSPropertyOp30
 70
     1
102
RTVSPropertyOp31
 70
     1
102
RTVSPropertyOp32
 70
     1
102
RTVSPropertyOp33
 70
     1
102
RTVSPropertyOp34
 70
     1
102
RTVSPropertyOp35
 70
     1
102
RTVSPropertyOp36
 70
     1
102
RTVSPropertyOp37
 70
     1
102
RTVSPropertyOp38
 70
     1
102
RTVSPropertyOp39
 70
     1
102
RTVSPropertyOp40
 70
     1
102
RTVSPropertyOp41
 70
     1
102
RTVSPropertyOp42
 70
     1
102
RTVSPropertyOp43
 70
     1
102
RTVSPropertyOp44
 70
     1
102
RTVSPropertyOp45
 70
     1
102
RTVSPropertyOp46
 70
     1
102
RTVSPropertyOp47
 70
     1
102
RTVSPropertyOp48
 70
     1
102
RTVSPropertyOp49
 70
     1
102
RTVSPropertyOp50
 70
     1
102
RTVSPropertyOp51
 70
     0
102
RTVSPropertyOp52
 70
     0
102
RTVSPropertyOp53
 70
     1
102
RTVSPropertyOp54
 70
     1
102
RTVSPropertyOp55
 70
     1
102
RTVSPropertyOp56
 70
     1
102
RTVSPropertyOp57
 70
     1
102
RTVSPropertyOp58
 70
     1
102
RTVSPropertyOp59
 70
     1
102
RTVSPropertyOp60
 70
     1
102
RTVSPropertyOp61
 70
     1
102
RTVSPropertyOp62
 70
     1
  0
XRECORD
  5
C0D0
102
{ACAD_REACTORS
330
C0CF
102
}
330
C0CF
100
AcDbXrecord
280
     1
102
RTVSPost2010Prop28
280
     0
102
RTVSPost2010PropOp28
 70
     1
102
RTVSPost2010Prop29
280
     1
102
RTVSPost2010PropOp29
 70
     1
102
RTVSPost2010Prop30
280
     1
102
RTVSPost2010PropOp30
 70
     1
102
RTVSPost2010Prop31
280
     0
102
RTVSPost2010PropOp31
 70
     1
102
RTVSPost2010Prop32
280
     0
102
RTVSPost2010PropOp32
 70
     1
102
RTVSPost2010Prop33
280
     0
102
RTVSPost2010PropOp33
 70
     1
102
RTVSPost2010Prop34
280
     0
102
RTVSPost2010PropOp34
 70
     1
102
RTVSPost2010Prop35
280
     0
102
RTVSPost2010PropOp35
 70
     1
102
RTVSPost2010Prop36
280
     0
102
RTVSPost2010PropOp36
 70
     1
102
RTVSPost2010Prop37
 90
       50
102
RTVSPost2010PropOp37
 70
     0
102
RTVSPost2010Prop38
140
0.0
102
RTVSPost2010PropOp38
 70
     0
102
RTVSPost2010Prop39
140
1.0
102
RTVSPost2010PropOp39
 70
     0
102
RTVSPost2010Prop40
 90
        0
102
RTVSPost2010PropOp40
 70
     0
102
RTVSPost2010Prop41ColorIndex
 90
       18
102
RTVSPost2010Prop41ColorRGB
 90
        0
102
RTVSPost2010PropOp41
 70
     0
102
RTVSPost2010Prop42
 90
       50
102
RTVSPost2010PropOp42
 70
     0
102
RTVSPost2010Prop43
 90
        3
102
RTVSPost2010PropOp43
 70
     0
102
RTVSPost2010Prop44ColorIndex
 90
        5
102
RTVSPost2010Prop44ColorRGB
 90
      255
102
RTVSPost2010PropOp44
 70
     0
102
RTVSPost2010Prop45
280
     0
102
RTVSPost2010PropOp45
 70
     1
102
RTVSPost2010Prop46
 90
       50
102
RTVSPost2010PropOp46
 70
     0
102
RTVSPost2010Prop47
 90
       50
102
RTVSPost2010PropOp47
 70
     0
102
RTVSPost2010Prop48
 90
       50
102
RTVSPost2010PropOp48
 70
     0
102
RTVSPost2010Prop49
280
     0
102
RTVSPost2010PropOp49
 70
     1
102
RTVSPost2010Prop50
 90
       50
102
RTVSPost2010PropOp50
 70
     0
102
RTVSPost2010Prop51ColorIndex
 90
      256
102
RTVSPost2010Prop51ColorRGB
 90
-16777216
102
RTVSPost2010PropOp51
 70
     0
102
RTVSPost2010Prop52
140
1.0
102
RTVSPost2010PropOp52
 70
     0
102
RTVSPost2010Prop53
 90
        2
102
RTVSPost2010PropOp53
 70
     0
102
RTVSPost2010Prop54
  1
strokes_ogs.tif
102
RTVSPost2010PropOp54
 70
     0
102
RTVSPost2010Prop55
280
     0
102
RTVSPost2010PropOp55
 70
     1
102
RTVSPost2010Prop56
140
1.0
102
RTVSPost2010PropOp56
 70
     0
102
RTVSPost2010Prop57
140
1.0
102
RTVSPost2010PropOp57
 70
     0
102
RTVSPropertyOp0
 70
     0
102
RTVSPropertyOp1
 70
     0
102
RTVSPropertyOp2
 70
     0
102
RTVSPropertyOp3
 70
     0
102
RTVSPropertyOp4
 70
     0
102
RTVSPropertyOp5
 70
     0
102
RTVSPropertyOp6
 70
     0
102
RTVSPropertyOp7
 70
     0
102
RTVSPropertyOp8
 70
     0
102
RTVSPropertyOp9
 70
     0
102
RTVSPropertyOp10
 70
     0
102
RTVSPropertyOp11
 70
     0
102
RTVSPropertyOp12
 70
     0
102
RTVSPropertyOp13
 70
     0
102
RTVSPropertyOp14
 70
     2
102
RTVSPropertyOp15
 70
     0
102
RTVSPropertyOp16
 70
     0
102
RTVSPropertyOp17
 70
     0
102
RTVSPropertyOp18
 70
     0
102
RTVSPropertyOp19
 70
     0
102
RTVSPropertyOp20
 70
     0
102
RTVSPropertyOp21
 70
     0
102
RTVSPropertyOp22
 70
     0
102
RTVSPropertyOp23
 70
     0
102
RTVSPropertyOp24
 70
     0
102
RTVSPropertyOp25
 70
     0
102
RTVSPropertyOp26
 70
     0
102
RTVSPropertyOp27
 70
     0
102
RTVSPropertyOp28
 70
     1
102
RTVSPropertyOp29
 70
     1
102
RTVSPropertyOp30
 70
     1
102
RTVSPropertyOp31
 70
     1
102
RTVSPropertyOp32
 70
     1
102
RTVSPropertyOp33
 70
     1
102
RTVSPropertyOp34
 70
     1
102
RTVSPropertyOp35
 70
     1
102
RTVSPropertyOp36
 70
     1
102
RTVSPropertyOp37
 70
     0
102
RTVSPropertyOp38
 70
     0
102
RTVSPropertyOp39
 70
     0
102
RTVSPropertyOp40
 70
     0
102
RTVSPropertyOp41
 70
     0
102
RTVSPropertyOp42
 70
     0
102
RTVSPropertyOp43
 70
     0
102
RTVSPropertyOp44
 70
     0
102
RTVSPropertyOp45
 70
     1
102
RTVSPropertyOp46
 70
     0
102
RTVSPropertyOp47
 70
     0
102
RTVSPropertyOp48
 70
     0
102
RTVSPropertyOp49
 70
     1
102
RTVSPropertyOp50
 70
     0
102
RTVSPropertyOp51
 70
     0
102
RTVSPropertyOp52
 70
     0
102
RTVSPropertyOp53
 70
     0
102
RTVSPropertyOp54
 70
     0
102
RTVSPropertyOp55
 70
     1
102
RTVSPropertyOp56
 70
     0
102
RTVSPropertyOp57
 70
     0
102
RTVSPropertyOp58
 70
     0
102
RTVSPropertyOp59
 70
     0
102
RTVSPropertyOp60
 70
     0
102
RTVSPropertyOp61
 70
     0
102
RTVSPropertyOp62
 70
     0
  0
XRECORD
  5
C0BE
102
{ACAD_REACTORS
330
C0BD
102
}
330
C0BD
100
AcDbXrecord
280
     1
102
RTVSPost2010Prop28
280
     0
102
RTVSPost2010PropOp28
 70
     1
102
RTVSPost2010Prop29
280
     1
102
RTVSPost2010PropOp29
 70
     1
102
RTVSPost2010Prop30
280
     1
102
RTVSPost2010PropOp30
 70
     1
102
RTVSPost2010Prop31
280
     0
102
RTVSPost2010PropOp31
 70
     1
102
RTVSPost2010Prop32
280
     0
102
RTVSPost2010PropOp32
 70
     1
102
RTVSPost2010Prop33
280
     0
102
RTVSPost2010PropOp33
 70
     1
102
RTVSPost2010Prop34
280
     0
102
RTVSPost2010PropOp34
 70
     1
102
RTVSPost2010Prop35
280
     0
102
RTVSPost2010PropOp35
 70
     1
102
RTVSPost2010Prop36
280
     0
102
RTVSPost2010PropOp36
 70
     1
102
RTVSPost2010Prop37
 90
       50
102
RTVSPost2010PropOp37
 70
     1
102
RTVSPost2010Prop38
140
0.0
102
RTVSPost2010PropOp38
 70
     1
102
RTVSPost2010Prop39
140
1.0
102
RTVSPost2010PropOp39
 70
     1
102
RTVSPost2010Prop40
 90
        0
102
RTVSPost2010PropOp40
 70
     1
102
RTVSPost2010Prop41ColorIndex
 90
       18
102
RTVSPost2010Prop41ColorRGB
 90
        0
102
RTVSPost2010PropOp41
 70
     1
102
RTVSPost2010Prop42
 90
       50
102
RTVSPost2010PropOp42
 70
     1
102
RTVSPost2010Prop43
 90
        3
102
RTVSPost2010PropOp43
 70
     1
102
RTVSPost2010Prop44ColorIndex
 90
        5
102
RTVSPost2010Prop44ColorRGB
 90
      255
102
RTVSPost2010PropOp44
 70
     1
102
RTVSPost2010Prop45
280
     0
102
RTVSPost2010PropOp45
 70
     1
102
RTVSPost2010Prop46
 90
       50
102
RTVSPost2010PropOp46
 70
     1
102
RTVSPost2010Prop47
 90
       50
102
RTVSPost2010PropOp47
 70
     1
102
RTVSPost2010Prop48
 90
       50
102
RTVSPost2010PropOp48
 70
     1
102
RTVSPost2010Prop49
280
     0
102
RTVSPost2010PropOp49
 70
     1
102
RTVSPost2010Prop50
 90
       50
102
RTVSPost2010PropOp50
 70
     1
102
RTVSPost2010Prop51ColorIndex
 90
      256
102
RTVSPost2010Prop51ColorRGB
 90
-16777216
102
RTVSPost2010PropOp51
 70
     0
102
RTVSPost2010Prop52
140
1.0
102
RTVSPost2010PropOp52
 70
     0
102
RTVSPost2010Prop53
 90
        2
102
RTVSPost2010PropOp53
 70
     1
102
RTVSPost2010Prop54
  1
strokes_ogs.tif
102
RTVSPost2010PropOp54
 70
     1
102
RTVSPost2010Prop55
280
     0
102
RTVSPost2010PropOp55
 70
     1
102
RTVSPost2010Prop56
140
1.0
102
RTVSPost2010PropOp56
 70
     1
102
RTVSPost2010Prop57
140
1.0
102
RTVSPost2010PropOp57
 70
     1
102
RTVSPropertyOp0
 70
     1
102
RTVSPropertyOp1
 70
     1
102
RTVSPropertyOp2
 70
     1
102
RTVSPropertyOp3
 70
     1
102
RTVSPropertyOp4
 70
     1
102
RTVSPropertyOp5
 70
     1
102
RTVSPropertyOp6
 70
     1
102
RTVSPropertyOp7
 70
     1
102
RTVSPropertyOp8
 70
     1
102
RTVSPropertyOp9
 70
     1
102
RTVSPropertyOp10
 70
     1
102
RTVSPropertyOp11
 70
     1
102
RTVSPropertyOp12
 70
     1
102
RTVSPropertyOp13
 70
     1
102
RTVSPropertyOp14
 70
     1
102
RTVSPropertyOp15
 70
     1
102
RTVSPropertyOp16
 70
     1
102
RTVSPropertyOp17
 70
     1
102
RTVSPropertyOp18
 70
     1
102
RTVSPropertyOp19
 70
     1
102
RTVSPropertyOp20
 70
     1
102
RTVSPropertyOp21
 70
     1
102
RTVSPropertyOp22
 70
     1
102
RTVSPropertyOp23
 70
     1
102
RTVSPropertyOp24
 70
     1
102
RTVSPropertyOp25
 70
     1
102
RTVSPropertyOp26
 70
     1
102
RTVSPropertyOp27
 70
     1
102
RTVSPropertyOp28
 70
     1
102
RTVSPropertyOp29
 70
     1
102
RTVSPropertyOp30
 70
     1
102
RTVSPropertyOp31
 70
     1
102
RTVSPropertyOp32
 70
     1
102
RTVSPropertyOp33
 70
     1
102
RTVSPropertyOp34
 70
     1
102
RTVSPropertyOp35
 70
     1
102
RTVSPropertyOp36
 70
     1
102
RTVSPropertyOp37
 70
     1
102
RTVSPropertyOp38
 70
     1
102
RTVSPropertyOp39
 70
     1
102
RTVSPropertyOp40
 70
     1
102
RTVSPropertyOp41
 70
     1
102
RTVSPropertyOp42
 70
     1
102
RTVSPropertyOp43
 70
     1
102
RTVSPropertyOp44
 70
     1
102
RTVSPropertyOp45
 70
     1
102
RTVSPropertyOp46
 70
     1
102
RTVSPropertyOp47
 70
     1
102
RTVSPropertyOp48
 70
     1
102
RTVSPropertyOp49
 70
     1
102
RTVSPropertyOp50
 70
     1
102
RTVSPropertyOp51
 70
     0
102
RTVSPropertyOp52
 70
     0
102
RTVSPropertyOp53
 70
     1
102
RTVSPropertyOp54
 70
     1
102
RTVSPropertyOp55
 70
     1
102
RTVSPropertyOp56
 70
     1
102
RTVSPropertyOp57
 70
     1
102
RTVSPropertyOp58
 70
     1
102
RTVSPropertyOp59
 70
     1
102
RTVSPropertyOp60
 70
     1
102
RTVSPropertyOp61
 70
     1
102
RTVSPropertyOp62
 70
     1
  0
XRECORD
  5
C0A2
102
{ACAD_REACTORS
330
C0A1
102
}
330
C0A1
100
AcDbXrecord
280
     1
102
RTVSPost2010Prop28
280
     0
102
RTVSPost2010PropOp28
 70
     1
102
RTVSPost2010Prop29
280
     1
102
RTVSPost2010PropOp29
 70
     1
102
RTVSPost2010Prop30
280
     1
102
RTVSPost2010PropOp30
 70
     1
102
RTVSPost2010Prop31
280
     0
102
RTVSPost2010PropOp31
 70
     1
102
RTVSPost2010Prop32
280
     0
102
RTVSPost2010PropOp32
 70
     1
102
RTVSPost2010Prop33
280
     0
102
RTVSPost2010PropOp33
 70
     1
102
RTVSPost2010Prop34
280
     0
102
RTVSPost2010PropOp34
 70
     1
102
RTVSPost2010Prop35
280
     0
102
RTVSPost2010PropOp35
 70
     1
102
RTVSPost2010Prop36
280
     0
102
RTVSPost2010PropOp36
 70
     1
102
RTVSPost2010Prop37
 90
       50
102
RTVSPost2010PropOp37
 70
     1
102
RTVSPost2010Prop38
140
0.0
102
RTVSPost2010PropOp38
 70
     1
102
RTVSPost2010Prop39
140
1.0
102
RTVSPost2010PropOp39
 70
     1
102
RTVSPost2010Prop40
 90
        0
102
RTVSPost2010PropOp40
 70
     1
102
RTVSPost2010Prop41ColorIndex
 90
       18
102
RTVSPost2010Prop41ColorRGB
 90
        0
102
RTVSPost2010PropOp41
 70
     1
102
RTVSPost2010Prop42
 90
       50
102
RTVSPost2010PropOp42
 70
     1
102
RTVSPost2010Prop43
 90
        3
102
RTVSPost2010PropOp43
 70
     1
102
RTVSPost2010Prop44ColorIndex
 90
        5
102
RTVSPost2010Prop44ColorRGB
 90
      255
102
RTVSPost2010PropOp44
 70
     1
102
RTVSPost2010Prop45
280
     0
102
RTVSPost2010PropOp45
 70
     1
102
RTVSPost2010Prop46
 90
       50
102
RTVSPost2010PropOp46
 70
     1
102
RTVSPost2010Prop47
 90
       50
102
RTVSPost2010PropOp47
 70
     1
102
RTVSPost2010Prop48
 90
       50
102
RTVSPost2010PropOp48
 70
     1
102
RTVSPost2010Prop49
280
     0
102
RTVSPost2010PropOp49
 70
     1
102
RTVSPost2010Prop50
 90
       50
102
RTVSPost2010PropOp50
 70
     1
102
RTVSPost2010Prop51ColorIndex
 90
      256
102
RTVSPost2010Prop51ColorRGB
 90
-16777216
102
RTVSPost2010PropOp51
 70
     0
102
RTVSPost2010Prop52
140
1.0
102
RTVSPost2010PropOp52
 70
     0
102
RTVSPost2010Prop53
 90
        2
102
RTVSPost2010PropOp53
 70
     1
102
RTVSPost2010Prop54
  1
strokes_ogs.tif
102
RTVSPost2010PropOp54
 70
     1
102
RTVSPost2010Prop55
280
     0
102
RTVSPost2010PropOp55
 70
     1
102
RTVSPost2010Prop56
140
1.0
102
RTVSPost2010PropOp56
 70
     1
102
RTVSPost2010Prop57
140
1.0
102
RTVSPost2010PropOp57
 70
     1
102
RTVSPropertyOp0
 70
     1
102
RTVSPropertyOp1
 70
     1
102
RTVSPropertyOp2
 70
     1
102
RTVSPropertyOp3
 70
     1
102
RTVSPropertyOp4
 70
     1
102
RTVSPropertyOp5
 70
     1
102
RTVSPropertyOp6
 70
     1
102
RTVSPropertyOp7
 70
     1
102
RTVSPropertyOp8
 70
     1
102
RTVSPropertyOp9
 70
     1
102
RTVSPropertyOp10
 70
     1
102
RTVSPropertyOp11
 70
     1
102
RTVSPropertyOp12
 70
     1
102
RTVSPropertyOp13
 70
     1
102
RTVSPropertyOp14
 70
     1
102
RTVSPropertyOp15
 70
     1
102
RTVSPropertyOp16
 70
     1
102
RTVSPropertyOp17
 70
     1
102
RTVSPropertyOp18
 70
     1
102
RTVSPropertyOp19
 70
     1
102
RTVSPropertyOp20
 70
     1
102
RTVSPropertyOp21
 70
     1
102
RTVSPropertyOp22
 70
     1
102
RTVSPropertyOp23
 70
     1
102
RTVSPropertyOp24
 70
     1
102
RTVSPropertyOp25
 70
     1
102
RTVSPropertyOp26
 70
     1
102
RTVSPropertyOp27
 70
     1
102
RTVSPropertyOp28
 70
     1
102
RTVSPropertyOp29
 70
     1
102
RTVSPropertyOp30
 70
     1
102
RTVSPropertyOp31
 70
     1
102
RTVSPropertyOp32
 70
     1
102
RTVSPropertyOp33
 70
     1
102
RTVSPropertyOp34
 70
     1
102
RTVSPropertyOp35
 70
     1
102
RTVSPropertyOp36
 70
     1
102
RTVSPropertyOp37
 70
     1
102
RTVSPropertyOp38
 70
     1
102
RTVSPropertyOp39
 70
     1
102
RTVSPropertyOp40
 70
     1
102
RTVSPropertyOp41
 70
     1
102
RTVSPropertyOp42
 70
     1
102
RTVSPropertyOp43
 70
     1
102
RTVSPropertyOp44
 70
     1
102
RTVSPropertyOp45
 70
     1
102
RTVSPropertyOp46
 70
     1
102
RTVSPropertyOp47
 70
     1
102
RTVSPropertyOp48
 70
     1
102
RTVSPropertyOp49
 70
     1
102
RTVSPropertyOp50
 70
     1
102
RTVSPropertyOp51
 70
     0
102
RTVSPropertyOp52
 70
     0
102
RTVSPropertyOp53
 70
     1
102
RTVSPropertyOp54
 70
     1
102
RTVSPropertyOp55
 70
     1
102
RTVSPropertyOp56
 70
     1
102
RTVSPropertyOp57
 70
     1
102
RTVSPropertyOp58
 70
     1
102
RTVSPropertyOp59
 70
     1
102
RTVSPropertyOp60
 70
     1
102
RTVSPropertyOp61
 70
     1
102
RTVSPropertyOp62
 70
     1
  0
XRECORD
  5
C0A4
102
{ACAD_REACTORS
330
C0A3
102
}
330
C0A3
100
AcDbXrecord
280
     1
102
RTVSPost2010Prop28
280
     0
102
RTVSPost2010PropOp28
 70
     1
102
RTVSPost2010Prop29
280
     1
102
RTVSPost2010PropOp29
 70
     1
102
RTVSPost2010Prop30
280
     1
102
RTVSPost2010PropOp30
 70
     1
102
RTVSPost2010Prop31
280
     0
102
RTVSPost2010PropOp31
 70
     1
102
RTVSPost2010Prop32
280
     0
102
RTVSPost2010PropOp32
 70
     1
102
RTVSPost2010Prop33
280
     0
102
RTVSPost2010PropOp33
 70
     1
102
RTVSPost2010Prop34
280
     0
102
RTVSPost2010PropOp34
 70
     1
102
RTVSPost2010Prop35
280
     0
102
RTVSPost2010PropOp35
 70
     1
102
RTVSPost2010Prop36
280
     0
102
RTVSPost2010PropOp36
 70
     1
102
RTVSPost2010Prop37
 90
       50
102
RTVSPost2010PropOp37
 70
     1
102
RTVSPost2010Prop38
140
0.0
102
RTVSPost2010PropOp38
 70
     1
102
RTVSPost2010Prop39
140
1.0
102
RTVSPost2010PropOp39
 70
     1
102
RTVSPost2010Prop40
 90
        0
102
RTVSPost2010PropOp40
 70
     1
102
RTVSPost2010Prop41ColorIndex
 90
       18
102
RTVSPost2010Prop41ColorRGB
 90
        0
102
RTVSPost2010PropOp41
 70
     1
102
RTVSPost2010Prop42
 90
       50
102
RTVSPost2010PropOp42
 70
     1
102
RTVSPost2010Prop43
 90
        3
102
RTVSPost2010PropOp43
 70
     1
102
RTVSPost2010Prop44ColorIndex
 90
        5
102
RTVSPost2010Prop44ColorRGB
 90
      255
102
RTVSPost2010PropOp44
 70
     1
102
RTVSPost2010Prop45
280
     0
102
RTVSPost2010PropOp45
 70
     1
102
RTVSPost2010Prop46
 90
       50
102
RTVSPost2010PropOp46
 70
     1
102
RTVSPost2010Prop47
 90
       50
102
RTVSPost2010PropOp47
 70
     1
102
RTVSPost2010Prop48
 90
       50
102
RTVSPost2010PropOp48
 70
     1
102
RTVSPost2010Prop49
280
     0
102
RTVSPost2010PropOp49
 70
     1
102
RTVSPost2010Prop50
 90
       50
102
RTVSPost2010PropOp50
 70
     1
102
RTVSPost2010Prop51ColorIndex
 90
      256
102
RTVSPost2010Prop51ColorRGB
 90
-16777216
102
RTVSPost2010PropOp51
 70
     0
102
RTVSPost2010Prop52
140
1.0
102
RTVSPost2010PropOp52
 70
     0
102
RTVSPost2010Prop53
 90
        2
102
RTVSPost2010PropOp53
 70
     1
102
RTVSPost2010Prop54
  1
strokes_ogs.tif
102
RTVSPost2010PropOp54
 70
     1
102
RTVSPost2010Prop55
280
     0
102
RTVSPost2010PropOp55
 70
     1
102
RTVSPost2010Prop56
140
1.0
102
RTVSPost2010PropOp56
 70
     1
102
RTVSPost2010Prop57
140
1.0
102
RTVSPost2010PropOp57
 70
     1
102
RTVSPropertyOp0
 70
     1
102
RTVSPropertyOp1
 70
     1
102
RTVSPropertyOp2
 70
     1
102
RTVSPropertyOp3
 70
     1
102
RTVSPropertyOp4
 70
     1
102
RTVSPropertyOp5
 70
     1
102
RTVSPropertyOp6
 70
     1
102
RTVSPropertyOp7
 70
     1
102
RTVSPropertyOp8
 70
     1
102
RTVSPropertyOp9
 70
     1
102
RTVSPropertyOp10
 70
     1
102
RTVSPropertyOp11
 70
     1
102
RTVSPropertyOp12
 70
     1
102
RTVSPropertyOp13
 70
     1
102
RTVSPropertyOp14
 70
     1
102
RTVSPropertyOp15
 70
     1
102
RTVSPropertyOp16
 70
     1
102
RTVSPropertyOp17
 70
     1
102
RTVSPropertyOp18
 70
     1
102
RTVSPropertyOp19
 70
     1
102
RTVSPropertyOp20
 70
     1
102
RTVSPropertyOp21
 70
     1
102
RTVSPropertyOp22
 70
     1
102
RTVSPropertyOp23
 70
     1
102
RTVSPropertyOp24
 70
     1
102
RTVSPropertyOp25
 70
     1
102
RTVSPropertyOp26
 70
     1
102
RTVSPropertyOp27
 70
     1
102
RTVSPropertyOp28
 70
     1
102
RTVSPropertyOp29
 70
     1
102
RTVSPropertyOp30
 70
     1
102
RTVSPropertyOp31
 70
     1
102
RTVSPropertyOp32
 70
     1
102
RTVSPropertyOp33
 70
     1
102
RTVSPropertyOp34
 70
     1
102
RTVSPropertyOp35
 70
     1
102
RTVSPropertyOp36
 70
     1
102
RTVSPropertyOp37
 70
     1
102
RTVSPropertyOp38
 70
     1
102
RTVSPropertyOp39
 70
     1
102
RTVSPropertyOp40
 70
     1
102
RTVSPropertyOp41
 70
     1
102
RTVSPropertyOp42
 70
     1
102
RTVSPropertyOp43
 70
     1
102
RTVSPropertyOp44
 70
     1
102
RTVSPropertyOp45
 70
     1
102
RTVSPropertyOp46
 70
     1
102
RTVSPropertyOp47
 70
     1
102
RTVSPropertyOp48
 70
     1
102
RTVSPropertyOp49
 70
     1
102
RTVSPropertyOp50
 70
     1
102
RTVSPropertyOp51
 70
     0
102
RTVSPropertyOp52
 70
     0
102
RTVSPropertyOp53
 70
     1
102
RTVSPropertyOp54
 70
     1
102
RTVSPropertyOp55
 70
     1
102
RTVSPropertyOp56
 70
     1
102
RTVSPropertyOp57
 70
     1
102
RTVSPropertyOp58
 70
     1
102
RTVSPropertyOp59
 70
     1
102
RTVSPropertyOp60
 70
     1
102
RTVSPropertyOp61
 70
     1
102
RTVSPropertyOp62
 70
     1
  0
XRECORD
  5
C0A6
102
{ACAD_REACTORS
330
C0A5
102
}
330
C0A5
100
AcDbXrecord
280
     1
102
RTVSPost2010Prop28
280
     0
102
RTVSPost2010PropOp28
 70
     1
102
RTVSPost2010Prop29
280
     1
102
RTVSPost2010PropOp29
 70
     1
102
RTVSPost2010Prop30
280
     1
102
RTVSPost2010PropOp30
 70
     1
102
RTVSPost2010Prop31
280
     0
102
RTVSPost2010PropOp31
 70
     1
102
RTVSPost2010Prop32
280
     0
102
RTVSPost2010PropOp32
 70
     1
102
RTVSPost2010Prop33
280
     0
102
RTVSPost2010PropOp33
 70
     1
102
RTVSPost2010Prop34
280
     0
102
RTVSPost2010PropOp34
 70
     1
102
RTVSPost2010Prop35
280
     0
102
RTVSPost2010PropOp35
 70
     1
102
RTVSPost2010Prop36
280
     0
102
RTVSPost2010PropOp36
 70
     1
102
RTVSPost2010Prop37
 90
       50
102
RTVSPost2010PropOp37
 70
     1
102
RTVSPost2010Prop38
140
0.0
102
RTVSPost2010PropOp38
 70
     1
102
RTVSPost2010Prop39
140
1.0
102
RTVSPost2010PropOp39
 70
     1
102
RTVSPost2010Prop40
 90
        0
102
RTVSPost2010PropOp40
 70
     1
102
RTVSPost2010Prop41ColorIndex
 90
       18
102
RTVSPost2010Prop41ColorRGB
 90
        0
102
RTVSPost2010PropOp41
 70
     1
102
RTVSPost2010Prop42
 90
       50
102
RTVSPost2010PropOp42
 70
     1
102
RTVSPost2010Prop43
 90
        3
102
RTVSPost2010PropOp43
 70
     1
102
RTVSPost2010Prop44ColorIndex
 90
        5
102
RTVSPost2010Prop44ColorRGB
 90
      255
102
RTVSPost2010PropOp44
 70
     1
102
RTVSPost2010Prop45
280
     0
102
RTVSPost2010PropOp45
 70
     1
102
RTVSPost2010Prop46
 90
       50
102
RTVSPost2010PropOp46
 70
     1
102
RTVSPost2010Prop47
 90
       50
102
RTVSPost2010PropOp47
 70
     1
102
RTVSPost2010Prop48
 90
       50
102
RTVSPost2010PropOp48
 70
     1
102
RTVSPost2010Prop49
280
     0
102
RTVSPost2010PropOp49
 70
     1
102
RTVSPost2010Prop50
 90
       50
102
RTVSPost2010PropOp50
 70
     1
102
RTVSPost2010Prop51ColorIndex
 90
      256
102
RTVSPost2010Prop51ColorRGB
 90
-16777216
102
RTVSPost2010PropOp51
 70
     0
102
RTVSPost2010Prop52
140
1.0
102
RTVSPost2010PropOp52
 70
     0
102
RTVSPost2010Prop53
 90
        2
102
RTVSPost2010PropOp53
 70
     1
102
RTVSPost2010Prop54
  1
strokes_ogs.tif
102
RTVSPost2010PropOp54
 70
     1
102
RTVSPost2010Prop55
280
     0
102
RTVSPost2010PropOp55
 70
     1
102
RTVSPost2010Prop56
140
1.0
102
RTVSPost2010PropOp56
 70
     1
102
RTVSPost2010Prop57
140
1.0
102
RTVSPost2010PropOp57
 70
     1
102
RTVSPropertyOp0
 70
     1
102
RTVSPropertyOp1
 70
     1
102
RTVSPropertyOp2
 70
     1
102
RTVSPropertyOp3
 70
     1
102
RTVSPropertyOp4
 70
     1
102
RTVSPropertyOp5
 70
     1
102
RTVSPropertyOp6
 70
     1
102
RTVSPropertyOp7
 70
     1
102
RTVSPropertyOp8
 70
     1
102
RTVSPropertyOp9
 70
     1
102
RTVSPropertyOp10
 70
     1
102
RTVSPropertyOp11
 70
     1
102
RTVSPropertyOp12
 70
     1
102
RTVSPropertyOp13
 70
     1
102
RTVSPropertyOp14
 70
     1
102
RTVSPropertyOp15
 70
     1
102
RTVSPropertyOp16
 70
     1
102
RTVSPropertyOp17
 70
     1
102
RTVSPropertyOp18
 70
     1
102
RTVSPropertyOp19
 70
     1
102
RTVSPropertyOp20
 70
     1
102
RTVSPropertyOp21
 70
     1
102
RTVSPropertyOp22
 70
     1
102
RTVSPropertyOp23
 70
     1
102
RTVSPropertyOp24
 70
     1
102
RTVSPropertyOp25
 70
     1
102
RTVSPropertyOp26
 70
     1
102
RTVSPropertyOp27
 70
     1
102
RTVSPropertyOp28
 70
     1
102
RTVSPropertyOp29
 70
     1
102
RTVSPropertyOp30
 70
     1
102
RTVSPropertyOp31
 70
     1
102
RTVSPropertyOp32
 70
     1
102
RTVSPropertyOp33
 70
     1
102
RTVSPropertyOp34
 70
     1
102
RTVSPropertyOp35
 70
     1
102
RTVSPropertyOp36
 70
     1
102
RTVSPropertyOp37
 70
     1
102
RTVSPropertyOp38
 70
     1
102
RTVSPropertyOp39
 70
     1
102
RTVSPropertyOp40
 70
     1
102
RTVSPropertyOp41
 70
     1
102
RTVSPropertyOp42
 70
     1
102
RTVSPropertyOp43
 70
     1
102
RTVSPropertyOp44
 70
     1
102
RTVSPropertyOp45
 70
     1
102
RTVSPropertyOp46
 70
     1
102
RTVSPropertyOp47
 70
     1
102
RTVSPropertyOp48
 70
     1
102
RTVSPropertyOp49
 70
     1
102
RTVSPropertyOp50
 70
     1
102
RTVSPropertyOp51
 70
     0
102
RTVSPropertyOp52
 70
     0
102
RTVSPropertyOp53
 70
     1
102
RTVSPropertyOp54
 70
     1
102
RTVSPropertyOp55
 70
     1
102
RTVSPropertyOp56
 70
     1
102
RTVSPropertyOp57
 70
     1
102
RTVSPropertyOp58
 70
     1
102
RTVSPropertyOp59
 70
     1
102
RTVSPropertyOp60
 70
     1
102
RTVSPropertyOp61
 70
     1
102
RTVSPropertyOp62
 70
     1
  0
XRECORD
  5
C0A8
102
{ACAD_REACTORS
330
C0A7
102
}
330
C0A7
100
AcDbXrecord
280
     1
102
RTVSPost2010Prop28
280
     0
102
RTVSPost2010PropOp28
 70
     1
102
RTVSPost2010Prop29
280
     1
102
RTVSPost2010PropOp29
 70
     1
102
RTVSPost2010Prop30
280
     1
102
RTVSPost2010PropOp30
 70
     1
102
RTVSPost2010Prop31
280
     0
102
RTVSPost2010PropOp31
 70
     1
102
RTVSPost2010Prop32
280
     0
102
RTVSPost2010PropOp32
 70
     1
102
RTVSPost2010Prop33
280
     0
102
RTVSPost2010PropOp33
 70
     1
102
RTVSPost2010Prop34
280
     0
102
RTVSPost2010PropOp34
 70
     1
102
RTVSPost2010Prop35
280
     0
102
RTVSPost2010PropOp35
 70
     1
102
RTVSPost2010Prop36
280
     0
102
RTVSPost2010PropOp36
 70
     1
102
RTVSPost2010Prop37
 90
       50
102
RTVSPost2010PropOp37
 70
     1
102
RTVSPost2010Prop38
140
0.0
102
RTVSPost2010PropOp38
 70
     1
102
RTVSPost2010Prop39
140
1.0
102
RTVSPost2010PropOp39
 70
     1
102
RTVSPost2010Prop40
 90
        0
102
RTVSPost2010PropOp40
 70
     1
102
RTVSPost2010Prop41ColorIndex
 90
       18
102
RTVSPost2010Prop41ColorRGB
 90
        0
102
RTVSPost2010PropOp41
 70
     1
102
RTVSPost2010Prop42
 90
       50
102
RTVSPost2010PropOp42
 70
     1
102
RTVSPost2010Prop43
 90
        3
102
RTVSPost2010PropOp43
 70
     1
102
RTVSPost2010Prop44ColorIndex
 90
        5
102
RTVSPost2010Prop44ColorRGB
 90
      255
102
RTVSPost2010PropOp44
 70
     1
102
RTVSPost2010Prop45
280
     0
102
RTVSPost2010PropOp45
 70
     1
102
RTVSPost2010Prop46
 90
       50
102
RTVSPost2010PropOp46
 70
     1
102
RTVSPost2010Prop47
 90
       50
102
RTVSPost2010PropOp47
 70
     1
102
RTVSPost2010Prop48
 90
       50
102
RTVSPost2010PropOp48
 70
     1
102
RTVSPost2010Prop49
280
     0
102
RTVSPost2010PropOp49
 70
     1
102
RTVSPost2010Prop50
 90
       50
102
RTVSPost2010PropOp50
 70
     1
102
RTVSPost2010Prop51ColorIndex
 90
      256
102
RTVSPost2010Prop51ColorRGB
 90
-16777216
102
RTVSPost2010PropOp51
 70
     0
102
RTVSPost2010Prop52
140
1.0
102
RTVSPost2010PropOp52
 70
     0
102
RTVSPost2010Prop53
 90
        2
102
RTVSPost2010PropOp53
 70
     1
102
RTVSPost2010Prop54
  1
strokes_ogs.tif
102
RTVSPost2010PropOp54
 70
     1
102
RTVSPost2010Prop55
280
     0
102
RTVSPost2010PropOp55
 70
     1
102
RTVSPost2010Prop56
140
1.0
102
RTVSPost2010PropOp56
 70
     1
102
RTVSPost2010Prop57
140
1.0
102
RTVSPost2010PropOp57
 70
     1
102
RTVSPropertyOp0
 70
     1
102
RTVSPropertyOp1
 70
     1
102
RTVSPropertyOp2
 70
     1
102
RTVSPropertyOp3
 70
     1
102
RTVSPropertyOp4
 70
     1
102
RTVSPropertyOp5
 70
     1
102
RTVSPropertyOp6
 70
     1
102
RTVSPropertyOp7
 70
     1
102
RTVSPropertyOp8
 70
     1
102
RTVSPropertyOp9
 70
     1
102
RTVSPropertyOp10
 70
     1
102
RTVSPropertyOp11
 70
     1
102
RTVSPropertyOp12
 70
     1
102
RTVSPropertyOp13
 70
     1
102
RTVSPropertyOp14
 70
     1
102
RTVSPropertyOp15
 70
     1
102
RTVSPropertyOp16
 70
     1
102
RTVSPropertyOp17
 70
     1
102
RTVSPropertyOp18
 70
     1
102
RTVSPropertyOp19
 70
     1
102
RTVSPropertyOp20
 70
     1
102
RTVSPropertyOp21
 70
     1
102
RTVSPropertyOp22
 70
     1
102
RTVSPropertyOp23
 70
     1
102
RTVSPropertyOp24
 70
     1
102
RTVSPropertyOp25
 70
     1
102
RTVSPropertyOp26
 70
     1
102
RTVSPropertyOp27
 70
     1
102
RTVSPropertyOp28
 70
     1
102
RTVSPropertyOp29
 70
     1
102
RTVSPropertyOp30
 70
     1
102
RTVSPropertyOp31
 70
     1
102
RTVSPropertyOp32
 70
     1
102
RTVSPropertyOp33
 70
     1
102
RTVSPropertyOp34
 70
     1
102
RTVSPropertyOp35
 70
     1
102
RTVSPropertyOp36
 70
     1
102
RTVSPropertyOp37
 70
     1
102
RTVSPropertyOp38
 70
     1
102
RTVSPropertyOp39
 70
     1
102
RTVSPropertyOp40
 70
     1
102
RTVSPropertyOp41
 70
     1
102
RTVSPropertyOp42
 70
     1
102
RTVSPropertyOp43
 70
     1
102
RTVSPropertyOp44
 70
     1
102
RTVSPropertyOp45
 70
     1
102
RTVSPropertyOp46
 70
     1
102
RTVSPropertyOp47
 70
     1
102
RTVSPropertyOp48
 70
     1
102
RTVSPropertyOp49
 70
     1
102
RTVSPropertyOp50
 70
     1
102
RTVSPropertyOp51
 70
     0
102
RTVSPropertyOp52
 70
     0
102
RTVSPropertyOp53
 70
     1
102
RTVSPropertyOp54
 70
     1
102
RTVSPropertyOp55
 70
     1
102
RTVSPropertyOp56
 70
     1
102
RTVSPropertyOp57
 70
     1
102
RTVSPropertyOp58
 70
     1
102
RTVSPropertyOp59
 70
     1
102
RTVSPropertyOp60
 70
     1
102
RTVSPropertyOp61
 70
     1
102
RTVSPropertyOp62
 70
     1
  0
XRECORD
  5
C0B0
102
{ACAD_REACTORS
330
C0AF
102
}
330
C0AF
100
AcDbXrecord
280
     1
102
RTVSPost2010Prop28
280
     0
102
RTVSPost2010PropOp28
 70
     1
102
RTVSPost2010Prop29
280
     1
102
RTVSPost2010PropOp29
 70
     1
102
RTVSPost2010Prop30
280
     1
102
RTVSPost2010PropOp30
 70
     1
102
RTVSPost2010Prop31
280
     0
102
RTVSPost2010PropOp31
 70
     1
102
RTVSPost2010Prop32
280
     0
102
RTVSPost2010PropOp32
 70
     1
102
RTVSPost2010Prop33
280
     0
102
RTVSPost2010PropOp33
 70
     1
102
RTVSPost2010Prop34
280
     0
102
RTVSPost2010PropOp34
 70
     1
102
RTVSPost2010Prop35
280
     0
102
RTVSPost2010PropOp35
 70
     1
102
RTVSPost2010Prop36
280
     0
102
RTVSPost2010PropOp36
 70
     1
102
RTVSPost2010Prop37
 90
       50
102
RTVSPost2010PropOp37
 70
     1
102
RTVSPost2010Prop38
140
0.0
102
RTVSPost2010PropOp38
 70
     1
102
RTVSPost2010Prop39
140
1.0
102
RTVSPost2010PropOp39
 70
     1
102
RTVSPost2010Prop40
 90
        0
102
RTVSPost2010PropOp40
 70
     1
102
RTVSPost2010Prop41ColorIndex
 90
       18
102
RTVSPost2010Prop41ColorRGB
 90
        0
102
RTVSPost2010PropOp41
 70
     1
102
RTVSPost2010Prop42
 90
       50
102
RTVSPost2010PropOp42
 70
     1
102
RTVSPost2010Prop43
 90
        3
102
RTVSPost2010PropOp43
 70
     1
102
RTVSPost2010Prop44ColorIndex
 90
        5
102
RTVSPost2010Prop44ColorRGB
 90
      255
102
RTVSPost2010PropOp44
 70
     1
102
RTVSPost2010Prop45
280
     0
102
RTVSPost2010PropOp45
 70
     1
102
RTVSPost2010Prop46
 90
       50
102
RTVSPost2010PropOp46
 70
     1
102
RTVSPost2010Prop47
 90
       50
102
RTVSPost2010PropOp47
 70
     1
102
RTVSPost2010Prop48
 90
       50
102
RTVSPost2010PropOp48
 70
     1
102
RTVSPost2010Prop49
280
     0
102
RTVSPost2010PropOp49
 70
     1
102
RTVSPost2010Prop50
 90
       50
102
RTVSPost2010PropOp50
 70
     1
102
RTVSPost2010Prop51ColorIndex
 90
      256
102
RTVSPost2010Prop51ColorRGB
 90
-16777216
102
RTVSPost2010PropOp51
 70
     0
102
RTVSPost2010Prop52
140
1.0
102
RTVSPost2010PropOp52
 70
     0
102
RTVSPost2010Prop53
 90
        2
102
RTVSPost2010PropOp53
 70
     1
102
RTVSPost2010Prop54
  1
strokes_ogs.tif
102
RTVSPost2010PropOp54
 70
     1
102
RTVSPost2010Prop55
280
     0
102
RTVSPost2010PropOp55
 70
     1
102
RTVSPost2010Prop56
140
1.0
102
RTVSPost2010PropOp56
 70
     1
102
RTVSPost2010Prop57
140
1.0
102
RTVSPost2010PropOp57
 70
     1
102
RTVSPropertyOp0
 70
     1
102
RTVSPropertyOp1
 70
     1
102
RTVSPropertyOp2
 70
     1
102
RTVSPropertyOp3
 70
     1
102
RTVSPropertyOp4
 70
     1
102
RTVSPropertyOp5
 70
     1
102
RTVSPropertyOp6
 70
     1
102
RTVSPropertyOp7
 70
     1
102
RTVSPropertyOp8
 70
     1
102
RTVSPropertyOp9
 70
     1
102
RTVSPropertyOp10
 70
     1
102
RTVSPropertyOp11
 70
     1
102
RTVSPropertyOp12
 70
     1
102
RTVSPropertyOp13
 70
     1
102
RTVSPropertyOp14
 70
     1
102
RTVSPropertyOp15
 70
     1
102
RTVSPropertyOp16
 70
     1
102
RTVSPropertyOp17
 70
     1
102
RTVSPropertyOp18
 70
     1
102
RTVSPropertyOp19
 70
     1
102
RTVSPropertyOp20
 70
     1
102
RTVSPropertyOp21
 70
     1
102
RTVSPropertyOp22
 70
     1
102
RTVSPropertyOp23
 70
     1
102
RTVSPropertyOp24
 70
     1
102
RTVSPropertyOp25
 70
     1
102
RTVSPropertyOp26
 70
     1
102
RTVSPropertyOp27
 70
     1
102
RTVSPropertyOp28
 70
     1
102
RTVSPropertyOp29
 70
     1
102
RTVSPropertyOp30
 70
     1
102
RTVSPropertyOp31
 70
     1
102
RTVSPropertyOp32
 70
     1
102
RTVSPropertyOp33
 70
     1
102
RTVSPropertyOp34
 70
     1
102
RTVSPropertyOp35
 70
     1
102
RTVSPropertyOp36
 70
     1
102
RTVSPropertyOp37
 70
     1
102
RTVSPropertyOp38
 70
     1
102
RTVSPropertyOp39
 70
     1
102
RTVSPropertyOp40
 70
     1
102
RTVSPropertyOp41
 70
     1
102
RTVSPropertyOp42
 70
     1
102
RTVSPropertyOp43
 70
     1
102
RTVSPropertyOp44
 70
     1
102
RTVSPropertyOp45
 70
     1
102
RTVSPropertyOp46
 70
     1
102
RTVSPropertyOp47
 70
     1
102
RTVSPropertyOp48
 70
     1
102
RTVSPropertyOp49
 70
     1
102
RTVSPropertyOp50
 70
     1
102
RTVSPropertyOp51
 70
     0
102
RTVSPropertyOp52
 70
     0
102
RTVSPropertyOp53
 70
     1
102
RTVSPropertyOp54
 70
     1
102
RTVSPropertyOp55
 70
     1
102
RTVSPropertyOp56
 70
     1
102
RTVSPropertyOp57
 70
     1
102
RTVSPropertyOp58
 70
     1
102
RTVSPropertyOp59
 70
     1
102
RTVSPropertyOp60
 70
     1
102
RTVSPropertyOp61
 70
     1
102
RTVSPropertyOp62
 70
     1
  0
XRECORD
  5
C0CC
102
{ACAD_REACTORS
330
C0CB
102
}
330
C0CB
100
AcDbXrecord
280
     1
102
RTVSPost2010Prop28
280
     0
102
RTVSPost2010PropOp28
 70
     1
102
RTVSPost2010Prop29
280
     1
102
RTVSPost2010PropOp29
 70
     1
102
RTVSPost2010Prop30
280
     1
102
RTVSPost2010PropOp30
 70
     1
102
RTVSPost2010Prop31
280
     0
102
RTVSPost2010PropOp31
 70
     1
102
RTVSPost2010Prop32
280
     0
102
RTVSPost2010PropOp32
 70
     1
102
RTVSPost2010Prop33
280
     0
102
RTVSPost2010PropOp33
 70
     1
102
RTVSPost2010Prop34
280
     0
102
RTVSPost2010PropOp34
 70
     1
102
RTVSPost2010Prop35
280
     0
102
RTVSPost2010PropOp35
 70
     1
102
RTVSPost2010Prop36
280
     0
102
RTVSPost2010PropOp36
 70
     1
102
RTVSPost2010Prop37
 90
       50
102
RTVSPost2010PropOp37
 70
     0
102
RTVSPost2010Prop38
140
0.0
102
RTVSPost2010PropOp38
 70
     0
102
RTVSPost2010Prop39
140
1.0
102
RTVSPost2010PropOp39
 70
     0
102
RTVSPost2010Prop40
 90
        0
102
RTVSPost2010PropOp40
 70
     0
102
RTVSPost2010Prop41ColorIndex
 90
       18
102
RTVSPost2010Prop41ColorRGB
 90
        0
102
RTVSPost2010PropOp41
 70
     0
102
RTVSPost2010Prop42
 90
       50
102
RTVSPost2010PropOp42
 70
     0
102
RTVSPost2010Prop43
 90
        3
102
RTVSPost2010PropOp43
 70
     0
102
RTVSPost2010Prop44ColorIndex
 90
        5
102
RTVSPost2010Prop44ColorRGB
 90
      255
102
RTVSPost2010PropOp44
 70
     0
102
RTVSPost2010Prop45
280
     0
102
RTVSPost2010PropOp45
 70
     1
102
RTVSPost2010Prop46
 90
       50
102
RTVSPost2010PropOp46
 70
     0
102
RTVSPost2010Prop47
 90
       50
102
RTVSPost2010PropOp47
 70
     0
102
RTVSPost2010Prop48
 90
       50
102
RTVSPost2010PropOp48
 70
     0
102
RTVSPost2010Prop49
280
     0
102
RTVSPost2010PropOp49
 70
     1
102
RTVSPost2010Prop50
 90
       50
102
RTVSPost2010PropOp50
 70
     0
102
RTVSPost2010Prop51ColorIndex
 90
      256
102
RTVSPost2010Prop51ColorRGB
 90
-16777216
102
RTVSPost2010PropOp51
 70
     0
102
RTVSPost2010Prop52
140
1.0
102
RTVSPost2010PropOp52
 70
     0
102
RTVSPost2010Prop53
 90
        2
102
RTVSPost2010PropOp53
 70
     0
102
RTVSPost2010Prop54
  1
strokes_ogs.tif
102
RTVSPost2010PropOp54
 70
     0
102
RTVSPost2010Prop55
280
     0
102
RTVSPost2010PropOp55
 70
     1
102
RTVSPost2010Prop56
140
1.0
102
RTVSPost2010PropOp56
 70
     0
102
RTVSPost2010Prop57
140
1.0
102
RTVSPost2010PropOp57
 70
     0
102
RTVSPropertyOp0
 70
     0
102
RTVSPropertyOp1
 70
     0
102
RTVSPropertyOp2
 70
     0
102
RTVSPropertyOp3
 70
     0
102
RTVSPropertyOp4
 70
     0
102
RTVSPropertyOp5
 70
     0
102
RTVSPropertyOp6
 70
     0
102
RTVSPropertyOp7
 70
     0
102
RTVSPropertyOp8
 70
     0
102
RTVSPropertyOp9
 70
     0
102
RTVSPropertyOp10
 70
     0
102
RTVSPropertyOp11
 70
     0
102
RTVSPropertyOp12
 70
     0
102
RTVSPropertyOp13
 70
     0
102
RTVSPropertyOp14
 70
     2
102
RTVSPropertyOp15
 70
     0
102
RTVSPropertyOp16
 70
     0
102
RTVSPropertyOp17
 70
     0
102
RTVSPropertyOp18
 70
     0
102
RTVSPropertyOp19
 70
     0
102
RTVSPropertyOp20
 70
     0
102
RTVSPropertyOp21
 70
     0
102
RTVSPropertyOp22
 70
     0
102
RTVSPropertyOp23
 70
     0
102
RTVSPropertyOp24
 70
     0
102
RTVSPropertyOp25
 70
     0
102
RTVSPropertyOp26
 70
     0
102
RTVSPropertyOp27
 70
     0
102
RTVSPropertyOp28
 70
     1
102
RTVSPropertyOp29
 70
     1
102
RTVSPropertyOp30
 70
     1
102
RTVSPropertyOp31
 70
     1
102
RTVSPropertyOp32
 70
     1
102
RTVSPropertyOp33
 70
     1
102
RTVSPropertyOp34
 70
     1
102
RTVSPropertyOp35
 70
     1
102
RTVSPropertyOp36
 70
     1
102
RTVSPropertyOp37
 70
     0
102
RTVSPropertyOp38
 70
     0
102
RTVSPropertyOp39
 70
     0
102
RTVSPropertyOp40
 70
     0
102
RTVSPropertyOp41
 70
     0
102
RTVSPropertyOp42
 70
     0
102
RTVSPropertyOp43
 70
     0
102
RTVSPropertyOp44
 70
     0
102
RTVSPropertyOp45
 70
     1
102
RTVSPropertyOp46
 70
     0
102
RTVSPropertyOp47
 70
     0
102
RTVSPropertyOp48
 70
     0
102
RTVSPropertyOp49
 70
     1
102
RTVSPropertyOp50
 70
     0
102
RTVSPropertyOp51
 70
     0
102
RTVSPropertyOp52
 70
     0
102
RTVSPropertyOp53
 70
     0
102
RTVSPropertyOp54
 70
     0
102
RTVSPropertyOp55
 70
     1
102
RTVSPropertyOp56
 70
     0
102
RTVSPropertyOp57
 70
     0
102
RTVSPropertyOp58
 70
     0
102
RTVSPropertyOp59
 70
     0
102
RTVSPropertyOp60
 70
     0
102
RTVSPropertyOp61
 70
     0
102
RTVSPropertyOp62
 70
     0
  0
XRECORD
  5
C0BC
102
{ACAD_REACTORS
330
C0BB
102
}
330
C0BB
100
AcDbXrecord
280
     1
102
RTVSPost2010Prop28
280
     0
102
RTVSPost2010PropOp28
 70
     1
102
RTVSPost2010Prop29
280
     1
102
RTVSPost2010PropOp29
 70
     1
102
RTVSPost2010Prop30
280
     1
102
RTVSPost2010PropOp30
 70
     1
102
RTVSPost2010Prop31
280
     0
102
RTVSPost2010PropOp31
 70
     1
102
RTVSPost2010Prop32
280
     0
102
RTVSPost2010PropOp32
 70
     1
102
RTVSPost2010Prop33
280
     0
102
RTVSPost2010PropOp33
 70
     1
102
RTVSPost2010Prop34
280
     0
102
RTVSPost2010PropOp34
 70
     1
102
RTVSPost2010Prop35
280
     0
102
RTVSPost2010PropOp35
 70
     1
102
RTVSPost2010Prop36
280
     0
102
RTVSPost2010PropOp36
 70
     1
102
RTVSPost2010Prop37
 90
       50
102
RTVSPost2010PropOp37
 70
     1
102
RTVSPost2010Prop38
140
0.0
102
RTVSPost2010PropOp38
 70
     1
102
RTVSPost2010Prop39
140
1.0
102
RTVSPost2010PropOp39
 70
     1
102
RTVSPost2010Prop40
 90
        0
102
RTVSPost2010PropOp40
 70
     1
102
RTVSPost2010Prop41ColorIndex
 90
       18
102
RTVSPost2010Prop41ColorRGB
 90
        0
102
RTVSPost2010PropOp41
 70
     1
102
RTVSPost2010Prop42
 90
       50
102
RTVSPost2010PropOp42
 70
     1
102
RTVSPost2010Prop43
 90
        3
102
RTVSPost2010PropOp43
 70
     1
102
RTVSPost2010Prop44ColorIndex
 90
        5
102
RTVSPost2010Prop44ColorRGB
 90
      255
102
RTVSPost2010PropOp44
 70
     1
102
RTVSPost2010Prop45
280
     0
102
RTVSPost2010PropOp45
 70
     1
102
RTVSPost2010Prop46
 90
       50
102
RTVSPost2010PropOp46
 70
     1
102
RTVSPost2010Prop47
 90
       50
102
RTVSPost2010PropOp47
 70
     1
102
RTVSPost2010Prop48
 90
       50
102
RTVSPost2010PropOp48
 70
     1
102
RTVSPost2010Prop49
280
     0
102
RTVSPost2010PropOp49
 70
     1
102
RTVSPost2010Prop50
 90
       50
102
RTVSPost2010PropOp50
 70
     1
102
RTVSPost2010Prop51ColorIndex
 90
      256
102
RTVSPost2010Prop51ColorRGB
 90
-16777216
102
RTVSPost2010PropOp51
 70
     0
102
RTVSPost2010Prop52
140
1.0
102
RTVSPost2010PropOp52
 70
     0
102
RTVSPost2010Prop53
 90
        2
102
RTVSPost2010PropOp53
 70
     1
102
RTVSPost2010Prop54
  1
strokes_ogs.tif
102
RTVSPost2010PropOp54
 70
     1
102
RTVSPost2010Prop55
280
     0
102
RTVSPost2010PropOp55
 70
     1
102
RTVSPost2010Prop56
140
1.0
102
RTVSPost2010PropOp56
 70
     1
102
RTVSPost2010Prop57
140
1.0
102
RTVSPost2010PropOp57
 70
     1
102
RTVSPropertyOp0
 70
     1
102
RTVSPropertyOp1
 70
     1
102
RTVSPropertyOp2
 70
     1
102
RTVSPropertyOp3
 70
     1
102
RTVSPropertyOp4
 70
     1
102
RTVSPropertyOp5
 70
     1
102
RTVSPropertyOp6
 70
     1
102
RTVSPropertyOp7
 70
     1
102
RTVSPropertyOp8
 70
     1
102
RTVSPropertyOp9
 70
     1
102
RTVSPropertyOp10
 70
     1
102
RTVSPropertyOp11
 70
     1
102
RTVSPropertyOp12
 70
     1
102
RTVSPropertyOp13
 70
     1
102
RTVSPropertyOp14
 70
     1
102
RTVSPropertyOp15
 70
     1
102
RTVSPropertyOp16
 70
     1
102
RTVSPropertyOp17
 70
     1
102
RTVSPropertyOp18
 70
     1
102
RTVSPropertyOp19
 70
     1
102
RTVSPropertyOp20
 70
     1
102
RTVSPropertyOp21
 70
     1
102
RTVSPropertyOp22
 70
     1
102
RTVSPropertyOp23
 70
     1
102
RTVSPropertyOp24
 70
     1
102
RTVSPropertyOp25
 70
     1
102
RTVSPropertyOp26
 70
     1
102
RTVSPropertyOp27
 70
     1
102
RTVSPropertyOp28
 70
     1
102
RTVSPropertyOp29
 70
     1
102
RTVSPropertyOp30
 70
     1
102
RTVSPropertyOp31
 70
     1
102
RTVSPropertyOp32
 70
     1
102
RTVSPropertyOp33
 70
     1
102
RTVSPropertyOp34
 70
     1
102
RTVSPropertyOp35
 70
     1
102
RTVSPropertyOp36
 70
     1
102
RTVSPropertyOp37
 70
     1
102
RTVSPropertyOp38
 70
     1
102
RTVSPropertyOp39
 70
     1
102
RTVSPropertyOp40
 70
     1
102
RTVSPropertyOp41
 70
     1
102
RTVSPropertyOp42
 70
     1
102
RTVSPropertyOp43
 70
     1
102
RTVSPropertyOp44
 70
     1
102
RTVSPropertyOp45
 70
     1
102
RTVSPropertyOp46
 70
     1
102
RTVSPropertyOp47
 70
     1
102
RTVSPropertyOp48
 70
     1
102
RTVSPropertyOp49
 70
     1
102
RTVSPropertyOp50
 70
     1
102
RTVSPropertyOp51
 70
     0
102
RTVSPropertyOp52
 70
     0
102
RTVSPropertyOp53
 70
     1
102
RTVSPropertyOp54
 70
     1
102
RTVSPropertyOp55
 70
     1
102
RTVSPropertyOp56
 70
     1
102
RTVSPropertyOp57
 70
     1
102
RTVSPropertyOp58
 70
     1
102
RTVSPropertyOp59
 70
     1
102
RTVSPropertyOp60
 70
     1
102
RTVSPropertyOp61
 70
     1
102
RTVSPropertyOp62
 70
     1
  0
XRECORD
  5
C0CE
102
{ACAD_REACTORS
330
C0CD
102
}
330
C0CD
100
AcDbXrecord
280
     1
102
RTVSPost2010Prop28
280
     0
102
RTVSPost2010PropOp28
 70
     1
102
RTVSPost2010Prop29
280
     1
102
RTVSPost2010PropOp29
 70
     1
102
RTVSPost2010Prop30
280
     1
102
RTVSPost2010PropOp30
 70
     1
102
RTVSPost2010Prop31
280
     0
102
RTVSPost2010PropOp31
 70
     1
102
RTVSPost2010Prop32
280
     0
102
RTVSPost2010PropOp32
 70
     1
102
RTVSPost2010Prop33
280
     0
102
RTVSPost2010PropOp33
 70
     1
102
RTVSPost2010Prop34
280
     0
102
RTVSPost2010PropOp34
 70
     1
102
RTVSPost2010Prop35
280
     0
102
RTVSPost2010PropOp35
 70
     1
102
RTVSPost2010Prop36
280
     0
102
RTVSPost2010PropOp36
 70
     1
102
RTVSPost2010Prop37
 90
       50
102
RTVSPost2010PropOp37
 70
     0
102
RTVSPost2010Prop38
140
0.0
102
RTVSPost2010PropOp38
 70
     0
102
RTVSPost2010Prop39
140
1.0
102
RTVSPost2010PropOp39
 70
     0
102
RTVSPost2010Prop40
 90
        0
102
RTVSPost2010PropOp40
 70
     0
102
RTVSPost2010Prop41ColorIndex
 90
       18
102
RTVSPost2010Prop41ColorRGB
 90
        0
102
RTVSPost2010PropOp41
 70
     0
102
RTVSPost2010Prop42
 90
       50
102
RTVSPost2010PropOp42
 70
     0
102
RTVSPost2010Prop43
 90
        3
102
RTVSPost2010PropOp43
 70
     0
102
RTVSPost2010Prop44ColorIndex
 90
        5
102
RTVSPost2010Prop44ColorRGB
 90
      255
102
RTVSPost2010PropOp44
 70
     0
102
RTVSPost2010Prop45
280
     0
102
RTVSPost2010PropOp45
 70
     1
102
RTVSPost2010Prop46
 90
       50
102
RTVSPost2010PropOp46
 70
     0
102
RTVSPost2010Prop47
 90
       50
102
RTVSPost2010PropOp47
 70
     0
102
RTVSPost2010Prop48
 90
       50
102
RTVSPost2010PropOp48
 70
     0
102
RTVSPost2010Prop49
280
     0
102
RTVSPost2010PropOp49
 70
     1
102
RTVSPost2010Prop50
 90
       50
102
RTVSPost2010PropOp50
 70
     0
102
RTVSPost2010Prop51ColorIndex
 90
      256
102
RTVSPost2010Prop51ColorRGB
 90
-16777216
102
RTVSPost2010PropOp51
 70
     0
102
RTVSPost2010Prop52
140
1.0
102
RTVSPost2010PropOp52
 70
     0
102
RTVSPost2010Prop53
 90
        2
102
RTVSPost2010PropOp53
 70
     0
102
RTVSPost2010Prop54
  1
strokes_ogs.tif
102
RTVSPost2010PropOp54
 70
     0
102
RTVSPost2010Prop55
280
     0
102
RTVSPost2010PropOp55
 70
     1
102
RTVSPost2010Prop56
140
1.0
102
RTVSPost2010PropOp56
 70
     0
102
RTVSPost2010Prop57
140
1.0
102
RTVSPost2010PropOp57
 70
     0
102
RTVSPropertyOp0
 70
     0
102
RTVSPropertyOp1
 70
     0
102
RTVSPropertyOp2
 70
     0
102
RTVSPropertyOp3
 70
     0
102
RTVSPropertyOp4
 70
     0
102
RTVSPropertyOp5
 70
     0
102
RTVSPropertyOp6
 70
     0
102
RTVSPropertyOp7
 70
     0
102
RTVSPropertyOp8
 70
     0
102
RTVSPropertyOp9
 70
     0
102
RTVSPropertyOp10
 70
     0
102
RTVSPropertyOp11
 70
     0
102
RTVSPropertyOp12
 70
     0
102
RTVSPropertyOp13
 70
     0
102
RTVSPropertyOp14
 70
     2
102
RTVSPropertyOp15
 70
     0
102
RTVSPropertyOp16
 70
     0
102
RTVSPropertyOp17
 70
     0
102
RTVSPropertyOp18
 70
     0
102
RTVSPropertyOp19
 70
     0
102
RTVSPropertyOp20
 70
     0
102
RTVSPropertyOp21
 70
     0
102
RTVSPropertyOp22
 70
     0
102
RTVSPropertyOp23
 70
     0
102
RTVSPropertyOp24
 70
     0
102
RTVSPropertyOp25
 70
     0
102
RTVSPropertyOp26
 70
     0
102
RTVSPropertyOp27
 70
     0
102
RTVSPropertyOp28
 70
     1
102
RTVSPropertyOp29
 70
     1
102
RTVSPropertyOp30
 70
     1
102
RTVSPropertyOp31
 70
     1
102
RTVSPropertyOp32
 70
     1
102
RTVSPropertyOp33
 70
     1
102
RTVSPropertyOp34
 70
     1
102
RTVSPropertyOp35
 70
     1
102
RTVSPropertyOp36
 70
     1
102
RTVSPropertyOp37
 70
     0
102
RTVSPropertyOp38
 70
     0
102
RTVSPropertyOp39
 70
     0
102
RTVSPropertyOp40
 70
     0
102
RTVSPropertyOp41
 70
     0
102
RTVSPropertyOp42
 70
     0
102
RTVSPropertyOp43
 70
     0
102
RTVSPropertyOp44
 70
     0
102
RTVSPropertyOp45
 70
     1
102
RTVSPropertyOp46
 70
     0
102
RTVSPropertyOp47
 70
     0
102
RTVSPropertyOp48
 70
     0
102
RTVSPropertyOp49
 70
     1
102
RTVSPropertyOp50
 70
     0
102
RTVSPropertyOp51
 70
     0
102
RTVSPropertyOp52
 70
     0
102
RTVSPropertyOp53
 70
     0
102
RTVSPropertyOp54
 70
     0
102
RTVSPropertyOp55
 70
     1
102
RTVSPropertyOp56
 70
     0
102
RTVSPropertyOp57
 70
     0
102
RTVSPropertyOp58
 70
     0
102
RTVSPropertyOp59
 70
     0
102
RTVSPropertyOp60
 70
     0
102
RTVSPropertyOp61
 70
     0
102
RTVSPropertyOp62
 70
     0
  0
XRECORD
  5
C0B4
102
{ACAD_REACTORS
330
C0B3
102
}
330
C0B3
100
AcDbXrecord
280
     1
102
RTVSPost2010Prop28
280
     0
102
RTVSPost2010PropOp28
 70
     1
102
RTVSPost2010Prop29
280
     1
102
RTVSPost2010PropOp29
 70
     1
102
RTVSPost2010Prop30
280
     1
102
RTVSPost2010PropOp30
 70
     1
102
RTVSPost2010Prop31
280
     0
102
RTVSPost2010PropOp31
 70
     1
102
RTVSPost2010Prop32
280
     0
102
RTVSPost2010PropOp32
 70
     1
102
RTVSPost2010Prop33
280
     0
102
RTVSPost2010PropOp33
 70
     1
102
RTVSPost2010Prop34
280
     0
102
RTVSPost2010PropOp34
 70
     1
102
RTVSPost2010Prop35
280
     0
102
RTVSPost2010PropOp35
 70
     1
102
RTVSPost2010Prop36
280
     0
102
RTVSPost2010PropOp36
 70
     1
102
RTVSPost2010Prop37
 90
       50
102
RTVSPost2010PropOp37
 70
     1
102
RTVSPost2010Prop38
140
0.0
102
RTVSPost2010PropOp38
 70
     1
102
RTVSPost2010Prop39
140
1.0
102
RTVSPost2010PropOp39
 70
     1
102
RTVSPost2010Prop40
 90
        0
102
RTVSPost2010PropOp40
 70
     1
102
RTVSPost2010Prop41ColorIndex
 90
       18
102
RTVSPost2010Prop41ColorRGB
 90
        0
102
RTVSPost2010PropOp41
 70
     1
102
RTVSPost2010Prop42
 90
       50
102
RTVSPost2010PropOp42
 70
     1
102
RTVSPost2010Prop43
 90
        3
102
RTVSPost2010PropOp43
 70
     1
102
RTVSPost2010Prop44ColorIndex
 90
        5
102
RTVSPost2010Prop44ColorRGB
 90
      255
102
RTVSPost2010PropOp44
 70
     1
102
RTVSPost2010Prop45
280
     0
102
RTVSPost2010PropOp45
 70
     1
102
RTVSPost2010Prop46
 90
       50
102
RTVSPost2010PropOp46
 70
     1
102
RTVSPost2010Prop47
 90
       50
102
RTVSPost2010PropOp47
 70
     1
102
RTVSPost2010Prop48
 90
       50
102
RTVSPost2010PropOp48
 70
     1
102
RTVSPost2010Prop49
280
     0
102
RTVSPost2010PropOp49
 70
     1
102
RTVSPost2010Prop50
 90
       50
102
RTVSPost2010PropOp50
 70
     1
102
RTVSPost2010Prop51ColorIndex
 90
      256
102
RTVSPost2010Prop51ColorRGB
 90
-16777216
102
RTVSPost2010PropOp51
 70
     0
102
RTVSPost2010Prop52
140
1.0
102
RTVSPost2010PropOp52
 70
     0
102
RTVSPost2010Prop53
 90
        2
102
RTVSPost2010PropOp53
 70
     1
102
RTVSPost2010Prop54
  1
strokes_ogs.tif
102
RTVSPost2010PropOp54
 70
     1
102
RTVSPost2010Prop55
280
     0
102
RTVSPost2010PropOp55
 70
     1
102
RTVSPost2010Prop56
140
1.0
102
RTVSPost2010PropOp56
 70
     1
102
RTVSPost2010Prop57
140
1.0
102
RTVSPost2010PropOp57
 70
     1
102
RTVSPropertyOp0
 70
     1
102
RTVSPropertyOp1
 70
     1
102
RTVSPropertyOp2
 70
     1
102
RTVSPropertyOp3
 70
     1
102
RTVSPropertyOp4
 70
     1
102
RTVSPropertyOp5
 70
     1
102
RTVSPropertyOp6
 70
     1
102
RTVSPropertyOp7
 70
     1
102
RTVSPropertyOp8
 70
     1
102
RTVSPropertyOp9
 70
     1
102
RTVSPropertyOp10
 70
     1
102
RTVSPropertyOp11
 70
     1
102
RTVSPropertyOp12
 70
     1
102
RTVSPropertyOp13
 70
     1
102
RTVSPropertyOp14
 70
     1
102
RTVSPropertyOp15
 70
     1
102
RTVSPropertyOp16
 70
     1
102
RTVSPropertyOp17
 70
     1
102
RTVSPropertyOp18
 70
     1
102
RTVSPropertyOp19
 70
     1
102
RTVSPropertyOp20
 70
     1
102
RTVSPropertyOp21
 70
     1
102
RTVSPropertyOp22
 70
     1
102
RTVSPropertyOp23
 70
     1
102
RTVSPropertyOp24
 70
     1
102
RTVSPropertyOp25
 70
     1
102
RTVSPropertyOp26
 70
     1
102
RTVSPropertyOp27
 70
     1
102
RTVSPropertyOp28
 70
     1
102
RTVSPropertyOp29
 70
     1
102
RTVSPropertyOp30
 70
     1
102
RTVSPropertyOp31
 70
     1
102
RTVSPropertyOp32
 70
     1
102
RTVSPropertyOp33
 70
     1
102
RTVSPropertyOp34
 70
     1
102
RTVSPropertyOp35
 70
     1
102
RTVSPropertyOp36
 70
     1
102
RTVSPropertyOp37
 70
     1
102
RTVSPropertyOp38
 70
     1
102
RTVSPropertyOp39
 70
     1
102
RTVSPropertyOp40
 70
     1
102
RTVSPropertyOp41
 70
     1
102
RTVSPropertyOp42
 70
     1
102
RTVSPropertyOp43
 70
     1
102
RTVSPropertyOp44
 70
     1
102
RTVSPropertyOp45
 70
     1
102
RTVSPropertyOp46
 70
     1
102
RTVSPropertyOp47
 70
     1
102
RTVSPropertyOp48
 70
     1
102
RTVSPropertyOp49
 70
     1
102
RTVSPropertyOp50
 70
     1
102
RTVSPropertyOp51
 70
     0
102
RTVSPropertyOp52
 70
     0
102
RTVSPropertyOp53
 70
     1
102
RTVSPropertyOp54
 70
     1
102
RTVSPropertyOp55
 70
     1
102
RTVSPropertyOp56
 70
     1
102
RTVSPropertyOp57
 70
     1
102
RTVSPropertyOp58
 70
     1
102
RTVSPropertyOp59
 70
     1
102
RTVSPropertyOp60
 70
     1
102
RTVSPropertyOp61
 70
     1
102
RTVSPropertyOp62
 70
     1
  0
XRECORD
  5
C0CA
102
{ACAD_REACTORS
330
C0C9
102
}
330
C0C9
100
AcDbXrecord
280
     1
102
RTVSPost2010Prop28
280
     0
102
RTVSPost2010PropOp28
 70
     1
102
RTVSPost2010Prop29
280
     1
102
RTVSPost2010PropOp29
 70
     1
102
RTVSPost2010Prop30
280
     1
102
RTVSPost2010PropOp30
 70
     1
102
RTVSPost2010Prop31
280
     0
102
RTVSPost2010PropOp31
 70
     1
102
RTVSPost2010Prop32
280
     0
102
RTVSPost2010PropOp32
 70
     1
102
RTVSPost2010Prop33
280
     0
102
RTVSPost2010PropOp33
 70
     1
102
RTVSPost2010Prop34
280
     0
102
RTVSPost2010PropOp34
 70
     1
102
RTVSPost2010Prop35
280
     0
102
RTVSPost2010PropOp35
 70
     1
102
RTVSPost2010Prop36
280
     0
102
RTVSPost2010PropOp36
 70
     1
102
RTVSPost2010Prop37
 90
       50
102
RTVSPost2010PropOp37
 70
     1
102
RTVSPost2010Prop38
140
0.0
102
RTVSPost2010PropOp38
 70
     1
102
RTVSPost2010Prop39
140
1.0
102
RTVSPost2010PropOp39
 70
     1
102
RTVSPost2010Prop40
 90
        0
102
RTVSPost2010PropOp40
 70
     1
102
RTVSPost2010Prop41ColorIndex
 90
       18
102
RTVSPost2010Prop41ColorRGB
 90
        0
102
RTVSPost2010PropOp41
 70
     1
102
RTVSPost2010Prop42
 90
       50
102
RTVSPost2010PropOp42
 70
     1
102
RTVSPost2010Prop43
 90
        3
102
RTVSPost2010PropOp43
 70
     1
102
RTVSPost2010Prop44ColorIndex
 90
        5
102
RTVSPost2010Prop44ColorRGB
 90
      255
102
RTVSPost2010PropOp44
 70
     1
102
RTVSPost2010Prop45
280
     0
102
RTVSPost2010PropOp45
 70
     1
102
RTVSPost2010Prop46
 90
       50
102
RTVSPost2010PropOp46
 70
     1
102
RTVSPost2010Prop47
 90
       50
102
RTVSPost2010PropOp47
 70
     1
102
RTVSPost2010Prop48
 90
       50
102
RTVSPost2010PropOp48
 70
     1
102
RTVSPost2010Prop49
280
     0
102
RTVSPost2010PropOp49
 70
     1
102
RTVSPost2010Prop50
 90
       50
102
RTVSPost2010PropOp50
 70
     1
102
RTVSPost2010Prop51ColorIndex
 90
      256
102
RTVSPost2010Prop51ColorRGB
 90
-16777216
102
RTVSPost2010PropOp51
 70
     0
102
RTVSPost2010Prop52
140
1.0
102
RTVSPost2010PropOp52
 70
     0
102
RTVSPost2010Prop53
 90
        2
102
RTVSPost2010PropOp53
 70
     1
102
RTVSPost2010Prop54
  1
strokes_ogs.tif
102
RTVSPost2010PropOp54
 70
     1
102
RTVSPost2010Prop55
280
     0
102
RTVSPost2010PropOp55
 70
     1
102
RTVSPost2010Prop56
140
1.0
102
RTVSPost2010PropOp56
 70
     1
102
RTVSPost2010Prop57
140
1.0
102
RTVSPost2010PropOp57
 70
     1
102
RTVSPropertyOp0
 70
     1
102
RTVSPropertyOp1
 70
     1
102
RTVSPropertyOp2
 70
     1
102
RTVSPropertyOp3
 70
     1
102
RTVSPropertyOp4
 70
     1
102
RTVSPropertyOp5
 70
     1
102
RTVSPropertyOp6
 70
     1
102
RTVSPropertyOp7
 70
     1
102
RTVSPropertyOp8
 70
     1
102
RTVSPropertyOp9
 70
     1
102
RTVSPropertyOp10
 70
     1
102
RTVSPropertyOp11
 70
     1
102
RTVSPropertyOp12
 70
     1
102
RTVSPropertyOp13
 70
     1
102
RTVSPropertyOp14
 70
     1
102
RTVSPropertyOp15
 70
     1
102
RTVSPropertyOp16
 70
     1
102
RTVSPropertyOp17
 70
     1
102
RTVSPropertyOp18
 70
     1
102
RTVSPropertyOp19
 70
     1
102
RTVSPropertyOp20
 70
     1
102
RTVSPropertyOp21
 70
     1
102
RTVSPropertyOp22
 70
     1
102
RTVSPropertyOp23
 70
     1
102
RTVSPropertyOp24
 70
     1
102
RTVSPropertyOp25
 70
     1
102
RTVSPropertyOp26
 70
     1
102
RTVSPropertyOp27
 70
     1
102
RTVSPropertyOp28
 70
     1
102
RTVSPropertyOp29
 70
     1
102
RTVSPropertyOp30
 70
     1
102
RTVSPropertyOp31
 70
     1
102
RTVSPropertyOp32
 70
     1
102
RTVSPropertyOp33
 70
     1
102
RTVSPropertyOp34
 70
     1
102
RTVSPropertyOp35
 70
     1
102
RTVSPropertyOp36
 70
     1
102
RTVSPropertyOp37
 70
     1
102
RTVSPropertyOp38
 70
     1
102
RTVSPropertyOp39
 70
     1
102
RTVSPropertyOp40
 70
     1
102
RTVSPropertyOp41
 70
     1
102
RTVSPropertyOp42
 70
     1
102
RTVSPropertyOp43
 70
     1
102
RTVSPropertyOp44
 70
     1
102
RTVSPropertyOp45
 70
     1
102
RTVSPropertyOp46
 70
     1
102
RTVSPropertyOp47
 70
     1
102
RTVSPropertyOp48
 70
     1
102
RTVSPropertyOp49
 70
     1
102
RTVSPropertyOp50
 70
     1
102
RTVSPropertyOp51
 70
     0
102
RTVSPropertyOp52
 70
     0
102
RTVSPropertyOp53
 70
     1
102
RTVSPropertyOp54
 70
     1
102
RTVSPropertyOp55
 70
     1
102
RTVSPropertyOp56
 70
     1
102
RTVSPropertyOp57
 70
     1
102
RTVSPropertyOp58
 70
     1
102
RTVSPropertyOp59
 70
     1
102
RTVSPropertyOp60
 70
     1
102
RTVSPropertyOp61
 70
     1
102
RTVSPropertyOp62
 70
     1
  0
XRECORD
  5
C0C8
102
{ACAD_REACTORS
330
C0C7
102
}
330
C0C7
100
AcDbXrecord
280
     1
102
RTVSPost2010Prop28
280
     0
102
RTVSPost2010PropOp28
 70
     1
102
RTVSPost2010Prop29
280
     1
102
RTVSPost2010PropOp29
 70
     1
102
RTVSPost2010Prop30
280
     1
102
RTVSPost2010PropOp30
 70
     1
102
RTVSPost2010Prop31
280
     0
102
RTVSPost2010PropOp31
 70
     1
102
RTVSPost2010Prop32
280
     0
102
RTVSPost2010PropOp32
 70
     1
102
RTVSPost2010Prop33
280
     0
102
RTVSPost2010PropOp33
 70
     1
102
RTVSPost2010Prop34
280
     0
102
RTVSPost2010PropOp34
 70
     1
102
RTVSPost2010Prop35
280
     0
102
RTVSPost2010PropOp35
 70
     1
102
RTVSPost2010Prop36
280
     0
102
RTVSPost2010PropOp36
 70
     1
102
RTVSPost2010Prop37
 90
       50
102
RTVSPost2010PropOp37
 70
     1
102
RTVSPost2010Prop38
140
0.0
102
RTVSPost2010PropOp38
 70
     1
102
RTVSPost2010Prop39
140
1.0
102
RTVSPost2010PropOp39
 70
     1
102
RTVSPost2010Prop40
 90
        0
102
RTVSPost2010PropOp40
 70
     1
102
RTVSPost2010Prop41ColorIndex
 90
       18
102
RTVSPost2010Prop41ColorRGB
 90
        0
102
RTVSPost2010PropOp41
 70
     1
102
RTVSPost2010Prop42
 90
       50
102
RTVSPost2010PropOp42
 70
     1
102
RTVSPost2010Prop43
 90
        3
102
RTVSPost2010PropOp43
 70
     1
102
RTVSPost2010Prop44ColorIndex
 90
        5
102
RTVSPost2010Prop44ColorRGB
 90
      255
102
RTVSPost2010PropOp44
 70
     1
102
RTVSPost2010Prop45
280
     0
102
RTVSPost2010PropOp45
 70
     1
102
RTVSPost2010Prop46
 90
       50
102
RTVSPost2010PropOp46
 70
     1
102
RTVSPost2010Prop47
 90
       50
102
RTVSPost2010PropOp47
 70
     1
102
RTVSPost2010Prop48
 90
       50
102
RTVSPost2010PropOp48
 70
     1
102
RTVSPost2010Prop49
280
     0
102
RTVSPost2010PropOp49
 70
     1
102
RTVSPost2010Prop50
 90
       50
102
RTVSPost2010PropOp50
 70
     1
102
RTVSPost2010Prop51ColorIndex
 90
      256
102
RTVSPost2010Prop51ColorRGB
 90
-16777216
102
RTVSPost2010PropOp51
 70
     0
102
RTVSPost2010Prop52
140
1.0
102
RTVSPost2010PropOp52
 70
     0
102
RTVSPost2010Prop53
 90
        2
102
RTVSPost2010PropOp53
 70
     1
102
RTVSPost2010Prop54
  1
strokes_ogs.tif
102
RTVSPost2010PropOp54
 70
     1
102
RTVSPost2010Prop55
280
     0
102
RTVSPost2010PropOp55
 70
     1
102
RTVSPost2010Prop56
140
1.0
102
RTVSPost2010PropOp56
 70
     1
102
RTVSPost2010Prop57
140
1.0
102
RTVSPost2010PropOp57
 70
     1
102
RTVSPropertyOp0
 70
     1
102
RTVSPropertyOp1
 70
     1
102
RTVSPropertyOp2
 70
     1
102
RTVSPropertyOp3
 70
     1
102
RTVSPropertyOp4
 70
     1
102
RTVSPropertyOp5
 70
     1
102
RTVSPropertyOp6
 70
     1
102
RTVSPropertyOp7
 70
     1
102
RTVSPropertyOp8
 70
     1
102
RTVSPropertyOp9
 70
     1
102
RTVSPropertyOp10
 70
     1
102
RTVSPropertyOp11
 70
     1
102
RTVSPropertyOp12
 70
     1
102
RTVSPropertyOp13
 70
     1
102
RTVSPropertyOp14
 70
     1
102
RTVSPropertyOp15
 70
     1
102
RTVSPropertyOp16
 70
     1
102
RTVSPropertyOp17
 70
     1
102
RTVSPropertyOp18
 70
     1
102
RTVSPropertyOp19
 70
     1
102
RTVSPropertyOp20
 70
     1
102
RTVSPropertyOp21
 70
     1
102
RTVSPropertyOp22
 70
     1
102
RTVSPropertyOp23
 70
     1
102
RTVSPropertyOp24
 70
     1
102
RTVSPropertyOp25
 70
     1
102
RTVSPropertyOp26
 70
     1
102
RTVSPropertyOp27
 70
     1
102
RTVSPropertyOp28
 70
     1
102
RTVSPropertyOp29
 70
     1
102
RTVSPropertyOp30
 70
     1
102
RTVSPropertyOp31
 70
     1
102
RTVSPropertyOp32
 70
     1
102
RTVSPropertyOp33
 70
     1
102
RTVSPropertyOp34
 70
     1
102
RTVSPropertyOp35
 70
     1
102
RTVSPropertyOp36
 70
     1
102
RTVSPropertyOp37
 70
     1
102
RTVSPropertyOp38
 70
     1
102
RTVSPropertyOp39
 70
     1
102
RTVSPropertyOp40
 70
     1
102
RTVSPropertyOp41
 70
     1
102
RTVSPropertyOp42
 70
     1
102
RTVSPropertyOp43
 70
     1
102
RTVSPropertyOp44
 70
     1
102
RTVSPropertyOp45
 70
     1
102
RTVSPropertyOp46
 70
     1
102
RTVSPropertyOp47
 70
     1
102
RTVSPropertyOp48
 70
     1
102
RTVSPropertyOp49
 70
     1
102
RTVSPropertyOp50
 70
     1
102
RTVSPropertyOp51
 70
     0
102
RTVSPropertyOp52
 70
     0
102
RTVSPropertyOp53
 70
     1
102
RTVSPropertyOp54
 70
     1
102
RTVSPropertyOp55
 70
     1
102
RTVSPropertyOp56
 70
     1
102
RTVSPropertyOp57
 70
     1
102
RTVSPropertyOp58
 70
     1
102
RTVSPropertyOp59
 70
     1
102
RTVSPropertyOp60
 70
     1
102
RTVSPropertyOp61
 70
     1
102
RTVSPropertyOp62
 70
     1
  0
XRECORD
  5
C0C2
102
{ACAD_REACTORS
330
C0C1
102
}
330
C0C1
100
AcDbXrecord
280
     1
102
RTVSPost2010Prop28
280
     0
102
RTVSPost2010PropOp28
 70
     1
102
RTVSPost2010Prop29
280
     1
102
RTVSPost2010PropOp29
 70
     1
102
RTVSPost2010Prop30
280
     1
102
RTVSPost2010PropOp30
 70
     1
102
RTVSPost2010Prop31
280
     0
102
RTVSPost2010PropOp31
 70
     1
102
RTVSPost2010Prop32
280
     0
102
RTVSPost2010PropOp32
 70
     1
102
RTVSPost2010Prop33
280
     0
102
RTVSPost2010PropOp33
 70
     1
102
RTVSPost2010Prop34
280
     0
102
RTVSPost2010PropOp34
 70
     1
102
RTVSPost2010Prop35
280
     0
102
RTVSPost2010PropOp35
 70
     1
102
RTVSPost2010Prop36
280
     0
102
RTVSPost2010PropOp36
 70
     1
102
RTVSPost2010Prop37
 90
       50
102
RTVSPost2010PropOp37
 70
     1
102
RTVSPost2010Prop38
140
0.0
102
RTVSPost2010PropOp38
 70
     1
102
RTVSPost2010Prop39
140
1.0
102
RTVSPost2010PropOp39
 70
     1
102
RTVSPost2010Prop40
 90
        0
102
RTVSPost2010PropOp40
 70
     1
102
RTVSPost2010Prop41ColorIndex
 90
       18
102
RTVSPost2010Prop41ColorRGB
 90
        0
102
RTVSPost2010PropOp41
 70
     1
102
RTVSPost2010Prop42
 90
       50
102
RTVSPost2010PropOp42
 70
     1
102
RTVSPost2010Prop43
 90
        3
102
RTVSPost2010PropOp43
 70
     1
102
RTVSPost2010Prop44ColorIndex
 90
        5
102
RTVSPost2010Prop44ColorRGB
 90
      255
102
RTVSPost2010PropOp44
 70
     1
102
RTVSPost2010Prop45
280
     0
102
RTVSPost2010PropOp45
 70
     1
102
RTVSPost2010Prop46
 90
       50
102
RTVSPost2010PropOp46
 70
     1
102
RTVSPost2010Prop47
 90
       50
102
RTVSPost2010PropOp47
 70
     1
102
RTVSPost2010Prop48
 90
       50
102
RTVSPost2010PropOp48
 70
     1
102
RTVSPost2010Prop49
280
     0
102
RTVSPost2010PropOp49
 70
     1
102
RTVSPost2010Prop50
 90
       50
102
RTVSPost2010PropOp50
 70
     1
102
RTVSPost2010Prop51ColorIndex
 90
      256
102
RTVSPost2010Prop51ColorRGB
 90
-16777216
102
RTVSPost2010PropOp51
 70
     0
102
RTVSPost2010Prop52
140
1.0
102
RTVSPost2010PropOp52
 70
     0
102
RTVSPost2010Prop53
 90
        2
102
RTVSPost2010PropOp53
 70
     1
102
RTVSPost2010Prop54
  1
strokes_ogs.tif
102
RTVSPost2010PropOp54
 70
     1
102
RTVSPost2010Prop55
280
     0
102
RTVSPost2010PropOp55
 70
     1
102
RTVSPost2010Prop56
140
1.0
102
RTVSPost2010PropOp56
 70
     1
102
RTVSPost2010Prop57
140
1.0
102
RTVSPost2010PropOp57
 70
     1
102
RTVSPropertyOp0
 70
     1
102
RTVSPropertyOp1
 70
     1
102
RTVSPropertyOp2
 70
     1
102
RTVSPropertyOp3
 70
     1
102
RTVSPropertyOp4
 70
     1
102
RTVSPropertyOp5
 70
     1
102
RTVSPropertyOp6
 70
     1
102
RTVSPropertyOp7
 70
     1
102
RTVSPropertyOp8
 70
     1
102
RTVSPropertyOp9
 70
     1
102
RTVSPropertyOp10
 70
     1
102
RTVSPropertyOp11
 70
     1
102
RTVSPropertyOp12
 70
     1
102
RTVSPropertyOp13
 70
     1
102
RTVSPropertyOp14
 70
     1
102
RTVSPropertyOp15
 70
     1
102
RTVSPropertyOp16
 70
     1
102
RTVSPropertyOp17
 70
     1
102
RTVSPropertyOp18
 70
     1
102
RTVSPropertyOp19
 70
     1
102
RTVSPropertyOp20
 70
     1
102
RTVSPropertyOp21
 70
     1
102
RTVSPropertyOp22
 70
     1
102
RTVSPropertyOp23
 70
     1
102
RTVSPropertyOp24
 70
     1
102
RTVSPropertyOp25
 70
     1
102
RTVSPropertyOp26
 70
     1
102
RTVSPropertyOp27
 70
     1
102
RTVSPropertyOp28
 70
     1
102
RTVSPropertyOp29
 70
     1
102
RTVSPropertyOp30
 70
     1
102
RTVSPropertyOp31
 70
     1
102
RTVSPropertyOp32
 70
     1
102
RTVSPropertyOp33
 70
     1
102
RTVSPropertyOp34
 70
     1
102
RTVSPropertyOp35
 70
     1
102
RTVSPropertyOp36
 70
     1
102
RTVSPropertyOp37
 70
     1
102
RTVSPropertyOp38
 70
     1
102
RTVSPropertyOp39
 70
     1
102
RTVSPropertyOp40
 70
     1
102
RTVSPropertyOp41
 70
     1
102
RTVSPropertyOp42
 70
     1
102
RTVSPropertyOp43
 70
     1
102
RTVSPropertyOp44
 70
     1
102
RTVSPropertyOp45
 70
     1
102
RTVSPropertyOp46
 70
     1
102
RTVSPropertyOp47
 70
     1
102
RTVSPropertyOp48
 70
     1
102
RTVSPropertyOp49
 70
     1
102
RTVSPropertyOp50
 70
     1
102
RTVSPropertyOp51
 70
     0
102
RTVSPropertyOp52
 70
     0
102
RTVSPropertyOp53
 70
     1
102
RTVSPropertyOp54
 70
     1
102
RTVSPropertyOp55
 70
     1
102
RTVSPropertyOp56
 70
     1
102
RTVSPropertyOp57
 70
     1
102
RTVSPropertyOp58
 70
     1
102
RTVSPropertyOp59
 70
     1
102
RTVSPropertyOp60
 70
     1
102
RTVSPropertyOp61
 70
     1
102
RTVSPropertyOp62
 70
     1
  0
XRECORD
  5
C0C4
102
{ACAD_REACTORS
330
C0C3
102
}
330
C0C3
100
AcDbXrecord
280
     1
102
RTVSPost2010Prop28
280
     0
102
RTVSPost2010PropOp28
 70
     1
102
RTVSPost2010Prop29
280
     1
102
RTVSPost2010PropOp29
 70
     1
102
RTVSPost2010Prop30
280
     1
102
RTVSPost2010PropOp30
 70
     1
102
RTVSPost2010Prop31
280
     0
102
RTVSPost2010PropOp31
 70
     1
102
RTVSPost2010Prop32
280
     0
102
RTVSPost2010PropOp32
 70
     1
102
RTVSPost2010Prop33
280
     0
102
RTVSPost2010PropOp33
 70
     1
102
RTVSPost2010Prop34
280
     0
102
RTVSPost2010PropOp34
 70
     1
102
RTVSPost2010Prop35
280
     0
102
RTVSPost2010PropOp35
 70
     1
102
RTVSPost2010Prop36
280
     0
102
RTVSPost2010PropOp36
 70
     1
102
RTVSPost2010Prop37
 90
       50
102
RTVSPost2010PropOp37
 70
     1
102
RTVSPost2010Prop38
140
0.0
102
RTVSPost2010PropOp38
 70
     1
102
RTVSPost2010Prop39
140
1.0
102
RTVSPost2010PropOp39
 70
     1
102
RTVSPost2010Prop40
 90
        0
102
RTVSPost2010PropOp40
 70
     1
102
RTVSPost2010Prop41ColorIndex
 90
       18
102
RTVSPost2010Prop41ColorRGB
 90
        0
102
RTVSPost2010PropOp41
 70
     1
102
RTVSPost2010Prop42
 90
       50
102
RTVSPost2010PropOp42
 70
     1
102
RTVSPost2010Prop43
 90
        3
102
RTVSPost2010PropOp43
 70
     1
102
RTVSPost2010Prop44ColorIndex
 90
        5
102
RTVSPost2010Prop44ColorRGB
 90
      255
102
RTVSPost2010PropOp44
 70
     1
102
RTVSPost2010Prop45
280
     0
102
RTVSPost2010PropOp45
 70
     1
102
RTVSPost2010Prop46
 90
       50
102
RTVSPost2010PropOp46
 70
     1
102
RTVSPost2010Prop47
 90
       50
102
RTVSPost2010PropOp47
 70
     1
102
RTVSPost2010Prop48
 90
       50
102
RTVSPost2010PropOp48
 70
     1
102
RTVSPost2010Prop49
280
     0
102
RTVSPost2010PropOp49
 70
     1
102
RTVSPost2010Prop50
 90
       50
102
RTVSPost2010PropOp50
 70
     1
102
RTVSPost2010Prop51ColorIndex
 90
      256
102
RTVSPost2010Prop51ColorRGB
 90
-16777216
102
RTVSPost2010PropOp51
 70
     0
102
RTVSPost2010Prop52
140
1.0
102
RTVSPost2010PropOp52
 70
     0
102
RTVSPost2010Prop53
 90
        2
102
RTVSPost2010PropOp53
 70
     1
102
RTVSPost2010Prop54
  1
strokes_ogs.tif
102
RTVSPost2010PropOp54
 70
     1
102
RTVSPost2010Prop55
280
     0
102
RTVSPost2010PropOp55
 70
     1
102
RTVSPost2010Prop56
140
1.0
102
RTVSPost2010PropOp56
 70
     1
102
RTVSPost2010Prop57
140
1.0
102
RTVSPost2010PropOp57
 70
     1
102
RTVSPropertyOp0
 70
     1
102
RTVSPropertyOp1
 70
     1
102
RTVSPropertyOp2
 70
     1
102
RTVSPropertyOp3
 70
     1
102
RTVSPropertyOp4
 70
     1
102
RTVSPropertyOp5
 70
     1
102
RTVSPropertyOp6
 70
     1
102
RTVSPropertyOp7
 70
     1
102
RTVSPropertyOp8
 70
     1
102
RTVSPropertyOp9
 70
     1
102
RTVSPropertyOp10
 70
     1
102
RTVSPropertyOp11
 70
     1
102
RTVSPropertyOp12
 70
     1
102
RTVSPropertyOp13
 70
     1
102
RTVSPropertyOp14
 70
     1
102
RTVSPropertyOp15
 70
     1
102
RTVSPropertyOp16
 70
     1
102
RTVSPropertyOp17
 70
     1
102
RTVSPropertyOp18
 70
     1
102
RTVSPropertyOp19
 70
     1
102
RTVSPropertyOp20
 70
     1
102
RTVSPropertyOp21
 70
     1
102
RTVSPropertyOp22
 70
     1
102
RTVSPropertyOp23
 70
     1
102
RTVSPropertyOp24
 70
     1
102
RTVSPropertyOp25
 70
     1
102
RTVSPropertyOp26
 70
     1
102
RTVSPropertyOp27
 70
     1
102
RTVSPropertyOp28
 70
     1
102
RTVSPropertyOp29
 70
     1
102
RTVSPropertyOp30
 70
     1
102
RTVSPropertyOp31
 70
     1
102
RTVSPropertyOp32
 70
     1
102
RTVSPropertyOp33
 70
     1
102
RTVSPropertyOp34
 70
     1
102
RTVSPropertyOp35
 70
     1
102
RTVSPropertyOp36
 70
     1
102
RTVSPropertyOp37
 70
     1
102
RTVSPropertyOp38
 70
     1
102
RTVSPropertyOp39
 70
     1
102
RTVSPropertyOp40
 70
     1
102
RTVSPropertyOp41
 70
     1
102
RTVSPropertyOp42
 70
     1
102
RTVSPropertyOp43
 70
     1
102
RTVSPropertyOp44
 70
     1
102
RTVSPropertyOp45
 70
     1
102
RTVSPropertyOp46
 70
     1
102
RTVSPropertyOp47
 70
     1
102
RTVSPropertyOp48
 70
     1
102
RTVSPropertyOp49
 70
     1
102
RTVSPropertyOp50
 70
     1
102
RTVSPropertyOp51
 70
     0
102
RTVSPropertyOp52
 70
     0
102
RTVSPropertyOp53
 70
     1
102
RTVSPropertyOp54
 70
     1
102
RTVSPropertyOp55
 70
     1
102
RTVSPropertyOp56
 70
     1
102
RTVSPropertyOp57
 70
     1
102
RTVSPropertyOp58
 70
     1
102
RTVSPropertyOp59
 70
     1
102
RTVSPropertyOp60
 70
     1
102
RTVSPropertyOp61
 70
     1
102
RTVSPropertyOp62
 70
     1
  0
XRECORD
  5
C0BA
102
{ACAD_REACTORS
330
C0B9
102
}
330
C0B9
100
AcDbXrecord
280
     1
102
RTVSPost2010Prop28
280
     0
102
RTVSPost2010PropOp28
 70
     1
102
RTVSPost2010Prop29
280
     1
102
RTVSPost2010PropOp29
 70
     1
102
RTVSPost2010Prop30
280
     1
102
RTVSPost2010PropOp30
 70
     1
102
RTVSPost2010Prop31
280
     0
102
RTVSPost2010PropOp31
 70
     1
102
RTVSPost2010Prop32
280
     0
102
RTVSPost2010PropOp32
 70
     1
102
RTVSPost2010Prop33
280
     0
102
RTVSPost2010PropOp33
 70
     1
102
RTVSPost2010Prop34
280
     0
102
RTVSPost2010PropOp34
 70
     1
102
RTVSPost2010Prop35
280
     0
102
RTVSPost2010PropOp35
 70
     1
102
RTVSPost2010Prop36
280
     0
102
RTVSPost2010PropOp36
 70
     1
102
RTVSPost2010Prop37
 90
       50
102
RTVSPost2010PropOp37
 70
     1
102
RTVSPost2010Prop38
140
0.0
102
RTVSPost2010PropOp38
 70
     1
102
RTVSPost2010Prop39
140
1.0
102
RTVSPost2010PropOp39
 70
     1
102
RTVSPost2010Prop40
 90
        0
102
RTVSPost2010PropOp40
 70
     1
102
RTVSPost2010Prop41ColorIndex
 90
       18
102
RTVSPost2010Prop41ColorRGB
 90
        0
102
RTVSPost2010PropOp41
 70
     1
102
RTVSPost2010Prop42
 90
       50
102
RTVSPost2010PropOp42
 70
     1
102
RTVSPost2010Prop43
 90
        3
102
RTVSPost2010PropOp43
 70
     1
102
RTVSPost2010Prop44ColorIndex
 90
        5
102
RTVSPost2010Prop44ColorRGB
 90
      255
102
RTVSPost2010PropOp44
 70
     1
102
RTVSPost2010Prop45
280
     0
102
RTVSPost2010PropOp45
 70
     1
102
RTVSPost2010Prop46
 90
       50
102
RTVSPost2010PropOp46
 70
     1
102
RTVSPost2010Prop47
 90
       50
102
RTVSPost2010PropOp47
 70
     1
102
RTVSPost2010Prop48
 90
       50
102
RTVSPost2010PropOp48
 70
     1
102
RTVSPost2010Prop49
280
     0
102
RTVSPost2010PropOp49
 70
     1
102
RTVSPost2010Prop50
 90
       50
102
RTVSPost2010PropOp50
 70
     1
102
RTVSPost2010Prop51ColorIndex
 90
      256
102
RTVSPost2010Prop51ColorRGB
 90
-16777216
102
RTVSPost2010PropOp51
 70
     0
102
RTVSPost2010Prop52
140
1.0
102
RTVSPost2010PropOp52
 70
     0
102
RTVSPost2010Prop53
 90
        2
102
RTVSPost2010PropOp53
 70
     1
102
RTVSPost2010Prop54
  1
strokes_ogs.tif
102
RTVSPost2010PropOp54
 70
     1
102
RTVSPost2010Prop55
280
     0
102
RTVSPost2010PropOp55
 70
     1
102
RTVSPost2010Prop56
140
1.0
102
RTVSPost2010PropOp56
 70
     1
102
RTVSPost2010Prop57
140
1.0
102
RTVSPost2010PropOp57
 70
     1
102
RTVSPropertyOp0
 70
     1
102
RTVSPropertyOp1
 70
     1
102
RTVSPropertyOp2
 70
     1
102
RTVSPropertyOp3
 70
     1
102
RTVSPropertyOp4
 70
     1
102
RTVSPropertyOp5
 70
     1
102
RTVSPropertyOp6
 70
     1
102
RTVSPropertyOp7
 70
     1
102
RTVSPropertyOp8
 70
     1
102
RTVSPropertyOp9
 70
     1
102
RTVSPropertyOp10
 70
     1
102
RTVSPropertyOp11
 70
     1
102
RTVSPropertyOp12
 70
     1
102
RTVSPropertyOp13
 70
     1
102
RTVSPropertyOp14
 70
     1
102
RTVSPropertyOp15
 70
     1
102
RTVSPropertyOp16
 70
     1
102
RTVSPropertyOp17
 70
     1
102
RTVSPropertyOp18
 70
     1
102
RTVSPropertyOp19
 70
     1
102
RTVSPropertyOp20
 70
     1
102
RTVSPropertyOp21
 70
     1
102
RTVSPropertyOp22
 70
     1
102
RTVSPropertyOp23
 70
     1
102
RTVSPropertyOp24
 70
     1
102
RTVSPropertyOp25
 70
     1
102
RTVSPropertyOp26
 70
     1
102
RTVSPropertyOp27
 70
     1
102
RTVSPropertyOp28
 70
     1
102
RTVSPropertyOp29
 70
     1
102
RTVSPropertyOp30
 70
     1
102
RTVSPropertyOp31
 70
     1
102
RTVSPropertyOp32
 70
     1
102
RTVSPropertyOp33
 70
     1
102
RTVSPropertyOp34
 70
     1
102
RTVSPropertyOp35
 70
     1
102
RTVSPropertyOp36
 70
     1
102
RTVSPropertyOp37
 70
     1
102
RTVSPropertyOp38
 70
     1
102
RTVSPropertyOp39
 70
     1
102
RTVSPropertyOp40
 70
     1
102
RTVSPropertyOp41
 70
     1
102
RTVSPropertyOp42
 70
     1
102
RTVSPropertyOp43
 70
     1
102
RTVSPropertyOp44
 70
     1
102
RTVSPropertyOp45
 70
     1
102
RTVSPropertyOp46
 70
     1
102
RTVSPropertyOp47
 70
     1
102
RTVSPropertyOp48
 70
     1
102
RTVSPropertyOp49
 70
     1
102
RTVSPropertyOp50
 70
     1
102
RTVSPropertyOp51
 70
     0
102
RTVSPropertyOp52
 70
     0
102
RTVSPropertyOp53
 70
     1
102
RTVSPropertyOp54
 70
     1
102
RTVSPropertyOp55
 70
     1
102
RTVSPropertyOp56
 70
     1
102
RTVSPropertyOp57
 70
     1
102
RTVSPropertyOp58
 70
     1
102
RTVSPropertyOp59
 70
     1
102
RTVSPropertyOp60
 70
     1
102
RTVSPropertyOp61
 70
     1
102
RTVSPropertyOp62
 70
     1
  0
XRECORD
  5
C0AE
102
{ACAD_REACTORS
330
C0AD
102
}
330
C0AD
100
AcDbXrecord
280
     1
102
RTVSPost2010Prop28
280
     0
102
RTVSPost2010PropOp28
 70
     1
102
RTVSPost2010Prop29
280
     1
102
RTVSPost2010PropOp29
 70
     1
102
RTVSPost2010Prop30
280
     1
102
RTVSPost2010PropOp30
 70
     1
102
RTVSPost2010Prop31
280
     0
102
RTVSPost2010PropOp31
 70
     1
102
RTVSPost2010Prop32
280
     0
102
RTVSPost2010PropOp32
 70
     1
102
RTVSPost2010Prop33
280
     0
102
RTVSPost2010PropOp33
 70
     1
102
RTVSPost2010Prop34
280
     0
102
RTVSPost2010PropOp34
 70
     1
102
RTVSPost2010Prop35
280
     0
102
RTVSPost2010PropOp35
 70
     1
102
RTVSPost2010Prop36
280
     0
102
RTVSPost2010PropOp36
 70
     1
102
RTVSPost2010Prop37
 90
       50
102
RTVSPost2010PropOp37
 70
     1
102
RTVSPost2010Prop38
140
0.0
102
RTVSPost2010PropOp38
 70
     1
102
RTVSPost2010Prop39
140
1.0
102
RTVSPost2010PropOp39
 70
     1
102
RTVSPost2010Prop40
 90
        0
102
RTVSPost2010PropOp40
 70
     1
102
RTVSPost2010Prop41ColorIndex
 90
       18
102
RTVSPost2010Prop41ColorRGB
 90
        0
102
RTVSPost2010PropOp41
 70
     1
102
RTVSPost2010Prop42
 90
       50
102
RTVSPost2010PropOp42
 70
     1
102
RTVSPost2010Prop43
 90
        3
102
RTVSPost2010PropOp43
 70
     1
102
RTVSPost2010Prop44ColorIndex
 90
        5
102
RTVSPost2010Prop44ColorRGB
 90
      255
102
RTVSPost2010PropOp44
 70
     1
102
RTVSPost2010Prop45
280
     0
102
RTVSPost2010PropOp45
 70
     1
102
RTVSPost2010Prop46
 90
       50
102
RTVSPost2010PropOp46
 70
     1
102
RTVSPost2010Prop47
 90
       50
102
RTVSPost2010PropOp47
 70
     1
102
RTVSPost2010Prop48
 90
       50
102
RTVSPost2010PropOp48
 70
     1
102
RTVSPost2010Prop49
280
     0
102
RTVSPost2010PropOp49
 70
     1
102
RTVSPost2010Prop50
 90
       50
102
RTVSPost2010PropOp50
 70
     1
102
RTVSPost2010Prop51ColorIndex
 90
      256
102
RTVSPost2010Prop51ColorRGB
 90
-16777216
102
RTVSPost2010PropOp51
 70
     0
102
RTVSPost2010Prop52
140
1.0
102
RTVSPost2010PropOp52
 70
     0
102
RTVSPost2010Prop53
 90
        2
102
RTVSPost2010PropOp53
 70
     1
102
RTVSPost2010Prop54
  1
strokes_ogs.tif
102
RTVSPost2010PropOp54
 70
     1
102
RTVSPost2010Prop55
280
     0
102
RTVSPost2010PropOp55
 70
     1
102
RTVSPost2010Prop56
140
1.0
102
RTVSPost2010PropOp56
 70
     1
102
RTVSPost2010Prop57
140
1.0
102
RTVSPost2010PropOp57
 70
     1
102
RTVSPropertyOp0
 70
     1
102
RTVSPropertyOp1
 70
     1
102
RTVSPropertyOp2
 70
     1
102
RTVSPropertyOp3
 70
     1
102
RTVSPropertyOp4
 70
     1
102
RTVSPropertyOp5
 70
     1
102
RTVSPropertyOp6
 70
     1
102
RTVSPropertyOp7
 70
     1
102
RTVSPropertyOp8
 70
     1
102
RTVSPropertyOp9
 70
     1
102
RTVSPropertyOp10
 70
     1
102
RTVSPropertyOp11
 70
     1
102
RTVSPropertyOp12
 70
     1
102
RTVSPropertyOp13
 70
     1
102
RTVSPropertyOp14
 70
     1
102
RTVSPropertyOp15
 70
     1
102
RTVSPropertyOp16
 70
     1
102
RTVSPropertyOp17
 70
     1
102
RTVSPropertyOp18
 70
     1
102
RTVSPropertyOp19
 70
     1
102
RTVSPropertyOp20
 70
     1
102
RTVSPropertyOp21
 70
     1
102
RTVSPropertyOp22
 70
     1
102
RTVSPropertyOp23
 70
     1
102
RTVSPropertyOp24
 70
     1
102
RTVSPropertyOp25
 70
     1
102
RTVSPropertyOp26
 70
     1
102
RTVSPropertyOp27
 70
     1
102
RTVSPropertyOp28
 70
     1
102
RTVSPropertyOp29
 70
     1
102
RTVSPropertyOp30
 70
     1
102
RTVSPropertyOp31
 70
     1
102
RTVSPropertyOp32
 70
     1
102
RTVSPropertyOp33
 70
     1
102
RTVSPropertyOp34
 70
     1
102
RTVSPropertyOp35
 70
     1
102
RTVSPropertyOp36
 70
     1
102
RTVSPropertyOp37
 70
     1
102
RTVSPropertyOp38
 70
     1
102
RTVSPropertyOp39
 70
     1
102
RTVSPropertyOp40
 70
     1
102
RTVSPropertyOp41
 70
     1
102
RTVSPropertyOp42
 70
     1
102
RTVSPropertyOp43
 70
     1
102
RTVSPropertyOp44
 70
     1
102
RTVSPropertyOp45
 70
     1
102
RTVSPropertyOp46
 70
     1
102
RTVSPropertyOp47
 70
     1
102
RTVSPropertyOp48
 70
     1
102
RTVSPropertyOp49
 70
     1
102
RTVSPropertyOp50
 70
     1
102
RTVSPropertyOp51
 70
     0
102
RTVSPropertyOp52
 70
     0
102
RTVSPropertyOp53
 70
     1
102
RTVSPropertyOp54
 70
     1
102
RTVSPropertyOp55
 70
     1
102
RTVSPropertyOp56
 70
     1
102
RTVSPropertyOp57
 70
     1
102
RTVSPropertyOp58
 70
     1
102
RTVSPropertyOp59
 70
     1
102
RTVSPropertyOp60
 70
     1
102
RTVSPropertyOp61
 70
     1
102
RTVSPropertyOp62
 70
     1
  0
XRECORD
  5
C0C6
102
{ACAD_REACTORS
330
C0C5
102
}
330
C0C5
100
AcDbXrecord
280
     1
102
RTVSPost2010Prop28
280
     0
102
RTVSPost2010PropOp28
 70
     1
102
RTVSPost2010Prop29
280
     1
102
RTVSPost2010PropOp29
 70
     1
102
RTVSPost2010Prop30
280
     1
102
RTVSPost2010PropOp30
 70
     1
102
RTVSPost2010Prop31
280
     0
102
RTVSPost2010PropOp31
 70
     1
102
RTVSPost2010Prop32
280
     0
102
RTVSPost2010PropOp32
 70
     1
102
RTVSPost2010Prop33
280
     0
102
RTVSPost2010PropOp33
 70
     1
102
RTVSPost2010Prop34
280
     0
102
RTVSPost2010PropOp34
 70
     1
102
RTVSPost2010Prop35
280
     0
102
RTVSPost2010PropOp35
 70
     1
102
RTVSPost2010Prop36
280
     0
102
RTVSPost2010PropOp36
 70
     1
102
RTVSPost2010Prop37
 90
       50
102
RTVSPost2010PropOp37
 70
     1
102
RTVSPost2010Prop38
140
0.0
102
RTVSPost2010PropOp38
 70
     1
102
RTVSPost2010Prop39
140
1.0
102
RTVSPost2010PropOp39
 70
     1
102
RTVSPost2010Prop40
 90
        0
102
RTVSPost2010PropOp40
 70
     1
102
RTVSPost2010Prop41ColorIndex
 90
       18
102
RTVSPost2010Prop41ColorRGB
 90
        0
102
RTVSPost2010PropOp41
 70
     1
102
RTVSPost2010Prop42
 90
       50
102
RTVSPost2010PropOp42
 70
     1
102
RTVSPost2010Prop43
 90
        3
102
RTVSPost2010PropOp43
 70
     1
102
RTVSPost2010Prop44ColorIndex
 90
        5
102
RTVSPost2010Prop44ColorRGB
 90
      255
102
RTVSPost2010PropOp44
 70
     1
102
RTVSPost2010Prop45
280
     0
102
RTVSPost2010PropOp45
 70
     1
102
RTVSPost2010Prop46
 90
       50
102
RTVSPost2010PropOp46
 70
     1
102
RTVSPost2010Prop47
 90
       50
102
RTVSPost2010PropOp47
 70
     1
102
RTVSPost2010Prop48
 90
       50
102
RTVSPost2010PropOp48
 70
     1
102
RTVSPost2010Prop49
280
     0
102
RTVSPost2010PropOp49
 70
     1
102
RTVSPost2010Prop50
 90
       50
102
RTVSPost2010PropOp50
 70
     1
102
RTVSPost2010Prop51ColorIndex
 90
      256
102
RTVSPost2010Prop51ColorRGB
 90
-16777216
102
RTVSPost2010PropOp51
 70
     0
102
RTVSPost2010Prop52
140
1.0
102
RTVSPost2010PropOp52
 70
     0
102
RTVSPost2010Prop53
 90
        2
102
RTVSPost2010PropOp53
 70
     1
102
RTVSPost2010Prop54
  1
strokes_ogs.tif
102
RTVSPost2010PropOp54
 70
     1
102
RTVSPost2010Prop55
280
     0
102
RTVSPost2010PropOp55
 70
     1
102
RTVSPost2010Prop56
140
1.0
102
RTVSPost2010PropOp56
 70
     1
102
RTVSPost2010Prop57
140
1.0
102
RTVSPost2010PropOp57
 70
     1
102
RTVSPropertyOp0
 70
     1
102
RTVSPropertyOp1
 70
     1
102
RTVSPropertyOp2
 70
     1
102
RTVSPropertyOp3
 70
     1
102
RTVSPropertyOp4
 70
     1
102
RTVSPropertyOp5
 70
     1
102
RTVSPropertyOp6
 70
     1
102
RTVSPropertyOp7
 70
     1
102
RTVSPropertyOp8
 70
     1
102
RTVSPropertyOp9
 70
     1
102
RTVSPropertyOp10
 70
     1
102
RTVSPropertyOp11
 70
     1
102
RTVSPropertyOp12
 70
     1
102
RTVSPropertyOp13
 70
     1
102
RTVSPropertyOp14
 70
     1
102
RTVSPropertyOp15
 70
     1
102
RTVSPropertyOp16
 70
     1
102
RTVSPropertyOp17
 70
     1
102
RTVSPropertyOp18
 70
     1
102
RTVSPropertyOp19
 70
     1
102
RTVSPropertyOp20
 70
     1
102
RTVSPropertyOp21
 70
     1
102
RTVSPropertyOp22
 70
     1
102
RTVSPropertyOp23
 70
     1
102
RTVSPropertyOp24
 70
     1
102
RTVSPropertyOp25
 70
     1
102
RTVSPropertyOp26
 70
     1
102
RTVSPropertyOp27
 70
     1
102
RTVSPropertyOp28
 70
     1
102
RTVSPropertyOp29
 70
     1
102
RTVSPropertyOp30
 70
     1
102
RTVSPropertyOp31
 70
     1
102
RTVSPropertyOp32
 70
     1
102
RTVSPropertyOp33
 70
     1
102
RTVSPropertyOp34
 70
     1
102
RTVSPropertyOp35
 70
     1
102
RTVSPropertyOp36
 70
     1
102
RTVSPropertyOp37
 70
     1
102
RTVSPropertyOp38
 70
     1
102
RTVSPropertyOp39
 70
     1
102
RTVSPropertyOp40
 70
     1
102
RTVSPropertyOp41
 70
     1
102
RTVSPropertyOp42
 70
     1
102
RTVSPropertyOp43
 70
     1
102
RTVSPropertyOp44
 70
     1
102
RTVSPropertyOp45
 70
     1
102
RTVSPropertyOp46
 70
     1
102
RTVSPropertyOp47
 70
     1
102
RTVSPropertyOp48
 70
     1
102
RTVSPropertyOp49
 70
     1
102
RTVSPropertyOp50
 70
     1
102
RTVSPropertyOp51
 70
     0
102
RTVSPropertyOp52
 70
     0
102
RTVSPropertyOp53
 70
     1
102
RTVSPropertyOp54
 70
     1
102
RTVSPropertyOp55
 70
     1
102
RTVSPropertyOp56
 70
     1
102
RTVSPropertyOp57
 70
     1
102
RTVSPropertyOp58
 70
     1
102
RTVSPropertyOp59
 70
     1
102
RTVSPropertyOp60
 70
     1
102
RTVSPropertyOp61
 70
     1
102
RTVSPropertyOp62
 70
     1
  0
ENDSEC
  0
EOF
