  0
SECTION
  2
HEADER
  9
$ACADVER
  1
AC1015
  9
$ACADMAINTVER
 70
    20
  9
$DWGCODEPAGE
  3
ANSI_932
  9
$INSBASE
 10
0.0
 20
0.0
 30
0.0
  9
$EXTMIN
 10
10.0
 20
9.999999999999998
 30
0.0
  9
$EXTMAX
 10
295.9504769999999
 20
276.9919049999999
 30
0.0
  9
$LIMMIN
 10
0.0
 20
0.0
  9
$LIMMAX
 10
495.0
 20
341.25
  9
$ORTHOMODE
 70
     0
  9
$REGENMODE
 70
     1
  9
$FILLMODE
 70
     1
  9
$QTEXTMODE
 70
     0
  9
$MIRRTEXT
 70
     1
  9
$LTSCALE
 40
20.0
  9
$ATTMODE
 70
     1
  9
$TEXTSIZE
 40
5.0
  9
$TRACEWID
 40
1.0
  9
$TEXTSTYLE
  7
STANDARD
  9
$CLAYER
  8
0
  9
$CELTYPE
  6
BYLAYER
  9
$CECOLOR
 62
   256
  9
$CELTSCALE
 40
1.0
  9
$DISPSILH
 70
     0
  9
$DIMSCALE
 40
1.0
  9
$DIMASZ
 40
2.5
  9
$DIMEXO
 40
1.0
  9
$DIMDLI
 40
10.0
  9
$DIMRND
 40
0.0
  9
$DIMDLE
 40
0.0
  9
$DIMEXE
 40
1.0
  9
$DIMTP
 40
0.0
  9
$DIMTM
 40
0.0
  9
$DIMTXT
 40
3.2
  9
$DIMCEN
 40
0.0
  9
$DIMTSZ
 40
0.0
  9
$DIMTOL
 70
     0
  9
$DIMLIM
 70
     0
  9
$DIMTIH
 70
     0
  9
$DIMTOH
 70
     0
  9
$DIMSE1
 70
     0
  9
$DIMSE2
 70
     0
  9
$DIMTAD
 70
     3
  9
$DIMZIN
 70
     8
  9
$DIMBLK
  1

  9
$DIMASO
 70
     1
  9
$DIMSHO
 70
     1
  9
$DIMPOST
  1

  9
$DIMAPOST
  1

  9
$DIMALT
 70
     0
  9
$DIMALTD
 70
     2
  9
$DIMALTF
 40
25.4
  9
$DIMLFAC
 40
1.0
  9
$DIMTOFL
 70
     1
  9
$DIMTVP
 40
0.0
  9
$DIMTIX
 70
     0
  9
$DIMSOXD
 70
     0
  9
$DIMSAH
 70
     1
  9
$DIMBLK1
  1

  9
$DIMBLK2
  1

  9
$DIMSTYLE
  2
STANDARD
  9
$DIMCLRD
 70
     0
  9
$DIMCLRE
 70
     0
  9
$DIMCLRT
 70
     0
  9
$DIMTFAC
 40
1.0
  9
$DIMGAP
 40
1.0
  9
$DIMJUST
 70
     0
  9
$DIMSD1
 70
     0
  9
$DIMSD2
 70
     0
  9
$DIMTOLJ
 70
     1
  9
$DIMTZIN
 70
     0
  9
$DIMALTZ
 70
     0
  9
$DIMALTTZ
 70
     0
  9
$DIMUPT
 70
     0
  9
$DIMDEC
 70
     4
  9
$DIMTDEC
 70
     4
  9
$DIMALTU
 70
     2
  9
$DIMALTTD
 70
     2
  9
$DIMTXSTY
  7
STANDARD
  9
$DIMAUNIT
 70
     0
  9
$DIMADEC
 70
     0
  9
$DIMALTRND
 40
0.0
  9
$DIMAZIN
 70
     0
  9
$DIMDSEP
 70
    46
  9
$DIMATFIT
 70
     3
  9
$DIMFRAC
 70
     0
  9
$DIMLDRBLK
  1

  9
$DIMLUNIT
 70
     2
  9
$DIMLWD
 70
    -2
  9
$DIMLWE
 70
    -2
  9
$DIMTMOVE
 70
     0
  9
$LUNITS
 70
     2
  9
$LUPREC
 70
     4
  9
$SKETCHINC
 40
1.0
  9
$FILLETRAD
 40
1.6
  9
$AUNITS
 70
     0
  9
$AUPREC
 70
     2
  9
$MENU
  1
.
  9
$ELEVATION
 40
0.0
  9
$PELEVATION
 40
0.0
  9
$THICKNESS
 40
0.0
  9
$LIMCHECK
 70
     0
  9
$CHAMFERA
 40
10.0
  9
$CHAMFERB
 40
10.0
  9
$CHAMFERC
 40
0.0
  9
$CHAMFERD
 40
0.0
  9
$SKPOLY
 70
     0
  9
$TDCREATE
 40
2451296.795743866
  9
$TDUCREATE
 40
2451296.420743866
  9
$TDUPDATE
 40
2457192.658328252
  9
$TDUUPDATE
 40
2457192.283328252
  9
$TDINDWG
 40
0.0000107176
  9
$TDUSRTIMER
 40
0.0000101157
  9
$USRTIMER
 70
     1
  9
$ANGBASE
 50
0.0
  9
$ANGDIR
 70
     0
  9
$PDMODE
 70
     0
  9
$PDSIZE
 40
0.0
  9
$PLINEWID
 40
0.0
  9
$SPLFRAME
 70
     0
  9
$SPLINETYPE
 70
     6
  9
$SPLINESEGS
 70
     8
  9
$HANDSEED
  5
C38B
  9
$SURFTAB1
 70
     6
  9
$SURFTAB2
 70
     6
  9
$SURFTYPE
 70
     6
  9
$SURFU
 70
     6
  9
$SURFV
 70
     6
  9
$UCSBASE
  2

  9
$UCSNAME
  2

  9
$UCSORG
 10
0.0
 20
0.0
 30
0.0
  9
$UCSXDIR
 10
1.0
 20
0.0
 30
0.0
  9
$UCSYDIR
 10
0.0
 20
1.0
 30
0.0
  9
$UCSORTHOREF
  2

  9
$UCSORTHOVIEW
 70
     0
  9
$UCSORGTOP
 10
0.0
 20
0.0
 30
0.0
  9
$UCSORGBOTTOM
 10
0.0
 20
0.0
 30
0.0
  9
$UCSORGLEFT
 10
0.0
 20
0.0
 30
0.0
  9
$UCSORGRIGHT
 10
0.0
 20
0.0
 30
0.0
  9
$UCSORGFRONT
 10
0.0
 20
0.0
 30
0.0
  9
$UCSORGBACK
 10
0.0
 20
0.0
 30
0.0
  9
$PUCSBASE
  2

  9
$PUCSNAME
  2

  9
$PUCSORG
 10
0.0
 20
0.0
 30
0.0
  9
$PUCSXDIR
 10
1.0
 20
0.0
 30
0.0
  9
$PUCSYDIR
 10
0.0
 20
1.0
 30
0.0
  9
$PUCSORTHOREF
  2

  9
$PUCSORTHOVIEW
 70
     0
  9
$PUCSORGTOP
 10
0.0
 20
0.0
 30
0.0
  9
$PUCSORGBOTTOM
 10
0.0
 20
0.0
 30
0.0
  9
$PUCSORGLEFT
 10
0.0
 20
0.0
 30
0.0
  9
$PUCSORGRIGHT
 10
0.0
 20
0.0
 30
0.0
  9
$PUCSORGFRONT
 10
0.0
 20
0.0
 30
0.0
  9
$PUCSORGBACK
 10
0.0
 20
0.0
 30
0.0
  9
$USERI1
 70
     0
  9
$USERI2
 70
     0
  9
$USERI3
 70
     0
  9
$USERI4
 70
     0
  9
$USERI5
 70
     0
  9
$USERR1
 40
0.0
  9
$USERR2
 40
0.0
  9
$USERR3
 40
0.0
  9
$USERR4
 40
0.0
  9
$USERR5
 40
0.0
  9
$WORLDVIEW
 70
     1
  9
$SHADEDGE
 70
     3
  9
$SHADEDIF
 70
    70
  9
$TILEMODE
 70
     1
  9
$MAXACTVP
 70
    16
  9
$PINSBASE
 10
0.0
 20
0.0
 30
0.0
  9
$PLIMCHECK
 70
     0
  9
$PEXTMIN
 10
1.000000000000000E+20
 20
1.000000000000000E+20
 30
1.000000000000000E+20
  9
$PEXTMAX
 10
-1.000000000000000E+20
 20
-1.000000000000000E+20
 30
-1.000000000000000E+20
  9
$PLIMMIN
 10
0.0
 20
0.0
  9
$PLIMMAX
 10
420.0
 20
297.0
  9
$UNITMODE
 70
     0
  9
$VISRETAIN
 70
     0
  9
$PLINEGEN
 70
     0
  9
$PSLTSCALE
 70
     0
  9
$TREEDEPTH
 70
  3020
  9
$CMLSTYLE
  2
STANDARD
  9
$CMLJUST
 70
     0
  9
$CMLSCALE
 40
1.0
  9
$PROXYGRAPHICS
 70
     1
  9
$MEASUREMENT
 70
     0
  9
$CELWEIGHT
370
    -1
  9
$ENDCAPS
280
     0
  9
$JOINSTYLE
280
     0
  9
$LWDISPLAY
290
     0
  9
$INSUNITS
 70
     0
  9
$HYPERLINKBASE
  1

  9
$STYLESHEET
  1

  9
$XEDIT
290
     1
  9
$CEPSNTYPE
380
     0
  9
$PSTYLEMODE
290
     1
  9
$FINGERPRINTGUID
  2
{59AB735D-0FF3-4471-9B66-EEBAA6B1983C}
  9
$VERSIONGUID
  2
{8559FB19-CBEB-40F0-809D-28CC17FDDF24}
  9
$EXTNAMES
290
     1
  9
$PSVPSCALE
 40
0.0
  9
$OLESTARTUP
290
     0
  0
ENDSEC
  0
SECTION
  2
CLASSES
  0
CLASS
  1
ACDBDICTIONARYWDFLT
  2
AcDbDictionaryWithDefault
  3
ObjectDBX Classes
 90
        0
280
     0
281
     0
  0
CLASS
  1
ACDBPLACEHOLDER
  2
AcDbPlaceHolder
  3
ObjectDBX Classes
 90
        0
280
     0
281
     0
  0
CLASS
  1
LAYOUT
  2
AcDbLayout
  3
ObjectDBX Classes
 90
        0
280
     0
281
     0
  0
CLASS
  1
DICTIONARYVAR
  2
AcDbDictionaryVar
  3
ObjectDBX Classes
 90
        0
280
     0
281
     0
  0
CLASS
  1
MATERIAL
  2
AcDbMaterial
  3
ObjectDBX Classes
 90
     1153
280
     0
281
     0
  0
CLASS
  1
VISUALSTYLE
  2
AcDbVisualStyle
  3
ObjectDBX Classes
 90
     4095
280
     0
281
     0
  0
CLASS
  1
TABLESTYLE
  2
AcDbTableStyle
  3
ObjectDBX Classes
 90
     4095
280
     0
281
     0
  0
CLASS
  1
SCALE
  2
AcDbScale
  3
ObjectDBX Classes
 90
     1153
280
     0
281
     0
  0
CLASS
  1
MLEADERSTYLE
  2
AcDbMLeaderStyle
  3
ACDB_MLEADERSTYLE_CLASS
 90
     4095
280
     0
281
     0
  0
CLASS
  1
ACDBSECTIONVIEWSTYLE
  2
AcDbSectionViewStyle
  3
ObjectDBX Classes
 90
     1025
280
     0
281
     0
  0
CLASS
  1
ACDBDETAILVIEWSTYLE
  2
AcDbDetailViewStyle
  3
ObjectDBX Classes
 90
     1025
280
     0
281
     0
  0
CLASS
  1
CELLSTYLEMAP
  2
AcDbCellStyleMap
  3
ObjectDBX Classes
 90
     1152
280
     0
281
     0
  0
ENDSEC
  0
SECTION
  2
TABLES
  0
TABLE
  2
VPORT
  5
C0BE
330
0
100
AcDbSymbolTable
 70
     1
  0
VPORT
  5
C2D4
330
C0BE
100
AcDbSymbolTableRecord
100
AcDbViewportTableRecord
  2
*ACTIVE
 70
     0
 10
0.0
 20
0.0
 11
1.0
 21
1.0
 12
233.8479198556636
 22
143.4962089538704
 13
0.0
 23
0.0
 14
10.0
 24
10.0
 15
10.0
 25
10.0
 16
0.0
 26
0.0
 36
1.0
 17
0.0
 27
0.0
 37
0.0
 40
270.0045696197186
 41
1.899603698811096
 42
50.0
 43
0.0
 44
0.0
 50
0.0
 51
0.0
 71
     0
 72
   100
 73
     1
 74
     0
 75
     0
 76
     0
 77
     0
 78
     0
281
     0
 65
     1
110
0.0
120
0.0
130
0.0
111
1.0
121
0.0
131
0.0
112
0.0
122
1.0
132
0.0
 79
     0
146
0.0
1001
ACAD_NAV_VCDISPLAY
1070
     3
  0
ENDTAB
  0
TABLE
  2
LTYPE
  5
C0BB
330
0
100
AcDbSymbolTable
 70
     4
  0
LTYPE
  5
C0C9
330
C0BB
100
AcDbSymbolTableRecord
100
AcDbLinetypeTableRecord
  2
BYBLOCK
 70
     0
  3

 72
    65
 73
     0
 40
0.0
  0
LTYPE
  5
C0CA
330
C0BB
100
AcDbSymbolTableRecord
100
AcDbLinetypeTableRecord
  2
BYLAYER
 70
     0
  3

 72
    65
 73
     0
 40
0.0
  0
LTYPE
  5
C0CB
330
C0BB
100
AcDbSymbolTableRecord
100
AcDbLinetypeTableRecord
  2
CONTINUOUS
 70
     0
  3
Solid line
 72
    65
 73
     0
 40
0.0
  0
LTYPE
  5
C0D9
330
C0BB
100
AcDbSymbolTableRecord
100
AcDbLinetypeTableRecord
  2
DASHED
 70
     0
  3
__ __ __ __ __ __ __ __ __ __ __ __ __ __ __ __
 72
    65
 73
     2
 40
0.75
 49
0.5
 74
     0
 49
-0.25
 74
     0
  0
LTYPE
  5
C0DA
330
C0BB
100
AcDbSymbolTableRecord
100
AcDbLinetypeTableRecord
  2
CENTER
 70
     0
  3
____ _ ____ _ ____ _ ____ _ ____ _ ____ _ ____ 
 72
    65
 73
     4
 40
2.0
 49
1.25
 74
     0
 49
-0.25
 74
     0
 49
0.25
 74
     0
 49
-0.25
 74
     0
  0
LTYPE
  5
C0DB
330
C0BB
100
AcDbSymbolTableRecord
100
AcDbLinetypeTableRecord
  2
PHANTOM
 70
     0
  3
______  __  __  ______  __  __  ______  __  __ 
 72
    65
 73
     6
 40
2.5
 49
1.25
 74
     0
 49
-0.25
 74
     0
 49
0.25
 74
     0
 49
-0.25
 74
     0
 49
0.25
 74
     0
 49
-0.25
 74
     0
  0
ENDTAB
  0
TABLE
  2
LAYER
  5
C0B8
330
0
100
AcDbSymbolTable
 70
     8
  0
LAYER
  5
C0C6
102
{ACAD_XDICTIONARY
360
C32F
102
}
330
C0B8
100
AcDbSymbolTableRecord
100
AcDbLayerTableRecord
  2
0
 70
     0
 62
     7
  6
CONTINUOUS
370
    -3
390
C2DD
  0
LAYER
  5
C0DC
102
{ACAD_XDICTIONARY
360
C331
102
}
330
C0B8
100
AcDbSymbolTableRecord
100
AcDbLayerTableRecord
  2
4
 70
     0
 62
     1
  6
CENTER
370
    -3
390
C2DD
  0
LAYER
  5
C0DD
102
{ACAD_XDICTIONARY
360
C333
102
}
330
C0B8
100
AcDbSymbolTableRecord
100
AcDbLayerTableRecord
  2
5
 70
     0
 62
     6
  6
PHANTOM
370
    -3
390
C2DD
  0
LAYER
  5
C0DE
102
{ACAD_XDICTIONARY
360
C335
102
}
330
C0B8
100
AcDbSymbolTableRecord
100
AcDbLayerTableRecord
  2
1
 70
     0
 62
     7
  6
CONTINUOUS
370
    -3
390
C2DD
  0
LAYER
  5
C0DF
102
{ACAD_XDICTIONARY
360
C337
102
}
330
C0B8
100
AcDbSymbolTableRecord
100
AcDbLayerTableRecord
  2
2
 70
     0
 62
     4
  6
CONTINUOUS
370
    -3
390
C2DD
  0
LAYER
  5
C0E0
102
{ACAD_XDICTIONARY
360
C339
102
}
330
C0B8
100
AcDbSymbolTableRecord
100
AcDbLayerTableRecord
  2
3
 70
     0
 62
     2
  6
DASHED
370
    -3
390
C2DD
  0
LAYER
  5
C0E1
102
{ACAD_XDICTIONARY
360
C33B
102
}
330
C0B8
100
AcDbSymbolTableRecord
100
AcDbLayerTableRecord
  2
6
 70
     0
 62
     5
  6
CONTINUOUS
370
    -3
390
C2DD
  0
LAYER
  5
C0E2
102
{ACAD_XDICTIONARY
360
C33D
102
}
330
C0B8
100
AcDbSymbolTableRecord
100
AcDbLayerTableRecord
  2
7
 70
     0
 62
     3
  6
CONTINUOUS
370
    -3
390
C2DD
  0
ENDTAB
  0
TABLE
  2
STYLE
  5
C0B9
330
0
100
AcDbSymbolTable
 70
     1
  0
STYLE
  5
C0C7
330
C0B9
100
AcDbSymbolTableRecord
100
AcDbTextStyleTableRecord
  2
STANDARD
 70
     0
 40
0.0
 41
1.0
 50
0.0
 71
     0
 42
5.0
  3
txt
  4

  0
ENDTAB
  0
TABLE
  2
VIEW
  5
C0BC
330
0
100
AcDbSymbolTable
 70
     0
  0
ENDTAB
  0
TABLE
  2
UCS
  5
C0BD
330
0
100
AcDbSymbolTable
 70
     0
  0
ENDTAB
  0
TABLE
  2
APPID
  5
C0BF
330
0
100
AcDbSymbolTable
 70
     3
  0
APPID
  5
C0C8
330
C0BF
100
AcDbSymbolTableRecord
100
AcDbRegAppTableRecord
  2
ACAD
 70
     0
  0
APPID
  5
C349
330
C0BF
100
AcDbSymbolTableRecord
100
AcDbRegAppTableRecord
  2
ACAD_NAV_VCDISPLAY
 70
     0
  0
APPID
  5
C382
330
C0BF
100
AcDbSymbolTableRecord
100
AcDbRegAppTableRecord
  2
ACAD_MLEADERVER
 70
     0
  0
ENDTAB
  0
TABLE
  2
DIMSTYLE
  5
C0C0
330
0
100
AcDbSymbolTable
 70
     1
100
AcDbDimStyleTable
 71
     0
  0
DIMSTYLE
105
C0E4
330
C0C0
100
AcDbSymbolTableRecord
100
AcDbDimStyleTableRecord
  2
STANDARD
 70
     0
 41
2.5
 42
1.0
 43
10.0
 44
1.0
 73
     0
 74
     0
 77
     3
 78
     8
140
3.2
141
0.0
147
1.0
172
     1
173
     1
284
     8
285
     8
286
     8
340
C0C7
  0
ENDTAB
  0
TABLE
  2
BLOCK_RECORD
  5
C0B7
330
0
100
AcDbSymbolTable
 70
     0
  0
BLOCK_RECORD
  5
C0D4
102
{ACAD_XDICTIONARY
360
C2D7
102
}
330
C0B7
100
AcDbSymbolTableRecord
100
AcDbBlockTableRecord
  2
*MODEL_SPACE
340
C32B
  0
BLOCK_RECORD
  5
C0D0
102
{ACAD_XDICTIONARY
360
C2D5
102
}
330
C0B7
100
AcDbSymbolTableRecord
100
AcDbBlockTableRecord
  2
*PAPER_SPACE
340
C32C
  0
ENDTAB
  0
ENDSEC
  0
SECTION
  2
BLOCKS
  0
BLOCK
  5
C0D5
330
C0D4
100
AcDbEntity
  8
0
100
AcDbBlockBegin
  2
*MODEL_SPACE
 70
     0
 10
0.0
 20
0.0
 30
0.0
  3
*MODEL_SPACE
  1

  0
ENDBLK
  5
C0D6
330
C0D4
100
AcDbEntity
  8
0
100
AcDbBlockEnd
  0
BLOCK
  5
C0D1
330
C0D0
100
AcDbEntity
 67
     1
  8
0
100
AcDbBlockBegin
  2
*PAPER_SPACE
 70
     0
 10
0.0
 20
0.0
 30
0.0
  3
*PAPER_SPACE
  1

  0
ENDBLK
  5
C0D2
330
C0D0
100
AcDbEntity
 67
     1
  8
0
100
AcDbBlockEnd
  0
ENDSEC
  0
SECTION
  2
ENTITIES
  0
TEXT
  5
C0EC
330
C0D4
100
AcDbEntity
  8
7
  6
Continuous
100
AcDbText
 10
10.0
 20
18.0
 30
0.0
 40
3.0
  1
TYPE No.TM-144SUS-110
100
AcDbText
  0
TEXT
  5
C0ED
330
C0D4
100
AcDbEntity
  8
7
  6
Continuous
100
AcDbText
 10
10.0
 20
26.0
 30
0.0
 40
3.0
  1
CODE No.5721
100
AcDbText
  0
TEXT
  5
C0EE
330
C0D4
100
AcDbEntity
  8
1
  6
Continuous
100
AcDbText
 10
10.0
 20
10.0
 30
0.0
 40
1.399999999999999
  1
LAYER
100
AcDbText
  0
TEXT
  5
C0EF
330
C0D4
100
AcDbEntity
  8
1
  6
Continuous
100
AcDbText
 10
17.97951099999998
 20
10.04873699999998
 30
0.0
 40
1.399999999999999
  1
1
100
AcDbText
  0
TEXT
  5
C0F0
330
C0D4
100
AcDbEntity
  8
7
  6
Continuous
100
AcDbText
 10
29.97951099999999
 20
10.04873699999998
 30
0.0
 40
1.399999999999999
  1
7
100
AcDbText
  0
TEXT
  5
C0F1
330
C0D4
100
AcDbEntity
  8
4
  6
CENTER
100
AcDbText
 10
23.97951099999999
 20
10.04873699999998
 30
0.0
 40
1.399999999999999
  1
4
100
AcDbText
  0
TEXT
  5
C0F2
330
C0D4
100
AcDbEntity
  8
3
  6
DASHED
100
AcDbText
 10
21.979511
 20
10.04873699999998
 30
0.0
 40
1.399999999999999
  1
3
100
AcDbText
  0
TEXT
  5
C0F3
330
C0D4
100
AcDbEntity
  8
2
  6
Continuous
100
AcDbText
 10
19.97951099999999
 20
10.04873699999998
 30
0.0
 40
1.399999999999999
  1
2
100
AcDbText
  0
TEXT
  5
C0F4
330
C0D4
100
AcDbEntity
  8
6
  6
Continuous
100
AcDbText
 10
27.979511
 20
10.04873699999998
 30
0.0
 40
1.399999999999999
  1
6
100
AcDbText
  0
TEXT
  5
C0F5
330
C0D4
100
AcDbEntity
  8
5
  6
PHANTOM
100
AcDbText
 10
25.97951099999999
 20
10.04873699999998
 30
0.0
 40
1.399999999999999
  1
5
100
AcDbText
  0
LINE
  5
C0F6
330
C0D4
100
AcDbEntity
  8
1
  6
Continuous
100
AcDbLine
 10
150.6002389999999
 20
205.4915049999999
 30
0.0
 11
161.600239
 21
205.4915049999999
 31
0.0
  0
LINE
  5
C0F7
330
C0D4
100
AcDbEntity
  8
1
  6
Continuous
100
AcDbLine
 10
173.3502389999999
 20
206.468005
 30
0.0
 11
173.3502389999999
 21
210.4415049999999
 31
0.0
  0
LINE
  5
C0F8
330
C0D4
100
AcDbEntity
  8
1
  6
Continuous
100
AcDbLine
 10
165.3502389999998
 20
206.741505
 30
0.0
 11
165.3502389999998
 21
215.9915049999999
 31
0.0
  0
LINE
  5
C0F9
330
C0D4
100
AcDbEntity
  8
1
  6
Continuous
100
AcDbLine
 10
146.8502389999999
 20
208.4915049999999
 30
0.0
 11
146.8502389999999
 21
215.9915049999999
 31
0.0
  0
LINE
  5
C0FA
330
C0D4
100
AcDbEntity
  8
4
  6
CENTER
100
AcDbLine
 10
156.1002389999998
 20
86.5
 30
0.0
 11
156.1002389999998
 21
220.4915049999999
 31
0.0
  0
LINE
  5
C0FB
330
C0D4
100
AcDbEntity
  8
1
  6
Continuous
100
AcDbLine
 10
148.3502389999999
 20
217.491505
 30
0.0
 11
163.850239
 21
217.491505
 31
0.0
  0
LINE
  5
C0FC
330
C0D4
100
AcDbEntity
  8
1
  6
Continuous
100
AcDbLine
 10
150.3002389999998
 20
257.4919049999999
 30
0.0
 11
161.900239
 21
257.4919049999999
 31
0.0
  0
LINE
  5
C0FD
330
C0D4
100
AcDbEntity
  8
1
  6
Continuous
100
AcDbLine
 10
150.3002389999998
 20
272.9919049999999
 30
0.0
 11
161.900239
 21
272.9919049999999
 31
0.0
  0
LINE
  5
C0FE
330
C0D4
100
AcDbEntity
  8
4
  6
CENTER
100
AcDbLine
 10
90.5
 20
265.2419049999999
 30
0.0
 11
221.7004769999999
 21
265.2419049999999
 31
0.0
  0
LINE
  5
C0FF
330
C0D4
100
AcDbEntity
  8
4
  6
CENTER
100
AcDbLine
 10
279.4504769999999
 20
86.5
 30
0.0
 11
279.4504769999999
 21
220.491543
 31
0.0
  0
LINE
  5
C100
330
C0D4
100
AcDbEntity
  8
1
  6
Continuous
100
AcDbLine
 10
165.3502389999998
 20
260.4919049999999
 30
0.0
 11
165.3502389999998
 21
269.9919049999999
 31
0.0
  0
LINE
  5
C101
330
C0D4
100
AcDbEntity
  8
4
  6
CENTER
100
AcDbLine
 10
156.1002389999998
 20
253.4919049999998
 30
0.0
 11
156.1002389999998
 21
276.9919049999999
 31
0.0
  0
LINE
  5
C102
330
C0D4
100
AcDbEntity
  8
1
  6
Continuous
100
AcDbLine
 10
146.8502389999999
 20
260.4919049999999
 30
0.0
 11
146.8502389999999
 21
269.9919049999999
 31
0.0
  0
LINE
  5
C103
330
C0D4
100
AcDbEntity
  8
1
  6
Continuous
100
AcDbLine
 10
146.829405
 20
208.4915049999999
 30
0.0
 11
150.3002389999998
 21
208.4915049999999
 31
0.0
  0
ARC
  5
C104
330
C0D4
100
AcDbEntity
  8
1
  6
Continuous
100
AcDbCircle
 10
148.3502389999999
 20
215.9915049999999
 30
0.0
 40
1.5
100
AcDbArc
 50
90.0
 51
180.0
  0
ARC
  5
C105
330
C0D4
100
AcDbEntity
  8
1
  6
Continuous
100
AcDbCircle
 10
163.850239
 20
215.9915049999999
 30
0.0
 40
1.5
100
AcDbArc
 50
0.0
 51
90.0
  0
LINE
  5
C106
330
C0D4
100
AcDbEntity
  8
1
  6
Continuous
100
AcDbLine
 10
161.900239
 20
208.4915049999999
 30
0.0
 11
165.3502389999998
 21
208.4915049999999
 31
0.0
  0
LINE
  5
C107
330
C0D4
100
AcDbEntity
  8
4
  6
CENTER
100
AcDbLine
 10
139.8502389999999
 20
211.241505
 30
0.0
 11
176.350239
 21
211.241505
 31
0.0
  0
LINE
  5
C108
330
C0D4
100
AcDbEntity
  8
1
  6
Continuous
100
AcDbLine
 10
170.3502389999998
 20
212.0415049999998
 30
0.0
 11
173.3502389999999
 21
212.0415049999998
 31
0.0
  0
LINE
  5
C109
330
C0D4
100
AcDbEntity
  8
1
  6
Continuous
100
AcDbLine
 10
170.3502389999998
 20
210.4415049999999
 30
0.0
 11
173.3502389999999
 21
210.4415049999999
 31
0.0
  0
LINE
  5
C10A
330
C0D4
100
AcDbEntity
  8
1
  6
Continuous
100
AcDbLine
 10
170.3502389999998
 20
210.4415049999999
 30
0.0
 11
170.3502389999998
 21
212.0415049999998
 31
0.0
  0
LINE
  5
C10B
330
C0D4
100
AcDbEntity
  8
1
  6
Continuous
100
AcDbLine
 10
173.3502389999999
 20
212.0415049999998
 30
0.0
 11
173.3502389999999
 21
216.0150049999999
 31
0.0
  0
LINE
  5
C10C
330
C0D4
100
AcDbEntity
  8
4
  6
CENTER
100
AcDbLine
 10
268.7004769999999
 20
211.2415429999999
 30
0.0
 11
290.2004769999999
 21
211.2415429999999
 31
0.0
  0
LINE
  5
C10D
330
C0D4
100
AcDbEntity
  8
1
  6
Continuous
100
AcDbLine
 10
274.4504769999999
 20
212.0415429999999
 30
0.0
 11
284.4504769999998
 21
212.0415429999999
 31
0.0
  0
LINE
  5
C10E
330
C0D4
100
AcDbEntity
  8
1
  6
Continuous
100
AcDbLine
 10
274.4504769999999
 20
210.441543
 30
0.0
 11
284.4504769999998
 21
210.441543
 31
0.0
  0
LINE
  5
C10F
330
C0D4
100
AcDbEntity
  8
1
  6
Continuous
100
AcDbLine
 10
285.7004769999999
 20
208.491543
 30
0.0
 11
285.7004769999999
 21
212.623231
 31
0.0
  0
LINE
  5
C110
330
C0D4
100
AcDbEntity
  8
1
  6
Continuous
100
AcDbLine
 10
273.2004769999999
 20
208.491543
 30
0.0
 11
273.2004769999999
 21
212.623231
 31
0.0
  0
LINE
  5
C111
330
C0D4
100
AcDbEntity
  8
1
  6
Continuous
100
AcDbLine
 10
272.7830539999998
 20
208.491543
 30
0.0
 11
274.552773
 21
208.491543
 31
0.0
  0
LINE
  5
C112
330
C0D4
100
AcDbEntity
  8
1
  6
Continuous
100
AcDbLine
 10
284.348181
 20
208.491543
 30
0.0
 11
286.1179
 21
208.491543
 31
0.0
  0
ARC
  5
C113
330
C0D4
100
AcDbEntity
  8
1
  6
Continuous
100
AcDbCircle
 10
273.2004769999999
 20
206.991543
 30
0.0
 40
1.5
100
AcDbArc
 50
180.0
 51
260.405932
  0
ARC
  5
C114
330
C0D4
100
AcDbEntity
  8
1
  6
Continuous
100
AcDbCircle
 10
285.7004769999999
 20
206.991543
 30
0.0
 40
1.5
100
AcDbArc
 50
279.594068
 51
0.0
  0
LINE
  5
C115
330
C0D4
100
AcDbEntity
  8
1
  6
Continuous
100
AcDbLine
 10
148.3502389999999
 20
271.4919049999999
 30
0.0
 11
149.100239
 21
271.4919049999999
 31
0.0
  0
LINE
  5
C116
330
C0D4
100
AcDbEntity
  8
1
  6
Continuous
100
AcDbLine
 10
148.3502389999999
 20
258.9919049999999
 30
0.0
 11
149.100239
 21
258.9919049999999
 31
0.0
  0
LINE
  5
C117
330
C0D4
100
AcDbEntity
  8
1
  6
Continuous
100
AcDbLine
 10
163.1002389999999
 20
271.4919049999999
 30
0.0
 11
163.850239
 21
271.4919049999999
 31
0.0
  0
LINE
  5
C118
330
C0D4
100
AcDbEntity
  8
1
  6
Continuous
100
AcDbLine
 10
163.1002389999999
 20
258.9919049999999
 30
0.0
 11
163.850239
 21
258.9919049999999
 31
0.0
  0
LINE
  5
C119
330
C0D4
100
AcDbEntity
  8
1
  6
Continuous
100
AcDbLine
 10
286.362781
 20
206.4100589999999
 30
0.0
 11
285.950477
 21
206.3915049999998
 31
0.0
  0
LINE
  5
C11A
330
C0D4
100
AcDbEntity
  8
1
  6
Continuous
100
AcDbLine
 10
272.538174
 20
206.4100589999999
 30
0.0
 11
272.9504769999999
 21
206.3915049999998
 31
0.0
  0
ARC
  5
C11B
330
C0D4
100
AcDbEntity
  8
1
  6
Continuous
100
AcDbCircle
 10
163.850239
 20
269.9919049999999
 30
0.0
 40
1.5
100
AcDbArc
 50
0.0
 51
90.0
  0
ARC
  5
C11C
330
C0D4
100
AcDbEntity
  8
1
  6
Continuous
100
AcDbCircle
 10
148.3502389999999
 20
269.9919049999999
 30
0.0
 40
1.5
100
AcDbArc
 50
90.0
 51
180.0
  0
ARC
  5
C11D
330
C0D4
100
AcDbEntity
  8
1
  6
Continuous
100
AcDbCircle
 10
148.3502389999999
 20
260.4919049999999
 30
0.0
 40
1.5
100
AcDbArc
 50
180.0
 51
270.0
  0
ARC
  5
C11E
330
C0D4
100
AcDbEntity
  8
1
  6
Continuous
100
AcDbCircle
 10
163.850239
 20
260.4919049999999
 30
0.0
 40
1.5
100
AcDbArc
 50
270.0
 51
0.0
  0
ARC
  5
C11F
330
C0D4
100
AcDbEntity
  8
1
  6
Continuous
100
AcDbCircle
 10
146.8502389999999
 20
265.2419049999999
 30
0.0
 40
3.0
100
AcDbArc
 50
90.0
 51
270.0
  0
ARC
  5
C120
330
C0D4
100
AcDbEntity
  8
1
  6
Continuous
100
AcDbCircle
 10
146.839822
 20
211.491505
 30
0.0
 40
3.000017999999998
100
AcDbArc
 50
89.80105700000001
 51
270.1989429999999
  0
LINE
  5
C121
330
C0D4
100
AcDbEntity
  8
1
  6
Continuous
100
AcDbLine
 10
161.600239
 20
205.4915049999999
 30
0.0
 11
161.900239
 21
208.4915049999999
 31
0.0
  0
LINE
  5
C122
330
C0D4
100
AcDbEntity
  8
1
  6
Continuous
100
AcDbLine
 10
150.3002389999998
 20
208.4915049999999
 30
0.0
 11
150.6002389999999
 21
205.4915049999999
 31
0.0
  0
ARC
  5
C123
330
C0D4
100
AcDbEntity
  8
1
  6
Continuous
100
AcDbCircle
 10
156.1002389999998
 20
204.384838
 30
0.0
 40
7.106666999999997
100
AcDbArc
 50
35.30024799999999
 51
144.6997519999999
  0
LINE
  5
C124
330
C0D4
100
AcDbEntity
  8
1
  6
Continuous
100
AcDbLine
 10
167.3502389999999
 20
205.9915049999999
 30
0.0
 11
167.3502389999999
 21
216.4915049999999
 31
0.0
  0
ARC
  5
C125
330
C0D4
100
AcDbEntity
  8
1
  6
Continuous
100
AcDbCircle
 10
172.3502389999999
 20
216.0150049999999
 30
0.0
 40
1.0
100
AcDbArc
 50
0.0
 51
28.45706
  0
ARC
  5
C126
330
C0D4
100
AcDbEntity
  8
1
  6
Continuous
100
AcDbCircle
 10
172.3502389999999
 20
206.468005
 30
0.0
 40
1.0
100
AcDbArc
 50
331.5429399999998
 51
0.0
  0
LINE
  5
C127
330
C0D4
100
AcDbEntity
  8
1
  6
Continuous
100
AcDbLine
 10
169.323584
 20
213.491505
 30
0.0
 11
171.5502389999998
 21
213.491505
 31
0.0
  0
LINE
  5
C128
330
C0D4
100
AcDbEntity
  8
1
  6
Continuous
100
AcDbLine
 10
169.323584
 20
208.991505
 30
0.0
 11
171.5502389999998
 21
208.991505
 31
0.0
  0
ARC
  5
C129
330
C0D4
100
AcDbEntity
  8
1
  6
Continuous
100
AcDbCircle
 10
170.436911
 20
214.891873
 30
0.0
 40
6.004484999999997
100
AcDbArc
 50
239.065273
 51
259.3146159999998
  0
ARC
  5
C12A
330
C0D4
100
AcDbEntity
  8
1
  6
Continuous
100
AcDbCircle
 10
170.436911
 20
207.591137
 30
0.0
 40
6.004484999999997
100
AcDbArc
 50
60.974955
 51
79.314616
  0
ARC
  5
C12B
330
C0D4
100
AcDbEntity
  8
1
  6
Continuous
100
AcDbCircle
 10
170.436911
 20
207.591137
 30
0.0
 40
6.004484999999997
100
AcDbArc
 50
100.6853839999999
 51
120.934727
  0
ARC
  5
C12C
330
C0D4
100
AcDbEntity
  8
1
  6
Continuous
100
AcDbCircle
 10
170.436911
 20
214.891873
 30
0.0
 40
6.004484999999997
100
AcDbArc
 50
280.685384
 51
299.0250449999999
  0
LINE
  5
C12D
330
C0D4
100
AcDbEntity
  8
1
  6
Continuous
100
AcDbLine
 10
169.323584
 20
214.7915049999999
 30
0.0
 11
171.5502389999998
 21
214.7915049999999
 31
0.0
  0
LINE
  5
C12E
330
C0D4
100
AcDbEntity
  8
1
  6
Continuous
100
AcDbLine
 10
169.323584
 20
207.691505
 30
0.0
 11
171.5502389999998
 21
207.691505
 31
0.0
  0
ARC
  5
C12F
330
C0D4
100
AcDbEntity
  8
1
  6
Continuous
100
AcDbCircle
 10
170.436911
 20
220.6918729999999
 30
0.0
 40
6.004484999999997
100
AcDbArc
 50
239.065273
 51
259.3146159999998
  0
ARC
  5
C130
330
C0D4
100
AcDbEntity
  8
1
  6
Continuous
100
AcDbCircle
 10
170.436911
 20
201.7911369999999
 30
0.0
 40
6.004484999999997
100
AcDbArc
 50
60.974955
 51
79.314616
  0
ARC
  5
C131
330
C0D4
100
AcDbEntity
  8
1
  6
Continuous
100
AcDbCircle
 10
170.436911
 20
201.7911369999999
 30
0.0
 40
6.004484999999997
100
AcDbArc
 50
100.6853839999999
 51
120.934727
  0
ARC
  5
C132
330
C0D4
100
AcDbEntity
  8
1
  6
Continuous
100
AcDbCircle
 10
170.436911
 20
220.6918729999999
 30
0.0
 40
6.004484999999997
100
AcDbArc
 50
280.685384
 51
299.0250449999999
  0
LINE
  5
C133
330
C0D4
100
AcDbEntity
  8
1
  6
Continuous
100
AcDbLine
 10
165.3502389999998
 20
215.741505
 30
0.0
 11
167.3502389999999
 21
215.741505
 31
0.0
  0
LINE
  5
C134
330
C0D4
100
AcDbEntity
  8
1
  6
Continuous
100
AcDbLine
 10
165.3502389999998
 20
206.741505
 30
0.0
 11
167.3502389999999
 21
206.741505
 31
0.0
  0
ARC
  5
C135
330
C0D4
100
AcDbEntity
  8
1
  6
Continuous
100
AcDbCircle
 10
170.2898259999998
 20
212.465698
 30
0.0
 40
7.110299
100
AcDbArc
 50
245.5797249999998
 51
254.238518
  0
ARC
  5
C136
330
C0D4
100
AcDbEntity
  8
1
  6
Continuous
100
AcDbCircle
 10
170.2898259999998
 20
210.017312
 30
0.0
 40
7.110299
100
AcDbArc
 50
65.57972499999999
 51
74.24076499999998
  0
ARC
  5
C137
330
C0D4
100
AcDbEntity
  8
1
  6
Continuous
100
AcDbCircle
 10
170.2898259999998
 20
210.017312
 30
0.0
 40
7.110299
100
AcDbArc
 50
105.7592349999999
 51
114.420275
  0
ARC
  5
C138
330
C0D4
100
AcDbEntity
  8
1
  6
Continuous
100
AcDbCircle
 10
170.2898259999998
 20
212.465698
 30
0.0
 40
7.110299
100
AcDbArc
 50
285.761482
 51
294.420275
  0
LINE
  5
C139
330
C0D4
100
AcDbEntity
  8
1
  6
Continuous
100
AcDbLine
 10
165.3502389999998
 20
269.7419049999999
 30
0.0
 11
167.3502389999999
 21
269.7419049999999
 31
0.0
  0
LINE
  5
C13A
330
C0D4
100
AcDbEntity
  8
1
  6
Continuous
100
AcDbLine
 10
165.3502389999998
 20
260.7419049999999
 30
0.0
 11
167.3502389999999
 21
260.7419049999999
 31
0.0
  0
LINE
  5
C13B
330
C0D4
100
AcDbEntity
  8
1
  6
Continuous
100
AcDbLine
 10
167.3502389999999
 20
260.2419049999999
 30
0.0
 11
167.3502389999999
 21
270.2419049999999
 31
0.0
  0
LINE
  5
C13C
330
C0D4
100
AcDbEntity
  8
1
  6
Continuous
100
AcDbLine
 10
167.3502389999999
 20
270.2419049999999
 30
0.0
 11
172.3502389999999
 21
270.2419049999999
 31
0.0
  0
LINE
  5
C13D
330
C0D4
100
AcDbEntity
  8
1
  6
Continuous
100
AcDbLine
 10
167.3502389999999
 20
260.2419049999999
 30
0.0
 11
172.3502389999999
 21
260.2419049999999
 31
0.0
  0
LINE
  5
C13E
330
C0D4
100
AcDbEntity
  8
1
  6
Continuous
100
AcDbLine
 10
173.3502389999999
 20
261.2419049999999
 30
0.0
 11
173.3502389999999
 21
269.2419049999999
 31
0.0
  0
LINE
  5
C13F
330
C0D4
100
AcDbEntity
  8
1
  6
Continuous
100
AcDbLine
 10
169.589369
 20
265.7419049999999
 30
0.0
 11
171.5502389999998
 21
265.7419049999999
 31
0.0
  0
LINE
  5
C140
330
C0D4
100
AcDbEntity
  8
1
  6
Continuous
100
AcDbLine
 10
169.589369
 20
264.7419049999999
 30
0.0
 11
171.5502389999998
 21
264.7419049999999
 31
0.0
  0
ARC
  5
C141
330
C0D4
100
AcDbEntity
  8
1
  6
Continuous
100
AcDbCircle
 10
170.569804
 20
269.626688
 30
0.0
 40
4.006592999999998
100
AcDbArc
 50
216.5279299999999
 51
255.8355779999999
  0
ARC
  5
C142
330
C0D4
100
AcDbEntity
  8
1
  6
Continuous
100
AcDbCircle
 10
170.569804
 20
260.8571219999999
 30
0.0
 40
4.006592999999998
100
AcDbArc
 50
46.05521399999997
 51
75.835578
  0
ARC
  5
C143
330
C0D4
100
AcDbEntity
  8
1
  6
Continuous
100
AcDbCircle
 10
170.569804
 20
269.626688
 30
0.0
 40
4.006592999999998
100
AcDbArc
 50
284.164422
 51
313.9447859999999
  0
ARC
  5
C144
330
C0D4
100
AcDbEntity
  8
1
  6
Continuous
100
AcDbCircle
 10
170.569804
 20
260.8571219999999
 30
0.0
 40
4.006592999999998
100
AcDbArc
 50
104.164422
 51
143.4720699999998
  0
ARC
  5
C145
330
C0D4
100
AcDbEntity
  8
1
  6
Continuous
100
AcDbCircle
 10
172.3502389999999
 20
269.2419049999999
 30
0.0
 40
1.0
100
AcDbArc
 50
0.0
 51
90.0
  0
ARC
  5
C146
330
C0D4
100
AcDbEntity
  8
1
  6
Continuous
100
AcDbCircle
 10
172.3502389999999
 20
261.2419049999999
 30
0.0
 40
1.0
100
AcDbArc
 50
270.0
 51
0.0
  0
ARC
  5
C147
330
C0D4
100
AcDbEntity
  8
1
  6
Continuous
100
AcDbCircle
 10
170.714562
 20
264.4317469999999
 30
0.0
 40
5.869947999999999
100
AcDbArc
 50
64.77410899999999
 51
81.81526300000001
  0
ARC
  5
C148
330
C0D4
100
AcDbEntity
  8
1
  6
Continuous
100
AcDbCircle
 10
170.714562
 20
266.0520629999999
 30
0.0
 40
5.869947999999999
100
AcDbArc
 50
235.030267
 51
261.815263
  0
ARC
  5
C149
330
C0D4
100
AcDbEntity
  8
1
  6
Continuous
100
AcDbCircle
 10
170.714562
 20
264.4317469999999
 30
0.0
 40
5.869947999999999
100
AcDbArc
 50
98.184737
 51
124.969733
  0
ARC
  5
C14A
330
C0D4
100
AcDbEntity
  8
1
  6
Continuous
100
AcDbCircle
 10
170.714562
 20
266.0520629999999
 30
0.0
 40
5.869947999999999
100
AcDbArc
 50
278.1847369999999
 51
295.225891
  0
ARC
  5
C14B
330
C0D4
100
AcDbEntity
  8
1
  6
Continuous
100
AcDbCircle
 10
279.4504769999999
 20
211.2415429999999
 30
0.0
 40
4.5
100
AcDbArc
 50
190.240348
 51
349.759652
  0
ARC
  5
C14C
330
C0D4
100
AcDbEntity
  8
1
  6
Continuous
100
AcDbCircle
 10
279.4504769999999
 20
211.2415429999999
 30
0.0
 40
4.5
100
AcDbArc
 50
10.24034799999999
 51
169.7596519999999
  0
LINE
  5
C14D
330
C0D4
100
AcDbEntity
  8
1
  6
Continuous
100
AcDbLine
 10
287.2004769999999
 20
206.991543
 30
0.0
 11
286.5916269999999
 21
212.1667669999999
 31
0.0
  0
LINE
  5
C14E
330
C0D4
100
AcDbEntity
  8
1
  6
Continuous
100
AcDbLine
 10
271.7004769999999
 20
206.991543
 30
0.0
 11
272.309327
 21
212.1667669999999
 31
0.0
  0
LINE
  5
C14F
330
C0D4
100
AcDbEntity
  8
1
  6
Continuous
100
AcDbLine
 10
272.538174
 20
206.4100589999999
 30
0.0
 11
272.7830539999998
 21
208.491543
 31
0.0
  0
LINE
  5
C150
330
C0D4
100
AcDbEntity
  8
1
  6
Continuous
100
AcDbLine
 10
286.362781
 20
206.4100589999999
 30
0.0
 11
286.1179
 21
208.491543
 31
0.0
  0
LINE
  5
C151
330
C0D4
100
AcDbEntity
  8
1
  6
Continuous
100
AcDbLine
 10
172.220952
 20
216.860345
 30
0.0
 11
168.3586999999999
 21
216.860345
 31
0.0
  0
LINE
  5
C152
330
C0D4
100
AcDbEntity
  8
1
  6
Continuous
100
AcDbLine
 10
172.2212199999999
 20
205.6227409999999
 30
0.0
 11
168.358432
 21
205.6227409999999
 31
0.0
  0
ARC
  5
C153
330
C0D4
100
AcDbEntity
  8
1
  6
Continuous
100
AcDbCircle
 10
279.4504769999999
 20
211.045422
 30
0.0
 40
6.446082999999998
100
AcDbArc
 50
14.168254
 51
165.831746
  0
ARC
  5
C154
330
C0D4
100
AcDbEntity
  8
1
  6
Continuous
100
AcDbCircle
 10
273.7990529999998
 20
211.9915049999999
 30
0.0
 40
1.5
100
AcDbArc
 50
102.599855
 51
173.2901629999998
  0
ARC
  5
C155
330
C0D4
100
AcDbEntity
  8
1
  6
Continuous
100
AcDbCircle
 10
285.1019019999998
 20
211.9915049999999
 30
0.0
 40
1.5
100
AcDbArc
 50
6.709836999999998
 51
77.40014499999998
  0
LINE
  5
C156
330
C0D4
100
AcDbEntity
  8
1
  6
Continuous
100
AcDbLine
 10
272.9504769999999
 20
207.636543
 30
0.0
 11
275.694521
 21
207.636543
 31
0.0
  0
LINE
  5
C157
330
C0D4
100
AcDbEntity
  8
1
  6
Continuous
100
AcDbLine
 10
285.950477
 20
96.5
 30
0.0
 11
285.950477
 21
207.636543
 31
0.0
  0
LINE
  5
C158
330
C0D4
100
AcDbEntity
  8
1
  6
Continuous
100
AcDbLine
 10
272.9504769999999
 20
96.5
 30
0.0
 11
272.9504769999999
 21
207.636543
 31
0.0
  0
LINE
  5
C159
330
C0D4
100
AcDbEntity
  8
1
  6
Continuous
100
AcDbLine
 10
283.206434
 20
207.636543
 30
0.0
 11
285.950477
 21
207.636543
 31
0.0
  0
LINE
  5
C15A
330
C0D4
100
AcDbEntity
  8
1
  6
Continuous
100
AcDbLine
 10
100.5
 20
271.7419049999999
 30
0.0
 11
149.3002389999998
 21
271.7419049999999
 31
0.0
  0
LINE
  5
C15B
330
C0D4
100
AcDbEntity
  8
1
  6
Continuous
100
AcDbLine
 10
100.5
 20
258.7419049999999
 30
0.0
 11
149.3002389999998
 21
258.7419049999999
 31
0.0
  0
LINE
  5
C15C
330
C0D4
100
AcDbEntity
  8
1
  6
Continuous
100
AcDbLine
 10
162.900239
 20
271.7419049999999
 30
0.0
 11
211.700477
 21
271.7419049999999
 31
0.0
  0
LINE
  5
C15D
330
C0D4
100
AcDbEntity
  8
1
  6
Continuous
100
AcDbLine
 10
162.900239
 20
258.7419049999999
 30
0.0
 11
211.700477
 21
258.7419049999999
 31
0.0
  0
LINE
  5
C15E
330
C0D4
100
AcDbEntity
  8
4
  6
CENTER
100
AcDbLine
 10
22.0
 20
211.2415429999999
 30
0.0
 11
43.5
 21
211.2415429999999
 31
0.0
  0
LINE
  5
C15F
330
C0D4
100
AcDbEntity
  8
4
  6
CENTER
100
AcDbLine
 10
32.75
 20
86.5
 30
0.0
 11
32.75
 21
220.491543
 31
0.0
  0
ARC
  5
C160
330
C0D4
100
AcDbEntity
  8
1
  6
Continuous
100
AcDbCircle
 10
32.75
 20
211.045422
 30
0.0
 40
6.446082999999998
100
AcDbArc
 50
14.168254
 51
165.831746
  0
LINE
  5
C161
330
C0D4
100
AcDbEntity
  8
1
  6
Continuous
100
AcDbLine
 10
39.25
 20
96.5
 30
0.0
 11
39.25
 21
207.636543
 31
0.0
  0
LINE
  5
C162
330
C0D4
100
AcDbEntity
  8
1
  6
Continuous
100
AcDbLine
 10
26.25
 20
96.5
 30
0.0
 11
26.25
 21
207.636543
 31
0.0
  0
ARC
  5
C163
330
C0D4
100
AcDbEntity
  8
1
  6
Continuous
100
AcDbCircle
 10
26.5
 20
206.991543
 30
0.0
 40
1.5
100
AcDbArc
 50
180.0
 51
260.405932
  0
LINE
  5
C164
330
C0D4
100
AcDbEntity
  8
1
  6
Continuous
100
AcDbLine
 10
25.0
 20
206.991543
 30
0.0
 11
25.60885
 21
212.1667669999999
 31
0.0
  0
ARC
  5
C165
330
C0D4
100
AcDbEntity
  8
1
  6
Continuous
100
AcDbCircle
 10
27.098576
 20
211.9915049999999
 30
0.0
 40
1.5
100
AcDbArc
 50
102.599855
 51
173.2901629999998
  0
LINE
  5
C166
330
C0D4
100
AcDbEntity
  8
1
  6
Continuous
100
AcDbLine
 10
39.0
 20
208.491543
 30
0.0
 11
39.0
 21
212.623231
 31
0.0
  0
LINE
  5
C167
330
C0D4
100
AcDbEntity
  8
1
  6
Continuous
100
AcDbLine
 10
37.68761400000001
 20
208.491543
 30
0.0
 11
39.41742299999999
 21
208.491543
 31
0.0
  0
ARC
  5
C168
330
C0D4
100
AcDbEntity
  8
1
  6
Continuous
100
AcDbCircle
 10
39.0
 20
206.991543
 30
0.0
 40
1.5
100
AcDbArc
 50
279.594068
 51
0.0
  0
LINE
  5
C169
330
C0D4
100
AcDbEntity
  8
1
  6
Continuous
100
AcDbLine
 10
39.662304
 20
206.4100589999999
 30
0.0
 11
39.25
 21
206.3915049999998
 31
0.0
  0
LINE
  5
C16A
330
C0D4
100
AcDbEntity
  8
1
  6
Continuous
100
AcDbLine
 10
40.49999999999999
 20
206.991543
 30
0.0
 11
39.89115
 21
212.1667669999999
 31
0.0
  0
LINE
  5
C16B
330
C0D4
100
AcDbEntity
  8
1
  6
Continuous
100
AcDbLine
 10
39.662304
 20
206.4100589999999
 30
0.0
 11
39.41742299999999
 21
208.491543
 31
0.0
  0
ARC
  5
C16C
330
C0D4
100
AcDbEntity
  8
1
  6
Continuous
100
AcDbCircle
 10
38.40142399999999
 20
211.9915049999999
 30
0.0
 40
1.5
100
AcDbArc
 50
6.709836999999998
 51
77.40014499999998
  0
LINE
  5
C16D
330
C0D4
100
AcDbEntity
  8
1
  6
Continuous
100
AcDbLine
 10
26.5
 20
208.491543
 30
0.0
 11
26.5
 21
212.623231
 31
0.0
  0
LINE
  5
C16E
330
C0D4
100
AcDbEntity
  8
1
  6
Continuous
100
AcDbLine
 10
25.837696
 20
206.4100589999999
 30
0.0
 11
26.25
 21
206.3915049999998
 31
0.0
  0
LINE
  5
C16F
330
C0D4
100
AcDbEntity
  8
1
  6
Continuous
100
AcDbLine
 10
25.837696
 20
206.4100589999999
 30
0.0
 11
26.082577
 21
208.491543
 31
0.0
  0
LINE
  5
C170
330
C0D4
100
AcDbEntity
  8
1
  6
Continuous
100
AcDbLine
 10
26.082577
 20
208.491543
 30
0.0
 11
27.812386
 21
208.491543
 31
0.0
  0
LINE
  5
C171
330
C0D4
100
AcDbEntity
  8
1
  6
Continuous
100
AcDbLine
 10
26.25
 20
207.636543
 30
0.0
 11
39.25
 21
207.636543
 31
0.0
  0
CIRCLE
  5
C172
330
C0D4
100
AcDbEntity
  8
1
  6
Continuous
100
AcDbCircle
 10
32.75
 20
211.491505
 30
0.0
 40
3.0
  0
LINE
  5
C173
330
C0D4
100
AcDbEntity
  8
1
  6
Continuous
100
AcDbLine
 10
29.76504099999999
 20
211.791543
 30
0.0
 11
28.74612899999998
 21
209.133597
 31
0.0
  0
LINE
  5
C174
330
C0D4
100
AcDbEntity
  8
1
  6
Continuous
100
AcDbLine
 10
35.73495900000001
 20
211.791543
 30
0.0
 11
36.753871
 21
209.133597
 31
0.0
  0
ARC
  5
C175
330
C0D4
100
AcDbEntity
  8
1
  6
Continuous
100
AcDbCircle
 10
37.68761400000001
 20
209.4915429999999
 30
0.0
 40
1.0
100
AcDbArc
 50
200.9741219999999
 51
270.0
  0
ARC
  5
C176
330
C0D4
100
AcDbEntity
  8
1
  6
Continuous
100
AcDbCircle
 10
27.812386
 20
209.4915429999999
 30
0.0
 40
1.0
100
AcDbArc
 50
270.0
 51
339.0258779999999
  0
LINE
  5
C177
330
C0D4
100
AcDbEntity
  8
4
  6
CENTER
100
AcDbLine
 10
156.1002389999998
 20
37.0
 30
0.0
 11
156.1002389999998
 21
60.5
 31
0.0
  0
LINE
  5
C178
330
C0D4
100
AcDbEntity
  8
1
  6
Continuous
100
AcDbLine
 10
100.5
 20
42.25
 30
0.0
 11
211.700477
 21
42.25
 31
0.0
  0
LINE
  5
C179
330
C0D4
100
AcDbEntity
  8
1
  6
Continuous
100
AcDbLine
 10
150.3002389999998
 20
41.0
 30
0.0
 11
161.900239
 21
41.0
 31
0.0
  0
LINE
  5
C17A
330
C0D4
100
AcDbEntity
  8
1
  6
Continuous
100
AcDbLine
 10
100.5
 20
55.25
 30
0.0
 11
211.700477
 21
55.25
 31
0.0
  0
LINE
  5
C17B
330
C0D4
100
AcDbEntity
  8
4
  6
CENTER
100
AcDbLine
 10
90.5
 20
48.75
 30
0.0
 11
221.7004769999999
 21
48.75
 31
0.0
  0
LINE
  5
C17C
330
C0D4
100
AcDbEntity
  8
1
  6
Continuous
100
AcDbLine
 10
150.3002389999998
 20
56.5
 30
0.0
 11
161.900239
 21
56.5
 31
0.0
  0
LINE
  5
C17D
330
C0D4
100
AcDbEntity
  8
1
  6
Continuous
100
AcDbLine
 10
150.468253
 20
206.811362
 30
0.0
 11
145.4380439999999
 21
203.752895
 31
0.0
  0
LINE
  5
C17E
330
C0D4
100
AcDbEntity
  8
1
  6
Continuous
100
AcDbLine
 10
150.5344479999999
 20
206.149408
 30
0.0
 11
145.749759
 21
203.2402219999999
 31
0.0
  0
LINE
  5
C17F
330
C0D4
100
AcDbEntity
  8
1
  6
Continuous
100
AcDbLine
 10
145.4380439999999
 20
203.752895
 30
0.0
 11
145.749759
 21
203.2402219999999
 31
0.0
  0
LINE
  5
C180
330
C0D4
100
AcDbEntity
  8
1
  6
Continuous
100
AcDbLine
 10
146.719726
 20
204.532183
 30
0.0
 11
147.031441
 21
204.01951
 31
0.0
  0
LINE
  5
C181
330
C0D4
100
AcDbEntity
  8
1
  6
Continuous
100
AcDbLine
 10
161.900239
 20
56.5
 30
0.0
 11
161.900239
 21
55.25
 31
0.0
  0
LINE
  5
C182
330
C0D4
100
AcDbEntity
  8
1
  6
Continuous
100
AcDbLine
 10
150.3002389999998
 20
56.5
 30
0.0
 11
150.3002389999998
 21
55.25
 31
0.0
  0
LINE
  5
C183
330
C0D4
100
AcDbEntity
  8
1
  6
Continuous
100
AcDbLine
 10
161.900239
 20
42.25
 30
0.0
 11
161.900239
 21
41.0
 31
0.0
  0
LINE
  5
C184
330
C0D4
100
AcDbEntity
  8
1
  6
Continuous
100
AcDbLine
 10
150.3002389999998
 20
42.25
 30
0.0
 11
150.3002389999998
 21
41.0
 31
0.0
  0
ARC
  5
C185
330
C0D4
100
AcDbEntity
  8
5
  6
PHANTOM
100
AcDbCircle
 10
156.313407
 20
156.1187229999999
 30
0.0
 40
51.000239
100
AcDbArc
 50
96.57796799999999
 51
53.54135400000001
  0
ARC
  5
C186
330
C0D4
100
AcDbEntity
  8
1
  6
Continuous
100
AcDbCircle
 10
156.1002389999998
 20
152.1002389999999
 30
0.0
 40
55.000239
100
AcDbArc
 50
95.87734899999999
 51
56.65745300000001
  0
LINE
  5
C187
330
C0D4
100
AcDbEntity
  8
4
  6
CENTER
100
AcDbLine
 10
16.25
 20
152.1002389999999
 30
0.0
 11
49.25
 21
152.1002389999999
 31
0.0
  0
ARC
  5
C188
330
C0D4
100
AcDbEntity
  8
5
  6
PHANTOM
100
AcDbCircle
 10
156.313407
 20
156.1187229999999
 30
0.0
 40
51.600239
100
AcDbArc
 50
96.56788099999999
 51
53.562501
  0
ARC
  5
C189
330
C0D4
100
AcDbEntity
  8
1
  6
Continuous
100
AcDbCircle
 10
156.1002389999998
 20
152.1002389999999
 30
0.0
 40
55.600239
100
AcDbArc
 50
95.87555
 51
56.69557800000001
  0
LINE
  5
C18A
330
C0D4
100
AcDbEntity
  8
1
  6
Continuous
100
AcDbLine
 10
285.950477
 20
96.5
 30
0.0
 11
272.9504769999999
 21
96.5
 31
0.0
  0
LINE
  5
C18B
330
C0D4
100
AcDbEntity
  8
1
  6
Continuous
100
AcDbLine
 10
186.9284439999999
 20
199.0905419999999
 30
0.0
 11
186.5968839999999
 21
198.585156
 31
0.0
  0
LINE
  5
C18C
330
C0D4
100
AcDbEntity
  8
5
  6
PHANTOM
100
AcDbLine
 10
202.5192209999999
 20
180.406327
 30
0.0
 11
201.9815659999999
 21
180.13963
 31
0.0
  0
LINE
  5
C18D
330
C0D4
100
AcDbEntity
  8
1
  6
Continuous
100
AcDbLine
 10
186.894679
 20
269.332805
 30
0.0
 11
185.8724819999999
 21
265.499568
 31
0.0
  0
LINE
  5
C18E
330
C0D4
100
AcDbEntity
  8
1
  6
Continuous
100
AcDbLine
 10
185.8724819999999
 20
264.984242
 30
0.0
 11
186.894679
 21
261.151005
 31
0.0
  0
ARC
  5
C18F
330
C0D4
100
AcDbEntity
  8
1
  6
Continuous
100
AcDbCircle
 10
185.9284439999999
 20
269.5904679999999
 30
0.0
 40
1.0
100
AcDbArc
 50
345.0685829999998
 51
30.96375700000001
  0
ARC
  5
C190
330
C0D4
100
AcDbEntity
  8
1
  6
Continuous
100
AcDbCircle
 10
185.9284439999999
 20
260.893342
 30
0.0
 40
1.0
100
AcDbArc
 50
329.036243
 51
14.931417
  0
ARC
  5
C191
330
C0D4
100
AcDbEntity
  8
1
  6
Continuous
100
AcDbCircle
 10
186.838717
 20
265.2419049999999
 30
0.0
 40
1.0
100
AcDbArc
 50
165.068583
 51
194.9314169999999
  0
LINE
  5
C192
330
C0D4
100
AcDbEntity
  8
1
  6
Continuous
100
AcDbLine
 10
180.8450959999999
 20
265.2419049999999
 30
0.0
 11
180.8450959999999
 21
262.391905
 31
0.0
  0
ARC
  5
C193
330
C0D4
100
AcDbEntity
  8
1
  6
Continuous
100
AcDbCircle
 10
181.1450959999999
 20
262.391905
 30
0.0
 40
0.3
100
AcDbArc
 50
180.0
 51
0.0
  0
ARC
  5
C194
330
C0D4
100
AcDbEntity
  8
1
  6
Continuous
100
AcDbCircle
 10
181.745096
 20
268.0919049999999
 30
0.0
 40
0.3
100
AcDbArc
 50
347.9819879999998
 51
180.0
  0
LINE
  5
C195
330
C0D4
100
AcDbEntity
  8
1
  6
Continuous
100
AcDbLine
 10
182.0385209999998
 20
268.029439
 30
0.0
 11
181.445096
 21
262.391905
 31
0.0
  0
LINE
  5
C196
330
C0D4
100
AcDbEntity
  8
1
  6
Continuous
100
AcDbLine
 10
181.445096
 20
268.0919049999999
 30
0.0
 11
180.8450959999999
 21
265.2419049999999
 31
0.0
  0
LINE
  5
C197
330
C0D4
100
AcDbEntity
  8
1
  6
Continuous
100
AcDbLine
 10
179.6385209999999
 20
268.029439
 30
0.0
 11
179.045096
 21
262.391905
 31
0.0
  0
LINE
  5
C198
330
C0D4
100
AcDbEntity
  8
1
  6
Continuous
100
AcDbLine
 10
178.445096
 20
265.2419049999999
 30
0.0
 11
178.445096
 21
262.391905
 31
0.0
  0
ARC
  5
C199
330
C0D4
100
AcDbEntity
  8
1
  6
Continuous
100
AcDbCircle
 10
178.7450959999999
 20
262.391905
 30
0.0
 40
0.3
100
AcDbArc
 50
180.0
 51
0.0
  0
ARC
  5
C19A
330
C0D4
100
AcDbEntity
  8
1
  6
Continuous
100
AcDbCircle
 10
179.3450959999999
 20
268.0919049999999
 30
0.0
 40
0.3
100
AcDbArc
 50
347.9819879999998
 51
180.0
  0
LINE
  5
C19B
330
C0D4
100
AcDbEntity
  8
1
  6
Continuous
100
AcDbLine
 10
179.045096
 20
268.0919049999999
 30
0.0
 11
178.445096
 21
265.2419049999999
 31
0.0
  0
LINE
  5
C19C
330
C0D4
100
AcDbEntity
  8
1
  6
Continuous
100
AcDbLine
 10
184.438521
 20
268.029439
 30
0.0
 11
183.8450959999999
 21
262.391905
 31
0.0
  0
LINE
  5
C19D
330
C0D4
100
AcDbEntity
  8
1
  6
Continuous
100
AcDbLine
 10
183.2450959999999
 20
265.2419049999999
 30
0.0
 11
183.2450959999999
 21
262.391905
 31
0.0
  0
ARC
  5
C19E
330
C0D4
100
AcDbEntity
  8
1
  6
Continuous
100
AcDbCircle
 10
183.545096
 20
262.391905
 30
0.0
 40
0.3
100
AcDbArc
 50
180.0
 51
0.0
  0
ARC
  5
C19F
330
C0D4
100
AcDbEntity
  8
1
  6
Continuous
100
AcDbCircle
 10
184.1450959999999
 20
268.0919049999999
 30
0.0
 40
0.3
100
AcDbArc
 50
347.9819879999998
 51
180.0
  0
LINE
  5
C1A0
330
C0D4
100
AcDbEntity
  8
1
  6
Continuous
100
AcDbLine
 10
183.8450959999999
 20
268.0919049999999
 30
0.0
 11
183.2450959999999
 21
265.2419049999999
 31
0.0
  0
LINE
  5
C1A1
330
C0D4
100
AcDbEntity
  8
1
  6
Continuous
100
AcDbLine
 10
139.4042699999999
 20
265.2419049999999
 30
0.0
 11
139.4042699999999
 21
262.391905
 31
0.0
  0
LINE
  5
C1A2
330
C0D4
100
AcDbEntity
  8
1
  6
Continuous
100
AcDbLine
 10
140.5976949999999
 20
268.029439
 30
0.0
 11
140.00427
 21
262.391905
 31
0.0
  0
ARC
  5
C1A3
330
C0D4
100
AcDbEntity
  8
1
  6
Continuous
100
AcDbCircle
 10
139.70427
 20
262.391905
 30
0.0
 40
0.3
100
AcDbArc
 50
180.0
 51
0.0
  0
LINE
  5
C1A4
330
C0D4
100
AcDbEntity
  8
1
  6
Continuous
100
AcDbLine
 10
140.00427
 20
268.0919049999999
 30
0.0
 11
139.4042699999999
 21
265.2419049999999
 31
0.0
  0
ARC
  5
C1A5
330
C0D4
100
AcDbEntity
  8
1
  6
Continuous
100
AcDbCircle
 10
140.30427
 20
268.0919049999999
 30
0.0
 40
0.3
100
AcDbArc
 50
347.9819879999998
 51
180.0
  0
LINE
  5
C1A6
330
C0D4
100
AcDbEntity
  8
1
  6
Continuous
100
AcDbLine
 10
141.8042699999998
 20
265.2419049999999
 30
0.0
 11
141.8042699999998
 21
262.391905
 31
0.0
  0
LINE
  5
C1A7
330
C0D4
100
AcDbEntity
  8
1
  6
Continuous
100
AcDbLine
 10
142.9976949999999
 20
268.029439
 30
0.0
 11
142.40427
 21
262.391905
 31
0.0
  0
ARC
  5
C1A8
330
C0D4
100
AcDbEntity
  8
1
  6
Continuous
100
AcDbCircle
 10
142.1042699999999
 20
262.391905
 30
0.0
 40
0.3
100
AcDbArc
 50
180.0
 51
0.0
  0
LINE
  5
C1A9
330
C0D4
100
AcDbEntity
  8
1
  6
Continuous
100
AcDbLine
 10
142.40427
 20
268.0919049999999
 30
0.0
 11
141.8042699999998
 21
265.2419049999999
 31
0.0
  0
ARC
  5
C1AA
330
C0D4
100
AcDbEntity
  8
1
  6
Continuous
100
AcDbCircle
 10
142.70427
 20
268.0919049999999
 30
0.0
 40
0.3
100
AcDbArc
 50
347.9819879999998
 51
180.0
  0
LINE
  5
C1AB
330
C0D4
100
AcDbEntity
  8
1
  6
Continuous
100
AcDbLine
 10
145.3976949999999
 20
268.029439
 30
0.0
 11
145.3795079999999
 21
267.8566609999999
 31
0.0
  0
LINE
  5
C1AC
330
C0D4
100
AcDbEntity
  8
1
  6
Continuous
100
AcDbLine
 10
144.20427
 20
263.828098
 30
0.0
 11
144.20427
 21
262.391905
 31
0.0
  0
ARC
  5
C1AD
330
C0D4
100
AcDbEntity
  8
1
  6
Continuous
100
AcDbCircle
 10
144.5042699999999
 20
262.391905
 30
0.0
 40
0.3
100
AcDbArc
 50
180.0
 51
0.0
  0
ARC
  5
C1AE
330
C0D4
100
AcDbEntity
  8
1
  6
Continuous
100
AcDbCircle
 10
145.1042699999999
 20
268.0919049999999
 30
0.0
 40
0.3
100
AcDbArc
 50
347.9819879999998
 51
180.0
  0
LINE
  5
C1AF
330
C0D4
100
AcDbEntity
  8
1
  6
Continuous
100
AcDbLine
 10
144.80427
 20
268.0919049999999
 30
0.0
 11
144.628723
 21
267.258057
 31
0.0
  0
LINE
  5
C1B0
330
C0D4
100
AcDbEntity
  8
1
  6
Continuous
100
AcDbLine
 10
144.8673
 20
262.990693
 30
0.0
 11
144.80427
 21
262.391905
 31
0.0
  0
LINE
  5
C1B1
330
C0D4
100
AcDbEntity
  8
1
  6
Continuous
100
AcDbLine
 10
138.1976949999998
 20
268.029439
 30
0.0
 11
137.6042699999999
 21
262.391905
 31
0.0
  0
LINE
  5
C1B2
330
C0D4
100
AcDbEntity
  8
1
  6
Continuous
100
AcDbLine
 10
137.6042699999999
 20
268.0919049999999
 30
0.0
 11
137.0042699999999
 21
265.2419049999999
 31
0.0
  0
ARC
  5
C1B3
330
C0D4
100
AcDbEntity
  8
1
  6
Continuous
100
AcDbCircle
 10
137.90427
 20
268.0919049999999
 30
0.0
 40
0.3
100
AcDbArc
 50
347.9819879999998
 51
180.0
  0
LINE
  5
C1B4
330
C0D4
100
AcDbEntity
  8
1
  6
Continuous
100
AcDbLine
 10
137.0042699999999
 20
265.2419049999999
 30
0.0
 11
137.0042699999999
 21
262.391905
 31
0.0
  0
ARC
  5
C1B5
330
C0D4
100
AcDbEntity
  8
1
  6
Continuous
100
AcDbCircle
 10
137.30427
 20
262.391905
 30
0.0
 40
0.3
100
AcDbArc
 50
180.0
 51
0.0
  0
LINE
  5
C1B6
330
C0D4
100
AcDbEntity
  8
1
  6
Continuous
100
AcDbLine
 10
135.797695
 20
268.029439
 30
0.0
 11
135.20427
 21
262.391905
 31
0.0
  0
ARC
  5
C1B7
330
C0D4
100
AcDbEntity
  8
1
  6
Continuous
100
AcDbCircle
 10
135.50427
 20
268.0919049999999
 30
0.0
 40
0.3
100
AcDbArc
 50
347.9819879999998
 51
180.0
  0
LINE
  5
C1B8
330
C0D4
100
AcDbEntity
  8
1
  6
Continuous
100
AcDbLine
 10
135.20427
 20
268.0919049999999
 30
0.0
 11
134.6042699999999
 21
265.2419049999999
 31
0.0
  0
LINE
  5
C1B9
330
C0D4
100
AcDbEntity
  8
1
  6
Continuous
100
AcDbLine
 10
134.6042699999999
 20
265.2419049999999
 30
0.0
 11
134.6042699999999
 21
262.391905
 31
0.0
  0
ARC
  5
C1BA
330
C0D4
100
AcDbEntity
  8
1
  6
Continuous
100
AcDbCircle
 10
134.90427
 20
262.391905
 30
0.0
 40
0.3
100
AcDbArc
 50
180.0
 51
0.0
  0
LINE
  5
C1BB
330
C0D4
100
AcDbEntity
  8
1
  6
Continuous
100
AcDbLine
 10
133.397695
 20
268.029439
 30
0.0
 11
132.80427
 21
262.391905
 31
0.0
  0
LINE
  5
C1BC
330
C0D4
100
AcDbEntity
  8
1
  6
Continuous
100
AcDbLine
 10
132.80427
 20
268.0919049999999
 30
0.0
 11
132.20427
 21
265.2419049999999
 31
0.0
  0
ARC
  5
C1BD
330
C0D4
100
AcDbEntity
  8
1
  6
Continuous
100
AcDbCircle
 10
133.1042699999999
 20
268.0919049999999
 30
0.0
 40
0.3
100
AcDbArc
 50
347.9819879999998
 51
180.0
  0
LINE
  5
C1BE
330
C0D4
100
AcDbEntity
  8
1
  6
Continuous
100
AcDbLine
 10
132.20427
 20
265.2419049999999
 30
0.0
 11
132.20427
 21
262.391905
 31
0.0
  0
ARC
  5
C1BF
330
C0D4
100
AcDbEntity
  8
1
  6
Continuous
100
AcDbCircle
 10
132.50427
 20
262.391905
 30
0.0
 40
0.3
100
AcDbArc
 50
180.0
 51
0.0
  0
LINE
  5
C1C0
330
C0D4
100
AcDbEntity
  8
1
  6
Continuous
100
AcDbLine
 10
130.997695
 20
268.029439
 30
0.0
 11
130.4042699999999
 21
262.391905
 31
0.0
  0
ARC
  5
C1C1
330
C0D4
100
AcDbEntity
  8
1
  6
Continuous
100
AcDbCircle
 10
130.70427
 20
268.0919049999999
 30
0.0
 40
0.3
100
AcDbArc
 50
347.9819879999998
 51
180.0
  0
LINE
  5
C1C2
330
C0D4
100
AcDbEntity
  8
1
  6
Continuous
100
AcDbLine
 10
130.4042699999999
 20
268.0919049999999
 30
0.0
 11
129.80427
 21
265.2419049999999
 31
0.0
  0
LINE
  5
C1C3
330
C0D4
100
AcDbEntity
  8
1
  6
Continuous
100
AcDbLine
 10
129.80427
 20
265.2419049999999
 30
0.0
 11
129.80427
 21
262.391905
 31
0.0
  0
ARC
  5
C1C4
330
C0D4
100
AcDbEntity
  8
1
  6
Continuous
100
AcDbCircle
 10
130.1042699999999
 20
262.391905
 30
0.0
 40
0.3
100
AcDbArc
 50
180.0
 51
0.0
  0
LINE
  5
C1C5
330
C0D4
100
AcDbEntity
  8
1
  6
Continuous
100
AcDbLine
 10
128.597695
 20
268.029439
 30
0.0
 11
128.0042699999999
 21
262.391905
 31
0.0
  0
LINE
  5
C1C6
330
C0D4
100
AcDbEntity
  8
1
  6
Continuous
100
AcDbLine
 10
128.0042699999999
 20
268.0919049999999
 30
0.0
 11
127.40427
 21
265.2419049999999
 31
0.0
  0
ARC
  5
C1C7
330
C0D4
100
AcDbEntity
  8
1
  6
Continuous
100
AcDbCircle
 10
128.3042699999998
 20
268.0919049999999
 30
0.0
 40
0.3
100
AcDbArc
 50
347.9819879999998
 51
180.0
  0
LINE
  5
C1C8
330
C0D4
100
AcDbEntity
  8
1
  6
Continuous
100
AcDbLine
 10
127.40427
 20
265.2419049999999
 30
0.0
 11
127.40427
 21
262.391905
 31
0.0
  0
ARC
  5
C1C9
330
C0D4
100
AcDbEntity
  8
1
  6
Continuous
100
AcDbCircle
 10
127.7042699999998
 20
262.391905
 30
0.0
 40
0.3
100
AcDbArc
 50
180.0
 51
0.0
  0
LINE
  5
C1CA
330
C0D4
100
AcDbEntity
  8
1
  6
Continuous
100
AcDbLine
 10
126.1976949999999
 20
268.029439
 30
0.0
 11
125.60427
 21
262.391905
 31
0.0
  0
ARC
  5
C1CB
330
C0D4
100
AcDbEntity
  8
1
  6
Continuous
100
AcDbCircle
 10
125.9042699999999
 20
268.0919049999999
 30
0.0
 40
0.3
100
AcDbArc
 50
347.9819879999998
 51
180.0
  0
LINE
  5
C1CC
330
C0D4
100
AcDbEntity
  8
1
  6
Continuous
100
AcDbLine
 10
125.60427
 20
268.0919049999999
 30
0.0
 11
125.0042699999999
 21
265.2419049999999
 31
0.0
  0
LINE
  5
C1CD
330
C0D4
100
AcDbEntity
  8
1
  6
Continuous
100
AcDbLine
 10
125.0042699999999
 20
265.2419049999999
 30
0.0
 11
125.0042699999999
 21
262.391905
 31
0.0
  0
ARC
  5
C1CE
330
C0D4
100
AcDbEntity
  8
1
  6
Continuous
100
AcDbCircle
 10
125.3042699999999
 20
262.391905
 30
0.0
 40
0.3
100
AcDbArc
 50
180.0
 51
0.0
  0
LINE
  5
C1CF
330
C0D4
100
AcDbEntity
  8
1
  6
Continuous
100
AcDbLine
 10
123.7976949999999
 20
268.029439
 30
0.0
 11
123.20427
 21
262.391905
 31
0.0
  0
LINE
  5
C1D0
330
C0D4
100
AcDbEntity
  8
1
  6
Continuous
100
AcDbLine
 10
123.20427
 20
268.0919049999999
 30
0.0
 11
122.60427
 21
265.2419049999999
 31
0.0
  0
ARC
  5
C1D1
330
C0D4
100
AcDbEntity
  8
1
  6
Continuous
100
AcDbCircle
 10
123.5042699999999
 20
268.0919049999999
 30
0.0
 40
0.3
100
AcDbArc
 50
347.9819879999998
 51
180.0
  0
LINE
  5
C1D2
330
C0D4
100
AcDbEntity
  8
1
  6
Continuous
100
AcDbLine
 10
122.60427
 20
265.2419049999999
 30
0.0
 11
122.60427
 21
262.391905
 31
0.0
  0
ARC
  5
C1D3
330
C0D4
100
AcDbEntity
  8
1
  6
Continuous
100
AcDbCircle
 10
122.9042699999999
 20
262.391905
 30
0.0
 40
0.3
100
AcDbArc
 50
180.0
 51
0.0
  0
LINE
  5
C1D4
330
C0D4
100
AcDbEntity
  8
1
  6
Continuous
100
AcDbLine
 10
121.3976949999999
 20
268.029439
 30
0.0
 11
120.8042699999999
 21
262.391905
 31
0.0
  0
ARC
  5
C1D5
330
C0D4
100
AcDbEntity
  8
1
  6
Continuous
100
AcDbCircle
 10
121.1042699999999
 20
268.0919049999999
 30
0.0
 40
0.3
100
AcDbArc
 50
347.9819879999998
 51
180.0
  0
LINE
  5
C1D6
330
C0D4
100
AcDbEntity
  8
1
  6
Continuous
100
AcDbLine
 10
120.8042699999999
 20
268.0919049999999
 30
0.0
 11
120.20427
 21
265.2419049999999
 31
0.0
  0
LINE
  5
C1D7
330
C0D4
100
AcDbEntity
  8
1
  6
Continuous
100
AcDbLine
 10
120.20427
 20
265.2419049999999
 30
0.0
 11
120.20427
 21
262.391905
 31
0.0
  0
ARC
  5
C1D8
330
C0D4
100
AcDbEntity
  8
1
  6
Continuous
100
AcDbCircle
 10
120.5042699999999
 20
262.391905
 30
0.0
 40
0.3
100
AcDbArc
 50
180.0
 51
0.0
  0
LINE
  5
C1D9
330
C0D4
100
AcDbEntity
  8
4
  6
CENTER
100
AcDbLine
 10
90.5
 20
152.1002389999999
 30
0.0
 11
221.7004769999999
 21
152.1002389999999
 31
0.0
  0
LINE
  5
C1DA
330
C0D4
100
AcDbEntity
  8
4
  6
CENTER
100
AcDbLine
 10
262.950477
 20
152.1002389999999
 30
0.0
 11
295.9504769999999
 21
152.1002389999999
 31
0.0
  0
LINE
  5
C1DB
330
C0D4
100
AcDbEntity
  8
1
  6
Continuous
100
AcDbLine
 10
39.25
 20
96.5
 30
0.0
 11
26.25
 21
96.5
 31
0.0
  0
LINE
  5
C1DC
330
C0D4
100
AcDbEntity
  8
1
  6
Continuous
100
AcDbLine
 10
186.7859369999999
 20
270.1049639999999
 30
0.0
 11
185.6636049999999
 21
271.7419049999999
 31
0.0
  0
LINE
  5
C1DD
330
C0D4
100
AcDbEntity
  8
1
  6
Continuous
100
AcDbLine
 10
186.7859369999999
 20
260.378846
 30
0.0
 11
185.6636049999999
 21
258.7419049999999
 31
0.0
  0
LINE
  5
C1DE
330
C0D4
100
AcDbEntity
  8
1
  6
Continuous
100
AcDbLine
 10
275.2209299999999
 20
199.1066909999999
 30
0.0
 11
279.432118
 21
199.876696
 31
0.0
  0
LINE
  5
C1DF
330
C0D4
100
AcDbEntity
  8
1
  6
Continuous
100
AcDbLine
 10
279.432118
 20
199.876696
 30
0.0
 11
283.643305
 21
199.1066909999999
 31
0.0
  0
LINE
  5
C1E0
330
C0D4
100
AcDbEntity
  8
1
  6
Continuous
100
AcDbLine
 10
275.215303
 20
198.6029229999998
 30
0.0
 11
279.432118
 21
199.3581009999998
 31
0.0
  0
LINE
  5
C1E1
330
C0D4
100
AcDbEntity
  8
1
  6
Continuous
100
AcDbLine
 10
279.432118
 20
199.3581009999998
 30
0.0
 11
283.648932
 21
198.6029229999998
 31
0.0
  0
ARC
  5
C1E2
330
C0D4
100
AcDbEntity
  8
1
  6
Continuous
100
AcDbCircle
 10
275.03902
 20
199.5872629999998
 30
0.0
 40
1.0
100
AcDbArc
 50
248.053217
 51
280.153308
  0
ARC
  5
C1E3
330
C0D4
100
AcDbEntity
  8
1
  6
Continuous
100
AcDbCircle
 10
283.825215
 20
199.5872629999998
 30
0.0
 40
1.0
100
AcDbArc
 50
259.846692
 51
291.9467829999998
  0
ARC
  5
C1E4
330
C0D4
100
AcDbEntity
  8
1
  6
Continuous
100
AcDbCircle
 10
283.823171
 20
200.0903819999999
 30
0.0
 40
1.0
100
AcDbArc
 50
259.6380799999999
 51
292.3625939999999
  0
ARC
  5
C1E5
330
C0D4
100
AcDbEntity
  8
1
  6
Continuous
100
AcDbCircle
 10
275.041064
 20
200.0903819999999
 30
0.0
 40
1.0
100
AcDbArc
 50
247.6374059999999
 51
280.3619199999999
  0
LINE
  5
C1E6
330
C0D4
100
AcDbEntity
  8
1
  6
Continuous
100
AcDbLine
 10
274.660598
 20
199.1655869999999
 30
0.0
 11
272.9504769999999
 21
199.9133549999999
 31
0.0
  0
LINE
  5
C1E7
330
C0D4
100
AcDbEntity
  8
1
  6
Continuous
100
AcDbLine
 10
274.6652749999999
 20
198.6597319999999
 30
0.0
 11
272.9504769999999
 21
199.39476
 31
0.0
  0
LINE
  5
C1E8
330
C0D4
100
AcDbEntity
  8
1
  6
Continuous
100
AcDbLine
 10
284.203638
 20
199.1655869999999
 30
0.0
 11
285.950477
 21
199.9133549999999
 31
0.0
  0
LINE
  5
C1E9
330
C0D4
100
AcDbEntity
  8
1
  6
Continuous
100
AcDbLine
 10
284.19896
 20
198.6597319999999
 30
0.0
 11
285.950477
 21
199.39476
 31
0.0
  0
LINE
  5
C1EA
330
C0D4
100
AcDbEntity
  8
1
  6
Continuous
100
AcDbLine
 10
279.4504769999999
 20
201.3104139999998
 30
0.0
 11
276.4697269999999
 21
201.3104139999998
 31
0.0
  0
LINE
  5
C1EB
330
C0D4
100
AcDbEntity
  8
1
  6
Continuous
100
AcDbLine
 10
279.4504769999999
 20
202.559877
 30
0.0
 11
276.451227
 21
202.559877
 31
0.0
  0
LINE
  5
C1EC
330
C0D4
100
AcDbEntity
  8
1
  6
Continuous
100
AcDbLine
 10
279.4504769999999
 20
203.667562
 30
0.0
 11
276.433977
 21
203.667562
 31
0.0
  0
LINE
  5
C1ED
330
C0D4
100
AcDbEntity
  8
1
  6
Continuous
100
AcDbLine
 10
279.4504769999999
 20
204.6424369999999
 30
0.0
 11
276.417727
 21
204.6424369999999
 31
0.0
  0
LINE
  5
C1EE
330
C0D4
100
AcDbEntity
  8
1
  6
Continuous
100
AcDbLine
 10
278.1454599999999
 20
206.2214919999999
 30
0.0
 11
276.387477
 21
206.2214919999999
 31
0.0
  0
LINE
  5
C1EF
330
C0D4
100
AcDbEntity
  8
1
  6
Continuous
100
AcDbLine
 10
277.244772
 20
206.741505
 30
0.0
 11
276.359977
 21
206.741505
 31
0.0
  0
LINE
  5
C1F0
330
C0D4
100
AcDbEntity
  8
1
  6
Continuous
100
AcDbLine
 10
276.4022269999999
 20
205.491777
 30
0.0
 11
279.4504769999999
 21
205.491777
 31
0.0
  0
ARC
  5
C1F1
330
C0D4
100
AcDbEntity
  8
1
  6
Continuous
100
AcDbCircle
 10
276.4697269999999
 20
201.1411639999999
 30
0.0
 40
0.16925
100
AcDbArc
 50
90.0
 51
270.0
  0
ARC
  5
C1F2
330
C0D4
100
AcDbEntity
  8
1
  6
Continuous
100
AcDbCircle
 10
282.4312269999999
 20
200.802232
 30
0.0
 40
0.16925
100
AcDbArc
 50
270.0
 51
90.0
  0
LINE
  5
C1F3
330
C0D4
100
AcDbEntity
  8
1
  6
Continuous
100
AcDbLine
 10
282.4312269999999
 20
200.6329819999999
 30
0.0
 11
276.4697269999999
 21
200.971914
 31
0.0
  0
LINE
  5
C1F4
330
C0D4
100
AcDbEntity
  8
1
  6
Continuous
100
AcDbLine
 10
282.4312269999999
 20
200.971482
 30
0.0
 11
279.4504769999999
 21
201.3104139999998
 31
0.0
  0
ARC
  5
C1F5
330
C0D4
100
AcDbEntity
  8
1
  6
Continuous
100
AcDbCircle
 10
282.449727
 20
202.107677
 30
0.0
 40
0.15075
100
AcDbArc
 50
264.2461309999998
 51
90.0
  0
ARC
  5
C1F6
330
C0D4
100
AcDbEntity
  8
1
  6
Continuous
100
AcDbCircle
 10
276.451227
 20
202.4091269999999
 30
0.0
 40
0.15075
100
AcDbArc
 50
90.0
 51
270.0
  0
LINE
  5
C1F7
330
C0D4
100
AcDbEntity
  8
1
  6
Continuous
100
AcDbLine
 10
282.434614
 20
201.9576869999999
 30
0.0
 11
276.451227
 21
202.2583769999999
 31
0.0
  0
LINE
  5
C1F8
330
C0D4
100
AcDbEntity
  8
1
  6
Continuous
100
AcDbLine
 10
282.449727
 20
202.258427
 30
0.0
 11
279.4504769999999
 21
202.559877
 31
0.0
  0
ARC
  5
C1F9
330
C0D4
100
AcDbEntity
  8
1
  6
Continuous
100
AcDbCircle
 10
282.4669769999998
 20
203.26737
 30
0.0
 40
0.1335
100
AcDbArc
 50
264.937719
 51
90.0
  0
ARC
  5
C1FA
330
C0D4
100
AcDbEntity
  8
1
  6
Continuous
100
AcDbCircle
 10
276.433977
 20
203.5340619999999
 30
0.0
 40
0.1335
100
AcDbArc
 50
90.0
 51
270.0
  0
LINE
  5
C1FB
330
C0D4
100
AcDbEntity
  8
1
  6
Continuous
100
AcDbLine
 10
276.433977
 20
203.400562
 30
0.0
 11
282.4551979999998
 21
203.1343909999999
 31
0.0
  0
LINE
  5
C1FC
330
C0D4
100
AcDbEntity
  8
1
  6
Continuous
100
AcDbLine
 10
282.4669769999998
 20
203.40087
 30
0.0
 11
279.4504769999999
 21
203.667562
 31
0.0
  0
ARC
  5
C1FD
330
C0D4
100
AcDbEntity
  8
1
  6
Continuous
100
AcDbCircle
 10
282.4832269999999
 20
204.2910299999999
 30
0.0
 40
0.11725
100
AcDbArc
 50
265.5784279999999
 51
90.0
  0
ARC
  5
C1FE
330
C0D4
100
AcDbEntity
  8
1
  6
Continuous
100
AcDbCircle
 10
276.417727
 20
204.5251869999999
 30
0.0
 40
0.11725
100
AcDbArc
 50
90.0
 51
270.0
  0
LINE
  5
C1FF
330
C0D4
100
AcDbEntity
  8
1
  6
Continuous
100
AcDbLine
 10
276.417727
 20
204.4079369999999
 30
0.0
 11
282.4741879999999
 21
204.174129
 31
0.0
  0
LINE
  5
C200
330
C0D4
100
AcDbEntity
  8
1
  6
Continuous
100
AcDbLine
 10
282.4832269999999
 20
204.4082799999999
 30
0.0
 11
279.4504769999999
 21
204.6424369999999
 31
0.0
  0
ARC
  5
C201
330
C0D4
100
AcDbEntity
  8
1
  6
Continuous
100
AcDbCircle
 10
282.4987269999999
 20
205.1864759999999
 30
0.0
 40
0.10175
100
AcDbArc
 50
266.1754279999998
 51
90.0
  0
ARC
  5
C202
330
C0D4
100
AcDbEntity
  8
1
  6
Continuous
100
AcDbCircle
 10
276.4022269999999
 20
205.390027
 30
0.0
 40
0.10175
100
AcDbArc
 50
90.0
 51
270.0
  0
LINE
  5
C203
330
C0D4
100
AcDbEntity
  8
1
  6
Continuous
100
AcDbLine
 10
276.4022269999999
 20
205.288277
 30
0.0
 11
282.49194
 21
205.084953
 31
0.0
  0
LINE
  5
C204
330
C0D4
100
AcDbEntity
  8
1
  6
Continuous
100
AcDbLine
 10
282.4987269999999
 20
205.288226
 30
0.0
 11
279.4504769999999
 21
205.491777
 31
0.0
  0
ARC
  5
C205
330
C0D4
100
AcDbEntity
  8
1
  6
Continuous
100
AcDbCircle
 10
282.513477
 20
205.960263
 30
0.0
 40
0.087
100
AcDbArc
 50
270.0
 51
90.0
  0
ARC
  5
C206
330
C0D4
100
AcDbEntity
  8
1
  6
Continuous
100
AcDbCircle
 10
276.387477
 20
206.1344919999999
 30
0.0
 40
0.087
100
AcDbArc
 50
90.0
 51
270.0
  0
LINE
  5
C207
330
C0D4
100
AcDbEntity
  8
1
  6
Continuous
100
AcDbLine
 10
276.387477
 20
206.0474919999998
 30
0.0
 11
278.55354
 21
205.9858869999999
 31
0.0
  0
LINE
  5
C208
330
C0D4
100
AcDbEntity
  8
1
  6
Continuous
100
AcDbLine
 10
282.513477
 20
206.047263
 30
0.0
 11
280.6384519999999
 21
206.153918
 31
0.0
  0
ARC
  5
C209
330
C0D4
100
AcDbEntity
  8
1
  6
Continuous
100
AcDbCircle
 10
276.359977
 20
206.682005
 30
0.0
 40
0.0595
100
AcDbArc
 50
90.0
 51
270.0
  0
ARC
  5
C20A
330
C0D4
100
AcDbEntity
  8
1
  6
Continuous
100
AcDbCircle
 10
282.5409769999998
 20
206.5633309999999
 30
0.0
 40
0.0595
100
AcDbArc
 50
270.0
 51
90.0
  0
LINE
  5
C20B
330
C0D4
100
AcDbEntity
  8
1
  6
Continuous
100
AcDbLine
 10
276.359977
 20
206.6225049999999
 30
0.0
 11
277.4884119999999
 21
206.6008389999999
 31
0.0
  0
LINE
  5
C20C
330
C0D4
100
AcDbEntity
  8
1
  6
Continuous
100
AcDbLine
 10
282.5409769999998
 20
206.622831
 30
0.0
 11
281.5186299999999
 21
206.6620889999999
 31
0.0
  0
ARC
  5
C20D
330
C0D4
100
AcDbEntity
  8
1
  6
Continuous
100
AcDbCircle
 10
276.3609769999998
 20
207.249781
 30
0.0
 40
0.0605
100
AcDbArc
 50
148.3732949999998
 51
270.0
  0
ARC
  5
C20E
330
C0D4
100
AcDbEntity
  8
1
  6
Continuous
100
AcDbCircle
 10
282.539977
 20
207.1289199999999
 30
0.0
 40
0.0605
100
AcDbArc
 50
267.758885
 51
90.0
  0
LINE
  5
C20F
330
C0D4
100
AcDbEntity
  8
1
  6
Continuous
100
AcDbLine
 10
282.5376120000001
 20
207.0684659999999
 30
0.0
 11
282.232823
 21
207.0744279999999
 31
0.0
  0
LINE
  5
C210
330
C0D4
100
AcDbEntity
  8
1
  6
Continuous
100
AcDbLine
 10
282.438847
 20
207.1933759999998
 30
0.0
 11
282.539977
 21
207.18942
 31
0.0
  0
LINE
  5
C211
330
C0D4
100
AcDbEntity
  8
1
  6
Continuous
100
AcDbLine
 10
280.2631949999998
 20
205.9372629999999
 30
0.0
 11
282.513477
 21
205.8732629999998
 31
0.0
  0
LINE
  5
C212
330
C0D4
100
AcDbEntity
  8
1
  6
Continuous
100
AcDbLine
 10
281.286245
 20
206.5279209999999
 30
0.0
 11
282.5409769999998
 21
206.5038309999999
 31
0.0
  0
LINE
  5
C213
330
C0D4
100
AcDbEntity
  8
1
  6
Continuous
100
AcDbLine
 10
276.472996
 20
207.1870899999999
 30
0.0
 11
276.3609769999998
 21
207.189281
 31
0.0
  0
LINE
  5
C214
330
C0D4
100
AcDbEntity
  8
1
  6
Continuous
100
AcDbLine
 10
32.75
 20
199.9519949999999
 30
0.0
 11
35.72849999999998
 21
199.9519949999999
 31
0.0
  0
LINE
  5
C215
330
C0D4
100
AcDbEntity
  8
1
  6
Continuous
100
AcDbLine
 10
32.75
 20
201.293027
 30
0.0
 11
35.7475
 21
201.293027
 31
0.0
  0
LINE
  5
C216
330
C0D4
100
AcDbEntity
  8
1
  6
Continuous
100
AcDbLine
 10
32.75
 20
202.484266
 30
0.0
 11
35.81
 21
202.484266
 31
0.0
  0
LINE
  5
C217
330
C0D4
100
AcDbEntity
  8
1
  6
Continuous
100
AcDbLine
 10
32.75
 20
203.5361219999999
 30
0.0
 11
35.7815
 21
203.5361219999999
 31
0.0
  0
LINE
  5
C218
330
C0D4
100
AcDbEntity
  8
1
  6
Continuous
100
AcDbLine
 10
32.75
 20
204.456995
 30
0.0
 11
35.79724999999999
 21
204.456995
 31
0.0
  0
LINE
  5
C219
330
C0D4
100
AcDbEntity
  8
1
  6
Continuous
100
AcDbLine
 10
32.75
 20
205.2536939999999
 30
0.0
 11
35.81199999999999
 21
205.2536939999999
 31
0.0
  0
LINE
  5
C21A
330
C0D4
100
AcDbEntity
  8
1
  6
Continuous
100
AcDbLine
 10
32.75
 20
205.931732
 30
0.0
 11
35.83775
 21
205.931732
 31
0.0
  0
LINE
  5
C21B
330
C0D4
100
AcDbEntity
  8
1
  6
Continuous
100
AcDbLine
 10
32.75
 20
206.495547
 30
0.0
 11
35.87025
 21
206.495547
 31
0.0
  0
LINE
  5
C21C
330
C0D4
100
AcDbEntity
  8
1
  6
Continuous
100
AcDbLine
 10
32.75
 20
206.9486609999999
 30
0.0
 11
35.85374999999999
 21
206.9486609999999
 31
0.0
  0
ARC
  5
C21D
330
C0D4
100
AcDbEntity
  8
1
  6
Continuous
100
AcDbCircle
 10
29.81524999999999
 20
197.410378
 30
0.0
 40
0.21525
100
AcDbArc
 50
90.0
 51
270.0
  0
ARC
  5
C21E
330
C0D4
100
AcDbEntity
  8
1
  6
Continuous
100
AcDbCircle
 10
35.68475
 20
196.9803609999999
 30
0.0
 40
0.21525
100
AcDbArc
 50
261.619662
 51
90.0
  0
ARC
  5
C21F
330
C0D4
100
AcDbEntity
  8
1
  6
Continuous
100
AcDbCircle
 10
35.70774999999999
 20
198.640419
 30
0.0
 40
0.19225
100
AcDbArc
 50
270.0
 51
90.0
  0
ARC
  5
C220
330
C0D4
100
AcDbEntity
  8
1
  6
Continuous
100
AcDbCircle
 10
29.79224999999999
 20
199.0249969999999
 30
0.0
 40
0.19225
100
AcDbArc
 50
90.0
 51
270.0
  0
LINE
  5
C221
330
C0D4
100
AcDbEntity
  8
1
  6
Continuous
100
AcDbLine
 10
29.81524999999999
 20
197.625628
 30
0.0
 11
35.68475
 21
197.195611
 31
0.0
  0
LINE
  5
C222
330
C0D4
100
AcDbEntity
  8
1
  6
Continuous
100
AcDbLine
 10
35.653379
 20
196.7674089999999
 30
0.0
 11
32.75
 21
196.7674089999999
 31
0.0
  0
LINE
  5
C223
330
C0D4
100
AcDbEntity
  8
1
  6
Continuous
100
AcDbLine
 10
35.70774999999999
 20
198.448169
 30
0.0
 11
32.75
 21
198.448169
 31
0.0
  0
LINE
  5
C224
330
C0D4
100
AcDbEntity
  8
1
  6
Continuous
100
AcDbLine
 10
29.81524999999999
 20
197.195128
 30
0.0
 11
32.75
 21
196.7674089999999
 31
0.0
  0
LINE
  5
C225
330
C0D4
100
AcDbEntity
  8
1
  6
Continuous
100
AcDbLine
 10
29.79224999999999
 20
199.2172469999999
 30
0.0
 11
35.70774999999999
 21
198.8326689999999
 31
0.0
  0
LINE
  5
C226
330
C0D4
100
AcDbEntity
  8
1
  6
Continuous
100
AcDbLine
 10
29.79224999999999
 20
198.8327469999999
 30
0.0
 11
32.75
 21
198.448169
 31
0.0
  0
ARC
  5
C227
330
C0D4
100
AcDbEntity
  8
1
  6
Continuous
100
AcDbCircle
 10
35.72849999999998
 20
200.1234949999999
 30
0.0
 40
0.1715
100
AcDbArc
 50
270.0
 51
90.0
  0
ARC
  5
C228
330
C0D4
100
AcDbEntity
  8
1
  6
Continuous
100
AcDbCircle
 10
29.77149999999999
 20
200.4668049999999
 30
0.0
 40
0.1715
100
AcDbArc
 50
83.40322200000001
 51
270.0
  0
LINE
  5
C229
330
C0D4
100
AcDbEntity
  8
1
  6
Continuous
100
AcDbLine
 10
29.791202
 20
200.6371689999999
 30
0.0
 11
35.72849999999998
 21
200.294995
 31
0.0
  0
LINE
  5
C22A
330
C0D4
100
AcDbEntity
  8
1
  6
Continuous
100
AcDbLine
 10
29.77149999999999
 20
200.295305
 30
0.0
 11
32.75
 21
199.9519949999999
 31
0.0
  0
ARC
  5
C22B
330
C0D4
100
AcDbEntity
  8
1
  6
Continuous
100
AcDbCircle
 10
35.7475
 20
201.445527
 30
0.0
 40
0.1525
100
AcDbArc
 50
270.0
 51
90.0
  0
ARC
  5
C22C
330
C0D4
100
AcDbEntity
  8
1
  6
Continuous
100
AcDbCircle
 10
29.7525
 20
201.7509039999999
 30
0.0
 40
0.1525
100
AcDbArc
 50
84.16789599999999
 51
270.0
  0
LINE
  5
C22D
330
C0D4
100
AcDbEntity
  8
1
  6
Continuous
100
AcDbLine
 10
29.76799600000001
 20
201.902615
 30
0.0
 11
35.7475
 21
201.598027
 31
0.0
  0
LINE
  5
C22E
330
C0D4
100
AcDbEntity
  8
1
  6
Continuous
100
AcDbLine
 10
29.7525
 20
201.5984039999999
 30
0.0
 11
32.75
 21
201.293027
 31
0.0
  0
ARC
  5
C22F
330
C0D4
100
AcDbEntity
  8
1
  6
Continuous
100
AcDbCircle
 10
29.69
 20
202.9341689999998
 30
0.0
 40
0.09
100
AcDbArc
 50
90.0
 51
270.0
  0
ARC
  5
C230
330
C0D4
100
AcDbEntity
  8
1
  6
Continuous
100
AcDbCircle
 10
35.81
 20
202.574266
 30
0.0
 40
0.09
100
AcDbArc
 50
270.0
 51
90.0
  0
LINE
  5
C231
330
C0D4
100
AcDbEntity
  8
1
  6
Continuous
100
AcDbLine
 10
29.69
 20
203.0241689999999
 30
0.0
 11
35.81
 21
202.6642659999999
 31
0.0
  0
LINE
  5
C232
330
C0D4
100
AcDbEntity
  8
1
  6
Continuous
100
AcDbLine
 10
29.69
 20
202.844169
 30
0.0
 11
32.75
 21
202.484266
 31
0.0
  0
ARC
  5
C233
330
C0D4
100
AcDbEntity
  8
1
  6
Continuous
100
AcDbCircle
 10
29.71849999999999
 20
203.8914499999999
 30
0.0
 40
0.1185
100
AcDbArc
 50
85.52619399999997
 51
270.0
  0
ARC
  5
C234
330
C0D4
100
AcDbEntity
  8
1
  6
Continuous
100
AcDbCircle
 10
35.7815
 20
203.6546219999999
 30
0.0
 40
0.1185
100
AcDbArc
 50
270.0
 51
90.0
  0
LINE
  5
C235
330
C0D4
100
AcDbEntity
  8
1
  6
Continuous
100
AcDbLine
 10
29.727743
 20
204.0095889999999
 30
0.0
 11
35.7815
 21
203.7731219999999
 31
0.0
  0
LINE
  5
C236
330
C0D4
100
AcDbEntity
  8
1
  6
Continuous
100
AcDbLine
 10
32.75
 20
203.5361219999999
 30
0.0
 11
29.71849999999999
 21
203.77295
 31
0.0
  0
ARC
  5
C237
330
C0D4
100
AcDbEntity
  8
1
  6
Continuous
100
AcDbCircle
 10
29.70275
 20
204.765562
 30
0.0
 40
0.10275
100
AcDbArc
 50
90.0
 51
270.0
  0
ARC
  5
C238
330
C0D4
100
AcDbEntity
  8
1
  6
Continuous
100
AcDbCircle
 10
35.79724999999999
 20
204.5597449999999
 30
0.0
 40
0.10275
100
AcDbArc
 50
270.0
 51
90.0
  0
LINE
  5
C239
330
C0D4
100
AcDbEntity
  8
1
  6
Continuous
100
AcDbLine
 10
29.70275
 20
204.868312
 30
0.0
 11
35.79724999999999
 21
204.6624949999999
 31
0.0
  0
LINE
  5
C23A
330
C0D4
100
AcDbEntity
  8
1
  6
Continuous
100
AcDbLine
 10
29.70275
 20
204.662812
 30
0.0
 11
32.75
 21
204.456995
 31
0.0
  0
ARC
  5
C23B
330
C0D4
100
AcDbEntity
  8
1
  6
Continuous
100
AcDbCircle
 10
35.81199999999999
 20
205.3416939999999
 30
0.0
 40
0.088
100
AcDbArc
 50
270.0
 51
90.0
  0
ARC
  5
C23C
330
C0D4
100
AcDbEntity
  8
1
  6
Continuous
100
AcDbCircle
 10
29.68799999999999
 20
205.5173879999999
 30
0.0
 40
0.088
100
AcDbArc
 50
86.71334399999997
 51
270.0
  0
LINE
  5
C23D
330
C0D4
100
AcDbEntity
  8
1
  6
Continuous
100
AcDbLine
 10
29.693045
 20
205.605243
 30
0.0
 11
35.81199999999999
 21
205.4296939999999
 31
0.0
  0
LINE
  5
C23E
330
C0D4
100
AcDbEntity
  8
1
  6
Continuous
100
AcDbLine
 10
29.68799999999999
 20
205.4293879999999
 30
0.0
 11
32.75
 21
205.2536939999999
 31
0.0
  0
ARC
  5
C23F
330
C0D4
100
AcDbEntity
  8
1
  6
Continuous
100
AcDbCircle
 10
29.66225
 20
206.163883
 30
0.0
 40
0.06225
100
AcDbArc
 50
90.0
 51
270.0
  0
ARC
  5
C240
330
C0D4
100
AcDbEntity
  8
1
  6
Continuous
100
AcDbCircle
 10
35.83775
 20
205.9939819999999
 30
0.0
 40
0.06225
100
AcDbArc
 50
270.0
 51
90.0
  0
LINE
  5
C241
330
C0D4
100
AcDbEntity
  8
1
  6
Continuous
100
AcDbLine
 10
29.66225
 20
206.226133
 30
0.0
 11
35.83775
 21
206.0562319999999
 31
0.0
  0
LINE
  5
C242
330
C0D4
100
AcDbEntity
  8
1
  6
Continuous
100
AcDbLine
 10
32.75
 20
205.931732
 30
0.0
 11
29.66225
 21
206.101633
 31
0.0
  0
ARC
  5
C243
330
C0D4
100
AcDbEntity
  8
1
  6
Continuous
100
AcDbCircle
 10
29.62975
 20
206.7047619999999
 30
0.0
 40
0.02975
100
AcDbArc
 50
86.70546800000003
 51
270.0
  0
ARC
  5
C244
330
C0D4
100
AcDbEntity
  8
1
  6
Continuous
100
AcDbCircle
 10
35.87025
 20
206.5252969999999
 30
0.0
 40
0.02975
100
AcDbArc
 50
270.0
 51
90.0
  0
LINE
  5
C245
330
C0D4
100
AcDbEntity
  8
1
  6
Continuous
100
AcDbLine
 10
35.87025
 20
206.555047
 30
0.0
 11
29.63146
 21
206.734463
 31
0.0
  0
LINE
  5
C246
330
C0D4
100
AcDbEntity
  8
1
  6
Continuous
100
AcDbLine
 10
29.62975
 20
206.675012
 30
0.0
 11
32.75
 21
206.495547
 31
0.0
  0
LINE
  5
C247
330
C0D4
100
AcDbEntity
  8
1
  6
Continuous
100
AcDbLine
 10
32.75
 20
207.2930009999998
 30
0.0
 11
35.86675000000001
 21
207.2930009999998
 31
0.0
  0
ARC
  5
C248
330
C0D4
100
AcDbEntity
  8
1
  6
Continuous
100
AcDbCircle
 10
35.86675000000001
 20
207.326251
 30
0.0
 40
0.03325
100
AcDbArc
 50
270.0
 51
90.0
  0
ARC
  5
C249
330
C0D4
100
AcDbEntity
  8
1
  6
Continuous
100
AcDbCircle
 10
29.63325
 20
207.392631
 30
0.0
 40
0.03325
100
AcDbArc
 50
88.77976600000001
 51
270.0
  0
LINE
  5
C24A
330
C0D4
100
AcDbEntity
  8
1
  6
Continuous
100
AcDbLine
 10
29.63395800000001
 20
207.4258729999999
 30
0.0
 11
35.86675000000001
 21
207.359501
 31
0.0
  0
LINE
  5
C24B
330
C0D4
100
AcDbEntity
  8
1
  6
Continuous
100
AcDbLine
 10
32.75
 20
207.2930009999998
 30
0.0
 11
29.63325
 21
207.359381
 31
0.0
  0
ARC
  5
C24C
330
C0D4
100
AcDbEntity
  8
1
  6
Continuous
100
AcDbCircle
 10
29.64624999999999
 20
207.08739
 30
0.0
 40
0.04625
100
AcDbArc
 50
88.292947
 51
270.0
  0
ARC
  5
C24D
330
C0D4
100
AcDbEntity
  8
1
  6
Continuous
100
AcDbCircle
 10
35.85374999999999
 20
206.994911
 30
0.0
 40
0.04625
100
AcDbArc
 50
270.0
 51
90.0
  0
LINE
  5
C24E
330
C0D4
100
AcDbEntity
  8
1
  6
Continuous
100
AcDbLine
 10
35.85374999999999
 20
207.0411609999999
 30
0.0
 11
29.64762800000001
 21
207.1336189999999
 31
0.0
  0
LINE
  5
C24F
330
C0D4
100
AcDbEntity
  8
1
  6
Continuous
100
AcDbLine
 10
29.64624999999999
 20
207.0411399999999
 30
0.0
 11
32.75
 21
206.9486609999999
 31
0.0
  0
LINE
  5
C250
330
C0D4
100
AcDbEntity
  8
1
  6
Continuous
100
AcDbLine
 10
30.098876
 20
176.750247
 30
0.0
 11
35.73641099999999
 21
176.156822
 31
0.0
  0
LINE
  5
C251
330
C0D4
100
AcDbEntity
  8
1
  6
Continuous
100
AcDbLine
 10
30.098876
 20
179.150247
 30
0.0
 11
35.73641099999999
 21
178.556822
 31
0.0
  0
LINE
  5
C252
330
C0D4
100
AcDbEntity
  8
1
  6
Continuous
100
AcDbLine
 10
30.098876
 20
181.550247
 30
0.0
 11
35.73641099999999
 21
180.9568219999999
 31
0.0
  0
LINE
  5
C253
330
C0D4
100
AcDbEntity
  8
1
  6
Continuous
100
AcDbLine
 10
30.098876
 20
183.950247
 30
0.0
 11
35.73641099999999
 21
183.356822
 31
0.0
  0
LINE
  5
C254
330
C0D4
100
AcDbEntity
  8
1
  6
Continuous
100
AcDbLine
 10
30.098876
 20
186.350247
 30
0.0
 11
35.73641099999999
 21
185.756822
 31
0.0
  0
LINE
  5
C255
330
C0D4
100
AcDbEntity
  8
1
  6
Continuous
100
AcDbLine
 10
30.098876
 20
188.750247
 30
0.0
 11
35.73641099999999
 21
188.156822
 31
0.0
  0
LINE
  5
C256
330
C0D4
100
AcDbEntity
  8
1
  6
Continuous
100
AcDbLine
 10
30.098876
 20
191.150247
 30
0.0
 11
35.73641099999999
 21
190.556822
 31
0.0
  0
LINE
  5
C257
330
C0D4
100
AcDbEntity
  8
1
  6
Continuous
100
AcDbLine
 10
30.03641099999999
 20
176.156822
 30
0.0
 11
32.733578
 21
175.588997
 31
0.0
  0
ARC
  5
C258
330
C0D4
100
AcDbEntity
  8
1
  6
Continuous
100
AcDbCircle
 10
30.03641099999999
 20
176.4568219999999
 30
0.0
 40
0.3
100
AcDbArc
 50
77.981988
 51
270.0
  0
ARC
  5
C259
330
C0D4
100
AcDbEntity
  8
1
  6
Continuous
100
AcDbCircle
 10
30.03641099999999
 20
178.8568219999999
 30
0.0
 40
0.3
100
AcDbArc
 50
77.981988
 51
270.0
  0
LINE
  5
C25A
330
C0D4
100
AcDbEntity
  8
1
  6
Continuous
100
AcDbLine
 10
30.03641099999999
 20
178.556822
 30
0.0
 11
32.733578
 21
177.9889969999999
 31
0.0
  0
LINE
  5
C25B
330
C0D4
100
AcDbEntity
  8
1
  6
Continuous
100
AcDbLine
 10
30.03641099999999
 20
180.9568219999999
 30
0.0
 11
32.733578
 21
180.3889969999999
 31
0.0
  0
ARC
  5
C25C
330
C0D4
100
AcDbEntity
  8
1
  6
Continuous
100
AcDbCircle
 10
30.03641099999999
 20
181.2568219999998
 30
0.0
 40
0.3
100
AcDbArc
 50
77.981988
 51
270.0
  0
ARC
  5
C25D
330
C0D4
100
AcDbEntity
  8
1
  6
Continuous
100
AcDbCircle
 10
30.03641099999999
 20
183.656822
 30
0.0
 40
0.3
100
AcDbArc
 50
77.981988
 51
270.0
  0
LINE
  5
C25E
330
C0D4
100
AcDbEntity
  8
1
  6
Continuous
100
AcDbLine
 10
30.03641099999999
 20
183.356822
 30
0.0
 11
32.733578
 21
182.788997
 31
0.0
  0
LINE
  5
C25F
330
C0D4
100
AcDbEntity
  8
1
  6
Continuous
100
AcDbLine
 10
30.03641099999999
 20
185.756822
 30
0.0
 11
32.733578
 21
185.188997
 31
0.0
  0
ARC
  5
C260
330
C0D4
100
AcDbEntity
  8
1
  6
Continuous
100
AcDbCircle
 10
30.03641099999999
 20
186.056822
 30
0.0
 40
0.3
100
AcDbArc
 50
77.981988
 51
270.0
  0
ARC
  5
C261
330
C0D4
100
AcDbEntity
  8
1
  6
Continuous
100
AcDbCircle
 10
30.03641099999999
 20
188.456822
 30
0.0
 40
0.3
100
AcDbArc
 50
77.981988
 51
270.0
  0
LINE
  5
C262
330
C0D4
100
AcDbEntity
  8
1
  6
Continuous
100
AcDbLine
 10
30.03641099999999
 20
188.156822
 30
0.0
 11
32.733578
 21
187.588997
 31
0.0
  0
LINE
  5
C263
330
C0D4
100
AcDbEntity
  8
1
  6
Continuous
100
AcDbLine
 10
30.03641099999999
 20
190.556822
 30
0.0
 11
32.733578
 21
189.9889969999999
 31
0.0
  0
ARC
  5
C264
330
C0D4
100
AcDbEntity
  8
1
  6
Continuous
100
AcDbCircle
 10
30.03641099999999
 20
190.856822
 30
0.0
 40
0.3
100
AcDbArc
 50
77.981988
 51
270.0
  0
LINE
  5
C265
330
C0D4
100
AcDbEntity
  8
1
  6
Continuous
100
AcDbLine
 10
30.098876
 20
193.5502469999999
 30
0.0
 11
35.73641099999999
 21
192.9568219999999
 31
0.0
  0
LINE
  5
C266
330
C0D4
100
AcDbEntity
  8
1
  6
Continuous
100
AcDbLine
 10
30.098876
 20
195.9502469999999
 30
0.0
 11
35.73641099999999
 21
195.356822
 31
0.0
  0
ARC
  5
C267
330
C0D4
100
AcDbEntity
  8
1
  6
Continuous
100
AcDbCircle
 10
30.03641099999999
 20
193.256822
 30
0.0
 40
0.3
100
AcDbArc
 50
77.981988
 51
270.0
  0
LINE
  5
C268
330
C0D4
100
AcDbEntity
  8
1
  6
Continuous
100
AcDbLine
 10
30.03641099999999
 20
192.9568219999999
 30
0.0
 11
32.733578
 21
192.3889969999999
 31
0.0
  0
ARC
  5
C269
330
C0D4
100
AcDbEntity
  8
1
  6
Continuous
100
AcDbCircle
 10
30.03641099999999
 20
195.656822
 30
0.0
 40
0.3
100
AcDbArc
 50
77.981988
 51
270.0
  0
LINE
  5
C26A
330
C0D4
100
AcDbEntity
  8
1
  6
Continuous
100
AcDbLine
 10
30.03641099999999
 20
195.356822
 30
0.0
 11
32.733578
 21
194.788997
 31
0.0
  0
LINE
  5
C26B
330
C0D4
100
AcDbEntity
  8
1
  6
Continuous
100
AcDbLine
 10
33.042594
 20
175.556822
 30
0.0
 11
35.73641099999999
 21
175.556822
 31
0.0
  0
LINE
  5
C26C
330
C0D4
100
AcDbEntity
  8
1
  6
Continuous
100
AcDbLine
 10
33.042594
 20
177.9568219999999
 30
0.0
 11
35.73641099999999
 21
177.9568219999999
 31
0.0
  0
LINE
  5
C26D
330
C0D4
100
AcDbEntity
  8
1
  6
Continuous
100
AcDbLine
 10
33.042594
 20
180.356822
 30
0.0
 11
35.73641099999999
 21
180.356822
 31
0.0
  0
LINE
  5
C26E
330
C0D4
100
AcDbEntity
  8
1
  6
Continuous
100
AcDbLine
 10
33.042594
 20
182.756822
 30
0.0
 11
35.73641099999999
 21
182.756822
 31
0.0
  0
LINE
  5
C26F
330
C0D4
100
AcDbEntity
  8
1
  6
Continuous
100
AcDbLine
 10
33.042594
 20
185.156822
 30
0.0
 11
35.73641099999999
 21
185.156822
 31
0.0
  0
LINE
  5
C270
330
C0D4
100
AcDbEntity
  8
1
  6
Continuous
100
AcDbLine
 10
33.042594
 20
187.556822
 30
0.0
 11
35.73641099999999
 21
187.556822
 31
0.0
  0
LINE
  5
C271
330
C0D4
100
AcDbEntity
  8
1
  6
Continuous
100
AcDbLine
 10
33.042594
 20
189.9568219999999
 30
0.0
 11
35.73641099999999
 21
189.9568219999999
 31
0.0
  0
ARC
  5
C272
330
C0D4
100
AcDbEntity
  8
1
  6
Continuous
100
AcDbCircle
 10
35.73641099999999
 20
175.8568219999999
 30
0.0
 40
0.3
100
AcDbArc
 50
270.0
 51
90.0
  0
ARC
  5
C273
330
C0D4
100
AcDbEntity
  8
1
  6
Continuous
100
AcDbCircle
 10
35.73641099999999
 20
178.2568219999998
 30
0.0
 40
0.3
100
AcDbArc
 50
270.0
 51
90.0
  0
ARC
  5
C274
330
C0D4
100
AcDbEntity
  8
1
  6
Continuous
100
AcDbCircle
 10
35.73641099999999
 20
180.656822
 30
0.0
 40
0.3
100
AcDbArc
 50
270.0
 51
90.0
  0
ARC
  5
C275
330
C0D4
100
AcDbEntity
  8
1
  6
Continuous
100
AcDbCircle
 10
35.73641099999999
 20
183.056822
 30
0.0
 40
0.3
100
AcDbArc
 50
270.0
 51
90.0
  0
ARC
  5
C276
330
C0D4
100
AcDbEntity
  8
1
  6
Continuous
100
AcDbCircle
 10
35.73641099999999
 20
185.4568219999999
 30
0.0
 40
0.3
100
AcDbArc
 50
270.0
 51
90.0
  0
ARC
  5
C277
330
C0D4
100
AcDbEntity
  8
1
  6
Continuous
100
AcDbCircle
 10
35.73641099999999
 20
187.856822
 30
0.0
 40
0.3
100
AcDbArc
 50
270.0
 51
90.0
  0
ARC
  5
C278
330
C0D4
100
AcDbEntity
  8
1
  6
Continuous
100
AcDbCircle
 10
35.73641099999999
 20
190.256822
 30
0.0
 40
0.3
100
AcDbArc
 50
270.0
 51
90.0
  0
LINE
  5
C279
330
C0D4
100
AcDbEntity
  8
1
  6
Continuous
100
AcDbLine
 10
33.042594
 20
192.3568219999999
 30
0.0
 11
35.73641099999999
 21
192.3568219999999
 31
0.0
  0
LINE
  5
C27A
330
C0D4
100
AcDbEntity
  8
1
  6
Continuous
100
AcDbLine
 10
33.042594
 20
194.7568219999998
 30
0.0
 11
35.73641099999999
 21
194.7568219999998
 31
0.0
  0
ARC
  5
C27B
330
C0D4
100
AcDbEntity
  8
1
  6
Continuous
100
AcDbCircle
 10
35.73641099999999
 20
192.656822
 30
0.0
 40
0.3
100
AcDbArc
 50
270.0
 51
90.0
  0
ARC
  5
C27C
330
C0D4
100
AcDbEntity
  8
1
  6
Continuous
100
AcDbCircle
 10
35.73641099999999
 20
195.056822
 30
0.0
 40
0.3
100
AcDbArc
 50
270.0
 51
90.0
  0
ARC
  5
C27D
330
C0D4
100
AcDbEntity
  8
1
  6
Continuous
100
AcDbCircle
 10
33.042594
 20
177.056822
 30
0.0
 40
1.5
100
AcDbArc
 50
258.1113419999999
 51
270.0
  0
ARC
  5
C27E
330
C0D4
100
AcDbEntity
  8
1
  6
Continuous
100
AcDbCircle
 10
33.042594
 20
179.4568219999999
 30
0.0
 40
1.5
100
AcDbArc
 50
258.1113419999999
 51
270.0
  0
ARC
  5
C27F
330
C0D4
100
AcDbEntity
  8
1
  6
Continuous
100
AcDbCircle
 10
33.042594
 20
181.8568219999999
 30
0.0
 40
1.5
100
AcDbArc
 50
258.1113419999999
 51
270.0
  0
ARC
  5
C280
330
C0D4
100
AcDbEntity
  8
1
  6
Continuous
100
AcDbCircle
 10
33.042594
 20
184.256822
 30
0.0
 40
1.5
100
AcDbArc
 50
258.1113419999999
 51
270.0
  0
ARC
  5
C281
330
C0D4
100
AcDbEntity
  8
1
  6
Continuous
100
AcDbCircle
 10
33.042594
 20
186.6568219999998
 30
0.0
 40
1.5
100
AcDbArc
 50
258.1113419999999
 51
270.0
  0
ARC
  5
C282
330
C0D4
100
AcDbEntity
  8
1
  6
Continuous
100
AcDbCircle
 10
33.042594
 20
189.056822
 30
0.0
 40
1.5
100
AcDbArc
 50
258.1113419999999
 51
270.0
  0
ARC
  5
C283
330
C0D4
100
AcDbEntity
  8
1
  6
Continuous
100
AcDbCircle
 10
33.042594
 20
191.4568219999999
 30
0.0
 40
1.5
100
AcDbArc
 50
258.1113419999999
 51
270.0
  0
ARC
  5
C284
330
C0D4
100
AcDbEntity
  8
1
  6
Continuous
100
AcDbCircle
 10
33.042594
 20
193.856822
 30
0.0
 40
1.5
100
AcDbArc
 50
258.1113419999999
 51
270.0
  0
ARC
  5
C285
330
C0D4
100
AcDbEntity
  8
1
  6
Continuous
100
AcDbCircle
 10
33.042594
 20
196.2568219999998
 30
0.0
 40
1.5
100
AcDbArc
 50
258.1113419999999
 51
270.0
  0
LINE
  5
C286
330
C0D4
100
AcDbEntity
  8
1
  6
Continuous
100
AcDbLine
 10
114.530668
 20
267.9793839999999
 30
0.0
 11
113.9372429999999
 21
262.341849
 31
0.0
  0
LINE
  5
C287
330
C0D4
100
AcDbEntity
  8
1
  6
Continuous
100
AcDbLine
 10
116.930668
 20
267.9793839999999
 30
0.0
 11
116.3372429999999
 21
262.341849
 31
0.0
  0
LINE
  5
C288
330
C0D4
100
AcDbEntity
  8
1
  6
Continuous
100
AcDbLine
 10
119.3306679999998
 20
267.9793839999999
 30
0.0
 11
118.7372429999999
 21
262.341849
 31
0.0
  0
LINE
  5
C289
330
C0D4
100
AcDbEntity
  8
1
  6
Continuous
100
AcDbLine
 10
113.9372429999999
 20
268.041849
 30
0.0
 11
113.3372429999998
 21
265.1918489999999
 31
0.0
  0
ARC
  5
C28A
330
C0D4
100
AcDbEntity
  8
1
  6
Continuous
100
AcDbCircle
 10
114.2372429999999
 20
268.041849
 30
0.0
 40
0.3
100
AcDbArc
 50
347.9819879999998
 51
180.0
  0
ARC
  5
C28B
330
C0D4
100
AcDbEntity
  8
1
  6
Continuous
100
AcDbCircle
 10
116.637243
 20
268.041849
 30
0.0
 40
0.3
100
AcDbArc
 50
347.9819879999998
 51
180.0
  0
LINE
  5
C28C
330
C0D4
100
AcDbEntity
  8
1
  6
Continuous
100
AcDbLine
 10
116.3372429999999
 20
268.041849
 30
0.0
 11
115.7372429999999
 21
265.1918489999999
 31
0.0
  0
LINE
  5
C28D
330
C0D4
100
AcDbEntity
  8
1
  6
Continuous
100
AcDbLine
 10
118.7372429999999
 20
268.041849
 30
0.0
 11
118.1372429999999
 21
265.1918489999999
 31
0.0
  0
ARC
  5
C28E
330
C0D4
100
AcDbEntity
  8
1
  6
Continuous
100
AcDbCircle
 10
119.0372429999999
 20
268.041849
 30
0.0
 40
0.3
100
AcDbArc
 50
347.9819879999998
 51
180.0
  0
LINE
  5
C28F
330
C0D4
100
AcDbEntity
  8
1
  6
Continuous
100
AcDbLine
 10
113.3372429999998
 20
265.1918489999999
 30
0.0
 11
113.3372429999998
 21
262.341849
 31
0.0
  0
LINE
  5
C290
330
C0D4
100
AcDbEntity
  8
1
  6
Continuous
100
AcDbLine
 10
115.7372429999999
 20
265.1918489999999
 30
0.0
 11
115.7372429999999
 21
262.341849
 31
0.0
  0
LINE
  5
C291
330
C0D4
100
AcDbEntity
  8
1
  6
Continuous
100
AcDbLine
 10
118.1372429999999
 20
265.1918489999999
 30
0.0
 11
118.1372429999999
 21
262.341849
 31
0.0
  0
ARC
  5
C292
330
C0D4
100
AcDbEntity
  8
1
  6
Continuous
100
AcDbCircle
 10
113.6372429999999
 20
262.341849
 30
0.0
 40
0.3
100
AcDbArc
 50
180.0
 51
0.0
  0
ARC
  5
C293
330
C0D4
100
AcDbEntity
  8
1
  6
Continuous
100
AcDbCircle
 10
116.037243
 20
262.341849
 30
0.0
 40
0.3
100
AcDbArc
 50
180.0
 51
0.0
  0
ARC
  5
C294
330
C0D4
100
AcDbEntity
  8
1
  6
Continuous
100
AcDbCircle
 10
118.437243
 20
262.341849
 30
0.0
 40
0.3
100
AcDbArc
 50
180.0
 51
0.0
  0
LINE
  5
C295
330
C0D4
100
AcDbEntity
  8
1
  6
Continuous
100
AcDbLine
 10
150.6002389999999
 20
56.5
 30
0.0
 11
150.6002389999999
 21
55.25
 31
0.0
  0
LINE
  5
C296
330
C0D4
100
AcDbEntity
  8
1
  6
Continuous
100
AcDbLine
 10
161.600239
 20
56.5
 30
0.0
 11
161.600239
 21
55.25
 31
0.0
  0
LINE
  5
C297
330
C0D4
100
AcDbEntity
  8
1
  6
Continuous
100
AcDbLine
 10
150.6002389999999
 20
42.25
 30
0.0
 11
150.6002389999999
 21
41.0
 31
0.0
  0
LINE
  5
C298
330
C0D4
100
AcDbEntity
  8
1
  6
Continuous
100
AcDbLine
 10
161.600239
 20
42.25
 30
0.0
 11
161.600239
 21
41.0
 31
0.0
  0
LINE
  5
C299
330
C0D4
100
AcDbEntity
  8
1
  6
Continuous
100
AcDbLine
 10
150.3002389999998
 20
56.5
 30
0.0
 11
149.3002389999998
 21
55.25
 31
0.0
  0
LINE
  5
C29A
330
C0D4
100
AcDbEntity
  8
1
  6
Continuous
100
AcDbLine
 10
149.3002389999998
 20
42.25
 30
0.0
 11
150.3002389999998
 21
41.0
 31
0.0
  0
LINE
  5
C29B
330
C0D4
100
AcDbEntity
  8
1
  6
Continuous
100
AcDbLine
 10
162.900239
 20
42.25
 30
0.0
 11
161.900239
 21
41.0
 31
0.0
  0
LINE
  5
C29C
330
C0D4
100
AcDbEntity
  8
1
  6
Continuous
100
AcDbLine
 10
161.900239
 20
56.5
 30
0.0
 11
162.900239
 21
55.25
 31
0.0
  0
ARC
  5
C29D
330
C0D4
100
AcDbEntity
  8
1
  6
Continuous
100
AcDbCircle
 10
156.1002389999998
 20
206.091505
 30
0.0
 40
7.4
100
AcDbArc
 50
18.924644
 51
161.075356
  0
LINE
  5
C29E
330
C0D4
100
AcDbEntity
  8
1
  6
Continuous
100
AcDbLine
 10
150.3002389999998
 20
272.9919049999999
 30
0.0
 11
149.100239
 21
271.4919049999999
 31
0.0
  0
LINE
  5
C29F
330
C0D4
100
AcDbEntity
  8
1
  6
Continuous
100
AcDbLine
 10
161.900239
 20
272.9919049999999
 30
0.0
 11
163.1002389999999
 21
271.4919049999999
 31
0.0
  0
LINE
  5
C2A0
330
C0D4
100
AcDbEntity
  8
1
  6
Continuous
100
AcDbLine
 10
149.100239
 20
258.9919049999999
 30
0.0
 11
150.3002389999998
 21
257.4919049999999
 31
0.0
  0
LINE
  5
C2A1
330
C0D4
100
AcDbEntity
  8
1
  6
Continuous
100
AcDbLine
 10
163.1002389999999
 20
258.9919049999999
 30
0.0
 11
161.900239
 21
257.4919049999999
 31
0.0
  0
ARC
  5
C2A2
330
C0D4
100
AcDbEntity
  8
1
  6
Continuous
100
AcDbCircle
 10
156.1002389999998
 20
295.4919049999999
 30
0.0
 40
25.0
100
AcDbArc
 50
253.7397949999999
 51
286.2602049999999
  0
ARC
  5
C2A3
330
C0D4
100
AcDbEntity
  8
1
  6
Continuous
100
AcDbCircle
 10
156.1002389999998
 20
234.991905
 30
0.0
 40
25.0
100
AcDbArc
 50
73.739795
 51
106.2602049999999
  0
ARC
  5
C2A4
330
C0D4
100
AcDbEntity
  8
1
  6
Continuous
100
AcDbCircle
 10
141.634622
 20
147.5825289999999
 30
0.0
 40
63.7154
100
AcDbArc
 50
65.201731
 51
71.50017599999998
  0
ARC
  5
C2A5
330
C0D4
100
AcDbEntity
  8
1
  6
Continuous
100
AcDbCircle
 10
153.6527309999999
 20
131.900715
 30
0.0
 40
74.97830299999998
100
AcDbArc
 50
63.653119
 51
78.689097
  0
ARC
  5
C2A6
330
C0D4
100
AcDbEntity
  8
1
  6
Continuous
100
AcDbCircle
 10
153.6527309999999
 20
131.900715
 30
0.0
 40
74.378303
100
AcDbArc
 50
63.68108499999999
 51
78.653155
  0
ARC
  5
C2A7
330
C0D4
100
AcDbEntity
  8
1
  6
Continuous
100
AcDbCircle
 10
141.634622
 20
147.5825289999999
 30
0.0
 40
63.1154
100
AcDbArc
 50
65.24400599999998
 51
71.37650600000002
  0
ARC
  5
C2A8
330
C0D4
100
AcDbEntity
  8
1
  6
Continuous
100
AcDbCircle
 10
141.634622
 20
147.5825289999999
 30
0.0
 40
62.5154
100
AcDbArc
 50
65.24400599999998
 51
71.250399
  0
ARC
  5
C2A9
330
C0D4
100
AcDbEntity
  8
1
  6
Continuous
100
AcDbCircle
 10
153.6527309999999
 20
131.900715
 30
0.0
 40
73.77830299999998
100
AcDbArc
 50
63.70954499999999
 51
78.653155
  0
ARC
  5
C2AA
330
C0D4
100
AcDbEntity
  8
1
  6
Continuous
100
AcDbCircle
 10
168.4832489999998
 20
205.8056829999999
 30
0.0
 40
1.0
100
AcDbArc
 50
245.244006
 51
258.6531549999999
  0
ARC
  5
C2AB
330
C0D4
100
AcDbEntity
  8
1
  6
Continuous
100
AcDbCircle
 10
168.4832489999998
 20
205.8056829999999
 30
0.0
 40
1.6
100
AcDbArc
 50
245.244006
 51
258.6531549999999
  0
ARC
  5
C2AC
330
C0D4
100
AcDbEntity
  8
5
  6
PHANTOM
100
AcDbCircle
 10
156.313407
 20
156.1187229999999
 30
0.0
 40
52.20023900000001
100
AcDbArc
 50
27.728192
 51
53.583159
  0
ARC
  5
C2AD
330
C0D4
100
AcDbEntity
  8
5
  6
PHANTOM
100
AcDbCircle
 10
141.6395899999999
 20
147.6322129999998
 30
0.0
 40
62.5154
100
AcDbArc
 50
65.43602299999999
 51
71.250399
  0
ARC
  5
C2AE
330
C0D4
100
AcDbEntity
  8
5
  6
PHANTOM
100
AcDbCircle
 10
141.6380269999999
 20
147.616582
 30
0.0
 40
63.1154
100
AcDbArc
 50
65.490496
 51
71.37650600000002
  0
ARC
  5
C2AF
330
C0D4
100
AcDbEntity
  8
5
  6
PHANTOM
100
AcDbCircle
 10
141.636495
 20
147.6012569999998
 30
0.0
 40
63.7154
100
AcDbArc
 50
65.496774
 51
71.50017599999998
  0
ARC
  5
C2B0
330
C0D4
100
AcDbEntity
  8
5
  6
PHANTOM
100
AcDbCircle
 10
159.6722619999999
 20
155.3585449999999
 30
0.0
 40
49.715762
100
AcDbArc
 50
57.177766
 51
80.328861
  0
ARC
  5
C2B1
330
C0D4
100
AcDbEntity
  8
5
  6
PHANTOM
100
AcDbCircle
 10
159.6722619999999
 20
155.3585449999999
 30
0.0
 40
50.31576199999999
100
AcDbArc
 50
57.15607600000002
 51
80.39343199999997
  0
ARC
  5
C2B2
330
C0D4
100
AcDbEntity
  8
5
  6
PHANTOM
100
AcDbCircle
 10
159.6722619999999
 20
155.3585449999999
 30
0.0
 40
50.915762
100
AcDbArc
 50
57.134894
 51
80.51561099999998
  0
ARC
  5
C2B3
330
C0D4
100
AcDbEntity
  8
5
  6
PHANTOM
100
AcDbCircle
 10
168.235928
 20
205.954701
 30
0.0
 40
1.0
100
AcDbArc
 50
245.490496
 51
260.3934319999999
  0
ARC
  5
C2B4
330
C0D4
100
AcDbEntity
  8
5
  6
PHANTOM
100
AcDbCircle
 10
168.2929429999998
 20
205.945018
 30
0.0
 40
1.6
100
AcDbArc
 50
245.436023
 51
260.3288609999999
  0
LINE
  5
C2B5
330
C0D4
100
AcDbEntity
  8
1
  6
Continuous
100
AcDbLine
 10
100.5
 20
258.7419049999999
 30
0.0
 11
100.5
 21
271.7419049999999
 31
0.0
  0
LINE
  5
C2B6
330
C0D4
100
AcDbEntity
  8
1
  6
Continuous
100
AcDbLine
 10
211.700477
 20
258.7419049999999
 30
0.0
 11
211.700477
 21
271.7419049999999
 31
0.0
  0
LINE
  5
C2B7
330
C0D4
100
AcDbEntity
  8
1
  6
Continuous
100
AcDbLine
 10
174.8385209999999
 20
268.029439
 30
0.0
 11
174.245096
 21
262.391905
 31
0.0
  0
LINE
  5
C2B8
330
C0D4
100
AcDbEntity
  8
1
  6
Continuous
100
AcDbLine
 10
173.6450959999999
 20
265.2419049999999
 30
0.0
 11
173.6450959999999
 21
262.391905
 31
0.0
  0
ARC
  5
C2B9
330
C0D4
100
AcDbEntity
  8
1
  6
Continuous
100
AcDbCircle
 10
173.945096
 20
262.391905
 30
0.0
 40
0.3
100
AcDbArc
 50
180.0
 51
0.0
  0
ARC
  5
C2BA
330
C0D4
100
AcDbEntity
  8
1
  6
Continuous
100
AcDbCircle
 10
174.545096
 20
268.0919049999999
 30
0.0
 40
0.3
100
AcDbArc
 50
347.9819879999998
 51
180.0
  0
LINE
  5
C2BB
330
C0D4
100
AcDbEntity
  8
1
  6
Continuous
100
AcDbLine
 10
174.245096
 20
268.0919049999999
 30
0.0
 11
173.6450959999999
 21
265.2419049999999
 31
0.0
  0
LINE
  5
C2BC
330
C0D4
100
AcDbEntity
  8
1
  6
Continuous
100
AcDbLine
 10
177.2385209999999
 20
268.029439
 30
0.0
 11
176.645096
 21
262.391905
 31
0.0
  0
LINE
  5
C2BD
330
C0D4
100
AcDbEntity
  8
1
  6
Continuous
100
AcDbLine
 10
176.045096
 20
265.2419049999999
 30
0.0
 11
176.045096
 21
262.391905
 31
0.0
  0
ARC
  5
C2BE
330
C0D4
100
AcDbEntity
  8
1
  6
Continuous
100
AcDbCircle
 10
176.3450959999999
 20
262.391905
 30
0.0
 40
0.3
100
AcDbArc
 50
180.0
 51
0.0
  0
ARC
  5
C2BF
330
C0D4
100
AcDbEntity
  8
1
  6
Continuous
100
AcDbCircle
 10
176.945096
 20
268.0919049999999
 30
0.0
 40
0.3
100
AcDbArc
 50
347.9819879999998
 51
180.0
  0
LINE
  5
C2C0
330
C0D4
100
AcDbEntity
  8
1
  6
Continuous
100
AcDbLine
 10
176.645096
 20
268.0919049999999
 30
0.0
 11
176.045096
 21
265.2419049999999
 31
0.0
  0
LINE
  5
C2C1
330
C0D4
100
AcDbEntity
  8
1
  6
Continuous
100
AcDbLine
 10
211.700477
 20
55.25
 30
0.0
 11
211.700477
 21
42.25
 31
0.0
  0
LINE
  5
C2C2
330
C0D4
100
AcDbEntity
  8
1
  6
Continuous
100
AcDbLine
 10
100.5
 20
42.25
 30
0.0
 11
100.5
 21
55.25
 31
0.0
  0
LINE
  5
C2C3
330
C0D4
100
AcDbEntity
  8
1
  6
Continuous
100
AcDbLine
 10
274.9504769999999
 20
208.066116
 30
0.0
 11
278.9504769999999
 21
205.7567149999999
 31
0.0
  0
ARC
  5
C2C4
330
C0D4
100
AcDbEntity
  8
1
  6
Continuous
100
AcDbCircle
 10
279.4504769999999
 20
206.6227409999999
 30
0.0
 40
1.0
100
AcDbArc
 50
239.9999999999999
 51
300.0
  0
LINE
  5
C2C5
330
C0D4
100
AcDbEntity
  8
1
  6
Continuous
100
AcDbLine
 10
279.9504769999999
 20
205.7567149999999
 30
0.0
 11
283.9504769999999
 21
208.066116
 31
0.0
  0
ARC
  5
C2C6
330
C0D4
100
AcDbEntity
  8
1
  6
Continuous
100
AcDbCircle
 10
283.4504769999999
 20
208.932142
 30
0.0
 40
1.0
100
AcDbArc
 50
300.0
 51
0.0
  0
LINE
  5
C2C7
330
C0D4
100
AcDbEntity
  8
1
  6
Continuous
100
AcDbLine
 10
284.4504769999998
 20
208.932142
 30
0.0
 11
284.4504769999998
 21
213.5509439999999
 31
0.0
  0
ARC
  5
C2C8
330
C0D4
100
AcDbEntity
  8
1
  6
Continuous
100
AcDbCircle
 10
283.4504769999999
 20
213.5509439999999
 30
0.0
 40
1.0
100
AcDbArc
 50
0.0
 51
60.0
  0
LINE
  5
C2C9
330
C0D4
100
AcDbEntity
  8
1
  6
Continuous
100
AcDbLine
 10
283.9504769999999
 20
214.416969
 30
0.0
 11
279.9504769999999
 21
216.72637
 31
0.0
  0
ARC
  5
C2CA
330
C0D4
100
AcDbEntity
  8
1
  6
Continuous
100
AcDbCircle
 10
279.4504769999999
 20
215.860345
 30
0.0
 40
1.0
100
AcDbArc
 50
60.0
 51
119.9999999999999
  0
LINE
  5
C2CB
330
C0D4
100
AcDbEntity
  8
1
  6
Continuous
100
AcDbLine
 10
278.9504769999999
 20
216.72637
 30
0.0
 11
274.9504769999999
 21
214.416969
 31
0.0
  0
ARC
  5
C2CC
330
C0D4
100
AcDbEntity
  8
1
  6
Continuous
100
AcDbCircle
 10
275.450477
 20
213.5509439999999
 30
0.0
 40
1.0
100
AcDbArc
 50
119.9999999999999
 51
180.0
  0
LINE
  5
C2CD
330
C0D4
100
AcDbEntity
  8
1
  6
Continuous
100
AcDbLine
 10
274.4504769999999
 20
213.5509439999999
 30
0.0
 11
274.4504769999999
 21
208.932142
 31
0.0
  0
ARC
  5
C2CE
330
C0D4
100
AcDbEntity
  8
1
  6
Continuous
100
AcDbCircle
 10
275.450477
 20
208.932142
 30
0.0
 40
1.0
100
AcDbArc
 50
180.0
 51
239.9999999999999
  0
ENDSEC
  0
SECTION
  2
OBJECTS
  0
DICTIONARY
  5
C0C2
330
0
100
AcDbDictionary
281
     1
  3
ACAD_CIP_PREVIOUS_PRODUCT_INFO
350
C32E
  3
ACAD_COLOR
350
C310
  3
ACAD_DETAILVIEWSTYLE
350
C329
  3
ACAD_GROUP
350
C0C3
  3
ACAD_LAYOUT
350
C0CF
  3
ACAD_MATERIAL
350
C2DE
  3
ACAD_MLEADERSTYLE
350
C325
  3
ACAD_MLINESTYLE
350
C0CC
  3
ACAD_PLOTSETTINGS
350
C0CE
  3
ACAD_PLOTSTYLENAME
350
C2DC
  3
ACAD_SCALELIST
350
C313
  3
ACAD_SECTIONVIEWSTYLE
350
C327
  3
ACAD_TABLESTYLE
350
C311
  3
ACAD_VISUALSTYLE
350
C2F7
  3
ACDB_RECOMPOSE_DATA
350
C34C
  3
AcDbVariableDictionary
350
C33F
  3
DWGPROPS
350
C34D
  0
DICTIONARY
  5
C32F
330
C0C6
100
AcDbDictionary
280
     1
281
     1
  3
ADSK_XREC_LAYER_RECONCILED
360
C330
  0
DICTIONARY
  5
C331
330
C0DC
100
AcDbDictionary
280
     1
281
     1
  3
ADSK_XREC_LAYER_RECONCILED
360
C332
  0
DICTIONARY
  5
C333
330
C0DD
100
AcDbDictionary
280
     1
281
     1
  3
ADSK_XREC_LAYER_RECONCILED
360
C334
  0
DICTIONARY
  5
C335
330
C0DE
100
AcDbDictionary
280
     1
281
     1
  3
ADSK_XREC_LAYER_RECONCILED
360
C336
  0
DICTIONARY
  5
C337
330
C0DF
100
AcDbDictionary
280
     1
281
     1
  3
ADSK_XREC_LAYER_RECONCILED
360
C338
  0
DICTIONARY
  5
C339
330
C0E0
100
AcDbDictionary
280
     1
281
     1
  3
ADSK_XREC_LAYER_RECONCILED
360
C33A
  0
DICTIONARY
  5
C33B
330
C0E1
100
AcDbDictionary
280
     1
281
     1
  3
ADSK_XREC_LAYER_RECONCILED
360
C33C
  0
DICTIONARY
  5
C33D
330
C0E2
100
AcDbDictionary
280
     1
281
     1
  3
ADSK_XREC_LAYER_RECONCILED
360
C33E
  0
DICTIONARY
  5
C2D7
330
C0D4
100
AcDbDictionary
281
     1
  3
ACAD_LAYOUTSELFREF
350
C2D8
  0
DICTIONARY
  5
C2D5
330
C0D0
100
AcDbDictionary
281
     1
  3
ACAD_LAYOUTSELFREF
350
C2D6
  0
XRECORD
  5
C32E
102
{ACAD_REACTORS
330
C0C2
102
}
330
C0C2
100
AcDbXrecord
280
     1
300
ACDLT
300
2014
300
ACDLT_F_S
  0
DICTIONARY
  5
C310
102
{ACAD_REACTORS
330
C0C2
102
}
330
C0C2
100
AcDbDictionary
281
     1
  0
DICTIONARY
  5
C329
102
{ACAD_REACTORS
330
C0C2
102
}
330
C0C2
100
AcDbDictionary
281
     1
  3
Imperial24
350
C32A
  0
DICTIONARY
  5
C0C3
102
{ACAD_REACTORS
330
C0C2
102
}
330
C0C2
100
AcDbDictionary
281
     1
  0
DICTIONARY
  5
C0CF
102
{ACAD_REACTORS
330
C0C2
102
}
330
C0C2
100
AcDbDictionary
281
     1
  3
Model
350
C32B
  3
レイアウト1
350
C32C
  0
DICTIONARY
  5
C2DE
102
{ACAD_REACTORS
330
C0C2
102
}
330
C0C2
100
AcDbDictionary
281
     1
  3
ByBlock
350
C2E7
  3
ByLayer
350
C2DF
  3
Global
350
C2EF
  0
DICTIONARY
  5
C325
102
{ACAD_REACTORS
330
C0C2
102
}
330
C0C2
100
AcDbDictionary
281
     1
  3
Standard
350
C326
  0
DICTIONARY
  5
C0CC
102
{ACAD_REACTORS
330
C0C2
102
}
330
C0C2
100
AcDbDictionary
281
     1
  3
STANDARD
350
C0CD
  0
DICTIONARY
  5
C0CE
102
{ACAD_REACTORS
330
C0C2
102
}
330
C0C2
100
AcDbDictionary
281
     1
  0
ACDBDICTIONARYWDFLT
  5
C2DC
102
{ACAD_REACTORS
330
C0C2
102
}
330
C0C2
100
AcDbDictionary
281
     1
  3
Normal
350
C2DD
100
AcDbDictionaryWithDefault
340
C2DD
  0
DICTIONARY
  5
C313
102
{ACAD_REACTORS
330
C0C2
102
}
330
C0C2
100
AcDbDictionary
281
     1
  3
A0
350
C314
  3
A1
350
C315
  3
A2
350
C316
  3
A3
350
C317
  3
A4
350
C318
  3
A5
350
C319
  3
A6
350
C31A
  3
A7
350
C31B
  3
A8
350
C31C
  3
A9
350
C31D
  3
B0
350
C31E
  3
B1
350
C31F
  3
B2
350
C320
  3
B3
350
C321
  3
B4
350
C322
  3
B5
350
C323
  3
B6
350
C324
  0
DICTIONARY
  5
C327
102
{ACAD_REACTORS
330
C0C2
102
}
330
C0C2
100
AcDbDictionary
281
     1
  3
Imperial24
350
C328
  0
DICTIONARY
  5
C311
102
{ACAD_REACTORS
330
C0C2
102
}
330
C0C2
100
AcDbDictionary
281
     1
  3
Standard
350
C312
  0
DICTIONARY
  5
C2F7
102
{ACAD_REACTORS
330
C0C2
102
}
330
C0C2
100
AcDbDictionary
281
     1
  3
2dWireframe
350
C2FD
  3
Basic
350
C2FC
  3
Brighten
350
C303
  3
ColorChange
350
C307
  3
Conceptual
350
C300
  3
Dim
350
C302
  3
EdgeColorOff
350
C30F
  3
Facepattern
350
C306
  3
Flat
350
C2F8
  3
FlatWithEdges
350
C2F9
  3
Gouraud
350
C2FA
  3
GouraudWithEdges
350
C2FB
  3
Hidden
350
C2FF
  3
JitterOff
350
C30D
  3
Linepattern
350
C305
  3
OverhangOff
350
C30E
  3
Realistic
350
C301
  3
Shaded
350
C30C
  3
Shaded with edges
350
C30B
  3
Shades of Gray
350
C308
  3
Sketchy
350
C309
  3
Thicken
350
C304
  3
Wireframe
350
C2FE
  3
X-Ray
350
C30A
  0
XRECORD
  5
C34C
102
{ACAD_REACTORS
330
C0C2
102
}
330
C0C2
100
AcDbXrecord
280
     1
 90
        1
330
C312
  0
DICTIONARY
  5
C33F
102
{ACAD_REACTORS
330
C0C2
102
}
330
C0C2
100
AcDbDictionary
281
     1
  3
CANNOSCALE
350
C344
  3
CMLEADERSTYLE
350
C341
  3
CTABLESTYLE
350
C340
  3
CVIEWDETAILSTYLE
350
C342
  3
CVIEWSECTIONSTYLE
350
C343
  3
DIMASSOC
350
C347
  3
INDEXCTL
350
C346
  3
SORTENTS
350
C345
  3
XCLIPFRAME
350
C348
  0
XRECORD
  5
C34D
102
{ACAD_REACTORS
330
C0C2
102
}
330
C0C2
100
AcDbXrecord
280
     1
  1
DWGPROPS COOKIE
  2

  3

  4

  6

  7

  8
Yoshitsune
  9

300
=
301
=
302
=
303
=
304
=
305
=
306
=
307
=
308
=
309
=
 40
0.0000100347222222
 41
2451296.795743866
 42
2457192.658328252
  1

 90
        0
  0
XRECORD
  5
C330
102
{ACAD_REACTORS
330
C32F
102
}
330
C32F
100
AcDbXrecord
280
     1
290
     1
  0
XRECORD
  5
C332
102
{ACAD_REACTORS
330
C331
102
}
330
C331
100
AcDbXrecord
280
     1
290
     1
  0
XRECORD
  5
C334
102
{ACAD_REACTORS
330
C333
102
}
330
C333
100
AcDbXrecord
280
     1
290
     1
  0
XRECORD
  5
C336
102
{ACAD_REACTORS
330
C335
102
}
330
C335
100
AcDbXrecord
280
     1
290
     1
  0
XRECORD
  5
C338
102
{ACAD_REACTORS
330
C337
102
}
330
C337
100
AcDbXrecord
280
     1
290
     1
  0
XRECORD
  5
C33A
102
{ACAD_REACTORS
330
C339
102
}
330
C339
100
AcDbXrecord
280
     1
290
     1
  0
XRECORD
  5
C33C
102
{ACAD_REACTORS
330
C33B
102
}
330
C33B
100
AcDbXrecord
280
     1
290
     1
  0
XRECORD
  5
C33E
102
{ACAD_REACTORS
330
C33D
102
}
330
C33D
100
AcDbXrecord
280
     1
290
     1
  0
XRECORD
  5
C2D8
102
{ACAD_REACTORS
330
C2D7
102
}
330
C2D7
100
AcDbXrecord
280
     1
340
C0D4
  0
XRECORD
  5
C2D6
102
{ACAD_REACTORS
330
C2D5
102
}
330
C2D5
100
AcDbXrecord
280
     1
340
C0D0
  0
ACDBDETAILVIEWSTYLE
  5
C32A
102
{ACAD_XDICTIONARY
360
C385
102
}
102
{ACAD_REACTORS
330
C329
102
}
330
C329
100
AcDbModelDocViewStyle
 70
     0
  3
Imperial24
290
     0
100
AcDbDetailViewStyle
 70
     0
 71
     0
 90
        3
 71
     1
340
C0C7
 40
0.24
340
0
 40
0.24
300

 40
0.36
280
     3
 71
     2
340
C0CB
 90
       25
 71
     3
340
C0C7
 40
0.24
 90
        1
 40
0.75
 90
        1
300
%<\AcVar ViewType \f "%tc1">% %<\AcVar ViewDetailId>%\PSCALE %<\AcVar ViewScale \f "%sn">%
 71
     4
340
C0CB
 90
       25
340
C0CB
 90
       25
280
     0
  0
LAYOUT
  5
C32B
102
{ACAD_XDICTIONARY
360
C387
102
}
102
{ACAD_REACTORS
330
C0CF
102
}
330
C0CF
100
AcDbPlotSettings
  1

  2
Canon LBP9100C
  4

  6

 40
0.0
 41
0.0
 42
0.0
 43
0.0
 44
0.0
 45
0.0
 46
0.0
 47
0.0
 48
0.0
 49
0.0
140
0.0
141
0.0
142
1.0
143
1.0
 70
  1712
 72
     0
 73
     0
 74
     0
  7

 75
     0
147
1.0
148
0.0
149
0.0
100
AcDbLayout
  1
Model
 70
     1
 71
     0
 10
0.0
 20
0.0
 11
12.0
 21
9.0
 12
0.0
 22
0.0
 32
0.0
 14
0.0
 24
0.0
 34
0.0
 15
0.0
 25
0.0
 35
0.0
146
0.0
 13
0.0
 23
0.0
 33
0.0
 16
1.0
 26
0.0
 36
0.0
 17
0.0
 27
1.0
 37
0.0
 76
     0
330
C0D4
331
C2D4
  0
LAYOUT
  5
C32C
102
{ACAD_XDICTIONARY
360
C389
102
}
102
{ACAD_REACTORS
330
C0CF
102
}
330
C0CF
100
AcDbPlotSettings
  1

  2
Canon LBP9100C
  4

  6

 40
0.0
 41
0.0
 42
0.0
 43
0.0
 44
0.0
 45
0.0
 46
0.0
 47
0.0
 48
0.0
 49
0.0
140
0.0
141
0.0
142
1.0
143
1.0
 70
   688
 72
     0
 73
     0
 74
     5
  7

 75
    16
147
1.0
148
0.0
149
0.0
100
AcDbLayout
  1
レイアウト1
 70
     0
 71
     1
 10
0.0
 20
0.0
 11
420.0
 21
297.0
 12
0.0
 22
0.0
 32
0.0
 14
1.000000000000000E+20
 24
1.000000000000000E+20
 34
1.000000000000000E+20
 15
-1.000000000000000E+20
 25
-1.000000000000000E+20
 35
-1.000000000000000E+20
146
0.0
 13
0.0
 23
0.0
 33
0.0
 16
1.0
 26
0.0
 36
0.0
 17
0.0
 27
1.0
 37
0.0
 76
     0
330
C0D0
  0
MATERIAL
  5
C2E7
102
{ACAD_XDICTIONARY
360
C2E8
102
}
102
{ACAD_REACTORS
330
C2DE
102
}
330
C2DE
100
AcDbMaterial
  1
ByBlock
 72
     0
 43
0.0208333333333333
 43
0.0
 43
0.0
 43
0.0
 43
0.0
 43
0.0208333333333333
 43
0.0
 43
0.0
 43
0.0
 43
0.0
 43
1.0
 43
0.0
 43
0.0
 43
0.0
 43
0.0
 43
1.0
 77
     0
 47
0.0208333333333333
 47
0.0
 47
0.0
 47
0.0
 47
0.0
 47
0.0208333333333333
 47
0.0
 47
0.0
 47
0.0
 47
0.0
 47
1.0
 47
0.0
 47
0.0
 47
0.0
 47
0.0
 47
1.0
171
     0
 49
0.0208333333333333
 49
0.0
 49
0.0
 49
0.0
 49
0.0
 49
0.0208333333333333
 49
0.0
 49
0.0
 49
0.0
 49
0.0
 49
1.0
 49
0.0
 49
0.0
 49
0.0
 49
0.0
 49
1.0
175
     0
142
0.0208333333333333
142
0.0
142
0.0
142
0.0
142
0.0
142
0.0208333333333333
142
0.0
142
0.0
142
0.0
142
0.0
142
1.0
142
0.0
142
0.0
142
0.0
142
0.0
142
1.0
179
     0
144
0.0208333333333333
144
0.0
144
0.0
144
0.0
144
0.0
144
0.0208333333333333
144
0.0
144
0.0
144
0.0
144
0.0
144
1.0
144
0.0
144
0.0
144
0.0
144
0.0
144
1.0
147
0.0208333333333333
147
0.0
147
0.0
147
0.0
147
0.0
147
0.0208333333333333
147
0.0
147
0.0
147
0.0
147
0.0
147
1.0
147
0.0
147
0.0
147
0.0
147
0.0
147
1.0
  0
MATERIAL
  5
C2DF
102
{ACAD_XDICTIONARY
360
C2E0
102
}
102
{ACAD_REACTORS
330
C2DE
102
}
330
C2DE
100
AcDbMaterial
  1
ByLayer
 72
     0
 43
0.0208333333333333
 43
0.0
 43
0.0
 43
0.0
 43
0.0
 43
0.0208333333333333
 43
0.0
 43
0.0
 43
0.0
 43
0.0
 43
1.0
 43
0.0
 43
0.0
 43
0.0
 43
0.0
 43
1.0
 77
     0
 47
0.0208333333333333
 47
0.0
 47
0.0
 47
0.0
 47
0.0
 47
0.0208333333333333
 47
0.0
 47
0.0
 47
0.0
 47
0.0
 47
1.0
 47
0.0
 47
0.0
 47
0.0
 47
0.0
 47
1.0
171
     0
 49
0.0208333333333333
 49
0.0
 49
0.0
 49
0.0
 49
0.0
 49
0.0208333333333333
 49
0.0
 49
0.0
 49
0.0
 49
0.0
 49
1.0
 49
0.0
 49
0.0
 49
0.0
 49
0.0
 49
1.0
175
     0
142
0.0208333333333333
142
0.0
142
0.0
142
0.0
142
0.0
142
0.0208333333333333
142
0.0
142
0.0
142
0.0
142
0.0
142
1.0
142
0.0
142
0.0
142
0.0
142
0.0
142
1.0
179
     0
144
0.0208333333333333
144
0.0
144
0.0
144
0.0
144
0.0
144
0.0208333333333333
144
0.0
144
0.0
144
0.0
144
0.0
144
1.0
144
0.0
144
0.0
144
0.0
144
0.0
144
1.0
147
0.0208333333333333
147
0.0
147
0.0
147
0.0
147
0.0
147
0.0208333333333333
147
0.0
147
0.0
147
0.0
147
0.0
147
1.0
147
0.0
147
0.0
147
0.0
147
0.0
147
1.0
  0
MATERIAL
  5
C2EF
102
{ACAD_XDICTIONARY
360
C2F0
102
}
102
{ACAD_REACTORS
330
C2DE
102
}
330
C2DE
100
AcDbMaterial
  1
Global
 72
     0
 43
0.0208333333333333
 43
0.0
 43
0.0
 43
0.0
 43
0.0
 43
0.0208333333333333
 43
0.0
 43
0.0
 43
0.0
 43
0.0
 43
1.0
 43
0.0
 43
0.0
 43
0.0
 43
0.0
 43
1.0
 77
     0
 47
0.0208333333333333
 47
0.0
 47
0.0
 47
0.0
 47
0.0
 47
0.0208333333333333
 47
0.0
 47
0.0
 47
0.0
 47
0.0
 47
1.0
 47
0.0
 47
0.0
 47
0.0
 47
0.0
 47
1.0
171
     0
 49
0.0208333333333333
 49
0.0
 49
0.0
 49
0.0
 49
0.0
 49
0.0208333333333333
 49
0.0
 49
0.0
 49
0.0
 49
0.0
 49
1.0
 49
0.0
 49
0.0
 49
0.0
 49
0.0
 49
1.0
175
     0
142
0.0208333333333333
142
0.0
142
0.0
142
0.0
142
0.0
142
0.0208333333333333
142
0.0
142
0.0
142
0.0
142
0.0
142
1.0
142
0.0
142
0.0
142
0.0
142
0.0
142
1.0
179
     0
144
0.0208333333333333
144
0.0
144
0.0
144
0.0
144
0.0
144
0.0208333333333333
144
0.0
144
0.0
144
0.0
144
0.0
144
1.0
144
0.0
144
0.0
144
0.0
144
0.0
144
1.0
147
0.0208333333333333
147
0.0
147
0.0
147
0.0
147
0.0
147
0.0208333333333333
147
0.0
147
0.0
147
0.0
147
0.0
147
1.0
147
0.0
147
0.0
147
0.0
147
0.0
147
1.0
  0
MLEADERSTYLE
  5
C326
102
{ACAD_REACTORS
330
C325
102
}
330
C325
100
AcDbMLeaderStyle
170
     2
171
     1
172
     0
 90
        2
 40
0.0
 41
0.0
173
     1
 91
-1056964608
340
C0C9
 92
       -2
290
     1
 42
0.09
291
     1
 43
0.36
  3
Standard
 44
0.18
300

342
C0C7
174
     1
178
     6
175
     1
176
     0
 93
-1056964608
 45
0.18
292
     0
297
     0
 46
0.18
 94
-1056964608
 47
1.0
 49
1.0
140
1.0
293
     1
141
0.0
294
     1
177
     0
142
1.0
295
     0
296
     0
143
0.125
1001
ACAD_MLEADERVER
1070
     2
  0
MLINESTYLE
  5
C0CD
102
{ACAD_REACTORS
330
C0CC
102
}
330
C0CC
100
AcDbMlineStyle
  2
STANDARD
 70
     0
  3

 62
   256
 51
90.0
 52
90.0
 71
     2
 49
0.5
 62
   256
  6
BYLAYER
 49
-0.5
 62
   256
  6
BYLAYER
  0
ACDBPLACEHOLDER
  5
C2DD
102
{ACAD_REACTORS
330
C2DC
102
}
330
C2DC
  0
SCALE
  5
C314
102
{ACAD_REACTORS
330
C313
102
}
330
C313
100
AcDbScale
 70
     0
300
1:1
140
1.0
141
1.0
290
     1
  0
SCALE
  5
C315
102
{ACAD_REACTORS
330
C313
102
}
330
C313
100
AcDbScale
 70
     0
300
1/128" = 1'-0"
140
0.0078125
141
12.0
290
     0
  0
SCALE
  5
C316
102
{ACAD_REACTORS
330
C313
102
}
330
C313
100
AcDbScale
 70
     0
300
1/64" = 1'-0"
140
0.015625
141
12.0
290
     0
  0
SCALE
  5
C317
102
{ACAD_REACTORS
330
C313
102
}
330
C313
100
AcDbScale
 70
     0
300
1/32" = 1'-0"
140
0.03125
141
12.0
290
     0
  0
SCALE
  5
C318
102
{ACAD_REACTORS
330
C313
102
}
330
C313
100
AcDbScale
 70
     0
300
1/16" = 1'-0"
140
0.0625
141
12.0
290
     0
  0
SCALE
  5
C319
102
{ACAD_REACTORS
330
C313
102
}
330
C313
100
AcDbScale
 70
     0
300
3/32" = 1'-0"
140
0.09375
141
12.0
290
     0
  0
SCALE
  5
C31A
102
{ACAD_REACTORS
330
C313
102
}
330
C313
100
AcDbScale
 70
     0
300
1/8" = 1'-0"
140
0.125
141
12.0
290
     0
  0
SCALE
  5
C31B
102
{ACAD_REACTORS
330
C313
102
}
330
C313
100
AcDbScale
 70
     0
300
3/16" = 1'-0"
140
0.1875
141
12.0
290
     0
  0
SCALE
  5
C31C
102
{ACAD_REACTORS
330
C313
102
}
330
C313
100
AcDbScale
 70
     0
300
1/4" = 1'-0"
140
0.25
141
12.0
290
     0
  0
SCALE
  5
C31D
102
{ACAD_REACTORS
330
C313
102
}
330
C313
100
AcDbScale
 70
     0
300
3/8" = 1'-0"
140
0.375
141
12.0
290
     0
  0
SCALE
  5
C31E
102
{ACAD_REACTORS
330
C313
102
}
330
C313
100
AcDbScale
 70
     0
300
1/2" = 1'-0"
140
0.5
141
12.0
290
     0
  0
SCALE
  5
C31F
102
{ACAD_REACTORS
330
C313
102
}
330
C313
100
AcDbScale
 70
     0
300
3/4" = 1'-0"
140
0.75
141
12.0
290
     0
  0
SCALE
  5
C320
102
{ACAD_REACTORS
330
C313
102
}
330
C313
100
AcDbScale
 70
     0
300
1" = 1'-0"
140
1.0
141
12.0
290
     0
  0
SCALE
  5
C321
102
{ACAD_REACTORS
330
C313
102
}
330
C313
100
AcDbScale
 70
     0
300
1-1/2" = 1'-0"
140
1.5
141
12.0
290
     0
  0
SCALE
  5
C322
102
{ACAD_REACTORS
330
C313
102
}
330
C313
100
AcDbScale
 70
     0
300
3" = 1'-0"
140
3.0
141
12.0
290
     0
  0
SCALE
  5
C323
102
{ACAD_REACTORS
330
C313
102
}
330
C313
100
AcDbScale
 70
     0
300
6" = 1'-0"
140
6.0
141
12.0
290
     0
  0
SCALE
  5
C324
102
{ACAD_REACTORS
330
C313
102
}
330
C313
100
AcDbScale
 70
     0
300
1'-0" = 1'-0"
140
12.0
141
12.0
290
     0
  0
ACDBSECTIONVIEWSTYLE
  5
C328
102
{ACAD_XDICTIONARY
360
C383
102
}
102
{ACAD_REACTORS
330
C327
102
}
330
C327
100
AcDbModelDocViewStyle
 70
     0
  3
Imperial24
290
     0
100
AcDbSectionViewStyle
 70
     0
 71
     0
 90
       78
 71
     1
340
C0C7
 40
0.24
340
0
340
0
 40
0.24
300
I, O, Q, S, X, Z
 40
0.48
 90
        3
 40
0.18
 90
        1
 71
     2
340
C0CB
 90
       25
340
C0CB
 90
       50
 40
0.24
 40
0.0
 40
0.24
 71
     3
340
C0C7
 40
0.24
 90
        1
 40
0.75
 90
        1
300
%<\AcVar ViewType \f "%tc1">% %<\AcVar ViewSectionStartId>%-%<\AcVar ViewSectionEndId>%\PSCALE %<\AcVar ViewScale \f "%sn">%
 71
     4
300
ANSI31
 40
1.0
 90
        0
290
     0
290
     0
 90
        6
 40
0.0
 40
1.570796326794896
 40
0.2617993877991494
 40
1.308996938995747
 40
-0.2617993877991494
 40
1.832595714594046
  0
TABLESTYLE
  5
C312
102
{ACAD_XDICTIONARY
360
C34A
102
}
102
{ACAD_REACTORS
330
C311
102
}
330
C311
100
AcDbTableStyle
  3
Standard
 70
     0
 71
     0
 40
0.06
 41
0.06
280
     0
281
     0
  7
STANDARD
140
0.18
170
     2
 62
     0
 63
     7
283
     0
274
    -2
284
     1
 64
     0
275
    -2
285
     1
 65
     0
276
    -2
286
     1
 66
     0
277
    -2
287
     1
 67
     0
278
    -2
288
     1
 68
     0
279
    -2
289
     1
 69
     0
  7
STANDARD
140
0.25
170
     5
 62
     0
 63
     7
283
     0
274
    -2
284
     1
 64
     0
275
    -2
285
     1
 65
     0
276
    -2
286
     1
 66
     0
277
    -2
287
     1
 67
     0
278
    -2
288
     1
 68
     0
279
    -2
289
     1
 69
     0
  7
STANDARD
140
0.18
170
     5
 62
     0
 63
     7
283
     0
274
    -2
284
     1
 64
     0
275
    -2
285
     1
 65
     0
276
    -2
286
     1
 66
     0
277
    -2
287
     1
 67
     0
278
    -2
288
     1
 68
     0
279
    -2
289
     1
 69
     0
  0
VISUALSTYLE
  5
C2FD
102
{ACAD_XDICTIONARY
360
C35B
102
}
102
{ACAD_REACTORS
330
C2F7
102
}
330
C2F7
100
AcDbVisualStyle
  2
2dWireframe
 70
     4
 71
     0
 72
     2
 73
     0
 90
        0
 40
-0.6
 41
-30.0
 62
     5
 63
     7
 74
     1
 91
        4
 64
     7
 65
   257
 75
     1
175
     1
 42
1.0
 92
        0
 66
   257
 43
1.0
 76
     1
 77
     6
 78
     2
 67
     7
 79
     5
170
     0
171
     0
290
     0
174
     0
 93
        1
 44
0.0
173
     0
291
     0
 45
0.0
1001
ACAD
1000
AcDbSavedByObjectVersion
1070
     0
  0
VISUALSTYLE
  5
C2FC
102
{ACAD_XDICTIONARY
360
C359
102
}
102
{ACAD_REACTORS
330
C2F7
102
}
330
C2F7
100
AcDbVisualStyle
  2
Basic
 70
     7
 71
     1
 72
     0
 73
     1
 90
        0
 40
-0.6
 41
-30.0
 62
     5
 63
     7
 74
     0
 91
        4
 64
     7
 65
   257
 75
     1
175
     1
 42
1.0
 92
        8
 66
     7
 43
1.0
 76
     1
 77
     6
 78
     2
 67
     7
 79
     5
170
     0
171
     0
290
     0
174
     0
 93
        1
 44
0.0
173
     0
291
     1
 45
0.0
1001
ACAD
1000
AcDbSavedByObjectVersion
1070
     0
  0
VISUALSTYLE
  5
C303
102
{ACAD_XDICTIONARY
360
C367
102
}
102
{ACAD_REACTORS
330
C2F7
102
}
330
C2F7
100
AcDbVisualStyle
  2
Brighten
 70
    12
 71
     2
 72
     2
 73
     0
 90
        0
 40
-0.6
 41
-30.0
 62
     5
 63
     7
 74
     1
 91
        4
 64
     7
 65
   257
 75
     1
175
     1
 42
1.0
 92
        8
 66
     7
 43
1.0
 76
     1
 77
     6
 78
     2
 67
     7
 79
     5
170
     0
171
     0
290
     0
174
     0
 93
        1
 44
50.0
173
     0
291
     1
 45
0.0
1001
ACAD
1000
AcDbSavedByObjectVersion
1070
     0
  0
VISUALSTYLE
  5
C307
102
{ACAD_XDICTIONARY
360
C36F
102
}
102
{ACAD_REACTORS
330
C2F7
102
}
330
C2F7
100
AcDbVisualStyle
  2
ColorChange
 70
    16
 71
     2
 72
     2
 73
     3
 90
        0
 40
-0.6
 41
-30.0
 62
     5
 63
     8
 74
     1
 91
        4
 64
     7
 65
   257
 75
     1
175
     1
 42
1.0
 92
        8
 66
     8
 43
1.0
 76
     1
 77
     6
 78
     2
 67
     7
 79
     5
170
     0
171
     0
290
     0
174
     0
 93
        1
 44
0.0
173
     0
291
     1
 45
0.0
1001
ACAD
1000
AcDbSavedByObjectVersion
1070
     0
  0
VISUALSTYLE
  5
C300
102
{ACAD_XDICTIONARY
360
C361
102
}
102
{ACAD_REACTORS
330
C2F7
102
}
330
C2F7
100
AcDbVisualStyle
  2
Conceptual
 70
     9
 71
     3
 72
     2
 73
     0
 90
        0
 40
-0.6
 41
-30.0
 62
     5
 63
     7
 74
     2
 91
        2
 64
     7
 65
   257
 75
     1
175
     1
 42
179.0
 92
        8
 66
     7
 43
1.0
 76
     1
 77
     6
 78
     2
 67
     7
 79
     3
170
     0
171
     0
290
     0
174
     0
 93
        1
 44
0.0
173
     0
291
     0
 45
0.0
1001
ACAD
1000
AcDbSavedByObjectVersion
1070
     0
  0
VISUALSTYLE
  5
C302
102
{ACAD_XDICTIONARY
360
C365
102
}
102
{ACAD_REACTORS
330
C2F7
102
}
330
C2F7
100
AcDbVisualStyle
  2
Dim
 70
    11
 71
     2
 72
     2
 73
     0
 90
        0
 40
-0.6
 41
-30.0
 62
     5
 63
     7
 74
     1
 91
        4
 64
     7
 65
   257
 75
     1
175
     1
 42
1.0
 92
        8
 66
     7
 43
1.0
 76
     1
 77
     6
 78
     2
 67
     7
 79
     5
170
     0
171
     0
290
     0
174
     0
 93
        1
 44
-50.0
173
     0
291
     1
 45
0.0
1001
ACAD
1000
AcDbSavedByObjectVersion
1070
     0
  0
VISUALSTYLE
  5
C30F
102
{ACAD_XDICTIONARY
360
C37F
102
}
102
{ACAD_REACTORS
330
C2F7
102
}
330
C2F7
100
AcDbVisualStyle
  2
EdgeColorOff
 70
    22
 71
     2
 72
     2
 73
     0
 90
        0
 40
-0.6
 41
-30.0
 62
     5
 63
     7
 74
     1
 91
        4
 64
     7
 65
   257
 75
     1
175
     1
 42
1.0
 92
        8
 66
     7
 43
1.0
 76
     1
 77
     6
 78
     2
 67
     7
 79
     5
170
     0
171
     0
290
     0
174
     0
 93
        1
 44
0.0
173
     0
291
     1
 45
0.0
1001
ACAD
1000
AcDbSavedByObjectVersion
1070
     0
  0
VISUALSTYLE
  5
C306
102
{ACAD_XDICTIONARY
360
C36D
102
}
102
{ACAD_REACTORS
330
C2F7
102
}
330
C2F7
100
AcDbVisualStyle
  2
Facepattern
 70
    15
 71
     2
 72
     2
 73
     0
 90
        0
 40
-0.6
 41
-30.0
 62
     5
 63
     7
 74
     1
 91
        4
 64
     7
 65
   257
 75
     1
175
     1
 42
1.0
 92
        8
 66
     7
 43
1.0
 76
     1
 77
     6
 78
     2
 67
     7
 79
     5
170
     0
171
     0
290
     0
174
     0
 93
        1
 44
0.0
173
     0
291
     1
 45
0.0
1001
ACAD
1000
AcDbSavedByObjectVersion
1070
     0
  0
VISUALSTYLE
  5
C2F8
102
{ACAD_XDICTIONARY
360
C351
102
}
102
{ACAD_REACTORS
330
C2F7
102
}
330
C2F7
100
AcDbVisualStyle
  2
Flat
 70
     0
 71
     2
 72
     1
 73
     1
 90
        2
 40
-0.6
 41
30.0
 62
     5
 63
     7
 74
     0
 91
        0
 64
     7
 65
   257
 75
     1
175
     1
 42
1.0
 92
        8
 66
     7
 43
1.0
 76
     1
 77
     6
 78
     2
 67
     7
 79
     5
170
     0
171
     0
290
     0
174
     0
 93
       13
 44
0.0
173
     0
291
     1
 45
0.0
1001
ACAD
1000
AcDbSavedByObjectVersion
1070
     0
  0
VISUALSTYLE
  5
C2F9
102
{ACAD_XDICTIONARY
360
C353
102
}
102
{ACAD_REACTORS
330
C2F7
102
}
330
C2F7
100
AcDbVisualStyle
  2
FlatWithEdges
 70
     1
 71
     2
 72
     1
 73
     1
 90
        2
 40
-0.6
 41
30.0
 62
     5
 63
     7
 74
     1
 91
        0
 64
     7
 65
   257
 75
     1
175
     1
 42
1.0
 92
        0
 66
   257
 43
1.0
 76
     1
 77
     6
 78
     2
 67
     7
 79
     5
170
     0
171
     0
290
     0
174
     0
 93
       13
 44
0.0
173
     0
291
     1
 45
0.0
1001
ACAD
1000
AcDbSavedByObjectVersion
1070
     0
  0
VISUALSTYLE
  5
C2FA
102
{ACAD_XDICTIONARY
360
C355
102
}
102
{ACAD_REACTORS
330
C2F7
102
}
330
C2F7
100
AcDbVisualStyle
  2
Gouraud
 70
     2
 71
     2
 72
     2
 73
     1
 90
        2
 40
-0.6
 41
30.0
 62
     5
 63
     7
 74
     0
 91
        0
 64
     7
 65
   257
 75
     1
175
     1
 42
1.0
 92
        0
 66
     7
 43
1.0
 76
     1
 77
     6
 78
     2
 67
     7
 79
     5
170
     0
171
     0
290
     0
174
     0
 93
       13
 44
0.0
173
     0
291
     1
 45
0.0
1001
ACAD
1000
AcDbSavedByObjectVersion
1070
     0
  0
VISUALSTYLE
  5
C2FB
102
{ACAD_XDICTIONARY
360
C357
102
}
102
{ACAD_REACTORS
330
C2F7
102
}
330
C2F7
100
AcDbVisualStyle
  2
GouraudWithEdges
 70
     3
 71
     2
 72
     2
 73
     1
 90
        2
 40
-0.6
 41
30.0
 62
     5
 63
     7
 74
     1
 91
        0
 64
     7
 65
   257
 75
     1
175
     1
 42
1.0
 92
        0
 66
   257
 43
1.0
 76
     1
 77
     6
 78
     2
 67
     7
 79
     5
170
     0
171
     0
290
     0
174
     0
 93
       13
 44
0.0
173
     0
291
     1
 45
0.0
1001
ACAD
1000
AcDbSavedByObjectVersion
1070
     0
  0
VISUALSTYLE
  5
C2FF
102
{ACAD_XDICTIONARY
360
C35F
102
}
102
{ACAD_REACTORS
330
C2F7
102
}
330
C2F7
100
AcDbVisualStyle
  2
Hidden
 70
     6
 71
     1
 72
     2
 73
     2
 90
        0
 40
-0.6
 41
-30.0
 62
     5
 63
     7
 74
     2
 91
        2
 64
     7
 65
   257
 75
     2
175
     1
 42
40.0
 92
        0
 66
   257
 43
1.0
 76
     1
 77
     6
 78
     2
 67
     7
 79
     3
170
     0
171
     0
290
     0
174
     0
 93
        1
 44
0.0
173
     0
291
     0
 45
0.0
1001
ACAD
1000
AcDbSavedByObjectVersion
1070
     0
  0
VISUALSTYLE
  5
C30D
102
{ACAD_XDICTIONARY
360
C37B
102
}
102
{ACAD_REACTORS
330
C2F7
102
}
330
C2F7
100
AcDbVisualStyle
  2
JitterOff
 70
    20
 71
     2
 72
     2
 73
     0
 90
        0
 40
-0.6
 41
-30.0
 62
     5
 63
     7
 74
     1
 91
        4
 64
     7
 65
   257
 75
     1
175
     1
 42
1.0
 92
       10
 66
     7
 43
1.0
 76
     1
 77
     6
 78
     2
 67
     7
 79
     5
170
     0
171
     0
290
     0
174
     0
 93
        1
 44
0.0
173
     0
291
     1
 45
0.0
1001
ACAD
1000
AcDbSavedByObjectVersion
1070
     0
  0
VISUALSTYLE
  5
C305
102
{ACAD_XDICTIONARY
360
C36B
102
}
102
{ACAD_REACTORS
330
C2F7
102
}
330
C2F7
100
AcDbVisualStyle
  2
Linepattern
 70
    14
 71
     2
 72
     2
 73
     0
 90
        0
 40
-0.6
 41
-30.0
 62
     5
 63
     7
 74
     1
 91
        4
 64
     7
 65
   257
 75
     7
175
     7
 42
1.0
 92
        8
 66
     7
 43
1.0
 76
     1
 77
     6
 78
     2
 67
     7
 79
     5
170
     0
171
     0
290
     0
174
     0
 93
        1
 44
0.0
173
     0
291
     1
 45
0.0
1001
ACAD
1000
AcDbSavedByObjectVersion
1070
     0
  0
VISUALSTYLE
  5
C30E
102
{ACAD_XDICTIONARY
360
C37D
102
}
102
{ACAD_REACTORS
330
C2F7
102
}
330
C2F7
100
AcDbVisualStyle
  2
OverhangOff
 70
    21
 71
     2
 72
     2
 73
     0
 90
        0
 40
-0.6
 41
-30.0
 62
     5
 63
     7
 74
     1
 91
        4
 64
     7
 65
   257
 75
     1
175
     1
 42
1.0
 92
        9
 66
     7
 43
1.0
 76
     1
 77
     6
 78
     2
 67
     7
 79
     5
170
     0
171
     0
290
     0
174
     0
 93
        1
 44
0.0
173
     0
291
     1
 45
0.0
1001
ACAD
1000
AcDbSavedByObjectVersion
1070
     0
  0
VISUALSTYLE
  5
C301
102
{ACAD_XDICTIONARY
360
C363
102
}
102
{ACAD_REACTORS
330
C2F7
102
}
330
C2F7
100
AcDbVisualStyle
  2
Realistic
 70
     8
 71
     2
 72
     3
 73
     0
 90
        2
 40
-0.6
 41
30.0
 62
     5
 63
     7
 74
     0
 91
        0
 64
     7
 65
   257
 75
     1
175
     1
 42
1.0
 92
        8
 66
   257
 43
1.0
 76
     1
 77
     6
 78
     2
 67
     7
 79
     3
170
     0
171
     0
290
     0
174
     0
 93
       13
 44
0.0
173
     0
291
     0
 45
0.0
1001
ACAD
1000
AcDbSavedByObjectVersion
1070
     0
  0
VISUALSTYLE
  5
C30C
102
{ACAD_XDICTIONARY
360
C379
102
}
102
{ACAD_REACTORS
330
C2F7
102
}
330
C2F7
100
AcDbVisualStyle
  2
Shaded
 70
    27
 71
     2
 72
     2
 73
     1
 90
        2
 40
-0.6
 41
30.0
 62
     5
 63
     7
 74
     0
 91
        4
 64
     7
 65
   257
 75
     1
175
     1
 42
1.0
 92
        8
 66
   257
 43
1.0
 76
     1
 77
     6
 78
     2
 67
     8
 79
     3
170
     0
171
     0
290
     0
174
     0
 93
        5
 44
0.0
173
     0
291
     0
 45
0.0
1001
ACAD
1000
AcDbSavedByObjectVersion
1070
     0
  0
VISUALSTYLE
  5
C30B
102
{ACAD_XDICTIONARY
360
C377
102
}
102
{ACAD_REACTORS
330
C2F7
102
}
330
C2F7
100
AcDbVisualStyle
  2
Shaded with edges
 70
    26
 71
     2
 72
     2
 73
     1
 90
        2
 40
-0.6
 41
30.0
 62
     5
 63
     7
 74
     1
 91
       10
 64
     7
 65
   257
 75
     2
175
     1
 42
1.0
 92
        8
 66
   257
 43
1.0
 76
     1
 77
     6
 78
     2
 67
     7
 79
     3
170
     0
171
     0
290
     0
174
     0
 93
        5
 44
0.0
173
     0
291
     0
 45
0.0
1001
ACAD
1000
AcDbSavedByObjectVersion
1070
     0
  0
VISUALSTYLE
  5
C308
102
{ACAD_XDICTIONARY
360
C371
102
}
102
{ACAD_REACTORS
330
C2F7
102
}
330
C2F7
100
AcDbVisualStyle
  2
Shades of Gray
 70
    23
 71
     2
 72
     2
 73
     3
 90
        0
 40
-0.6
 41
-30.0
 62
     5
 63
     7
 74
     2
 91
        2
 64
     7
 65
     7
 75
     1
175
     1
 42
40.0
 92
        8
 66
     7
 43
1.0
 76
     1
 77
     6
 78
     2
 67
     7
 79
     3
170
     0
171
     0
290
     0
174
     0
 93
        1
 44
0.0
173
     0
291
     0
 45
0.0
1001
ACAD
1000
AcDbSavedByObjectVersion
1070
     0
  0
VISUALSTYLE
  5
C309
102
{ACAD_XDICTIONARY
360
C373
102
}
102
{ACAD_REACTORS
330
C2F7
102
}
330
C2F7
100
AcDbVisualStyle
  2
Sketchy
 70
    24
 71
     1
 72
     2
 73
     2
 90
        0
 40
-0.6
 41
-30.0
 62
     5
 63
     7
 74
     2
 91
        2
 64
     7
 65
     7
 75
     1
175
     1
 42
40.0
 92
       11
 66
     7
 43
1.0
 76
     1
 77
     6
 78
     2
 67
     7
 79
     6
170
     0
171
     0
290
     0
174
     0
 93
        1
 44
0.0
173
     0
291
     0
 45
0.0
1001
ACAD
1000
AcDbSavedByObjectVersion
1070
     0
  0
VISUALSTYLE
  5
C304
102
{ACAD_XDICTIONARY
360
C369
102
}
102
{ACAD_REACTORS
330
C2F7
102
}
330
C2F7
100
AcDbVisualStyle
  2
Thicken
 70
    13
 71
     2
 72
     2
 73
     0
 90
        0
 40
-0.6
 41
-30.0
 62
     5
 63
     7
 74
     1
 91
        4
 64
     7
 65
   257
 75
     1
175
     1
 42
1.0
 92
       12
 66
     7
 43
1.0
 76
     1
 77
     6
 78
     2
 67
     7
 79
     5
170
     0
171
     0
290
     0
174
     0
 93
        1
 44
0.0
173
     0
291
     1
 45
0.0
1001
ACAD
1000
AcDbSavedByObjectVersion
1070
     0
  0
VISUALSTYLE
  5
C2FE
102
{ACAD_XDICTIONARY
360
C35D
102
}
102
{ACAD_REACTORS
330
C2F7
102
}
330
C2F7
100
AcDbVisualStyle
  2
Wireframe
 70
     5
 71
     0
 72
     2
 73
     0
 90
        0
 40
-0.6
 41
-30.0
 62
     5
 63
     7
 74
     1
 91
        4
 64
     7
 65
   257
 75
     1
175
     1
 42
1.0
 92
        0
 66
   257
 43
1.0
 76
     1
 77
     6
 78
     2
 67
     7
 79
     3
170
     0
171
     0
290
     0
174
     0
 93
        1
 44
0.0
173
     0
291
     0
 45
0.0
1001
ACAD
1000
AcDbSavedByObjectVersion
1070
     0
  0
VISUALSTYLE
  5
C30A
102
{ACAD_XDICTIONARY
360
C375
102
}
102
{ACAD_REACTORS
330
C2F7
102
}
330
C2F7
100
AcDbVisualStyle
  2
X-Ray
 70
    25
 71
     2
 72
     2
 73
     1
 90
        1
 40
0.5
 41
-30.0
 62
     5
 63
     7
 74
     1
 91
        0
 64
     7
 65
   257
 75
     1
175
     1
 42
1.0
 92
        8
 66
     7
 43
1.0
 76
     1
 77
     6
 78
     2
 67
     7
 79
     3
170
     0
171
     0
290
     0
174
     0
 93
       13
 44
0.0
173
     0
291
     0
 45
0.0
1001
ACAD
1000
AcDbSavedByObjectVersion
1070
     0
  0
DICTIONARYVAR
  5
C344
102
{ACAD_REACTORS
330
C33F
102
}
330
C33F
100
DictionaryVariables
280
     0
  1
1:1
  0
DICTIONARYVAR
  5
C341
102
{ACAD_REACTORS
330
C33F
102
}
330
C33F
100
DictionaryVariables
280
     0
  1
STANDARD
  0
DICTIONARYVAR
  5
C340
102
{ACAD_REACTORS
330
C33F
102
}
330
C33F
100
DictionaryVariables
280
     0
  1
STANDARD
  0
DICTIONARYVAR
  5
C342
102
{ACAD_REACTORS
330
C33F
102
}
330
C33F
100
DictionaryVariables
280
     0
  1
Imperial24
  0
DICTIONARYVAR
  5
C343
102
{ACAD_REACTORS
330
C33F
102
}
330
C33F
100
DictionaryVariables
280
     0
  1
Imperial24
  0
DICTIONARYVAR
  5
C347
102
{ACAD_REACTORS
330
C33F
102
}
330
C33F
100
DictionaryVariables
280
     0
  1
1
  0
DICTIONARYVAR
  5
C346
102
{ACAD_REACTORS
330
C33F
102
}
330
C33F
100
DictionaryVariables
280
     0
  1
0
  0
DICTIONARYVAR
  5
C345
102
{ACAD_REACTORS
330
C33F
102
}
330
C33F
100
DictionaryVariables
280
     0
  1
127
  0
DICTIONARYVAR
  5
C348
102
{ACAD_REACTORS
330
C33F
102
}
330
C33F
100
DictionaryVariables
280
     0
  1
2
  0
DICTIONARY
  5
C385
330
C32A
100
AcDbDictionary
280
     1
281
     1
  3
ACAD_XREC_ROUNDTRIP
360
C386
  0
DICTIONARY
  5
C387
330
C32B
100
AcDbDictionary
280
     1
281
     1
  3
ACAD_XREC_ROUNDTRIP
360
C388
  0
DICTIONARY
  5
C389
330
C32C
100
AcDbDictionary
280
     1
281
     1
  3
ACAD_XREC_ROUNDTRIP
360
C38A
  0
DICTIONARY
  5
C2E8
330
C2E7
100
AcDbDictionary
280
     1
281
     1
  3
ACAD_XREC_ROUNDTRIP
360
C34F
  3
BUMPTILE
360
C2EA
  3
DIFFUSETILE
360
C2E9
  3
OPACITYTILE
360
C2ED
  3
REFLECTIONTILE
360
C2EC
  3
REFRACTIONTILE
360
C2EE
  3
SPECULARTILE
360
C2EB
  0
DICTIONARY
  5
C2E0
330
C2DF
100
AcDbDictionary
280
     1
281
     1
  3
ACAD_XREC_ROUNDTRIP
360
C34E
  3
BUMPTILE
360
C2E2
  3
DIFFUSETILE
360
C2E1
  3
OPACITYTILE
360
C2E5
  3
REFLECTIONTILE
360
C2E4
  3
REFRACTIONTILE
360
C2E6
  3
SPECULARTILE
360
C2E3
  0
DICTIONARY
  5
C2F0
330
C2EF
100
AcDbDictionary
280
     1
281
     1
  3
ACAD_XREC_ROUNDTRIP
360
C350
  3
BUMPTILE
360
C2F2
  3
DIFFUSETILE
360
C2F1
  3
OPACITYTILE
360
C2F5
  3
REFLECTIONTILE
360
C2F4
  3
REFRACTIONTILE
360
C2F6
  3
SPECULARTILE
360
C2F3
  0
DICTIONARY
  5
C383
330
C328
100
AcDbDictionary
280
     1
281
     1
  3
ACAD_XREC_ROUNDTRIP
360
C384
  0
DICTIONARY
  5
C34A
330
C312
100
AcDbDictionary
280
     1
281
     1
  3
ACAD_ROUNDTRIP_2008_TABLESTYLE_CELLSTYLEMAP
360
C34B
  3
ACAD_XREC_ROUNDTRIP
360
C381
  0
DICTIONARY
  5
C35B
330
C2FD
100
AcDbDictionary
280
     1
281
     1
  3
ACAD_XREC_ROUNDTRIP
360
C35C
  0
DICTIONARY
  5
C359
330
C2FC
100
AcDbDictionary
280
     1
281
     1
  3
ACAD_XREC_ROUNDTRIP
360
C35A
  0
DICTIONARY
  5
C367
330
C303
100
AcDbDictionary
280
     1
281
     1
  3
ACAD_XREC_ROUNDTRIP
360
C368
  0
DICTIONARY
  5
C36F
330
C307
100
AcDbDictionary
280
     1
281
     1
  3
ACAD_XREC_ROUNDTRIP
360
C370
  0
DICTIONARY
  5
C361
330
C300
100
AcDbDictionary
280
     1
281
     1
  3
ACAD_XREC_ROUNDTRIP
360
C362
  0
DICTIONARY
  5
C365
330
C302
100
AcDbDictionary
280
     1
281
     1
  3
ACAD_XREC_ROUNDTRIP
360
C366
  0
DICTIONARY
  5
C37F
330
C30F
100
AcDbDictionary
280
     1
281
     1
  3
ACAD_XREC_ROUNDTRIP
360
C380
  0
DICTIONARY
  5
C36D
330
C306
100
AcDbDictionary
280
     1
281
     1
  3
ACAD_XREC_ROUNDTRIP
360
C36E
  0
DICTIONARY
  5
C351
330
C2F8
100
AcDbDictionary
280
     1
281
     1
  3
ACAD_XREC_ROUNDTRIP
360
C352
  0
DICTIONARY
  5
C353
330
C2F9
100
AcDbDictionary
280
     1
281
     1
  3
ACAD_XREC_ROUNDTRIP
360
C354
  0
DICTIONARY
  5
C355
330
C2FA
100
AcDbDictionary
280
     1
281
     1
  3
ACAD_XREC_ROUNDTRIP
360
C356
  0
DICTIONARY
  5
C357
330
C2FB
100
AcDbDictionary
280
     1
281
     1
  3
ACAD_XREC_ROUNDTRIP
360
C358
  0
DICTIONARY
  5
C35F
330
C2FF
100
AcDbDictionary
280
     1
281
     1
  3
ACAD_XREC_ROUNDTRIP
360
C360
  0
DICTIONARY
  5
C37B
330
C30D
100
AcDbDictionary
280
     1
281
     1
  3
ACAD_XREC_ROUNDTRIP
360
C37C
  0
DICTIONARY
  5
C36B
330
C305
100
AcDbDictionary
280
     1
281
     1
  3
ACAD_XREC_ROUNDTRIP
360
C36C
  0
DICTIONARY
  5
C37D
330
C30E
100
AcDbDictionary
280
     1
281
     1
  3
ACAD_XREC_ROUNDTRIP
360
C37E
  0
DICTIONARY
  5
C363
330
C301
100
AcDbDictionary
280
     1
281
     1
  3
ACAD_XREC_ROUNDTRIP
360
C364
  0
DICTIONARY
  5
C379
330
C30C
100
AcDbDictionary
280
     1
281
     1
  3
ACAD_XREC_ROUNDTRIP
360
C37A
  0
DICTIONARY
  5
C377
330
C30B
100
AcDbDictionary
280
     1
281
     1
  3
ACAD_XREC_ROUNDTRIP
360
C378
  0
DICTIONARY
  5
C371
330
C308
100
AcDbDictionary
280
     1
281
     1
  3
ACAD_XREC_ROUNDTRIP
360
C372
  0
DICTIONARY
  5
C373
330
C309
100
AcDbDictionary
280
     1
281
     1
  3
ACAD_XREC_ROUNDTRIP
360
C374
  0
DICTIONARY
  5
C369
330
C304
100
AcDbDictionary
280
     1
281
     1
  3
ACAD_XREC_ROUNDTRIP
360
C36A
  0
DICTIONARY
  5
C35D
330
C2FE
100
AcDbDictionary
280
     1
281
     1
  3
ACAD_XREC_ROUNDTRIP
360
C35E
  0
DICTIONARY
  5
C375
330
C30A
100
AcDbDictionary
280
     1
281
     1
  3
ACAD_XREC_ROUNDTRIP
360
C376
  0
XRECORD
  5
C386
102
{ACAD_REACTORS
330
C385
102
}
330
C385
100
AcDbXrecord
280
     1
102
DISPLAYNAME
  1
Imperial24
102
FLAGS
 90
        0
  0
XRECORD
  5
C388
102
{ACAD_REACTORS
330
C387
102
}
330
C387
100
AcDbXrecord
280
     1
102
SHADEPLOT
 70
     0
102
SHADEPLOTRESLEVEL
 70
     2
102
SHADEPLOTCUSTOMDPI
 70
   300
  0
XRECORD
  5
C38A
102
{ACAD_REACTORS
330
C389
102
}
330
C389
100
AcDbXrecord
280
     1
102
SHADEPLOT
 70
     0
102
SHADEPLOTRESLEVEL
 70
     2
102
SHADEPLOTCUSTOMDPI
 70
   300
  0
XRECORD
  5
C34F
102
{ACAD_REACTORS
330
C2E8
102
}
330
C2E8
100
AcDbXrecord
280
     1
102
MATERIAL
148
0.0
149
0.0
149
0.0
 93
        0
 94
      127
282
     0
 72
     0
 77
     0
171
     0
175
     0
179
     0
273
     0
  0
XRECORD
  5
C2EA
102
{ACAD_REACTORS
330
C2E8
102
}
330
C2E8
100
AcDbXrecord
280
     1
270
     1
271
     1
  0
XRECORD
  5
C2E9
102
{ACAD_REACTORS
330
C2E8
102
}
330
C2E8
100
AcDbXrecord
280
     1
270
     1
271
     1
  0
XRECORD
  5
C2ED
102
{ACAD_REACTORS
330
C2E8
102
}
330
C2E8
100
AcDbXrecord
280
     1
270
     1
271
     1
  0
XRECORD
  5
C2EC
102
{ACAD_REACTORS
330
C2E8
102
}
330
C2E8
100
AcDbXrecord
280
     1
270
     1
271
     1
  0
XRECORD
  5
C2EE
102
{ACAD_REACTORS
330
C2E8
102
}
330
C2E8
100
AcDbXrecord
280
     1
270
     1
271
     1
  0
XRECORD
  5
C2EB
102
{ACAD_REACTORS
330
C2E8
102
}
330
C2E8
100
AcDbXrecord
280
     1
270
     1
271
     1
  0
XRECORD
  5
C34E
102
{ACAD_REACTORS
330
C2E0
102
}
330
C2E0
100
AcDbXrecord
280
     1
102
MATERIAL
148
0.0
149
0.0
149
0.0
 93
        0
 94
      127
282
     0
 72
     0
 77
     0
171
     0
175
     0
179
     0
273
     0
  0
XRECORD
  5
C2E2
102
{ACAD_REACTORS
330
C2E0
102
}
330
C2E0
100
AcDbXrecord
280
     1
270
     1
271
     1
  0
XRECORD
  5
C2E1
102
{ACAD_REACTORS
330
C2E0
102
}
330
C2E0
100
AcDbXrecord
280
     1
270
     1
271
     1
  0
XRECORD
  5
C2E5
102
{ACAD_REACTORS
330
C2E0
102
}
330
C2E0
100
AcDbXrecord
280
     1
270
     1
271
     1
  0
XRECORD
  5
C2E4
102
{ACAD_REACTORS
330
C2E0
102
}
330
C2E0
100
AcDbXrecord
280
     1
270
     1
271
     1
  0
XRECORD
  5
C2E6
102
{ACAD_REACTORS
330
C2E0
102
}
330
C2E0
100
AcDbXrecord
280
     1
270
     1
271
     1
  0
XRECORD
  5
C2E3
102
{ACAD_REACTORS
330
C2E0
102
}
330
C2E0
100
AcDbXrecord
280
     1
270
     1
271
     1
  0
XRECORD
  5
C350
102
{ACAD_REACTORS
330
C2F0
102
}
330
C2F0
100
AcDbXrecord
280
     1
102
MATERIAL
148
0.0
149
0.0
149
0.0
 93
        0
 94
      127
282
     0
 72
     0
 77
     0
171
     0
175
     0
179
     0
273
     0
  0
XRECORD
  5
C2F2
102
{ACAD_REACTORS
330
C2F0
102
}
330
C2F0
100
AcDbXrecord
280
     1
270
     1
271
     1
  0
XRECORD
  5
C2F1
102
{ACAD_REACTORS
330
C2F0
102
}
330
C2F0
100
AcDbXrecord
280
     1
270
     1
271
     1
  0
XRECORD
  5
C2F5
102
{ACAD_REACTORS
330
C2F0
102
}
330
C2F0
100
AcDbXrecord
280
     1
270
     1
271
     1
  0
XRECORD
  5
C2F4
102
{ACAD_REACTORS
330
C2F0
102
}
330
C2F0
100
AcDbXrecord
280
     1
270
     1
271
     1
  0
XRECORD
  5
C2F6
102
{ACAD_REACTORS
330
C2F0
102
}
330
C2F0
100
AcDbXrecord
280
     1
270
     1
271
     1
  0
XRECORD
  5
C2F3
102
{ACAD_REACTORS
330
C2F0
102
}
330
C2F0
100
AcDbXrecord
280
     1
270
     1
271
     1
  0
XRECORD
  5
C384
102
{ACAD_REACTORS
330
C383
102
}
330
C383
100
AcDbXrecord
280
     1
102
DISPLAYNAME
  1
Imperial24
102
FLAGS
 90
        0
  0
CELLSTYLEMAP
  5
C34B
102
{ACAD_REACTORS
330
C34A
102
}
330
C34A
100
AcDbCellStyleMap
 90
        3
300
CELLSTYLE
  1
TABLEFORMAT_BEGIN
 90
        5
170
     1
 91
        0
 92
    32768
 62
   257
 93
        1
300
CONTENTFORMAT
  1
CONTENTFORMAT_BEGIN
 90
        0
 91
        0
 92
      512
 93
        0
300

 40
0.0
140
1.0
 94
        5
 62
     0
340
C0C7
144
0.25
309
CONTENTFORMAT_END
171
     0
 94
        0
309
TABLEFORMAT_END
  1
CELLSTYLE_BEGIN
 90
        1
 91
        1
300
_TITLE
309
CELLSTYLE_END
300
CELLSTYLE
  1
TABLEFORMAT_BEGIN
 90
        5
170
     1
 91
        0
 92
        0
 62
   257
 93
        1
300
CONTENTFORMAT
  1
CONTENTFORMAT_BEGIN
 90
        0
 91
        0
 92
      512
 93
        0
300

 40
0.0
140
1.0
 94
        5
 62
     0
340
C0C7
144
0.18
309
CONTENTFORMAT_END
171
     0
 94
        0
309
TABLEFORMAT_END
  1
CELLSTYLE_BEGIN
 90
        2
 91
        1
300
_HEADER
309
CELLSTYLE_END
300
CELLSTYLE
  1
TABLEFORMAT_BEGIN
 90
        5
170
     1
 91
        0
 92
        0
 62
   257
 93
        1
300
CONTENTFORMAT
  1
CONTENTFORMAT_BEGIN
 90
        0
 91
        0
 92
      512
 93
        0
300

 40
0.0
140
1.0
 94
        2
 62
     0
340
C0C7
144
0.18
309
CONTENTFORMAT_END
171
     0
 94
        0
309
TABLEFORMAT_END
  1
CELLSTYLE_BEGIN
 90
        3
 91
        2
300
_DATA
309
CELLSTYLE_END
  0
XRECORD
  5
C381
102
{ACAD_REACTORS
330
C34A
102
}
330
C34A
100
AcDbXrecord
280
     1
102
ACAD_ROUNDTRIP_PRE2007_TABLESTYLE
 90
      512
 91
        0
  1

 92
      512
 93
        0
  2

 94
      512
 95
        0
  3

  0
XRECORD
  5
C35C
102
{ACAD_REACTORS
330
C35B
102
}
330
C35B
100
AcDbXrecord
280
     1
102
RTVSPost2010Prop28
280
     1
102
RTVSPost2010PropOp28
 70
     1
102
RTVSPost2010Prop29
280
     1
102
RTVSPost2010PropOp29
 70
     1
102
RTVSPost2010Prop30
280
     0
102
RTVSPost2010PropOp30
 70
     1
102
RTVSPost2010Prop31
280
     0
102
RTVSPost2010PropOp31
 70
     1
102
RTVSPost2010Prop32
280
     0
102
RTVSPost2010PropOp32
 70
     1
102
RTVSPost2010Prop33
280
     0
102
RTVSPost2010PropOp33
 70
     1
102
RTVSPost2010Prop34
280
     0
102
RTVSPost2010PropOp34
 70
     1
102
RTVSPost2010Prop35
280
     0
102
RTVSPost2010PropOp35
 70
     1
102
RTVSPost2010Prop36
280
     0
102
RTVSPost2010PropOp36
 70
     1
102
RTVSPost2010Prop37
 90
       50
102
RTVSPost2010PropOp37
 70
     1
102
RTVSPost2010Prop38
140
0.0
102
RTVSPost2010PropOp38
 70
     1
102
RTVSPost2010Prop39
140
1.0
102
RTVSPost2010PropOp39
 70
     1
102
RTVSPost2010Prop40
 90
        0
102
RTVSPost2010PropOp40
 70
     1
102
RTVSPost2010Prop41ColorIndex
 90
       18
102
RTVSPost2010Prop41ColorRGB
 90
        0
102
RTVSPost2010PropOp41
 70
     1
102
RTVSPost2010Prop42
 90
       50
102
RTVSPost2010PropOp42
 70
     1
102
RTVSPost2010Prop43
 90
        3
102
RTVSPost2010PropOp43
 70
     1
102
RTVSPost2010Prop44ColorIndex
 90
        5
102
RTVSPost2010Prop44ColorRGB
 90
      255
102
RTVSPost2010PropOp44
 70
     1
102
RTVSPost2010Prop45
280
     0
102
RTVSPost2010PropOp45
 70
     1
102
RTVSPost2010Prop46
 90
       50
102
RTVSPost2010PropOp46
 70
     1
102
RTVSPost2010Prop47
 90
       50
102
RTVSPost2010PropOp47
 70
     1
102
RTVSPost2010Prop48
 90
       50
102
RTVSPost2010PropOp48
 70
     1
102
RTVSPost2010Prop49
280
     0
102
RTVSPost2010PropOp49
 70
     1
102
RTVSPost2010Prop50
 90
       50
102
RTVSPost2010PropOp50
 70
     1
102
RTVSPost2010Prop51ColorIndex
 90
      256
102
RTVSPost2010Prop51ColorRGB
 90
-16777216
102
RTVSPost2010PropOp51
 70
     0
102
RTVSPost2010Prop52
140
1.0
102
RTVSPost2010PropOp52
 70
     0
102
RTVSPost2010Prop53
 90
        2
102
RTVSPost2010PropOp53
 70
     1
102
RTVSPost2010Prop54
  1
strokes_ogs.tif
102
RTVSPost2010PropOp54
 70
     1
102
RTVSPost2010Prop55
280
     0
102
RTVSPost2010PropOp55
 70
     1
102
RTVSPost2010Prop56
140
1.0
102
RTVSPost2010PropOp56
 70
     1
102
RTVSPost2010Prop57
140
1.0
102
RTVSPost2010PropOp57
 70
     1
102
RTVSPropertyOp0
 70
     1
102
RTVSPropertyOp1
 70
     1
102
RTVSPropertyOp2
 70
     1
102
RTVSPropertyOp3
 70
     1
102
RTVSPropertyOp4
 70
     1
102
RTVSPropertyOp5
 70
     1
102
RTVSPropertyOp6
 70
     1
102
RTVSPropertyOp7
 70
     1
102
RTVSPropertyOp8
 70
     1
102
RTVSPropertyOp9
 70
     1
102
RTVSPropertyOp10
 70
     1
102
RTVSPropertyOp11
 70
     1
102
RTVSPropertyOp12
 70
     1
102
RTVSPropertyOp13
 70
     1
102
RTVSPropertyOp14
 70
     1
102
RTVSPropertyOp15
 70
     1
102
RTVSPropertyOp16
 70
     1
102
RTVSPropertyOp17
 70
     1
102
RTVSPropertyOp18
 70
     1
102
RTVSPropertyOp19
 70
     1
102
RTVSPropertyOp20
 70
     1
102
RTVSPropertyOp21
 70
     1
102
RTVSPropertyOp22
 70
     1
102
RTVSPropertyOp23
 70
     1
102
RTVSPropertyOp24
 70
     1
102
RTVSPropertyOp25
 70
     1
102
RTVSPropertyOp26
 70
     1
102
RTVSPropertyOp27
 70
     1
102
RTVSPropertyOp28
 70
     1
102
RTVSPropertyOp29
 70
     1
102
RTVSPropertyOp30
 70
     1
102
RTVSPropertyOp31
 70
     1
102
RTVSPropertyOp32
 70
     1
102
RTVSPropertyOp33
 70
     1
102
RTVSPropertyOp34
 70
     1
102
RTVSPropertyOp35
 70
     1
102
RTVSPropertyOp36
 70
     1
102
RTVSPropertyOp37
 70
     1
102
RTVSPropertyOp38
 70
     1
102
RTVSPropertyOp39
 70
     1
102
RTVSPropertyOp40
 70
     1
102
RTVSPropertyOp41
 70
     1
102
RTVSPropertyOp42
 70
     1
102
RTVSPropertyOp43
 70
     1
102
RTVSPropertyOp44
 70
     1
102
RTVSPropertyOp45
 70
     1
102
RTVSPropertyOp46
 70
     1
102
RTVSPropertyOp47
 70
     1
102
RTVSPropertyOp48
 70
     1
102
RTVSPropertyOp49
 70
     1
102
RTVSPropertyOp50
 70
     1
102
RTVSPropertyOp51
 70
     0
102
RTVSPropertyOp52
 70
     0
102
RTVSPropertyOp53
 70
     1
102
RTVSPropertyOp54
 70
     1
102
RTVSPropertyOp55
 70
     1
102
RTVSPropertyOp56
 70
     1
102
RTVSPropertyOp57
 70
     1
102
RTVSPropertyOp58
 70
     1
102
RTVSPropertyOp59
 70
     1
102
RTVSPropertyOp60
 70
     1
102
RTVSPropertyOp61
 70
     1
102
RTVSPropertyOp62
 70
     1
  0
XRECORD
  5
C35A
102
{ACAD_REACTORS
330
C359
102
}
330
C359
100
AcDbXrecord
280
     1
102
RTVSPost2010Prop28
280
     0
102
RTVSPost2010PropOp28
 70
     1
102
RTVSPost2010Prop29
280
     1
102
RTVSPost2010PropOp29
 70
     1
102
RTVSPost2010Prop30
280
     1
102
RTVSPost2010PropOp30
 70
     1
102
RTVSPost2010Prop31
280
     0
102
RTVSPost2010PropOp31
 70
     1
102
RTVSPost2010Prop32
280
     0
102
RTVSPost2010PropOp32
 70
     1
102
RTVSPost2010Prop33
280
     0
102
RTVSPost2010PropOp33
 70
     1
102
RTVSPost2010Prop34
280
     0
102
RTVSPost2010PropOp34
 70
     1
102
RTVSPost2010Prop35
280
     0
102
RTVSPost2010PropOp35
 70
     1
102
RTVSPost2010Prop36
280
     0
102
RTVSPost2010PropOp36
 70
     1
102
RTVSPost2010Prop37
 90
       50
102
RTVSPost2010PropOp37
 70
     1
102
RTVSPost2010Prop38
140
0.0
102
RTVSPost2010PropOp38
 70
     1
102
RTVSPost2010Prop39
140
1.0
102
RTVSPost2010PropOp39
 70
     1
102
RTVSPost2010Prop40
 90
        0
102
RTVSPost2010PropOp40
 70
     1
102
RTVSPost2010Prop41ColorIndex
 90
       18
102
RTVSPost2010Prop41ColorRGB
 90
        0
102
RTVSPost2010PropOp41
 70
     1
102
RTVSPost2010Prop42
 90
       50
102
RTVSPost2010PropOp42
 70
     1
102
RTVSPost2010Prop43
 90
        3
102
RTVSPost2010PropOp43
 70
     1
102
RTVSPost2010Prop44ColorIndex
 90
        5
102
RTVSPost2010Prop44ColorRGB
 90
      255
102
RTVSPost2010PropOp44
 70
     1
102
RTVSPost2010Prop45
280
     0
102
RTVSPost2010PropOp45
 70
     1
102
RTVSPost2010Prop46
 90
       50
102
RTVSPost2010PropOp46
 70
     1
102
RTVSPost2010Prop47
 90
       50
102
RTVSPost2010PropOp47
 70
     1
102
RTVSPost2010Prop48
 90
       50
102
RTVSPost2010PropOp48
 70
     1
102
RTVSPost2010Prop49
280
     0
102
RTVSPost2010PropOp49
 70
     1
102
RTVSPost2010Prop50
 90
       50
102
RTVSPost2010PropOp50
 70
     1
102
RTVSPost2010Prop51ColorIndex
 90
      256
102
RTVSPost2010Prop51ColorRGB
 90
-16777216
102
RTVSPost2010PropOp51
 70
     0
102
RTVSPost2010Prop52
140
1.0
102
RTVSPost2010PropOp52
 70
     0
102
RTVSPost2010Prop53
 90
        2
102
RTVSPost2010PropOp53
 70
     1
102
RTVSPost2010Prop54
  1
strokes_ogs.tif
102
RTVSPost2010PropOp54
 70
     1
102
RTVSPost2010Prop55
280
     0
102
RTVSPost2010PropOp55
 70
     1
102
RTVSPost2010Prop56
140
1.0
102
RTVSPost2010PropOp56
 70
     1
102
RTVSPost2010Prop57
140
1.0
102
RTVSPost2010PropOp57
 70
     1
102
RTVSPropertyOp0
 70
     1
102
RTVSPropertyOp1
 70
     1
102
RTVSPropertyOp2
 70
     1
102
RTVSPropertyOp3
 70
     1
102
RTVSPropertyOp4
 70
     1
102
RTVSPropertyOp5
 70
     1
102
RTVSPropertyOp6
 70
     1
102
RTVSPropertyOp7
 70
     1
102
RTVSPropertyOp8
 70
     1
102
RTVSPropertyOp9
 70
     1
102
RTVSPropertyOp10
 70
     1
102
RTVSPropertyOp11
 70
     1
102
RTVSPropertyOp12
 70
     1
102
RTVSPropertyOp13
 70
     1
102
RTVSPropertyOp14
 70
     1
102
RTVSPropertyOp15
 70
     1
102
RTVSPropertyOp16
 70
     1
102
RTVSPropertyOp17
 70
     1
102
RTVSPropertyOp18
 70
     1
102
RTVSPropertyOp19
 70
     1
102
RTVSPropertyOp20
 70
     1
102
RTVSPropertyOp21
 70
     1
102
RTVSPropertyOp22
 70
     1
102
RTVSPropertyOp23
 70
     1
102
RTVSPropertyOp24
 70
     1
102
RTVSPropertyOp25
 70
     1
102
RTVSPropertyOp26
 70
     1
102
RTVSPropertyOp27
 70
     1
102
RTVSPropertyOp28
 70
     1
102
RTVSPropertyOp29
 70
     1
102
RTVSPropertyOp30
 70
     1
102
RTVSPropertyOp31
 70
     1
102
RTVSPropertyOp32
 70
     1
102
RTVSPropertyOp33
 70
     1
102
RTVSPropertyOp34
 70
     1
102
RTVSPropertyOp35
 70
     1
102
RTVSPropertyOp36
 70
     1
102
RTVSPropertyOp37
 70
     1
102
RTVSPropertyOp38
 70
     1
102
RTVSPropertyOp39
 70
     1
102
RTVSPropertyOp40
 70
     1
102
RTVSPropertyOp41
 70
     1
102
RTVSPropertyOp42
 70
     1
102
RTVSPropertyOp43
 70
     1
102
RTVSPropertyOp44
 70
     1
102
RTVSPropertyOp45
 70
     1
102
RTVSPropertyOp46
 70
     1
102
RTVSPropertyOp47
 70
     1
102
RTVSPropertyOp48
 70
     1
102
RTVSPropertyOp49
 70
     1
102
RTVSPropertyOp50
 70
     1
102
RTVSPropertyOp51
 70
     0
102
RTVSPropertyOp52
 70
     0
102
RTVSPropertyOp53
 70
     1
102
RTVSPropertyOp54
 70
     1
102
RTVSPropertyOp55
 70
     1
102
RTVSPropertyOp56
 70
     1
102
RTVSPropertyOp57
 70
     1
102
RTVSPropertyOp58
 70
     1
102
RTVSPropertyOp59
 70
     1
102
RTVSPropertyOp60
 70
     1
102
RTVSPropertyOp61
 70
     1
102
RTVSPropertyOp62
 70
     1
  0
XRECORD
  5
C368
102
{ACAD_REACTORS
330
C367
102
}
330
C367
100
AcDbXrecord
280
     1
102
RTVSPost2010Prop28
280
     0
102
RTVSPost2010PropOp28
 70
     1
102
RTVSPost2010Prop29
280
     1
102
RTVSPost2010PropOp29
 70
     1
102
RTVSPost2010Prop30
280
     1
102
RTVSPost2010PropOp30
 70
     1
102
RTVSPost2010Prop31
280
     0
102
RTVSPost2010PropOp31
 70
     1
102
RTVSPost2010Prop32
280
     0
102
RTVSPost2010PropOp32
 70
     1
102
RTVSPost2010Prop33
280
     0
102
RTVSPost2010PropOp33
 70
     1
102
RTVSPost2010Prop34
280
     0
102
RTVSPost2010PropOp34
 70
     1
102
RTVSPost2010Prop35
280
     0
102
RTVSPost2010PropOp35
 70
     1
102
RTVSPost2010Prop36
280
     0
102
RTVSPost2010PropOp36
 70
     1
102
RTVSPost2010Prop37
 90
       50
102
RTVSPost2010PropOp37
 70
     1
102
RTVSPost2010Prop38
140
0.0
102
RTVSPost2010PropOp38
 70
     1
102
RTVSPost2010Prop39
140
1.0
102
RTVSPost2010PropOp39
 70
     1
102
RTVSPost2010Prop40
 90
        0
102
RTVSPost2010PropOp40
 70
     1
102
RTVSPost2010Prop41ColorIndex
 90
       18
102
RTVSPost2010Prop41ColorRGB
 90
        0
102
RTVSPost2010PropOp41
 70
     1
102
RTVSPost2010Prop42
 90
       50
102
RTVSPost2010PropOp42
 70
     1
102
RTVSPost2010Prop43
 90
        3
102
RTVSPost2010PropOp43
 70
     1
102
RTVSPost2010Prop44ColorIndex
 90
        5
102
RTVSPost2010Prop44ColorRGB
 90
      255
102
RTVSPost2010PropOp44
 70
     1
102
RTVSPost2010Prop45
280
     0
102
RTVSPost2010PropOp45
 70
     1
102
RTVSPost2010Prop46
 90
       50
102
RTVSPost2010PropOp46
 70
     1
102
RTVSPost2010Prop47
 90
       50
102
RTVSPost2010PropOp47
 70
     1
102
RTVSPost2010Prop48
 90
       50
102
RTVSPost2010PropOp48
 70
     1
102
RTVSPost2010Prop49
280
     0
102
RTVSPost2010PropOp49
 70
     1
102
RTVSPost2010Prop50
 90
       50
102
RTVSPost2010PropOp50
 70
     1
102
RTVSPost2010Prop51ColorIndex
 90
      256
102
RTVSPost2010Prop51ColorRGB
 90
-16777216
102
RTVSPost2010PropOp51
 70
     0
102
RTVSPost2010Prop52
140
1.0
102
RTVSPost2010PropOp52
 70
     0
102
RTVSPost2010Prop53
 90
        2
102
RTVSPost2010PropOp53
 70
     1
102
RTVSPost2010Prop54
  1
strokes_ogs.tif
102
RTVSPost2010PropOp54
 70
     1
102
RTVSPost2010Prop55
280
     0
102
RTVSPost2010PropOp55
 70
     1
102
RTVSPost2010Prop56
140
1.0
102
RTVSPost2010PropOp56
 70
     1
102
RTVSPost2010Prop57
140
1.0
102
RTVSPost2010PropOp57
 70
     1
102
RTVSPropertyOp0
 70
     1
102
RTVSPropertyOp1
 70
     1
102
RTVSPropertyOp2
 70
     1
102
RTVSPropertyOp3
 70
     1
102
RTVSPropertyOp4
 70
     1
102
RTVSPropertyOp5
 70
     1
102
RTVSPropertyOp6
 70
     1
102
RTVSPropertyOp7
 70
     1
102
RTVSPropertyOp8
 70
     1
102
RTVSPropertyOp9
 70
     1
102
RTVSPropertyOp10
 70
     1
102
RTVSPropertyOp11
 70
     1
102
RTVSPropertyOp12
 70
     1
102
RTVSPropertyOp13
 70
     1
102
RTVSPropertyOp14
 70
     1
102
RTVSPropertyOp15
 70
     1
102
RTVSPropertyOp16
 70
     1
102
RTVSPropertyOp17
 70
     1
102
RTVSPropertyOp18
 70
     1
102
RTVSPropertyOp19
 70
     1
102
RTVSPropertyOp20
 70
     1
102
RTVSPropertyOp21
 70
     1
102
RTVSPropertyOp22
 70
     1
102
RTVSPropertyOp23
 70
     1
102
RTVSPropertyOp24
 70
     1
102
RTVSPropertyOp25
 70
     1
102
RTVSPropertyOp26
 70
     1
102
RTVSPropertyOp27
 70
     1
102
RTVSPropertyOp28
 70
     1
102
RTVSPropertyOp29
 70
     1
102
RTVSPropertyOp30
 70
     1
102
RTVSPropertyOp31
 70
     1
102
RTVSPropertyOp32
 70
     1
102
RTVSPropertyOp33
 70
     1
102
RTVSPropertyOp34
 70
     1
102
RTVSPropertyOp35
 70
     1
102
RTVSPropertyOp36
 70
     1
102
RTVSPropertyOp37
 70
     1
102
RTVSPropertyOp38
 70
     1
102
RTVSPropertyOp39
 70
     1
102
RTVSPropertyOp40
 70
     1
102
RTVSPropertyOp41
 70
     1
102
RTVSPropertyOp42
 70
     1
102
RTVSPropertyOp43
 70
     1
102
RTVSPropertyOp44
 70
     1
102
RTVSPropertyOp45
 70
     1
102
RTVSPropertyOp46
 70
     1
102
RTVSPropertyOp47
 70
     1
102
RTVSPropertyOp48
 70
     1
102
RTVSPropertyOp49
 70
     1
102
RTVSPropertyOp50
 70
     1
102
RTVSPropertyOp51
 70
     0
102
RTVSPropertyOp52
 70
     0
102
RTVSPropertyOp53
 70
     1
102
RTVSPropertyOp54
 70
     1
102
RTVSPropertyOp55
 70
     1
102
RTVSPropertyOp56
 70
     1
102
RTVSPropertyOp57
 70
     1
102
RTVSPropertyOp58
 70
     1
102
RTVSPropertyOp59
 70
     1
102
RTVSPropertyOp60
 70
     1
102
RTVSPropertyOp61
 70
     1
102
RTVSPropertyOp62
 70
     1
  0
XRECORD
  5
C370
102
{ACAD_REACTORS
330
C36F
102
}
330
C36F
100
AcDbXrecord
280
     1
102
RTVSPost2010Prop28
280
     0
102
RTVSPost2010PropOp28
 70
     1
102
RTVSPost2010Prop29
280
     1
102
RTVSPost2010PropOp29
 70
     1
102
RTVSPost2010Prop30
280
     1
102
RTVSPost2010PropOp30
 70
     1
102
RTVSPost2010Prop31
280
     0
102
RTVSPost2010PropOp31
 70
     1
102
RTVSPost2010Prop32
280
     0
102
RTVSPost2010PropOp32
 70
     1
102
RTVSPost2010Prop33
280
     0
102
RTVSPost2010PropOp33
 70
     1
102
RTVSPost2010Prop34
280
     0
102
RTVSPost2010PropOp34
 70
     1
102
RTVSPost2010Prop35
280
     0
102
RTVSPost2010PropOp35
 70
     1
102
RTVSPost2010Prop36
280
     0
102
RTVSPost2010PropOp36
 70
     1
102
RTVSPost2010Prop37
 90
       50
102
RTVSPost2010PropOp37
 70
     1
102
RTVSPost2010Prop38
140
0.0
102
RTVSPost2010PropOp38
 70
     1
102
RTVSPost2010Prop39
140
1.0
102
RTVSPost2010PropOp39
 70
     1
102
RTVSPost2010Prop40
 90
        0
102
RTVSPost2010PropOp40
 70
     1
102
RTVSPost2010Prop41ColorIndex
 90
       18
102
RTVSPost2010Prop41ColorRGB
 90
        0
102
RTVSPost2010PropOp41
 70
     1
102
RTVSPost2010Prop42
 90
       50
102
RTVSPost2010PropOp42
 70
     1
102
RTVSPost2010Prop43
 90
        3
102
RTVSPost2010PropOp43
 70
     1
102
RTVSPost2010Prop44ColorIndex
 90
        5
102
RTVSPost2010Prop44ColorRGB
 90
      255
102
RTVSPost2010PropOp44
 70
     1
102
RTVSPost2010Prop45
280
     0
102
RTVSPost2010PropOp45
 70
     1
102
RTVSPost2010Prop46
 90
       50
102
RTVSPost2010PropOp46
 70
     1
102
RTVSPost2010Prop47
 90
       50
102
RTVSPost2010PropOp47
 70
     1
102
RTVSPost2010Prop48
 90
       50
102
RTVSPost2010PropOp48
 70
     1
102
RTVSPost2010Prop49
280
     0
102
RTVSPost2010PropOp49
 70
     1
102
RTVSPost2010Prop50
 90
       50
102
RTVSPost2010PropOp50
 70
     1
102
RTVSPost2010Prop51ColorIndex
 90
      256
102
RTVSPost2010Prop51ColorRGB
 90
-16777216
102
RTVSPost2010PropOp51
 70
     0
102
RTVSPost2010Prop52
140
1.0
102
RTVSPost2010PropOp52
 70
     0
102
RTVSPost2010Prop53
 90
        2
102
RTVSPost2010PropOp53
 70
     1
102
RTVSPost2010Prop54
  1
strokes_ogs.tif
102
RTVSPost2010PropOp54
 70
     1
102
RTVSPost2010Prop55
280
     0
102
RTVSPost2010PropOp55
 70
     1
102
RTVSPost2010Prop56
140
1.0
102
RTVSPost2010PropOp56
 70
     1
102
RTVSPost2010Prop57
140
1.0
102
RTVSPost2010PropOp57
 70
     1
102
RTVSPropertyOp0
 70
     1
102
RTVSPropertyOp1
 70
     1
102
RTVSPropertyOp2
 70
     1
102
RTVSPropertyOp3
 70
     1
102
RTVSPropertyOp4
 70
     1
102
RTVSPropertyOp5
 70
     1
102
RTVSPropertyOp6
 70
     1
102
RTVSPropertyOp7
 70
     1
102
RTVSPropertyOp8
 70
     1
102
RTVSPropertyOp9
 70
     1
102
RTVSPropertyOp10
 70
     1
102
RTVSPropertyOp11
 70
     1
102
RTVSPropertyOp12
 70
     1
102
RTVSPropertyOp13
 70
     1
102
RTVSPropertyOp14
 70
     1
102
RTVSPropertyOp15
 70
     1
102
RTVSPropertyOp16
 70
     1
102
RTVSPropertyOp17
 70
     1
102
RTVSPropertyOp18
 70
     1
102
RTVSPropertyOp19
 70
     1
102
RTVSPropertyOp20
 70
     1
102
RTVSPropertyOp21
 70
     1
102
RTVSPropertyOp22
 70
     1
102
RTVSPropertyOp23
 70
     1
102
RTVSPropertyOp24
 70
     1
102
RTVSPropertyOp25
 70
     1
102
RTVSPropertyOp26
 70
     1
102
RTVSPropertyOp27
 70
     1
102
RTVSPropertyOp28
 70
     1
102
RTVSPropertyOp29
 70
     1
102
RTVSPropertyOp30
 70
     1
102
RTVSPropertyOp31
 70
     1
102
RTVSPropertyOp32
 70
     1
102
RTVSPropertyOp33
 70
     1
102
RTVSPropertyOp34
 70
     1
102
RTVSPropertyOp35
 70
     1
102
RTVSPropertyOp36
 70
     1
102
RTVSPropertyOp37
 70
     1
102
RTVSPropertyOp38
 70
     1
102
RTVSPropertyOp39
 70
     1
102
RTVSPropertyOp40
 70
     1
102
RTVSPropertyOp41
 70
     1
102
RTVSPropertyOp42
 70
     1
102
RTVSPropertyOp43
 70
     1
102
RTVSPropertyOp44
 70
     1
102
RTVSPropertyOp45
 70
     1
102
RTVSPropertyOp46
 70
     1
102
RTVSPropertyOp47
 70
     1
102
RTVSPropertyOp48
 70
     1
102
RTVSPropertyOp49
 70
     1
102
RTVSPropertyOp50
 70
     1
102
RTVSPropertyOp51
 70
     0
102
RTVSPropertyOp52
 70
     0
102
RTVSPropertyOp53
 70
     1
102
RTVSPropertyOp54
 70
     1
102
RTVSPropertyOp55
 70
     1
102
RTVSPropertyOp56
 70
     1
102
RTVSPropertyOp57
 70
     1
102
RTVSPropertyOp58
 70
     1
102
RTVSPropertyOp59
 70
     1
102
RTVSPropertyOp60
 70
     1
102
RTVSPropertyOp61
 70
     1
102
RTVSPropertyOp62
 70
     1
  0
XRECORD
  5
C362
102
{ACAD_REACTORS
330
C361
102
}
330
C361
100
AcDbXrecord
280
     1
102
RTVSPost2010Prop28
280
     0
102
RTVSPost2010PropOp28
 70
     1
102
RTVSPost2010Prop29
280
     1
102
RTVSPost2010PropOp29
 70
     1
102
RTVSPost2010Prop30
280
     1
102
RTVSPost2010PropOp30
 70
     1
102
RTVSPost2010Prop31
280
     0
102
RTVSPost2010PropOp31
 70
     1
102
RTVSPost2010Prop32
280
     0
102
RTVSPost2010PropOp32
 70
     1
102
RTVSPost2010Prop33
280
     0
102
RTVSPost2010PropOp33
 70
     1
102
RTVSPost2010Prop34
280
     0
102
RTVSPost2010PropOp34
 70
     1
102
RTVSPost2010Prop35
280
     0
102
RTVSPost2010PropOp35
 70
     1
102
RTVSPost2010Prop36
280
     0
102
RTVSPost2010PropOp36
 70
     1
102
RTVSPost2010Prop37
 90
       50
102
RTVSPost2010PropOp37
 70
     1
102
RTVSPost2010Prop38
140
0.0
102
RTVSPost2010PropOp38
 70
     1
102
RTVSPost2010Prop39
140
1.0
102
RTVSPost2010PropOp39
 70
     1
102
RTVSPost2010Prop40
 90
        0
102
RTVSPost2010PropOp40
 70
     1
102
RTVSPost2010Prop41ColorIndex
 90
       18
102
RTVSPost2010Prop41ColorRGB
 90
        0
102
RTVSPost2010PropOp41
 70
     1
102
RTVSPost2010Prop42
 90
       50
102
RTVSPost2010PropOp42
 70
     1
102
RTVSPost2010Prop43
 90
        3
102
RTVSPost2010PropOp43
 70
     1
102
RTVSPost2010Prop44ColorIndex
 90
        5
102
RTVSPost2010Prop44ColorRGB
 90
      255
102
RTVSPost2010PropOp44
 70
     1
102
RTVSPost2010Prop45
280
     0
102
RTVSPost2010PropOp45
 70
     1
102
RTVSPost2010Prop46
 90
       50
102
RTVSPost2010PropOp46
 70
     1
102
RTVSPost2010Prop47
 90
       50
102
RTVSPost2010PropOp47
 70
     1
102
RTVSPost2010Prop48
 90
       50
102
RTVSPost2010PropOp48
 70
     1
102
RTVSPost2010Prop49
280
     0
102
RTVSPost2010PropOp49
 70
     1
102
RTVSPost2010Prop50
 90
       50
102
RTVSPost2010PropOp50
 70
     1
102
RTVSPost2010Prop51ColorIndex
 90
      256
102
RTVSPost2010Prop51ColorRGB
 90
-16777216
102
RTVSPost2010PropOp51
 70
     0
102
RTVSPost2010Prop52
140
1.0
102
RTVSPost2010PropOp52
 70
     0
102
RTVSPost2010Prop53
 90
        2
102
RTVSPost2010PropOp53
 70
     1
102
RTVSPost2010Prop54
  1
strokes_ogs.tif
102
RTVSPost2010PropOp54
 70
     1
102
RTVSPost2010Prop55
280
     0
102
RTVSPost2010PropOp55
 70
     1
102
RTVSPost2010Prop56
140
1.0
102
RTVSPost2010PropOp56
 70
     1
102
RTVSPost2010Prop57
140
1.0
102
RTVSPost2010PropOp57
 70
     1
102
RTVSPropertyOp0
 70
     1
102
RTVSPropertyOp1
 70
     1
102
RTVSPropertyOp2
 70
     1
102
RTVSPropertyOp3
 70
     1
102
RTVSPropertyOp4
 70
     1
102
RTVSPropertyOp5
 70
     1
102
RTVSPropertyOp6
 70
     1
102
RTVSPropertyOp7
 70
     1
102
RTVSPropertyOp8
 70
     1
102
RTVSPropertyOp9
 70
     1
102
RTVSPropertyOp10
 70
     1
102
RTVSPropertyOp11
 70
     1
102
RTVSPropertyOp12
 70
     1
102
RTVSPropertyOp13
 70
     1
102
RTVSPropertyOp14
 70
     1
102
RTVSPropertyOp15
 70
     1
102
RTVSPropertyOp16
 70
     1
102
RTVSPropertyOp17
 70
     1
102
RTVSPropertyOp18
 70
     1
102
RTVSPropertyOp19
 70
     1
102
RTVSPropertyOp20
 70
     1
102
RTVSPropertyOp21
 70
     1
102
RTVSPropertyOp22
 70
     1
102
RTVSPropertyOp23
 70
     1
102
RTVSPropertyOp24
 70
     1
102
RTVSPropertyOp25
 70
     1
102
RTVSPropertyOp26
 70
     1
102
RTVSPropertyOp27
 70
     1
102
RTVSPropertyOp28
 70
     1
102
RTVSPropertyOp29
 70
     1
102
RTVSPropertyOp30
 70
     1
102
RTVSPropertyOp31
 70
     1
102
RTVSPropertyOp32
 70
     1
102
RTVSPropertyOp33
 70
     1
102
RTVSPropertyOp34
 70
     1
102
RTVSPropertyOp35
 70
     1
102
RTVSPropertyOp36
 70
     1
102
RTVSPropertyOp37
 70
     1
102
RTVSPropertyOp38
 70
     1
102
RTVSPropertyOp39
 70
     1
102
RTVSPropertyOp40
 70
     1
102
RTVSPropertyOp41
 70
     1
102
RTVSPropertyOp42
 70
     1
102
RTVSPropertyOp43
 70
     1
102
RTVSPropertyOp44
 70
     1
102
RTVSPropertyOp45
 70
     1
102
RTVSPropertyOp46
 70
     1
102
RTVSPropertyOp47
 70
     1
102
RTVSPropertyOp48
 70
     1
102
RTVSPropertyOp49
 70
     1
102
RTVSPropertyOp50
 70
     1
102
RTVSPropertyOp51
 70
     0
102
RTVSPropertyOp52
 70
     0
102
RTVSPropertyOp53
 70
     1
102
RTVSPropertyOp54
 70
     1
102
RTVSPropertyOp55
 70
     1
102
RTVSPropertyOp56
 70
     1
102
RTVSPropertyOp57
 70
     1
102
RTVSPropertyOp58
 70
     1
102
RTVSPropertyOp59
 70
     1
102
RTVSPropertyOp60
 70
     1
102
RTVSPropertyOp61
 70
     1
102
RTVSPropertyOp62
 70
     1
  0
XRECORD
  5
C366
102
{ACAD_REACTORS
330
C365
102
}
330
C365
100
AcDbXrecord
280
     1
102
RTVSPost2010Prop28
280
     0
102
RTVSPost2010PropOp28
 70
     1
102
RTVSPost2010Prop29
280
     1
102
RTVSPost2010PropOp29
 70
     1
102
RTVSPost2010Prop30
280
     1
102
RTVSPost2010PropOp30
 70
     1
102
RTVSPost2010Prop31
280
     0
102
RTVSPost2010PropOp31
 70
     1
102
RTVSPost2010Prop32
280
     0
102
RTVSPost2010PropOp32
 70
     1
102
RTVSPost2010Prop33
280
     0
102
RTVSPost2010PropOp33
 70
     1
102
RTVSPost2010Prop34
280
     0
102
RTVSPost2010PropOp34
 70
     1
102
RTVSPost2010Prop35
280
     0
102
RTVSPost2010PropOp35
 70
     1
102
RTVSPost2010Prop36
280
     0
102
RTVSPost2010PropOp36
 70
     1
102
RTVSPost2010Prop37
 90
       50
102
RTVSPost2010PropOp37
 70
     1
102
RTVSPost2010Prop38
140
0.0
102
RTVSPost2010PropOp38
 70
     1
102
RTVSPost2010Prop39
140
1.0
102
RTVSPost2010PropOp39
 70
     1
102
RTVSPost2010Prop40
 90
        0
102
RTVSPost2010PropOp40
 70
     1
102
RTVSPost2010Prop41ColorIndex
 90
       18
102
RTVSPost2010Prop41ColorRGB
 90
        0
102
RTVSPost2010PropOp41
 70
     1
102
RTVSPost2010Prop42
 90
       50
102
RTVSPost2010PropOp42
 70
     1
102
RTVSPost2010Prop43
 90
        3
102
RTVSPost2010PropOp43
 70
     1
102
RTVSPost2010Prop44ColorIndex
 90
        5
102
RTVSPost2010Prop44ColorRGB
 90
      255
102
RTVSPost2010PropOp44
 70
     1
102
RTVSPost2010Prop45
280
     0
102
RTVSPost2010PropOp45
 70
     1
102
RTVSPost2010Prop46
 90
       50
102
RTVSPost2010PropOp46
 70
     1
102
RTVSPost2010Prop47
 90
       50
102
RTVSPost2010PropOp47
 70
     1
102
RTVSPost2010Prop48
 90
       50
102
RTVSPost2010PropOp48
 70
     1
102
RTVSPost2010Prop49
280
     0
102
RTVSPost2010PropOp49
 70
     1
102
RTVSPost2010Prop50
 90
       50
102
RTVSPost2010PropOp50
 70
     1
102
RTVSPost2010Prop51ColorIndex
 90
      256
102
RTVSPost2010Prop51ColorRGB
 90
-16777216
102
RTVSPost2010PropOp51
 70
     0
102
RTVSPost2010Prop52
140
1.0
102
RTVSPost2010PropOp52
 70
     0
102
RTVSPost2010Prop53
 90
        2
102
RTVSPost2010PropOp53
 70
     1
102
RTVSPost2010Prop54
  1
strokes_ogs.tif
102
RTVSPost2010PropOp54
 70
     1
102
RTVSPost2010Prop55
280
     0
102
RTVSPost2010PropOp55
 70
     1
102
RTVSPost2010Prop56
140
1.0
102
RTVSPost2010PropOp56
 70
     1
102
RTVSPost2010Prop57
140
1.0
102
RTVSPost2010PropOp57
 70
     1
102
RTVSPropertyOp0
 70
     1
102
RTVSPropertyOp1
 70
     1
102
RTVSPropertyOp2
 70
     1
102
RTVSPropertyOp3
 70
     1
102
RTVSPropertyOp4
 70
     1
102
RTVSPropertyOp5
 70
     1
102
RTVSPropertyOp6
 70
     1
102
RTVSPropertyOp7
 70
     1
102
RTVSPropertyOp8
 70
     1
102
RTVSPropertyOp9
 70
     1
102
RTVSPropertyOp10
 70
     1
102
RTVSPropertyOp11
 70
     1
102
RTVSPropertyOp12
 70
     1
102
RTVSPropertyOp13
 70
     1
102
RTVSPropertyOp14
 70
     1
102
RTVSPropertyOp15
 70
     1
102
RTVSPropertyOp16
 70
     1
102
RTVSPropertyOp17
 70
     1
102
RTVSPropertyOp18
 70
     1
102
RTVSPropertyOp19
 70
     1
102
RTVSPropertyOp20
 70
     1
102
RTVSPropertyOp21
 70
     1
102
RTVSPropertyOp22
 70
     1
102
RTVSPropertyOp23
 70
     1
102
RTVSPropertyOp24
 70
     1
102
RTVSPropertyOp25
 70
     1
102
RTVSPropertyOp26
 70
     1
102
RTVSPropertyOp27
 70
     1
102
RTVSPropertyOp28
 70
     1
102
RTVSPropertyOp29
 70
     1
102
RTVSPropertyOp30
 70
     1
102
RTVSPropertyOp31
 70
     1
102
RTVSPropertyOp32
 70
     1
102
RTVSPropertyOp33
 70
     1
102
RTVSPropertyOp34
 70
     1
102
RTVSPropertyOp35
 70
     1
102
RTVSPropertyOp36
 70
     1
102
RTVSPropertyOp37
 70
     1
102
RTVSPropertyOp38
 70
     1
102
RTVSPropertyOp39
 70
     1
102
RTVSPropertyOp40
 70
     1
102
RTVSPropertyOp41
 70
     1
102
RTVSPropertyOp42
 70
     1
102
RTVSPropertyOp43
 70
     1
102
RTVSPropertyOp44
 70
     1
102
RTVSPropertyOp45
 70
     1
102
RTVSPropertyOp46
 70
     1
102
RTVSPropertyOp47
 70
     1
102
RTVSPropertyOp48
 70
     1
102
RTVSPropertyOp49
 70
     1
102
RTVSPropertyOp50
 70
     1
102
RTVSPropertyOp51
 70
     0
102
RTVSPropertyOp52
 70
     0
102
RTVSPropertyOp53
 70
     1
102
RTVSPropertyOp54
 70
     1
102
RTVSPropertyOp55
 70
     1
102
RTVSPropertyOp56
 70
     1
102
RTVSPropertyOp57
 70
     1
102
RTVSPropertyOp58
 70
     1
102
RTVSPropertyOp59
 70
     1
102
RTVSPropertyOp60
 70
     1
102
RTVSPropertyOp61
 70
     1
102
RTVSPropertyOp62
 70
     1
  0
XRECORD
  5
C380
102
{ACAD_REACTORS
330
C37F
102
}
330
C37F
100
AcDbXrecord
280
     1
102
RTVSPost2010Prop28
280
     0
102
RTVSPost2010PropOp28
 70
     1
102
RTVSPost2010Prop29
280
     1
102
RTVSPost2010PropOp29
 70
     1
102
RTVSPost2010Prop30
280
     1
102
RTVSPost2010PropOp30
 70
     1
102
RTVSPost2010Prop31
280
     0
102
RTVSPost2010PropOp31
 70
     1
102
RTVSPost2010Prop32
280
     0
102
RTVSPost2010PropOp32
 70
     1
102
RTVSPost2010Prop33
280
     0
102
RTVSPost2010PropOp33
 70
     1
102
RTVSPost2010Prop34
280
     0
102
RTVSPost2010PropOp34
 70
     1
102
RTVSPost2010Prop35
280
     0
102
RTVSPost2010PropOp35
 70
     1
102
RTVSPost2010Prop36
280
     0
102
RTVSPost2010PropOp36
 70
     1
102
RTVSPost2010Prop37
 90
       50
102
RTVSPost2010PropOp37
 70
     0
102
RTVSPost2010Prop38
140
0.0
102
RTVSPost2010PropOp38
 70
     0
102
RTVSPost2010Prop39
140
1.0
102
RTVSPost2010PropOp39
 70
     0
102
RTVSPost2010Prop40
 90
        0
102
RTVSPost2010PropOp40
 70
     0
102
RTVSPost2010Prop41ColorIndex
 90
       18
102
RTVSPost2010Prop41ColorRGB
 90
        0
102
RTVSPost2010PropOp41
 70
     0
102
RTVSPost2010Prop42
 90
       50
102
RTVSPost2010PropOp42
 70
     0
102
RTVSPost2010Prop43
 90
        3
102
RTVSPost2010PropOp43
 70
     0
102
RTVSPost2010Prop44ColorIndex
 90
        5
102
RTVSPost2010Prop44ColorRGB
 90
      255
102
RTVSPost2010PropOp44
 70
     0
102
RTVSPost2010Prop45
280
     0
102
RTVSPost2010PropOp45
 70
     1
102
RTVSPost2010Prop46
 90
       50
102
RTVSPost2010PropOp46
 70
     0
102
RTVSPost2010Prop47
 90
       50
102
RTVSPost2010PropOp47
 70
     0
102
RTVSPost2010Prop48
 90
       50
102
RTVSPost2010PropOp48
 70
     0
102
RTVSPost2010Prop49
280
     0
102
RTVSPost2010PropOp49
 70
     1
102
RTVSPost2010Prop50
 90
       50
102
RTVSPost2010PropOp50
 70
     0
102
RTVSPost2010Prop51ColorIndex
 90
      256
102
RTVSPost2010Prop51ColorRGB
 90
-16777216
102
RTVSPost2010PropOp51
 70
     0
102
RTVSPost2010Prop52
140
1.0
102
RTVSPost2010PropOp52
 70
     0
102
RTVSPost2010Prop53
 90
        2
102
RTVSPost2010PropOp53
 70
     0
102
RTVSPost2010Prop54
  1
strokes_ogs.tif
102
RTVSPost2010PropOp54
 70
     0
102
RTVSPost2010Prop55
280
     0
102
RTVSPost2010PropOp55
 70
     1
102
RTVSPost2010Prop56
140
1.0
102
RTVSPost2010PropOp56
 70
     0
102
RTVSPost2010Prop57
140
1.0
102
RTVSPost2010PropOp57
 70
     0
102
RTVSPropertyOp0
 70
     0
102
RTVSPropertyOp1
 70
     0
102
RTVSPropertyOp2
 70
     0
102
RTVSPropertyOp3
 70
     0
102
RTVSPropertyOp4
 70
     0
102
RTVSPropertyOp5
 70
     0
102
RTVSPropertyOp6
 70
     0
102
RTVSPropertyOp7
 70
     0
102
RTVSPropertyOp8
 70
     0
102
RTVSPropertyOp9
 70
     0
102
RTVSPropertyOp10
 70
     0
102
RTVSPropertyOp11
 70
     0
102
RTVSPropertyOp12
 70
     0
102
RTVSPropertyOp13
 70
     0
102
RTVSPropertyOp14
 70
     2
102
RTVSPropertyOp15
 70
     0
102
RTVSPropertyOp16
 70
     0
102
RTVSPropertyOp17
 70
     0
102
RTVSPropertyOp18
 70
     0
102
RTVSPropertyOp19
 70
     0
102
RTVSPropertyOp20
 70
     0
102
RTVSPropertyOp21
 70
     0
102
RTVSPropertyOp22
 70
     0
102
RTVSPropertyOp23
 70
     0
102
RTVSPropertyOp24
 70
     0
102
RTVSPropertyOp25
 70
     0
102
RTVSPropertyOp26
 70
     0
102
RTVSPropertyOp27
 70
     0
102
RTVSPropertyOp28
 70
     1
102
RTVSPropertyOp29
 70
     1
102
RTVSPropertyOp30
 70
     1
102
RTVSPropertyOp31
 70
     1
102
RTVSPropertyOp32
 70
     1
102
RTVSPropertyOp33
 70
     1
102
RTVSPropertyOp34
 70
     1
102
RTVSPropertyOp35
 70
     1
102
RTVSPropertyOp36
 70
     1
102
RTVSPropertyOp37
 70
     0
102
RTVSPropertyOp38
 70
     0
102
RTVSPropertyOp39
 70
     0
102
RTVSPropertyOp40
 70
     0
102
RTVSPropertyOp41
 70
     0
102
RTVSPropertyOp42
 70
     0
102
RTVSPropertyOp43
 70
     0
102
RTVSPropertyOp44
 70
     0
102
RTVSPropertyOp45
 70
     1
102
RTVSPropertyOp46
 70
     0
102
RTVSPropertyOp47
 70
     0
102
RTVSPropertyOp48
 70
     0
102
RTVSPropertyOp49
 70
     1
102
RTVSPropertyOp50
 70
     0
102
RTVSPropertyOp51
 70
     0
102
RTVSPropertyOp52
 70
     0
102
RTVSPropertyOp53
 70
     0
102
RTVSPropertyOp54
 70
     0
102
RTVSPropertyOp55
 70
     1
102
RTVSPropertyOp56
 70
     0
102
RTVSPropertyOp57
 70
     0
102
RTVSPropertyOp58
 70
     0
102
RTVSPropertyOp59
 70
     0
102
RTVSPropertyOp60
 70
     0
102
RTVSPropertyOp61
 70
     0
102
RTVSPropertyOp62
 70
     0
  0
XRECORD
  5
C36E
102
{ACAD_REACTORS
330
C36D
102
}
330
C36D
100
AcDbXrecord
280
     1
102
RTVSPost2010Prop28
280
     0
102
RTVSPost2010PropOp28
 70
     1
102
RTVSPost2010Prop29
280
     1
102
RTVSPost2010PropOp29
 70
     1
102
RTVSPost2010Prop30
280
     1
102
RTVSPost2010PropOp30
 70
     1
102
RTVSPost2010Prop31
280
     0
102
RTVSPost2010PropOp31
 70
     1
102
RTVSPost2010Prop32
280
     0
102
RTVSPost2010PropOp32
 70
     1
102
RTVSPost2010Prop33
280
     0
102
RTVSPost2010PropOp33
 70
     1
102
RTVSPost2010Prop34
280
     0
102
RTVSPost2010PropOp34
 70
     1
102
RTVSPost2010Prop35
280
     0
102
RTVSPost2010PropOp35
 70
     1
102
RTVSPost2010Prop36
280
     0
102
RTVSPost2010PropOp36
 70
     1
102
RTVSPost2010Prop37
 90
       50
102
RTVSPost2010PropOp37
 70
     1
102
RTVSPost2010Prop38
140
0.0
102
RTVSPost2010PropOp38
 70
     1
102
RTVSPost2010Prop39
140
1.0
102
RTVSPost2010PropOp39
 70
     1
102
RTVSPost2010Prop40
 90
        0
102
RTVSPost2010PropOp40
 70
     1
102
RTVSPost2010Prop41ColorIndex
 90
       18
102
RTVSPost2010Prop41ColorRGB
 90
        0
102
RTVSPost2010PropOp41
 70
     1
102
RTVSPost2010Prop42
 90
       50
102
RTVSPost2010PropOp42
 70
     1
102
RTVSPost2010Prop43
 90
        3
102
RTVSPost2010PropOp43
 70
     1
102
RTVSPost2010Prop44ColorIndex
 90
        5
102
RTVSPost2010Prop44ColorRGB
 90
      255
102
RTVSPost2010PropOp44
 70
     1
102
RTVSPost2010Prop45
280
     0
102
RTVSPost2010PropOp45
 70
     1
102
RTVSPost2010Prop46
 90
       50
102
RTVSPost2010PropOp46
 70
     1
102
RTVSPost2010Prop47
 90
       50
102
RTVSPost2010PropOp47
 70
     1
102
RTVSPost2010Prop48
 90
       50
102
RTVSPost2010PropOp48
 70
     1
102
RTVSPost2010Prop49
280
     0
102
RTVSPost2010PropOp49
 70
     1
102
RTVSPost2010Prop50
 90
       50
102
RTVSPost2010PropOp50
 70
     1
102
RTVSPost2010Prop51ColorIndex
 90
      256
102
RTVSPost2010Prop51ColorRGB
 90
-16777216
102
RTVSPost2010PropOp51
 70
     0
102
RTVSPost2010Prop52
140
1.0
102
RTVSPost2010PropOp52
 70
     0
102
RTVSPost2010Prop53
 90
        2
102
RTVSPost2010PropOp53
 70
     1
102
RTVSPost2010Prop54
  1
strokes_ogs.tif
102
RTVSPost2010PropOp54
 70
     1
102
RTVSPost2010Prop55
280
     0
102
RTVSPost2010PropOp55
 70
     1
102
RTVSPost2010Prop56
140
1.0
102
RTVSPost2010PropOp56
 70
     1
102
RTVSPost2010Prop57
140
1.0
102
RTVSPost2010PropOp57
 70
     1
102
RTVSPropertyOp0
 70
     1
102
RTVSPropertyOp1
 70
     1
102
RTVSPropertyOp2
 70
     1
102
RTVSPropertyOp3
 70
     1
102
RTVSPropertyOp4
 70
     1
102
RTVSPropertyOp5
 70
     1
102
RTVSPropertyOp6
 70
     1
102
RTVSPropertyOp7
 70
     1
102
RTVSPropertyOp8
 70
     1
102
RTVSPropertyOp9
 70
     1
102
RTVSPropertyOp10
 70
     1
102
RTVSPropertyOp11
 70
     1
102
RTVSPropertyOp12
 70
     1
102
RTVSPropertyOp13
 70
     1
102
RTVSPropertyOp14
 70
     1
102
RTVSPropertyOp15
 70
     1
102
RTVSPropertyOp16
 70
     1
102
RTVSPropertyOp17
 70
     1
102
RTVSPropertyOp18
 70
     1
102
RTVSPropertyOp19
 70
     1
102
RTVSPropertyOp20
 70
     1
102
RTVSPropertyOp21
 70
     1
102
RTVSPropertyOp22
 70
     1
102
RTVSPropertyOp23
 70
     1
102
RTVSPropertyOp24
 70
     1
102
RTVSPropertyOp25
 70
     1
102
RTVSPropertyOp26
 70
     1
102
RTVSPropertyOp27
 70
     1
102
RTVSPropertyOp28
 70
     1
102
RTVSPropertyOp29
 70
     1
102
RTVSPropertyOp30
 70
     1
102
RTVSPropertyOp31
 70
     1
102
RTVSPropertyOp32
 70
     1
102
RTVSPropertyOp33
 70
     1
102
RTVSPropertyOp34
 70
     1
102
RTVSPropertyOp35
 70
     1
102
RTVSPropertyOp36
 70
     1
102
RTVSPropertyOp37
 70
     1
102
RTVSPropertyOp38
 70
     1
102
RTVSPropertyOp39
 70
     1
102
RTVSPropertyOp40
 70
     1
102
RTVSPropertyOp41
 70
     1
102
RTVSPropertyOp42
 70
     1
102
RTVSPropertyOp43
 70
     1
102
RTVSPropertyOp44
 70
     1
102
RTVSPropertyOp45
 70
     1
102
RTVSPropertyOp46
 70
     1
102
RTVSPropertyOp47
 70
     1
102
RTVSPropertyOp48
 70
     1
102
RTVSPropertyOp49
 70
     1
102
RTVSPropertyOp50
 70
     1
102
RTVSPropertyOp51
 70
     0
102
RTVSPropertyOp52
 70
     0
102
RTVSPropertyOp53
 70
     1
102
RTVSPropertyOp54
 70
     1
102
RTVSPropertyOp55
 70
     1
102
RTVSPropertyOp56
 70
     1
102
RTVSPropertyOp57
 70
     1
102
RTVSPropertyOp58
 70
     1
102
RTVSPropertyOp59
 70
     1
102
RTVSPropertyOp60
 70
     1
102
RTVSPropertyOp61
 70
     1
102
RTVSPropertyOp62
 70
     1
  0
XRECORD
  5
C352
102
{ACAD_REACTORS
330
C351
102
}
330
C351
100
AcDbXrecord
280
     1
102
RTVSPost2010Prop28
280
     0
102
RTVSPost2010PropOp28
 70
     1
102
RTVSPost2010Prop29
280
     1
102
RTVSPost2010PropOp29
 70
     1
102
RTVSPost2010Prop30
280
     1
102
RTVSPost2010PropOp30
 70
     1
102
RTVSPost2010Prop31
280
     0
102
RTVSPost2010PropOp31
 70
     1
102
RTVSPost2010Prop32
280
     0
102
RTVSPost2010PropOp32
 70
     1
102
RTVSPost2010Prop33
280
     0
102
RTVSPost2010PropOp33
 70
     1
102
RTVSPost2010Prop34
280
     0
102
RTVSPost2010PropOp34
 70
     1
102
RTVSPost2010Prop35
280
     0
102
RTVSPost2010PropOp35
 70
     1
102
RTVSPost2010Prop36
280
     0
102
RTVSPost2010PropOp36
 70
     1
102
RTVSPost2010Prop37
 90
       50
102
RTVSPost2010PropOp37
 70
     1
102
RTVSPost2010Prop38
140
0.0
102
RTVSPost2010PropOp38
 70
     1
102
RTVSPost2010Prop39
140
1.0
102
RTVSPost2010PropOp39
 70
     1
102
RTVSPost2010Prop40
 90
        0
102
RTVSPost2010PropOp40
 70
     1
102
RTVSPost2010Prop41ColorIndex
 90
       18
102
RTVSPost2010Prop41ColorRGB
 90
        0
102
RTVSPost2010PropOp41
 70
     1
102
RTVSPost2010Prop42
 90
       50
102
RTVSPost2010PropOp42
 70
     1
102
RTVSPost2010Prop43
 90
        3
102
RTVSPost2010PropOp43
 70
     1
102
RTVSPost2010Prop44ColorIndex
 90
        5
102
RTVSPost2010Prop44ColorRGB
 90
      255
102
RTVSPost2010PropOp44
 70
     1
102
RTVSPost2010Prop45
280
     0
102
RTVSPost2010PropOp45
 70
     1
102
RTVSPost2010Prop46
 90
       50
102
RTVSPost2010PropOp46
 70
     1
102
RTVSPost2010Prop47
 90
       50
102
RTVSPost2010PropOp47
 70
     1
102
RTVSPost2010Prop48
 90
       50
102
RTVSPost2010PropOp48
 70
     1
102
RTVSPost2010Prop49
280
     0
102
RTVSPost2010PropOp49
 70
     1
102
RTVSPost2010Prop50
 90
       50
102
RTVSPost2010PropOp50
 70
     1
102
RTVSPost2010Prop51ColorIndex
 90
      256
102
RTVSPost2010Prop51ColorRGB
 90
-16777216
102
RTVSPost2010PropOp51
 70
     0
102
RTVSPost2010Prop52
140
1.0
102
RTVSPost2010PropOp52
 70
     0
102
RTVSPost2010Prop53
 90
        2
102
RTVSPost2010PropOp53
 70
     1
102
RTVSPost2010Prop54
  1
strokes_ogs.tif
102
RTVSPost2010PropOp54
 70
     1
102
RTVSPost2010Prop55
280
     0
102
RTVSPost2010PropOp55
 70
     1
102
RTVSPost2010Prop56
140
1.0
102
RTVSPost2010PropOp56
 70
     1
102
RTVSPost2010Prop57
140
1.0
102
RTVSPost2010PropOp57
 70
     1
102
RTVSPropertyOp0
 70
     1
102
RTVSPropertyOp1
 70
     1
102
RTVSPropertyOp2
 70
     1
102
RTVSPropertyOp3
 70
     1
102
RTVSPropertyOp4
 70
     1
102
RTVSPropertyOp5
 70
     1
102
RTVSPropertyOp6
 70
     1
102
RTVSPropertyOp7
 70
     1
102
RTVSPropertyOp8
 70
     1
102
RTVSPropertyOp9
 70
     1
102
RTVSPropertyOp10
 70
     1
102
RTVSPropertyOp11
 70
     1
102
RTVSPropertyOp12
 70
     1
102
RTVSPropertyOp13
 70
     1
102
RTVSPropertyOp14
 70
     1
102
RTVSPropertyOp15
 70
     1
102
RTVSPropertyOp16
 70
     1
102
RTVSPropertyOp17
 70
     1
102
RTVSPropertyOp18
 70
     1
102
RTVSPropertyOp19
 70
     1
102
RTVSPropertyOp20
 70
     1
102
RTVSPropertyOp21
 70
     1
102
RTVSPropertyOp22
 70
     1
102
RTVSPropertyOp23
 70
     1
102
RTVSPropertyOp24
 70
     1
102
RTVSPropertyOp25
 70
     1
102
RTVSPropertyOp26
 70
     1
102
RTVSPropertyOp27
 70
     1
102
RTVSPropertyOp28
 70
     1
102
RTVSPropertyOp29
 70
     1
102
RTVSPropertyOp30
 70
     1
102
RTVSPropertyOp31
 70
     1
102
RTVSPropertyOp32
 70
     1
102
RTVSPropertyOp33
 70
     1
102
RTVSPropertyOp34
 70
     1
102
RTVSPropertyOp35
 70
     1
102
RTVSPropertyOp36
 70
     1
102
RTVSPropertyOp37
 70
     1
102
RTVSPropertyOp38
 70
     1
102
RTVSPropertyOp39
 70
     1
102
RTVSPropertyOp40
 70
     1
102
RTVSPropertyOp41
 70
     1
102
RTVSPropertyOp42
 70
     1
102
RTVSPropertyOp43
 70
     1
102
RTVSPropertyOp44
 70
     1
102
RTVSPropertyOp45
 70
     1
102
RTVSPropertyOp46
 70
     1
102
RTVSPropertyOp47
 70
     1
102
RTVSPropertyOp48
 70
     1
102
RTVSPropertyOp49
 70
     1
102
RTVSPropertyOp50
 70
     1
102
RTVSPropertyOp51
 70
     0
102
RTVSPropertyOp52
 70
     0
102
RTVSPropertyOp53
 70
     1
102
RTVSPropertyOp54
 70
     1
102
RTVSPropertyOp55
 70
     1
102
RTVSPropertyOp56
 70
     1
102
RTVSPropertyOp57
 70
     1
102
RTVSPropertyOp58
 70
     1
102
RTVSPropertyOp59
 70
     1
102
RTVSPropertyOp60
 70
     1
102
RTVSPropertyOp61
 70
     1
102
RTVSPropertyOp62
 70
     1
  0
XRECORD
  5
C354
102
{ACAD_REACTORS
330
C353
102
}
330
C353
100
AcDbXrecord
280
     1
102
RTVSPost2010Prop28
280
     0
102
RTVSPost2010PropOp28
 70
     1
102
RTVSPost2010Prop29
280
     1
102
RTVSPost2010PropOp29
 70
     1
102
RTVSPost2010Prop30
280
     1
102
RTVSPost2010PropOp30
 70
     1
102
RTVSPost2010Prop31
280
     0
102
RTVSPost2010PropOp31
 70
     1
102
RTVSPost2010Prop32
280
     0
102
RTVSPost2010PropOp32
 70
     1
102
RTVSPost2010Prop33
280
     0
102
RTVSPost2010PropOp33
 70
     1
102
RTVSPost2010Prop34
280
     0
102
RTVSPost2010PropOp34
 70
     1
102
RTVSPost2010Prop35
280
     0
102
RTVSPost2010PropOp35
 70
     1
102
RTVSPost2010Prop36
280
     0
102
RTVSPost2010PropOp36
 70
     1
102
RTVSPost2010Prop37
 90
       50
102
RTVSPost2010PropOp37
 70
     1
102
RTVSPost2010Prop38
140
0.0
102
RTVSPost2010PropOp38
 70
     1
102
RTVSPost2010Prop39
140
1.0
102
RTVSPost2010PropOp39
 70
     1
102
RTVSPost2010Prop40
 90
        0
102
RTVSPost2010PropOp40
 70
     1
102
RTVSPost2010Prop41ColorIndex
 90
       18
102
RTVSPost2010Prop41ColorRGB
 90
        0
102
RTVSPost2010PropOp41
 70
     1
102
RTVSPost2010Prop42
 90
       50
102
RTVSPost2010PropOp42
 70
     1
102
RTVSPost2010Prop43
 90
        3
102
RTVSPost2010PropOp43
 70
     1
102
RTVSPost2010Prop44ColorIndex
 90
        5
102
RTVSPost2010Prop44ColorRGB
 90
      255
102
RTVSPost2010PropOp44
 70
     1
102
RTVSPost2010Prop45
280
     0
102
RTVSPost2010PropOp45
 70
     1
102
RTVSPost2010Prop46
 90
       50
102
RTVSPost2010PropOp46
 70
     1
102
RTVSPost2010Prop47
 90
       50
102
RTVSPost2010PropOp47
 70
     1
102
RTVSPost2010Prop48
 90
       50
102
RTVSPost2010PropOp48
 70
     1
102
RTVSPost2010Prop49
280
     0
102
RTVSPost2010PropOp49
 70
     1
102
RTVSPost2010Prop50
 90
       50
102
RTVSPost2010PropOp50
 70
     1
102
RTVSPost2010Prop51ColorIndex
 90
      256
102
RTVSPost2010Prop51ColorRGB
 90
-16777216
102
RTVSPost2010PropOp51
 70
     0
102
RTVSPost2010Prop52
140
1.0
102
RTVSPost2010PropOp52
 70
     0
102
RTVSPost2010Prop53
 90
        2
102
RTVSPost2010PropOp53
 70
     1
102
RTVSPost2010Prop54
  1
strokes_ogs.tif
102
RTVSPost2010PropOp54
 70
     1
102
RTVSPost2010Prop55
280
     0
102
RTVSPost2010PropOp55
 70
     1
102
RTVSPost2010Prop56
140
1.0
102
RTVSPost2010PropOp56
 70
     1
102
RTVSPost2010Prop57
140
1.0
102
RTVSPost2010PropOp57
 70
     1
102
RTVSPropertyOp0
 70
     1
102
RTVSPropertyOp1
 70
     1
102
RTVSPropertyOp2
 70
     1
102
RTVSPropertyOp3
 70
     1
102
RTVSPropertyOp4
 70
     1
102
RTVSPropertyOp5
 70
     1
102
RTVSPropertyOp6
 70
     1
102
RTVSPropertyOp7
 70
     1
102
RTVSPropertyOp8
 70
     1
102
RTVSPropertyOp9
 70
     1
102
RTVSPropertyOp10
 70
     1
102
RTVSPropertyOp11
 70
     1
102
RTVSPropertyOp12
 70
     1
102
RTVSPropertyOp13
 70
     1
102
RTVSPropertyOp14
 70
     1
102
RTVSPropertyOp15
 70
     1
102
RTVSPropertyOp16
 70
     1
102
RTVSPropertyOp17
 70
     1
102
RTVSPropertyOp18
 70
     1
102
RTVSPropertyOp19
 70
     1
102
RTVSPropertyOp20
 70
     1
102
RTVSPropertyOp21
 70
     1
102
RTVSPropertyOp22
 70
     1
102
RTVSPropertyOp23
 70
     1
102
RTVSPropertyOp24
 70
     1
102
RTVSPropertyOp25
 70
     1
102
RTVSPropertyOp26
 70
     1
102
RTVSPropertyOp27
 70
     1
102
RTVSPropertyOp28
 70
     1
102
RTVSPropertyOp29
 70
     1
102
RTVSPropertyOp30
 70
     1
102
RTVSPropertyOp31
 70
     1
102
RTVSPropertyOp32
 70
     1
102
RTVSPropertyOp33
 70
     1
102
RTVSPropertyOp34
 70
     1
102
RTVSPropertyOp35
 70
     1
102
RTVSPropertyOp36
 70
     1
102
RTVSPropertyOp37
 70
     1
102
RTVSPropertyOp38
 70
     1
102
RTVSPropertyOp39
 70
     1
102
RTVSPropertyOp40
 70
     1
102
RTVSPropertyOp41
 70
     1
102
RTVSPropertyOp42
 70
     1
102
RTVSPropertyOp43
 70
     1
102
RTVSPropertyOp44
 70
     1
102
RTVSPropertyOp45
 70
     1
102
RTVSPropertyOp46
 70
     1
102
RTVSPropertyOp47
 70
     1
102
RTVSPropertyOp48
 70
     1
102
RTVSPropertyOp49
 70
     1
102
RTVSPropertyOp50
 70
     1
102
RTVSPropertyOp51
 70
     0
102
RTVSPropertyOp52
 70
     0
102
RTVSPropertyOp53
 70
     1
102
RTVSPropertyOp54
 70
     1
102
RTVSPropertyOp55
 70
     1
102
RTVSPropertyOp56
 70
     1
102
RTVSPropertyOp57
 70
     1
102
RTVSPropertyOp58
 70
     1
102
RTVSPropertyOp59
 70
     1
102
RTVSPropertyOp60
 70
     1
102
RTVSPropertyOp61
 70
     1
102
RTVSPropertyOp62
 70
     1
  0
XRECORD
  5
C356
102
{ACAD_REACTORS
330
C355
102
}
330
C355
100
AcDbXrecord
280
     1
102
RTVSPost2010Prop28
280
     0
102
RTVSPost2010PropOp28
 70
     1
102
RTVSPost2010Prop29
280
     1
102
RTVSPost2010PropOp29
 70
     1
102
RTVSPost2010Prop30
280
     1
102
RTVSPost2010PropOp30
 70
     1
102
RTVSPost2010Prop31
280
     0
102
RTVSPost2010PropOp31
 70
     1
102
RTVSPost2010Prop32
280
     0
102
RTVSPost2010PropOp32
 70
     1
102
RTVSPost2010Prop33
280
     0
102
RTVSPost2010PropOp33
 70
     1
102
RTVSPost2010Prop34
280
     0
102
RTVSPost2010PropOp34
 70
     1
102
RTVSPost2010Prop35
280
     0
102
RTVSPost2010PropOp35
 70
     1
102
RTVSPost2010Prop36
280
     0
102
RTVSPost2010PropOp36
 70
     1
102
RTVSPost2010Prop37
 90
       50
102
RTVSPost2010PropOp37
 70
     1
102
RTVSPost2010Prop38
140
0.0
102
RTVSPost2010PropOp38
 70
     1
102
RTVSPost2010Prop39
140
1.0
102
RTVSPost2010PropOp39
 70
     1
102
RTVSPost2010Prop40
 90
        0
102
RTVSPost2010PropOp40
 70
     1
102
RTVSPost2010Prop41ColorIndex
 90
       18
102
RTVSPost2010Prop41ColorRGB
 90
        0
102
RTVSPost2010PropOp41
 70
     1
102
RTVSPost2010Prop42
 90
       50
102
RTVSPost2010PropOp42
 70
     1
102
RTVSPost2010Prop43
 90
        3
102
RTVSPost2010PropOp43
 70
     1
102
RTVSPost2010Prop44ColorIndex
 90
        5
102
RTVSPost2010Prop44ColorRGB
 90
      255
102
RTVSPost2010PropOp44
 70
     1
102
RTVSPost2010Prop45
280
     0
102
RTVSPost2010PropOp45
 70
     1
102
RTVSPost2010Prop46
 90
       50
102
RTVSPost2010PropOp46
 70
     1
102
RTVSPost2010Prop47
 90
       50
102
RTVSPost2010PropOp47
 70
     1
102
RTVSPost2010Prop48
 90
       50
102
RTVSPost2010PropOp48
 70
     1
102
RTVSPost2010Prop49
280
     0
102
RTVSPost2010PropOp49
 70
     1
102
RTVSPost2010Prop50
 90
       50
102
RTVSPost2010PropOp50
 70
     1
102
RTVSPost2010Prop51ColorIndex
 90
      256
102
RTVSPost2010Prop51ColorRGB
 90
-16777216
102
RTVSPost2010PropOp51
 70
     0
102
RTVSPost2010Prop52
140
1.0
102
RTVSPost2010PropOp52
 70
     0
102
RTVSPost2010Prop53
 90
        2
102
RTVSPost2010PropOp53
 70
     1
102
RTVSPost2010Prop54
  1
strokes_ogs.tif
102
RTVSPost2010PropOp54
 70
     1
102
RTVSPost2010Prop55
280
     0
102
RTVSPost2010PropOp55
 70
     1
102
RTVSPost2010Prop56
140
1.0
102
RTVSPost2010PropOp56
 70
     1
102
RTVSPost2010Prop57
140
1.0
102
RTVSPost2010PropOp57
 70
     1
102
RTVSPropertyOp0
 70
     1
102
RTVSPropertyOp1
 70
     1
102
RTVSPropertyOp2
 70
     1
102
RTVSPropertyOp3
 70
     1
102
RTVSPropertyOp4
 70
     1
102
RTVSPropertyOp5
 70
     1
102
RTVSPropertyOp6
 70
     1
102
RTVSPropertyOp7
 70
     1
102
RTVSPropertyOp8
 70
     1
102
RTVSPropertyOp9
 70
     1
102
RTVSPropertyOp10
 70
     1
102
RTVSPropertyOp11
 70
     1
102
RTVSPropertyOp12
 70
     1
102
RTVSPropertyOp13
 70
     1
102
RTVSPropertyOp14
 70
     1
102
RTVSPropertyOp15
 70
     1
102
RTVSPropertyOp16
 70
     1
102
RTVSPropertyOp17
 70
     1
102
RTVSPropertyOp18
 70
     1
102
RTVSPropertyOp19
 70
     1
102
RTVSPropertyOp20
 70
     1
102
RTVSPropertyOp21
 70
     1
102
RTVSPropertyOp22
 70
     1
102
RTVSPropertyOp23
 70
     1
102
RTVSPropertyOp24
 70
     1
102
RTVSPropertyOp25
 70
     1
102
RTVSPropertyOp26
 70
     1
102
RTVSPropertyOp27
 70
     1
102
RTVSPropertyOp28
 70
     1
102
RTVSPropertyOp29
 70
     1
102
RTVSPropertyOp30
 70
     1
102
RTVSPropertyOp31
 70
     1
102
RTVSPropertyOp32
 70
     1
102
RTVSPropertyOp33
 70
     1
102
RTVSPropertyOp34
 70
     1
102
RTVSPropertyOp35
 70
     1
102
RTVSPropertyOp36
 70
     1
102
RTVSPropertyOp37
 70
     1
102
RTVSPropertyOp38
 70
     1
102
RTVSPropertyOp39
 70
     1
102
RTVSPropertyOp40
 70
     1
102
RTVSPropertyOp41
 70
     1
102
RTVSPropertyOp42
 70
     1
102
RTVSPropertyOp43
 70
     1
102
RTVSPropertyOp44
 70
     1
102
RTVSPropertyOp45
 70
     1
102
RTVSPropertyOp46
 70
     1
102
RTVSPropertyOp47
 70
     1
102
RTVSPropertyOp48
 70
     1
102
RTVSPropertyOp49
 70
     1
102
RTVSPropertyOp50
 70
     1
102
RTVSPropertyOp51
 70
     0
102
RTVSPropertyOp52
 70
     0
102
RTVSPropertyOp53
 70
     1
102
RTVSPropertyOp54
 70
     1
102
RTVSPropertyOp55
 70
     1
102
RTVSPropertyOp56
 70
     1
102
RTVSPropertyOp57
 70
     1
102
RTVSPropertyOp58
 70
     1
102
RTVSPropertyOp59
 70
     1
102
RTVSPropertyOp60
 70
     1
102
RTVSPropertyOp61
 70
     1
102
RTVSPropertyOp62
 70
     1
  0
XRECORD
  5
C358
102
{ACAD_REACTORS
330
C357
102
}
330
C357
100
AcDbXrecord
280
     1
102
RTVSPost2010Prop28
280
     0
102
RTVSPost2010PropOp28
 70
     1
102
RTVSPost2010Prop29
280
     1
102
RTVSPost2010PropOp29
 70
     1
102
RTVSPost2010Prop30
280
     1
102
RTVSPost2010PropOp30
 70
     1
102
RTVSPost2010Prop31
280
     0
102
RTVSPost2010PropOp31
 70
     1
102
RTVSPost2010Prop32
280
     0
102
RTVSPost2010PropOp32
 70
     1
102
RTVSPost2010Prop33
280
     0
102
RTVSPost2010PropOp33
 70
     1
102
RTVSPost2010Prop34
280
     0
102
RTVSPost2010PropOp34
 70
     1
102
RTVSPost2010Prop35
280
     0
102
RTVSPost2010PropOp35
 70
     1
102
RTVSPost2010Prop36
280
     0
102
RTVSPost2010PropOp36
 70
     1
102
RTVSPost2010Prop37
 90
       50
102
RTVSPost2010PropOp37
 70
     1
102
RTVSPost2010Prop38
140
0.0
102
RTVSPost2010PropOp38
 70
     1
102
RTVSPost2010Prop39
140
1.0
102
RTVSPost2010PropOp39
 70
     1
102
RTVSPost2010Prop40
 90
        0
102
RTVSPost2010PropOp40
 70
     1
102
RTVSPost2010Prop41ColorIndex
 90
       18
102
RTVSPost2010Prop41ColorRGB
 90
        0
102
RTVSPost2010PropOp41
 70
     1
102
RTVSPost2010Prop42
 90
       50
102
RTVSPost2010PropOp42
 70
     1
102
RTVSPost2010Prop43
 90
        3
102
RTVSPost2010PropOp43
 70
     1
102
RTVSPost2010Prop44ColorIndex
 90
        5
102
RTVSPost2010Prop44ColorRGB
 90
      255
102
RTVSPost2010PropOp44
 70
     1
102
RTVSPost2010Prop45
280
     0
102
RTVSPost2010PropOp45
 70
     1
102
RTVSPost2010Prop46
 90
       50
102
RTVSPost2010PropOp46
 70
     1
102
RTVSPost2010Prop47
 90
       50
102
RTVSPost2010PropOp47
 70
     1
102
RTVSPost2010Prop48
 90
       50
102
RTVSPost2010PropOp48
 70
     1
102
RTVSPost2010Prop49
280
     0
102
RTVSPost2010PropOp49
 70
     1
102
RTVSPost2010Prop50
 90
       50
102
RTVSPost2010PropOp50
 70
     1
102
RTVSPost2010Prop51ColorIndex
 90
      256
102
RTVSPost2010Prop51ColorRGB
 90
-16777216
102
RTVSPost2010PropOp51
 70
     0
102
RTVSPost2010Prop52
140
1.0
102
RTVSPost2010PropOp52
 70
     0
102
RTVSPost2010Prop53
 90
        2
102
RTVSPost2010PropOp53
 70
     1
102
RTVSPost2010Prop54
  1
strokes_ogs.tif
102
RTVSPost2010PropOp54
 70
     1
102
RTVSPost2010Prop55
280
     0
102
RTVSPost2010PropOp55
 70
     1
102
RTVSPost2010Prop56
140
1.0
102
RTVSPost2010PropOp56
 70
     1
102
RTVSPost2010Prop57
140
1.0
102
RTVSPost2010PropOp57
 70
     1
102
RTVSPropertyOp0
 70
     1
102
RTVSPropertyOp1
 70
     1
102
RTVSPropertyOp2
 70
     1
102
RTVSPropertyOp3
 70
     1
102
RTVSPropertyOp4
 70
     1
102
RTVSPropertyOp5
 70
     1
102
RTVSPropertyOp6
 70
     1
102
RTVSPropertyOp7
 70
     1
102
RTVSPropertyOp8
 70
     1
102
RTVSPropertyOp9
 70
     1
102
RTVSPropertyOp10
 70
     1
102
RTVSPropertyOp11
 70
     1
102
RTVSPropertyOp12
 70
     1
102
RTVSPropertyOp13
 70
     1
102
RTVSPropertyOp14
 70
     1
102
RTVSPropertyOp15
 70
     1
102
RTVSPropertyOp16
 70
     1
102
RTVSPropertyOp17
 70
     1
102
RTVSPropertyOp18
 70
     1
102
RTVSPropertyOp19
 70
     1
102
RTVSPropertyOp20
 70
     1
102
RTVSPropertyOp21
 70
     1
102
RTVSPropertyOp22
 70
     1
102
RTVSPropertyOp23
 70
     1
102
RTVSPropertyOp24
 70
     1
102
RTVSPropertyOp25
 70
     1
102
RTVSPropertyOp26
 70
     1
102
RTVSPropertyOp27
 70
     1
102
RTVSPropertyOp28
 70
     1
102
RTVSPropertyOp29
 70
     1
102
RTVSPropertyOp30
 70
     1
102
RTVSPropertyOp31
 70
     1
102
RTVSPropertyOp32
 70
     1
102
RTVSPropertyOp33
 70
     1
102
RTVSPropertyOp34
 70
     1
102
RTVSPropertyOp35
 70
     1
102
RTVSPropertyOp36
 70
     1
102
RTVSPropertyOp37
 70
     1
102
RTVSPropertyOp38
 70
     1
102
RTVSPropertyOp39
 70
     1
102
RTVSPropertyOp40
 70
     1
102
RTVSPropertyOp41
 70
     1
102
RTVSPropertyOp42
 70
     1
102
RTVSPropertyOp43
 70
     1
102
RTVSPropertyOp44
 70
     1
102
RTVSPropertyOp45
 70
     1
102
RTVSPropertyOp46
 70
     1
102
RTVSPropertyOp47
 70
     1
102
RTVSPropertyOp48
 70
     1
102
RTVSPropertyOp49
 70
     1
102
RTVSPropertyOp50
 70
     1
102
RTVSPropertyOp51
 70
     0
102
RTVSPropertyOp52
 70
     0
102
RTVSPropertyOp53
 70
     1
102
RTVSPropertyOp54
 70
     1
102
RTVSPropertyOp55
 70
     1
102
RTVSPropertyOp56
 70
     1
102
RTVSPropertyOp57
 70
     1
102
RTVSPropertyOp58
 70
     1
102
RTVSPropertyOp59
 70
     1
102
RTVSPropertyOp60
 70
     1
102
RTVSPropertyOp61
 70
     1
102
RTVSPropertyOp62
 70
     1
  0
XRECORD
  5
C360
102
{ACAD_REACTORS
330
C35F
102
}
330
C35F
100
AcDbXrecord
280
     1
102
RTVSPost2010Prop28
280
     0
102
RTVSPost2010PropOp28
 70
     1
102
RTVSPost2010Prop29
280
     1
102
RTVSPost2010PropOp29
 70
     1
102
RTVSPost2010Prop30
280
     1
102
RTVSPost2010PropOp30
 70
     1
102
RTVSPost2010Prop31
280
     0
102
RTVSPost2010PropOp31
 70
     1
102
RTVSPost2010Prop32
280
     0
102
RTVSPost2010PropOp32
 70
     1
102
RTVSPost2010Prop33
280
     0
102
RTVSPost2010PropOp33
 70
     1
102
RTVSPost2010Prop34
280
     0
102
RTVSPost2010PropOp34
 70
     1
102
RTVSPost2010Prop35
280
     0
102
RTVSPost2010PropOp35
 70
     1
102
RTVSPost2010Prop36
280
     0
102
RTVSPost2010PropOp36
 70
     1
102
RTVSPost2010Prop37
 90
       50
102
RTVSPost2010PropOp37
 70
     1
102
RTVSPost2010Prop38
140
0.0
102
RTVSPost2010PropOp38
 70
     1
102
RTVSPost2010Prop39
140
1.0
102
RTVSPost2010PropOp39
 70
     1
102
RTVSPost2010Prop40
 90
        0
102
RTVSPost2010PropOp40
 70
     1
102
RTVSPost2010Prop41ColorIndex
 90
       18
102
RTVSPost2010Prop41ColorRGB
 90
        0
102
RTVSPost2010PropOp41
 70
     1
102
RTVSPost2010Prop42
 90
       50
102
RTVSPost2010PropOp42
 70
     1
102
RTVSPost2010Prop43
 90
        3
102
RTVSPost2010PropOp43
 70
     1
102
RTVSPost2010Prop44ColorIndex
 90
        5
102
RTVSPost2010Prop44ColorRGB
 90
      255
102
RTVSPost2010PropOp44
 70
     1
102
RTVSPost2010Prop45
280
     0
102
RTVSPost2010PropOp45
 70
     1
102
RTVSPost2010Prop46
 90
       50
102
RTVSPost2010PropOp46
 70
     1
102
RTVSPost2010Prop47
 90
       50
102
RTVSPost2010PropOp47
 70
     1
102
RTVSPost2010Prop48
 90
       50
102
RTVSPost2010PropOp48
 70
     1
102
RTVSPost2010Prop49
280
     0
102
RTVSPost2010PropOp49
 70
     1
102
RTVSPost2010Prop50
 90
       50
102
RTVSPost2010PropOp50
 70
     1
102
RTVSPost2010Prop51ColorIndex
 90
      256
102
RTVSPost2010Prop51ColorRGB
 90
-16777216
102
RTVSPost2010PropOp51
 70
     0
102
RTVSPost2010Prop52
140
1.0
102
RTVSPost2010PropOp52
 70
     0
102
RTVSPost2010Prop53
 90
        2
102
RTVSPost2010PropOp53
 70
     1
102
RTVSPost2010Prop54
  1
strokes_ogs.tif
102
RTVSPost2010PropOp54
 70
     1
102
RTVSPost2010Prop55
280
     0
102
RTVSPost2010PropOp55
 70
     1
102
RTVSPost2010Prop56
140
1.0
102
RTVSPost2010PropOp56
 70
     1
102
RTVSPost2010Prop57
140
1.0
102
RTVSPost2010PropOp57
 70
     1
102
RTVSPropertyOp0
 70
     1
102
RTVSPropertyOp1
 70
     1
102
RTVSPropertyOp2
 70
     1
102
RTVSPropertyOp3
 70
     1
102
RTVSPropertyOp4
 70
     1
102
RTVSPropertyOp5
 70
     1
102
RTVSPropertyOp6
 70
     1
102
RTVSPropertyOp7
 70
     1
102
RTVSPropertyOp8
 70
     1
102
RTVSPropertyOp9
 70
     1
102
RTVSPropertyOp10
 70
     1
102
RTVSPropertyOp11
 70
     1
102
RTVSPropertyOp12
 70
     1
102
RTVSPropertyOp13
 70
     1
102
RTVSPropertyOp14
 70
     1
102
RTVSPropertyOp15
 70
     1
102
RTVSPropertyOp16
 70
     1
102
RTVSPropertyOp17
 70
     1
102
RTVSPropertyOp18
 70
     1
102
RTVSPropertyOp19
 70
     1
102
RTVSPropertyOp20
 70
     1
102
RTVSPropertyOp21
 70
     1
102
RTVSPropertyOp22
 70
     1
102
RTVSPropertyOp23
 70
     1
102
RTVSPropertyOp24
 70
     1
102
RTVSPropertyOp25
 70
     1
102
RTVSPropertyOp26
 70
     1
102
RTVSPropertyOp27
 70
     1
102
RTVSPropertyOp28
 70
     1
102
RTVSPropertyOp29
 70
     1
102
RTVSPropertyOp30
 70
     1
102
RTVSPropertyOp31
 70
     1
102
RTVSPropertyOp32
 70
     1
102
RTVSPropertyOp33
 70
     1
102
RTVSPropertyOp34
 70
     1
102
RTVSPropertyOp35
 70
     1
102
RTVSPropertyOp36
 70
     1
102
RTVSPropertyOp37
 70
     1
102
RTVSPropertyOp38
 70
     1
102
RTVSPropertyOp39
 70
     1
102
RTVSPropertyOp40
 70
     1
102
RTVSPropertyOp41
 70
     1
102
RTVSPropertyOp42
 70
     1
102
RTVSPropertyOp43
 70
     1
102
RTVSPropertyOp44
 70
     1
102
RTVSPropertyOp45
 70
     1
102
RTVSPropertyOp46
 70
     1
102
RTVSPropertyOp47
 70
     1
102
RTVSPropertyOp48
 70
     1
102
RTVSPropertyOp49
 70
     1
102
RTVSPropertyOp50
 70
     1
102
RTVSPropertyOp51
 70
     0
102
RTVSPropertyOp52
 70
     0
102
RTVSPropertyOp53
 70
     1
102
RTVSPropertyOp54
 70
     1
102
RTVSPropertyOp55
 70
     1
102
RTVSPropertyOp56
 70
     1
102
RTVSPropertyOp57
 70
     1
102
RTVSPropertyOp58
 70
     1
102
RTVSPropertyOp59
 70
     1
102
RTVSPropertyOp60
 70
     1
102
RTVSPropertyOp61
 70
     1
102
RTVSPropertyOp62
 70
     1
  0
XRECORD
  5
C37C
102
{ACAD_REACTORS
330
C37B
102
}
330
C37B
100
AcDbXrecord
280
     1
102
RTVSPost2010Prop28
280
     0
102
RTVSPost2010PropOp28
 70
     1
102
RTVSPost2010Prop29
280
     1
102
RTVSPost2010PropOp29
 70
     1
102
RTVSPost2010Prop30
280
     1
102
RTVSPost2010PropOp30
 70
     1
102
RTVSPost2010Prop31
280
     0
102
RTVSPost2010PropOp31
 70
     1
102
RTVSPost2010Prop32
280
     0
102
RTVSPost2010PropOp32
 70
     1
102
RTVSPost2010Prop33
280
     0
102
RTVSPost2010PropOp33
 70
     1
102
RTVSPost2010Prop34
280
     0
102
RTVSPost2010PropOp34
 70
     1
102
RTVSPost2010Prop35
280
     0
102
RTVSPost2010PropOp35
 70
     1
102
RTVSPost2010Prop36
280
     0
102
RTVSPost2010PropOp36
 70
     1
102
RTVSPost2010Prop37
 90
       50
102
RTVSPost2010PropOp37
 70
     0
102
RTVSPost2010Prop38
140
0.0
102
RTVSPost2010PropOp38
 70
     0
102
RTVSPost2010Prop39
140
1.0
102
RTVSPost2010PropOp39
 70
     0
102
RTVSPost2010Prop40
 90
        0
102
RTVSPost2010PropOp40
 70
     0
102
RTVSPost2010Prop41ColorIndex
 90
       18
102
RTVSPost2010Prop41ColorRGB
 90
        0
102
RTVSPost2010PropOp41
 70
     0
102
RTVSPost2010Prop42
 90
       50
102
RTVSPost2010PropOp42
 70
     0
102
RTVSPost2010Prop43
 90
        3
102
RTVSPost2010PropOp43
 70
     0
102
RTVSPost2010Prop44ColorIndex
 90
        5
102
RTVSPost2010Prop44ColorRGB
 90
      255
102
RTVSPost2010PropOp44
 70
     0
102
RTVSPost2010Prop45
280
     0
102
RTVSPost2010PropOp45
 70
     1
102
RTVSPost2010Prop46
 90
       50
102
RTVSPost2010PropOp46
 70
     0
102
RTVSPost2010Prop47
 90
       50
102
RTVSPost2010PropOp47
 70
     0
102
RTVSPost2010Prop48
 90
       50
102
RTVSPost2010PropOp48
 70
     0
102
RTVSPost2010Prop49
280
     0
102
RTVSPost2010PropOp49
 70
     1
102
RTVSPost2010Prop50
 90
       50
102
RTVSPost2010PropOp50
 70
     0
102
RTVSPost2010Prop51ColorIndex
 90
      256
102
RTVSPost2010Prop51ColorRGB
 90
-16777216
102
RTVSPost2010PropOp51
 70
     0
102
RTVSPost2010Prop52
140
1.0
102
RTVSPost2010PropOp52
 70
     0
102
RTVSPost2010Prop53
 90
        2
102
RTVSPost2010PropOp53
 70
     0
102
RTVSPost2010Prop54
  1
strokes_ogs.tif
102
RTVSPost2010PropOp54
 70
     0
102
RTVSPost2010Prop55
280
     0
102
RTVSPost2010PropOp55
 70
     1
102
RTVSPost2010Prop56
140
1.0
102
RTVSPost2010PropOp56
 70
     0
102
RTVSPost2010Prop57
140
1.0
102
RTVSPost2010PropOp57
 70
     0
102
RTVSPropertyOp0
 70
     0
102
RTVSPropertyOp1
 70
     0
102
RTVSPropertyOp2
 70
     0
102
RTVSPropertyOp3
 70
     0
102
RTVSPropertyOp4
 70
     0
102
RTVSPropertyOp5
 70
     0
102
RTVSPropertyOp6
 70
     0
102
RTVSPropertyOp7
 70
     0
102
RTVSPropertyOp8
 70
     0
102
RTVSPropertyOp9
 70
     0
102
RTVSPropertyOp10
 70
     0
102
RTVSPropertyOp11
 70
     0
102
RTVSPropertyOp12
 70
     0
102
RTVSPropertyOp13
 70
     0
102
RTVSPropertyOp14
 70
     2
102
RTVSPropertyOp15
 70
     0
102
RTVSPropertyOp16
 70
     0
102
RTVSPropertyOp17
 70
     0
102
RTVSPropertyOp18
 70
     0
102
RTVSPropertyOp19
 70
     0
102
RTVSPropertyOp20
 70
     0
102
RTVSPropertyOp21
 70
     0
102
RTVSPropertyOp22
 70
     0
102
RTVSPropertyOp23
 70
     0
102
RTVSPropertyOp24
 70
     0
102
RTVSPropertyOp25
 70
     0
102
RTVSPropertyOp26
 70
     0
102
RTVSPropertyOp27
 70
     0
102
RTVSPropertyOp28
 70
     1
102
RTVSPropertyOp29
 70
     1
102
RTVSPropertyOp30
 70
     1
102
RTVSPropertyOp31
 70
     1
102
RTVSPropertyOp32
 70
     1
102
RTVSPropertyOp33
 70
     1
102
RTVSPropertyOp34
 70
     1
102
RTVSPropertyOp35
 70
     1
102
RTVSPropertyOp36
 70
     1
102
RTVSPropertyOp37
 70
     0
102
RTVSPropertyOp38
 70
     0
102
RTVSPropertyOp39
 70
     0
102
RTVSPropertyOp40
 70
     0
102
RTVSPropertyOp41
 70
     0
102
RTVSPropertyOp42
 70
     0
102
RTVSPropertyOp43
 70
     0
102
RTVSPropertyOp44
 70
     0
102
RTVSPropertyOp45
 70
     1
102
RTVSPropertyOp46
 70
     0
102
RTVSPropertyOp47
 70
     0
102
RTVSPropertyOp48
 70
     0
102
RTVSPropertyOp49
 70
     1
102
RTVSPropertyOp50
 70
     0
102
RTVSPropertyOp51
 70
     0
102
RTVSPropertyOp52
 70
     0
102
RTVSPropertyOp53
 70
     0
102
RTVSPropertyOp54
 70
     0
102
RTVSPropertyOp55
 70
     1
102
RTVSPropertyOp56
 70
     0
102
RTVSPropertyOp57
 70
     0
102
RTVSPropertyOp58
 70
     0
102
RTVSPropertyOp59
 70
     0
102
RTVSPropertyOp60
 70
     0
102
RTVSPropertyOp61
 70
     0
102
RTVSPropertyOp62
 70
     0
  0
XRECORD
  5
C36C
102
{ACAD_REACTORS
330
C36B
102
}
330
C36B
100
AcDbXrecord
280
     1
102
RTVSPost2010Prop28
280
     0
102
RTVSPost2010PropOp28
 70
     1
102
RTVSPost2010Prop29
280
     1
102
RTVSPost2010PropOp29
 70
     1
102
RTVSPost2010Prop30
280
     1
102
RTVSPost2010PropOp30
 70
     1
102
RTVSPost2010Prop31
280
     0
102
RTVSPost2010PropOp31
 70
     1
102
RTVSPost2010Prop32
280
     0
102
RTVSPost2010PropOp32
 70
     1
102
RTVSPost2010Prop33
280
     0
102
RTVSPost2010PropOp33
 70
     1
102
RTVSPost2010Prop34
280
     0
102
RTVSPost2010PropOp34
 70
     1
102
RTVSPost2010Prop35
280
     0
102
RTVSPost2010PropOp35
 70
     1
102
RTVSPost2010Prop36
280
     0
102
RTVSPost2010PropOp36
 70
     1
102
RTVSPost2010Prop37
 90
       50
102
RTVSPost2010PropOp37
 70
     1
102
RTVSPost2010Prop38
140
0.0
102
RTVSPost2010PropOp38
 70
     1
102
RTVSPost2010Prop39
140
1.0
102
RTVSPost2010PropOp39
 70
     1
102
RTVSPost2010Prop40
 90
        0
102
RTVSPost2010PropOp40
 70
     1
102
RTVSPost2010Prop41ColorIndex
 90
       18
102
RTVSPost2010Prop41ColorRGB
 90
        0
102
RTVSPost2010PropOp41
 70
     1
102
RTVSPost2010Prop42
 90
       50
102
RTVSPost2010PropOp42
 70
     1
102
RTVSPost2010Prop43
 90
        3
102
RTVSPost2010PropOp43
 70
     1
102
RTVSPost2010Prop44ColorIndex
 90
        5
102
RTVSPost2010Prop44ColorRGB
 90
      255
102
RTVSPost2010PropOp44
 70
     1
102
RTVSPost2010Prop45
280
     0
102
RTVSPost2010PropOp45
 70
     1
102
RTVSPost2010Prop46
 90
       50
102
RTVSPost2010PropOp46
 70
     1
102
RTVSPost2010Prop47
 90
       50
102
RTVSPost2010PropOp47
 70
     1
102
RTVSPost2010Prop48
 90
       50
102
RTVSPost2010PropOp48
 70
     1
102
RTVSPost2010Prop49
280
     0
102
RTVSPost2010PropOp49
 70
     1
102
RTVSPost2010Prop50
 90
       50
102
RTVSPost2010PropOp50
 70
     1
102
RTVSPost2010Prop51ColorIndex
 90
      256
102
RTVSPost2010Prop51ColorRGB
 90
-16777216
102
RTVSPost2010PropOp51
 70
     0
102
RTVSPost2010Prop52
140
1.0
102
RTVSPost2010PropOp52
 70
     0
102
RTVSPost2010Prop53
 90
        2
102
RTVSPost2010PropOp53
 70
     1
102
RTVSPost2010Prop54
  1
strokes_ogs.tif
102
RTVSPost2010PropOp54
 70
     1
102
RTVSPost2010Prop55
280
     0
102
RTVSPost2010PropOp55
 70
     1
102
RTVSPost2010Prop56
140
1.0
102
RTVSPost2010PropOp56
 70
     1
102
RTVSPost2010Prop57
140
1.0
102
RTVSPost2010PropOp57
 70
     1
102
RTVSPropertyOp0
 70
     1
102
RTVSPropertyOp1
 70
     1
102
RTVSPropertyOp2
 70
     1
102
RTVSPropertyOp3
 70
     1
102
RTVSPropertyOp4
 70
     1
102
RTVSPropertyOp5
 70
     1
102
RTVSPropertyOp6
 70
     1
102
RTVSPropertyOp7
 70
     1
102
RTVSPropertyOp8
 70
     1
102
RTVSPropertyOp9
 70
     1
102
RTVSPropertyOp10
 70
     1
102
RTVSPropertyOp11
 70
     1
102
RTVSPropertyOp12
 70
     1
102
RTVSPropertyOp13
 70
     1
102
RTVSPropertyOp14
 70
     1
102
RTVSPropertyOp15
 70
     1
102
RTVSPropertyOp16
 70
     1
102
RTVSPropertyOp17
 70
     1
102
RTVSPropertyOp18
 70
     1
102
RTVSPropertyOp19
 70
     1
102
RTVSPropertyOp20
 70
     1
102
RTVSPropertyOp21
 70
     1
102
RTVSPropertyOp22
 70
     1
102
RTVSPropertyOp23
 70
     1
102
RTVSPropertyOp24
 70
     1
102
RTVSPropertyOp25
 70
     1
102
RTVSPropertyOp26
 70
     1
102
RTVSPropertyOp27
 70
     1
102
RTVSPropertyOp28
 70
     1
102
RTVSPropertyOp29
 70
     1
102
RTVSPropertyOp30
 70
     1
102
RTVSPropertyOp31
 70
     1
102
RTVSPropertyOp32
 70
     1
102
RTVSPropertyOp33
 70
     1
102
RTVSPropertyOp34
 70
     1
102
RTVSPropertyOp35
 70
     1
102
RTVSPropertyOp36
 70
     1
102
RTVSPropertyOp37
 70
     1
102
RTVSPropertyOp38
 70
     1
102
RTVSPropertyOp39
 70
     1
102
RTVSPropertyOp40
 70
     1
102
RTVSPropertyOp41
 70
     1
102
RTVSPropertyOp42
 70
     1
102
RTVSPropertyOp43
 70
     1
102
RTVSPropertyOp44
 70
     1
102
RTVSPropertyOp45
 70
     1
102
RTVSPropertyOp46
 70
     1
102
RTVSPropertyOp47
 70
     1
102
RTVSPropertyOp48
 70
     1
102
RTVSPropertyOp49
 70
     1
102
RTVSPropertyOp50
 70
     1
102
RTVSPropertyOp51
 70
     0
102
RTVSPropertyOp52
 70
     0
102
RTVSPropertyOp53
 70
     1
102
RTVSPropertyOp54
 70
     1
102
RTVSPropertyOp55
 70
     1
102
RTVSPropertyOp56
 70
     1
102
RTVSPropertyOp57
 70
     1
102
RTVSPropertyOp58
 70
     1
102
RTVSPropertyOp59
 70
     1
102
RTVSPropertyOp60
 70
     1
102
RTVSPropertyOp61
 70
     1
102
RTVSPropertyOp62
 70
     1
  0
XRECORD
  5
C37E
102
{ACAD_REACTORS
330
C37D
102
}
330
C37D
100
AcDbXrecord
280
     1
102
RTVSPost2010Prop28
280
     0
102
RTVSPost2010PropOp28
 70
     1
102
RTVSPost2010Prop29
280
     1
102
RTVSPost2010PropOp29
 70
     1
102
RTVSPost2010Prop30
280
     1
102
RTVSPost2010PropOp30
 70
     1
102
RTVSPost2010Prop31
280
     0
102
RTVSPost2010PropOp31
 70
     1
102
RTVSPost2010Prop32
280
     0
102
RTVSPost2010PropOp32
 70
     1
102
RTVSPost2010Prop33
280
     0
102
RTVSPost2010PropOp33
 70
     1
102
RTVSPost2010Prop34
280
     0
102
RTVSPost2010PropOp34
 70
     1
102
RTVSPost2010Prop35
280
     0
102
RTVSPost2010PropOp35
 70
     1
102
RTVSPost2010Prop36
280
     0
102
RTVSPost2010PropOp36
 70
     1
102
RTVSPost2010Prop37
 90
       50
102
RTVSPost2010PropOp37
 70
     0
102
RTVSPost2010Prop38
140
0.0
102
RTVSPost2010PropOp38
 70
     0
102
RTVSPost2010Prop39
140
1.0
102
RTVSPost2010PropOp39
 70
     0
102
RTVSPost2010Prop40
 90
        0
102
RTVSPost2010PropOp40
 70
     0
102
RTVSPost2010Prop41ColorIndex
 90
       18
102
RTVSPost2010Prop41ColorRGB
 90
        0
102
RTVSPost2010PropOp41
 70
     0
102
RTVSPost2010Prop42
 90
       50
102
RTVSPost2010PropOp42
 70
     0
102
RTVSPost2010Prop43
 90
        3
102
RTVSPost2010PropOp43
 70
     0
102
RTVSPost2010Prop44ColorIndex
 90
        5
102
RTVSPost2010Prop44ColorRGB
 90
      255
102
RTVSPost2010PropOp44
 70
     0
102
RTVSPost2010Prop45
280
     0
102
RTVSPost2010PropOp45
 70
     1
102
RTVSPost2010Prop46
 90
       50
102
RTVSPost2010PropOp46
 70
     0
102
RTVSPost2010Prop47
 90
       50
102
RTVSPost2010PropOp47
 70
     0
102
RTVSPost2010Prop48
 90
       50
102
RTVSPost2010PropOp48
 70
     0
102
RTVSPost2010Prop49
280
     0
102
RTVSPost2010PropOp49
 70
     1
102
RTVSPost2010Prop50
 90
       50
102
RTVSPost2010PropOp50
 70
     0
102
RTVSPost2010Prop51ColorIndex
 90
      256
102
RTVSPost2010Prop51ColorRGB
 90
-16777216
102
RTVSPost2010PropOp51
 70
     0
102
RTVSPost2010Prop52
140
1.0
102
RTVSPost2010PropOp52
 70
     0
102
RTVSPost2010Prop53
 90
        2
102
RTVSPost2010PropOp53
 70
     0
102
RTVSPost2010Prop54
  1
strokes_ogs.tif
102
RTVSPost2010PropOp54
 70
     0
102
RTVSPost2010Prop55
280
     0
102
RTVSPost2010PropOp55
 70
     1
102
RTVSPost2010Prop56
140
1.0
102
RTVSPost2010PropOp56
 70
     0
102
RTVSPost2010Prop57
140
1.0
102
RTVSPost2010PropOp57
 70
     0
102
RTVSPropertyOp0
 70
     0
102
RTVSPropertyOp1
 70
     0
102
RTVSPropertyOp2
 70
     0
102
RTVSPropertyOp3
 70
     0
102
RTVSPropertyOp4
 70
     0
102
RTVSPropertyOp5
 70
     0
102
RTVSPropertyOp6
 70
     0
102
RTVSPropertyOp7
 70
     0
102
RTVSPropertyOp8
 70
     0
102
RTVSPropertyOp9
 70
     0
102
RTVSPropertyOp10
 70
     0
102
RTVSPropertyOp11
 70
     0
102
RTVSPropertyOp12
 70
     0
102
RTVSPropertyOp13
 70
     0
102
RTVSPropertyOp14
 70
     2
102
RTVSPropertyOp15
 70
     0
102
RTVSPropertyOp16
 70
     0
102
RTVSPropertyOp17
 70
     0
102
RTVSPropertyOp18
 70
     0
102
RTVSPropertyOp19
 70
     0
102
RTVSPropertyOp20
 70
     0
102
RTVSPropertyOp21
 70
     0
102
RTVSPropertyOp22
 70
     0
102
RTVSPropertyOp23
 70
     0
102
RTVSPropertyOp24
 70
     0
102
RTVSPropertyOp25
 70
     0
102
RTVSPropertyOp26
 70
     0
102
RTVSPropertyOp27
 70
     0
102
RTVSPropertyOp28
 70
     1
102
RTVSPropertyOp29
 70
     1
102
RTVSPropertyOp30
 70
     1
102
RTVSPropertyOp31
 70
     1
102
RTVSPropertyOp32
 70
     1
102
RTVSPropertyOp33
 70
     1
102
RTVSPropertyOp34
 70
     1
102
RTVSPropertyOp35
 70
     1
102
RTVSPropertyOp36
 70
     1
102
RTVSPropertyOp37
 70
     0
102
RTVSPropertyOp38
 70
     0
102
RTVSPropertyOp39
 70
     0
102
RTVSPropertyOp40
 70
     0
102
RTVSPropertyOp41
 70
     0
102
RTVSPropertyOp42
 70
     0
102
RTVSPropertyOp43
 70
     0
102
RTVSPropertyOp44
 70
     0
102
RTVSPropertyOp45
 70
     1
102
RTVSPropertyOp46
 70
     0
102
RTVSPropertyOp47
 70
     0
102
RTVSPropertyOp48
 70
     0
102
RTVSPropertyOp49
 70
     1
102
RTVSPropertyOp50
 70
     0
102
RTVSPropertyOp51
 70
     0
102
RTVSPropertyOp52
 70
     0
102
RTVSPropertyOp53
 70
     0
102
RTVSPropertyOp54
 70
     0
102
RTVSPropertyOp55
 70
     1
102
RTVSPropertyOp56
 70
     0
102
RTVSPropertyOp57
 70
     0
102
RTVSPropertyOp58
 70
     0
102
RTVSPropertyOp59
 70
     0
102
RTVSPropertyOp60
 70
     0
102
RTVSPropertyOp61
 70
     0
102
RTVSPropertyOp62
 70
     0
  0
XRECORD
  5
C364
102
{ACAD_REACTORS
330
C363
102
}
330
C363
100
AcDbXrecord
280
     1
102
RTVSPost2010Prop28
280
     0
102
RTVSPost2010PropOp28
 70
     1
102
RTVSPost2010Prop29
280
     1
102
RTVSPost2010PropOp29
 70
     1
102
RTVSPost2010Prop30
280
     1
102
RTVSPost2010PropOp30
 70
     1
102
RTVSPost2010Prop31
280
     0
102
RTVSPost2010PropOp31
 70
     1
102
RTVSPost2010Prop32
280
     0
102
RTVSPost2010PropOp32
 70
     1
102
RTVSPost2010Prop33
280
     0
102
RTVSPost2010PropOp33
 70
     1
102
RTVSPost2010Prop34
280
     0
102
RTVSPost2010PropOp34
 70
     1
102
RTVSPost2010Prop35
280
     0
102
RTVSPost2010PropOp35
 70
     1
102
RTVSPost2010Prop36
280
     0
102
RTVSPost2010PropOp36
 70
     1
102
RTVSPost2010Prop37
 90
       50
102
RTVSPost2010PropOp37
 70
     1
102
RTVSPost2010Prop38
140
0.0
102
RTVSPost2010PropOp38
 70
     1
102
RTVSPost2010Prop39
140
1.0
102
RTVSPost2010PropOp39
 70
     1
102
RTVSPost2010Prop40
 90
        0
102
RTVSPost2010PropOp40
 70
     1
102
RTVSPost2010Prop41ColorIndex
 90
       18
102
RTVSPost2010Prop41ColorRGB
 90
        0
102
RTVSPost2010PropOp41
 70
     1
102
RTVSPost2010Prop42
 90
       50
102
RTVSPost2010PropOp42
 70
     1
102
RTVSPost2010Prop43
 90
        3
102
RTVSPost2010PropOp43
 70
     1
102
RTVSPost2010Prop44ColorIndex
 90
        5
102
RTVSPost2010Prop44ColorRGB
 90
      255
102
RTVSPost2010PropOp44
 70
     1
102
RTVSPost2010Prop45
280
     0
102
RTVSPost2010PropOp45
 70
     1
102
RTVSPost2010Prop46
 90
       50
102
RTVSPost2010PropOp46
 70
     1
102
RTVSPost2010Prop47
 90
       50
102
RTVSPost2010PropOp47
 70
     1
102
RTVSPost2010Prop48
 90
       50
102
RTVSPost2010PropOp48
 70
     1
102
RTVSPost2010Prop49
280
     0
102
RTVSPost2010PropOp49
 70
     1
102
RTVSPost2010Prop50
 90
       50
102
RTVSPost2010PropOp50
 70
     1
102
RTVSPost2010Prop51ColorIndex
 90
      256
102
RTVSPost2010Prop51ColorRGB
 90
-16777216
102
RTVSPost2010PropOp51
 70
     0
102
RTVSPost2010Prop52
140
1.0
102
RTVSPost2010PropOp52
 70
     0
102
RTVSPost2010Prop53
 90
        2
102
RTVSPost2010PropOp53
 70
     1
102
RTVSPost2010Prop54
  1
strokes_ogs.tif
102
RTVSPost2010PropOp54
 70
     1
102
RTVSPost2010Prop55
280
     0
102
RTVSPost2010PropOp55
 70
     1
102
RTVSPost2010Prop56
140
1.0
102
RTVSPost2010PropOp56
 70
     1
102
RTVSPost2010Prop57
140
1.0
102
RTVSPost2010PropOp57
 70
     1
102
RTVSPropertyOp0
 70
     1
102
RTVSPropertyOp1
 70
     1
102
RTVSPropertyOp2
 70
     1
102
RTVSPropertyOp3
 70
     1
102
RTVSPropertyOp4
 70
     1
102
RTVSPropertyOp5
 70
     1
102
RTVSPropertyOp6
 70
     1
102
RTVSPropertyOp7
 70
     1
102
RTVSPropertyOp8
 70
     1
102
RTVSPropertyOp9
 70
     1
102
RTVSPropertyOp10
 70
     1
102
RTVSPropertyOp11
 70
     1
102
RTVSPropertyOp12
 70
     1
102
RTVSPropertyOp13
 70
     1
102
RTVSPropertyOp14
 70
     1
102
RTVSPropertyOp15
 70
     1
102
RTVSPropertyOp16
 70
     1
102
RTVSPropertyOp17
 70
     1
102
RTVSPropertyOp18
 70
     1
102
RTVSPropertyOp19
 70
     1
102
RTVSPropertyOp20
 70
     1
102
RTVSPropertyOp21
 70
     1
102
RTVSPropertyOp22
 70
     1
102
RTVSPropertyOp23
 70
     1
102
RTVSPropertyOp24
 70
     1
102
RTVSPropertyOp25
 70
     1
102
RTVSPropertyOp26
 70
     1
102
RTVSPropertyOp27
 70
     1
102
RTVSPropertyOp28
 70
     1
102
RTVSPropertyOp29
 70
     1
102
RTVSPropertyOp30
 70
     1
102
RTVSPropertyOp31
 70
     1
102
RTVSPropertyOp32
 70
     1
102
RTVSPropertyOp33
 70
     1
102
RTVSPropertyOp34
 70
     1
102
RTVSPropertyOp35
 70
     1
102
RTVSPropertyOp36
 70
     1
102
RTVSPropertyOp37
 70
     1
102
RTVSPropertyOp38
 70
     1
102
RTVSPropertyOp39
 70
     1
102
RTVSPropertyOp40
 70
     1
102
RTVSPropertyOp41
 70
     1
102
RTVSPropertyOp42
 70
     1
102
RTVSPropertyOp43
 70
     1
102
RTVSPropertyOp44
 70
     1
102
RTVSPropertyOp45
 70
     1
102
RTVSPropertyOp46
 70
     1
102
RTVSPropertyOp47
 70
     1
102
RTVSPropertyOp48
 70
     1
102
RTVSPropertyOp49
 70
     1
102
RTVSPropertyOp50
 70
     1
102
RTVSPropertyOp51
 70
     0
102
RTVSPropertyOp52
 70
     0
102
RTVSPropertyOp53
 70
     1
102
RTVSPropertyOp54
 70
     1
102
RTVSPropertyOp55
 70
     1
102
RTVSPropertyOp56
 70
     1
102
RTVSPropertyOp57
 70
     1
102
RTVSPropertyOp58
 70
     1
102
RTVSPropertyOp59
 70
     1
102
RTVSPropertyOp60
 70
     1
102
RTVSPropertyOp61
 70
     1
102
RTVSPropertyOp62
 70
     1
  0
XRECORD
  5
C37A
102
{ACAD_REACTORS
330
C379
102
}
330
C379
100
AcDbXrecord
280
     1
102
RTVSPost2010Prop28
280
     0
102
RTVSPost2010PropOp28
 70
     1
102
RTVSPost2010Prop29
280
     1
102
RTVSPost2010PropOp29
 70
     1
102
RTVSPost2010Prop30
280
     1
102
RTVSPost2010PropOp30
 70
     1
102
RTVSPost2010Prop31
280
     0
102
RTVSPost2010PropOp31
 70
     1
102
RTVSPost2010Prop32
280
     0
102
RTVSPost2010PropOp32
 70
     1
102
RTVSPost2010Prop33
280
     0
102
RTVSPost2010PropOp33
 70
     1
102
RTVSPost2010Prop34
280
     0
102
RTVSPost2010PropOp34
 70
     1
102
RTVSPost2010Prop35
280
     0
102
RTVSPost2010PropOp35
 70
     1
102
RTVSPost2010Prop36
280
     0
102
RTVSPost2010PropOp36
 70
     1
102
RTVSPost2010Prop37
 90
       50
102
RTVSPost2010PropOp37
 70
     1
102
RTVSPost2010Prop38
140
0.0
102
RTVSPost2010PropOp38
 70
     1
102
RTVSPost2010Prop39
140
1.0
102
RTVSPost2010PropOp39
 70
     1
102
RTVSPost2010Prop40
 90
        0
102
RTVSPost2010PropOp40
 70
     1
102
RTVSPost2010Prop41ColorIndex
 90
       18
102
RTVSPost2010Prop41ColorRGB
 90
        0
102
RTVSPost2010PropOp41
 70
     1
102
RTVSPost2010Prop42
 90
       50
102
RTVSPost2010PropOp42
 70
     1
102
RTVSPost2010Prop43
 90
        3
102
RTVSPost2010PropOp43
 70
     1
102
RTVSPost2010Prop44ColorIndex
 90
        5
102
RTVSPost2010Prop44ColorRGB
 90
      255
102
RTVSPost2010PropOp44
 70
     1
102
RTVSPost2010Prop45
280
     0
102
RTVSPost2010PropOp45
 70
     1
102
RTVSPost2010Prop46
 90
       50
102
RTVSPost2010PropOp46
 70
     1
102
RTVSPost2010Prop47
 90
       50
102
RTVSPost2010PropOp47
 70
     1
102
RTVSPost2010Prop48
 90
       50
102
RTVSPost2010PropOp48
 70
     1
102
RTVSPost2010Prop49
280
     0
102
RTVSPost2010PropOp49
 70
     1
102
RTVSPost2010Prop50
 90
       50
102
RTVSPost2010PropOp50
 70
     1
102
RTVSPost2010Prop51ColorIndex
 90
      256
102
RTVSPost2010Prop51ColorRGB
 90
-16777216
102
RTVSPost2010PropOp51
 70
     0
102
RTVSPost2010Prop52
140
1.0
102
RTVSPost2010PropOp52
 70
     0
102
RTVSPost2010Prop53
 90
        2
102
RTVSPost2010PropOp53
 70
     1
102
RTVSPost2010Prop54
  1
strokes_ogs.tif
102
RTVSPost2010PropOp54
 70
     1
102
RTVSPost2010Prop55
280
     0
102
RTVSPost2010PropOp55
 70
     1
102
RTVSPost2010Prop56
140
1.0
102
RTVSPost2010PropOp56
 70
     1
102
RTVSPost2010Prop57
140
1.0
102
RTVSPost2010PropOp57
 70
     1
102
RTVSPropertyOp0
 70
     1
102
RTVSPropertyOp1
 70
     1
102
RTVSPropertyOp2
 70
     1
102
RTVSPropertyOp3
 70
     1
102
RTVSPropertyOp4
 70
     1
102
RTVSPropertyOp5
 70
     1
102
RTVSPropertyOp6
 70
     1
102
RTVSPropertyOp7
 70
     1
102
RTVSPropertyOp8
 70
     1
102
RTVSPropertyOp9
 70
     1
102
RTVSPropertyOp10
 70
     1
102
RTVSPropertyOp11
 70
     1
102
RTVSPropertyOp12
 70
     1
102
RTVSPropertyOp13
 70
     1
102
RTVSPropertyOp14
 70
     1
102
RTVSPropertyOp15
 70
     1
102
RTVSPropertyOp16
 70
     1
102
RTVSPropertyOp17
 70
     1
102
RTVSPropertyOp18
 70
     1
102
RTVSPropertyOp19
 70
     1
102
RTVSPropertyOp20
 70
     1
102
RTVSPropertyOp21
 70
     1
102
RTVSPropertyOp22
 70
     1
102
RTVSPropertyOp23
 70
     1
102
RTVSPropertyOp24
 70
     1
102
RTVSPropertyOp25
 70
     1
102
RTVSPropertyOp26
 70
     1
102
RTVSPropertyOp27
 70
     1
102
RTVSPropertyOp28
 70
     1
102
RTVSPropertyOp29
 70
     1
102
RTVSPropertyOp30
 70
     1
102
RTVSPropertyOp31
 70
     1
102
RTVSPropertyOp32
 70
     1
102
RTVSPropertyOp33
 70
     1
102
RTVSPropertyOp34
 70
     1
102
RTVSPropertyOp35
 70
     1
102
RTVSPropertyOp36
 70
     1
102
RTVSPropertyOp37
 70
     1
102
RTVSPropertyOp38
 70
     1
102
RTVSPropertyOp39
 70
     1
102
RTVSPropertyOp40
 70
     1
102
RTVSPropertyOp41
 70
     1
102
RTVSPropertyOp42
 70
     1
102
RTVSPropertyOp43
 70
     1
102
RTVSPropertyOp44
 70
     1
102
RTVSPropertyOp45
 70
     1
102
RTVSPropertyOp46
 70
     1
102
RTVSPropertyOp47
 70
     1
102
RTVSPropertyOp48
 70
     1
102
RTVSPropertyOp49
 70
     1
102
RTVSPropertyOp50
 70
     1
102
RTVSPropertyOp51
 70
     0
102
RTVSPropertyOp52
 70
     0
102
RTVSPropertyOp53
 70
     1
102
RTVSPropertyOp54
 70
     1
102
RTVSPropertyOp55
 70
     1
102
RTVSPropertyOp56
 70
     1
102
RTVSPropertyOp57
 70
     1
102
RTVSPropertyOp58
 70
     1
102
RTVSPropertyOp59
 70
     1
102
RTVSPropertyOp60
 70
     1
102
RTVSPropertyOp61
 70
     1
102
RTVSPropertyOp62
 70
     1
  0
XRECORD
  5
C378
102
{ACAD_REACTORS
330
C377
102
}
330
C377
100
AcDbXrecord
280
     1
102
RTVSPost2010Prop28
280
     0
102
RTVSPost2010PropOp28
 70
     1
102
RTVSPost2010Prop29
280
     1
102
RTVSPost2010PropOp29
 70
     1
102
RTVSPost2010Prop30
280
     1
102
RTVSPost2010PropOp30
 70
     1
102
RTVSPost2010Prop31
280
     0
102
RTVSPost2010PropOp31
 70
     1
102
RTVSPost2010Prop32
280
     0
102
RTVSPost2010PropOp32
 70
     1
102
RTVSPost2010Prop33
280
     0
102
RTVSPost2010PropOp33
 70
     1
102
RTVSPost2010Prop34
280
     0
102
RTVSPost2010PropOp34
 70
     1
102
RTVSPost2010Prop35
280
     0
102
RTVSPost2010PropOp35
 70
     1
102
RTVSPost2010Prop36
280
     0
102
RTVSPost2010PropOp36
 70
     1
102
RTVSPost2010Prop37
 90
       50
102
RTVSPost2010PropOp37
 70
     1
102
RTVSPost2010Prop38
140
0.0
102
RTVSPost2010PropOp38
 70
     1
102
RTVSPost2010Prop39
140
1.0
102
RTVSPost2010PropOp39
 70
     1
102
RTVSPost2010Prop40
 90
        0
102
RTVSPost2010PropOp40
 70
     1
102
RTVSPost2010Prop41ColorIndex
 90
       18
102
RTVSPost2010Prop41ColorRGB
 90
        0
102
RTVSPost2010PropOp41
 70
     1
102
RTVSPost2010Prop42
 90
       50
102
RTVSPost2010PropOp42
 70
     1
102
RTVSPost2010Prop43
 90
        3
102
RTVSPost2010PropOp43
 70
     1
102
RTVSPost2010Prop44ColorIndex
 90
        5
102
RTVSPost2010Prop44ColorRGB
 90
      255
102
RTVSPost2010PropOp44
 70
     1
102
RTVSPost2010Prop45
280
     0
102
RTVSPost2010PropOp45
 70
     1
102
RTVSPost2010Prop46
 90
       50
102
RTVSPost2010PropOp46
 70
     1
102
RTVSPost2010Prop47
 90
       50
102
RTVSPost2010PropOp47
 70
     1
102
RTVSPost2010Prop48
 90
       50
102
RTVSPost2010PropOp48
 70
     1
102
RTVSPost2010Prop49
280
     0
102
RTVSPost2010PropOp49
 70
     1
102
RTVSPost2010Prop50
 90
       50
102
RTVSPost2010PropOp50
 70
     1
102
RTVSPost2010Prop51ColorIndex
 90
      256
102
RTVSPost2010Prop51ColorRGB
 90
-16777216
102
RTVSPost2010PropOp51
 70
     0
102
RTVSPost2010Prop52
140
1.0
102
RTVSPost2010PropOp52
 70
     0
102
RTVSPost2010Prop53
 90
        2
102
RTVSPost2010PropOp53
 70
     1
102
RTVSPost2010Prop54
  1
strokes_ogs.tif
102
RTVSPost2010PropOp54
 70
     1
102
RTVSPost2010Prop55
280
     0
102
RTVSPost2010PropOp55
 70
     1
102
RTVSPost2010Prop56
140
1.0
102
RTVSPost2010PropOp56
 70
     1
102
RTVSPost2010Prop57
140
1.0
102
RTVSPost2010PropOp57
 70
     1
102
RTVSPropertyOp0
 70
     1
102
RTVSPropertyOp1
 70
     1
102
RTVSPropertyOp2
 70
     1
102
RTVSPropertyOp3
 70
     1
102
RTVSPropertyOp4
 70
     1
102
RTVSPropertyOp5
 70
     1
102
RTVSPropertyOp6
 70
     1
102
RTVSPropertyOp7
 70
     1
102
RTVSPropertyOp8
 70
     1
102
RTVSPropertyOp9
 70
     1
102
RTVSPropertyOp10
 70
     1
102
RTVSPropertyOp11
 70
     1
102
RTVSPropertyOp12
 70
     1
102
RTVSPropertyOp13
 70
     1
102
RTVSPropertyOp14
 70
     1
102
RTVSPropertyOp15
 70
     1
102
RTVSPropertyOp16
 70
     1
102
RTVSPropertyOp17
 70
     1
102
RTVSPropertyOp18
 70
     1
102
RTVSPropertyOp19
 70
     1
102
RTVSPropertyOp20
 70
     1
102
RTVSPropertyOp21
 70
     1
102
RTVSPropertyOp22
 70
     1
102
RTVSPropertyOp23
 70
     1
102
RTVSPropertyOp24
 70
     1
102
RTVSPropertyOp25
 70
     1
102
RTVSPropertyOp26
 70
     1
102
RTVSPropertyOp27
 70
     1
102
RTVSPropertyOp28
 70
     1
102
RTVSPropertyOp29
 70
     1
102
RTVSPropertyOp30
 70
     1
102
RTVSPropertyOp31
 70
     1
102
RTVSPropertyOp32
 70
     1
102
RTVSPropertyOp33
 70
     1
102
RTVSPropertyOp34
 70
     1
102
RTVSPropertyOp35
 70
     1
102
RTVSPropertyOp36
 70
     1
102
RTVSPropertyOp37
 70
     1
102
RTVSPropertyOp38
 70
     1
102
RTVSPropertyOp39
 70
     1
102
RTVSPropertyOp40
 70
     1
102
RTVSPropertyOp41
 70
     1
102
RTVSPropertyOp42
 70
     1
102
RTVSPropertyOp43
 70
     1
102
RTVSPropertyOp44
 70
     1
102
RTVSPropertyOp45
 70
     1
102
RTVSPropertyOp46
 70
     1
102
RTVSPropertyOp47
 70
     1
102
RTVSPropertyOp48
 70
     1
102
RTVSPropertyOp49
 70
     1
102
RTVSPropertyOp50
 70
     1
102
RTVSPropertyOp51
 70
     0
102
RTVSPropertyOp52
 70
     0
102
RTVSPropertyOp53
 70
     1
102
RTVSPropertyOp54
 70
     1
102
RTVSPropertyOp55
 70
     1
102
RTVSPropertyOp56
 70
     1
102
RTVSPropertyOp57
 70
     1
102
RTVSPropertyOp58
 70
     1
102
RTVSPropertyOp59
 70
     1
102
RTVSPropertyOp60
 70
     1
102
RTVSPropertyOp61
 70
     1
102
RTVSPropertyOp62
 70
     1
  0
XRECORD
  5
C372
102
{ACAD_REACTORS
330
C371
102
}
330
C371
100
AcDbXrecord
280
     1
102
RTVSPost2010Prop28
280
     0
102
RTVSPost2010PropOp28
 70
     1
102
RTVSPost2010Prop29
280
     1
102
RTVSPost2010PropOp29
 70
     1
102
RTVSPost2010Prop30
280
     1
102
RTVSPost2010PropOp30
 70
     1
102
RTVSPost2010Prop31
280
     0
102
RTVSPost2010PropOp31
 70
     1
102
RTVSPost2010Prop32
280
     0
102
RTVSPost2010PropOp32
 70
     1
102
RTVSPost2010Prop33
280
     0
102
RTVSPost2010PropOp33
 70
     1
102
RTVSPost2010Prop34
280
     0
102
RTVSPost2010PropOp34
 70
     1
102
RTVSPost2010Prop35
280
     0
102
RTVSPost2010PropOp35
 70
     1
102
RTVSPost2010Prop36
280
     0
102
RTVSPost2010PropOp36
 70
     1
102
RTVSPost2010Prop37
 90
       50
102
RTVSPost2010PropOp37
 70
     1
102
RTVSPost2010Prop38
140
0.0
102
RTVSPost2010PropOp38
 70
     1
102
RTVSPost2010Prop39
140
1.0
102
RTVSPost2010PropOp39
 70
     1
102
RTVSPost2010Prop40
 90
        0
102
RTVSPost2010PropOp40
 70
     1
102
RTVSPost2010Prop41ColorIndex
 90
       18
102
RTVSPost2010Prop41ColorRGB
 90
        0
102
RTVSPost2010PropOp41
 70
     1
102
RTVSPost2010Prop42
 90
       50
102
RTVSPost2010PropOp42
 70
     1
102
RTVSPost2010Prop43
 90
        3
102
RTVSPost2010PropOp43
 70
     1
102
RTVSPost2010Prop44ColorIndex
 90
        5
102
RTVSPost2010Prop44ColorRGB
 90
      255
102
RTVSPost2010PropOp44
 70
     1
102
RTVSPost2010Prop45
280
     0
102
RTVSPost2010PropOp45
 70
     1
102
RTVSPost2010Prop46
 90
       50
102
RTVSPost2010PropOp46
 70
     1
102
RTVSPost2010Prop47
 90
       50
102
RTVSPost2010PropOp47
 70
     1
102
RTVSPost2010Prop48
 90
       50
102
RTVSPost2010PropOp48
 70
     1
102
RTVSPost2010Prop49
280
     0
102
RTVSPost2010PropOp49
 70
     1
102
RTVSPost2010Prop50
 90
       50
102
RTVSPost2010PropOp50
 70
     1
102
RTVSPost2010Prop51ColorIndex
 90
      256
102
RTVSPost2010Prop51ColorRGB
 90
-16777216
102
RTVSPost2010PropOp51
 70
     0
102
RTVSPost2010Prop52
140
1.0
102
RTVSPost2010PropOp52
 70
     0
102
RTVSPost2010Prop53
 90
        2
102
RTVSPost2010PropOp53
 70
     1
102
RTVSPost2010Prop54
  1
strokes_ogs.tif
102
RTVSPost2010PropOp54
 70
     1
102
RTVSPost2010Prop55
280
     0
102
RTVSPost2010PropOp55
 70
     1
102
RTVSPost2010Prop56
140
1.0
102
RTVSPost2010PropOp56
 70
     1
102
RTVSPost2010Prop57
140
1.0
102
RTVSPost2010PropOp57
 70
     1
102
RTVSPropertyOp0
 70
     1
102
RTVSPropertyOp1
 70
     1
102
RTVSPropertyOp2
 70
     1
102
RTVSPropertyOp3
 70
     1
102
RTVSPropertyOp4
 70
     1
102
RTVSPropertyOp5
 70
     1
102
RTVSPropertyOp6
 70
     1
102
RTVSPropertyOp7
 70
     1
102
RTVSPropertyOp8
 70
     1
102
RTVSPropertyOp9
 70
     1
102
RTVSPropertyOp10
 70
     1
102
RTVSPropertyOp11
 70
     1
102
RTVSPropertyOp12
 70
     1
102
RTVSPropertyOp13
 70
     1
102
RTVSPropertyOp14
 70
     1
102
RTVSPropertyOp15
 70
     1
102
RTVSPropertyOp16
 70
     1
102
RTVSPropertyOp17
 70
     1
102
RTVSPropertyOp18
 70
     1
102
RTVSPropertyOp19
 70
     1
102
RTVSPropertyOp20
 70
     1
102
RTVSPropertyOp21
 70
     1
102
RTVSPropertyOp22
 70
     1
102
RTVSPropertyOp23
 70
     1
102
RTVSPropertyOp24
 70
     1
102
RTVSPropertyOp25
 70
     1
102
RTVSPropertyOp26
 70
     1
102
RTVSPropertyOp27
 70
     1
102
RTVSPropertyOp28
 70
     1
102
RTVSPropertyOp29
 70
     1
102
RTVSPropertyOp30
 70
     1
102
RTVSPropertyOp31
 70
     1
102
RTVSPropertyOp32
 70
     1
102
RTVSPropertyOp33
 70
     1
102
RTVSPropertyOp34
 70
     1
102
RTVSPropertyOp35
 70
     1
102
RTVSPropertyOp36
 70
     1
102
RTVSPropertyOp37
 70
     1
102
RTVSPropertyOp38
 70
     1
102
RTVSPropertyOp39
 70
     1
102
RTVSPropertyOp40
 70
     1
102
RTVSPropertyOp41
 70
     1
102
RTVSPropertyOp42
 70
     1
102
RTVSPropertyOp43
 70
     1
102
RTVSPropertyOp44
 70
     1
102
RTVSPropertyOp45
 70
     1
102
RTVSPropertyOp46
 70
     1
102
RTVSPropertyOp47
 70
     1
102
RTVSPropertyOp48
 70
     1
102
RTVSPropertyOp49
 70
     1
102
RTVSPropertyOp50
 70
     1
102
RTVSPropertyOp51
 70
     0
102
RTVSPropertyOp52
 70
     0
102
RTVSPropertyOp53
 70
     1
102
RTVSPropertyOp54
 70
     1
102
RTVSPropertyOp55
 70
     1
102
RTVSPropertyOp56
 70
     1
102
RTVSPropertyOp57
 70
     1
102
RTVSPropertyOp58
 70
     1
102
RTVSPropertyOp59
 70
     1
102
RTVSPropertyOp60
 70
     1
102
RTVSPropertyOp61
 70
     1
102
RTVSPropertyOp62
 70
     1
  0
XRECORD
  5
C374
102
{ACAD_REACTORS
330
C373
102
}
330
C373
100
AcDbXrecord
280
     1
102
RTVSPost2010Prop28
280
     0
102
RTVSPost2010PropOp28
 70
     1
102
RTVSPost2010Prop29
280
     1
102
RTVSPost2010PropOp29
 70
     1
102
RTVSPost2010Prop30
280
     1
102
RTVSPost2010PropOp30
 70
     1
102
RTVSPost2010Prop31
280
     0
102
RTVSPost2010PropOp31
 70
     1
102
RTVSPost2010Prop32
280
     0
102
RTVSPost2010PropOp32
 70
     1
102
RTVSPost2010Prop33
280
     0
102
RTVSPost2010PropOp33
 70
     1
102
RTVSPost2010Prop34
280
     0
102
RTVSPost2010PropOp34
 70
     1
102
RTVSPost2010Prop35
280
     0
102
RTVSPost2010PropOp35
 70
     1
102
RTVSPost2010Prop36
280
     0
102
RTVSPost2010PropOp36
 70
     1
102
RTVSPost2010Prop37
 90
       50
102
RTVSPost2010PropOp37
 70
     1
102
RTVSPost2010Prop38
140
0.0
102
RTVSPost2010PropOp38
 70
     1
102
RTVSPost2010Prop39
140
1.0
102
RTVSPost2010PropOp39
 70
     1
102
RTVSPost2010Prop40
 90
        0
102
RTVSPost2010PropOp40
 70
     1
102
RTVSPost2010Prop41ColorIndex
 90
       18
102
RTVSPost2010Prop41ColorRGB
 90
        0
102
RTVSPost2010PropOp41
 70
     1
102
RTVSPost2010Prop42
 90
       50
102
RTVSPost2010PropOp42
 70
     1
102
RTVSPost2010Prop43
 90
        3
102
RTVSPost2010PropOp43
 70
     1
102
RTVSPost2010Prop44ColorIndex
 90
        5
102
RTVSPost2010Prop44ColorRGB
 90
      255
102
RTVSPost2010PropOp44
 70
     1
102
RTVSPost2010Prop45
280
     0
102
RTVSPost2010PropOp45
 70
     1
102
RTVSPost2010Prop46
 90
       50
102
RTVSPost2010PropOp46
 70
     1
102
RTVSPost2010Prop47
 90
       50
102
RTVSPost2010PropOp47
 70
     1
102
RTVSPost2010Prop48
 90
       50
102
RTVSPost2010PropOp48
 70
     1
102
RTVSPost2010Prop49
280
     0
102
RTVSPost2010PropOp49
 70
     1
102
RTVSPost2010Prop50
 90
       50
102
RTVSPost2010PropOp50
 70
     1
102
RTVSPost2010Prop51ColorIndex
 90
      256
102
RTVSPost2010Prop51ColorRGB
 90
-16777216
102
RTVSPost2010PropOp51
 70
     0
102
RTVSPost2010Prop52
140
1.0
102
RTVSPost2010PropOp52
 70
     0
102
RTVSPost2010Prop53
 90
        2
102
RTVSPost2010PropOp53
 70
     1
102
RTVSPost2010Prop54
  1
strokes_ogs.tif
102
RTVSPost2010PropOp54
 70
     1
102
RTVSPost2010Prop55
280
     0
102
RTVSPost2010PropOp55
 70
     1
102
RTVSPost2010Prop56
140
1.0
102
RTVSPost2010PropOp56
 70
     1
102
RTVSPost2010Prop57
140
1.0
102
RTVSPost2010PropOp57
 70
     1
102
RTVSPropertyOp0
 70
     1
102
RTVSPropertyOp1
 70
     1
102
RTVSPropertyOp2
 70
     1
102
RTVSPropertyOp3
 70
     1
102
RTVSPropertyOp4
 70
     1
102
RTVSPropertyOp5
 70
     1
102
RTVSPropertyOp6
 70
     1
102
RTVSPropertyOp7
 70
     1
102
RTVSPropertyOp8
 70
     1
102
RTVSPropertyOp9
 70
     1
102
RTVSPropertyOp10
 70
     1
102
RTVSPropertyOp11
 70
     1
102
RTVSPropertyOp12
 70
     1
102
RTVSPropertyOp13
 70
     1
102
RTVSPropertyOp14
 70
     1
102
RTVSPropertyOp15
 70
     1
102
RTVSPropertyOp16
 70
     1
102
RTVSPropertyOp17
 70
     1
102
RTVSPropertyOp18
 70
     1
102
RTVSPropertyOp19
 70
     1
102
RTVSPropertyOp20
 70
     1
102
RTVSPropertyOp21
 70
     1
102
RTVSPropertyOp22
 70
     1
102
RTVSPropertyOp23
 70
     1
102
RTVSPropertyOp24
 70
     1
102
RTVSPropertyOp25
 70
     1
102
RTVSPropertyOp26
 70
     1
102
RTVSPropertyOp27
 70
     1
102
RTVSPropertyOp28
 70
     1
102
RTVSPropertyOp29
 70
     1
102
RTVSPropertyOp30
 70
     1
102
RTVSPropertyOp31
 70
     1
102
RTVSPropertyOp32
 70
     1
102
RTVSPropertyOp33
 70
     1
102
RTVSPropertyOp34
 70
     1
102
RTVSPropertyOp35
 70
     1
102
RTVSPropertyOp36
 70
     1
102
RTVSPropertyOp37
 70
     1
102
RTVSPropertyOp38
 70
     1
102
RTVSPropertyOp39
 70
     1
102
RTVSPropertyOp40
 70
     1
102
RTVSPropertyOp41
 70
     1
102
RTVSPropertyOp42
 70
     1
102
RTVSPropertyOp43
 70
     1
102
RTVSPropertyOp44
 70
     1
102
RTVSPropertyOp45
 70
     1
102
RTVSPropertyOp46
 70
     1
102
RTVSPropertyOp47
 70
     1
102
RTVSPropertyOp48
 70
     1
102
RTVSPropertyOp49
 70
     1
102
RTVSPropertyOp50
 70
     1
102
RTVSPropertyOp51
 70
     0
102
RTVSPropertyOp52
 70
     0
102
RTVSPropertyOp53
 70
     1
102
RTVSPropertyOp54
 70
     1
102
RTVSPropertyOp55
 70
     1
102
RTVSPropertyOp56
 70
     1
102
RTVSPropertyOp57
 70
     1
102
RTVSPropertyOp58
 70
     1
102
RTVSPropertyOp59
 70
     1
102
RTVSPropertyOp60
 70
     1
102
RTVSPropertyOp61
 70
     1
102
RTVSPropertyOp62
 70
     1
  0
XRECORD
  5
C36A
102
{ACAD_REACTORS
330
C369
102
}
330
C369
100
AcDbXrecord
280
     1
102
RTVSPost2010Prop28
280
     0
102
RTVSPost2010PropOp28
 70
     1
102
RTVSPost2010Prop29
280
     1
102
RTVSPost2010PropOp29
 70
     1
102
RTVSPost2010Prop30
280
     1
102
RTVSPost2010PropOp30
 70
     1
102
RTVSPost2010Prop31
280
     0
102
RTVSPost2010PropOp31
 70
     1
102
RTVSPost2010Prop32
280
     0
102
RTVSPost2010PropOp32
 70
     1
102
RTVSPost2010Prop33
280
     0
102
RTVSPost2010PropOp33
 70
     1
102
RTVSPost2010Prop34
280
     0
102
RTVSPost2010PropOp34
 70
     1
102
RTVSPost2010Prop35
280
     0
102
RTVSPost2010PropOp35
 70
     1
102
RTVSPost2010Prop36
280
     0
102
RTVSPost2010PropOp36
 70
     1
102
RTVSPost2010Prop37
 90
       50
102
RTVSPost2010PropOp37
 70
     1
102
RTVSPost2010Prop38
140
0.0
102
RTVSPost2010PropOp38
 70
     1
102
RTVSPost2010Prop39
140
1.0
102
RTVSPost2010PropOp39
 70
     1
102
RTVSPost2010Prop40
 90
        0
102
RTVSPost2010PropOp40
 70
     1
102
RTVSPost2010Prop41ColorIndex
 90
       18
102
RTVSPost2010Prop41ColorRGB
 90
        0
102
RTVSPost2010PropOp41
 70
     1
102
RTVSPost2010Prop42
 90
       50
102
RTVSPost2010PropOp42
 70
     1
102
RTVSPost2010Prop43
 90
        3
102
RTVSPost2010PropOp43
 70
     1
102
RTVSPost2010Prop44ColorIndex
 90
        5
102
RTVSPost2010Prop44ColorRGB
 90
      255
102
RTVSPost2010PropOp44
 70
     1
102
RTVSPost2010Prop45
280
     0
102
RTVSPost2010PropOp45
 70
     1
102
RTVSPost2010Prop46
 90
       50
102
RTVSPost2010PropOp46
 70
     1
102
RTVSPost2010Prop47
 90
       50
102
RTVSPost2010PropOp47
 70
     1
102
RTVSPost2010Prop48
 90
       50
102
RTVSPost2010PropOp48
 70
     1
102
RTVSPost2010Prop49
280
     0
102
RTVSPost2010PropOp49
 70
     1
102
RTVSPost2010Prop50
 90
       50
102
RTVSPost2010PropOp50
 70
     1
102
RTVSPost2010Prop51ColorIndex
 90
      256
102
RTVSPost2010Prop51ColorRGB
 90
-16777216
102
RTVSPost2010PropOp51
 70
     0
102
RTVSPost2010Prop52
140
1.0
102
RTVSPost2010PropOp52
 70
     0
102
RTVSPost2010Prop53
 90
        2
102
RTVSPost2010PropOp53
 70
     1
102
RTVSPost2010Prop54
  1
strokes_ogs.tif
102
RTVSPost2010PropOp54
 70
     1
102
RTVSPost2010Prop55
280
     0
102
RTVSPost2010PropOp55
 70
     1
102
RTVSPost2010Prop56
140
1.0
102
RTVSPost2010PropOp56
 70
     1
102
RTVSPost2010Prop57
140
1.0
102
RTVSPost2010PropOp57
 70
     1
102
RTVSPropertyOp0
 70
     1
102
RTVSPropertyOp1
 70
     1
102
RTVSPropertyOp2
 70
     1
102
RTVSPropertyOp3
 70
     1
102
RTVSPropertyOp4
 70
     1
102
RTVSPropertyOp5
 70
     1
102
RTVSPropertyOp6
 70
     1
102
RTVSPropertyOp7
 70
     1
102
RTVSPropertyOp8
 70
     1
102
RTVSPropertyOp9
 70
     1
102
RTVSPropertyOp10
 70
     1
102
RTVSPropertyOp11
 70
     1
102
RTVSPropertyOp12
 70
     1
102
RTVSPropertyOp13
 70
     1
102
RTVSPropertyOp14
 70
     1
102
RTVSPropertyOp15
 70
     1
102
RTVSPropertyOp16
 70
     1
102
RTVSPropertyOp17
 70
     1
102
RTVSPropertyOp18
 70
     1
102
RTVSPropertyOp19
 70
     1
102
RTVSPropertyOp20
 70
     1
102
RTVSPropertyOp21
 70
     1
102
RTVSPropertyOp22
 70
     1
102
RTVSPropertyOp23
 70
     1
102
RTVSPropertyOp24
 70
     1
102
RTVSPropertyOp25
 70
     1
102
RTVSPropertyOp26
 70
     1
102
RTVSPropertyOp27
 70
     1
102
RTVSPropertyOp28
 70
     1
102
RTVSPropertyOp29
 70
     1
102
RTVSPropertyOp30
 70
     1
102
RTVSPropertyOp31
 70
     1
102
RTVSPropertyOp32
 70
     1
102
RTVSPropertyOp33
 70
     1
102
RTVSPropertyOp34
 70
     1
102
RTVSPropertyOp35
 70
     1
102
RTVSPropertyOp36
 70
     1
102
RTVSPropertyOp37
 70
     1
102
RTVSPropertyOp38
 70
     1
102
RTVSPropertyOp39
 70
     1
102
RTVSPropertyOp40
 70
     1
102
RTVSPropertyOp41
 70
     1
102
RTVSPropertyOp42
 70
     1
102
RTVSPropertyOp43
 70
     1
102
RTVSPropertyOp44
 70
     1
102
RTVSPropertyOp45
 70
     1
102
RTVSPropertyOp46
 70
     1
102
RTVSPropertyOp47
 70
     1
102
RTVSPropertyOp48
 70
     1
102
RTVSPropertyOp49
 70
     1
102
RTVSPropertyOp50
 70
     1
102
RTVSPropertyOp51
 70
     0
102
RTVSPropertyOp52
 70
     0
102
RTVSPropertyOp53
 70
     1
102
RTVSPropertyOp54
 70
     1
102
RTVSPropertyOp55
 70
     1
102
RTVSPropertyOp56
 70
     1
102
RTVSPropertyOp57
 70
     1
102
RTVSPropertyOp58
 70
     1
102
RTVSPropertyOp59
 70
     1
102
RTVSPropertyOp60
 70
     1
102
RTVSPropertyOp61
 70
     1
102
RTVSPropertyOp62
 70
     1
  0
XRECORD
  5
C35E
102
{ACAD_REACTORS
330
C35D
102
}
330
C35D
100
AcDbXrecord
280
     1
102
RTVSPost2010Prop28
280
     0
102
RTVSPost2010PropOp28
 70
     1
102
RTVSPost2010Prop29
280
     1
102
RTVSPost2010PropOp29
 70
     1
102
RTVSPost2010Prop30
280
     1
102
RTVSPost2010PropOp30
 70
     1
102
RTVSPost2010Prop31
280
     0
102
RTVSPost2010PropOp31
 70
     1
102
RTVSPost2010Prop32
280
     0
102
RTVSPost2010PropOp32
 70
     1
102
RTVSPost2010Prop33
280
     0
102
RTVSPost2010PropOp33
 70
     1
102
RTVSPost2010Prop34
280
     0
102
RTVSPost2010PropOp34
 70
     1
102
RTVSPost2010Prop35
280
     0
102
RTVSPost2010PropOp35
 70
     1
102
RTVSPost2010Prop36
280
     0
102
RTVSPost2010PropOp36
 70
     1
102
RTVSPost2010Prop37
 90
       50
102
RTVSPost2010PropOp37
 70
     1
102
RTVSPost2010Prop38
140
0.0
102
RTVSPost2010PropOp38
 70
     1
102
RTVSPost2010Prop39
140
1.0
102
RTVSPost2010PropOp39
 70
     1
102
RTVSPost2010Prop40
 90
        0
102
RTVSPost2010PropOp40
 70
     1
102
RTVSPost2010Prop41ColorIndex
 90
       18
102
RTVSPost2010Prop41ColorRGB
 90
        0
102
RTVSPost2010PropOp41
 70
     1
102
RTVSPost2010Prop42
 90
       50
102
RTVSPost2010PropOp42
 70
     1
102
RTVSPost2010Prop43
 90
        3
102
RTVSPost2010PropOp43
 70
     1
102
RTVSPost2010Prop44ColorIndex
 90
        5
102
RTVSPost2010Prop44ColorRGB
 90
      255
102
RTVSPost2010PropOp44
 70
     1
102
RTVSPost2010Prop45
280
     0
102
RTVSPost2010PropOp45
 70
     1
102
RTVSPost2010Prop46
 90
       50
102
RTVSPost2010PropOp46
 70
     1
102
RTVSPost2010Prop47
 90
       50
102
RTVSPost2010PropOp47
 70
     1
102
RTVSPost2010Prop48
 90
       50
102
RTVSPost2010PropOp48
 70
     1
102
RTVSPost2010Prop49
280
     0
102
RTVSPost2010PropOp49
 70
     1
102
RTVSPost2010Prop50
 90
       50
102
RTVSPost2010PropOp50
 70
     1
102
RTVSPost2010Prop51ColorIndex
 90
      256
102
RTVSPost2010Prop51ColorRGB
 90
-16777216
102
RTVSPost2010PropOp51
 70
     0
102
RTVSPost2010Prop52
140
1.0
102
RTVSPost2010PropOp52
 70
     0
102
RTVSPost2010Prop53
 90
        2
102
RTVSPost2010PropOp53
 70
     1
102
RTVSPost2010Prop54
  1
strokes_ogs.tif
102
RTVSPost2010PropOp54
 70
     1
102
RTVSPost2010Prop55
280
     0
102
RTVSPost2010PropOp55
 70
     1
102
RTVSPost2010Prop56
140
1.0
102
RTVSPost2010PropOp56
 70
     1
102
RTVSPost2010Prop57
140
1.0
102
RTVSPost2010PropOp57
 70
     1
102
RTVSPropertyOp0
 70
     1
102
RTVSPropertyOp1
 70
     1
102
RTVSPropertyOp2
 70
     1
102
RTVSPropertyOp3
 70
     1
102
RTVSPropertyOp4
 70
     1
102
RTVSPropertyOp5
 70
     1
102
RTVSPropertyOp6
 70
     1
102
RTVSPropertyOp7
 70
     1
102
RTVSPropertyOp8
 70
     1
102
RTVSPropertyOp9
 70
     1
102
RTVSPropertyOp10
 70
     1
102
RTVSPropertyOp11
 70
     1
102
RTVSPropertyOp12
 70
     1
102
RTVSPropertyOp13
 70
     1
102
RTVSPropertyOp14
 70
     1
102
RTVSPropertyOp15
 70
     1
102
RTVSPropertyOp16
 70
     1
102
RTVSPropertyOp17
 70
     1
102
RTVSPropertyOp18
 70
     1
102
RTVSPropertyOp19
 70
     1
102
RTVSPropertyOp20
 70
     1
102
RTVSPropertyOp21
 70
     1
102
RTVSPropertyOp22
 70
     1
102
RTVSPropertyOp23
 70
     1
102
RTVSPropertyOp24
 70
     1
102
RTVSPropertyOp25
 70
     1
102
RTVSPropertyOp26
 70
     1
102
RTVSPropertyOp27
 70
     1
102
RTVSPropertyOp28
 70
     1
102
RTVSPropertyOp29
 70
     1
102
RTVSPropertyOp30
 70
     1
102
RTVSPropertyOp31
 70
     1
102
RTVSPropertyOp32
 70
     1
102
RTVSPropertyOp33
 70
     1
102
RTVSPropertyOp34
 70
     1
102
RTVSPropertyOp35
 70
     1
102
RTVSPropertyOp36
 70
     1
102
RTVSPropertyOp37
 70
     1
102
RTVSPropertyOp38
 70
     1
102
RTVSPropertyOp39
 70
     1
102
RTVSPropertyOp40
 70
     1
102
RTVSPropertyOp41
 70
     1
102
RTVSPropertyOp42
 70
     1
102
RTVSPropertyOp43
 70
     1
102
RTVSPropertyOp44
 70
     1
102
RTVSPropertyOp45
 70
     1
102
RTVSPropertyOp46
 70
     1
102
RTVSPropertyOp47
 70
     1
102
RTVSPropertyOp48
 70
     1
102
RTVSPropertyOp49
 70
     1
102
RTVSPropertyOp50
 70
     1
102
RTVSPropertyOp51
 70
     0
102
RTVSPropertyOp52
 70
     0
102
RTVSPropertyOp53
 70
     1
102
RTVSPropertyOp54
 70
     1
102
RTVSPropertyOp55
 70
     1
102
RTVSPropertyOp56
 70
     1
102
RTVSPropertyOp57
 70
     1
102
RTVSPropertyOp58
 70
     1
102
RTVSPropertyOp59
 70
     1
102
RTVSPropertyOp60
 70
     1
102
RTVSPropertyOp61
 70
     1
102
RTVSPropertyOp62
 70
     1
  0
XRECORD
  5
C376
102
{ACAD_REACTORS
330
C375
102
}
330
C375
100
AcDbXrecord
280
     1
102
RTVSPost2010Prop28
280
     0
102
RTVSPost2010PropOp28
 70
     1
102
RTVSPost2010Prop29
280
     1
102
RTVSPost2010PropOp29
 70
     1
102
RTVSPost2010Prop30
280
     1
102
RTVSPost2010PropOp30
 70
     1
102
RTVSPost2010Prop31
280
     0
102
RTVSPost2010PropOp31
 70
     1
102
RTVSPost2010Prop32
280
     0
102
RTVSPost2010PropOp32
 70
     1
102
RTVSPost2010Prop33
280
     0
102
RTVSPost2010PropOp33
 70
     1
102
RTVSPost2010Prop34
280
     0
102
RTVSPost2010PropOp34
 70
     1
102
RTVSPost2010Prop35
280
     0
102
RTVSPost2010PropOp35
 70
     1
102
RTVSPost2010Prop36
280
     0
102
RTVSPost2010PropOp36
 70
     1
102
RTVSPost2010Prop37
 90
       50
102
RTVSPost2010PropOp37
 70
     1
102
RTVSPost2010Prop38
140
0.0
102
RTVSPost2010PropOp38
 70
     1
102
RTVSPost2010Prop39
140
1.0
102
RTVSPost2010PropOp39
 70
     1
102
RTVSPost2010Prop40
 90
        0
102
RTVSPost2010PropOp40
 70
     1
102
RTVSPost2010Prop41ColorIndex
 90
       18
102
RTVSPost2010Prop41ColorRGB
 90
        0
102
RTVSPost2010PropOp41
 70
     1
102
RTVSPost2010Prop42
 90
       50
102
RTVSPost2010PropOp42
 70
     1
102
RTVSPost2010Prop43
 90
        3
102
RTVSPost2010PropOp43
 70
     1
102
RTVSPost2010Prop44ColorIndex
 90
        5
102
RTVSPost2010Prop44ColorRGB
 90
      255
102
RTVSPost2010PropOp44
 70
     1
102
RTVSPost2010Prop45
280
     0
102
RTVSPost2010PropOp45
 70
     1
102
RTVSPost2010Prop46
 90
       50
102
RTVSPost2010PropOp46
 70
     1
102
RTVSPost2010Prop47
 90
       50
102
RTVSPost2010PropOp47
 70
     1
102
RTVSPost2010Prop48
 90
       50
102
RTVSPost2010PropOp48
 70
     1
102
RTVSPost2010Prop49
280
     0
102
RTVSPost2010PropOp49
 70
     1
102
RTVSPost2010Prop50
 90
       50
102
RTVSPost2010PropOp50
 70
     1
102
RTVSPost2010Prop51ColorIndex
 90
      256
102
RTVSPost2010Prop51ColorRGB
 90
-16777216
102
RTVSPost2010PropOp51
 70
     0
102
RTVSPost2010Prop52
140
1.0
102
RTVSPost2010PropOp52
 70
     0
102
RTVSPost2010Prop53
 90
        2
102
RTVSPost2010PropOp53
 70
     1
102
RTVSPost2010Prop54
  1
strokes_ogs.tif
102
RTVSPost2010PropOp54
 70
     1
102
RTVSPost2010Prop55
280
     0
102
RTVSPost2010PropOp55
 70
     1
102
RTVSPost2010Prop56
140
1.0
102
RTVSPost2010PropOp56
 70
     1
102
RTVSPost2010Prop57
140
1.0
102
RTVSPost2010PropOp57
 70
     1
102
RTVSPropertyOp0
 70
     1
102
RTVSPropertyOp1
 70
     1
102
RTVSPropertyOp2
 70
     1
102
RTVSPropertyOp3
 70
     1
102
RTVSPropertyOp4
 70
     1
102
RTVSPropertyOp5
 70
     1
102
RTVSPropertyOp6
 70
     1
102
RTVSPropertyOp7
 70
     1
102
RTVSPropertyOp8
 70
     1
102
RTVSPropertyOp9
 70
     1
102
RTVSPropertyOp10
 70
     1
102
RTVSPropertyOp11
 70
     1
102
RTVSPropertyOp12
 70
     1
102
RTVSPropertyOp13
 70
     1
102
RTVSPropertyOp14
 70
     1
102
RTVSPropertyOp15
 70
     1
102
RTVSPropertyOp16
 70
     1
102
RTVSPropertyOp17
 70
     1
102
RTVSPropertyOp18
 70
     1
102
RTVSPropertyOp19
 70
     1
102
RTVSPropertyOp20
 70
     1
102
RTVSPropertyOp21
 70
     1
102
RTVSPropertyOp22
 70
     1
102
RTVSPropertyOp23
 70
     1
102
RTVSPropertyOp24
 70
     1
102
RTVSPropertyOp25
 70
     1
102
RTVSPropertyOp26
 70
     1
102
RTVSPropertyOp27
 70
     1
102
RTVSPropertyOp28
 70
     1
102
RTVSPropertyOp29
 70
     1
102
RTVSPropertyOp30
 70
     1
102
RTVSPropertyOp31
 70
     1
102
RTVSPropertyOp32
 70
     1
102
RTVSPropertyOp33
 70
     1
102
RTVSPropertyOp34
 70
     1
102
RTVSPropertyOp35
 70
     1
102
RTVSPropertyOp36
 70
     1
102
RTVSPropertyOp37
 70
     1
102
RTVSPropertyOp38
 70
     1
102
RTVSPropertyOp39
 70
     1
102
RTVSPropertyOp40
 70
     1
102
RTVSPropertyOp41
 70
     1
102
RTVSPropertyOp42
 70
     1
102
RTVSPropertyOp43
 70
     1
102
RTVSPropertyOp44
 70
     1
102
RTVSPropertyOp45
 70
     1
102
RTVSPropertyOp46
 70
     1
102
RTVSPropertyOp47
 70
     1
102
RTVSPropertyOp48
 70
     1
102
RTVSPropertyOp49
 70
     1
102
RTVSPropertyOp50
 70
     1
102
RTVSPropertyOp51
 70
     0
102
RTVSPropertyOp52
 70
     0
102
RTVSPropertyOp53
 70
     1
102
RTVSPropertyOp54
 70
     1
102
RTVSPropertyOp55
 70
     1
102
RTVSPropertyOp56
 70
     1
102
RTVSPropertyOp57
 70
     1
102
RTVSPropertyOp58
 70
     1
102
RTVSPropertyOp59
 70
     1
102
RTVSPropertyOp60
 70
     1
102
RTVSPropertyOp61
 70
     1
102
RTVSPropertyOp62
 70
     1
  0
ENDSEC
  0
EOF
